  0
SECTION
  2
HEADER
  9
$ACADVER
  1
AC1018
  9
$ACADMAINTVER
 70
     0
  9
$DWGCODEPAGE
  3
ANSI_932
  9
$INSBASE
 10
0.0
 20
0.0
 30
0.0
  9
$EXTMIN
 10
-2100.0
 20
-1485.0
 30
0.0
  9
$EXTMAX
 10
2100.0
 20
1485.0
 30
0.0
  9
$LIMMIN
 10
-2100.0
 20
-1485.0
  9
$LIMMAX
 10
2100.0
 20
1485.0
  9
$ORTHOMODE
 70
     0
  9
$REGENMODE
 70
     1
  9
$FILLMODE
 70
     1
  9
$QTEXTMODE
 70
     0
  9
$MIRRTEXT
 70
     1
  9
$LTSCALE
 40
10.0
  9
$ATTMODE
 70
     1
  9
$TEXTSIZE
 40
2.5
  9
$TRACEWID
 40
1.0
  9
$TEXTSTYLE
  7
Standard
  9
$CLAYER
  8
0
  9
$CELTYPE
  6
ByLayer
  9
$CECOLOR
 62
   256
  9
$CELTSCALE
 40
1.0
  9
$DISPSILH
 70
     0
  9
$DIMSCALE
 40
1.0
  9
$DIMASZ
 40
2.5
  9
$DIMEXO
 40
0.625
  9
$DIMDLI
 40
3.75
  9
$DIMRND
 40
0.0
  9
$DIMDLE
 40
0.0
  9
$DIMEXE
 40
1.25
  9
$DIMTP
 40
0.0
  9
$DIMTM
 40
0.0
  9
$DIMTXT
 40
2.5
  9
$DIMCEN
 40
2.5
  9
$DIMTSZ
 40
0.0
  9
$DIMTOL
 70
     0
  9
$DIMLIM
 70
     0
  9
$DIMTIH
 70
     0
  9
$DIMTOH
 70
     0
  9
$DIMSE1
 70
     0
  9
$DIMSE2
 70
     0
  9
$DIMTAD
 70
     1
  9
$DIMZIN
 70
     8
  9
$DIMBLK
  1

  9
$DIMASO
 70
     1
  9
$DIMSHO
 70
     1
  9
$DIMPOST
  1

  9
$DIMAPOST
  1

  9
$DIMALT
 70
     0
  9
$DIMALTD
 70
     3
  9
$DIMALTF
 40
0.03937007874016
  9
$DIMLFAC
 40
1.0
  9
$DIMTOFL
 70
     1
  9
$DIMTVP
 40
0.0
  9
$DIMTIX
 70
     0
  9
$DIMSOXD
 70
     0
  9
$DIMSAH
 70
     0
  9
$DIMBLK1
  1

  9
$DIMBLK2
  1

  9
$DIMSTYLE
  2
ISO-25
  9
$DIMCLRD
 70
     0
  9
$DIMCLRE
 70
     0
  9
$DIMCLRT
 70
     0
  9
$DIMTFAC
 40
1.0
  9
$DIMGAP
 40
0.625
  9
$DIMJUST
 70
     0
  9
$DIMSD1
 70
     0
  9
$DIMSD2
 70
     0
  9
$DIMTOLJ
 70
     0
  9
$DIMTZIN
 70
     8
  9
$DIMALTZ
 70
     0
  9
$DIMALTTZ
 70
     0
  9
$DIMUPT
 70
     0
  9
$DIMDEC
 70
     2
  9
$DIMTDEC
 70
     2
  9
$DIMALTU
 70
     2
  9
$DIMALTTD
 70
     3
  9
$DIMTXSTY
  7
Standard
  9
$DIMAUNIT
 70
     0
  9
$DIMADEC
 70
     0
  9
$DIMALTRND
 40
0.0
  9
$DIMAZIN
 70
     0
  9
$DIMDSEP
 70
    44
  9
$DIMATFIT
 70
     3
  9
$DIMFRAC
 70
     0
  9
$DIMLDRBLK
  1

  9
$DIMLUNIT
 70
     2
  9
$DIMLWD
 70
    -2
  9
$DIMLWE
 70
    -2
  9
$DIMTMOVE
 70
     0
  9
$LUNITS
 70
     2
  9
$LUPREC
 70
     4
  9
$SKETCHINC
 40
1.0
  9
$FILLETRAD
 40
10.0
  9
$AUNITS
 70
     0
  9
$AUPREC
 70
     0
  9
$MENU
  1
.
  9
$ELEVATION
 40
0.0
  9
$PELEVATION
 40
0.0
  9
$THICKNESS
 40
0.0
  9
$LIMCHECK
 70
     0
  9
$CHAMFERA
 40
10.0
  9
$CHAMFERB
 40
10.0
  9
$CHAMFERC
 40
20.0
  9
$CHAMFERD
 40
0.0
  9
$SKPOLY
 70
     0
  9
$TDCREATE
 40
2456499.582618901
  9
$TDUCREATE
 40
2456499.207618901
  9
$TDUPDATE
 40
2456499.582618912
  9
$TDUUPDATE
 40
2456499.207618912
  9
$TDINDWG
 40
0.0000000116
  9
$TDUSRTIMER
 40
0.0000000116
  9
$USRTIMER
 70
     1
  9
$ANGBASE
 50
0.0
  9
$ANGDIR
 70
     0
  9
$PDMODE
 70
     0
  9
$PDSIZE
 40
0.0
  9
$PLINEWID
 40
0.0
  9
$SPLFRAME
 70
     0
  9
$SPLINETYPE
 70
     6
  9
$SPLINESEGS
 70
     8
  9
$HANDSEED
  5
639
  9
$SURFTAB1
 70
     6
  9
$SURFTAB2
 70
     6
  9
$SURFTYPE
 70
     6
  9
$SURFU
 70
     6
  9
$SURFV
 70
     6
  9
$UCSBASE
  2

  9
$UCSNAME
  2

  9
$UCSORG
 10
0.0
 20
0.0
 30
0.0
  9
$UCSXDIR
 10
1.0
 20
0.0
 30
0.0
  9
$UCSYDIR
 10
0.0
 20
1.0
 30
0.0
  9
$UCSORTHOREF
  2

  9
$UCSORTHOVIEW
 70
     0
  9
$UCSORGTOP
 10
0.0
 20
0.0
 30
0.0
  9
$UCSORGBOTTOM
 10
0.0
 20
0.0
 30
0.0
  9
$UCSORGLEFT
 10
0.0
 20
0.0
 30
0.0
  9
$UCSORGRIGHT
 10
0.0
 20
0.0
 30
0.0
  9
$UCSORGFRONT
 10
0.0
 20
0.0
 30
0.0
  9
$UCSORGBACK
 10
0.0
 20
0.0
 30
0.0
  9
$PUCSBASE
  2

  9
$PUCSNAME
  2

  9
$PUCSORG
 10
0.0
 20
0.0
 30
0.0
  9
$PUCSXDIR
 10
1.0
 20
0.0
 30
0.0
  9
$PUCSYDIR
 10
0.0
 20
1.0
 30
0.0
  9
$PUCSORTHOREF
  2

  9
$PUCSORTHOVIEW
 70
     0
  9
$PUCSORGTOP
 10
0.0
 20
0.0
 30
0.0
  9
$PUCSORGBOTTOM
 10
0.0
 20
0.0
 30
0.0
  9
$PUCSORGLEFT
 10
0.0
 20
0.0
 30
0.0
  9
$PUCSORGRIGHT
 10
0.0
 20
0.0
 30
0.0
  9
$PUCSORGFRONT
 10
0.0
 20
0.0
 30
0.0
  9
$PUCSORGBACK
 10
0.0
 20
0.0
 30
0.0
  9
$USERI1
 70
     0
  9
$USERI2
 70
     0
  9
$USERI3
 70
     0
  9
$USERI4
 70
     0
  9
$USERI5
 70
     0
  9
$USERR1
 40
0.0
  9
$USERR2
 40
0.0
  9
$USERR3
 40
0.0
  9
$USERR4
 40
0.0
  9
$USERR5
 40
0.0
  9
$WORLDVIEW
 70
     1
  9
$SHADEDGE
 70
     3
  9
$SHADEDIF
 70
    70
  9
$TILEMODE
 70
     1
  9
$MAXACTVP
 70
    64
  9
$PINSBASE
 10
0.0
 20
0.0
 30
0.0
  9
$PLIMCHECK
 70
     0
  9
$PEXTMIN
 10
1.000000000000000E+20
 20
1.000000000000000E+20
 30
1.000000000000000E+20
  9
$PEXTMAX
 10
-1.000000000000000E+20
 20
-1.000000000000000E+20
 30
-1.000000000000000E+20
  9
$PLIMMIN
 10
0.0
 20
0.0
  9
$PLIMMAX
 10
420.0
 20
297.0
  9
$UNITMODE
 70
     0
  9
$VISRETAIN
 70
     1
  9
$PLINEGEN
 70
     0
  9
$PSLTSCALE
 70
     1
  9
$TREEDEPTH
 70
  3020
  9
$CMLSTYLE
  2
Standard
  9
$CMLJUST
 70
     0
  9
$CMLSCALE
 40
20.0
  9
$PROXYGRAPHICS
 70
     1
  9
$MEASUREMENT
 70
     1
  9
$CELWEIGHT
370
    -1
  9
$ENDCAPS
280
     0
  9
$JOINSTYLE
280
     0
  9
$LWDISPLAY
290
     0
  9
$INSUNITS
 70
     4
  9
$HYPERLINKBASE
  1

  9
$STYLESHEET
  1

  9
$XEDIT
290
     1
  9
$CEPSNTYPE
380
     0
  9
$PSTYLEMODE
290
     1
  9
$FINGERPRINTGUID
  2
{BC1AF96C-AF6F-4494-91F4-2BE01E2288AD}
  9
$VERSIONGUID
  2
{FAEB1C32-E019-11D5-929B-00C0DF256EC4}
  9
$EXTNAMES
290
     1
  9
$PSVPSCALE
 40
0.0
  9
$OLESTARTUP
290
     0
  9
$SORTENTS
280
   127
  9
$INDEXCTL
280
     0
  9
$HIDETEXT
280
     1
  9
$XCLIPFRAME
290
     0
  9
$HALOGAP
280
     0
  9
$OBSCOLOR
 70
   257
  9
$OBSLTYPE
280
     0
  9
$INTERSECTIONDISPLAY
280
     0
  9
$INTERSECTIONCOLOR
 70
   257
  9
$DIMASSOC
280
     2
  9
$PROJECTNAME
  1

  0
ENDSEC
  0
SECTION
  2
CLASSES
  0
CLASS
  1
ACDBDICTIONARYWDFLT
  2
AcDbDictionaryWithDefault
  3
ObjectDBX Classes
 90
        0
 91
        4
280
     0
281
     0
  0
CLASS
  1
VISUALSTYLE
  2
AcDbVisualStyle
  3
ObjectDBX Classes
 90
     4095
 91
        4
280
     0
281
     0
  0
ENDSEC
  0
SECTION
  2
TABLES
  0
TABLE
  2
VPORT
  5
8
330
0
100
AcDbSymbolTable
 70
     1
  0
VPORT
  5
29
330
8
100
AcDbSymbolTableRecord
100
AcDbViewportTableRecord
  2
*Active
 70
     0
 10
0.0
 20
0.0
 11
1.0
 21
1.0
 12
0.0
 22
0.0
 13
0.0
 23
0.0
 14
10.0
 24
10.0
 15
10.0
 25
10.0
 16
0.0
 26
0.0
 36
1.0
 17
0.0
 27
0.0
 37
0.0
 40
3267.0
 41
1.414141414141414
 42
50.0
 43
0.0
 44
0.0
 50
0.0
 51
0.0
 71
     0
 72
 10000
 73
     1
 74
     3
 75
     0
 76
     0
 77
     0
 78
     0
281
     0
 65
     1
110
0.0
120
0.0
130
0.0
111
1.0
121
0.0
131
0.0
112
0.0
122
1.0
132
0.0
 79
     0
146
0.0
  0
ENDTAB
  0
TABLE
  2
LTYPE
  5
5
330
0
100
AcDbSymbolTable
 70
     5
  0
LTYPE
  5
14
330
5
100
AcDbSymbolTableRecord
100
AcDbLinetypeTableRecord
  2
ByBlock
 70
     0
  3

 72
    65
 73
     0
 40
0.0
  0
LTYPE
  5
15
330
5
100
AcDbSymbolTableRecord
100
AcDbLinetypeTableRecord
  2
ByLayer
 70
     0
  3

 72
    65
 73
     0
 40
0.0
  0
LTYPE
  5
16
330
5
100
AcDbSymbolTableRecord
100
AcDbLinetypeTableRecord
  2
Continuous
 70
     0
  3
Solid line
 72
    65
 73
     0
 40
0.0
  0
LTYPE
  5
3C
330
5
100
AcDbSymbolTableRecord
100
AcDbLinetypeTableRecord
  2
JWW_CENTER2
 70
     0
  3
-------------  --  -------------
 72
    65
 73
     4
 40
13.54666666666667
 49
11.00666666666667
 74
     0
 49
-0.8466666666666667
 74
     0
 49
0.8466666666666667
 74
     0
 49
-0.8466666666666667
 74
     0
  0
LTYPE
  5
3D
330
5
100
AcDbSymbolTableRecord
100
AcDbLinetypeTableRecord
  2
JWW_CENTER1
 70
     0
  3
-----  --  ----------  --  -----
 72
    65
 73
     4
 40
6.773333333333333
 49
4.233333333333333
 74
     0
 49
-0.8466666666666667
 74
     0
 49
0.8466666666666667
 74
     0
 49
-0.8466666666666667
 74
     0
  0
LTYPE
  5
3E
330
5
100
AcDbSymbolTableRecord
100
AcDbLinetypeTableRecord
  2
JWW_DASHED1
 70
     0
  3
-  --  --  --  --  --  --  --  -
 72
    65
 73
     2
 40
1.693333333333333
 49
0.8466666666666667
 74
     0
 49
-0.8466666666666667
 74
     0
  0
LTYPE
  5
3F
330
5
100
AcDbSymbolTableRecord
100
AcDbLinetypeTableRecord
  2
JWW_DASHED3
 70
     0
  3
---  ------  ------  ------  ---
 72
    65
 73
     2
 40
3.386666666666667
 49
2.54
 74
     0
 49
-0.8466666666666667
 74
     0
  0
ENDTAB
  0
TABLE
  2
LAYER
  5
2
330
0
100
AcDbSymbolTable
 70
    19
  0
LAYER
  5
10
330
2
100
AcDbSymbolTableRecord
100
AcDbLayerTableRecord
  2
0
 70
     0
 62
     7
  6
Continuous
370
    -3
390
F
  0
LAYER
  5
40
330
2
100
AcDbSymbolTableRecord
100
AcDbLayerTableRecord
  2
2-4
 70
     0
 62
     7
  6
Continuous
370
    -3
390
F
  0
LAYER
  5
41
330
2
100
AcDbSymbolTableRecord
100
AcDbLayerTableRecord
  2
D-4
 70
     0
 62
     7
  6
Continuous
370
    -3
390
F
  0
LAYER
  5
42
330
2
100
AcDbSymbolTableRecord
100
AcDbLayerTableRecord
  2
1-4
 70
     0
 62
     7
  6
Continuous
370
    -3
390
F
  0
LAYER
  5
43
330
2
100
AcDbSymbolTableRecord
100
AcDbLayerTableRecord
  2
1-5
 70
     0
 62
     7
  6
Continuous
370
    -3
390
F
  0
LAYER
  5
44
330
2
100
AcDbSymbolTableRecord
100
AcDbLayerTableRecord
  2
1-9
 70
     0
 62
     7
  6
Continuous
370
    -3
390
F
  0
LAYER
  5
45
330
2
100
AcDbSymbolTableRecord
100
AcDbLayerTableRecord
  2
1-1
 70
     0
 62
     7
  6
Continuous
370
    -3
390
F
  0
LAYER
  5
46
330
2
100
AcDbSymbolTableRecord
100
AcDbLayerTableRecord
  2
D-2
 70
     0
 62
     7
  6
Continuous
370
    -3
390
F
  0
LAYER
  5
47
330
2
100
AcDbSymbolTableRecord
100
AcDbLayerTableRecord
  2
D-0
 70
     0
 62
     7
  6
Continuous
370
    -3
390
F
  0
LAYER
  5
48
330
2
100
AcDbSymbolTableRecord
100
AcDbLayerTableRecord
  2
D-A
 70
     0
 62
     7
  6
Continuous
370
    -3
390
F
  0
LAYER
  5
49
330
2
100
AcDbSymbolTableRecord
100
AcDbLayerTableRecord
  2
D-1
 70
     0
 62
     7
  6
Continuous
370
    -3
390
F
  0
LAYER
  5
4A
330
2
100
AcDbSymbolTableRecord
100
AcDbLayerTableRecord
  2
2-1
 70
     0
 62
     7
  6
Continuous
370
    -3
390
F
  0
LAYER
  5
4B
330
2
100
AcDbSymbolTableRecord
100
AcDbLayerTableRecord
  2
2-9
 70
     0
 62
     7
  6
Continuous
370
    -3
390
F
  0
LAYER
  5
4C
330
2
100
AcDbSymbolTableRecord
100
AcDbLayerTableRecord
  2
2-5
 70
     0
 62
     7
  6
Continuous
370
    -3
390
F
  0
LAYER
  5
4D
330
2
100
AcDbSymbolTableRecord
100
AcDbLayerTableRecord
  2
2-2
 70
     0
 62
     7
  6
Continuous
370
    -3
390
F
  0
LAYER
  5
4E
330
2
100
AcDbSymbolTableRecord
100
AcDbLayerTableRecord
  2
D-5
 70
     0
 62
     7
  6
Continuous
370
    -3
390
F
  0
LAYER
  5
4F
330
2
100
AcDbSymbolTableRecord
100
AcDbLayerTableRecord
  2
1-2
 70
     0
 62
     7
  6
Continuous
370
    -3
390
F
  0
LAYER
  5
50
330
2
100
AcDbSymbolTableRecord
100
AcDbLayerTableRecord
  2
2-0
 70
     0
 62
     7
  6
Continuous
370
    -3
390
F
  0
LAYER
  5
51
330
2
100
AcDbSymbolTableRecord
100
AcDbLayerTableRecord
  2
F-4
 70
     0
 62
     7
  6
Continuous
370
    -3
390
F
  0
ENDTAB
  0
TABLE
  2
STYLE
  5
3
330
0
100
AcDbSymbolTable
 70
     2
  0
STYLE
  5
11
330
3
100
AcDbSymbolTableRecord
100
AcDbTextStyleTableRecord
  2
Standard
 70
     0
 40
0.0
 41
1.0
 50
0.0
 71
     0
 42
2.5
  3
txt
  4

1001
ACAD
1000

1071
        0
  0
STYLE
  5
3B
330
3
100
AcDbSymbolTableRecord
100
AcDbTextStyleTableRecord
  2
ＭＳ ゴシック
 70
     0
 40
1.0
 41
1.0
 50
0.0
 71
     0
 42
10.0
  3

  4

1001
ACAD
1000
MS Gothic
1071
    32817
  0
ENDTAB
  0
TABLE
  2
VIEW
  5
6
330
0
100
AcDbSymbolTable
 70
     0
  0
ENDTAB
  0
TABLE
  2
UCS
  5
7
330
0
100
AcDbSymbolTable
 70
     0
  0
ENDTAB
  0
TABLE
  2
APPID
  5
9
330
0
100
AcDbSymbolTable
 70
     1
  0
APPID
  5
12
330
9
100
AcDbSymbolTableRecord
100
AcDbRegAppTableRecord
  2
ACAD
 70
     0
  0
ENDTAB
  0
TABLE
  2
DIMSTYLE
  5
A
330
0
100
AcDbSymbolTable
 70
     1
100
AcDbDimStyleTable
  0
DIMSTYLE
105
27
330
A
100
AcDbSymbolTableRecord
100
AcDbDimStyleTableRecord
  2
ISO-25
 70
     0
 41
2.5
 42
0.625
 43
3.75
 44
1.25
 73
     0
 74
     0
 77
     1
 78
     8
140
2.5
141
2.5
143
0.03937007874016
147
0.625
171
     3
172
     1
271
     2
272
     2
274
     3
278
    44
283
     0
284
     8
340
11
  0
ENDTAB
  0
TABLE
  2
BLOCK_RECORD
  5
1
330
0
100
AcDbSymbolTable
 70
     1
  0
BLOCK_RECORD
  5
1F
330
1
100
AcDbSymbolTableRecord
100
AcDbBlockTableRecord
  2
*Model_Space
340
22
  0
BLOCK_RECORD
  5
1B
330
1
100
AcDbSymbolTableRecord
100
AcDbBlockTableRecord
  2
*Paper_Space
340
1E
  0
BLOCK_RECORD
  5
23
330
1
100
AcDbSymbolTableRecord
100
AcDbBlockTableRecord
  2
*Paper_Space0
340
26
  0
ENDTAB
  0
ENDSEC
  0
SECTION
  2
BLOCKS
  0
BLOCK
  5
20
330
1F
100
AcDbEntity
  8
0
100
AcDbBlockBegin
  2
*Model_Space
 70
     0
 10
0.0
 20
0.0
 30
0.0
  3
*Model_Space
  1

  0
ENDBLK
  5
21
330
1F
100
AcDbEntity
  8
0
100
AcDbBlockEnd
  0
BLOCK
  5
1C
330
1B
100
AcDbEntity
 67
     1
  8
0
100
AcDbBlockBegin
  2
*Paper_Space
 70
     0
 10
0.0
 20
0.0
 30
0.0
  3
*Paper_Space
  1

  0
ENDBLK
  5
1D
330
1B
100
AcDbEntity
 67
     1
  8
0
100
AcDbBlockEnd
  0
BLOCK
  5
24
330
23
100
AcDbEntity
  8
0
100
AcDbBlockBegin
  2
*Paper_Space0
 70
     0
 10
0.0
 20
0.0
 30
0.0
  3
*Paper_Space0
  1

  0
ENDBLK
  5
25
330
23
100
AcDbEntity
  8
0
100
AcDbBlockEnd
  0
ENDSEC
  0
SECTION
  2
ENTITIES
  0
LWPOLYLINE
  5
52
330
1F
100
AcDbEntity
  8
2-4
  6
Continuous
 62
     7
370
     5
100
AcDbPolyline
 90
        4
 70
     1
 43
1.0
 10
311.4571302259292
 20
-481.2366052576013
 42
0.4142135623731
 10
310.9571302259292
 20
-480.7366052576014
 42
0.4142135623731
 10
310.4571302259292
 20
-481.2366052576013
 42
0.4142135623731
 10
310.9571302259292
 20
-481.7366052576012
 42
0.4142135623731
  0
LWPOLYLINE
  5
53
330
1F
100
AcDbEntity
  8
2-4
  6
Continuous
 62
     7
370
     5
100
AcDbPolyline
 90
        4
 70
     1
 43
1.0
 10
311.4571302259292
 20
-681.2365227776604
 42
0.4142135623731
 10
310.9571302259292
 20
-680.7365227776604
 42
0.4142135623731
 10
310.4571302259292
 20
-681.2365227776604
 42
0.4142135623731
 10
310.9571302259292
 20
-681.7365227776604
 42
0.4142135623731
  0
LWPOLYLINE
  5
54
330
1F
100
AcDbEntity
  8
2-4
  6
Continuous
 62
     7
370
     5
100
AcDbPolyline
 90
        4
 70
     1
 43
1.0
 10
231.1963121568836
 20
-481.2366052576013
 42
0.4142135623731
 10
230.6963121568836
 20
-480.7366052576014
 42
0.4142135623731
 10
230.1963121568836
 20
-481.2366052576013
 42
0.4142135623731
 10
230.6963121568836
 20
-481.7366052576012
 42
0.4142135623731
  0
LWPOLYLINE
  5
55
330
1F
100
AcDbEntity
  8
2-4
  6
Continuous
 62
     7
370
     5
100
AcDbPolyline
 90
        4
 70
     1
 43
1.0
 10
231.1963121568836
 20
-731.2364402977196
 42
0.4142135623731
 10
230.6963121568836
 20
-730.7364402977196
 42
0.4142135623731
 10
230.1963121568836
 20
-731.2364402977196
 42
0.4142135623731
 10
230.6963121568836
 20
-731.7364402977195
 42
0.4142135623731
  0
LWPOLYLINE
  5
56
330
1F
100
AcDbEntity
  8
2-4
  6
Continuous
 62
     7
370
     5
100
AcDbPolyline
 90
        4
 70
     1
 43
1.0
 10
1738.923610377956
 20
-756.2365227776604
 42
0.4142135623731
 10
1738.423610377956
 20
-755.7365227776604
 42
0.4142135623731
 10
1737.923610377956
 20
-756.2365227776604
 42
0.4142135623731
 10
1738.423610377956
 20
-756.7365227776604
 42
0.4142135623731
  0
LWPOLYLINE
  5
57
330
1F
100
AcDbEntity
  8
2-4
  6
Continuous
 62
     7
370
     5
100
AcDbPolyline
 90
        4
 70
     1
 43
1.0
 10
1738.923610377956
 20
-656.2364402977196
 42
0.4142135623731
 10
1738.423610377956
 20
-655.7364402977196
 42
0.4142135623731
 10
1737.923610377956
 20
-656.2364402977196
 42
0.4142135623731
 10
1738.423610377956
 20
-656.7364402977195
 42
0.4142135623731
  0
LWPOLYLINE
  5
58
330
1F
100
AcDbEntity
  8
2-4
  6
Continuous
 62
     7
370
     5
100
AcDbPolyline
 90
        4
 70
     1
 43
1.0
 10
1738.923610377956
 20
-481.2366052576013
 42
0.4142135623731
 10
1738.423610377956
 20
-480.7366052576014
 42
0.4142135623731
 10
1737.923610377956
 20
-481.2366052576013
 42
0.4142135623731
 10
1738.423610377956
 20
-481.7366052576012
 42
0.4142135623731
  0
LWPOLYLINE
  5
59
330
1F
100
AcDbEntity
  8
2-4
  6
Continuous
 62
     7
370
     5
100
AcDbPolyline
 90
        4
 70
     1
 43
1.0
 10
1251.672039959882
 20
-414.8395930109797
 42
0.4142135623731
 10
1251.172039959882
 20
-414.3395930109797
 42
0.4142135623731
 10
1250.672039959882
 20
-414.8395930109797
 42
0.4142135623731
 10
1251.172039959882
 20
-415.3395930109797
 42
0.4142135623731
  0
LWPOLYLINE
  5
5A
330
1F
100
AcDbEntity
  8
2-4
  6
Continuous
 62
     7
370
     5
100
AcDbPolyline
 90
        4
 70
     1
 43
1.0
 10
1271.672105943834
 20
-414.8395930109797
 42
0.4142135623731
 10
1271.172105943834
 20
-414.3395930109797
 42
0.4142135623731
 10
1270.672105943834
 20
-414.8395930109797
 42
0.4142135623731
 10
1271.172105943834
 20
-415.3395930109797
 42
0.4142135623731
  0
LWPOLYLINE
  5
5B
330
1F
100
AcDbEntity
  8
2-4
  6
Continuous
 62
     7
370
     5
100
AcDbPolyline
 90
        4
 70
     1
 43
1.0
 10
1351.672122439823
 20
-414.8395930109797
 42
0.4142135623731
 10
1351.172122439823
 20
-414.3395930109797
 42
0.4142135623731
 10
1350.672122439823
 20
-414.8395930109797
 42
0.4142135623731
 10
1351.172122439823
 20
-415.3395930109797
 42
0.4142135623731
  0
LWPOLYLINE
  5
5C
330
1F
100
AcDbEntity
  8
2-4
  6
Continuous
 62
     7
370
     5
100
AcDbPolyline
 90
        4
 70
     1
 43
1.0
 10
1351.672122439823
 20
-342.1407833614865
 42
0.4142135623731
 10
1351.172122439823
 20
-341.6407833614865
 42
0.4142135623731
 10
1350.672122439823
 20
-342.1407833614865
 42
0.4142135623731
 10
1351.172122439823
 20
-342.6407833614865
 42
0.4142135623731
  0
LWPOLYLINE
  5
5D
330
1F
100
AcDbEntity
  8
2-4
  6
Continuous
 62
     7
370
     5
100
AcDbPolyline
 90
        4
 70
     1
 43
1.0
 10
1641.672089447846
 20
-342.1407833614865
 42
0.4142135623731
 10
1641.172089447846
 20
-341.6407833614865
 42
0.4142135623731
 10
1640.672089447846
 20
-342.1407833614865
 42
0.4142135623731
 10
1641.172089447846
 20
-342.6407833614865
 42
0.4142135623731
  0
LWPOLYLINE
  5
5E
330
1F
100
AcDbEntity
  8
2-4
  6
Continuous
 62
     7
370
     5
100
AcDbPolyline
 90
        4
 70
     1
 43
1.0
 10
679.672330289274
 20
-414.8395930109797
 42
0.4142135623731
 10
679.172330289274
 20
-414.3395930109797
 42
0.4142135623731
 10
678.672330289274
 20
-414.8395930109797
 42
0.4142135623731
 10
679.172330289274
 20
-415.3395930109797
 42
0.4142135623731
  0
LWPOLYLINE
  5
5F
330
1F
100
AcDbEntity
  8
2-4
  6
Continuous
 62
     7
370
     5
100
AcDbPolyline
 90
        4
 70
     1
 43
1.0
 10
739.6727756809547
 20
-414.8395930109797
 42
0.4142135623731
 10
739.1727756809547
 20
-414.3395930109797
 42
0.4142135623731
 10
738.6727756809547
 20
-414.8395930109797
 42
0.4142135623731
 10
739.1727756809547
 20
-415.3395930109797
 42
0.4142135623731
  0
LWPOLYLINE
  5
60
330
1F
100
AcDbEntity
  8
2-4
  6
Continuous
 62
     7
370
     5
100
AcDbPolyline
 90
        4
 70
     1
 43
1.0
 10
809.6722643053214
 20
-414.8395930109797
 42
0.4142135623731
 10
809.1722643053214
 20
-414.3395930109797
 42
0.4142135623731
 10
808.6722643053214
 20
-414.8395930109797
 42
0.4142135623731
 10
809.1722643053214
 20
-415.3395930109797
 42
0.4142135623731
  0
LWPOLYLINE
  5
61
330
1F
100
AcDbEntity
  8
2-4
  6
Continuous
 62
     7
370
     5
100
AcDbPolyline
 90
        4
 70
     1
 43
1.0
 10
869.6729571368245
 20
-414.8395930109797
 42
0.4142135623731
 10
869.1729571368245
 20
-414.3395930109797
 42
0.4142135623731
 10
868.6729571368245
 20
-414.8395930109797
 42
0.4142135623731
 10
869.1729571368245
 20
-415.3395930109797
 42
0.4142135623731
  0
LWPOLYLINE
  5
62
330
1F
100
AcDbEntity
  8
2-4
  6
Continuous
 62
     7
370
     5
100
AcDbPolyline
 90
        4
 70
     1
 43
1.0
 10
939.6724457611912
 20
-414.8395930109797
 42
0.4142135623731
 10
939.1724457611912
 20
-414.3395930109797
 42
0.4142135623731
 10
938.6724457611912
 20
-414.8395930109797
 42
0.4142135623731
 10
939.1724457611912
 20
-415.3395930109797
 42
0.4142135623731
  0
LWPOLYLINE
  5
63
330
1F
100
AcDbEntity
  8
2-4
  6
Continuous
 62
     7
370
     5
100
AcDbPolyline
 90
        4
 70
     1
 43
1.0
 10
999.6728911528719
 20
-414.8395930109797
 42
0.4142135623731
 10
999.1728911528719
 20
-414.3395930109797
 42
0.4142135623731
 10
998.6728911528719
 20
-414.8395930109797
 42
0.4142135623731
 10
999.1728911528719
 20
-415.3395930109797
 42
0.4142135623731
  0
LWPOLYLINE
  5
64
330
1F
100
AcDbEntity
  8
2-4
  6
Continuous
 62
     7
370
     5
100
AcDbPolyline
 90
        4
 70
     1
 43
1.0
 10
699.6723962732266
 20
-794.3707110430744
 42
0.4142135623731
 10
699.1723962732266
 20
-793.8707110430744
 42
0.4142135623731
 10
698.6723962732266
 20
-794.3707110430744
 42
0.4142135623731
 10
699.1723962732266
 20
-794.8707110430744
 42
0.4142135623731
  0
LWPOLYLINE
  5
65
330
1F
100
AcDbEntity
  8
2-4
  6
Continuous
 62
     7
370
     5
100
AcDbPolyline
 90
        4
 70
     1
 43
1.0
 10
719.6724622571792
 20
-794.3707110430744
 42
0.4142135623731
 10
719.1724622571792
 20
-793.8707110430744
 42
0.4142135623731
 10
718.6724622571792
 20
-794.3707110430744
 42
0.4142135623731
 10
719.1724622571792
 20
-794.8707110430744
 42
0.4142135623731
  0
LWPOLYLINE
  5
66
330
1F
100
AcDbEntity
  8
D-4
  6
Continuous
 62
     7
370
     5
100
AcDbPolyline
 90
        4
 70
     1
 43
1.0
 10
703.5990188186234
 20
393.5133980415964
 42
0.4142135623731
 10
703.0990188186234
 20
394.0133980415964
 42
0.4142135623731
 10
702.5990188186234
 20
393.5133980415964
 42
0.4142135623731
 10
703.0990188186234
 20
393.0133980415964
 42
0.4142135623731
  0
LWPOLYLINE
  5
67
330
1F
100
AcDbEntity
  8
D-4
  6
Continuous
 62
     7
370
     5
100
AcDbPolyline
 90
        4
 70
     1
 43
1.0
 10
703.5990188186234
 20
433.513653729413
 42
0.4142135623731
 10
703.0990188186234
 20
434.013653729413
 42
0.4142135623731
 10
702.5990188186234
 20
433.513653729413
 42
0.4142135623731
 10
703.0990188186234
 20
433.013653729413
 42
0.4142135623731
  0
LWPOLYLINE
  5
68
330
1F
100
AcDbEntity
  8
D-4
  6
Continuous
 62
     7
370
     5
100
AcDbPolyline
 90
        4
 70
     1
 43
1.0
 10
703.5990188186234
 20
443.5134392815669
 42
0.4142135623731
 10
703.0990188186234
 20
444.0134392815669
 42
0.4142135623731
 10
702.5990188186234
 20
443.5134392815669
 42
0.4142135623731
 10
703.0990188186234
 20
443.013439281567
 42
0.4142135623731
  0
LWPOLYLINE
  5
69
330
1F
100
AcDbEntity
  8
D-4
  6
Continuous
 62
     7
370
     5
100
AcDbPolyline
 90
        4
 70
     1
 43
1.0
 10
1471.928371120144
 20
115.6638398041596
 42
0.4142135623731
 10
1471.428371120144
 20
116.1638398041596
 42
0.4142135623731
 10
1470.928371120144
 20
115.6638398041596
 42
0.4142135623731
 10
1471.428371120144
 20
115.1638398041596
 42
0.4142135623731
  0
LWPOLYLINE
  5
6A
330
1F
100
AcDbEntity
  8
D-4
  6
Continuous
 62
     7
370
     5
100
AcDbPolyline
 90
        4
 70
     1
 43
1.0
 10
1703.537983662374
 20
393.5133980415964
 42
0.4142135623731
 10
1703.037983662373
 20
394.0133980415964
 42
0.4142135623731
 10
1702.537983662373
 20
393.5133980415964
 42
0.4142135623731
 10
1703.037983662373
 20
393.0133980415964
 42
0.4142135623731
  0
LWPOLYLINE
  5
6B
330
1F
100
AcDbEntity
  8
1-4
  6
Continuous
 62
     7
370
     5
100
AcDbPolyline
 90
        4
 70
     1
 43
1.0
 10
-659.7948987806164
 20
-102.9275925095016
 42
0.4142135623731
 10
-660.2948987806164
 20
-102.4275925095016
 42
0.4142135623731
 10
-660.7948987806163
 20
-102.9275925095016
 42
0.4142135623731
 10
-660.2948987806164
 20
-103.4275925095016
 42
0.4142135623731
  0
LWPOLYLINE
  5
6C
330
1F
100
AcDbEntity
  8
1-4
  6
Continuous
 62
     7
370
     5
100
AcDbPolyline
 90
        4
 70
     1
 43
1.0
 10
-319.7950142525336
 20
-102.9275925095016
 42
0.4142135623731
 10
-320.2950142525336
 20
-102.4275925095016
 42
0.4142135623731
 10
-320.7950142525335
 20
-102.9275925095016
 42
0.4142135623731
 10
-320.2950142525336
 20
-103.4275925095016
 42
0.4142135623731
  0
LWPOLYLINE
  5
6D
330
1F
100
AcDbEntity
  8
1-4
  6
Continuous
 62
     7
370
     5
100
AcDbPolyline
 90
        4
 70
     1
 43
1.0
 10
-1623.794961465371
 20
-168.9774466849661
 42
0.4142135623731
 10
-1624.294961465372
 20
-168.4774466849661
 42
0.4142135623731
 10
-1624.794961465372
 20
-168.9774466849661
 42
0.4142135623731
 10
-1624.294961465372
 20
-169.4774466849661
 42
0.4142135623731
  0
LWPOLYLINE
  5
6E
330
1F
100
AcDbEntity
  8
1-4
  6
Continuous
 62
     7
370
     5
100
AcDbPolyline
 90
        4
 70
     1
 43
1.0
 10
-1563.795258393159
 20
-168.9774466849661
 42
0.4142135623731
 10
-1564.295258393159
 20
-168.4774466849661
 42
0.4142135623731
 10
-1564.795258393159
 20
-168.9774466849661
 42
0.4142135623731
 10
-1564.295258393159
 20
-169.4774466849661
 42
0.4142135623731
  0
LWPOLYLINE
  5
6F
330
1F
100
AcDbEntity
  8
1-4
  6
Continuous
 62
     7
370
     5
100
AcDbPolyline
 90
        4
 70
     1
 43
1.0
 10
-1267.795123126056
 20
-168.9774466849661
 42
0.4142135623731
 10
-1268.295123126056
 20
-168.4774466849661
 42
0.4142135623731
 10
-1268.795123126056
 20
-168.9774466849661
 42
0.4142135623731
 10
-1268.295123126056
 20
-169.4774466849661
 42
0.4142135623731
  0
LWPOLYLINE
  5
70
330
1F
100
AcDbEntity
  8
1-4
  6
Continuous
 62
     7
370
     5
100
AcDbPolyline
 90
        4
 70
     1
 43
1.0
 10
-319.7950142525336
 20
-168.9774466849661
 42
0.4142135623731
 10
-320.2950142525336
 20
-168.4774466849661
 42
0.4142135623731
 10
-320.7950142525335
 20
-168.9774466849661
 42
0.4142135623731
 10
-320.2950142525336
 20
-169.4774466849661
 42
0.4142135623731
  0
LWPOLYLINE
  5
71
330
1F
100
AcDbEntity
  8
1-4
  6
Continuous
 62
     7
370
     5
100
AcDbPolyline
 90
        4
 70
     1
 43
1.0
 10
-23.79537386507576
 20
-168.9774466849661
 42
0.4142135623731
 10
-24.29537386507576
 20
-168.4774466849661
 42
0.4142135623731
 10
-24.79537386507576
 20
-168.9774466849661
 42
0.4142135623731
 10
-24.29537386507576
 20
-169.4774466849661
 42
0.4142135623731
  0
LWPOLYLINE
  5
72
330
1F
100
AcDbEntity
  8
1-4
  6
Continuous
 62
     7
370
     5
100
AcDbPolyline
 90
        4
 70
     1
 43
1.0
 10
36.20457664695965
 20
-168.9774466849661
 42
0.4142135623731
 10
35.70457664695965
 20
-168.4774466849661
 42
0.4142135623731
 10
35.20457664695965
 20
-168.9774466849661
 42
0.4142135623731
 10
35.70457664695965
 20
-169.4774466849661
 42
0.4142135623731
  0
LWPOLYLINE
  5
73
330
1F
100
AcDbEntity
  8
1-4
  6
Continuous
 62
     7
370
     5
100
AcDbPolyline
 90
        4
 70
     1
 43
1.0
 10
-1643.795027449324
 20
-232.0894478462837
 42
0.4142135623731
 10
-1644.295027449324
 20
-231.5894478462837
 42
0.4142135623731
 10
-1644.795027449324
 20
-232.0894478462837
 42
0.4142135623731
 10
-1644.295027449324
 20
-232.5894478462837
 42
0.4142135623731
  0
LWPOLYLINE
  5
74
330
1F
100
AcDbEntity
  8
1-4
  6
Continuous
 62
     7
370
     5
100
AcDbPolyline
 90
        4
 70
     1
 43
1.0
 10
-1627.795073638091
 20
-232.0894478462837
 42
0.4142135623731
 10
-1628.295073638091
 20
-231.5894478462837
 42
0.4142135623731
 10
-1628.795073638091
 20
-232.0894478462837
 42
0.4142135623731
 10
-1628.295073638091
 20
-232.5894478462837
 42
0.4142135623731
  0
LWPOLYLINE
  5
75
330
1F
100
AcDbEntity
  8
1-4
  6
Continuous
 62
     7
370
     5
100
AcDbPolyline
 90
        4
 70
     1
 43
1.0
 10
-1623.794961465371
 20
-232.0894478462837
 42
0.4142135623731
 10
-1624.294961465372
 20
-231.5894478462837
 42
0.4142135623731
 10
-1624.794961465372
 20
-232.0894478462837
 42
0.4142135623731
 10
-1624.294961465372
 20
-232.5894478462837
 42
0.4142135623731
  0
LWPOLYLINE
  5
76
330
1F
100
AcDbEntity
  8
1-4
  6
Continuous
 62
     7
370
     5
100
AcDbPolyline
 90
        4
 70
     1
 43
1.0
 10
36.20457664695965
 20
-232.0894478462837
 42
0.4142135623731
 10
35.70457664695965
 20
-231.5894478462837
 42
0.4142135623731
 10
35.20457664695965
 20
-232.0894478462837
 42
0.4142135623731
 10
35.70457664695965
 20
-232.5894478462837
 42
0.4142135623731
  0
LWPOLYLINE
  5
77
330
1F
100
AcDbEntity
  8
1-4
  6
Continuous
 62
     7
370
     5
100
AcDbPolyline
 90
        4
 70
     1
 43
1.0
 10
40.20468881967918
 20
-232.0894478462837
 42
0.4142135623731
 10
39.70468881967918
 20
-231.5894478462837
 42
0.4142135623731
 10
39.20468881967918
 20
-232.0894478462837
 42
0.4142135623731
 10
39.70468881967918
 20
-232.5894478462837
 42
0.4142135623731
  0
LWPOLYLINE
  5
78
330
1F
100
AcDbEntity
  8
1-4
  6
Continuous
 62
     7
370
     5
100
AcDbPolyline
 90
        4
 70
     1
 43
1.0
 10
56.20464263091225
 20
-232.0894478462837
 42
0.4142135623731
 10
55.70464263091225
 20
-231.5894478462837
 42
0.4142135623731
 10
55.20464263091225
 20
-232.0894478462837
 42
0.4142135623731
 10
55.70464263091225
 20
-232.5894478462837
 42
0.4142135623731
  0
LWPOLYLINE
  5
79
330
1F
100
AcDbEntity
  8
1-4
  6
Continuous
 62
     7
370
     5
100
AcDbPolyline
 90
        4
 70
     1
 43
1.0
 10
-1643.795027449324
 20
-293.9305980785473
 42
0.4142135623731
 10
-1644.295027449324
 20
-293.4305980785472
 42
0.4142135623731
 10
-1644.795027449324
 20
-293.9305980785473
 42
0.4142135623731
 10
-1644.295027449324
 20
-294.4305980785473
 42
0.4142135623731
  0
LWPOLYLINE
  5
7A
330
1F
100
AcDbEntity
  8
1-4
  6
Continuous
 62
     7
370
     5
100
AcDbPolyline
 90
        4
 70
     1
 43
1.0
 10
56.20464263091225
 20
-293.9305980785473
 42
0.4142135623731
 10
55.70464263091225
 20
-293.4305980785472
 42
0.4142135623731
 10
55.20464263091225
 20
-293.9305980785473
 42
0.4142135623731
 10
55.70464263091225
 20
-294.4305980785473
 42
0.4142135623731
  0
LWPOLYLINE
  5
7B
330
1F
100
AcDbEntity
  8
1-4
  6
Continuous
 62
     7
370
     5
100
AcDbPolyline
 90
        4
 70
     1
 43
1.0
 10
224.3543536211995
 20
-9.375791807432279
 42
0.4142135623731
 10
223.8543536211995
 20
-8.875791807432279
 42
0.4142135623731
 10
223.3543536211995
 20
-9.375791807432279
 42
0.4142135623731
 10
223.8543536211995
 20
-9.875791807432279
 42
0.4142135623731
  0
LWPOLYLINE
  5
7C
330
1F
100
AcDbEntity
  8
1-4
  6
Continuous
 62
     7
370
     5
100
AcDbPolyline
 90
        4
 70
     1
 43
1.0
 10
224.3543536211995
 20
6.624162003800791
 42
0.4142135623731
 10
223.8543536211995
 20
7.124162003800791
 42
0.4142135623731
 10
223.3543536211995
 20
6.624162003800791
 42
0.4142135623731
 10
223.8543536211995
 20
6.124162003800791
 42
0.4142135623731
  0
LWPOLYLINE
  5
7D
330
1F
100
AcDbEntity
  8
1-4
  6
Continuous
 62
     7
370
     5
100
AcDbPolyline
 90
        4
 70
     1
 43
1.0
 10
224.3543536211995
 20
10.62427417652032
 42
0.4142135623731
 10
223.8543536211995
 20
11.12427417652032
 42
0.4142135623731
 10
223.3543536211995
 20
10.62427417652032
 42
0.4142135623731
 10
223.8543536211995
 20
10.12427417652032
 42
0.4142135623731
  0
LWPOLYLINE
  5
7E
330
1F
100
AcDbEntity
  8
1-4
  6
Continuous
 62
     7
370
     5
100
AcDbPolyline
 90
        4
 70
     1
 43
1.0
 10
224.3543536211995
 20
1170.624142208615
 42
0.4142135623731
 10
223.8543536211995
 20
1171.124142208615
 42
0.4142135623731
 10
223.3543536211995
 20
1170.624142208615
 42
0.4142135623731
 10
223.8543536211995
 20
1170.124142208615
 42
0.4142135623731
  0
LWPOLYLINE
  5
7F
330
1F
100
AcDbEntity
  8
1-4
  6
Continuous
 62
     7
370
     5
100
AcDbPolyline
 90
        4
 70
     1
 43
1.0
 10
224.3543536211995
 20
1174.624006941512
 42
0.4142135623731
 10
223.8543536211995
 20
1175.124006941512
 42
0.4142135623731
 10
223.3543536211995
 20
1174.624006941512
 42
0.4142135623731
 10
223.8543536211995
 20
1174.124006941512
 42
0.4142135623731
  0
LWPOLYLINE
  5
80
330
1F
100
AcDbEntity
  8
1-4
  6
Continuous
 62
     7
370
     5
100
AcDbPolyline
 90
        4
 70
     1
 43
1.0
 10
224.3543536211995
 20
1190.624208192568
 42
0.4142135623731
 10
223.8543536211995
 20
1191.124208192568
 42
0.4142135623731
 10
223.3543536211995
 20
1190.624208192568
 42
0.4142135623731
 10
223.8543536211995
 20
1190.124208192568
 42
0.4142135623731
  0
LWPOLYLINE
  5
81
330
1F
100
AcDbEntity
  8
1-4
  6
Continuous
 62
     7
370
     5
100
AcDbPolyline
 90
        4
 70
     1
 43
1.0
 10
292.0395375844597
 20
-9.375791807432279
 42
0.4142135623731
 10
291.5395375844597
 20
-8.875791807432279
 42
0.4142135623731
 10
291.0395375844597
 20
-9.375791807432279
 42
0.4142135623731
 10
291.5395375844597
 20
-9.875791807432279
 42
0.4142135623731
  0
LWPOLYLINE
  5
82
330
1F
100
AcDbEntity
  8
1-4
  6
Continuous
 62
     7
370
     5
100
AcDbPolyline
 90
        4
 70
     1
 43
1.0
 10
292.0395375844597
 20
1190.624208192568
 42
0.4142135623731
 10
291.5395375844597
 20
1191.124208192568
 42
0.4142135623731
 10
291.0395375844597
 20
1190.624208192568
 42
0.4142135623731
 10
291.5395375844597
 20
1190.124208192568
 42
0.4142135623731
  0
LWPOLYLINE
  5
83
330
1F
100
AcDbEntity
  8
2-4
  6
Continuous
 62
     7
370
     5
100
AcDbPolyline
 90
        4
 70
     1
 43
1.0
 10
-1568.255361196157
 20
-499.2685348923142
 42
0.4142135623731
 10
-1568.755361196157
 20
-498.7685348923142
 42
0.4142135623731
 10
-1569.255361196157
 20
-499.2685348923142
 42
0.4142135623731
 10
-1568.755361196157
 20
-499.7685348923142
 42
0.4142135623731
  0
LWPOLYLINE
  5
84
330
1F
100
AcDbEntity
  8
2-4
  6
Continuous
 62
     7
370
     5
100
AcDbPolyline
 90
        4
 70
     1
 43
1.0
 10
-1508.255163244299
 20
-499.2685348923142
 42
0.4142135623731
 10
-1508.755163244299
 20
-498.7685348923142
 42
0.4142135623731
 10
-1509.255163244299
 20
-499.2685348923142
 42
0.4142135623731
 10
-1508.755163244299
 20
-499.7685348923142
 42
0.4142135623731
  0
LINE
  5
85
330
1F
100
AcDbEntity
  8
1-5
  6
Continuous
 62
     7
370
     5
100
AcDbLine
 10
-471.7316498627534
 20
1242.850094357053
 30
0.0
 11
-411.7314519108953
 21
1242.850094357053
 31
0.0
  0
LINE
  5
86
330
1F
100
AcDbEntity
  8
1-5
  6
Continuous
 62
     7
370
     5
100
AcDbLine
 10
-452.4130331503378
 20
1248.02653544658
 30
0.0
 11
-471.7316498627534
 21
1242.850094357053
 31
0.0
  0
LINE
  5
87
330
1F
100
AcDbEntity
  8
1-5
  6
Continuous
 62
     7
370
     5
100
AcDbLine
 10
-471.7316498627534
 20
1010.624109216639
 30
0.0
 11
-471.7316498627534
 21
1252.850127349029
 31
0.0
  0
LINE
  5
88
330
1F
100
AcDbEntity
  8
1-9
  6
JWW_CENTER2
 62
    92
370
     5
100
AcDbLine
 10
-1344.295027449325
 20
-20.28986750422291
 30
0.0
 11
-1344.295027449325
 21
0.1402488914698097
 31
0.0
  0
LINE
  5
89
330
1F
100
AcDbEntity
  8
1-9
  6
Continuous
 62
    92
370
     5
100
AcDbLine
 10
-1354.2950604413
 20
-29.37585779138516
 30
0.0
 11
-1358.89521418391
 21
-29.37585779138516
 31
0.0
  0
LINE
  5
8A
330
1F
100
AcDbEntity
  8
1-9
  6
Continuous
 62
    92
370
     5
100
AcDbLine
 10
-1354.2950604413
 20
-9.375791807432279
 30
0.0
 11
-1354.2950604413
 21
-69.37574231946769
 31
0.0
  0
LINE
  5
8B
330
1F
100
AcDbEntity
  8
1-9
  6
Continuous
 62
    92
370
     5
100
AcDbLine
 10
-1354.2950604413
 20
-69.37574231946769
 30
0.0
 11
-1378.29499115815
 21
-69.37574231946769
 31
0.0
  0
LINE
  5
8C
330
1F
100
AcDbEntity
  8
1-9
  6
Continuous
 62
    92
370
     5
100
AcDbLine
 10
-1704.295225401182
 20
305.2241474873313
 30
0.0
 11
-1644.295027449324
 21
305.2241474873313
 31
0.0
  0
LINE
  5
8D
330
1F
100
AcDbEntity
  8
1-9
  6
JWW_CENTER2
 62
    92
370
     5
100
AcDbLine
 10
-1665.578316353463
 20
290.6242081925677
 30
0.0
 11
-1632.96178869299
 21
290.6242081925677
 31
0.0
  0
LINE
  5
8E
330
1F
100
AcDbEntity
  8
1-9
  6
Continuous
 62
    92
370
     5
100
AcDbLine
 10
-1654.2950604413
 20
324.6241719013938
 30
0.0
 11
-1654.2950604413
 21
305.2241474873313
 31
0.0
  0
LINE
  5
8F
330
1F
100
AcDbEntity
  8
1-9
  6
Continuous
 62
    92
370
     5
100
AcDbLine
 10
-1698.295057142103
 20
330.6242164405617
 30
0.0
 11
-1660.294981260557
 21
330.6242164405617
 31
0.0
  0
LINE
  5
90
330
1F
100
AcDbEntity
  8
1-9
  6
Continuous
 62
    92
370
     5
100
AcDbLine
 10
-1664.295093433277
 20
900.6239937447214
 30
0.0
 11
-1664.295093433277
 21
905.2241474873313
 31
0.0
  0
LINE
  5
91
330
1F
100
AcDbEntity
  8
1-9
  6
JWW_CENTER2
 62
    92
370
     5
100
AcDbLine
 10
-1664.740732553843
 20
890.623960752745
 30
0.0
 11
-1636.419512774493
 21
890.623960752745
 31
0.0
  0
LINE
  5
92
330
1F
100
AcDbEntity
  8
1-9
  6
Continuous
 62
    92
370
     5
100
AcDbLine
 10
-1644.295027449324
 20
900.6239937447214
 30
0.0
 11
-1704.295225401182
 21
900.6239937447214
 31
0.0
  0
LINE
  5
93
330
1F
100
AcDbEntity
  8
1-9
  6
Continuous
 62
    92
370
     5
100
AcDbLine
 10
-1704.295225401182
 20
900.6239937447214
 30
0.0
 11
-1704.295225401182
 21
924.623924461571
 31
0.0
  0
LINE
  5
94
330
1F
100
AcDbEntity
  8
1-9
  6
Continuous
 62
    92
370
     5
100
AcDbLine
 10
-1329.695088154561
 20
1250.624158704603
 30
0.0
 11
-1329.695088154561
 21
1190.624208192568
 31
0.0
  0
LINE
  5
95
330
1F
100
AcDbEntity
  8
1-9
  6
JWW_CENTER2
 62
    92
370
     5
100
AcDbLine
 10
-1344.295027449325
 20
1206.838692330025
 30
0.0
 11
-1344.295027449325
 21
1182.731372730152
 31
0.0
  0
LINE
  5
96
330
1F
100
AcDbEntity
  8
1-9
  6
Continuous
 62
    92
370
     5
100
AcDbLine
 10
-1310.295063740498
 20
1200.623993744721
 30
0.0
 11
-1329.695088154561
 21
1200.623993744721
 31
0.0
  0
LINE
  5
97
330
1F
100
AcDbEntity
  8
1-9
  6
Continuous
 62
    92
370
     5
100
AcDbLine
 10
-234.2950769372888
 20
1210.624026736698
 30
0.0
 11
-229.6951706345016
 21
1210.624026736698
 31
0.0
  0
LINE
  5
98
330
1F
100
AcDbEntity
  8
1-9
  6
Continuous
 62
    92
370
     5
100
AcDbLine
 10
-234.2950769372888
 20
1190.624208192568
 30
0.0
 11
-234.2950769372888
 21
1250.624158704603
 31
0.0
  0
LINE
  5
99
330
1F
100
AcDbEntity
  8
1-9
  6
JWW_CENTER2
 62
    92
370
     5
100
AcDbLine
 10
-244.2951099292651
 20
1214.133465741132
 30
0.0
 11
-244.2951099292651
 21
1179.764074377111
 31
0.0
  0
LINE
  5
9A
330
1F
100
AcDbEntity
  8
1-9
  6
Continuous
 62
    92
370
     5
100
AcDbLine
 10
-234.2950769372888
 20
1250.624158704603
 30
0.0
 11
-210.2951462204391
 21
1250.624158704603
 31
0.0
  0
LINE
  5
9B
330
1F
100
AcDbEntity
  8
1-9
  6
Continuous
 62
    92
370
     5
100
AcDbLine
 10
115.705088022593
 20
876.0242688978042
 30
0.0
 11
55.70464263091225
 21
876.0242688978042
 31
0.0
  0
LINE
  5
9C
330
1F
100
AcDbEntity
  8
1-9
  6
Continuous
 62
    92
370
     5
100
AcDbLine
 10
65.7049230627112
 20
856.623997043919
 30
0.0
 11
65.7049230627112
 21
876.0242688978042
 31
0.0
  0
LINE
  5
9D
330
1F
100
AcDbEntity
  8
1-1
  6
Continuous
 62
    40
370
     9
100
AcDbLine
 10
-1628.295073638091
 20
562.1228522223396
 30
0.0
 11
-1628.295073638091
 21
1174.624006941512
 31
0.0
  0
LINE
  5
9E
330
1F
100
AcDbEntity
  8
1-1
  6
Continuous
 62
    40
370
     9
100
AcDbLine
 10
-1644.295027449324
 20
561.1912412901182
 30
0.0
 11
-1644.295027449324
 21
1190.624208192568
 31
0.0
  0
LINE
  5
9F
330
1F
100
AcDbEntity
  8
1-1
  6
Continuous
 62
    40
370
     9
100
AcDbLine
 10
39.70468881967918
 20
643.2212540910052
 30
0.0
 11
39.70468881967918
 21
6.624162003800791
 31
0.0
  0
LINE
  5
A0
330
1F
100
AcDbEntity
  8
1-1
  6
Continuous
 62
    40
370
     9
100
AcDbLine
 10
55.70464263091225
 20
644.1528650232266
 30
0.0
 11
55.70464263091225
 21
-9.375791807432279
 31
0.0
  0
LINE
  5
A1
330
1F
100
AcDbEntity
  8
1-9
  6
Continuous
 62
    92
370
     5
100
AcDbLine
 10
109.7051672033362
 20
850.6240762246623
 30
0.0
 11
71.70484388196797
 21
850.6240762246623
 31
0.0
  0
LINE
  5
A2
330
1F
100
AcDbEntity
  8
1-9
  6
Continuous
 62
    92
370
     5
100
AcDbLine
 10
115.705088022593
 20
880.6239277607688
 30
0.0
 11
115.705088022593
 21
856.623997043919
 31
0.0
  0
LINE
  5
A3
330
1F
100
AcDbEntity
  8
1-9
  6
JWW_CENTER2
 62
    92
370
     5
100
AcDbLine
 10
72.38010715793934
 20
890.623960752745
 30
0.0
 11
46.49443755278725
 21
890.623960752745
 31
0.0
  0
LINE
  5
A4
330
1F
100
AcDbEntity
  8
1-1
  6
JWW_CENTER2
 62
    40
370
     9
100
AcDbLine
 10
-1681.315489073057
 20
559.0357929951438
 30
0.0
 11
-1486.794384105785
 21
570.3623508762669
 31
0.0
  0
LINE
  5
A5
330
1F
100
AcDbEntity
  8
1-1
  6
JWW_CENTER2
 62
    40
370
     9
100
AcDbLine
 10
-1680.385610219595
 20
543.0625626847552
 30
0.0
 11
-1485.863762932855
 21
554.3894917256125
 31
0.0
  0
LINE
  5
A6
330
1F
100
AcDbEntity
  8
1-9
  6
Continuous
 62
    92
370
     5
100
AcDbLine
 10
55.70464263091225
 20
880.6239277607688
 30
0.0
 11
115.705088022593
 21
880.6239277607688
 31
0.0
  0
LINE
  5
A7
330
1F
100
AcDbEntity
  8
1-9
  6
Continuous
 62
    92
370
     5
100
AcDbLine
 10
75.70470861486513
 20
880.6239277607688
 30
0.0
 11
75.70470861486513
 21
876.0242688978042
 31
0.0
  0
LINE
  5
A8
330
1F
100
AcDbEntity
  8
1-1
  6
JWW_CENTER2
 62
    40
370
     9
100
AcDbLine
 10
-104.8387682115708
 20
634.8048359638938
 30
0.0
 11
86.16102063978047
 21
645.926513671875
 31
0.0
  0
LINE
  5
A9
330
1F
100
AcDbEntity
  8
1-1
  6
JWW_CENTER2
 62
    40
370
     9
100
AcDbLine
 10
-105.7686470650336
 20
650.7778188344596
 30
0.0
 11
85.23114178631772
 21
661.8992491026182
 31
0.0
  0
LINE
  5
AA
330
1F
100
AcDbEntity
  8
1-9
  6
Continuous
 62
    92
370
     5
100
AcDbLine
 10
75.70470861486513
 20
280.6241752005914
 30
0.0
 11
75.70470861486513
 21
276.0242688978042
 31
0.0
  0
LINE
  5
AB
330
1F
100
AcDbEntity
  8
1-9
  6
JWW_CENTER2
 62
    92
370
     5
100
AcDbLine
 10
72.32715503589532
 20
290.6242081925677
 30
0.0
 11
42.73780616554063
 21
290.6242081925677
 31
0.0
  0
LINE
  5
AC
330
1F
100
AcDbEntity
  8
1-9
  6
Continuous
 62
    92
370
     5
100
AcDbLine
 10
55.70464263091225
 20
280.6241752005914
 30
0.0
 11
115.705088022593
 21
280.6241752005914
 31
0.0
  0
LINE
  5
AD
330
1F
100
AcDbEntity
  8
1-9
  6
Continuous
 62
    92
370
     5
100
AcDbLine
 10
115.705088022593
 20
280.6241752005914
 30
0.0
 11
115.705088022593
 21
256.6242444837417
 31
0.0
  0
LINE
  5
AE
330
1F
100
AcDbEntity
  8
1-9
  6
Continuous
 62
    92
370
     5
100
AcDbLine
 10
109.7051672033362
 20
250.6241999445737
 30
0.0
 11
71.70484388196797
 21
250.6241999445737
 31
0.0
  0
LINE
  5
AF
330
1F
100
AcDbEntity
  8
1-9
  6
Continuous
 62
    92
370
     5
100
AcDbLine
 10
65.7049230627112
 20
256.6242444837417
 30
0.0
 11
65.7049230627112
 21
276.0242688978042
 31
0.0
  0
LINE
  5
B0
330
1F
100
AcDbEntity
  8
1-9
  6
Continuous
 62
    92
370
     5
100
AcDbLine
 10
115.705088022593
 20
276.0242688978042
 30
0.0
 11
55.70464263091225
 21
276.0242688978042
 31
0.0
  0
LINE
  5
B1
330
1F
100
AcDbEntity
  8
1-9
  6
JWW_CENTER2
 62
    92
370
     5
100
AcDbLine
 10
-244.2951099292651
 20
-24.4617029138513
 30
0.0
 11
-244.2951099292651
 21
0.1936958931588606
 31
0.0
  0
LINE
  5
B2
330
1F
100
AcDbEntity
  8
1-9
  6
Continuous
 62
    92
370
     5
100
AcDbLine
 10
-1384.29515941723
 20
-63.37557406038854
 30
0.0
 11
-1384.29515941723
 21
-25.37574561866535
 31
0.0
  0
LINE
  5
B3
330
1F
100
AcDbEntity
  8
1-1
  6
Continuous
 62
    40
370
     9
100
AcDbLine
 10
55.70464263091225
 20
1190.624208192568
 30
0.0
 11
39.70468881967918
 21
1174.624006941512
 31
0.0
  0
LINE
  5
B4
330
1F
100
AcDbEntity
  8
1-1
  6
Continuous
 62
    40
370
     9
100
AcDbLine
 10
39.70468881967918
 20
6.624162003800791
 30
0.0
 11
55.70464263091225
 21
-9.375791807432279
 31
0.0
  0
LINE
  5
B5
330
1F
100
AcDbEntity
  8
1-1
  6
Continuous
 62
    40
370
     9
100
AcDbLine
 10
-1644.295027449324
 20
-9.375791807432279
 30
0.0
 11
-1628.295073638091
 21
6.624162003800791
 31
0.0
  0
LINE
  5
B6
330
1F
100
AcDbEntity
  8
1-1
  6
Continuous
 62
    40
370
     9
100
AcDbLine
 10
-1644.295027449324
 20
1190.624208192568
 30
0.0
 11
-1628.295073638091
 21
1174.624006941512
 31
0.0
  0
LINE
  5
B7
330
1F
100
AcDbEntity
  8
1-1
  6
Continuous
 62
    40
370
     9
100
AcDbLine
 10
39.70468881967918
 20
1174.624006941512
 30
0.0
 11
39.70468881967918
 21
659.2484262827281
 31
0.0
  0
LINE
  5
B8
330
1F
100
AcDbEntity
  8
1-1
  6
Continuous
 62
    40
370
     9
100
AcDbLine
 10
-1628.295073638091
 20
6.624162003800791
 30
0.0
 11
-1628.295073638091
 21
546.0958037505279
 31
0.0
  0
LINE
  5
B9
330
1F
100
AcDbEntity
  8
1-1
  6
Continuous
 62
    40
370
     9
100
AcDbLine
 10
-1644.295027449324
 20
-9.375791807432279
 30
0.0
 11
-1644.295027449324
 21
545.1641928183068
 31
0.0
  0
LINE
  5
BA
330
1F
100
AcDbEntity
  8
1-1
  6
Continuous
 62
    40
370
     9
100
AcDbLine
 10
55.70464263091225
 20
1190.624208192568
 30
0.0
 11
55.70464263091225
 21
660.1800372149495
 31
0.0
  0
LINE
  5
BB
330
1F
100
AcDbEntity
  8
D-2
  6
Continuous
 62
    92
370
     5
100
AcDbLine
 10
1421.428701039907
 20
1043.513563001478
 30
0.0
 11
1421.428701039907
 21
1028.513513513514
 31
0.0
  0
LINE
  5
BC
330
1F
100
AcDbEntity
  8
D-2
  6
Continuous
 62
    92
370
     5
100
AcDbLine
 10
1421.428701039907
 20
1028.513513513514
 30
0.0
 11
794.5945945945948
 21
1028.513513513514
 31
0.0
  0
LINE
  5
BD
330
1F
100
AcDbEntity
  8
D-2
  6
Continuous
 62
    92
370
     5
100
AcDbLine
 10
1421.428701039907
 20
580.6372895111908
 30
0.0
 11
1415.450802364865
 21
573.5134970175255
 31
0.0
  0
LINE
  5
BE
330
1F
100
AcDbEntity
  8
D-2
  6
Continuous
 62
    92
370
     5
100
AcDbLine
 10
1421.428701039907
 20
591.3897870038008
 30
0.0
 11
1411.255212732264
 21
603.5135959934544
 31
0.0
  0
LINE
  5
BF
330
1F
100
AcDbEntity
  8
D-2
  6
Continuous
 62
    92
370
     5
100
AcDbLine
 10
1421.428701039907
 20
577.0887550147804
 30
0.0
 11
1399.25537109375
 21
603.5135959934544
 31
0.0
  0
LINE
  5
C0
330
1F
100
AcDbEntity
  8
D-2
  6
Continuous
 62
    92
370
     5
100
AcDbLine
 10
1421.428701039907
 20
594.9383215002113
 30
0.0
 11
1403.450960726352
 21
573.5134970175255
 31
0.0
  0
LINE
  5
C1
330
1F
100
AcDbEntity
  8
D-2
  6
Continuous
 62
    92
370
     5
100
AcDbLine
 10
1184.428364521748
 20
573.5134970175255
 30
0.0
 11
1178.939654376056
 21
580.0545687288852
 31
0.0
  0
LINE
  5
C2
330
1F
100
AcDbEntity
  8
D-2
  6
Continuous
 62
    92
370
     5
100
AcDbLine
 10
1194.428397513725
 20
573.5134970175255
 30
0.0
 11
1183.939670872044
 21
586.0134145375846
 31
0.0
  0
LINE
  5
C3
330
1F
100
AcDbEntity
  8
D-2
  6
Continuous
 62
    92
370
     5
100
AcDbLine
 10
1204.428430505701
 20
573.5134970175255
 30
0.0
 11
1188.939687368032
 21
591.9722603462839
 31
0.0
  0
LINE
  5
C4
330
1F
100
AcDbEntity
  8
D-2
  6
Continuous
 62
    92
370
     5
100
AcDbLine
 10
1214.428463497678
 20
573.5134970175255
 30
0.0
 11
1193.93970386402
 21
597.9311061549834
 31
0.0
  0
LINE
  5
C5
330
1F
100
AcDbEntity
  8
D-2
  6
Continuous
 62
    92
370
     5
100
AcDbLine
 10
1224.428496489654
 20
573.5134970175255
 30
0.0
 11
1199.255206133868
 21
603.5135959934544
 31
0.0
  0
LINE
  5
C6
330
1F
100
AcDbEntity
  8
D-2
  6
Continuous
 62
    92
370
     5
100
AcDbLine
 10
1234.42852948163
 20
573.5134970175255
 30
0.0
 11
1209.255239125845
 21
603.5135959934544
 31
0.0
  0
LINE
  5
C7
330
1F
100
AcDbEntity
  8
D-2
  6
Continuous
 62
    92
370
     5
100
AcDbLine
 10
1244.428562473607
 20
573.5134970175255
 30
0.0
 11
1219.255024677998
 21
603.5135959934544
 31
0.0
  0
LINE
  5
C8
330
1F
100
AcDbEntity
  8
D-2
  6
Continuous
 62
    92
370
     5
100
AcDbLine
 10
1254.428595465583
 20
573.5134970175255
 30
0.0
 11
1229.25555254962
 21
603.5135959934544
 31
0.0
  0
LINE
  5
C9
330
1F
100
AcDbEntity
  8
D-2
  6
Continuous
 62
    92
370
     5
100
AcDbLine
 10
1264.428381017736
 20
573.5134970175255
 30
0.0
 11
1239.255338101774
 21
603.5135959934544
 31
0.0
  0
LINE
  5
CA
330
1F
100
AcDbEntity
  8
D-2
  6
Continuous
 62
    92
370
     5
100
AcDbLine
 10
1274.428414009713
 20
573.5134970175255
 30
0.0
 11
1249.25537109375
 21
603.5135959934544
 31
0.0
  0
LINE
  5
CB
330
1F
100
AcDbEntity
  8
D-2
  6
Continuous
 62
    92
370
     5
100
AcDbLine
 10
1284.42844700169
 20
573.5134970175255
 30
0.0
 11
1259.255404085727
 21
603.5135959934544
 31
0.0
  0
LINE
  5
CC
330
1F
100
AcDbEntity
  8
D-2
  6
Continuous
 62
    92
370
     5
100
AcDbLine
 10
1294.428479993666
 20
573.5134970175255
 30
0.0
 11
1269.255437077703
 21
603.5135959934544
 31
0.0
  0
LINE
  5
CD
330
1F
100
AcDbEntity
  8
D-2
  6
Continuous
 62
    92
370
     5
100
AcDbLine
 10
1304.428512985642
 20
573.5134970175255
 30
0.0
 11
1279.255222629857
 21
603.5135959934544
 31
0.0
  0
LINE
  5
CE
330
1F
100
AcDbEntity
  8
D-2
  6
Continuous
 62
    92
370
     5
100
AcDbLine
 10
1314.428298537796
 20
573.5134970175255
 30
0.0
 11
1289.255255621833
 21
603.5135959934544
 31
0.0
  0
LINE
  5
CF
330
1F
100
AcDbEntity
  8
D-2
  6
Continuous
 62
    92
370
     5
100
AcDbLine
 10
1324.428578969595
 20
573.5134970175255
 30
0.0
 11
1299.255536053632
 21
603.5135959934544
 31
0.0
  0
LINE
  5
D0
330
1F
100
AcDbEntity
  8
D-2
  6
Continuous
 62
    92
370
     5
100
AcDbLine
 10
1334.428364521748
 20
573.5134970175255
 30
0.0
 11
1309.255569045608
 21
603.5135959934544
 31
0.0
  0
LINE
  5
D1
330
1F
100
AcDbEntity
  8
D-2
  6
Continuous
 62
    92
370
     5
100
AcDbLine
 10
1344.428397513725
 20
573.5134970175255
 30
0.0
 11
1319.255354597762
 21
603.5135959934544
 31
0.0
  0
LINE
  5
D2
330
1F
100
AcDbEntity
  8
D-2
  6
Continuous
 62
    92
370
     5
100
AcDbLine
 10
1354.428430505701
 20
573.5134970175255
 30
0.0
 11
1329.255387589739
 21
603.5135959934544
 31
0.0
  0
LINE
  5
D3
330
1F
100
AcDbEntity
  8
D-2
  6
Continuous
 62
    92
370
     5
100
AcDbLine
 10
1364.428463497678
 20
573.5134970175255
 30
0.0
 11
1339.255420581715
 21
603.5135959934544
 31
0.0
  0
LINE
  5
D4
330
1F
100
AcDbEntity
  8
D-2
  6
Continuous
 62
    92
370
     5
100
AcDbLine
 10
1374.428496489654
 20
573.5134970175255
 30
0.0
 11
1349.255206133868
 21
603.5135959934544
 31
0.0
  0
LINE
  5
D5
330
1F
100
AcDbEntity
  8
D-2
  6
Continuous
 62
    92
370
     5
100
AcDbLine
 10
1384.428282041808
 20
573.5134970175255
 30
0.0
 11
1359.255239125845
 21
603.5135959934544
 31
0.0
  0
LINE
  5
D6
330
1F
100
AcDbEntity
  8
D-2
  6
Continuous
 62
    92
370
     5
100
AcDbLine
 10
1394.428562473607
 20
573.5134970175255
 30
0.0
 11
1369.255024677998
 21
603.5135959934544
 31
0.0
  0
LINE
  5
D7
330
1F
100
AcDbEntity
  8
D-2
  6
Continuous
 62
    92
370
     5
100
AcDbLine
 10
1404.428595465583
 20
573.5134970175255
 30
0.0
 11
1379.25555254962
 21
603.5135959934544
 31
0.0
  0
LINE
  5
D8
330
1F
100
AcDbEntity
  8
D-2
  6
Continuous
 62
    92
370
     5
100
AcDbLine
 10
1414.428381017736
 20
573.5134970175255
 30
0.0
 11
1389.255338101774
 21
603.5135959934544
 31
0.0
  0
LINE
  5
D9
330
1F
100
AcDbEntity
  8
D-2
  6
Continuous
 62
    92
370
     5
100
AcDbLine
 10
1421.428701039907
 20
963.5135465054901
 30
0.0
 11
794.5945945945948
 21
963.5135465054901
 31
0.0
  0
LINE
  5
DA
330
1F
100
AcDbEntity
  8
D-2
  6
Continuous
 62
    92
370
     5
100
AcDbLine
 10
1198.623987146326
 20
603.5135959934544
 30
0.0
 11
1173.450944230364
 21
573.5134970175255
 31
0.0
  0
LINE
  5
DB
330
1F
100
AcDbEntity
  8
D-2
  6
Continuous
 62
    92
370
     5
100
AcDbLine
 10
1208.624020138303
 20
603.5135959934544
 30
0.0
 11
1183.45097722234
 21
573.5134970175255
 31
0.0
  0
LINE
  5
DC
330
1F
100
AcDbEntity
  8
D-2
  6
Continuous
 62
    92
370
     5
100
AcDbLine
 10
1218.624053130279
 20
603.5135959934544
 30
0.0
 11
1193.450762774493
 21
573.5134970175255
 31
0.0
  0
LINE
  5
DD
330
1F
100
AcDbEntity
  8
D-2
  6
Continuous
 62
    92
370
     5
100
AcDbLine
 10
1228.624086122255
 20
603.5135959934544
 30
0.0
 11
1203.45079576647
 21
573.5134970175255
 31
0.0
  0
LINE
  5
DE
330
1F
100
AcDbEntity
  8
D-2
  6
Continuous
 62
    92
370
     5
100
AcDbLine
 10
1238.624119114232
 20
603.5135959934544
 30
0.0
 11
1213.450581318623
 21
573.5134970175255
 31
0.0
  0
LINE
  5
DF
330
1F
100
AcDbEntity
  8
D-2
  6
Continuous
 62
    92
370
     5
100
AcDbLine
 10
1248.624152106208
 20
603.5135959934544
 30
0.0
 11
1223.451109190245
 21
573.5134970175255
 31
0.0
  0
LINE
  5
E0
330
1F
100
AcDbEntity
  8
D-2
  6
Continuous
 62
    92
370
     5
100
AcDbLine
 10
1258.623937658361
 20
603.5135959934544
 30
0.0
 11
1233.450894742399
 21
573.5134970175255
 31
0.0
  0
LINE
  5
E1
330
1F
100
AcDbEntity
  8
D-2
  6
Continuous
 62
    92
370
     5
100
AcDbLine
 10
1268.623970650338
 20
603.5135959934544
 30
0.0
 11
1243.450927734375
 21
573.5134970175255
 31
0.0
  0
LINE
  5
E2
330
1F
100
AcDbEntity
  8
D-2
  6
Continuous
 62
    92
370
     5
100
AcDbLine
 10
1278.624003642315
 20
603.5135959934544
 30
0.0
 11
1253.450960726352
 21
573.5134970175255
 31
0.0
  0
LINE
  5
E3
330
1F
100
AcDbEntity
  8
D-2
  6
Continuous
 62
    92
370
     5
100
AcDbLine
 10
1288.624036634291
 20
603.5135959934544
 30
0.0
 11
1263.450993718328
 21
573.5134970175255
 31
0.0
  0
LINE
  5
E4
330
1F
100
AcDbEntity
  8
D-2
  6
Continuous
 62
    92
370
     5
100
AcDbLine
 10
1298.624069626267
 20
603.5135959934544
 30
0.0
 11
1273.450779270482
 21
573.5134970175255
 31
0.0
  0
LINE
  5
E5
330
1F
100
AcDbEntity
  8
D-2
  6
Continuous
 62
    92
370
     5
100
AcDbLine
 10
1308.623855178421
 20
603.5135959934544
 30
0.0
 11
1283.450812262458
 21
573.5134970175255
 31
0.0
  0
LINE
  5
E6
330
1F
100
AcDbEntity
  8
D-2
  6
Continuous
 62
    92
370
     5
100
AcDbLine
 10
1318.62413561022
 20
603.5135959934544
 30
0.0
 11
1293.451092694257
 21
573.5134970175255
 31
0.0
  0
LINE
  5
E7
330
1F
100
AcDbEntity
  8
D-2
  6
Continuous
 62
    92
370
     5
100
AcDbLine
 10
1328.623921162373
 20
603.5135959934544
 30
0.0
 11
1303.451125686233
 21
573.5134970175255
 31
0.0
  0
LINE
  5
E8
330
1F
100
AcDbEntity
  8
D-2
  6
Continuous
 62
    92
370
     5
100
AcDbLine
 10
1338.62395415435
 20
603.5135959934544
 30
0.0
 11
1313.450911238387
 21
573.5134970175255
 31
0.0
  0
LINE
  5
E9
330
1F
100
AcDbEntity
  8
D-2
  6
Continuous
 62
    92
370
     5
100
AcDbLine
 10
1348.623987146326
 20
603.5135959934544
 30
0.0
 11
1323.450944230364
 21
573.5134970175255
 31
0.0
  0
LINE
  5
EA
330
1F
100
AcDbEntity
  8
D-2
  6
Continuous
 62
    92
370
     5
100
AcDbLine
 10
1358.624020138303
 20
603.5135959934544
 30
0.0
 11
1333.45097722234
 21
573.5134970175255
 31
0.0
  0
LINE
  5
EB
330
1F
100
AcDbEntity
  8
D-2
  6
Continuous
 62
    92
370
     5
100
AcDbLine
 10
1368.624053130279
 20
603.5135959934544
 30
0.0
 11
1343.450762774493
 21
573.5134970175255
 31
0.0
  0
LINE
  5
EC
330
1F
100
AcDbEntity
  8
D-2
  6
Continuous
 62
    92
370
     5
100
AcDbLine
 10
1378.623838682433
 20
603.5135959934544
 30
0.0
 11
1353.45079576647
 21
573.5134970175255
 31
0.0
  0
LINE
  5
ED
330
1F
100
AcDbEntity
  8
D-2
  6
Continuous
 62
    92
370
     5
100
AcDbLine
 10
1388.624119114232
 20
603.5135959934544
 30
0.0
 11
1363.450581318623
 21
573.5134970175255
 31
0.0
  0
LINE
  5
EE
330
1F
100
AcDbEntity
  8
D-2
  6
Continuous
 62
    92
370
     5
100
AcDbLine
 10
1398.624152106208
 20
603.5135959934544
 30
0.0
 11
1373.451109190245
 21
573.5134970175255
 31
0.0
  0
LINE
  5
EF
330
1F
100
AcDbEntity
  8
D-2
  6
Continuous
 62
    92
370
     5
100
AcDbLine
 10
1408.623937658361
 20
603.5135959934544
 30
0.0
 11
1383.450894742399
 21
573.5134970175255
 31
0.0
  0
LINE
  5
F0
330
1F
100
AcDbEntity
  8
D-2
  6
Continuous
 62
    92
370
     5
100
AcDbLine
 10
1418.623970650338
 20
603.5135959934544
 30
0.0
 11
1393.450927734375
 21
573.5134970175255
 31
0.0
  0
LINE
  5
F1
330
1F
100
AcDbEntity
  8
D-2
  6
Continuous
 62
    92
370
     5
100
AcDbLine
 10
1421.428701039907
 20
529.9382307722763
 30
0.0
 11
1403.450960726352
 21
508.5135300095018
 31
0.0
  0
LINE
  5
F2
330
1F
100
AcDbEntity
  8
D-2
  6
Continuous
 62
    92
370
     5
100
AcDbLine
 10
1421.428701039907
 20
512.0887880067568
 30
0.0
 11
1399.25537109375
 21
538.5136289854307
 31
0.0
  0
LINE
  5
F3
330
1F
100
AcDbEntity
  8
D-2
  6
Continuous
 62
    92
370
     5
100
AcDbLine
 10
1421.428701039907
 20
526.3898199957771
 30
0.0
 11
1411.255212732264
 21
538.5136289854307
 31
0.0
  0
LINE
  5
F4
330
1F
100
AcDbEntity
  8
D-2
  6
Continuous
 62
    92
370
     5
100
AcDbLine
 10
1421.428701039907
 20
515.6370750633448
 30
0.0
 11
1415.450802364865
 21
508.5135300095018
 31
0.0
  0
LINE
  5
F5
330
1F
100
AcDbEntity
  8
D-2
  6
Continuous
 62
    92
370
     5
100
AcDbLine
 10
1418.623970650338
 20
538.5136289854307
 30
0.0
 11
1393.450927734375
 21
508.5135300095018
 31
0.0
  0
LINE
  5
F6
330
1F
100
AcDbEntity
  8
D-2
  6
Continuous
 62
    92
370
     5
100
AcDbLine
 10
1408.623937658361
 20
538.5136289854307
 30
0.0
 11
1383.450894742399
 21
508.5135300095018
 31
0.0
  0
LINE
  5
F7
330
1F
100
AcDbEntity
  8
D-2
  6
Continuous
 62
    92
370
     5
100
AcDbLine
 10
1398.624152106208
 20
538.5136289854307
 30
0.0
 11
1373.451109190245
 21
508.5135300095018
 31
0.0
  0
LINE
  5
F8
330
1F
100
AcDbEntity
  8
D-2
  6
Continuous
 62
    92
370
     5
100
AcDbLine
 10
1388.624119114232
 20
538.5136289854307
 30
0.0
 11
1363.450581318623
 21
508.5135300095018
 31
0.0
  0
LINE
  5
F9
330
1F
100
AcDbEntity
  8
D-0
  6
Continuous
 62
    40
370
     9
100
AcDbLine
 10
769.3097088788011
 20
1043.513563001478
 30
0.0
 11
1495.91724292652
 21
1043.513563001478
 31
0.0
  0
LINE
  5
FA
330
1F
100
AcDbEntity
  8
D-2
  6
Continuous
 62
    92
370
     5
100
AcDbLine
 10
1378.623838682433
 20
538.5136289854307
 30
0.0
 11
1353.45079576647
 21
508.5135300095018
 31
0.0
  0
LINE
  5
FB
330
1F
100
AcDbEntity
  8
D-2
  6
Continuous
 62
    92
370
     5
100
AcDbLine
 10
1368.624053130279
 20
538.5136289854307
 30
0.0
 11
1343.450762774493
 21
508.5135300095018
 31
0.0
  0
LINE
  5
FC
330
1F
100
AcDbEntity
  8
D-2
  6
Continuous
 62
    92
370
     5
100
AcDbLine
 10
1358.624020138303
 20
538.5136289854307
 30
0.0
 11
1333.45097722234
 21
508.5135300095018
 31
0.0
  0
LINE
  5
FD
330
1F
100
AcDbEntity
  8
D-2
  6
Continuous
 62
    92
370
     5
100
AcDbLine
 10
1348.623987146326
 20
538.5136289854307
 30
0.0
 11
1323.450944230364
 21
508.5135300095018
 31
0.0
  0
LINE
  5
FE
330
1F
100
AcDbEntity
  8
D-2
  6
Continuous
 62
    92
370
     5
100
AcDbLine
 10
1338.62395415435
 20
538.5136289854307
 30
0.0
 11
1313.450911238387
 21
508.5135300095018
 31
0.0
  0
LINE
  5
FF
330
1F
100
AcDbEntity
  8
D-2
  6
Continuous
 62
    92
370
     5
100
AcDbLine
 10
1328.623921162373
 20
538.5136289854307
 30
0.0
 11
1303.451125686233
 21
508.5135300095018
 31
0.0
  0
LINE
  5
100
330
1F
100
AcDbEntity
  8
D-2
  6
Continuous
 62
    92
370
     5
100
AcDbLine
 10
1318.62413561022
 20
538.5136289854307
 30
0.0
 11
1293.451092694257
 21
508.5135300095018
 31
0.0
  0
LINE
  5
101
330
1F
100
AcDbEntity
  8
D-2
  6
Continuous
 62
    92
370
     5
100
AcDbLine
 10
1308.623855178421
 20
538.5136289854307
 30
0.0
 11
1283.450812262458
 21
508.5135300095018
 31
0.0
  0
LINE
  5
102
330
1F
100
AcDbEntity
  8
D-2
  6
Continuous
 62
    92
370
     5
100
AcDbLine
 10
1298.624069626267
 20
538.5136289854307
 30
0.0
 11
1273.450779270482
 21
508.5135300095018
 31
0.0
  0
LINE
  5
103
330
1F
100
AcDbEntity
  8
D-2
  6
Continuous
 62
    92
370
     5
100
AcDbLine
 10
1421.428701039907
 20
450.6372317752323
 30
0.0
 11
1415.450802364865
 21
443.5134392815669
 31
0.0
  0
LINE
  5
104
330
1F
100
AcDbEntity
  8
D-2
  6
Continuous
 62
    92
370
     5
100
AcDbLine
 10
1288.624036634291
 20
538.5136289854307
 30
0.0
 11
1263.450993718328
 21
508.5135300095018
 31
0.0
  0
LINE
  5
105
330
1F
100
AcDbEntity
  8
D-2
  6
Continuous
 62
    92
370
     5
100
AcDbLine
 10
1278.624003642315
 20
538.5136289854307
 30
0.0
 11
1253.450960726352
 21
508.5135300095018
 31
0.0
  0
LINE
  5
106
330
1F
100
AcDbEntity
  8
D-2
  6
Continuous
 62
    92
370
     5
100
AcDbLine
 10
1268.623970650338
 20
538.5136289854307
 30
0.0
 11
1243.450927734375
 21
508.5135300095018
 31
0.0
  0
LINE
  5
107
330
1F
100
AcDbEntity
  8
D-2
  6
Continuous
 62
    92
370
     5
100
AcDbLine
 10
1421.428701039907
 20
461.3898529877534
 30
0.0
 11
1411.255212732264
 21
473.5134145375847
 31
0.0
  0
LINE
  5
108
330
1F
100
AcDbEntity
  8
D-2
  6
Continuous
 62
    92
370
     5
100
AcDbLine
 10
1258.623937658361
 20
538.5136289854307
 30
0.0
 11
1233.450894742399
 21
508.5135300095018
 31
0.0
  0
LINE
  5
109
330
1F
100
AcDbEntity
  8
D-2
  6
Continuous
 62
    92
370
     5
100
AcDbLine
 10
1248.624152106208
 20
538.5136289854307
 30
0.0
 11
1223.451109190245
 21
508.5135300095018
 31
0.0
  0
LINE
  5
10A
330
1F
100
AcDbEntity
  8
1-9
  6
Continuous
 62
    92
370
     5
100
AcDbLine
 10
-258.894801784206
 20
-69.37574231946769
 30
0.0
 11
-258.894801784206
 21
-9.375791807432279
 31
0.0
  0
LINE
  5
10B
330
1F
100
AcDbEntity
  8
1-9
  6
Continuous
 62
    92
370
     5
100
AcDbLine
 10
-278.2950736380911
 20
-19.37582479940858
 30
0.0
 11
-258.894801784206
 21
-19.37582479940858
 31
0.0
  0
LINE
  5
10C
330
1F
100
AcDbEntity
  8
1-9
  6
Continuous
 62
    92
370
     5
100
AcDbLine
 10
-284.2949944573479
 20
-63.37557406038854
 30
0.0
 11
-284.2949944573479
 21
-25.37574561866535
 31
0.0
  0
LINE
  5
10D
330
1F
100
AcDbEntity
  8
1-9
  6
Continuous
 62
    92
370
     5
100
AcDbLine
 10
-254.2948954814187
 20
-69.37574231946769
 30
0.0
 11
-278.2950736380911
 21
-69.37574231946769
 31
0.0
  0
LINE
  5
10E
330
1F
100
AcDbEntity
  8
1-9
  6
Continuous
 62
    92
370
     5
100
AcDbLine
 10
-254.2948954814187
 20
-9.375791807432279
 30
0.0
 11
-254.2948954814187
 21
-69.37574231946769
 31
0.0
  0
LINE
  5
10F
330
1F
100
AcDbEntity
  8
D-2
  6
Continuous
 62
    92
370
     5
100
AcDbLine
 10
1238.624119114232
 20
538.5136289854307
 30
0.0
 11
1213.450581318623
 21
508.5135300095018
 31
0.0
  0
LINE
  5
110
330
1F
100
AcDbEntity
  8
D-2
  6
Continuous
 62
    92
370
     5
100
AcDbLine
 10
1228.624086122255
 20
538.5136289854307
 30
0.0
 11
1203.45079576647
 21
508.5135300095018
 31
0.0
  0
LINE
  5
111
330
1F
100
AcDbEntity
  8
D-2
  6
Continuous
 62
    92
370
     5
100
AcDbLine
 10
1218.624053130279
 20
538.5136289854307
 30
0.0
 11
1193.450762774493
 21
508.5135300095018
 31
0.0
  0
LINE
  5
112
330
1F
100
AcDbEntity
  8
D-2
  6
Continuous
 62
    92
370
     5
100
AcDbLine
 10
1208.624020138303
 20
538.5136289854307
 30
0.0
 11
1183.45097722234
 21
508.5135300095018
 31
0.0
  0
LINE
  5
113
330
1F
100
AcDbEntity
  8
D-2
  6
Continuous
 62
    92
370
     5
100
AcDbLine
 10
1198.623987146326
 20
538.5136289854307
 30
0.0
 11
1173.450944230364
 21
508.5135300095018
 31
0.0
  0
LINE
  5
114
330
1F
100
AcDbEntity
  8
1-9
  6
Continuous
 62
    92
370
     5
100
AcDbLine
 10
-254.2948954814187
 20
-29.37585779138516
 30
0.0
 11
-258.894801784206
 21
-29.37585779138516
 31
0.0
  0
LINE
  5
115
330
1F
100
AcDbEntity
  8
1-9
  6
Continuous
 62
    92
370
     5
100
AcDbLine
 10
-1378.29499115815
 20
-19.37582479940858
 30
0.0
 11
-1358.89521418391
 21
-19.37582479940858
 31
0.0
  0
LINE
  5
116
330
1F
100
AcDbEntity
  8
D-2
  6
Continuous
 62
    92
370
     5
100
AcDbLine
 10
1188.62395415435
 20
538.5136289854307
 30
0.0
 11
1163.450911238387
 21
508.5135300095018
 31
0.0
  0
LINE
  5
117
330
1F
100
AcDbEntity
  8
D-2
  6
Continuous
 62
    92
370
     5
100
AcDbLine
 10
1178.623921162373
 20
538.5136289854307
 30
0.0
 11
1153.45087824641
 21
508.5135300095018
 31
0.0
  0
LINE
  5
118
330
1F
100
AcDbEntity
  8
D-2
  6
Continuous
 62
    92
370
     5
100
AcDbLine
 10
1168.62413561022
 20
538.5136289854307
 30
0.0
 11
1143.451092694257
 21
508.5135300095018
 31
0.0
  0
LINE
  5
119
330
1F
100
AcDbEntity
  8
1-9
  6
Continuous
 62
    92
370
     5
100
AcDbLine
 10
-1358.89521418391
 20
-69.37574231946769
 30
0.0
 11
-1358.89521418391
 21
-9.375791807432279
 31
0.0
  0
LINE
  5
11A
330
1F
100
AcDbEntity
  8
D-2
  6
Continuous
 62
    92
370
     5
100
AcDbLine
 10
1158.623855178421
 20
538.5136289854307
 30
0.0
 11
1133.450812262458
 21
508.5135300095018
 31
0.0
  0
LINE
  5
11B
330
1F
100
AcDbEntity
  8
D-2
  6
Continuous
 62
    92
370
     5
100
AcDbLine
 10
1148.624069626267
 20
538.5136289854307
 30
0.0
 11
1123.450779270482
 21
508.5135300095018
 31
0.0
  0
LINE
  5
11C
330
1F
100
AcDbEntity
  8
D-2
  6
Continuous
 62
    92
370
     5
100
AcDbLine
 10
1138.624036634291
 20
538.5136289854307
 30
0.0
 11
1113.450993718328
 21
508.5135300095018
 31
0.0
  0
LINE
  5
11D
330
1F
100
AcDbEntity
  8
D-2
  6
Continuous
 62
    92
370
     5
100
AcDbLine
 10
1128.624003642315
 20
538.5136289854307
 30
0.0
 11
1103.450960726352
 21
508.5135300095018
 31
0.0
  0
LINE
  5
11E
330
1F
100
AcDbEntity
  8
D-2
  6
Continuous
 62
    92
370
     5
100
AcDbLine
 10
1118.623970650338
 20
538.5136289854307
 30
0.0
 11
1093.450927734375
 21
508.5135300095018
 31
0.0
  0
LINE
  5
11F
330
1F
100
AcDbEntity
  8
D-2
  6
Continuous
 62
    92
370
     5
100
AcDbLine
 10
1108.623937658361
 20
538.5136289854307
 30
0.0
 11
1083.450894742399
 21
508.5135300095018
 31
0.0
  0
LINE
  5
120
330
1F
100
AcDbEntity
  8
D-2
  6
Continuous
 62
    92
370
     5
100
AcDbLine
 10
1414.428381017736
 20
508.5135300095018
 30
0.0
 11
1389.255338101774
 21
538.5136289854307
 31
0.0
  0
LINE
  5
121
330
1F
100
AcDbEntity
  8
D-2
  6
Continuous
 62
    92
370
     5
100
AcDbLine
 10
1404.428595465583
 20
508.5135300095018
 30
0.0
 11
1379.25555254962
 21
538.5136289854307
 31
0.0
  0
LINE
  5
122
330
1F
100
AcDbEntity
  8
D-2
  6
Continuous
 62
    92
370
     5
100
AcDbLine
 10
1394.428562473607
 20
508.5135300095018
 30
0.0
 11
1369.255024677998
 21
538.5136289854307
 31
0.0
  0
LINE
  5
123
330
1F
100
AcDbEntity
  8
D-2
  6
Continuous
 62
    92
370
     5
100
AcDbLine
 10
1384.428282041808
 20
508.5135300095018
 30
0.0
 11
1359.255239125845
 21
538.5136289854307
 31
0.0
  0
LINE
  5
124
330
1F
100
AcDbEntity
  8
D-2
  6
Continuous
 62
    92
370
     5
100
AcDbLine
 10
1374.428496489654
 20
508.5135300095018
 30
0.0
 11
1349.255206133868
 21
538.5136289854307
 31
0.0
  0
LINE
  5
125
330
1F
100
AcDbEntity
  8
D-2
  6
Continuous
 62
    92
370
     5
100
AcDbLine
 10
1364.428463497678
 20
508.5135300095018
 30
0.0
 11
1339.255420581715
 21
538.5136289854307
 31
0.0
  0
LINE
  5
126
330
1F
100
AcDbEntity
  8
D-2
  6
Continuous
 62
    92
370
     5
100
AcDbLine
 10
1354.428430505701
 20
508.5135300095018
 30
0.0
 11
1329.255387589739
 21
538.5136289854307
 31
0.0
  0
LINE
  5
127
330
1F
100
AcDbEntity
  8
D-2
  6
Continuous
 62
    92
370
     5
100
AcDbLine
 10
1344.428397513725
 20
508.5135300095018
 30
0.0
 11
1319.255354597762
 21
538.5136289854307
 31
0.0
  0
LINE
  5
128
330
1F
100
AcDbEntity
  8
D-2
  6
Continuous
 62
    92
370
     5
100
AcDbLine
 10
1334.428364521748
 20
508.5135300095018
 30
0.0
 11
1309.255569045608
 21
538.5136289854307
 31
0.0
  0
LINE
  5
129
330
1F
100
AcDbEntity
  8
D-2
  6
Continuous
 62
    92
370
     5
100
AcDbLine
 10
1324.428578969595
 20
508.5135300095018
 30
0.0
 11
1299.255536053632
 21
538.5136289854307
 31
0.0
  0
LINE
  5
12A
330
1F
100
AcDbEntity
  8
D-2
  6
Continuous
 62
    92
370
     5
100
AcDbLine
 10
1314.428298537796
 20
508.5135300095018
 30
0.0
 11
1289.255255621833
 21
538.5136289854307
 31
0.0
  0
LINE
  5
12B
330
1F
100
AcDbEntity
  8
D-2
  6
Continuous
 62
    92
370
     5
100
AcDbLine
 10
1304.428512985642
 20
508.5135300095018
 30
0.0
 11
1279.255222629857
 21
538.5136289854307
 31
0.0
  0
LINE
  5
12C
330
1F
100
AcDbEntity
  8
D-2
  6
Continuous
 62
    92
370
     5
100
AcDbLine
 10
1294.428479993666
 20
508.5135300095018
 30
0.0
 11
1269.255437077703
 21
538.5136289854307
 31
0.0
  0
LINE
  5
12D
330
1F
100
AcDbEntity
  8
D-2
  6
Continuous
 62
    92
370
     5
100
AcDbLine
 10
1284.42844700169
 20
508.5135300095018
 30
0.0
 11
1259.255404085727
 21
538.5136289854307
 31
0.0
  0
LINE
  5
12E
330
1F
100
AcDbEntity
  8
D-2
  6
Continuous
 62
    92
370
     5
100
AcDbLine
 10
1274.428414009713
 20
508.5135300095018
 30
0.0
 11
1249.25537109375
 21
538.5136289854307
 31
0.0
  0
LINE
  5
12F
330
1F
100
AcDbEntity
  8
D-2
  6
Continuous
 62
    92
370
     5
100
AcDbLine
 10
1264.428381017736
 20
508.5135300095018
 30
0.0
 11
1239.255338101774
 21
538.5136289854307
 31
0.0
  0
LINE
  5
130
330
1F
100
AcDbEntity
  8
D-2
  6
Continuous
 62
    92
370
     5
100
AcDbLine
 10
1254.428595465583
 20
508.5135300095018
 30
0.0
 11
1229.25555254962
 21
538.5136289854307
 31
0.0
  0
LINE
  5
131
330
1F
100
AcDbEntity
  8
D-2
  6
Continuous
 62
    92
370
     5
100
AcDbLine
 10
1244.428562473607
 20
508.5135300095018
 30
0.0
 11
1219.255024677998
 21
538.5136289854307
 31
0.0
  0
LINE
  5
132
330
1F
100
AcDbEntity
  8
D-2
  6
Continuous
 62
    92
370
     5
100
AcDbLine
 10
1234.42852948163
 20
508.5135300095018
 30
0.0
 11
1209.255239125845
 21
538.5136289854307
 31
0.0
  0
LINE
  5
133
330
1F
100
AcDbEntity
  8
D-2
  6
Continuous
 62
    92
370
     5
100
AcDbLine
 10
1224.428496489654
 20
508.5135300095018
 30
0.0
 11
1199.255206133868
 21
538.5136289854307
 31
0.0
  0
LINE
  5
134
330
1F
100
AcDbEntity
  8
D-2
  6
Continuous
 62
    92
370
     5
100
AcDbLine
 10
1214.428463497678
 20
508.5135300095018
 30
0.0
 11
1189.255420581715
 21
538.5136289854307
 31
0.0
  0
LINE
  5
135
330
1F
100
AcDbEntity
  8
D-2
  6
Continuous
 62
    92
370
     5
100
AcDbLine
 10
1204.428430505701
 20
508.5135300095018
 30
0.0
 11
1179.255387589739
 21
538.5136289854307
 31
0.0
  0
LINE
  5
136
330
1F
100
AcDbEntity
  8
D-2
  6
Continuous
 62
    92
370
     5
100
AcDbLine
 10
1194.428397513725
 20
508.5135300095018
 30
0.0
 11
1169.255354597762
 21
538.5136289854307
 31
0.0
  0
LINE
  5
137
330
1F
100
AcDbEntity
  8
D-2
  6
Continuous
 62
    92
370
     5
100
AcDbLine
 10
1184.428364521748
 20
508.5135300095018
 30
0.0
 11
1159.255569045608
 21
538.5136289854307
 31
0.0
  0
LINE
  5
138
330
1F
100
AcDbEntity
  8
D-2
  6
Continuous
 62
    92
370
     5
100
AcDbLine
 10
1174.428578969595
 20
508.5135300095018
 30
0.0
 11
1149.255536053632
 21
538.5136289854307
 31
0.0
  0
LINE
  5
139
330
1F
100
AcDbEntity
  8
D-2
  6
Continuous
 62
    92
370
     5
100
AcDbLine
 10
1164.428298537796
 20
508.5135300095018
 30
0.0
 11
1139.255255621833
 21
538.5136289854307
 31
0.0
  0
LINE
  5
13A
330
1F
100
AcDbEntity
  8
D-2
  6
Continuous
 62
    92
370
     5
100
AcDbLine
 10
1154.428512985642
 20
508.5135300095018
 30
0.0
 11
1129.255222629857
 21
538.5136289854307
 31
0.0
  0
LINE
  5
13B
330
1F
100
AcDbEntity
  8
D-2
  6
Continuous
 62
    92
370
     5
100
AcDbLine
 10
1144.428479993666
 20
508.5135300095018
 30
0.0
 11
1119.255437077703
 21
538.5136289854307
 31
0.0
  0
LINE
  5
13C
330
1F
100
AcDbEntity
  8
D-2
  6
Continuous
 62
    92
370
     5
100
AcDbLine
 10
1134.42844700169
 20
508.5135300095018
 30
0.0
 11
1109.255404085727
 21
538.5136289854307
 31
0.0
  0
LINE
  5
13D
330
1F
100
AcDbEntity
  8
D-2
  6
Continuous
 62
    92
370
     5
100
AcDbLine
 10
1124.428414009713
 20
508.5135300095018
 30
0.0
 11
1103.939654376056
 21
532.930891707137
 31
0.0
  0
LINE
  5
13E
330
1F
100
AcDbEntity
  8
D-2
  6
Continuous
 62
    92
370
     5
100
AcDbLine
 10
1114.428381017736
 20
508.5135300095018
 30
0.0
 11
1098.939637880068
 21
526.9719221785263
 31
0.0
  0
LINE
  5
13F
330
1F
100
AcDbEntity
  8
D-2
  6
Continuous
 62
    92
370
     5
100
AcDbLine
 10
1104.428595465583
 20
508.5135300095018
 30
0.0
 11
1093.93962138408
 21
521.013447529561
 31
0.0
  0
LINE
  5
140
330
1F
100
AcDbEntity
  8
D-2
  6
Continuous
 62
    92
370
     5
100
AcDbLine
 10
1014.428545977618
 20
443.5134392815669
 30
0.0
 11
1003.939571896115
 21
456.0134805215372
 31
0.0
  0
LINE
  5
141
330
1F
100
AcDbEntity
  8
D-2
  6
Continuous
 62
    92
370
     5
100
AcDbLine
 10
1024.428578969595
 20
443.5134392815669
 30
0.0
 11
1008.939588392103
 21
461.9722026103253
 31
0.0
  0
LINE
  5
142
330
1F
100
AcDbEntity
  8
D-2
  6
Continuous
 62
    92
370
     5
100
AcDbLine
 10
1034.428364521748
 20
443.5134392815669
 30
0.0
 11
1013.939604888091
 21
467.9310484190245
 31
0.0
  0
LINE
  5
143
330
1F
100
AcDbEntity
  8
D-2
  6
Continuous
 62
    92
370
     5
100
AcDbLine
 10
1044.428397513725
 20
443.5134392815669
 30
0.0
 11
1019.255354597762
 21
473.5134145375847
 31
0.0
  0
LINE
  5
144
330
1F
100
AcDbEntity
  8
D-2
  6
Continuous
 62
    92
370
     5
100
AcDbLine
 10
1054.428430505701
 20
443.5134392815669
 30
0.0
 11
1029.255387589739
 21
473.5134145375847
 31
0.0
  0
LINE
  5
145
330
1F
100
AcDbEntity
  8
D-2
  6
Continuous
 62
    92
370
     5
100
AcDbLine
 10
1064.428463497678
 20
443.5134392815669
 30
0.0
 11
1039.255420581715
 21
473.5134145375847
 31
0.0
  0
LINE
  5
146
330
1F
100
AcDbEntity
  8
D-2
  6
Continuous
 62
    92
370
     5
100
AcDbLine
 10
1074.428496489654
 20
443.5134392815669
 30
0.0
 11
1049.255206133868
 21
473.5134145375847
 31
0.0
  0
LINE
  5
147
330
1F
100
AcDbEntity
  8
D-2
  6
Continuous
 62
    92
370
     5
100
AcDbLine
 10
1084.42852948163
 20
443.5134392815669
 30
0.0
 11
1059.255239125845
 21
473.5134145375847
 31
0.0
  0
LINE
  5
148
330
1F
100
AcDbEntity
  8
D-2
  6
Continuous
 62
    92
370
     5
100
AcDbLine
 10
1094.428562473607
 20
443.5134392815669
 30
0.0
 11
1069.255024677998
 21
473.5134145375847
 31
0.0
  0
LINE
  5
149
330
1F
100
AcDbEntity
  8
D-2
  6
Continuous
 62
    92
370
     5
100
AcDbLine
 10
1104.428595465583
 20
443.5134392815669
 30
0.0
 11
1079.25555254962
 21
473.5134145375847
 31
0.0
  0
LINE
  5
14A
330
1F
100
AcDbEntity
  8
D-2
  6
Continuous
 62
    92
370
     5
100
AcDbLine
 10
1114.428381017736
 20
443.5134392815669
 30
0.0
 11
1089.255338101774
 21
473.5134145375847
 31
0.0
  0
LINE
  5
14B
330
1F
100
AcDbEntity
  8
D-2
  6
Continuous
 62
    92
370
     5
100
AcDbLine
 10
1124.428414009713
 20
443.5134392815669
 30
0.0
 11
1099.25537109375
 21
473.5134145375847
 31
0.0
  0
LINE
  5
14C
330
1F
100
AcDbEntity
  8
D-2
  6
Continuous
 62
    92
370
     5
100
AcDbLine
 10
1134.42844700169
 20
443.5134392815669
 30
0.0
 11
1109.255404085727
 21
473.5134145375847
 31
0.0
  0
LINE
  5
14D
330
1F
100
AcDbEntity
  8
D-2
  6
Continuous
 62
    92
370
     5
100
AcDbLine
 10
1144.428479993666
 20
443.5134392815669
 30
0.0
 11
1119.255437077703
 21
473.5134145375847
 31
0.0
  0
LINE
  5
14E
330
1F
100
AcDbEntity
  8
D-2
  6
Continuous
 62
    92
370
     5
100
AcDbLine
 10
1154.428512985642
 20
443.5134392815669
 30
0.0
 11
1129.255222629857
 21
473.5134145375847
 31
0.0
  0
LINE
  5
14F
330
1F
100
AcDbEntity
  8
D-2
  6
Continuous
 62
    92
370
     5
100
AcDbLine
 10
1164.428298537796
 20
443.5134392815669
 30
0.0
 11
1139.255255621833
 21
473.5134145375847
 31
0.0
  0
LINE
  5
150
330
1F
100
AcDbEntity
  8
D-2
  6
Continuous
 62
    92
370
     5
100
AcDbLine
 10
1174.428578969595
 20
443.5134392815669
 30
0.0
 11
1149.255536053632
 21
473.5134145375847
 31
0.0
  0
LINE
  5
151
330
1F
100
AcDbEntity
  8
D-2
  6
Continuous
 62
    92
370
     5
100
AcDbLine
 10
1184.428364521748
 20
443.5134392815669
 30
0.0
 11
1159.255569045608
 21
473.5134145375847
 31
0.0
  0
LINE
  5
152
330
1F
100
AcDbEntity
  8
D-2
  6
Continuous
 62
    92
370
     5
100
AcDbLine
 10
1194.428397513725
 20
443.5134392815669
 30
0.0
 11
1169.255354597762
 21
473.5134145375847
 31
0.0
  0
LINE
  5
153
330
1F
100
AcDbEntity
  8
D-2
  6
Continuous
 62
    92
370
     5
100
AcDbLine
 10
1204.428430505701
 20
443.5134392815669
 30
0.0
 11
1179.255387589739
 21
473.5134145375847
 31
0.0
  0
LINE
  5
154
330
1F
100
AcDbEntity
  8
D-2
  6
Continuous
 62
    92
370
     5
100
AcDbLine
 10
1214.428463497678
 20
443.5134392815669
 30
0.0
 11
1189.255420581715
 21
473.5134145375847
 31
0.0
  0
LINE
  5
155
330
1F
100
AcDbEntity
  8
D-2
  6
Continuous
 62
    92
370
     5
100
AcDbLine
 10
1224.428496489654
 20
443.5134392815669
 30
0.0
 11
1199.255206133868
 21
473.5134145375847
 31
0.0
  0
LINE
  5
156
330
1F
100
AcDbEntity
  8
D-2
  6
Continuous
 62
    92
370
     5
100
AcDbLine
 10
1234.42852948163
 20
443.5134392815669
 30
0.0
 11
1209.255239125845
 21
473.5134145375847
 31
0.0
  0
LINE
  5
157
330
1F
100
AcDbEntity
  8
D-2
  6
Continuous
 62
    92
370
     5
100
AcDbLine
 10
1244.428562473607
 20
443.5134392815669
 30
0.0
 11
1219.255024677998
 21
473.5134145375847
 31
0.0
  0
LINE
  5
158
330
1F
100
AcDbEntity
  8
D-2
  6
Continuous
 62
    92
370
     5
100
AcDbLine
 10
1254.428595465583
 20
443.5134392815669
 30
0.0
 11
1229.25555254962
 21
473.5134145375847
 31
0.0
  0
LINE
  5
159
330
1F
100
AcDbEntity
  8
D-2
  6
Continuous
 62
    92
370
     5
100
AcDbLine
 10
1264.428381017736
 20
443.5134392815669
 30
0.0
 11
1239.255338101774
 21
473.5134145375847
 31
0.0
  0
LINE
  5
15A
330
1F
100
AcDbEntity
  8
D-2
  6
Continuous
 62
    92
370
     5
100
AcDbLine
 10
1274.428414009713
 20
443.5134392815669
 30
0.0
 11
1249.25537109375
 21
473.5134145375847
 31
0.0
  0
LINE
  5
15B
330
1F
100
AcDbEntity
  8
D-2
  6
Continuous
 62
    92
370
     5
100
AcDbLine
 10
1284.42844700169
 20
443.5134392815669
 30
0.0
 11
1259.255404085727
 21
473.5134145375847
 31
0.0
  0
LINE
  5
15C
330
1F
100
AcDbEntity
  8
D-2
  6
Continuous
 62
    92
370
     5
100
AcDbLine
 10
1294.428479993666
 20
443.5134392815669
 30
0.0
 11
1269.255437077703
 21
473.5134145375847
 31
0.0
  0
LINE
  5
15D
330
1F
100
AcDbEntity
  8
D-2
  6
Continuous
 62
    92
370
     5
100
AcDbLine
 10
1304.428512985642
 20
443.5134392815669
 30
0.0
 11
1279.255222629857
 21
473.5134145375847
 31
0.0
  0
LINE
  5
15E
330
1F
100
AcDbEntity
  8
D-2
  6
Continuous
 62
    92
370
     5
100
AcDbLine
 10
1314.428298537796
 20
443.5134392815669
 30
0.0
 11
1289.255255621833
 21
473.5134145375847
 31
0.0
  0
LINE
  5
15F
330
1F
100
AcDbEntity
  8
D-2
  6
Continuous
 62
    92
370
     5
100
AcDbLine
 10
1324.428578969595
 20
443.5134392815669
 30
0.0
 11
1299.255536053632
 21
473.5134145375847
 31
0.0
  0
LINE
  5
160
330
1F
100
AcDbEntity
  8
D-2
  6
Continuous
 62
    92
370
     5
100
AcDbLine
 10
1334.428364521748
 20
443.5134392815669
 30
0.0
 11
1309.255569045608
 21
473.5134145375847
 31
0.0
  0
LINE
  5
161
330
1F
100
AcDbEntity
  8
D-2
  6
Continuous
 62
    92
370
     5
100
AcDbLine
 10
1344.428397513725
 20
443.5134392815669
 30
0.0
 11
1319.255354597762
 21
473.5134145375847
 31
0.0
  0
LINE
  5
162
330
1F
100
AcDbEntity
  8
D-2
  6
Continuous
 62
    92
370
     5
100
AcDbLine
 10
1354.428430505701
 20
443.5134392815669
 30
0.0
 11
1329.255387589739
 21
473.5134145375847
 31
0.0
  0
LINE
  5
163
330
1F
100
AcDbEntity
  8
D-2
  6
Continuous
 62
    92
370
     5
100
AcDbLine
 10
1364.428463497678
 20
443.5134392815669
 30
0.0
 11
1339.255420581715
 21
473.5134145375847
 31
0.0
  0
LINE
  5
164
330
1F
100
AcDbEntity
  8
D-2
  6
Continuous
 62
    92
370
     5
100
AcDbLine
 10
1374.428496489654
 20
443.5134392815669
 30
0.0
 11
1349.255206133868
 21
473.5134145375847
 31
0.0
  0
LINE
  5
165
330
1F
100
AcDbEntity
  8
D-2
  6
Continuous
 62
    92
370
     5
100
AcDbLine
 10
1384.428282041808
 20
443.5134392815669
 30
0.0
 11
1359.255239125845
 21
473.5134145375847
 31
0.0
  0
LINE
  5
166
330
1F
100
AcDbEntity
  8
D-2
  6
Continuous
 62
    92
370
     5
100
AcDbLine
 10
1394.428562473607
 20
443.5134392815669
 30
0.0
 11
1369.255024677998
 21
473.5134145375847
 31
0.0
  0
LINE
  5
167
330
1F
100
AcDbEntity
  8
D-2
  6
Continuous
 62
    92
370
     5
100
AcDbLine
 10
1404.428595465583
 20
443.5134392815669
 30
0.0
 11
1379.25555254962
 21
473.5134145375847
 31
0.0
  0
LINE
  5
168
330
1F
100
AcDbEntity
  8
D-2
  6
Continuous
 62
    92
370
     5
100
AcDbLine
 10
1414.428381017736
 20
443.5134392815669
 30
0.0
 11
1389.255338101774
 21
473.5134145375847
 31
0.0
  0
LINE
  5
169
330
1F
100
AcDbEntity
  8
D-2
  6
Continuous
 62
    92
370
     5
100
AcDbLine
 10
1018.62413561022
 20
473.5134145375847
 30
0.0
 11
993.4510926942568
 21
443.5134392815669
 31
0.0
  0
LINE
  5
16A
330
1F
100
AcDbEntity
  8
D-2
  6
Continuous
 62
    92
370
     5
100
AcDbLine
 10
1028.623921162373
 20
473.5134145375847
 30
0.0
 11
1003.45087824641
 21
443.5134392815669
 31
0.0
  0
LINE
  5
16B
330
1F
100
AcDbEntity
  8
D-2
  6
Continuous
 62
    92
370
     5
100
AcDbLine
 10
1038.62395415435
 20
473.5134145375847
 30
0.0
 11
1013.450911238387
 21
443.5134392815669
 31
0.0
  0
LINE
  5
16C
330
1F
100
AcDbEntity
  8
D-2
  6
Continuous
 62
    92
370
     5
100
AcDbLine
 10
1048.623987146326
 20
473.5134145375847
 30
0.0
 11
1023.450944230364
 21
443.5134392815669
 31
0.0
  0
LINE
  5
16D
330
1F
100
AcDbEntity
  8
D-2
  6
Continuous
 62
    92
370
     5
100
AcDbLine
 10
1058.624020138303
 20
473.5134145375847
 30
0.0
 11
1033.45097722234
 21
443.5134392815669
 31
0.0
  0
LINE
  5
16E
330
1F
100
AcDbEntity
  8
D-2
  6
Continuous
 62
    92
370
     5
100
AcDbLine
 10
1068.624053130279
 20
473.5134145375847
 30
0.0
 11
1043.450762774493
 21
443.5134392815669
 31
0.0
  0
LINE
  5
16F
330
1F
100
AcDbEntity
  8
D-2
  6
Continuous
 62
    92
370
     5
100
AcDbLine
 10
1078.624086122255
 20
473.5134145375847
 30
0.0
 11
1053.45079576647
 21
443.5134392815669
 31
0.0
  0
LINE
  5
170
330
1F
100
AcDbEntity
  8
D-2
  6
Continuous
 62
    92
370
     5
100
AcDbLine
 10
1088.624119114232
 20
473.5134145375847
 30
0.0
 11
1063.450581318623
 21
443.5134392815669
 31
0.0
  0
LINE
  5
171
330
1F
100
AcDbEntity
  8
D-2
  6
Continuous
 62
    92
370
     5
100
AcDbLine
 10
1098.624152106208
 20
473.5134145375847
 30
0.0
 11
1073.451109190245
 21
443.5134392815669
 31
0.0
  0
LINE
  5
172
330
1F
100
AcDbEntity
  8
D-2
  6
Continuous
 62
    92
370
     5
100
AcDbLine
 10
1108.623937658361
 20
473.5134145375847
 30
0.0
 11
1083.450894742399
 21
443.5134392815669
 31
0.0
  0
LINE
  5
173
330
1F
100
AcDbEntity
  8
D-2
  6
Continuous
 62
    92
370
     5
100
AcDbLine
 10
1118.623970650338
 20
473.5134145375847
 30
0.0
 11
1093.450927734375
 21
443.5134392815669
 31
0.0
  0
LINE
  5
174
330
1F
100
AcDbEntity
  8
D-2
  6
Continuous
 62
    92
370
     5
100
AcDbLine
 10
1128.624003642315
 20
473.5134145375847
 30
0.0
 11
1103.450960726352
 21
443.5134392815669
 31
0.0
  0
LINE
  5
175
330
1F
100
AcDbEntity
  8
D-2
  6
Continuous
 62
    92
370
     5
100
AcDbLine
 10
1138.624036634291
 20
473.5134145375847
 30
0.0
 11
1113.450993718328
 21
443.5134392815669
 31
0.0
  0
LINE
  5
176
330
1F
100
AcDbEntity
  8
D-2
  6
Continuous
 62
    92
370
     5
100
AcDbLine
 10
1148.624069626267
 20
473.5134145375847
 30
0.0
 11
1123.450779270482
 21
443.5134392815669
 31
0.0
  0
LINE
  5
177
330
1F
100
AcDbEntity
  8
D-2
  6
Continuous
 62
    92
370
     5
100
AcDbLine
 10
1158.623855178421
 20
473.5134145375847
 30
0.0
 11
1133.450812262458
 21
443.5134392815669
 31
0.0
  0
LINE
  5
178
330
1F
100
AcDbEntity
  8
D-2
  6
Continuous
 62
    92
370
     5
100
AcDbLine
 10
1168.62413561022
 20
473.5134145375847
 30
0.0
 11
1143.451092694257
 21
443.5134392815669
 31
0.0
  0
LINE
  5
179
330
1F
100
AcDbEntity
  8
D-2
  6
Continuous
 62
    92
370
     5
100
AcDbLine
 10
1178.623921162373
 20
473.5134145375847
 30
0.0
 11
1153.45087824641
 21
443.5134392815669
 31
0.0
  0
LINE
  5
17A
330
1F
100
AcDbEntity
  8
D-2
  6
Continuous
 62
    92
370
     5
100
AcDbLine
 10
1188.62395415435
 20
473.5134145375847
 30
0.0
 11
1163.450911238387
 21
443.5134392815669
 31
0.0
  0
LINE
  5
17B
330
1F
100
AcDbEntity
  8
D-2
  6
Continuous
 62
    92
370
     5
100
AcDbLine
 10
1198.623987146326
 20
473.5134145375847
 30
0.0
 11
1173.450944230364
 21
443.5134392815669
 31
0.0
  0
LINE
  5
17C
330
1F
100
AcDbEntity
  8
D-2
  6
Continuous
 62
    92
370
     5
100
AcDbLine
 10
1208.624020138303
 20
473.5134145375847
 30
0.0
 11
1183.45097722234
 21
443.5134392815669
 31
0.0
  0
LINE
  5
17D
330
1F
100
AcDbEntity
  8
D-2
  6
Continuous
 62
    92
370
     5
100
AcDbLine
 10
1218.624053130279
 20
473.5134145375847
 30
0.0
 11
1193.450762774493
 21
443.5134392815669
 31
0.0
  0
LINE
  5
17E
330
1F
100
AcDbEntity
  8
D-2
  6
Continuous
 62
    92
370
     5
100
AcDbLine
 10
1228.624086122255
 20
473.5134145375847
 30
0.0
 11
1203.45079576647
 21
443.5134392815669
 31
0.0
  0
LINE
  5
17F
330
1F
100
AcDbEntity
  8
D-2
  6
Continuous
 62
    92
370
     5
100
AcDbLine
 10
1238.624119114232
 20
473.5134145375847
 30
0.0
 11
1213.450581318623
 21
443.5134392815669
 31
0.0
  0
LINE
  5
180
330
1F
100
AcDbEntity
  8
D-2
  6
Continuous
 62
    92
370
     5
100
AcDbLine
 10
1248.624152106208
 20
473.5134145375847
 30
0.0
 11
1223.451109190245
 21
443.5134392815669
 31
0.0
  0
LINE
  5
181
330
1F
100
AcDbEntity
  8
D-2
  6
Continuous
 62
    92
370
     5
100
AcDbLine
 10
1258.623937658361
 20
473.5134145375847
 30
0.0
 11
1233.450894742399
 21
443.5134392815669
 31
0.0
  0
LINE
  5
182
330
1F
100
AcDbEntity
  8
D-2
  6
Continuous
 62
    92
370
     5
100
AcDbLine
 10
1268.623970650338
 20
473.5134145375847
 30
0.0
 11
1243.450927734375
 21
443.5134392815669
 31
0.0
  0
LINE
  5
183
330
1F
100
AcDbEntity
  8
D-2
  6
Continuous
 62
    92
370
     5
100
AcDbLine
 10
1278.624003642315
 20
473.5134145375847
 30
0.0
 11
1253.450960726352
 21
443.5134392815669
 31
0.0
  0
LINE
  5
184
330
1F
100
AcDbEntity
  8
D-2
  6
Continuous
 62
    92
370
     5
100
AcDbLine
 10
1288.624036634291
 20
473.5134145375847
 30
0.0
 11
1263.450993718328
 21
443.5134392815669
 31
0.0
  0
LINE
  5
185
330
1F
100
AcDbEntity
  8
D-2
  6
Continuous
 62
    92
370
     5
100
AcDbLine
 10
1298.624069626267
 20
473.5134145375847
 30
0.0
 11
1273.450779270482
 21
443.5134392815669
 31
0.0
  0
LINE
  5
186
330
1F
100
AcDbEntity
  8
D-2
  6
Continuous
 62
    92
370
     5
100
AcDbLine
 10
1308.623855178421
 20
473.5134145375847
 30
0.0
 11
1283.450812262458
 21
443.5134392815669
 31
0.0
  0
LINE
  5
187
330
1F
100
AcDbEntity
  8
D-2
  6
Continuous
 62
    92
370
     5
100
AcDbLine
 10
1318.62413561022
 20
473.5134145375847
 30
0.0
 11
1293.451092694257
 21
443.5134392815669
 31
0.0
  0
LINE
  5
188
330
1F
100
AcDbEntity
  8
D-2
  6
Continuous
 62
    92
370
     5
100
AcDbLine
 10
1328.623921162373
 20
473.5134145375847
 30
0.0
 11
1303.451125686233
 21
443.5134392815669
 31
0.0
  0
LINE
  5
189
330
1F
100
AcDbEntity
  8
D-2
  6
Continuous
 62
    92
370
     5
100
AcDbLine
 10
1338.62395415435
 20
473.5134145375847
 30
0.0
 11
1313.450911238387
 21
443.5134392815669
 31
0.0
  0
LINE
  5
18A
330
1F
100
AcDbEntity
  8
D-2
  6
Continuous
 62
    92
370
     5
100
AcDbLine
 10
1348.623987146326
 20
473.5134145375847
 30
0.0
 11
1323.450944230364
 21
443.5134392815669
 31
0.0
  0
LINE
  5
18B
330
1F
100
AcDbEntity
  8
D-2
  6
Continuous
 62
    92
370
     5
100
AcDbLine
 10
1358.624020138303
 20
473.5134145375847
 30
0.0
 11
1333.45097722234
 21
443.5134392815669
 31
0.0
  0
LINE
  5
18C
330
1F
100
AcDbEntity
  8
D-2
  6
Continuous
 62
    92
370
     5
100
AcDbLine
 10
1368.624053130279
 20
473.5134145375847
 30
0.0
 11
1343.450762774493
 21
443.5134392815669
 31
0.0
  0
LINE
  5
18D
330
1F
100
AcDbEntity
  8
D-2
  6
Continuous
 62
    92
370
     5
100
AcDbLine
 10
1378.623838682433
 20
473.5134145375847
 30
0.0
 11
1353.45079576647
 21
443.5134392815669
 31
0.0
  0
LINE
  5
18E
330
1F
100
AcDbEntity
  8
D-2
  6
Continuous
 62
    92
370
     5
100
AcDbLine
 10
1388.624119114232
 20
473.5134145375847
 30
0.0
 11
1363.450581318623
 21
443.5134392815669
 31
0.0
  0
LINE
  5
18F
330
1F
100
AcDbEntity
  8
D-2
  6
Continuous
 62
    92
370
     5
100
AcDbLine
 10
1398.624152106208
 20
473.5134145375847
 30
0.0
 11
1373.451109190245
 21
443.5134392815669
 31
0.0
  0
LINE
  5
190
330
1F
100
AcDbEntity
  8
D-2
  6
Continuous
 62
    92
370
     5
100
AcDbLine
 10
1408.623937658361
 20
473.5134145375847
 30
0.0
 11
1383.450894742399
 21
443.5134392815669
 31
0.0
  0
LINE
  5
191
330
1F
100
AcDbEntity
  8
D-2
  6
Continuous
 62
    92
370
     5
100
AcDbLine
 10
1418.623970650338
 20
473.5134145375847
 30
0.0
 11
1393.450927734375
 21
443.5134392815669
 31
0.0
  0
LINE
  5
192
330
1F
100
AcDbEntity
  8
D-2
  6
Continuous
 62
    92
370
     5
100
AcDbLine
 10
1421.428701039907
 20
447.0889447186445
 30
0.0
 11
1399.25537109375
 21
473.5134145375847
 31
0.0
  0
LINE
  5
193
330
1F
100
AcDbEntity
  8
D-2
  6
Continuous
 62
    92
370
     5
100
AcDbLine
 10
1421.428701039907
 20
464.9382637642526
 30
0.0
 11
1403.450960726352
 21
443.5134392815669
 31
0.0
  0
LINE
  5
194
330
1F
100
AcDbEntity
  8
D-A
  6
Continuous
 62
    92
370
     5
100
AcDbLine
 10
1486.428420608108
 20
611.0134970175255
 30
0.0
 11
1489.428381017736
 21
610.7509633657096
 31
0.0
  0
LINE
  5
195
330
1F
100
AcDbEntity
  8
D-A
  6
Continuous
 62
    92
370
     5
100
AcDbLine
 10
1489.428381017736
 20
576.2759151974242
 30
0.0
 11
1486.428420608108
 21
576.0136289854307
 31
0.0
  0
LINE
  5
196
330
1F
100
AcDbEntity
  8
D-A
  6
Continuous
 62
    92
370
     5
100
AcDbLine
 10
1489.428381017736
 20
460.7509633657097
 30
0.0
 11
1486.428420608108
 21
461.0134970175255
 31
0.0
  0
LINE
  5
197
330
1F
100
AcDbEntity
  8
D-A
  6
Continuous
 62
    92
370
     5
100
AcDbLine
 10
1486.428420608108
 20
426.0135052655195
 30
0.0
 11
1489.428381017736
 21
426.275915197424
 31
0.0
  0
LINE
  5
198
330
1F
100
AcDbEntity
  8
D-A
  6
Continuous
 62
    92
370
     5
100
AcDbLine
 10
1438.665853964316
 20
375.513635583826
 30
0.0
 11
1438.928387616132
 21
378.5134722735432
 31
0.0
  0
LINE
  5
199
330
1F
100
AcDbEntity
  8
D-A
  6
Continuous
 62
    92
370
     5
100
AcDbLine
 10
1403.928519584038
 20
378.5134722735432
 30
0.0
 11
1404.190805796031
 21
375.513635583826
 31
0.0
  0
LINE
  5
19A
330
1F
100
AcDbEntity
  8
D-A
  6
Continuous
 62
    92
370
     5
100
AcDbLine
 10
1288.928387616132
 20
378.5134722735432
 30
0.0
 11
1288.665853964316
 21
375.513635583826
 31
0.0
  0
LINE
  5
19B
330
1F
100
AcDbEntity
  8
D-A
  6
Continuous
 62
    92
370
     5
100
AcDbLine
 10
1253.928519584038
 20
378.5134722735432
 30
0.0
 11
1254.190805796031
 21
375.513635583826
 31
0.0
  0
LINE
  5
19C
330
1F
100
AcDbEntity
  8
D-A
  6
JWW_CENTER1
 62
    92
370
     5
100
AcDbLine
 10
1471.428371120144
 20
443.5134392815669
 30
0.0
 11
1507.24058408995
 21
443.5134392815669
 31
0.0
  0
LINE
  5
19D
330
1F
100
AcDbEntity
  8
D-A
  6
JWW_CENTER1
 62
    92
370
     5
100
AcDbLine
 10
1421.428701039907
 20
358.8011788033151
 30
0.0
 11
1421.428701039907
 21
393.5133980415964
 31
0.0
  0
LINE
  5
19E
330
1F
100
AcDbEntity
  8
D-A
  6
JWW_CENTER1
 62
    92
370
     5
100
AcDbLine
 10
1271.428701039907
 20
358.8011788033151
 30
0.0
 11
1271.428701039907
 21
393.5133980415964
 31
0.0
  0
LINE
  5
19F
330
1F
100
AcDbEntity
  8
D-A
  6
JWW_CENTER1
 62
    92
370
     5
100
AcDbLine
 10
1471.428371120144
 20
593.5135630014781
 30
0.0
 11
1507.24058408995
 21
593.5135630014781
 31
0.0
  0
LINE
  5
1A0
330
1F
100
AcDbEntity
  8
D-A
  6
Continuous
 62
    92
370
     5
100
AcDbLine
 10
1288.928387616132
 20
378.5134722735432
 30
0.0
 11
1253.928519584038
 21
378.5134722735432
 31
0.0
  0
LINE
  5
1A1
330
1F
100
AcDbEntity
  8
D-A
  6
Continuous
 62
    92
370
     5
100
AcDbLine
 10
1281.428486592061
 20
378.5134722735432
 30
0.0
 11
1281.428486592061
 21
393.5133980415964
 31
0.0
  0
LINE
  5
1A2
330
1F
100
AcDbEntity
  8
D-A
  6
Continuous
 62
    92
370
     5
100
AcDbLine
 10
1261.428420608108
 20
378.5134722735432
 30
0.0
 11
1261.428420608108
 21
393.5133980415964
 31
0.0
  0
LINE
  5
1A3
330
1F
100
AcDbEntity
  8
D-A
  6
Continuous
 62
    92
370
     5
100
AcDbLine
 10
1411.428420608108
 20
378.5134722735432
 30
0.0
 11
1411.428420608108
 21
393.5133980415964
 31
0.0
  0
LINE
  5
1A4
330
1F
100
AcDbEntity
  8
D-A
  6
Continuous
 62
    92
370
     5
100
AcDbLine
 10
1431.428486592061
 20
378.5134722735432
 30
0.0
 11
1431.428486592061
 21
393.5133980415964
 31
0.0
  0
LINE
  5
1A5
330
1F
100
AcDbEntity
  8
D-A
  6
Continuous
 62
    92
370
     5
100
AcDbLine
 10
1438.928387616132
 20
378.5134722735432
 30
0.0
 11
1403.928519584038
 21
378.5134722735432
 31
0.0
  0
LINE
  5
1A6
330
1F
100
AcDbEntity
  8
D-A
  6
Continuous
 62
    92
370
     5
100
AcDbLine
 10
1486.428420608108
 20
461.0134970175255
 30
0.0
 11
1486.428420608108
 21
426.0135052655195
 31
0.0
  0
LINE
  5
1A7
330
1F
100
AcDbEntity
  8
D-A
  6
Continuous
 62
    92
370
     5
100
AcDbLine
 10
1486.428420608108
 20
453.5134722735432
 30
0.0
 11
1471.428371120144
 21
453.5134722735432
 31
0.0
  0
LINE
  5
1A8
330
1F
100
AcDbEntity
  8
D-A
  6
Continuous
 62
    92
370
     5
100
AcDbLine
 10
1486.428420608108
 20
433.513653729413
 30
0.0
 11
1471.428371120144
 21
433.513653729413
 31
0.0
  0
LINE
  5
1A9
330
1F
100
AcDbEntity
  8
D-A
  6
Continuous
 62
    92
370
     5
100
AcDbLine
 10
1486.428420608108
 20
583.5135300095019
 30
0.0
 11
1471.428371120144
 21
583.5135300095019
 31
0.0
  0
LINE
  5
1AA
330
1F
100
AcDbEntity
  8
D-A
  6
Continuous
 62
    92
370
     5
100
AcDbLine
 10
1486.428420608108
 20
603.5135959934544
 30
0.0
 11
1471.428371120144
 21
603.5135959934544
 31
0.0
  0
LINE
  5
1AB
330
1F
100
AcDbEntity
  8
D-A
  6
Continuous
 62
    92
370
     5
100
AcDbLine
 10
1486.428420608108
 20
611.0134970175255
 30
0.0
 11
1486.428420608108
 21
576.0136289854307
 31
0.0
  0
LINE
  5
1AC
330
1F
100
AcDbEntity
  8
1-9
  6
Continuous
 62
    92
370
     5
100
AcDbLine
 10
-1704.295225401182
 20
300.624241184544
 30
0.0
 11
-1704.295225401182
 21
324.6241719013938
 31
0.0
  0
LINE
  5
1AD
330
1F
100
AcDbEntity
  8
1-9
  6
Continuous
 62
    92
370
     5
100
AcDbLine
 10
-1644.295027449324
 20
300.624241184544
 30
0.0
 11
-1704.295225401182
 21
300.624241184544
 31
0.0
  0
LINE
  5
1AE
330
1F
100
AcDbEntity
  8
D-1
  6
Continuous
 62
    40
370
     9
100
AcDbLine
 10
1471.428371120144
 20
393.5133980415964
 30
0.0
 11
794.5945945945948
 21
393.5133980415964
 31
0.0
  0
LINE
  5
1AF
330
1F
100
AcDbEntity
  8
D-1
  6
Continuous
 62
    40
370
     9
100
AcDbLine
 10
1431.428486592061
 20
433.513653729413
 30
0.0
 11
794.5945945945948
 21
433.513653729413
 31
0.0
  0
LINE
  5
1B0
330
1F
100
AcDbEntity
  8
D-1
  6
Continuous
 62
    40
370
     9
100
AcDbLine
 10
1431.428486592061
 20
433.513653729413
 30
0.0
 11
1471.428371120144
 21
393.5133980415964
 31
0.0
  0
LINE
  5
1B1
330
1F
100
AcDbEntity
  8
D-2
  6
Continuous
 62
    92
370
     5
100
AcDbLine
 10
1421.428701039907
 20
443.5134392815669
 30
0.0
 11
794.5945945945948
 21
443.5134392815669
 31
0.0
  0
LINE
  5
1B2
330
1F
100
AcDbEntity
  8
D-2
  6
Continuous
 62
    92
370
     5
100
AcDbLine
 10
1421.428701039907
 20
473.5134145375847
 30
0.0
 11
794.5945945945948
 21
473.5134145375847
 31
0.0
  0
LINE
  5
1B3
330
1F
100
AcDbEntity
  8
D-2
  6
Continuous
 62
    92
370
     5
100
AcDbLine
 10
1421.428701039907
 20
473.5134145375847
 30
0.0
 11
1421.428701039907
 21
443.5134392815669
 31
0.0
  0
LINE
  5
1B4
330
1F
100
AcDbEntity
  8
D-2
  6
Continuous
 62
    92
370
     5
100
AcDbLine
 10
1421.428701039907
 20
538.5136289854307
 30
0.0
 11
1421.428701039907
 21
508.5135300095018
 31
0.0
  0
LINE
  5
1B5
330
1F
100
AcDbEntity
  8
D-2
  6
Continuous
 62
    92
370
     5
100
AcDbLine
 10
1421.428701039907
 20
538.5136289854307
 30
0.0
 11
794.5945945945948
 21
538.5136289854307
 31
0.0
  0
LINE
  5
1B6
330
1F
100
AcDbEntity
  8
D-2
  6
Continuous
 62
    92
370
     5
100
AcDbLine
 10
1421.428701039907
 20
508.5135300095018
 30
0.0
 11
794.5945945945948
 21
508.5135300095018
 31
0.0
  0
LINE
  5
1B7
330
1F
100
AcDbEntity
  8
D-2
  6
Continuous
 62
    92
370
     5
100
AcDbLine
 10
1421.428701039907
 20
573.5134970175255
 30
0.0
 11
794.5945945945948
 21
573.5134970175255
 31
0.0
  0
LINE
  5
1B8
330
1F
100
AcDbEntity
  8
D-2
  6
Continuous
 62
    92
370
     5
100
AcDbLine
 10
1421.428701039907
 20
603.5135959934544
 30
0.0
 11
794.5945945945948
 21
603.5135959934544
 31
0.0
  0
LINE
  5
1B9
330
1F
100
AcDbEntity
  8
D-2
  6
Continuous
 62
    92
370
     5
100
AcDbLine
 10
1421.428701039907
 20
603.5135959934544
 30
0.0
 11
1421.428701039907
 21
573.5134970175255
 31
0.0
  0
LINE
  5
1BA
330
1F
100
AcDbEntity
  8
D-2
  6
Continuous
 62
    92
370
     5
100
AcDbLine
 10
1421.428701039907
 20
993.513645481419
 30
0.0
 11
794.5945945945948
 21
993.513645481419
 31
0.0
  0
LINE
  5
1BB
330
1F
100
AcDbEntity
  8
D-2
  6
Continuous
 62
    92
370
     5
100
AcDbLine
 10
1421.428701039907
 20
993.513645481419
 30
0.0
 11
1421.428701039907
 21
963.5135465054901
 31
0.0
  0
LINE
  5
1BC
330
1F
100
AcDbEntity
  8
D-2
  6
Continuous
 62
    92
370
     5
100
AcDbLine
 10
1421.428701039907
 20
928.5136784733953
 30
0.0
 11
1421.428701039907
 21
898.5135794974665
 31
0.0
  0
LINE
  5
1BD
330
1F
100
AcDbEntity
  8
D-2
  6
Continuous
 62
    92
370
     5
100
AcDbLine
 10
1421.428701039907
 20
928.5136784733953
 30
0.0
 11
794.5945945945948
 21
928.5136784733953
 31
0.0
  0
LINE
  5
1BE
330
1F
100
AcDbEntity
  8
D-2
  6
Continuous
 62
    92
370
     5
100
AcDbLine
 10
1421.428701039907
 20
898.5135794974665
 30
0.0
 11
794.5945945945948
 21
898.5135794974665
 31
0.0
  0
LINE
  5
1BF
330
1F
100
AcDbEntity
  8
D-2
  6
Continuous
 62
    92
370
     5
100
AcDbLine
 10
1421.428701039907
 20
833.5136124894427
 30
0.0
 11
794.5945945945948
 21
833.5136124894427
 31
0.0
  0
LINE
  5
1C0
330
1F
100
AcDbEntity
  8
D-2
  6
Continuous
 62
    92
370
     5
100
AcDbLine
 10
1421.428701039907
 20
863.5134640255492
 30
0.0
 11
794.5945945945948
 21
863.5134640255492
 31
0.0
  0
LINE
  5
1C1
330
1F
100
AcDbEntity
  8
D-2
  6
Continuous
 62
    92
370
     5
100
AcDbLine
 10
1421.428701039907
 20
863.5134640255492
 30
0.0
 11
1421.428701039907
 21
833.5136124894427
 31
0.0
  0
LINE
  5
1C2
330
1F
100
AcDbEntity
  8
D-2
  6
Continuous
 62
    92
370
     5
100
AcDbLine
 10
1421.428701039907
 20
798.5134970175255
 30
0.0
 11
1421.428701039907
 21
768.513645481419
 31
0.0
  0
LINE
  5
1C3
330
1F
100
AcDbEntity
  8
D-2
  6
Continuous
 62
    92
370
     5
100
AcDbLine
 10
1421.428701039907
 20
703.5134310335727
 30
0.0
 11
794.5945945945948
 21
703.5134310335727
 31
0.0
  0
LINE
  5
1C4
330
1F
100
AcDbEntity
  8
D-2
  6
Continuous
 62
    92
370
     5
100
AcDbLine
 10
1421.428701039907
 20
733.5135300095019
 30
0.0
 11
794.5945945945948
 21
733.5135300095019
 31
0.0
  0
LINE
  5
1C5
330
1F
100
AcDbEntity
  8
D-2
  6
Continuous
 62
    92
370
     5
100
AcDbLine
 10
1421.428701039907
 20
733.5135300095019
 30
0.0
 11
1421.428701039907
 21
703.5134310335727
 31
0.0
  0
LINE
  5
1C6
330
1F
100
AcDbEntity
  8
D-2
  6
Continuous
 62
    92
370
     5
100
AcDbLine
 10
1421.428701039907
 20
668.5135630014781
 30
0.0
 11
1421.428701039907
 21
638.5134640255492
 31
0.0
  0
LINE
  5
1C7
330
1F
100
AcDbEntity
  8
D-2
  6
Continuous
 62
    92
370
     5
100
AcDbLine
 10
1421.428701039907
 20
668.5135630014781
 30
0.0
 11
794.5945945945948
 21
668.5135630014781
 31
0.0
  0
LINE
  5
1C8
330
1F
100
AcDbEntity
  8
D-2
  6
Continuous
 62
    92
370
     5
100
AcDbLine
 10
1421.428701039907
 20
638.5134640255492
 30
0.0
 11
794.5945945945948
 21
638.5134640255492
 31
0.0
  0
LINE
  5
1C9
330
1F
100
AcDbEntity
  8
1-9
  6
Continuous
 62
    92
370
     5
100
AcDbLine
 10
-1664.295093433277
 20
300.624241184544
 30
0.0
 11
-1664.295093433277
 21
305.2241474873313
 31
0.0
  0
LINE
  5
1CA
330
1F
100
AcDbEntity
  8
1-9
  6
Continuous
 62
    92
370
     5
100
AcDbLine
 10
-1698.295057142103
 20
930.6240927206505
 30
0.0
 11
-1660.294981260557
 21
930.6240927206505
 31
0.0
  0
LINE
  5
1CB
330
1F
100
AcDbEntity
  8
1-9
  6
Continuous
 62
    92
370
     5
100
AcDbLine
 10
-1654.2950604413
 20
924.623924461571
 30
0.0
 11
-1654.2950604413
 21
905.2241474873313
 31
0.0
  0
LINE
  5
1CC
330
1F
100
AcDbEntity
  8
1-9
  6
Continuous
 62
    92
370
     5
100
AcDbLine
 10
-1704.295225401182
 20
905.2241474873313
 30
0.0
 11
-1644.295027449324
 21
905.2241474873313
 31
0.0
  0
LINE
  5
1CD
330
1F
100
AcDbEntity
  8
1-9
  6
Continuous
 62
    92
370
     5
100
AcDbLine
 10
-1304.294895481419
 20
1244.623990445524
 30
0.0
 11
-1304.294895481419
 21
1206.624162003801
 31
0.0
  0
LINE
  5
1CE
330
1F
100
AcDbEntity
  8
1-9
  6
Continuous
 62
    92
370
     5
100
AcDbLine
 10
-1334.294994457348
 20
1250.624158704603
 30
0.0
 11
-1310.295063740498
 21
1250.624158704603
 31
0.0
  0
LINE
  5
1CF
330
1F
100
AcDbEntity
  8
1-9
  6
Continuous
 62
    92
370
     5
100
AcDbLine
 10
-1334.294994457348
 20
1190.624208192568
 30
0.0
 11
-1334.294994457348
 21
1250.624158704603
 31
0.0
  0
LINE
  5
1D0
330
1F
100
AcDbEntity
  8
1-9
  6
Continuous
 62
    92
370
     5
100
AcDbLine
 10
-1334.294994457348
 20
1210.624026736698
 30
0.0
 11
-1329.695088154561
 21
1210.624026736698
 31
0.0
  0
LINE
  5
1D1
330
1F
100
AcDbEntity
  8
D-1
  6
Continuous
 62
    40
370
     9
100
AcDbLine
 10
1471.428371120144
 20
1043.513563001478
 30
0.0
 11
1471.428371120144
 21
393.5133980415964
 31
0.0
  0
LINE
  5
1D2
330
1F
100
AcDbEntity
  8
D-1
  6
Continuous
 62
    40
370
     9
100
AcDbLine
 10
1431.428486592061
 20
1043.513563001478
 30
0.0
 11
1431.428486592061
 21
433.513653729413
 31
0.0
  0
LINE
  5
1D3
330
1F
100
AcDbEntity
  8
D-0
  6
Continuous
 62
    40
370
     9
100
AcDbLine
 10
794.5945945945948
 20
1061.354963972762
 30
0.0
 11
794.5945945945948
 21
375.6108794341216
 31
0.0
  0
LINE
  5
1D4
330
1F
100
AcDbEntity
  8
1-9
  6
Continuous
 62
    92
370
     5
100
AcDbLine
 10
-204.2952254011823
 20
1244.623990445524
 30
0.0
 11
-204.2952254011823
 21
1206.624162003801
 31
0.0
  0
LINE
  5
1D5
330
1F
100
AcDbEntity
  8
1-9
  6
Continuous
 62
    92
370
     5
100
AcDbLine
 10
-210.2951462204391
 20
1200.623993744721
 30
0.0
 11
-229.6951706345016
 21
1200.623993744721
 31
0.0
  0
LINE
  5
1D6
330
1F
100
AcDbEntity
  8
1-9
  6
Continuous
 62
    92
370
     5
100
AcDbLine
 10
-229.6951706345016
 20
1250.624158704603
 30
0.0
 11
-229.6951706345016
 21
1190.624208192568
 31
0.0
  0
LINE
  5
1D7
330
1F
100
AcDbEntity
  8
2-1
  6
Continuous
 62
    40
370
     9
100
AcDbLine
 10
1341.172089447846
 20
-491.2366382495776
 30
0.0
 11
1341.172089447846
 21
-536.2365392736485
 31
0.0
  0
LINE
  5
1D8
330
1F
100
AcDbEntity
  8
2-9
  6
Continuous
 62
    92
370
     5
100
AcDbLine
 10
1341.172089447846
 20
-496.2364073057432
 30
0.0
 11
1341.172089447846
 21
-556.2366052576012
 31
0.0
  0
LINE
  5
1D9
330
1F
100
AcDbEntity
  8
2-9
  6
Continuous
 62
    92
370
     5
100
AcDbLine
 10
1281.172138935811
 20
-590.2365689664273
 30
0.0
 11
1318.172063054266
 21
-590.2365689664273
 31
0.0
  0
LINE
  5
1DA
330
1F
100
AcDbEntity
  8
2-9
  6
Continuous
 62
    92
370
     5
100
AcDbLine
 10
1281.172138935811
 20
-622.2367240287161
 30
0.0
 11
1318.172063054266
 21
-622.2367240287161
 31
0.0
  0
LINE
  5
1DB
330
1F
100
AcDbEntity
  8
2-9
  6
Continuous
 62
    92
370
     5
100
AcDbLine
 10
1377.172109243032
 20
-622.2367240287161
 30
0.0
 11
1377.172109243032
 21
-590.2365689664273
 31
0.0
  0
LINE
  5
1DC
330
1F
100
AcDbEntity
  8
2-9
  6
Continuous
 62
    92
370
     5
100
AcDbLine
 10
1285.172003668708
 20
-626.2365887616131
 30
0.0
 11
1285.172003668708
 21
-586.2367042335303
 31
0.0
  0
LINE
  5
1DD
330
1F
100
AcDbEntity
  8
2-1
  6
Continuous
 62
    40
370
     9
100
AcDbLine
 10
1351.172122439823
 20
-676.2365062816723
 30
0.0
 11
1351.172122439823
 21
-726.2366712415541
 31
0.0
  0
LINE
  5
1DE
330
1F
100
AcDbEntity
  8
2-1
  6
Continuous
 62
    40
370
     9
100
AcDbLine
 10
1271.172105943834
 20
-726.2366712415541
 30
0.0
 11
1271.172105943834
 21
-486.2366217535895
 31
0.0
  0
LINE
  5
1DF
330
1F
100
AcDbEntity
  8
2-1
  6
Continuous
 62
    40
370
     9
100
AcDbLine
 10
1351.172122439823
 20
-486.2366217535895
 30
0.0
 11
1351.172122439823
 21
-536.2365392736485
 31
0.0
  0
LINE
  5
1E0
330
1F
100
AcDbEntity
  8
2-1
  6
Continuous
 62
    40
370
     9
100
AcDbLine
 10
1281.172138935811
 20
-721.2366547455658
 30
0.0
 11
1281.172138935811
 21
-491.2366382495776
 31
0.0
  0
LINE
  5
1E1
330
1F
100
AcDbEntity
  8
2-1
  6
Continuous
 62
    40
370
     9
100
AcDbLine
 10
1281.172138935811
 20
-491.2366382495776
 30
0.0
 11
1341.172089447846
 21
-491.2366382495776
 31
0.0
  0
LINE
  5
1E2
330
1F
100
AcDbEntity
  8
2-1
  6
Continuous
 62
    40
370
     9
100
AcDbLine
 10
1341.172089447846
 20
-676.2365062816723
 30
0.0
 11
1341.172089447846
 21
-721.2366547455658
 31
0.0
  0
LINE
  5
1E3
330
1F
100
AcDbEntity
  8
2-1
  6
Continuous
 62
    40
370
     9
100
AcDbLine
 10
1341.172089447846
 20
-721.2366547455658
 30
0.0
 11
1281.172138935811
 21
-721.2366547455658
 31
0.0
  0
LINE
  5
1E4
330
1F
100
AcDbEntity
  8
2-1
  6
Continuous
 62
    40
370
     9
100
AcDbLine
 10
1341.172089447846
 20
-676.2365062816723
 30
0.0
 11
1351.172122439823
 21
-676.2365062816723
 31
0.0
  0
LINE
  5
1E5
330
1F
100
AcDbEntity
  8
2-1
  6
Continuous
 62
    40
370
     9
100
AcDbLine
 10
1341.172089447846
 20
-536.2365392736485
 30
0.0
 11
1351.172122439823
 21
-536.2365392736485
 31
0.0
  0
LINE
  5
1E6
330
1F
100
AcDbEntity
  8
2-9
  6
JWW_CENTER2
 62
    92
370
     5
100
AcDbLine
 10
1271.172105943834
 20
-606.2365227776604
 30
0.0
 11
1414.344004038218
 21
-606.2365227776604
 31
0.0
  0
LINE
  5
1E7
330
1F
100
AcDbEntity
  8
2-9
  6
Continuous
 62
    92
370
     5
100
AcDbLine
 10
1285.172003668708
 20
-586.2367042335303
 30
0.0
 11
1318.172063054266
 21
-586.2367042335303
 31
0.0
  0
LINE
  5
1E8
330
1F
100
AcDbEntity
  8
2-9
  6
Continuous
 62
    92
370
     5
100
AcDbLine
 10
1285.172003668708
 20
-626.2365887616131
 30
0.0
 11
1318.172063054266
 21
-626.2365887616131
 31
0.0
  0
LINE
  5
1E9
330
1F
100
AcDbEntity
  8
2-9
  6
Continuous
 62
    92
370
     5
100
AcDbLine
 10
1381.172221415752
 20
-641.2366382495776
 30
0.0
 11
1381.172221415752
 21
-571.2366547455658
 31
0.0
  0
LINE
  5
1EA
330
1F
100
AcDbEntity
  8
2-9
  6
Continuous
 62
    92
370
     5
100
AcDbLine
 10
1387.172142235009
 20
-571.761474609375
 30
0.0
 11
1381.172221415752
 21
-571.2366547455658
 31
0.0
  0
LINE
  5
1EB
330
1F
100
AcDbEntity
  8
2-9
  6
Continuous
 62
    92
370
     5
100
AcDbLine
 10
1387.172142235009
 20
-640.7115709459459
 30
0.0
 11
1381.172221415752
 21
-641.2366382495776
 31
0.0
  0
LINE
  5
1EC
330
1F
100
AcDbEntity
  8
2-9
  6
Continuous
 62
    92
370
     5
100
AcDbLine
 10
1285.172003668708
 20
-586.2367042335303
 30
0.0
 11
1281.172138935811
 21
-590.2365689664273
 31
0.0
  0
LINE
  5
1ED
330
1F
100
AcDbEntity
  8
2-9
  6
Continuous
 62
    92
370
     5
100
AcDbLine
 10
1281.172138935811
 20
-622.2367240287161
 30
0.0
 11
1285.172003668708
 21
-626.2365887616131
 31
0.0
  0
LINE
  5
1EE
330
1F
100
AcDbEntity
  8
2-9
  6
Continuous
 62
    92
370
     5
100
AcDbLine
 10
1381.172221415752
 20
-586.2367042335303
 30
0.0
 11
1377.172109243032
 21
-590.2365689664273
 31
0.0
  0
LINE
  5
1EF
330
1F
100
AcDbEntity
  8
2-9
  6
Continuous
 62
    92
370
     5
100
AcDbLine
 10
1377.172109243032
 20
-622.2367240287161
 30
0.0
 11
1381.172221415752
 21
-626.2365887616131
 31
0.0
  0
LINE
  5
1F0
330
1F
100
AcDbEntity
  8
2-9
  6
Continuous
 62
    92
370
     5
100
AcDbLine
 10
1341.172089447846
 20
-622.2367240287161
 30
0.0
 11
1377.172109243032
 21
-622.2367240287161
 31
0.0
  0
LINE
  5
1F1
330
1F
100
AcDbEntity
  8
2-9
  6
Continuous
 62
    92
370
     5
100
AcDbLine
 10
1341.172089447846
 20
-626.2365887616131
 30
0.0
 11
1381.172221415752
 21
-626.2365887616131
 31
0.0
  0
LINE
  5
1F2
330
1F
100
AcDbEntity
  8
2-9
  6
Continuous
 62
    92
370
     5
100
AcDbLine
 10
1341.172089447846
 20
-590.2365689664273
 30
0.0
 11
1377.172109243032
 21
-590.2365689664273
 31
0.0
  0
LINE
  5
1F3
330
1F
100
AcDbEntity
  8
2-9
  6
Continuous
 62
    92
370
     5
100
AcDbLine
 10
1341.172089447846
 20
-586.2367042335303
 30
0.0
 11
1381.172221415752
 21
-586.2367042335303
 31
0.0
  0
LINE
  5
1F4
330
1F
100
AcDbEntity
  8
2-9
  6
JWW_DASHED1
 62
    92
370
     5
100
AcDbLine
 10
1318.172063054266
 20
-626.2365887616131
 30
0.0
 11
1341.172089447846
 21
-626.2365887616131
 31
0.0
  0
LINE
  5
1F5
330
1F
100
AcDbEntity
  8
2-9
  6
JWW_DASHED1
 62
    92
370
     5
100
AcDbLine
 10
1318.172063054266
 20
-622.2367240287161
 30
0.0
 11
1341.172089447846
 21
-622.2367240287161
 31
0.0
  0
LINE
  5
1F6
330
1F
100
AcDbEntity
  8
2-9
  6
JWW_DASHED1
 62
    92
370
     5
100
AcDbLine
 10
1318.172063054266
 20
-590.2365689664273
 30
0.0
 11
1341.172089447846
 21
-590.2365689664273
 31
0.0
  0
LINE
  5
1F7
330
1F
100
AcDbEntity
  8
2-9
  6
JWW_DASHED1
 62
    92
370
     5
100
AcDbLine
 10
1318.172063054266
 20
-586.2367042335303
 30
0.0
 11
1341.172089447846
 21
-586.2367042335303
 31
0.0
  0
LINE
  5
1F8
330
1F
100
AcDbEntity
  8
2-1
  6
Continuous
 62
    40
370
     9
100
AcDbLine
 10
383.6722709037164
 20
-460.543212890625
 30
0.0
 11
383.6722709037164
 21
-752.7758294182854
 31
0.0
  0
LINE
  5
1F9
330
1F
100
AcDbEntity
  8
2-9
  6
Continuous
 62
    92
370
     5
100
AcDbLine
 10
1318.172063054266
 20
-496.2364073057432
 30
0.0
 11
1318.172063054266
 21
-721.2366547455658
 31
0.0
  0
LINE
  5
1FA
330
1F
100
AcDbEntity
  8
2-9
  6
Continuous
 62
    92
370
     5
100
AcDbLine
 10
1341.172089447846
 20
-721.2366547455658
 30
0.0
 11
1318.172063054266
 21
-721.2366547455658
 31
0.0
  0
LINE
  5
1FB
330
1F
100
AcDbEntity
  8
2-9
  6
Continuous
 62
    92
370
     5
100
AcDbLine
 10
1341.172089447846
 20
-721.2366547455658
 30
0.0
 11
1341.172089447846
 21
-656.2364402977196
 31
0.0
  0
LINE
  5
1FC
330
1F
100
AcDbEntity
  8
2-9
  6
Continuous
 62
    92
370
     5
100
AcDbLine
 10
1341.172089447846
 20
-496.2364073057432
 30
0.0
 11
1318.172063054266
 21
-496.2364073057432
 31
0.0
  0
LINE
  5
1FD
330
1F
100
AcDbEntity
  8
2-9
  6
Continuous
 62
    92
370
     5
100
AcDbLine
 10
1461.882885082348
 20
-656.2364402977196
 30
0.0
 11
1621.172023463894
 21
-656.2364402977196
 31
0.0
  0
LINE
  5
1FE
330
1F
100
AcDbEntity
  8
2-9
  6
Continuous
 62
    92
370
     5
100
AcDbLine
 10
1385.314116606841
 20
-700.3787148965371
 30
0.0
 11
1341.172089447846
 21
-656.2364402977196
 31
0.0
  0
LINE
  5
1FF
330
1F
100
AcDbEntity
  8
2-9
  6
Continuous
 62
    92
370
     5
100
AcDbLine
 10
1641.172089447846
 20
-733.2364963840793
 30
0.0
 11
1391.172006967906
 21
-733.2364963840793
 31
0.0
  0
LINE
  5
200
330
1F
100
AcDbEntity
  8
2-9
  6
JWW_DASHED3
 62
    92
370
     5
100
AcDbLine
 10
1341.172089447846
 20
-656.2364402977196
 30
0.0
 11
1341.172089447846
 21
-556.2366052576012
 31
0.0
  0
LINE
  5
201
330
1F
100
AcDbEntity
  8
2-9
  6
Continuous
 62
    92
370
     5
100
AcDbLine
 10
1391.172006967906
 20
-756.2365227776604
 30
0.0
 11
1641.172089447846
 21
-756.2365227776604
 31
0.0
  0
LINE
  5
202
330
1F
100
AcDbEntity
  8
2-5
  6
Continuous
 62
     7
370
     5
100
AcDbLine
 10
1395.167417783995
 20
-965.82275390625
 30
0.0
 11
1004.297617319468
 21
-965.82275390625
 31
0.0
  0
LINE
  5
203
330
1F
100
AcDbEntity
  8
2-4
  6
Continuous
 62
     7
370
     5
100
AcDbLine
 10
310.9571302259292
 20
-481.2366052576013
 30
0.0
 11
310.9571302259292
 21
-681.2365227776604
 31
0.0
  0
LINE
  5
204
330
1F
100
AcDbEntity
  8
2-4
  6
Continuous
 62
     7
370
     5
100
AcDbLine
 10
368.0580757759714
 20
-481.2366052576013
 30
0.0
 11
227.6963517472552
 21
-481.2366052576013
 31
0.0
  0
LINE
  5
205
330
1F
100
AcDbEntity
  8
2-4
  6
Continuous
 62
     7
370
     5
100
AcDbLine
 10
230.6963121568836
 20
-481.2366052576013
 30
0.0
 11
230.6963121568836
 21
-731.2364402977196
 31
0.0
  0
LINE
  5
206
330
1F
100
AcDbEntity
  8
2-4
  6
Continuous
 62
     7
370
     5
100
AcDbLine
 10
369.503619219806
 20
-731.2364402977196
 30
0.0
 11
227.6963517472552
 21
-731.2364402977196
 31
0.0
  0
LINE
  5
207
330
1F
100
AcDbEntity
  8
2-9
  6
Continuous
 62
    92
370
     5
100
AcDbLine
 10
1341.172089447846
 20
-556.2366052576012
 30
0.0
 11
1371.172188423775
 21
-586.2367042335303
 31
0.0
  0
LINE
  5
208
330
1F
100
AcDbEntity
  8
2-9
  6
Continuous
 62
    92
370
     5
100
AcDbLine
 10
1404.771299619933
 20
-619.8355679898648
 30
0.0
 11
1426.52769346495
 21
-641.5919618348818
 31
0.0
  0
LINE
  5
209
330
1F
100
AcDbEntity
  8
2-9
  6
Continuous
 62
    92
370
     5
100
AcDbLine
 10
1391.172006967906
 20
-756.2365227776604
 30
0.0
 11
1391.172006967906
 21
-714.5208905194256
 31
0.0
  0
LINE
  5
20A
330
1F
100
AcDbEntity
  8
2-4
  6
Continuous
 62
     7
370
     5
100
AcDbLine
 10
1738.423610377956
 20
-756.2365227776604
 30
0.0
 11
1738.423610377956
 21
-481.2366052576013
 31
0.0
  0
LINE
  5
20B
330
1F
100
AcDbEntity
  8
2-4
  6
Continuous
 62
     7
370
     5
100
AcDbLine
 10
1656.172138935811
 20
-756.2365227776604
 30
0.0
 11
1741.423570787585
 21
-756.2365227776604
 31
0.0
  0
LINE
  5
20C
330
1F
100
AcDbEntity
  8
2-4
  6
Continuous
 62
     7
370
     5
100
AcDbLine
 10
1636.172072951858
 20
-656.2364402977196
 30
0.0
 11
1741.423570787585
 21
-656.2364402977196
 31
0.0
  0
LINE
  5
20D
330
1F
100
AcDbEntity
  8
2-4
  6
Continuous
 62
     7
370
     5
100
AcDbLine
 10
1361.172155431799
 20
-481.2366052576013
 30
0.0
 11
1741.423570787585
 21
-481.2366052576013
 31
0.0
  0
LINE
  5
20E
330
1F
100
AcDbEntity
  8
2-2
  6
Continuous
 62
    92
370
     5
100
AcDbLine
 10
1074.172396273227
 20
-501.2366712415541
 30
0.0
 11
1084.172429265203
 21
-501.2366712415541
 31
0.0
  0
LINE
  5
20F
330
1F
100
AcDbEntity
  8
2-2
  6
Continuous
 62
    92
370
     5
100
AcDbLine
 10
1089.172445761191
 20
-506.2364402977195
 30
0.0
 11
1089.172445761191
 21
-671.2367372255068
 31
0.0
  0
LINE
  5
210
330
1F
100
AcDbEntity
  8
2-2
  6
Continuous
 62
    92
370
     5
100
AcDbLine
 10
1109.172511745144
 20
-671.2367372255068
 30
0.0
 11
1109.172511745144
 21
-506.2364402977195
 31
0.0
  0
LINE
  5
211
330
1F
100
AcDbEntity
  8
2-2
  6
Continuous
 62
    92
370
     5
100
AcDbLine
 10
1114.172528241132
 20
-501.2366712415541
 30
0.0
 11
1124.172808672931
 21
-501.2366712415541
 31
0.0
  0
LINE
  5
212
330
1F
100
AcDbEntity
  8
2-2
  6
Continuous
 62
    92
370
     5
100
AcDbLine
 10
1069.172379777239
 20
-481.2366052576013
 30
0.0
 11
1069.172379777239
 21
-496.2366547455659
 31
0.0
  0
LINE
  5
213
330
1F
100
AcDbEntity
  8
2-2
  6
Continuous
 62
    92
370
     5
100
AcDbLine
 10
1129.172825168919
 20
-481.2366052576013
 30
0.0
 11
1069.172379777239
 21
-481.2366052576013
 31
0.0
  0
LINE
  5
214
330
1F
100
AcDbEntity
  8
2-2
  6
Continuous
 62
    92
370
     5
100
AcDbLine
 10
1129.172825168919
 20
-496.2366547455659
 30
0.0
 11
1129.172825168919
 21
-481.2366052576013
 31
0.0
  0
LINE
  5
215
330
1F
100
AcDbEntity
  8
2-2
  6
Continuous
 62
    92
370
     5
100
AcDbLine
 10
1204.172330289274
 20
-501.2366712415541
 30
0.0
 11
1214.17236328125
 21
-501.2366712415541
 31
0.0
  0
LINE
  5
216
330
1F
100
AcDbEntity
  8
2-2
  6
Continuous
 62
    92
370
     5
100
AcDbLine
 10
1219.172379777239
 20
-506.2364402977195
 30
0.0
 11
1219.172379777239
 21
-671.2367372255068
 31
0.0
  0
LINE
  5
217
330
1F
100
AcDbEntity
  8
2-2
  6
Continuous
 62
    92
370
     5
100
AcDbLine
 10
1239.172445761191
 20
-671.2367372255068
 30
0.0
 11
1239.172445761191
 21
-506.2364402977195
 31
0.0
  0
LINE
  5
218
330
1F
100
AcDbEntity
  8
2-2
  6
Continuous
 62
    92
370
     5
100
AcDbLine
 10
1244.172462257179
 20
-501.2366712415541
 30
0.0
 11
1254.172742688978
 21
-501.2366712415541
 31
0.0
  0
LINE
  5
219
330
1F
100
AcDbEntity
  8
2-2
  6
Continuous
 62
    92
370
     5
100
AcDbLine
 10
1199.172313793285
 20
-481.2366052576013
 30
0.0
 11
1199.172313793285
 21
-496.2366547455659
 31
0.0
  0
LINE
  5
21A
330
1F
100
AcDbEntity
  8
2-2
  6
Continuous
 62
    92
370
     5
100
AcDbLine
 10
1259.172759184966
 20
-481.2366052576013
 30
0.0
 11
1199.172313793285
 21
-481.2366052576013
 31
0.0
  0
LINE
  5
21B
330
1F
100
AcDbEntity
  8
2-2
  6
Continuous
 62
    92
370
     5
100
AcDbLine
 10
1259.172759184966
 20
-496.2366547455659
 30
0.0
 11
1259.172759184966
 21
-481.2366052576013
 31
0.0
  0
LINE
  5
21C
330
1F
100
AcDbEntity
  8
2-2
  6
Continuous
 62
    92
370
     5
100
AcDbLine
 10
944.1724622571792
 20
-501.2366712415541
 30
0.0
 11
954.1724952491558
 21
-501.2366712415541
 31
0.0
  0
LINE
  5
21D
330
1F
100
AcDbEntity
  8
2-2
  6
Continuous
 62
    92
370
     5
100
AcDbLine
 10
959.1725117451438
 20
-506.2364402977195
 30
0.0
 11
959.1725117451438
 21
-671.2367372255068
 31
0.0
  0
LINE
  5
21E
330
1F
100
AcDbEntity
  8
2-2
  6
Continuous
 62
    92
370
     5
100
AcDbLine
 10
979.1725777290964
 20
-671.2367372255068
 30
0.0
 11
979.1725777290964
 21
-506.2364402977195
 31
0.0
  0
LINE
  5
21F
330
1F
100
AcDbEntity
  8
2-2
  6
Continuous
 62
    92
370
     5
100
AcDbLine
 10
984.1725942250844
 20
-501.2366712415541
 30
0.0
 11
994.1728746568839
 21
-501.2366712415541
 31
0.0
  0
LINE
  5
220
330
1F
100
AcDbEntity
  8
2-2
  6
Continuous
 62
    92
370
     5
100
AcDbLine
 10
939.1724457611912
 20
-481.2366052576013
 30
0.0
 11
939.1724457611912
 21
-496.2366547455659
 31
0.0
  0
LINE
  5
221
330
1F
100
AcDbEntity
  8
2-2
  6
Continuous
 62
    92
370
     5
100
AcDbLine
 10
999.1728911528719
 20
-481.2366052576013
 30
0.0
 11
939.1724457611912
 21
-481.2366052576013
 31
0.0
  0
LINE
  5
222
330
1F
100
AcDbEntity
  8
2-2
  6
Continuous
 62
    92
370
     5
100
AcDbLine
 10
999.1728911528719
 20
-496.2366547455659
 30
0.0
 11
999.1728911528719
 21
-481.2366052576013
 31
0.0
  0
LINE
  5
223
330
1F
100
AcDbEntity
  8
2-2
  6
Continuous
 62
    92
370
     5
100
AcDbLine
 10
814.1725282411318
 20
-501.2366712415541
 30
0.0
 11
824.1725612331084
 21
-501.2366712415541
 31
0.0
  0
LINE
  5
224
330
1F
100
AcDbEntity
  8
2-2
  6
Continuous
 62
    92
370
     5
100
AcDbLine
 10
829.172330289274
 20
-506.2364402977195
 30
0.0
 11
829.172330289274
 21
-671.2367372255068
 31
0.0
  0
LINE
  5
225
330
1F
100
AcDbEntity
  8
2-2
  6
Continuous
 62
    92
370
     5
100
AcDbLine
 10
849.1723962732266
 20
-671.2367372255068
 30
0.0
 11
849.1723962732266
 21
-506.2364402977195
 31
0.0
  0
LINE
  5
226
330
1F
100
AcDbEntity
  8
2-2
  6
Continuous
 62
    92
370
     5
100
AcDbLine
 10
854.1726602090375
 20
-501.2366712415541
 30
0.0
 11
864.1726932010135
 21
-501.2366712415541
 31
0.0
  0
LINE
  5
227
330
1F
100
AcDbEntity
  8
2-2
  6
Continuous
 62
    92
370
     5
100
AcDbLine
 10
809.1722643053214
 20
-481.2366052576013
 30
0.0
 11
809.1722643053214
 21
-496.2366547455659
 31
0.0
  0
LINE
  5
228
330
1F
100
AcDbEntity
  8
2-2
  6
Continuous
 62
    92
370
     5
100
AcDbLine
 10
869.1729571368245
 20
-481.2366052576013
 30
0.0
 11
809.1722643053214
 21
-481.2366052576013
 31
0.0
  0
LINE
  5
229
330
1F
100
AcDbEntity
  8
2-2
  6
Continuous
 62
    92
370
     5
100
AcDbLine
 10
869.1729571368245
 20
-496.2366547455659
 30
0.0
 11
869.1729571368245
 21
-481.2366052576013
 31
0.0
  0
LINE
  5
22A
330
1F
100
AcDbEntity
  8
2-2
  6
Continuous
 62
    92
370
     5
100
AcDbLine
 10
684.172346785262
 20
-501.2366712415541
 30
0.0
 11
694.1723797772386
 21
-501.2366712415541
 31
0.0
  0
LINE
  5
22B
330
1F
100
AcDbEntity
  8
2-2
  6
Continuous
 62
    92
370
     5
100
AcDbLine
 10
699.1723962732266
 20
-506.2364402977195
 30
0.0
 11
699.1723962732266
 21
-671.2367372255068
 31
0.0
  0
LINE
  5
22C
330
1F
100
AcDbEntity
  8
2-2
  6
Continuous
 62
    92
370
     5
100
AcDbLine
 10
719.1724622571792
 20
-671.2367372255068
 30
0.0
 11
719.1724622571792
 21
-506.2364402977195
 31
0.0
  0
LINE
  5
22D
330
1F
100
AcDbEntity
  8
2-2
  6
Continuous
 62
    92
370
     5
100
AcDbLine
 10
724.1724787531672
 20
-501.2366712415541
 30
0.0
 11
734.1727591849661
 21
-501.2366712415541
 31
0.0
  0
LINE
  5
22E
330
1F
100
AcDbEntity
  8
2-2
  6
Continuous
 62
    92
370
     5
100
AcDbLine
 10
679.172330289274
 20
-481.2366052576013
 30
0.0
 11
679.172330289274
 21
-496.2366547455659
 31
0.0
  0
LINE
  5
22F
330
1F
100
AcDbEntity
  8
2-2
  6
Continuous
 62
    92
370
     5
100
AcDbLine
 10
739.1727756809547
 20
-481.2366052576013
 30
0.0
 11
679.172330289274
 21
-481.2366052576013
 31
0.0
  0
LINE
  5
230
330
1F
100
AcDbEntity
  8
2-2
  6
Continuous
 62
    92
370
     5
100
AcDbLine
 10
739.1727756809547
 20
-496.2366547455659
 30
0.0
 11
739.1727756809547
 21
-481.2366052576013
 31
0.0
  0
LINE
  5
231
330
1F
100
AcDbEntity
  8
2-2
  6
Continuous
 62
    92
370
     5
100
AcDbLine
 10
554.1724127692146
 20
-501.2366712415541
 30
0.0
 11
564.1724457611912
 21
-501.2366712415541
 31
0.0
  0
LINE
  5
232
330
1F
100
AcDbEntity
  8
2-2
  6
Continuous
 62
    92
370
     5
100
AcDbLine
 10
569.1724622571792
 20
-506.2364402977195
 30
0.0
 11
569.1724622571792
 21
-671.2367372255068
 31
0.0
  0
LINE
  5
233
330
1F
100
AcDbEntity
  8
2-2
  6
Continuous
 62
    92
370
     5
100
AcDbLine
 10
589.1725282411318
 20
-671.2367372255068
 30
0.0
 11
589.1725282411318
 21
-506.2364402977195
 31
0.0
  0
LINE
  5
234
330
1F
100
AcDbEntity
  8
2-2
  6
Continuous
 62
    92
370
     5
100
AcDbLine
 10
594.1725447371203
 20
-501.2366712415541
 30
0.0
 11
604.1728251689193
 21
-501.2366712415541
 31
0.0
  0
LINE
  5
235
330
1F
100
AcDbEntity
  8
2-2
  6
Continuous
 62
    92
370
     5
100
AcDbLine
 10
549.1723962732266
 20
-481.2366052576013
 30
0.0
 11
549.1723962732266
 21
-496.2366547455659
 31
0.0
  0
LINE
  5
236
330
1F
100
AcDbEntity
  8
2-2
  6
Continuous
 62
    92
370
     5
100
AcDbLine
 10
609.1728416649073
 20
-481.2366052576013
 30
0.0
 11
549.1723962732266
 21
-481.2366052576013
 31
0.0
  0
LINE
  5
237
330
1F
100
AcDbEntity
  8
2-2
  6
Continuous
 62
    92
370
     5
100
AcDbLine
 10
609.1728416649073
 20
-496.2366547455659
 30
0.0
 11
609.1728416649073
 21
-481.2366052576013
 31
0.0
  0
LINE
  5
238
330
1F
100
AcDbEntity
  8
2-2
  6
Continuous
 62
    92
370
     5
100
AcDbLine
 10
424.1724787531675
 20
-501.2366712415541
 30
0.0
 11
434.1725117451438
 21
-501.2366712415541
 31
0.0
  0
LINE
  5
239
330
1F
100
AcDbEntity
  8
2-2
  6
Continuous
 62
    92
370
     5
100
AcDbLine
 10
439.1725282411318
 20
-506.2364402977195
 30
0.0
 11
439.1725282411318
 21
-671.2367372255068
 31
0.0
  0
LINE
  5
23A
330
1F
100
AcDbEntity
  8
2-2
  6
Continuous
 62
    92
370
     5
100
AcDbLine
 10
459.1725942250847
 20
-671.2367372255068
 30
0.0
 11
459.1725942250847
 21
-506.2364402977195
 31
0.0
  0
LINE
  5
23B
330
1F
100
AcDbEntity
  8
2-2
  6
Continuous
 62
    92
370
     5
100
AcDbLine
 10
464.1726107210729
 20
-501.2366712415541
 30
0.0
 11
474.1728911528719
 21
-501.2366712415541
 31
0.0
  0
LINE
  5
23C
330
1F
100
AcDbEntity
  8
2-2
  6
Continuous
 62
    92
370
     5
100
AcDbLine
 10
419.1724622571792
 20
-481.2366052576013
 30
0.0
 11
419.1724622571792
 21
-496.2366547455659
 31
0.0
  0
LINE
  5
23D
330
1F
100
AcDbEntity
  8
2-2
  6
Continuous
 62
    92
370
     5
100
AcDbLine
 10
479.1729076488599
 20
-481.2366052576013
 30
0.0
 11
419.1724622571792
 21
-481.2366052576013
 31
0.0
  0
LINE
  5
23E
330
1F
100
AcDbEntity
  8
2-2
  6
Continuous
 62
    92
370
     5
100
AcDbLine
 10
479.1729076488599
 20
-496.2366547455659
 30
0.0
 11
479.1729076488599
 21
-481.2366052576013
 31
0.0
  0
LINE
  5
23F
330
1F
100
AcDbEntity
  8
2-4
  6
Continuous
 62
     7
370
     5
100
AcDbLine
 10
430.2090206661742
 20
-681.2365227776604
 30
0.0
 11
307.9571698163008
 21
-681.2365227776604
 31
0.0
  0
LINE
  5
240
330
1F
100
AcDbEntity
  8
2-4
  6
Continuous
 62
     7
370
     5
100
AcDbLine
 10
1251.172039959882
 20
-414.8395930109797
 30
0.0
 11
1351.172122439823
 21
-414.8395930109797
 31
0.0
  0
LINE
  5
241
330
1F
100
AcDbEntity
  8
2-4
  6
Continuous
 62
     7
370
     5
100
AcDbLine
 10
1251.172039959882
 20
-529.2367141311233
 30
0.0
 11
1251.172039959882
 21
-411.8396326013513
 31
0.0
  0
LINE
  5
242
330
1F
100
AcDbEntity
  8
2-4
  6
Continuous
 62
     7
370
     5
100
AcDbLine
 10
1271.172105943834
 20
-471.236572265625
 30
0.0
 11
1271.172105943834
 21
-411.8396326013513
 31
0.0
  0
LINE
  5
243
330
1F
100
AcDbEntity
  8
2-4
  6
Continuous
 62
     7
370
     5
100
AcDbLine
 10
383.6722709037164
 20
-342.1407833614865
 30
0.0
 11
1641.172089447846
 21
-342.1407833614865
 31
0.0
  0
LINE
  5
244
330
1F
100
AcDbEntity
  8
2-4
  6
Continuous
 62
     7
370
     5
100
AcDbLine
 10
1641.172089447846
 20
-661.2367042335303
 30
0.0
 11
1641.172089447846
 21
-339.1408229518581
 31
0.0
  0
LINE
  5
245
330
1F
100
AcDbEntity
  8
2-9
  6
Continuous
 62
    92
370
     5
100
AcDbLine
 10
1641.172089447846
 20
-676.2365062816723
 30
0.0
 11
1641.172089447846
 21
-756.2365227776604
 31
0.0
  0
LINE
  5
246
330
1F
100
AcDbEntity
  8
2-4
  6
Continuous
 62
     7
370
     5
100
AcDbLine
 10
1351.172122439823
 20
-471.236572265625
 30
0.0
 11
1351.172122439823
 21
-339.1408229518581
 31
0.0
  0
LINE
  5
247
330
1F
100
AcDbEntity
  8
2-5
  6
Continuous
 62
     7
370
     5
100
AcDbLine
 10
114.3201673353042
 20
-815.4867306271115
 30
0.0
 11
396.2486473289698
 21
-815.4867306271115
 31
0.0
  0
LINE
  5
248
330
1F
100
AcDbEntity
  8
2-5
  6
Continuous
 62
     7
370
     5
100
AcDbLine
 10
840.4575657200172
 20
-888.3594904719172
 30
0.0
 11
1185.457466744088
 21
-888.3594904719172
 31
0.0
  0
LINE
  5
249
330
1F
100
AcDbEntity
  8
2-5
  6
Continuous
 62
     7
370
     5
100
AcDbLine
 10
514.1725282411318
 20
-611.2365392736485
 30
0.0
 11
396.2486473289698
 21
-815.4867306271115
 31
0.0
  0
LINE
  5
24A
330
1F
100
AcDbEntity
  8
2-5
  6
Continuous
 62
     7
370
     5
100
AcDbLine
 10
514.1725282411318
 20
-611.2365392736485
 30
0.0
 11
504.6055149387672
 21
-634.3335620777026
 31
0.0
  0
LINE
  5
24B
330
1F
100
AcDbEntity
  8
2-5
  6
Continuous
 62
     7
370
     5
100
AcDbLine
 10
514.1725282411318
 20
-611.2365392736485
 30
0.0
 11
498.9534945101354
 21
-631.0703256967905
 31
0.0
  0
LINE
  5
24C
330
1F
100
AcDbEntity
  8
2-5
  6
Continuous
 62
     7
370
     5
100
AcDbLine
 10
1276.172122439823
 20
-731.2369351773648
 30
0.0
 11
1266.605109137458
 21
-754.3337105415962
 31
0.0
  0
LINE
  5
24D
330
1F
100
AcDbEntity
  8
2-5
  6
Continuous
 62
     7
370
     5
100
AcDbLine
 10
1276.172122439823
 20
-731.2369351773648
 30
0.0
 11
1260.953088708826
 21
-751.0704741606842
 31
0.0
  0
LINE
  5
24E
330
1F
100
AcDbEntity
  8
2-5
  6
Continuous
 62
     7
370
     5
100
AcDbLine
 10
1516.172171927788
 20
-756.2365227776604
 30
0.0
 11
1395.167417783995
 21
-965.82275390625
 31
0.0
  0
LINE
  5
24F
330
1F
100
AcDbEntity
  8
2-5
  6
Continuous
 62
     7
370
     5
100
AcDbLine
 10
1516.172171927788
 20
-756.2365227776604
 30
0.0
 11
1506.605158625423
 21
-779.3335455817145
 31
0.0
  0
LINE
  5
250
330
1F
100
AcDbEntity
  8
2-5
  6
Continuous
 62
     7
370
     5
100
AcDbLine
 10
1516.172171927788
 20
-756.2365227776604
 30
0.0
 11
1500.953138196791
 21
-776.070556640625
 31
0.0
  0
LINE
  5
251
330
1F
100
AcDbEntity
  8
2-5
  6
Continuous
 62
     7
370
     5
100
AcDbLine
 10
1276.172122439823
 20
-731.2369351773648
 30
0.0
 11
1185.457466744088
 21
-888.3594904719172
 31
0.0
  0
LINE
  5
252
330
1F
100
AcDbEntity
  8
2-4
  6
Continuous
 62
     7
370
     5
100
AcDbLine
 10
679.172330289274
 20
-414.8395930109797
 30
0.0
 11
999.1728911528719
 21
-414.8395930109797
 31
0.0
  0
LINE
  5
253
330
1F
100
AcDbEntity
  8
2-4
  6
Continuous
 62
     7
370
     5
100
AcDbLine
 10
679.172330289274
 20
-466.2365557696367
 30
0.0
 11
679.172330289274
 21
-411.8396326013513
 31
0.0
  0
LINE
  5
254
330
1F
100
AcDbEntity
  8
2-4
  6
Continuous
 62
     7
370
     5
100
AcDbLine
 10
739.1727756809547
 20
-466.2365557696367
 30
0.0
 11
739.1727756809547
 21
-411.8396326013513
 31
0.0
  0
LINE
  5
255
330
1F
100
AcDbEntity
  8
2-4
  6
Continuous
 62
     7
370
     5
100
AcDbLine
 10
809.1722643053214
 20
-466.2365557696367
 30
0.0
 11
809.1722643053214
 21
-411.8396326013513
 31
0.0
  0
LINE
  5
256
330
1F
100
AcDbEntity
  8
2-4
  6
Continuous
 62
     7
370
     5
100
AcDbLine
 10
869.1729571368245
 20
-466.2365557696367
 30
0.0
 11
869.1729571368245
 21
-411.8396326013513
 31
0.0
  0
LINE
  5
257
330
1F
100
AcDbEntity
  8
2-4
  6
Continuous
 62
     7
370
     5
100
AcDbLine
 10
939.1724457611912
 20
-466.2365557696367
 30
0.0
 11
939.1724457611912
 21
-411.8396326013513
 31
0.0
  0
LINE
  5
258
330
1F
100
AcDbEntity
  8
2-4
  6
Continuous
 62
     7
370
     5
100
AcDbLine
 10
999.1728911528719
 20
-466.2365557696367
 30
0.0
 11
999.1728911528719
 21
-411.8396326013513
 31
0.0
  0
LINE
  5
259
330
1F
100
AcDbEntity
  8
2-4
  6
Continuous
 62
     7
370
     5
100
AcDbLine
 10
699.1723962732266
 20
-686.2365392736485
 30
0.0
 11
699.1723962732266
 21
-797.3706714527026
 31
0.0
  0
LINE
  5
25A
330
1F
100
AcDbEntity
  8
2-4
  6
Continuous
 62
     7
370
     5
100
AcDbLine
 10
719.1724622571792
 20
-686.2365392736485
 30
0.0
 11
719.1724622571792
 21
-797.3706714527026
 31
0.0
  0
LINE
  5
25B
330
1F
100
AcDbEntity
  8
2-4
  6
Continuous
 62
     7
370
     5
100
AcDbLine
 10
661.9398787214953
 20
-794.3707110430744
 30
0.0
 11
719.1724622571792
 21
-794.3707110430744
 31
0.0
  0
LINE
  5
25C
330
1F
100
AcDbEntity
  8
D-5
  6
Continuous
 62
     7
370
     5
100
AcDbLine
 10
1794.710231471706
 20
195.2847784918708
 30
0.0
 11
1519.710313951648
 21
195.2847784918708
 31
0.0
  0
LINE
  5
25D
330
1F
100
AcDbEntity
  8
D-5
  6
Continuous
 62
     7
370
     5
100
AcDbLine
 10
1421.428701039907
 20
365.5134788719386
 30
0.0
 11
1519.710313951648
 21
195.2847784918708
 31
0.0
  0
LINE
  5
25E
330
1F
100
AcDbEntity
  8
D-5
  6
Continuous
 62
     7
370
     5
100
AcDbLine
 10
1421.428701039907
 20
365.5134788719386
 30
0.0
 11
1436.647734770904
 21
345.6796924487966
 31
0.0
  0
LINE
  5
25F
330
1F
100
AcDbEntity
  8
D-5
  6
Continuous
 62
     7
370
     5
100
AcDbLine
 10
1421.428701039907
 20
365.5134788719386
 30
0.0
 11
1430.995714342273
 21
342.4164560678844
 31
0.0
  0
LINE
  5
260
330
1F
100
AcDbEntity
  8
D-5
  6
Continuous
 62
     7
370
     5
100
AcDbLine
 10
1251.428635055955
 20
1011.013579497466
 30
0.0
 11
1236.209601324958
 21
1030.847365920608
 31
0.0
  0
LINE
  5
261
330
1F
100
AcDbEntity
  8
D-5
  6
Continuous
 62
     7
370
     5
100
AcDbLine
 10
1251.428635055955
 20
1011.013579497466
 30
0.0
 11
1241.86162175359
 21
1034.11060230152
 31
0.0
  0
LINE
  5
262
330
1F
100
AcDbEntity
  8
D-5
  6
Continuous
 62
     7
370
     5
100
AcDbLine
 10
997.4170581714526
 20
993.513645481419
 30
0.0
 11
937.2490960198479
 21
1097.727628140836
 31
0.0
  0
LINE
  5
263
330
1F
100
AcDbEntity
  8
D-5
  6
Continuous
 62
     7
370
     5
100
AcDbLine
 10
997.4170581714526
 20
993.513645481419
 30
0.0
 11
982.1980244404563
 21
1013.347431904561
 31
0.0
  0
LINE
  5
264
330
1F
100
AcDbEntity
  8
D-5
  6
Continuous
 62
     7
370
     5
100
AcDbLine
 10
997.4170581714526
 20
993.513645481419
 30
0.0
 11
987.850044869088
 21
1016.610668285473
 31
0.0
  0
LINE
  5
265
330
1F
100
AcDbEntity
  8
D-5
  6
Continuous
 62
     7
370
     5
100
AcDbLine
 10
937.2490960198479
 20
1097.727628140836
 30
0.0
 11
592.2491949957771
 21
1097.727628140836
 31
0.0
  0
LINE
  5
266
330
1F
100
AcDbEntity
  8
D-5
  6
Continuous
 62
     7
370
     5
100
AcDbLine
 10
1166.014140361065
 20
1158.955375052788
 30
0.0
 11
889.7498053473396
 21
1158.955375052788
 31
0.0
  0
LINE
  5
267
330
1F
100
AcDbEntity
  8
D-5
  6
Continuous
 62
     7
370
     5
100
AcDbLine
 10
1251.428635055955
 20
1011.013579497466
 30
0.0
 11
1166.014140361065
 21
1158.955375052788
 31
0.0
  0
LINE
  5
268
330
1F
100
AcDbEntity
  8
D-4
  6
Continuous
 62
     7
370
     5
100
AcDbLine
 10
703.0990188186234
 20
393.5133980415964
 30
0.0
 11
703.0990188186234
 21
468.7362176018794
 31
0.0
  0
LINE
  5
269
330
1F
100
AcDbEntity
  8
D-4
  6
Continuous
 62
     7
370
     5
100
AcDbLine
 10
779.5945451066302
 20
393.5133980415964
 30
0.0
 11
700.0990584089953
 21
393.5133980415964
 31
0.0
  0
LINE
  5
26A
330
1F
100
AcDbEntity
  8
D-4
  6
Continuous
 62
     7
370
     5
100
AcDbLine
 10
779.5945451066302
 20
433.513653729413
 30
0.0
 11
700.0990584089953
 21
433.513653729413
 31
0.0
  0
LINE
  5
26B
330
1F
100
AcDbEntity
  8
D-4
  6
Continuous
 62
     7
370
     5
100
AcDbLine
 10
779.5945451066302
 20
443.5134392815669
 30
0.0
 11
700.0990584089953
 21
443.5134392815669
 31
0.0
  0
LINE
  5
26C
330
1F
100
AcDbEntity
  8
D-4
  6
Continuous
 62
     7
370
     5
100
AcDbLine
 10
794.5945945945948
 20
115.6638398041596
 30
0.0
 11
1471.428371120144
 21
115.6638398041596
 31
0.0
  0
LINE
  5
26D
330
1F
100
AcDbEntity
  8
D-4
  6
Continuous
 62
     7
370
     5
100
AcDbLine
 10
1471.428371120144
 20
378.5133485536318
 30
0.0
 11
1471.428371120144
 21
112.6640031144427
 31
0.0
  0
LINE
  5
26E
330
1F
100
AcDbEntity
  8
D-4
  6
Continuous
 62
     7
370
     5
100
AcDbLine
 10
1703.037983662373
 20
393.5133980415964
 30
0.0
 11
1703.037983662373
 21
1043.513563001478
 31
0.0
  0
LINE
  5
26F
330
1F
100
AcDbEntity
  8
D-4
  6
Continuous
 62
     7
370
     5
100
AcDbLine
 10
1486.428420608108
 20
393.5133980415964
 30
0.0
 11
1706.037944072002
 21
393.5133980415964
 31
0.0
  0
LINE
  5
270
330
1F
100
AcDbEntity
  8
1-5
  6
Continuous
 62
     7
370
     5
100
AcDbLine
 10
84.17704814189193
 20
-55.89967469911301
 30
0.0
 11
193.5437176678633
 21
-165.2663442250844
 31
0.0
  0
LINE
  5
271
330
1F
100
AcDbEntity
  8
1-5
  6
Continuous
 62
     7
370
     5
100
AcDbLine
 10
84.17704814189193
 20
-55.89967469911301
 30
0.0
 11
104.0108345650339
 21
-71.11870843010962
 31
0.0
  0
LINE
  5
272
330
1F
100
AcDbEntity
  8
1-5
  6
Continuous
 62
     7
370
     5
100
AcDbLine
 10
84.17704814189193
 20
-55.89967469911301
 30
0.0
 11
99.39608187288854
 21
-75.73346112225494
 31
0.0
  0
LINE
  5
273
330
1F
100
AcDbEntity
  8
1-5
  6
Continuous
 62
     7
370
     5
100
AcDbLine
 10
193.5437176678633
 20
-165.2663442250844
 30
0.0
 11
278.4420528927367
 21
-165.2663442250844
 31
0.0
  0
LINE
  5
274
330
1F
100
AcDbEntity
  8
1-2
  6
Continuous
 62
    92
370
     5
100
AcDbLine
 10
35.70457664695965
 20
22.62411581503386
 30
0.0
 11
35.70457664695965
 21
10.62427417652032
 31
0.0
  0
LINE
  5
275
330
1F
100
AcDbEntity
  8
1-2
  6
Continuous
 62
    92
370
     5
100
AcDbLine
 10
-1624.294961465372
 20
10.62427417652032
 30
0.0
 11
-1624.294961465372
 21
22.62411581503386
 31
0.0
  0
LINE
  5
276
330
1F
100
AcDbEntity
  8
1-2
  6
Continuous
 62
    92
370
     5
100
AcDbLine
 10
35.70457664695965
 20
48.62410261824323
 30
0.0
 11
35.70457664695965
 21
36.62426097972968
 31
0.0
  0
LINE
  5
277
330
1F
100
AcDbEntity
  8
1-2
  6
Continuous
 62
    92
370
     5
100
AcDbLine
 10
-1624.294961465372
 20
36.62426097972968
 30
0.0
 11
-1624.294961465372
 21
48.62410261824323
 31
0.0
  0
LINE
  5
278
330
1F
100
AcDbEntity
  8
1-2
  6
Continuous
 62
    92
370
     5
100
AcDbLine
 10
35.70457664695965
 20
74.62421314136407
 30
0.0
 11
35.70457664695965
 21
62.62424778293934
 31
0.0
  0
LINE
  5
279
330
1F
100
AcDbEntity
  8
1-2
  6
Continuous
 62
    92
370
     5
100
AcDbLine
 10
-1624.294961465372
 20
62.62424778293934
 30
0.0
 11
-1624.294961465372
 21
74.62421314136407
 31
0.0
  0
LINE
  5
27A
330
1F
100
AcDbEntity
  8
1-2
  6
Continuous
 62
    92
370
     5
100
AcDbLine
 10
35.70457664695965
 20
100.6241999445734
 30
0.0
 11
35.70457664695965
 21
88.6242345861487
 31
0.0
  0
LINE
  5
27B
330
1F
100
AcDbEntity
  8
1-2
  6
Continuous
 62
    92
370
     5
100
AcDbLine
 10
-1624.294961465372
 20
88.6242345861487
 30
0.0
 11
-1624.294961465372
 21
100.6241999445734
 31
0.0
  0
LINE
  5
27C
330
1F
100
AcDbEntity
  8
1-2
  6
Continuous
 62
    92
370
     5
100
AcDbLine
 10
35.70457664695965
 20
126.6241867477831
 30
0.0
 11
35.70457664695965
 21
114.6242213893581
 31
0.0
  0
LINE
  5
27D
330
1F
100
AcDbEntity
  8
1-2
  6
Continuous
 62
    92
370
     5
100
AcDbLine
 10
-1624.294961465372
 20
114.6242213893581
 30
0.0
 11
-1624.294961465372
 21
126.6241867477831
 31
0.0
  0
LINE
  5
27E
330
1F
100
AcDbEntity
  8
1-2
  6
Continuous
 62
    92
370
     5
100
AcDbLine
 10
35.70457664695965
 20
152.6241735509925
 30
0.0
 11
35.70457664695965
 21
140.6242081925677
 31
0.0
  0
LINE
  5
27F
330
1F
100
AcDbEntity
  8
1-2
  6
Continuous
 62
    92
370
     5
100
AcDbLine
 10
-1624.294961465372
 20
140.6242081925677
 30
0.0
 11
-1624.294961465372
 21
152.6241735509925
 31
0.0
  0
LINE
  5
280
330
1F
100
AcDbEntity
  8
1-2
  6
Continuous
 62
    92
370
     5
100
AcDbLine
 10
35.70457664695965
 20
178.6241603542018
 30
0.0
 11
35.70457664695965
 21
166.6241949957771
 31
0.0
  0
LINE
  5
281
330
1F
100
AcDbEntity
  8
1-2
  6
Continuous
 62
    92
370
     5
100
AcDbLine
 10
-1624.294961465372
 20
166.6241949957771
 30
0.0
 11
-1624.294961465372
 21
178.6241603542018
 31
0.0
  0
LINE
  5
282
330
1F
100
AcDbEntity
  8
1-2
  6
Continuous
 62
    92
370
     5
100
AcDbLine
 10
35.70457664695965
 20
204.6242708773227
 30
0.0
 11
35.70457664695965
 21
192.6243055188979
 31
0.0
  0
LINE
  5
283
330
1F
100
AcDbEntity
  8
1-2
  6
Continuous
 62
    92
370
     5
100
AcDbLine
 10
-1624.294961465372
 20
192.6243055188979
 30
0.0
 11
-1624.294961465372
 21
204.6242708773227
 31
0.0
  0
LINE
  5
284
330
1F
100
AcDbEntity
  8
1-2
  6
Continuous
 62
    92
370
     5
100
AcDbLine
 10
35.70457664695965
 20
230.6242576805323
 30
0.0
 11
35.70457664695965
 21
218.6242923221073
 31
0.0
  0
LINE
  5
285
330
1F
100
AcDbEntity
  8
1-2
  6
Continuous
 62
    92
370
     5
100
AcDbLine
 10
-1624.294961465372
 20
218.6242923221073
 30
0.0
 11
-1624.294961465372
 21
230.6242576805323
 31
0.0
  0
LINE
  5
286
330
1F
100
AcDbEntity
  8
1-2
  6
Continuous
 62
    92
370
     5
100
AcDbLine
 10
35.70457664695965
 20
256.6242444837417
 30
0.0
 11
35.70457664695965
 21
244.6242791253169
 31
0.0
  0
LINE
  5
287
330
1F
100
AcDbEntity
  8
1-2
  6
Continuous
 62
    92
370
     5
100
AcDbLine
 10
-1624.294961465372
 20
244.6242791253169
 30
0.0
 11
-1624.294961465372
 21
256.6242444837417
 31
0.0
  0
LINE
  5
288
330
1F
100
AcDbEntity
  8
1-2
  6
Continuous
 62
    92
370
     5
100
AcDbLine
 10
35.70457664695965
 20
282.624231286951
 30
0.0
 11
35.70457664695965
 21
270.6242659285263
 31
0.0
  0
LINE
  5
289
330
1F
100
AcDbEntity
  8
1-2
  6
Continuous
 62
    92
370
     5
100
AcDbLine
 10
-1624.294961465372
 20
270.6242659285263
 30
0.0
 11
-1624.294961465372
 21
282.624231286951
 31
0.0
  0
LINE
  5
28A
330
1F
100
AcDbEntity
  8
1-2
  6
Continuous
 62
    92
370
     5
100
AcDbLine
 10
35.70457664695965
 20
308.6242180901607
 30
0.0
 11
35.70457664695965
 21
296.6242527317357
 31
0.0
  0
LINE
  5
28B
330
1F
100
AcDbEntity
  8
1-2
  6
Continuous
 62
    92
370
     5
100
AcDbLine
 10
-1624.294961465372
 20
296.6242527317357
 30
0.0
 11
-1624.294961465372
 21
308.6242180901607
 31
0.0
  0
LINE
  5
28C
330
1F
100
AcDbEntity
  8
1-2
  6
Continuous
 62
    92
370
     5
100
AcDbLine
 10
35.70457664695965
 20
334.6242048933701
 30
0.0
 11
35.70457664695965
 21
322.6242395349453
 31
0.0
  0
LINE
  5
28D
330
1F
100
AcDbEntity
  8
1-2
  6
Continuous
 62
    92
370
     5
100
AcDbLine
 10
35.70457664695965
 20
360.6241916965794
 30
0.0
 11
35.70457664695965
 21
348.6242263381547
 31
0.0
  0
LINE
  5
28E
330
1F
100
AcDbEntity
  8
1-2
  6
Continuous
 62
    92
370
     5
100
AcDbLine
 10
35.70457664695965
 20
386.6241784997891
 30
0.0
 11
35.70457664695965
 21
374.6242131413641
 31
0.0
  0
LINE
  5
28F
330
1F
100
AcDbEntity
  8
1-2
  6
Continuous
 62
    92
370
     5
100
AcDbLine
 10
35.70457664695965
 20
412.6241653029984
 30
0.0
 11
35.70457664695965
 21
400.6241999445737
 31
0.0
  0
LINE
  5
290
330
1F
100
AcDbEntity
  8
1-2
  6
Continuous
 62
    92
370
     5
100
AcDbLine
 10
35.70457664695965
 20
438.6240283862966
 30
0.0
 11
35.70457664695965
 21
426.6241867477831
 31
0.0
  0
LINE
  5
291
330
1F
100
AcDbEntity
  8
1-2
  6
Continuous
 62
    92
370
     5
100
AcDbLine
 10
35.70457664695965
 20
438.6240283862966
 30
0.0
 11
-166.2607553842903
 21
438.6240283862966
 31
0.0
  0
LINE
  5
292
330
1F
100
AcDbEntity
  8
1-2
  6
Continuous
 62
    92
370
     5
100
AcDbLine
 10
35.70457664695965
 20
426.6241867477831
 30
0.0
 11
-166.2607553842903
 21
426.6241867477831
 31
0.0
  0
LINE
  5
293
330
1F
100
AcDbEntity
  8
1-2
  6
Continuous
 62
    92
370
     5
100
AcDbLine
 10
35.70457664695965
 20
386.6241784997891
 30
0.0
 11
-760.7710554793073
 21
386.6241784997891
 31
0.0
  0
LINE
  5
294
330
1F
100
AcDbEntity
  8
1-2
  6
Continuous
 62
    92
370
     5
100
AcDbLine
 10
35.70457664695965
 20
374.6242131413641
 30
0.0
 11
-760.7710554793073
 21
374.6242131413641
 31
0.0
  0
LINE
  5
295
330
1F
100
AcDbEntity
  8
1-2
  6
Continuous
 62
    92
370
     5
100
AcDbLine
 10
35.70457664695965
 20
412.6241653029984
 30
0.0
 11
-501.3311437658359
 21
412.6241653029984
 31
0.0
  0
LINE
  5
296
330
1F
100
AcDbEntity
  8
1-2
  6
Continuous
 62
    92
370
     5
100
AcDbLine
 10
35.70457664695965
 20
400.6241999445737
 30
0.0
 11
-501.3311437658359
 21
400.6241999445737
 31
0.0
  0
LINE
  5
297
330
1F
100
AcDbEntity
  8
1-1
  6
Continuous
 62
    40
370
     9
100
AcDbLine
 10
-883.0991177945523
 20
-9.375791807432279
 30
0.0
 11
-1644.295027449324
 21
-9.375791807432279
 31
0.0
  0
LINE
  5
298
330
1F
100
AcDbEntity
  8
1-1
  6
Continuous
 62
    40
370
     9
100
AcDbLine
 10
-881.6384805215371
 20
6.624162003800791
 30
0.0
 11
-1628.295073638091
 21
6.624162003800791
 31
0.0
  0
LINE
  5
299
330
1F
100
AcDbEntity
  8
1-2
  6
Continuous
 62
    92
370
     5
100
AcDbLine
 10
-881.2732593433276
 20
10.62427417652032
 30
0.0
 11
-1624.294961465372
 21
10.62427417652032
 31
0.0
  0
LINE
  5
29A
330
1F
100
AcDbEntity
  8
1-2
  6
Continuous
 62
    92
370
     5
100
AcDbLine
 10
-880.1780906883446
 20
22.62411581503386
 30
0.0
 11
-1624.294961465372
 21
22.62411581503386
 31
0.0
  0
LINE
  5
29B
330
1F
100
AcDbEntity
  8
1-2
  6
Continuous
 62
    92
370
     5
100
AcDbLine
 10
-878.8998165646115
 20
36.62426097972968
 30
0.0
 11
-1624.294961465372
 21
36.62426097972968
 31
0.0
  0
LINE
  5
29C
330
1F
100
AcDbEntity
  8
1-2
  6
Continuous
 62
    92
370
     5
100
AcDbLine
 10
-877.8046479096282
 20
48.62410261824323
 30
0.0
 11
-1624.294961465372
 21
48.62410261824323
 31
0.0
  0
LINE
  5
29D
330
1F
100
AcDbEntity
  8
1-2
  6
Continuous
 62
    92
370
     5
100
AcDbLine
 10
-876.5263737858952
 20
62.62424778293934
 30
0.0
 11
-1624.294961465372
 21
62.62424778293934
 31
0.0
  0
LINE
  5
29E
330
1F
100
AcDbEntity
  8
1-2
  6
Continuous
 62
    92
370
     5
100
AcDbLine
 10
-875.4312051309121
 20
74.62421314136407
 30
0.0
 11
-1624.294961465372
 21
74.62421314136407
 31
0.0
  0
LINE
  5
29F
330
1F
100
AcDbEntity
  8
1-2
  6
Continuous
 62
    92
370
     5
100
AcDbLine
 10
-874.1529310071791
 20
88.6242345861487
 30
0.0
 11
-1624.294961465372
 21
88.6242345861487
 31
0.0
  0
LINE
  5
2A0
330
1F
100
AcDbEntity
  8
1-2
  6
Continuous
 62
    92
370
     5
100
AcDbLine
 10
-873.0577623521958
 20
100.6241999445734
 30
0.0
 11
-1624.294961465372
 21
100.6241999445734
 31
0.0
  0
LINE
  5
2A1
330
1F
100
AcDbEntity
  8
1-2
  6
Continuous
 62
    92
370
     5
100
AcDbLine
 10
-871.7794882284627
 20
114.6242213893581
 30
0.0
 11
-1624.294961465372
 21
114.6242213893581
 31
0.0
  0
LINE
  5
2A2
330
1F
100
AcDbEntity
  8
1-2
  6
Continuous
 62
    92
370
     5
100
AcDbLine
 10
-870.6843195734797
 20
126.6241867477831
 30
0.0
 11
-1624.294961465372
 21
126.6241867477831
 31
0.0
  0
LINE
  5
2A3
330
1F
100
AcDbEntity
  8
1-2
  6
Continuous
 62
    92
370
     5
100
AcDbLine
 10
-869.4060454497467
 20
140.6242081925677
 30
0.0
 11
-1624.294961465372
 21
140.6242081925677
 31
0.0
  0
LINE
  5
2A4
330
1F
100
AcDbEntity
  8
1-2
  6
Continuous
 62
    92
370
     5
100
AcDbLine
 10
-868.3108767947634
 20
152.6241735509925
 30
0.0
 11
-1624.294961465372
 21
152.6241735509925
 31
0.0
  0
LINE
  5
2A5
330
1F
100
AcDbEntity
  8
1-2
  6
Continuous
 62
    92
370
     5
100
AcDbLine
 10
-867.0326026710303
 20
166.6241949957771
 30
0.0
 11
-1624.294961465372
 21
166.6241949957771
 31
0.0
  0
LINE
  5
2A6
330
1F
100
AcDbEntity
  8
1-2
  6
Continuous
 62
    92
370
     5
100
AcDbLine
 10
-864.659159892314
 20
192.6243055188979
 30
0.0
 11
-1624.294961465372
 21
192.6243055188979
 31
0.0
  0
LINE
  5
2A7
330
1F
100
AcDbEntity
  8
1-2
  6
Continuous
 62
    92
370
     5
100
AcDbLine
 10
-863.563991237331
 20
204.6242708773227
 30
0.0
 11
-1624.294961465372
 21
204.6242708773227
 31
0.0
  0
LINE
  5
2A8
330
1F
100
AcDbEntity
  8
1-2
  6
Continuous
 62
    92
370
     5
100
AcDbLine
 10
-862.2857171135979
 20
218.6242923221073
 30
0.0
 11
-1624.294961465372
 21
218.6242923221073
 31
0.0
  0
LINE
  5
2A9
330
1F
100
AcDbEntity
  8
1-2
  6
Continuous
 62
    92
370
     5
100
AcDbLine
 10
-861.1905484586148
 20
230.6242576805323
 30
0.0
 11
-1624.294961465372
 21
230.6242576805323
 31
0.0
  0
LINE
  5
2AA
330
1F
100
AcDbEntity
  8
1-2
  6
Continuous
 62
    92
370
     5
100
AcDbLine
 10
-859.9122743348817
 20
244.6242791253169
 30
0.0
 11
-1624.294961465372
 21
244.6242791253169
 31
0.0
  0
LINE
  5
2AB
330
1F
100
AcDbEntity
  8
1-2
  6
Continuous
 62
    92
370
     5
100
AcDbLine
 10
-858.8171056798985
 20
256.6242444837417
 30
0.0
 11
-1624.294961465372
 21
256.6242444837417
 31
0.0
  0
LINE
  5
2AC
330
1F
100
AcDbEntity
  8
1-2
  6
Continuous
 62
    92
370
     5
100
AcDbLine
 10
-857.5388315561655
 20
270.6242659285263
 30
0.0
 11
-1624.294961465372
 21
270.6242659285263
 31
0.0
  0
LINE
  5
2AD
330
1F
100
AcDbEntity
  8
1-2
  6
Continuous
 62
    92
370
     5
100
AcDbLine
 10
-856.4436629011824
 20
282.624231286951
 30
0.0
 11
-1624.294961465372
 21
282.624231286951
 31
0.0
  0
LINE
  5
2AE
330
1F
100
AcDbEntity
  8
1-2
  6
Continuous
 62
    92
370
     5
100
AcDbLine
 10
-855.1653887774492
 20
296.6242527317357
 30
0.0
 11
-1624.294961465372
 21
296.6242527317357
 31
0.0
  0
LINE
  5
2AF
330
1F
100
AcDbEntity
  8
1-2
  6
Continuous
 62
    92
370
     5
100
AcDbLine
 10
-854.0702201224661
 20
308.6242180901607
 30
0.0
 11
-1624.294961465372
 21
308.6242180901607
 31
0.0
  0
LINE
  5
2B0
330
1F
100
AcDbEntity
  8
1-2
  6
Continuous
 62
    92
370
     5
100
AcDbLine
 10
-849.3233345650337
 20
360.6241916965794
 30
0.0
 11
-1087.741253827069
 21
360.6241916965794
 31
0.0
  0
LINE
  5
2B1
330
1F
100
AcDbEntity
  8
1-2
  6
Continuous
 62
    92
370
     5
100
AcDbLine
 10
-850.4185032200168
 20
348.6242263381547
 30
0.0
 11
-1087.741253827069
 21
348.6242263381547
 31
0.0
  0
LINE
  5
2B2
330
1F
100
AcDbEntity
  8
1-2
  6
Continuous
 62
    92
370
     5
100
AcDbLine
 10
-851.69677734375
 20
334.6242048933701
 30
0.0
 11
-1416.284427127323
 21
334.6242048933701
 31
0.0
  0
LINE
  5
2B3
330
1F
100
AcDbEntity
  8
1-2
  6
Continuous
 62
    92
370
     5
100
AcDbLine
 10
-852.7919459987331
 20
322.6242395349453
 30
0.0
 11
-1416.284427127323
 21
322.6242395349453
 31
0.0
  0
LINE
  5
2B4
330
1F
100
AcDbEntity
  8
1-2
  6
Continuous
 62
    92
370
     5
100
AcDbLine
 10
-865.9374340160473
 20
178.6241603542018
 30
0.0
 11
-1624.294961465372
 21
178.6241603542018
 31
0.0
  0
LINE
  5
2B5
330
1F
100
AcDbEntity
  8
1-1
  6
Continuous
 62
    40
370
     9
100
AcDbLine
 10
39.70468881967918
 20
6.624162003800791
 30
0.0
 11
-865.5722128378377
 21
6.624162003800791
 31
0.0
  0
LINE
  5
2B6
330
1F
100
AcDbEntity
  8
1-1
  6
Continuous
 62
    40
370
     9
100
AcDbLine
 10
55.70464263091225
 20
-9.375791807432279
 30
0.0
 11
-867.0326026710303
 21
-9.375791807432279
 31
0.0
  0
LINE
  5
2B7
330
1F
100
AcDbEntity
  8
1-2
  6
Continuous
 62
    92
370
     5
100
AcDbLine
 10
35.70457664695965
 20
10.62427417652032
 30
0.0
 11
-865.2069916596282
 21
10.62427417652032
 31
0.0
  0
LINE
  5
2B8
330
1F
100
AcDbEntity
  8
1-2
  6
Continuous
 62
    92
370
     5
100
AcDbLine
 10
35.70457664695965
 20
22.62411581503386
 30
0.0
 11
-864.111328125
 21
22.62411581503386
 31
0.0
  0
LINE
  5
2B9
330
1F
100
AcDbEntity
  8
1-2
  6
Continuous
 62
    92
370
     5
100
AcDbLine
 10
35.70457664695965
 20
36.62426097972968
 30
0.0
 11
-862.8335488809121
 21
36.62426097972968
 31
0.0
  0
LINE
  5
2BA
330
1F
100
AcDbEntity
  8
1-2
  6
Continuous
 62
    92
370
     5
100
AcDbLine
 10
35.70457664695965
 20
48.62410261824323
 30
0.0
 11
-861.7378853462837
 21
48.62410261824323
 31
0.0
  0
LINE
  5
2BB
330
1F
100
AcDbEntity
  8
1-2
  6
Continuous
 62
    92
370
     5
100
AcDbLine
 10
35.70457664695965
 20
62.62424778293934
 30
0.0
 11
-860.4601061021958
 21
62.62424778293934
 31
0.0
  0
LINE
  5
2BC
330
1F
100
AcDbEntity
  8
1-2
  6
Continuous
 62
    92
370
     5
100
AcDbLine
 10
35.70457664695965
 20
74.62421314136407
 30
0.0
 11
-859.3644425675675
 21
74.62421314136407
 31
0.0
  0
LINE
  5
2BD
330
1F
100
AcDbEntity
  8
1-2
  6
Continuous
 62
    92
370
     5
100
AcDbLine
 10
35.70457664695965
 20
88.6242345861487
 30
0.0
 11
-858.0866633234797
 21
88.6242345861487
 31
0.0
  0
LINE
  5
2BE
330
1F
100
AcDbEntity
  8
1-2
  6
Continuous
 62
    92
370
     5
100
AcDbLine
 10
35.70457664695965
 20
100.6241999445734
 30
0.0
 11
-856.9909997888512
 21
100.6241999445734
 31
0.0
  0
LINE
  5
2BF
330
1F
100
AcDbEntity
  8
1-2
  6
Continuous
 62
    92
370
     5
100
AcDbLine
 10
35.70457664695965
 20
114.6242213893581
 30
0.0
 11
-855.7132205447634
 21
114.6242213893581
 31
0.0
  0
LINE
  5
2C0
330
1F
100
AcDbEntity
  8
1-2
  6
Continuous
 62
    92
370
     5
100
AcDbLine
 10
35.70457664695965
 20
126.6241867477831
 30
0.0
 11
-854.617557010135
 21
126.6241867477831
 31
0.0
  0
LINE
  5
2C1
330
1F
100
AcDbEntity
  8
1-2
  6
Continuous
 62
    92
370
     5
100
AcDbLine
 10
35.70457664695965
 20
140.6242081925677
 30
0.0
 11
-853.3397777660473
 21
140.6242081925677
 31
0.0
  0
LINE
  5
2C2
330
1F
100
AcDbEntity
  8
1-2
  6
Continuous
 62
    92
370
     5
100
AcDbLine
 10
35.70457664695965
 20
152.6241735509925
 30
0.0
 11
-852.2443616712416
 21
152.6241735509925
 31
0.0
  0
LINE
  5
2C3
330
1F
100
AcDbEntity
  8
1-2
  6
Continuous
 62
    92
370
     5
100
AcDbLine
 10
35.70457664695965
 20
166.6241949957771
 30
0.0
 11
-850.966334987331
 21
166.6241949957771
 31
0.0
  0
LINE
  5
2C4
330
1F
100
AcDbEntity
  8
1-2
  6
Continuous
 62
    92
370
     5
100
AcDbLine
 10
35.70457664695965
 20
178.6241603542018
 30
0.0
 11
-849.8706714527026
 21
178.6241603542018
 31
0.0
  0
LINE
  5
2C5
330
1F
100
AcDbEntity
  8
1-2
  6
Continuous
 62
    92
370
     5
100
AcDbLine
 10
35.70457664695965
 20
192.6243055188979
 30
0.0
 11
-848.5928922086148
 21
192.6243055188979
 31
0.0
  0
LINE
  5
2C6
330
1F
100
AcDbEntity
  8
1-2
  6
Continuous
 62
    92
370
     5
100
AcDbLine
 10
35.70457664695965
 20
204.6242708773227
 30
0.0
 11
-847.4972286739865
 21
204.6242708773227
 31
0.0
  0
LINE
  5
2C7
330
1F
100
AcDbEntity
  8
1-2
  6
Continuous
 62
    92
370
     5
100
AcDbLine
 10
35.70457664695965
 20
218.6242923221073
 30
0.0
 11
-846.2194494298985
 21
218.6242923221073
 31
0.0
  0
LINE
  5
2C8
330
1F
100
AcDbEntity
  8
1-2
  6
Continuous
 62
    92
370
     5
100
AcDbLine
 10
35.70457664695965
 20
230.6242576805323
 30
0.0
 11
-845.1237858952702
 21
230.6242576805323
 31
0.0
  0
LINE
  5
2C9
330
1F
100
AcDbEntity
  8
1-2
  6
Continuous
 62
    92
370
     5
100
AcDbLine
 10
35.70457664695965
 20
244.6242791253169
 30
0.0
 11
-843.8460066511824
 21
244.6242791253169
 31
0.0
  0
LINE
  5
2CA
330
1F
100
AcDbEntity
  8
1-2
  6
Continuous
 62
    92
370
     5
100
AcDbLine
 10
35.70457664695965
 20
256.6242444837417
 30
0.0
 11
-842.7503431165541
 21
256.6242444837417
 31
0.0
  0
LINE
  5
2CB
330
1F
100
AcDbEntity
  8
1-2
  6
Continuous
 62
    92
370
     5
100
AcDbLine
 10
35.70457664695965
 20
270.6242659285263
 30
0.0
 11
-841.4725638724661
 21
270.6242659285263
 31
0.0
  0
LINE
  5
2CC
330
1F
100
AcDbEntity
  8
1-2
  6
Continuous
 62
    92
370
     5
100
AcDbLine
 10
35.70457664695965
 20
282.624231286951
 30
0.0
 11
-840.3769003378377
 21
282.624231286951
 31
0.0
  0
LINE
  5
2CD
330
1F
100
AcDbEntity
  8
1-2
  6
Continuous
 62
    92
370
     5
100
AcDbLine
 10
35.70457664695965
 20
296.6242527317357
 30
0.0
 11
-839.09912109375
 21
296.6242527317357
 31
0.0
  0
LINE
  5
2CE
330
1F
100
AcDbEntity
  8
1-2
  6
Continuous
 62
    92
370
     5
100
AcDbLine
 10
35.70457664695965
 20
308.6242180901607
 30
0.0
 11
-838.0037049989442
 21
308.6242180901607
 31
0.0
  0
LINE
  5
2CF
330
1F
100
AcDbEntity
  8
1-2
  6
Continuous
 62
    92
370
     5
100
AcDbLine
 10
35.70457664695965
 20
322.6242395349453
 30
0.0
 11
-836.7256783150337
 21
322.6242395349453
 31
0.0
  0
LINE
  5
2D0
330
1F
100
AcDbEntity
  8
1-2
  6
Continuous
 62
    92
370
     5
100
AcDbLine
 10
35.70457664695965
 20
334.6242048933701
 30
0.0
 11
-835.6300147804053
 21
334.6242048933701
 31
0.0
  0
LINE
  5
2D1
330
1F
100
AcDbEntity
  8
1-2
  6
Continuous
 62
    92
370
     5
100
AcDbLine
 10
35.70457664695965
 20
360.6241916965794
 30
0.0
 11
-833.2568194415117
 21
360.6241916965794
 31
0.0
  0
LINE
  5
2D2
330
1F
100
AcDbEntity
  8
1-2
  6
Continuous
 62
    92
370
     5
100
AcDbLine
 10
35.70457664695965
 20
348.6242263381547
 30
0.0
 11
-834.3522355363175
 21
348.6242263381547
 31
0.0
  0
LINE
  5
2D3
330
1F
100
AcDbEntity
  8
1-2
  6
Continuous
 62
    92
370
     5
100
AcDbLine
 10
-1624.294961465372
 20
1158.624300570102
 30
0.0
 11
-1624.294961465372
 21
1170.624142208615
 31
0.0
  0
LINE
  5
2D4
330
1F
100
AcDbEntity
  8
1-2
  6
Continuous
 62
    92
370
     5
100
AcDbLine
 10
35.70457664695965
 20
1170.624142208615
 30
0.0
 11
35.70457664695965
 21
1158.624300570102
 31
0.0
  0
LINE
  5
2D5
330
1F
100
AcDbEntity
  8
1-2
  6
Continuous
 62
    92
370
     5
100
AcDbLine
 10
-1624.294961465372
 20
1132.624313766892
 30
0.0
 11
-1624.294961465372
 21
1144.624155405406
 31
0.0
  0
LINE
  5
2D6
330
1F
100
AcDbEntity
  8
1-2
  6
Continuous
 62
    92
370
     5
100
AcDbLine
 10
35.70457664695965
 20
1144.624155405406
 30
0.0
 11
35.70457664695965
 21
1132.624313766892
 31
0.0
  0
LINE
  5
2D7
330
1F
100
AcDbEntity
  8
1-2
  6
Continuous
 62
    92
370
     5
100
AcDbLine
 10
-1624.294961465372
 20
1106.624326963683
 30
0.0
 11
-1624.294961465372
 21
1118.624168602196
 31
0.0
  0
LINE
  5
2D8
330
1F
100
AcDbEntity
  8
1-2
  6
Continuous
 62
    92
370
     5
100
AcDbLine
 10
35.70457664695965
 20
1118.624168602196
 30
0.0
 11
35.70457664695965
 21
1106.624326963683
 31
0.0
  0
LINE
  5
2D9
330
1F
100
AcDbEntity
  8
1-2
  6
Continuous
 62
    92
370
     5
100
AcDbLine
 10
-1624.294961465372
 20
1080.624340160473
 30
0.0
 11
-1624.294961465372
 21
1092.624181798986
 31
0.0
  0
LINE
  5
2DA
330
1F
100
AcDbEntity
  8
1-2
  6
Continuous
 62
    92
370
     5
100
AcDbLine
 10
35.70457664695965
 20
1092.624181798986
 30
0.0
 11
35.70457664695965
 21
1080.624340160473
 31
0.0
  0
LINE
  5
2DB
330
1F
100
AcDbEntity
  8
1-2
  6
Continuous
 62
    92
370
     5
100
AcDbLine
 10
-1624.294961465372
 20
1054.624353357264
 30
0.0
 11
-1624.294961465372
 21
1066.624194995777
 31
0.0
  0
LINE
  5
2DC
330
1F
100
AcDbEntity
  8
1-2
  6
Continuous
 62
    92
370
     5
100
AcDbLine
 10
35.70457664695965
 20
1066.624194995777
 30
0.0
 11
35.70457664695965
 21
1054.624353357264
 31
0.0
  0
LINE
  5
2DD
330
1F
100
AcDbEntity
  8
1-2
  6
Continuous
 62
    92
370
     5
100
AcDbLine
 10
-1624.294961465372
 20
1028.624366554054
 30
0.0
 11
-1624.294961465372
 21
1040.624208192568
 31
0.0
  0
LINE
  5
2DE
330
1F
100
AcDbEntity
  8
1-2
  6
Continuous
 62
    92
370
     5
100
AcDbLine
 10
35.70457664695965
 20
1040.624208192568
 30
0.0
 11
35.70457664695965
 21
1028.624366554054
 31
0.0
  0
LINE
  5
2DF
330
1F
100
AcDbEntity
  8
1-2
  6
Continuous
 62
    92
370
     5
100
AcDbLine
 10
-1624.294961465372
 20
1002.624379750845
 30
0.0
 11
-1624.294961465372
 21
1014.624221389358
 31
0.0
  0
LINE
  5
2E0
330
1F
100
AcDbEntity
  8
1-2
  6
Continuous
 62
    92
370
     5
100
AcDbLine
 10
35.70457664695965
 20
1014.624221389358
 30
0.0
 11
35.70457664695965
 21
1002.624379750845
 31
0.0
  0
LINE
  5
2E1
330
1F
100
AcDbEntity
  8
1-2
  6
Continuous
 62
    92
370
     5
100
AcDbLine
 10
-1624.294961465372
 20
976.6243929476352
 30
0.0
 11
-1624.294961465372
 21
988.6242345861488
 31
0.0
  0
LINE
  5
2E2
330
1F
100
AcDbEntity
  8
1-2
  6
Continuous
 62
    92
370
     5
100
AcDbLine
 10
35.70457664695965
 20
988.6242345861488
 30
0.0
 11
35.70457664695965
 21
976.6243929476352
 31
0.0
  0
LINE
  5
2E3
330
1F
100
AcDbEntity
  8
1-2
  6
Continuous
 62
    92
370
     5
100
AcDbLine
 10
-1624.294961465372
 20
950.6244061444258
 30
0.0
 11
-1624.294961465372
 21
962.6242477829394
 31
0.0
  0
LINE
  5
2E4
330
1F
100
AcDbEntity
  8
1-2
  6
Continuous
 62
    92
370
     5
100
AcDbLine
 10
35.70457664695965
 20
962.6242477829394
 30
0.0
 11
35.70457664695965
 21
950.6244061444258
 31
0.0
  0
LINE
  5
2E5
330
1F
100
AcDbEntity
  8
1-2
  6
Continuous
 62
    92
370
     5
100
AcDbLine
 10
-1624.294961465372
 20
924.6244193412165
 30
0.0
 11
-1624.294961465372
 21
936.62426097973
 31
0.0
  0
LINE
  5
2E6
330
1F
100
AcDbEntity
  8
1-2
  6
Continuous
 62
    92
370
     5
100
AcDbLine
 10
35.70457664695965
 20
936.62426097973
 30
0.0
 11
35.70457664695965
 21
924.6244193412165
 31
0.0
  0
LINE
  5
2E7
330
1F
100
AcDbEntity
  8
1-2
  6
Continuous
 62
    92
370
     5
100
AcDbLine
 10
-1624.294961465372
 20
898.6244325380068
 30
0.0
 11
-1624.294961465372
 21
910.6242741765203
 31
0.0
  0
LINE
  5
2E8
330
1F
100
AcDbEntity
  8
1-2
  6
Continuous
 62
    92
370
     5
100
AcDbLine
 10
35.70457664695965
 20
910.6242741765203
 30
0.0
 11
35.70457664695965
 21
898.6244325380068
 31
0.0
  0
LINE
  5
2E9
330
1F
100
AcDbEntity
  8
1-2
  6
Continuous
 62
    92
370
     5
100
AcDbLine
 10
-1624.294961465372
 20
872.6244457347974
 30
0.0
 11
-1624.294961465372
 21
884.624287373311
 31
0.0
  0
LINE
  5
2EA
330
1F
100
AcDbEntity
  8
1-2
  6
Continuous
 62
    92
370
     5
100
AcDbLine
 10
35.70457664695965
 20
884.624287373311
 30
0.0
 11
35.70457664695965
 21
872.6244457347974
 31
0.0
  0
LINE
  5
2EB
330
1F
100
AcDbEntity
  8
1-2
  6
Continuous
 62
    92
370
     5
100
AcDbLine
 10
-1624.294961465372
 20
846.624458931588
 30
0.0
 11
-1624.294961465372
 21
858.6243005701016
 31
0.0
  0
LINE
  5
2EC
330
1F
100
AcDbEntity
  8
1-2
  6
Continuous
 62
    92
370
     5
100
AcDbLine
 10
-1624.294961465372
 20
820.6244721283783
 30
0.0
 11
-1624.294961465372
 21
832.6243137668919
 31
0.0
  0
LINE
  5
2ED
330
1F
100
AcDbEntity
  8
1-2
  6
Continuous
 62
    92
370
     5
100
AcDbLine
 10
-1624.294961465372
 20
794.624485325169
 30
0.0
 11
-1624.294961465372
 21
806.6243269636825
 31
0.0
  0
LINE
  5
2EE
330
1F
100
AcDbEntity
  8
1-2
  6
Continuous
 62
    92
370
     5
100
AcDbLine
 10
-1624.294961465372
 20
768.6244985219596
 30
0.0
 11
-1624.294961465372
 21
780.6243401604731
 31
0.0
  0
LINE
  5
2EF
330
1F
100
AcDbEntity
  8
1-2
  6
Continuous
 62
    92
370
     5
100
AcDbLine
 10
-1624.294961465372
 20
742.62451171875
 30
0.0
 11
-1624.294961465372
 21
754.6243533572635
 31
0.0
  0
LINE
  5
2F0
330
1F
100
AcDbEntity
  8
1-2
  6
Continuous
 62
    92
370
     5
100
AcDbLine
 10
-1624.294961465372
 20
742.62451171875
 30
0.0
 11
-1422.329876873944
 21
742.62451171875
 31
0.0
  0
LINE
  5
2F1
330
1F
100
AcDbEntity
  8
1-2
  6
Continuous
 62
    92
370
     5
100
AcDbLine
 10
-1624.294961465372
 20
754.6243533572635
 30
0.0
 11
-1422.329876873944
 21
754.6243533572635
 31
0.0
  0
LINE
  5
2F2
330
1F
100
AcDbEntity
  8
1-2
  6
Continuous
 62
    92
370
     5
100
AcDbLine
 10
-1624.294961465372
 20
794.624485325169
 30
0.0
 11
-827.8193293391047
 21
794.624485325169
 31
0.0
  0
LINE
  5
2F3
330
1F
100
AcDbEntity
  8
1-2
  6
Continuous
 62
    92
370
     5
100
AcDbLine
 10
-1624.294961465372
 20
806.6243269636825
 30
0.0
 11
-827.8193293391047
 21
806.6243269636825
 31
0.0
  0
LINE
  5
2F4
330
1F
100
AcDbEntity
  8
1-2
  6
Continuous
 62
    92
370
     5
100
AcDbLine
 10
-1624.294961465372
 20
768.6244985219596
 30
0.0
 11
-1087.259488492399
 21
768.6244985219596
 31
0.0
  0
LINE
  5
2F5
330
1F
100
AcDbEntity
  8
1-2
  6
Continuous
 62
    92
370
     5
100
AcDbLine
 10
-1624.294961465372
 20
780.6243401604731
 30
0.0
 11
-1087.259488492399
 21
780.6243401604731
 31
0.0
  0
LINE
  5
2F6
330
1F
100
AcDbEntity
  8
1-1
  6
JWW_CENTER2
 62
    40
370
     9
100
AcDbLine
 10
-884.9383379961992
 20
-29.52333192567551
 30
0.0
 11
-846.4337323163006
 21
392.2752091691302
 31
0.0
  0
LINE
  5
2F7
330
1F
100
AcDbEntity
  8
1-1
  6
JWW_CENTER2
 62
    40
370
     9
100
AcDbLine
 10
-869.0046980574324
 20
-30.977783203125
 30
0.0
 11
-830.5000923775337
 21
390.8206341717695
 31
0.0
  0
LINE
  5
2F8
330
1F
100
AcDbEntity
  8
1-1
  6
JWW_CENTER2
 62
    40
370
     9
100
AcDbLine
 10
-812.3414735536318
 20
765.7408348289698
 30
0.0
 11
-771.3204048775335
 21
1215.109615841428
 31
0.0
  0
LINE
  5
2F9
330
1F
100
AcDbEntity
  8
1-1
  6
JWW_CENTER2
 62
    40
370
     9
100
AcDbLine
 10
-796.4078336148648
 20
764.2863835515203
 30
0.0
 11
-755.3865174989443
 21
1213.655412003801
 31
0.0
  0
LINE
  5
2FA
330
1F
100
AcDbEntity
  8
1-1
  6
Continuous
 62
    40
370
     9
100
AcDbLine
 10
-1628.295073638091
 20
1174.624006941512
 30
0.0
 11
-775.016166068412
 21
1174.624006941512
 31
0.0
  0
LINE
  5
2FB
330
1F
100
AcDbEntity
  8
1-1
  6
Continuous
 62
    40
370
     9
100
AcDbLine
 10
-1644.295027449324
 20
1190.624208192568
 30
0.0
 11
-773.5555287953969
 21
1190.624208192568
 31
0.0
  0
LINE
  5
2FC
330
1F
100
AcDbEntity
  8
1-2
  6
Continuous
 62
    92
370
     5
100
AcDbLine
 10
-1624.294961465372
 20
1170.624142208615
 30
0.0
 11
-775.3813872466217
 21
1170.624142208615
 31
0.0
  0
LINE
  5
2FD
330
1F
100
AcDbEntity
  8
1-2
  6
Continuous
 62
    92
370
     5
100
AcDbLine
 10
-1624.294961465372
 20
1158.624300570102
 30
0.0
 11
-776.4768033414273
 21
1158.624300570102
 31
0.0
  0
LINE
  5
2FE
330
1F
100
AcDbEntity
  8
1-2
  6
Continuous
 62
    92
370
     5
100
AcDbLine
 10
-1624.294961465372
 20
1144.624155405406
 30
0.0
 11
-777.7548300253377
 21
1144.624155405406
 31
0.0
  0
LINE
  5
2FF
330
1F
100
AcDbEntity
  8
1-2
  6
Continuous
 62
    92
370
     5
100
AcDbLine
 10
-1624.294961465372
 20
1132.624313766892
 30
0.0
 11
-778.8502461201435
 21
1132.624313766892
 31
0.0
  0
LINE
  5
300
330
1F
100
AcDbEntity
  8
1-2
  6
Continuous
 62
    92
370
     5
100
AcDbLine
 10
-1624.294961465372
 20
1118.624168602196
 30
0.0
 11
-780.128272804054
 21
1118.624168602196
 31
0.0
  0
LINE
  5
301
330
1F
100
AcDbEntity
  8
1-2
  6
Continuous
 62
    92
370
     5
100
AcDbLine
 10
-1624.294961465372
 20
1106.624326963683
 30
0.0
 11
-781.2236888988596
 21
1106.624326963683
 31
0.0
  0
LINE
  5
302
330
1F
100
AcDbEntity
  8
1-2
  6
Continuous
 62
    92
370
     5
100
AcDbLine
 10
-1624.294961465372
 20
1092.624181798986
 30
0.0
 11
-782.5017155827703
 21
1092.624181798986
 31
0.0
  0
LINE
  5
303
330
1F
100
AcDbEntity
  8
1-2
  6
Continuous
 62
    92
370
     5
100
AcDbLine
 10
-1624.294961465372
 20
1080.624340160473
 30
0.0
 11
-783.597131677576
 21
1080.624340160473
 31
0.0
  0
LINE
  5
304
330
1F
100
AcDbEntity
  8
1-2
  6
Continuous
 62
    92
370
     5
100
AcDbLine
 10
-1624.294961465372
 20
1066.624194995777
 30
0.0
 11
-784.8751583614865
 21
1066.624194995777
 31
0.0
  0
LINE
  5
305
330
1F
100
AcDbEntity
  8
1-2
  6
Continuous
 62
    92
370
     5
100
AcDbLine
 10
-1624.294961465372
 20
1054.624353357264
 30
0.0
 11
-785.9705744562922
 21
1054.624353357264
 31
0.0
  0
LINE
  5
306
330
1F
100
AcDbEntity
  8
1-2
  6
Continuous
 62
    92
370
     5
100
AcDbLine
 10
-1624.294961465372
 20
1040.624208192568
 30
0.0
 11
-787.2486011402026
 21
1040.624208192568
 31
0.0
  0
LINE
  5
307
330
1F
100
AcDbEntity
  8
1-2
  6
Continuous
 62
    92
370
     5
100
AcDbLine
 10
-1624.294961465372
 20
1028.624366554054
 30
0.0
 11
-788.3440172350083
 21
1028.624366554054
 31
0.0
  0
LINE
  5
308
330
1F
100
AcDbEntity
  8
1-2
  6
Continuous
 62
    92
370
     5
100
AcDbLine
 10
-1624.294961465372
 20
1014.624221389358
 30
0.0
 11
-789.6220439189187
 21
1014.624221389358
 31
0.0
  0
LINE
  5
309
330
1F
100
AcDbEntity
  8
1-2
  6
Continuous
 62
    92
370
     5
100
AcDbLine
 10
-1624.294961465372
 20
1002.624379750845
 30
0.0
 11
-790.7174600137245
 21
1002.624379750845
 31
0.0
  0
LINE
  5
30A
330
1F
100
AcDbEntity
  8
1-2
  6
Continuous
 62
    92
370
     5
100
AcDbLine
 10
-1624.294961465372
 20
988.6242345861488
 30
0.0
 11
-791.9954866976352
 21
988.6242345861488
 31
0.0
  0
LINE
  5
30B
330
1F
100
AcDbEntity
  8
1-2
  6
Continuous
 62
    92
370
     5
100
AcDbLine
 10
-1624.294961465372
 20
976.6243929476352
 30
0.0
 11
-793.0909027924408
 21
976.6243929476352
 31
0.0
  0
LINE
  5
30C
330
1F
100
AcDbEntity
  8
1-2
  6
Continuous
 62
    92
370
     5
100
AcDbLine
 10
-1624.294961465372
 20
962.6242477829394
 30
0.0
 11
-794.3689294763512
 21
962.6242477829394
 31
0.0
  0
LINE
  5
30D
330
1F
100
AcDbEntity
  8
1-2
  6
Continuous
 62
    92
370
     5
100
AcDbLine
 10
-1624.294961465372
 20
950.6244061444258
 30
0.0
 11
-795.4643455711571
 21
950.6244061444258
 31
0.0
  0
LINE
  5
30E
330
1F
100
AcDbEntity
  8
1-2
  6
Continuous
 62
    92
370
     5
100
AcDbLine
 10
-1624.294961465372
 20
936.62426097973
 30
0.0
 11
-796.7423722550675
 21
936.62426097973
 31
0.0
  0
LINE
  5
30F
330
1F
100
AcDbEntity
  8
1-2
  6
Continuous
 62
    92
370
     5
100
AcDbLine
 10
-1624.294961465372
 20
924.6244193412165
 30
0.0
 11
-797.8377883498731
 21
924.6244193412165
 31
0.0
  0
LINE
  5
310
330
1F
100
AcDbEntity
  8
1-2
  6
Continuous
 62
    92
370
     5
100
AcDbLine
 10
-1624.294961465372
 20
910.6242741765203
 30
0.0
 11
-799.1158150337835
 21
910.6242741765203
 31
0.0
  0
LINE
  5
311
330
1F
100
AcDbEntity
  8
1-2
  6
Continuous
 62
    92
370
     5
100
AcDbLine
 10
-1624.294961465372
 20
898.6244325380068
 30
0.0
 11
-800.2112311285896
 21
898.6244325380068
 31
0.0
  0
LINE
  5
312
330
1F
100
AcDbEntity
  8
1-2
  6
Continuous
 62
    92
370
     5
100
AcDbLine
 10
-1624.294961465372
 20
884.624287373311
 30
0.0
 11
-801.4892578125
 21
884.624287373311
 31
0.0
  0
LINE
  5
313
330
1F
100
AcDbEntity
  8
1-2
  6
Continuous
 62
    92
370
     5
100
AcDbLine
 10
-1624.294961465372
 20
872.6244457347974
 30
0.0
 11
-802.5844264674831
 21
872.6244457347974
 31
0.0
  0
LINE
  5
314
330
1F
100
AcDbEntity
  8
1-2
  6
Continuous
 62
    92
370
     5
100
AcDbLine
 10
-1624.294961465372
 20
858.6243005701016
 30
0.0
 11
-803.8627005912161
 21
858.6243005701016
 31
0.0
  0
LINE
  5
315
330
1F
100
AcDbEntity
  8
1-2
  6
Continuous
 62
    92
370
     5
100
AcDbLine
 10
-1624.294961465372
 20
846.624458931588
 30
0.0
 11
-804.9581166860219
 21
846.624458931588
 31
0.0
  0
LINE
  5
316
330
1F
100
AcDbEntity
  8
1-2
  6
Continuous
 62
    92
370
     5
100
AcDbLine
 10
-1624.294961465372
 20
820.6244721283783
 30
0.0
 11
-807.331559464738
 21
820.6244721283783
 31
0.0
  0
LINE
  5
317
330
1F
100
AcDbEntity
  8
1-2
  6
Continuous
 62
    92
370
     5
100
AcDbLine
 10
-1624.294961465372
 20
832.6243137668919
 30
0.0
 11
-806.2361433699323
 21
832.6243137668919
 31
0.0
  0
LINE
  5
318
330
1F
100
AcDbEntity
  8
1-1
  6
Continuous
 62
    40
370
     9
100
AcDbLine
 10
-757.489013671875
 20
1190.624208192568
 30
0.0
 11
55.70464263091225
 21
1190.624208192568
 31
0.0
  0
LINE
  5
319
330
1F
100
AcDbEntity
  8
1-1
  6
Continuous
 62
    40
370
     9
100
AcDbLine
 10
-758.9494035050675
 20
1174.624006941512
 30
0.0
 11
39.70468881967918
 21
1174.624006941512
 31
0.0
  0
LINE
  5
31A
330
1F
100
AcDbEntity
  8
1-2
  6
Continuous
 62
    92
370
     5
100
AcDbLine
 10
-759.3146246832771
 20
1170.624142208615
 30
0.0
 11
35.70457664695965
 21
1170.624142208615
 31
0.0
  0
LINE
  5
31B
330
1F
100
AcDbEntity
  8
1-2
  6
Continuous
 62
    92
370
     5
100
AcDbLine
 10
-760.4102882179052
 20
1158.624300570102
 30
0.0
 11
35.70457664695965
 21
1158.624300570102
 31
0.0
  0
LINE
  5
31C
330
1F
100
AcDbEntity
  8
1-2
  6
Continuous
 62
    92
370
     5
100
AcDbLine
 10
-761.6880674619932
 20
1144.624155405406
 30
0.0
 11
35.70457664695965
 21
1144.624155405406
 31
0.0
  0
LINE
  5
31D
330
1F
100
AcDbEntity
  8
1-2
  6
Continuous
 62
    92
370
     5
100
AcDbLine
 10
-762.7837309966217
 20
1132.624313766892
 30
0.0
 11
35.70457664695965
 21
1132.624313766892
 31
0.0
  0
LINE
  5
31E
330
1F
100
AcDbEntity
  8
1-2
  6
Continuous
 62
    92
370
     5
100
AcDbLine
 10
-764.0615102407094
 20
1118.624168602196
 30
0.0
 11
35.70457664695965
 21
1118.624168602196
 31
0.0
  0
LINE
  5
31F
330
1F
100
AcDbEntity
  8
1-2
  6
Continuous
 62
    92
370
     5
100
AcDbLine
 10
-765.1571737753377
 20
1106.624326963683
 30
0.0
 11
35.70457664695965
 21
1106.624326963683
 31
0.0
  0
LINE
  5
320
330
1F
100
AcDbEntity
  8
1-2
  6
Continuous
 62
    92
370
     5
100
AcDbLine
 10
-766.4349530194255
 20
1092.624181798986
 30
0.0
 11
35.70457664695965
 21
1092.624181798986
 31
0.0
  0
LINE
  5
321
330
1F
100
AcDbEntity
  8
1-2
  6
Continuous
 62
    92
370
     5
100
AcDbLine
 10
-767.530616554054
 20
1080.624340160473
 30
0.0
 11
35.70457664695965
 21
1080.624340160473
 31
0.0
  0
LINE
  5
322
330
1F
100
AcDbEntity
  8
1-2
  6
Continuous
 62
    92
370
     5
100
AcDbLine
 10
-768.8083957981419
 20
1066.624194995777
 30
0.0
 11
35.70457664695965
 21
1066.624194995777
 31
0.0
  0
LINE
  5
323
330
1F
100
AcDbEntity
  8
1-2
  6
Continuous
 62
    92
370
     5
100
AcDbLine
 10
-769.9040593327703
 20
1054.624353357264
 30
0.0
 11
35.70457664695965
 21
1054.624353357264
 31
0.0
  0
LINE
  5
324
330
1F
100
AcDbEntity
  8
1-2
  6
Continuous
 62
    92
370
     5
100
AcDbLine
 10
-771.1818385768581
 20
1040.624208192568
 30
0.0
 11
35.70457664695965
 21
1040.624208192568
 31
0.0
  0
LINE
  5
325
330
1F
100
AcDbEntity
  8
1-2
  6
Continuous
 62
    92
370
     5
100
AcDbLine
 10
-772.2775021114865
 20
1028.624366554054
 30
0.0
 11
35.70457664695965
 21
1028.624366554054
 31
0.0
  0
LINE
  5
326
330
1F
100
AcDbEntity
  8
1-2
  6
Continuous
 62
    92
370
     5
100
AcDbLine
 10
-773.5552813555742
 20
1014.624221389358
 30
0.0
 11
35.70457664695965
 21
1014.624221389358
 31
0.0
  0
LINE
  5
327
330
1F
100
AcDbEntity
  8
1-2
  6
Continuous
 62
    92
370
     5
100
AcDbLine
 10
-775.9287241342904
 20
988.6242345861488
 30
0.0
 11
35.70457664695965
 21
988.6242345861488
 31
0.0
  0
LINE
  5
328
330
1F
100
AcDbEntity
  8
1-2
  6
Continuous
 62
    92
370
     5
100
AcDbLine
 10
-777.0243876689187
 20
976.6243929476352
 30
0.0
 11
35.70457664695965
 21
976.6243929476352
 31
0.0
  0
LINE
  5
329
330
1F
100
AcDbEntity
  8
1-2
  6
Continuous
 62
    92
370
     5
100
AcDbLine
 10
-778.3021669130068
 20
962.6242477829394
 30
0.0
 11
35.70457664695965
 21
962.6242477829394
 31
0.0
  0
LINE
  5
32A
330
1F
100
AcDbEntity
  8
1-2
  6
Continuous
 62
    92
370
     5
100
AcDbLine
 10
-779.3978304476352
 20
950.6244061444258
 30
0.0
 11
35.70457664695965
 21
950.6244061444258
 31
0.0
  0
LINE
  5
32B
330
1F
100
AcDbEntity
  8
1-2
  6
Continuous
 62
    92
370
     5
100
AcDbLine
 10
-780.6756096917229
 20
936.62426097973
 30
0.0
 11
35.70457664695965
 21
936.62426097973
 31
0.0
  0
LINE
  5
32C
330
1F
100
AcDbEntity
  8
1-2
  6
Continuous
 62
    92
370
     5
100
AcDbLine
 10
-781.7712732263512
 20
924.6244193412165
 30
0.0
 11
35.70457664695965
 21
924.6244193412165
 31
0.0
  0
LINE
  5
32D
330
1F
100
AcDbEntity
  8
1-2
  6
Continuous
 62
    92
370
     5
100
AcDbLine
 10
-783.0492999102617
 20
910.6242741765203
 30
0.0
 11
35.70457664695965
 21
910.6242741765203
 31
0.0
  0
LINE
  5
32E
330
1F
100
AcDbEntity
  8
1-2
  6
Continuous
 62
    92
370
     5
100
AcDbLine
 10
-784.1447160050675
 20
898.6244325380068
 30
0.0
 11
35.70457664695965
 21
898.6244325380068
 31
0.0
  0
LINE
  5
32F
330
1F
100
AcDbEntity
  8
1-2
  6
Continuous
 62
    92
370
     5
100
AcDbLine
 10
-785.4224952491554
 20
884.624287373311
 30
0.0
 11
35.70457664695965
 21
884.624287373311
 31
0.0
  0
LINE
  5
330
330
1F
100
AcDbEntity
  8
1-2
  6
Continuous
 62
    92
370
     5
100
AcDbLine
 10
-786.5181587837835
 20
872.6244457347974
 30
0.0
 11
35.70457664695965
 21
872.6244457347974
 31
0.0
  0
LINE
  5
331
330
1F
100
AcDbEntity
  8
1-2
  6
Continuous
 62
    92
370
     5
100
AcDbLine
 10
-791.2650443412161
 20
820.6244721283783
 30
0.0
 11
-500.8491309913427
 21
820.6244721283783
 31
0.0
  0
LINE
  5
332
330
1F
100
AcDbEntity
  8
1-2
  6
Continuous
 62
    92
370
     5
100
AcDbLine
 10
-790.1693808065877
 20
832.6243137668919
 30
0.0
 11
-500.8491309913427
 21
832.6243137668919
 31
0.0
  0
LINE
  5
333
330
1F
100
AcDbEntity
  8
1-2
  6
Continuous
 62
    92
370
     5
100
AcDbLine
 10
-788.8916015625
 20
846.624458931588
 30
0.0
 11
-172.3059576910893
 21
846.624458931588
 31
0.0
  0
LINE
  5
334
330
1F
100
AcDbEntity
  8
1-2
  6
Continuous
 62
    92
370
     5
100
AcDbLine
 10
-787.7959380278717
 20
858.6243005701016
 30
0.0
 11
-172.3059576910893
 21
858.6243005701016
 31
0.0
  0
LINE
  5
335
330
1F
100
AcDbEntity
  8
1-2
  6
Continuous
 62
    92
370
     5
100
AcDbLine
 10
-774.6509448902026
 20
1002.624379750845
 30
0.0
 11
35.70457664695965
 21
1002.624379750845
 31
0.0
  0
LINE
  5
336
330
1F
100
AcDbEntity
  8
1-4
  6
Continuous
 62
     7
370
     5
100
AcDbLine
 10
-660.2948987806164
 20
-102.9275925095016
 30
0.0
 11
-320.2950142525336
 21
-102.9275925095016
 31
0.0
  0
LINE
  5
337
330
1F
100
AcDbEntity
  8
1-4
  6
Continuous
 62
     7
370
     5
100
AcDbLine
 10
-660.2948987806164
 20
7.62431376689193
 30
0.0
 11
-660.2948987806164
 21
-105.9275529191299
 31
0.0
  0
LINE
  5
338
330
1F
100
AcDbEntity
  8
1-4
  6
Continuous
 62
     7
370
     5
100
AcDbLine
 10
-1624.294961465372
 20
-168.9774466849661
 30
0.0
 11
35.70457664695965
 21
-168.9774466849661
 31
0.0
  0
LINE
  5
339
330
1F
100
AcDbEntity
  8
1-4
  6
Continuous
 62
     7
370
     5
100
AcDbLine
 10
-1564.295010953336
 20
7.62431376689193
 30
0.0
 11
-1564.295258393159
 21
-171.9774070945945
 31
0.0
  0
LINE
  5
33A
330
1F
100
AcDbEntity
  8
1-4
  6
Continuous
 62
     7
370
     5
100
AcDbLine
 10
-1268.295123126056
 20
7.62431376689193
 30
0.0
 11
-1268.295123126056
 21
-171.9774070945945
 31
0.0
  0
LINE
  5
33B
330
1F
100
AcDbEntity
  8
1-4
  6
Continuous
 62
     7
370
     5
100
AcDbLine
 10
-24.29537386507576
 20
7.62431376689193
 30
0.0
 11
-24.29537386507576
 21
-171.9774070945945
 31
0.0
  0
LINE
  5
33C
330
1F
100
AcDbEntity
  8
1-4
  6
Continuous
 62
     7
370
     5
100
AcDbLine
 10
-1628.295073638091
 20
-8.375887484163798
 30
0.0
 11
-1628.295073638091
 21
-235.0894082559121
 31
0.0
  0
LINE
  5
33D
330
1F
100
AcDbEntity
  8
1-4
  6
Continuous
 62
     7
370
     5
100
AcDbLine
 10
-1674.56434095228
 20
-232.0894478462837
 30
0.0
 11
87.04685520481434
 21
-232.0894478462837
 31
0.0
  0
LINE
  5
33E
330
1F
100
AcDbEntity
  8
1-4
  6
Continuous
 62
     7
370
     5
100
AcDbLine
 10
39.70468881967918
 20
-8.375887484163798
 30
0.0
 11
39.70468881967918
 21
-235.0894082559121
 31
0.0
  0
LINE
  5
33F
330
1F
100
AcDbEntity
  8
1-4
  6
Continuous
 62
     7
370
     5
100
AcDbLine
 10
-1644.295027449324
 20
-293.9305980785473
 30
0.0
 11
55.70464263091225
 21
-293.9305980785473
 31
0.0
  0
LINE
  5
340
330
1F
100
AcDbEntity
  8
1-4
  6
Continuous
 62
     7
370
     5
100
AcDbLine
 10
-1624.294961465372
 20
-4.375775311444272
 30
0.0
 11
-1624.294961465372
 21
-235.0894082559121
 31
0.0
  0
LINE
  5
341
330
1F
100
AcDbEntity
  8
1-4
  6
Continuous
 62
     7
370
     5
100
AcDbLine
 10
-1644.295027449324
 20
-24.37559385557421
 30
0.0
 11
-1644.295027449324
 21
-296.9308059279983
 31
0.0
  0
LINE
  5
342
330
1F
100
AcDbEntity
  8
1-4
  6
Continuous
 62
     7
370
     5
100
AcDbLine
 10
35.70457664695965
 20
-4.375775311444272
 30
0.0
 11
35.70457664695965
 21
-235.0894082559121
 31
0.0
  0
LINE
  5
343
330
1F
100
AcDbEntity
  8
1-4
  6
Continuous
 62
     7
370
     5
100
AcDbLine
 10
55.70464263091225
 20
-24.37559385557421
 30
0.0
 11
55.70464263091225
 21
-296.9308059279983
 31
0.0
  0
LINE
  5
344
330
1F
100
AcDbEntity
  8
1-4
  6
Continuous
 62
     7
370
     5
100
AcDbLine
 10
-320.2950142525336
 20
7.62431376689193
 30
0.0
 11
-320.2950142525336
 21
-171.9774070945945
 31
0.0
  0
LINE
  5
345
330
1F
100
AcDbEntity
  8
1-4
  6
Continuous
 62
     7
370
     5
100
AcDbLine
 10
54.70473830764377
 20
6.624162003800791
 30
0.0
 11
226.8543140308279
 21
6.624162003800791
 31
0.0
  0
LINE
  5
346
330
1F
100
AcDbEntity
  8
1-4
  6
Continuous
 62
     7
370
     5
100
AcDbLine
 10
223.8543536211995
 20
-38.97874986803203
 30
0.0
 11
223.8543536211995
 21
1218.786819045608
 31
0.0
  0
LINE
  5
347
330
1F
100
AcDbEntity
  8
1-4
  6
Continuous
 62
     7
370
     5
100
AcDbLine
 10
50.70462613492424
 20
10.62427417652032
 30
0.0
 11
226.8543140308279
 21
10.62427417652032
 31
0.0
  0
LINE
  5
348
330
1F
100
AcDbEntity
  8
1-4
  6
Continuous
 62
     7
370
     5
100
AcDbLine
 10
50.70462613492424
 20
1170.624142208615
 30
0.0
 11
226.8543140308279
 21
1170.624142208615
 31
0.0
  0
LINE
  5
349
330
1F
100
AcDbEntity
  8
1-4
  6
Continuous
 62
     7
370
     5
100
AcDbLine
 10
54.70473830764377
 20
1174.624006941512
 30
0.0
 11
226.8543140308279
 21
1174.624006941512
 31
0.0
  0
LINE
  5
34A
330
1F
100
AcDbEntity
  8
1-4
  6
Continuous
 62
     7
370
     5
100
AcDbLine
 10
291.5395375844597
 20
-9.375791807432279
 30
0.0
 11
291.5395375844597
 21
1190.624208192568
 31
0.0
  0
LINE
  5
34B
330
1F
100
AcDbEntity
  8
1-4
  6
Continuous
 62
     7
370
     5
100
AcDbLine
 10
70.70469211887684
 20
1190.624208192568
 30
0.0
 11
294.539497994088
 21
1190.624208192568
 31
0.0
  0
LINE
  5
34C
330
1F
100
AcDbEntity
  8
1-4
  6
Continuous
 62
     7
370
     5
100
AcDbLine
 10
70.70469211887684
 20
-9.375791807432279
 30
0.0
 11
294.539497994088
 21
-9.375791807432279
 31
0.0
  0
LINE
  5
34D
330
1F
100
AcDbEntity
  8
2-0
  6
Continuous
 62
    92
370
     5
100
AcDbLine
 10
-1508.755658123944
 20
-776.3798564189188
 30
0.0
 11
-1508.755658123944
 21
-546.3798399229307
 31
0.0
  0
LINE
  5
34E
330
1F
100
AcDbEntity
  8
2-0
  6
Continuous
 62
    92
370
     5
100
AcDbLine
 10
-1568.755361196157
 20
-759.1714065139358
 30
0.0
 11
-1568.755361196157
 21
-529.171142578125
 31
0.0
  0
LINE
  5
34F
330
1F
100
AcDbEntity
  8
2-5
  6
Continuous
 62
     7
370
     5
100
AcDbLine
 10
-1756.382792704814
 20
-837.1758208403717
 30
0.0
 11
-1318.347745328336
 21
-837.1758208403717
 31
0.0
  0
LINE
  5
350
330
1F
100
AcDbEntity
  8
2-4
  6
Continuous
 62
     7
370
     5
100
AcDbLine
 10
-1568.755361196157
 20
-499.2685348923142
 30
0.0
 11
-1508.755163244299
 21
-499.2685348923142
 31
0.0
  0
LINE
  5
351
330
1F
100
AcDbEntity
  8
2-4
  6
Continuous
 62
     7
370
     5
100
AcDbLine
 10
-1568.755361196157
 20
-521.9028452280405
 30
0.0
 11
-1568.755361196157
 21
-496.2680796030405
 31
0.0
  0
LINE
  5
352
330
1F
100
AcDbEntity
  8
2-4
  6
Continuous
 62
     7
370
     5
100
AcDbLine
 10
-1508.755163244299
 20
-538.6733266469594
 30
0.0
 11
-1508.755163244299
 21
-496.2680796030405
 31
0.0
  0
LINE
  5
353
330
1F
100
AcDbEntity
  8
2-5
  6
Continuous
 62
     7
370
     5
100
AcDbLine
 10
-1512.235651789485
 20
-665.2536423141892
 30
0.0
 11
-1465.554149730785
 21
-584.3982263513512
 31
0.0
  0
LINE
  5
354
330
1F
100
AcDbEntity
  8
2-5
  6
Continuous
 62
     7
370
     5
100
AcDbLine
 10
-1512.235651789485
 20
-665.2536423141892
 30
0.0
 11
-1502.66863848712
 21
-642.1568669499577
 31
0.0
  0
LINE
  5
355
330
1F
100
AcDbEntity
  8
2-5
  6
Continuous
 62
     7
370
     5
100
AcDbLine
 10
-1512.235651789485
 20
-665.2536423141892
 30
0.0
 11
-1497.016865498311
 21
-645.4201033308699
 31
0.0
  0
LINE
  5
356
330
1F
100
AcDbEntity
  8
2-5
  6
Continuous
 62
     7
370
     5
100
AcDbLine
 10
-1465.554149730785
 20
-584.3982263513512
 30
0.0
 11
-1119.151512352196
 21
-584.3982263513512
 31
0.0
  0
LINE
  5
357
330
1F
100
AcDbEntity
  8
2-2
  6
Continuous
 62
    92
370
     5
100
AcDbLine
 10
-1568.755361196157
 20
-575.4092324746621
 30
0.0
 11
-1529.723461254223
 21
-542.657850110853
 31
0.0
  0
LINE
  5
358
330
1F
100
AcDbEntity
  8
2-2
  6
Continuous
 62
    92
370
     5
100
AcDbLine
 10
-1568.755361196157
 20
-554.9019148543074
 30
0.0
 11
-1543.47294987859
 21
-533.6869193412161
 31
0.0
  0
LINE
  5
359
330
1F
100
AcDbEntity
  8
2-2
  6
Continuous
 62
    92
370
     5
100
AcDbLine
 10
-1519.404230891048
 20
-545.9666154191301
 30
0.0
 11
-1508.755658123944
 21
-554.9019148543074
 31
0.0
  0
LINE
  5
35A
330
1F
100
AcDbEntity
  8
2-2
  6
Continuous
 62
    92
370
     5
100
AcDbLine
 10
-1532.931023675042
 20
-770.9346956820102
 30
0.0
 11
-1508.755658123944
 21
-750.6490841427365
 31
0.0
  0
LINE
  5
35B
330
1F
100
AcDbEntity
  8
2-2
  6
Continuous
 62
    92
370
     5
100
AcDbLine
 10
-1546.782210066512
 20
-762.0491316511824
 30
0.0
 11
-1508.755658123944
 21
-730.1407767630911
 31
0.0
  0
LINE
  5
35C
330
1F
100
AcDbEntity
  8
2-2
  6
Continuous
 62
    92
370
     5
100
AcDbLine
 10
-1568.755361196157
 20
-668.6178341427365
 30
0.0
 11
-1508.755658123944
 21
-718.9639199746621
 31
0.0
  0
LINE
  5
35D
330
1F
100
AcDbEntity
  8
2-2
  6
Continuous
 62
    92
370
     5
100
AcDbLine
 10
-1568.755361196157
 20
-648.1095267630911
 30
0.0
 11
-1508.755658123944
 21
-698.4561074746621
 31
0.0
  0
LINE
  5
35E
330
1F
100
AcDbEntity
  8
2-2
  6
Continuous
 62
    92
370
     5
100
AcDbLine
 10
-1568.755361196157
 20
-627.6019617029137
 30
0.0
 11
-1508.755658123944
 21
-677.9475526551943
 31
0.0
  0
LINE
  5
35F
330
1F
100
AcDbEntity
  8
2-2
  6
Continuous
 62
    92
370
     5
100
AcDbLine
 10
-1568.755361196157
 20
-689.1253992029137
 30
0.0
 11
-1508.755658123944
 21
-739.4714850348395
 31
0.0
  0
LINE
  5
360
330
1F
100
AcDbEntity
  8
2-2
  6
Continuous
 62
    92
370
     5
100
AcDbLine
 10
-1568.755361196157
 20
-709.6334591427365
 30
0.0
 11
-1508.755658123944
 21
-759.9790500950168
 31
0.0
  0
LINE
  5
361
330
1F
100
AcDbEntity
  8
2-2
  6
Continuous
 62
    92
370
     5
100
AcDbLine
 10
-1568.755361196157
 20
-607.0946440825592
 30
0.0
 11
-1508.755658123944
 21
-657.4402350348395
 31
0.0
  0
LINE
  5
362
330
1F
100
AcDbEntity
  8
2-2
  6
Continuous
 62
    92
370
     5
100
AcDbLine
 10
-1568.755361196157
 20
-586.5870790223818
 30
0.0
 11
-1508.755658123944
 21
-636.9326699746621
 31
0.0
  0
LINE
  5
363
330
1F
100
AcDbEntity
  8
2-2
  6
Continuous
 62
    92
370
     5
100
AcDbLine
 10
-1568.755361196157
 20
-566.0787716427365
 30
0.0
 11
-1508.755658123944
 21
-616.4243625950168
 31
0.0
  0
LINE
  5
364
330
1F
100
AcDbEntity
  8
2-2
  6
Continuous
 62
    92
370
     5
100
AcDbLine
 10
-1568.755361196157
 20
-545.5712065825592
 30
0.0
 11
-1508.755658123944
 21
-595.9167975348395
 31
0.0
  0
LINE
  5
365
330
1F
100
AcDbEntity
  8
2-2
  6
Continuous
 62
    92
370
     5
100
AcDbLine
 10
-1568.755361196157
 20
-616.4251049144848
 30
0.0
 11
-1508.755658123944
 21
-566.0787716427365
 31
0.0
  0
LINE
  5
366
330
1F
100
AcDbEntity
  8
2-2
  6
Continuous
 62
    92
370
     5
100
AcDbLine
 10
-1568.755361196157
 20
-636.9326699746621
 30
0.0
 11
-1508.755658123944
 21
-586.5870790223818
 31
0.0
  0
LINE
  5
367
330
1F
100
AcDbEntity
  8
2-2
  6
Continuous
 62
    92
370
     5
100
AcDbLine
 10
-1568.755361196157
 20
-657.4402350348395
 30
0.0
 11
-1508.755658123944
 21
-607.0946440825592
 31
0.0
  0
LINE
  5
368
330
1F
100
AcDbEntity
  8
2-2
  6
Continuous
 62
    92
370
     5
100
AcDbLine
 10
-1568.755361196157
 20
-677.9475526551943
 30
0.0
 11
-1508.755658123944
 21
-627.6019617029137
 31
0.0
  0
LINE
  5
369
330
1F
100
AcDbEntity
  8
2-2
  6
Continuous
 62
    92
370
     5
100
AcDbLine
 10
-1568.755361196157
 20
-698.4561074746621
 30
0.0
 11
-1508.755658123944
 21
-648.1105165223818
 31
0.0
  0
LINE
  5
36A
330
1F
100
AcDbEntity
  8
2-2
  6
Continuous
 62
    92
370
     5
100
AcDbLine
 10
-1568.755361196157
 20
-718.9639199746621
 30
0.0
 11
-1508.755658123944
 21
-668.6178341427365
 31
0.0
  0
LINE
  5
36B
330
1F
100
AcDbEntity
  8
2-2
  6
Continuous
 62
    92
370
     5
100
AcDbLine
 10
-1568.755361196157
 20
-739.4714850348395
 30
0.0
 11
-1508.755658123944
 21
-689.1253992029137
 31
0.0
  0
LINE
  5
36C
330
1F
100
AcDbEntity
  8
2-2
  6
Continuous
 62
    92
370
     5
100
AcDbLine
 10
-1568.755361196157
 20
-750.6495790223818
 30
0.0
 11
-1558.932989996833
 21
-758.8908097550676
 31
0.0
  0
LINE
  5
36D
330
1F
100
AcDbEntity
  8
2-2
  6
Continuous
 62
    92
370
     5
100
AcDbLine
 10
-1567.602044182855
 20
-759.0108180690456
 30
0.0
 11
-1508.755658123944
 21
-709.6334591427365
 31
0.0
  0
LINE
  5
36E
330
1F
100
AcDbEntity
  8
2-2
  6
Continuous
 62
    92
370
     5
100
AcDbLine
 10
-1568.755361196157
 20
-730.1407767630911
 30
0.0
 11
-1513.445879961993
 21
-776.5518270956502
 31
0.0
  0
LINE
  5
36F
330
1F
100
AcDbEntity
  8
2-2
  6
Continuous
 62
    92
370
     5
100
AcDbLine
 10
-1515.098777977196
 20
-776.480069547086
 30
0.0
 11
-1508.755658123944
 21
-771.1576389622043
 31
0.0
  0
LINE
  5
370
330
1F
100
AcDbEntity
  8
2-2
  6
Continuous
 62
    92
370
     5
100
AcDbLine
 10
-1568.755361196157
 20
-595.9167975348395
 30
0.0
 11
-1509.824103278083
 21
-546.4679284997887
 31
0.0
  0
LINE
  5
371
330
1F
100
AcDbEntity
  8
2-2
  6
Continuous
 62
    92
370
     5
100
AcDbLine
 10
-1564.369490339949
 20
-528.7440614442568
 30
0.0
 11
-1508.755658123944
 21
-575.4092324746621
 31
0.0
  0
LINE
  5
372
330
1F
100
AcDbEntity
  8
D-2
  6
Continuous
 62
    92
370
     5
100
AcDbLine
 10
1246.678532780828
 20
993.513645481419
 30
0.0
 11
1246.678532780828
 21
1028.513513513514
 31
0.0
  0
LINE
  5
373
330
1F
100
AcDbEntity
  8
D-2
  6
Continuous
 62
    92
370
     5
100
AcDbLine
 10
1246.678532780828
 20
928.5136784733953
 30
0.0
 11
1246.678532780828
 21
963.5135465054901
 31
0.0
  0
LINE
  5
374
330
1F
100
AcDbEntity
  8
D-2
  6
Continuous
 62
    92
370
     5
100
AcDbLine
 10
1246.678532780828
 20
863.5134640255492
 30
0.0
 11
1246.678532780828
 21
898.5135794974665
 31
0.0
  0
LINE
  5
375
330
1F
100
AcDbEntity
  8
D-2
  6
Continuous
 62
    92
370
     5
100
AcDbLine
 10
1421.428701039907
 20
768.513645481419
 30
0.0
 11
794.5945945945948
 21
768.513645481419
 31
0.0
  0
LINE
  5
376
330
1F
100
AcDbEntity
  8
D-2
  6
Continuous
 62
    92
370
     5
100
AcDbLine
 10
1421.428701039907
 20
798.5134970175255
 30
0.0
 11
794.5945945945948
 21
798.5134970175255
 31
0.0
  0
LINE
  5
377
330
1F
100
AcDbEntity
  8
D-2
  6
Continuous
 62
    92
370
     5
100
AcDbLine
 10
1246.678532780828
 20
798.5134970175255
 30
0.0
 11
1246.678532780828
 21
833.5136124894427
 31
0.0
  0
LINE
  5
378
330
1F
100
AcDbEntity
  8
D-2
  6
Continuous
 62
    92
370
     5
100
AcDbLine
 10
1246.678532780828
 20
733.5135300095019
 30
0.0
 11
1246.678532780828
 21
768.513645481419
 31
0.0
  0
LINE
  5
379
330
1F
100
AcDbEntity
  8
D-2
  6
Continuous
 62
    92
370
     5
100
AcDbLine
 10
1246.678532780828
 20
668.5135630014781
 30
0.0
 11
1246.678532780828
 21
703.5134310335727
 31
0.0
  0
LINE
  5
37A
330
1F
100
AcDbEntity
  8
D-2
  6
Continuous
 62
    92
370
     5
100
AcDbLine
 10
1246.678532780828
 20
603.5135959934544
 30
0.0
 11
1246.678532780828
 21
638.5134640255492
 31
0.0
  0
LINE
  5
37B
330
1F
100
AcDbEntity
  8
D-2
  6
Continuous
 62
    92
370
     5
100
AcDbLine
 10
1246.678532780828
 20
473.5134145375847
 30
0.0
 11
1246.678532780828
 21
508.5135300095018
 31
0.0
  0
LINE
  5
37C
330
1F
100
AcDbEntity
  8
D-2
  6
Continuous
 62
    92
370
     5
100
AcDbLine
 10
1246.678532780828
 20
538.5136289854307
 30
0.0
 11
1246.678532780828
 21
573.5134970175255
 31
0.0
  0
LINE
  5
37D
330
1F
100
AcDbEntity
  8
D-2
  6
Continuous
 62
    92
370
     5
100
AcDbLine
 10
1296.178374419341
 20
473.5134145375847
 30
0.0
 11
1296.178374419341
 21
508.5135300095018
 31
0.0
  0
LINE
  5
37E
330
1F
100
AcDbEntity
  8
D-2
  6
Continuous
 62
    92
370
     5
100
AcDbLine
 10
1296.178374419341
 20
538.5136289854307
 30
0.0
 11
1296.178374419341
 21
573.5134970175255
 31
0.0
  0
LINE
  5
37F
330
1F
100
AcDbEntity
  8
D-2
  6
Continuous
 62
    92
370
     5
100
AcDbLine
 10
1296.178374419341
 20
603.5135959934544
 30
0.0
 11
1296.178374419341
 21
638.5134640255492
 31
0.0
  0
LINE
  5
380
330
1F
100
AcDbEntity
  8
D-2
  6
Continuous
 62
    92
370
     5
100
AcDbLine
 10
1296.178374419341
 20
993.513645481419
 30
0.0
 11
1296.178374419341
 21
1028.513513513514
 31
0.0
  0
LINE
  5
381
330
1F
100
AcDbEntity
  8
D-2
  6
Continuous
 62
    92
370
     5
100
AcDbLine
 10
1296.178374419341
 20
928.5136784733953
 30
0.0
 11
1296.178374419341
 21
963.5135465054901
 31
0.0
  0
LINE
  5
382
330
1F
100
AcDbEntity
  8
D-2
  6
Continuous
 62
    92
370
     5
100
AcDbLine
 10
1296.178374419341
 20
863.5134640255492
 30
0.0
 11
1296.178374419341
 21
898.5135794974665
 31
0.0
  0
LINE
  5
383
330
1F
100
AcDbEntity
  8
D-2
  6
Continuous
 62
    92
370
     5
100
AcDbLine
 10
1296.178374419341
 20
798.5134970175255
 30
0.0
 11
1296.178374419341
 21
833.5136124894427
 31
0.0
  0
LINE
  5
384
330
1F
100
AcDbEntity
  8
D-2
  6
Continuous
 62
    92
370
     5
100
AcDbLine
 10
1296.178374419341
 20
668.5135630014781
 30
0.0
 11
1296.178374419341
 21
703.5134310335727
 31
0.0
  0
LINE
  5
385
330
1F
100
AcDbEntity
  8
D-2
  6
Continuous
 62
    92
370
     5
100
AcDbLine
 10
1296.178374419341
 20
733.5135300095019
 30
0.0
 11
1296.178374419341
 21
768.513645481419
 31
0.0
  0
LINE
  5
386
330
1F
100
AcDbEntity
  8
2-2
  6
Continuous
 62
    92
370
     5
100
AcDbLine
 10
1259.172511745144
 20
-640.7365623680321
 30
0.0
 11
1259.172511745144
 21
-541.7366316511824
 31
0.0
  0
LINE
  5
387
330
1F
100
AcDbEntity
  8
2-2
  6
Continuous
 62
    92
370
     5
100
AcDbLine
 10
439.1725282411318
 20
-541.7366316511824
 30
0.0
 11
383.6722709037164
 21
-541.7366316511824
 31
0.0
  0
LINE
  5
388
330
1F
100
AcDbEntity
  8
2-2
  6
Continuous
 62
    92
370
     5
100
AcDbLine
 10
569.1724622571792
 20
-541.7366316511824
 30
0.0
 11
459.1725942250847
 21
-541.7366316511824
 31
0.0
  0
LINE
  5
389
330
1F
100
AcDbEntity
  8
2-2
  6
Continuous
 62
    92
370
     5
100
AcDbLine
 10
699.1723962732266
 20
-541.7366316511824
 30
0.0
 11
589.1725282411318
 21
-541.7366316511824
 31
0.0
  0
LINE
  5
38A
330
1F
100
AcDbEntity
  8
2-2
  6
Continuous
 62
    92
370
     5
100
AcDbLine
 10
829.172330289274
 20
-541.7366316511824
 30
0.0
 11
719.1724622571792
 21
-541.7366316511824
 31
0.0
  0
LINE
  5
38B
330
1F
100
AcDbEntity
  8
2-2
  6
Continuous
 62
    92
370
     5
100
AcDbLine
 10
959.1725117451438
 20
-541.7366316511824
 30
0.0
 11
849.1723962732266
 21
-541.7366316511824
 31
0.0
  0
LINE
  5
38C
330
1F
100
AcDbEntity
  8
2-2
  6
Continuous
 62
    92
370
     5
100
AcDbLine
 10
1089.172445761191
 20
-541.7366316511824
 30
0.0
 11
979.1725777290964
 21
-541.7366316511824
 31
0.0
  0
LINE
  5
38D
330
1F
100
AcDbEntity
  8
2-2
  6
Continuous
 62
    92
370
     5
100
AcDbLine
 10
1259.172511745144
 20
-541.7366316511824
 30
0.0
 11
1239.172445761191
 21
-541.7366316511824
 31
0.0
  0
LINE
  5
38E
330
1F
100
AcDbEntity
  8
2-2
  6
Continuous
 62
    92
370
     5
100
AcDbLine
 10
1219.172379777239
 20
-541.7366316511824
 30
0.0
 11
1109.172511745144
 21
-541.7366316511824
 31
0.0
  0
LINE
  5
38F
330
1F
100
AcDbEntity
  8
2-2
  6
Continuous
 62
    92
370
     5
100
AcDbLine
 10
439.1725282411318
 20
-591.2364732896959
 30
0.0
 11
383.6722709037164
 21
-591.2364732896959
 31
0.0
  0
LINE
  5
390
330
1F
100
AcDbEntity
  8
2-2
  6
Continuous
 62
    92
370
     5
100
AcDbLine
 10
569.1724622571792
 20
-591.2364732896959
 30
0.0
 11
459.1725942250847
 21
-591.2364732896959
 31
0.0
  0
LINE
  5
391
330
1F
100
AcDbEntity
  8
2-2
  6
Continuous
 62
    92
370
     5
100
AcDbLine
 10
699.1723962732266
 20
-591.2364732896959
 30
0.0
 11
589.1725282411318
 21
-591.2364732896959
 31
0.0
  0
LINE
  5
392
330
1F
100
AcDbEntity
  8
2-2
  6
Continuous
 62
    92
370
     5
100
AcDbLine
 10
829.172330289274
 20
-591.2364732896959
 30
0.0
 11
719.1724622571792
 21
-591.2364732896959
 31
0.0
  0
LINE
  5
393
330
1F
100
AcDbEntity
  8
2-2
  6
Continuous
 62
    92
370
     5
100
AcDbLine
 10
959.1725117451438
 20
-591.2364732896959
 30
0.0
 11
849.1723962732266
 21
-591.2364732896959
 31
0.0
  0
LINE
  5
394
330
1F
100
AcDbEntity
  8
2-2
  6
Continuous
 62
    92
370
     5
100
AcDbLine
 10
1089.172445761191
 20
-591.2364732896959
 30
0.0
 11
979.1725777290964
 21
-591.2364732896959
 31
0.0
  0
LINE
  5
395
330
1F
100
AcDbEntity
  8
2-2
  6
Continuous
 62
    92
370
     5
100
AcDbLine
 10
1259.172511745144
 20
-591.2364732896959
 30
0.0
 11
1239.172445761191
 21
-591.2364732896959
 31
0.0
  0
LINE
  5
396
330
1F
100
AcDbEntity
  8
2-2
  6
Continuous
 62
    92
370
     5
100
AcDbLine
 10
1219.172379777239
 20
-591.2364732896959
 30
0.0
 11
1109.172511745144
 21
-591.2364732896959
 31
0.0
  0
LINE
  5
397
330
1F
100
AcDbEntity
  8
2-2
  6
Continuous
 62
    92
370
     5
100
AcDbLine
 10
439.1725282411318
 20
-640.7365623680321
 30
0.0
 11
383.6722709037164
 21
-640.7365623680321
 31
0.0
  0
LINE
  5
398
330
1F
100
AcDbEntity
  8
2-2
  6
Continuous
 62
    92
370
     5
100
AcDbLine
 10
569.1724622571792
 20
-640.7365623680321
 30
0.0
 11
459.1725942250847
 21
-640.7365623680321
 31
0.0
  0
LINE
  5
399
330
1F
100
AcDbEntity
  8
2-2
  6
Continuous
 62
    92
370
     5
100
AcDbLine
 10
699.1723962732266
 20
-640.7365623680321
 30
0.0
 11
589.1725282411318
 21
-640.7365623680321
 31
0.0
  0
LINE
  5
39A
330
1F
100
AcDbEntity
  8
2-2
  6
Continuous
 62
    92
370
     5
100
AcDbLine
 10
829.172330289274
 20
-640.7365623680321
 30
0.0
 11
719.1724622571792
 21
-640.7365623680321
 31
0.0
  0
LINE
  5
39B
330
1F
100
AcDbEntity
  8
2-2
  6
Continuous
 62
    92
370
     5
100
AcDbLine
 10
959.1725117451438
 20
-640.7365623680321
 30
0.0
 11
849.1723962732266
 21
-640.7365623680321
 31
0.0
  0
LINE
  5
39C
330
1F
100
AcDbEntity
  8
2-2
  6
Continuous
 62
    92
370
     5
100
AcDbLine
 10
1089.172445761191
 20
-640.7365623680321
 30
0.0
 11
979.1725777290964
 21
-640.7365623680321
 31
0.0
  0
LINE
  5
39D
330
1F
100
AcDbEntity
  8
2-2
  6
Continuous
 62
    92
370
     5
100
AcDbLine
 10
1259.172511745144
 20
-640.7365623680321
 30
0.0
 11
1239.172445761191
 21
-640.7365623680321
 31
0.0
  0
LINE
  5
39E
330
1F
100
AcDbEntity
  8
2-2
  6
Continuous
 62
    92
370
     5
100
AcDbLine
 10
1219.172379777239
 20
-640.7365623680321
 30
0.0
 11
1109.172511745144
 21
-640.7365623680321
 31
0.0
  0
LINE
  5
39F
330
1F
100
AcDbEntity
  8
1-2
  6
Continuous
 62
    92
370
     5
100
AcDbLine
 10
-1574.194830817145
 20
1158.624300570102
 30
0.0
 11
-1574.194830817145
 21
1144.624155405406
 31
0.0
  0
LINE
  5
3A0
330
1F
100
AcDbEntity
  8
1-2
  6
Continuous
 62
    92
370
     5
100
AcDbLine
 10
-1564.294763513514
 20
1158.624300570102
 30
0.0
 11
-1564.294763513514
 21
1144.624155405406
 31
0.0
  0
LINE
  5
3A1
330
1F
100
AcDbEntity
  8
1-2
  6
Continuous
 62
    92
370
     5
100
AcDbLine
 10
-1554.394696209882
 20
1158.624300570102
 30
0.0
 11
-1554.394696209882
 21
1144.624155405406
 31
0.0
  0
LINE
  5
3A2
330
1F
100
AcDbEntity
  8
1-2
  6
Continuous
 62
    92
370
     5
100
AcDbLine
 10
-1574.194830817145
 20
1132.624313766892
 30
0.0
 11
-1574.194830817145
 21
1118.624168602196
 31
0.0
  0
LINE
  5
3A3
330
1F
100
AcDbEntity
  8
1-2
  6
Continuous
 62
    92
370
     5
100
AcDbLine
 10
-1564.294763513514
 20
1132.624313766892
 30
0.0
 11
-1564.294763513514
 21
1118.624168602196
 31
0.0
  0
LINE
  5
3A4
330
1F
100
AcDbEntity
  8
1-2
  6
Continuous
 62
    92
370
     5
100
AcDbLine
 10
-1554.394696209882
 20
1132.624313766892
 30
0.0
 11
-1554.394696209882
 21
1118.624168602196
 31
0.0
  0
LINE
  5
3A5
330
1F
100
AcDbEntity
  8
1-2
  6
Continuous
 62
    92
370
     5
100
AcDbLine
 10
-1574.194830817145
 20
1106.624326963683
 30
0.0
 11
-1574.194830817145
 21
1092.624181798986
 31
0.0
  0
LINE
  5
3A6
330
1F
100
AcDbEntity
  8
1-2
  6
Continuous
 62
    92
370
     5
100
AcDbLine
 10
-1564.294763513514
 20
1106.624326963683
 30
0.0
 11
-1564.294763513514
 21
1092.624181798986
 31
0.0
  0
LINE
  5
3A7
330
1F
100
AcDbEntity
  8
1-2
  6
Continuous
 62
    92
370
     5
100
AcDbLine
 10
-1554.394696209882
 20
1106.624326963683
 30
0.0
 11
-1554.394696209882
 21
1092.624181798986
 31
0.0
  0
LINE
  5
3A8
330
1F
100
AcDbEntity
  8
1-2
  6
Continuous
 62
    92
370
     5
100
AcDbLine
 10
-1574.194830817145
 20
1080.624340160473
 30
0.0
 11
-1574.194830817145
 21
1066.624194995777
 31
0.0
  0
LINE
  5
3A9
330
1F
100
AcDbEntity
  8
1-2
  6
Continuous
 62
    92
370
     5
100
AcDbLine
 10
-1564.294763513514
 20
1080.624340160473
 30
0.0
 11
-1564.294763513514
 21
1066.624194995777
 31
0.0
  0
LINE
  5
3AA
330
1F
100
AcDbEntity
  8
1-2
  6
Continuous
 62
    92
370
     5
100
AcDbLine
 10
-1554.394696209882
 20
1080.624340160473
 30
0.0
 11
-1554.394696209882
 21
1066.624194995777
 31
0.0
  0
LINE
  5
3AB
330
1F
100
AcDbEntity
  8
1-2
  6
Continuous
 62
    92
370
     5
100
AcDbLine
 10
-1574.194830817145
 20
1054.624353357264
 30
0.0
 11
-1574.194830817145
 21
1040.624208192568
 31
0.0
  0
LINE
  5
3AC
330
1F
100
AcDbEntity
  8
1-2
  6
Continuous
 62
    92
370
     5
100
AcDbLine
 10
-1564.294763513514
 20
1054.624353357264
 30
0.0
 11
-1564.294763513514
 21
1040.624208192568
 31
0.0
  0
LINE
  5
3AD
330
1F
100
AcDbEntity
  8
1-2
  6
Continuous
 62
    92
370
     5
100
AcDbLine
 10
-1554.394696209882
 20
1054.624353357264
 30
0.0
 11
-1554.394696209882
 21
1040.624208192568
 31
0.0
  0
LINE
  5
3AE
330
1F
100
AcDbEntity
  8
1-2
  6
Continuous
 62
    92
370
     5
100
AcDbLine
 10
-1574.194830817145
 20
1028.624366554054
 30
0.0
 11
-1574.194830817145
 21
1014.624221389358
 31
0.0
  0
LINE
  5
3AF
330
1F
100
AcDbEntity
  8
1-2
  6
Continuous
 62
    92
370
     5
100
AcDbLine
 10
-1564.294763513514
 20
1028.624366554054
 30
0.0
 11
-1564.294763513514
 21
1014.624221389358
 31
0.0
  0
LINE
  5
3B0
330
1F
100
AcDbEntity
  8
1-2
  6
Continuous
 62
    92
370
     5
100
AcDbLine
 10
-1554.394696209882
 20
1028.624366554054
 30
0.0
 11
-1554.394696209882
 21
1014.624221389358
 31
0.0
  0
LINE
  5
3B1
330
1F
100
AcDbEntity
  8
1-2
  6
Continuous
 62
    92
370
     5
100
AcDbLine
 10
-1574.194830817145
 20
1002.624379750845
 30
0.0
 11
-1574.194830817145
 21
988.6242345861488
 31
0.0
  0
LINE
  5
3B2
330
1F
100
AcDbEntity
  8
1-2
  6
Continuous
 62
    92
370
     5
100
AcDbLine
 10
-1564.294763513514
 20
1002.624379750845
 30
0.0
 11
-1564.294763513514
 21
988.6242345861488
 31
0.0
  0
LINE
  5
3B3
330
1F
100
AcDbEntity
  8
1-2
  6
Continuous
 62
    92
370
     5
100
AcDbLine
 10
-1554.394696209882
 20
1002.624379750845
 30
0.0
 11
-1554.394696209882
 21
988.6242345861488
 31
0.0
  0
LINE
  5
3B4
330
1F
100
AcDbEntity
  8
1-2
  6
Continuous
 62
    92
370
     5
100
AcDbLine
 10
-1574.194830817145
 20
976.6243929476352
 30
0.0
 11
-1574.194830817145
 21
962.6242477829394
 31
0.0
  0
LINE
  5
3B5
330
1F
100
AcDbEntity
  8
1-2
  6
Continuous
 62
    92
370
     5
100
AcDbLine
 10
-1564.294763513514
 20
976.6243929476352
 30
0.0
 11
-1564.294763513514
 21
962.6242477829394
 31
0.0
  0
LINE
  5
3B6
330
1F
100
AcDbEntity
  8
1-2
  6
Continuous
 62
    92
370
     5
100
AcDbLine
 10
-1554.394696209882
 20
976.6243929476352
 30
0.0
 11
-1554.394696209882
 21
962.6242477829394
 31
0.0
  0
LINE
  5
3B7
330
1F
100
AcDbEntity
  8
1-2
  6
Continuous
 62
    92
370
     5
100
AcDbLine
 10
-1574.194830817145
 20
950.6244061444258
 30
0.0
 11
-1574.194830817145
 21
936.62426097973
 31
0.0
  0
LINE
  5
3B8
330
1F
100
AcDbEntity
  8
1-2
  6
Continuous
 62
    92
370
     5
100
AcDbLine
 10
-1564.294763513514
 20
950.6244061444258
 30
0.0
 11
-1564.294763513514
 21
936.62426097973
 31
0.0
  0
LINE
  5
3B9
330
1F
100
AcDbEntity
  8
1-2
  6
Continuous
 62
    92
370
     5
100
AcDbLine
 10
-1554.394696209882
 20
950.6244061444258
 30
0.0
 11
-1554.394696209882
 21
936.62426097973
 31
0.0
  0
LINE
  5
3BA
330
1F
100
AcDbEntity
  8
1-2
  6
Continuous
 62
    92
370
     5
100
AcDbLine
 10
-1574.194830817145
 20
924.6244193412165
 30
0.0
 11
-1574.194830817145
 21
910.6242741765203
 31
0.0
  0
LINE
  5
3BB
330
1F
100
AcDbEntity
  8
1-2
  6
Continuous
 62
    92
370
     5
100
AcDbLine
 10
-1564.294763513514
 20
924.6244193412165
 30
0.0
 11
-1564.294763513514
 21
910.6242741765203
 31
0.0
  0
LINE
  5
3BC
330
1F
100
AcDbEntity
  8
1-2
  6
Continuous
 62
    92
370
     5
100
AcDbLine
 10
-1554.394696209882
 20
924.6244193412165
 30
0.0
 11
-1554.394696209882
 21
910.6242741765203
 31
0.0
  0
LINE
  5
3BD
330
1F
100
AcDbEntity
  8
1-2
  6
Continuous
 62
    92
370
     5
100
AcDbLine
 10
-1574.194830817145
 20
898.6244325380068
 30
0.0
 11
-1574.194830817145
 21
884.624287373311
 31
0.0
  0
LINE
  5
3BE
330
1F
100
AcDbEntity
  8
1-2
  6
Continuous
 62
    92
370
     5
100
AcDbLine
 10
-1564.294763513514
 20
898.6244325380068
 30
0.0
 11
-1564.294763513514
 21
884.624287373311
 31
0.0
  0
LINE
  5
3BF
330
1F
100
AcDbEntity
  8
1-2
  6
Continuous
 62
    92
370
     5
100
AcDbLine
 10
-1554.394696209882
 20
898.6244325380068
 30
0.0
 11
-1554.394696209882
 21
884.624287373311
 31
0.0
  0
LINE
  5
3C0
330
1F
100
AcDbEntity
  8
1-2
  6
Continuous
 62
    92
370
     5
100
AcDbLine
 10
-1574.194830817145
 20
872.6244457347974
 30
0.0
 11
-1574.194830817145
 21
858.6243005701016
 31
0.0
  0
LINE
  5
3C1
330
1F
100
AcDbEntity
  8
1-2
  6
Continuous
 62
    92
370
     5
100
AcDbLine
 10
-1564.294763513514
 20
872.6244457347974
 30
0.0
 11
-1564.294763513514
 21
858.6243005701016
 31
0.0
  0
LINE
  5
3C2
330
1F
100
AcDbEntity
  8
1-2
  6
Continuous
 62
    92
370
     5
100
AcDbLine
 10
-1554.394696209882
 20
872.6244457347974
 30
0.0
 11
-1554.394696209882
 21
858.6243005701016
 31
0.0
  0
LINE
  5
3C3
330
1F
100
AcDbEntity
  8
1-2
  6
Continuous
 62
    92
370
     5
100
AcDbLine
 10
-1574.194830817145
 20
846.624458931588
 30
0.0
 11
-1574.194830817145
 21
832.6243137668919
 31
0.0
  0
LINE
  5
3C4
330
1F
100
AcDbEntity
  8
1-2
  6
Continuous
 62
    92
370
     5
100
AcDbLine
 10
-1564.294763513514
 20
846.624458931588
 30
0.0
 11
-1564.294763513514
 21
832.6243137668919
 31
0.0
  0
LINE
  5
3C5
330
1F
100
AcDbEntity
  8
1-2
  6
Continuous
 62
    92
370
     5
100
AcDbLine
 10
-1554.394696209882
 20
846.624458931588
 30
0.0
 11
-1554.394696209882
 21
832.6243137668919
 31
0.0
  0
LINE
  5
3C6
330
1F
100
AcDbEntity
  8
1-2
  6
Continuous
 62
    92
370
     5
100
AcDbLine
 10
-1574.194830817145
 20
820.6244721283783
 30
0.0
 11
-1574.194830817145
 21
806.6243269636825
 31
0.0
  0
LINE
  5
3C7
330
1F
100
AcDbEntity
  8
1-2
  6
Continuous
 62
    92
370
     5
100
AcDbLine
 10
-1564.294763513514
 20
820.6244721283783
 30
0.0
 11
-1564.294763513514
 21
806.6243269636825
 31
0.0
  0
LINE
  5
3C8
330
1F
100
AcDbEntity
  8
1-2
  6
Continuous
 62
    92
370
     5
100
AcDbLine
 10
-1554.394696209882
 20
820.6244721283783
 30
0.0
 11
-1554.394696209882
 21
806.6243269636825
 31
0.0
  0
LINE
  5
3C9
330
1F
100
AcDbEntity
  8
1-2
  6
Continuous
 62
    92
370
     5
100
AcDbLine
 10
-1574.194830817145
 20
794.624485325169
 30
0.0
 11
-1574.194830817145
 21
780.6243401604731
 31
0.0
  0
LINE
  5
3CA
330
1F
100
AcDbEntity
  8
1-2
  6
Continuous
 62
    92
370
     5
100
AcDbLine
 10
-1564.294763513514
 20
794.624485325169
 30
0.0
 11
-1564.294763513514
 21
780.6243401604731
 31
0.0
  0
LINE
  5
3CB
330
1F
100
AcDbEntity
  8
1-2
  6
Continuous
 62
    92
370
     5
100
AcDbLine
 10
-1554.394696209882
 20
794.624485325169
 30
0.0
 11
-1554.394696209882
 21
780.6243401604731
 31
0.0
  0
LINE
  5
3CC
330
1F
100
AcDbEntity
  8
1-2
  6
Continuous
 62
    92
370
     5
100
AcDbLine
 10
-1574.194830817145
 20
768.6244985219596
 30
0.0
 11
-1574.194830817145
 21
754.6243533572635
 31
0.0
  0
LINE
  5
3CD
330
1F
100
AcDbEntity
  8
1-2
  6
Continuous
 62
    92
370
     5
100
AcDbLine
 10
-1564.294763513514
 20
768.6244985219596
 30
0.0
 11
-1564.294763513514
 21
754.6243533572635
 31
0.0
  0
LINE
  5
3CE
330
1F
100
AcDbEntity
  8
1-2
  6
Continuous
 62
    92
370
     5
100
AcDbLine
 10
-1554.394696209882
 20
768.6244985219596
 30
0.0
 11
-1554.394696209882
 21
754.6243533572635
 31
0.0
  0
LINE
  5
3CF
330
1F
100
AcDbEntity
  8
1-2
  6
Continuous
 62
    92
370
     5
100
AcDbLine
 10
-1574.194830817145
 20
36.62426097972968
 30
0.0
 11
-1574.194830817145
 21
22.62411581503386
 31
0.0
  0
LINE
  5
3D0
330
1F
100
AcDbEntity
  8
1-2
  6
Continuous
 62
    92
370
     5
100
AcDbLine
 10
-1574.194830817145
 20
62.62424778293934
 30
0.0
 11
-1574.194830817145
 21
48.62410261824323
 31
0.0
  0
LINE
  5
3D1
330
1F
100
AcDbEntity
  8
1-2
  6
Continuous
 62
    92
370
     5
100
AcDbLine
 10
-1574.194830817145
 20
88.6242345861487
 30
0.0
 11
-1574.194830817145
 21
74.62421314136407
 31
0.0
  0
LINE
  5
3D2
330
1F
100
AcDbEntity
  8
1-2
  6
Continuous
 62
    92
370
     5
100
AcDbLine
 10
-1574.194830817145
 20
114.6242213893581
 30
0.0
 11
-1574.194830817145
 21
100.6241999445734
 31
0.0
  0
LINE
  5
3D3
330
1F
100
AcDbEntity
  8
1-2
  6
Continuous
 62
    92
370
     5
100
AcDbLine
 10
-1574.194830817145
 20
140.6242081925677
 30
0.0
 11
-1574.194830817145
 21
126.6241867477831
 31
0.0
  0
LINE
  5
3D4
330
1F
100
AcDbEntity
  8
1-2
  6
Continuous
 62
    92
370
     5
100
AcDbLine
 10
-1574.194830817145
 20
166.6241949957771
 30
0.0
 11
-1574.194830817145
 21
152.6241735509925
 31
0.0
  0
LINE
  5
3D5
330
1F
100
AcDbEntity
  8
1-2
  6
Continuous
 62
    92
370
     5
100
AcDbLine
 10
-1574.194830817145
 20
192.6243055188979
 30
0.0
 11
-1574.194830817145
 21
178.6241603542018
 31
0.0
  0
LINE
  5
3D6
330
1F
100
AcDbEntity
  8
1-2
  6
Continuous
 62
    92
370
     5
100
AcDbLine
 10
-1574.194830817145
 20
218.6242923221073
 30
0.0
 11
-1574.194830817145
 21
204.6242708773227
 31
0.0
  0
LINE
  5
3D7
330
1F
100
AcDbEntity
  8
1-2
  6
Continuous
 62
    92
370
     5
100
AcDbLine
 10
-1574.194830817145
 20
244.6242791253169
 30
0.0
 11
-1574.194830817145
 21
230.6242576805323
 31
0.0
  0
LINE
  5
3D8
330
1F
100
AcDbEntity
  8
1-2
  6
Continuous
 62
    92
370
     5
100
AcDbLine
 10
-1574.194830817145
 20
270.6242659285263
 30
0.0
 11
-1574.194830817145
 21
256.6242444837417
 31
0.0
  0
LINE
  5
3D9
330
1F
100
AcDbEntity
  8
1-2
  6
Continuous
 62
    92
370
     5
100
AcDbLine
 10
-1574.194830817145
 20
322.6242395349453
 30
0.0
 11
-1574.194830817145
 21
308.6242180901607
 31
0.0
  0
LINE
  5
3DA
330
1F
100
AcDbEntity
  8
1-2
  6
Continuous
 62
    92
370
     5
100
AcDbLine
 10
-1574.194830817145
 20
296.6242527317357
 30
0.0
 11
-1574.194830817145
 21
282.624231286951
 31
0.0
  0
LINE
  5
3DB
330
1F
100
AcDbEntity
  8
1-2
  6
Continuous
 62
    92
370
     5
100
AcDbLine
 10
-1564.294763513514
 20
36.62426097972968
 30
0.0
 11
-1564.294763513514
 21
22.62411581503386
 31
0.0
  0
LINE
  5
3DC
330
1F
100
AcDbEntity
  8
1-2
  6
Continuous
 62
    92
370
     5
100
AcDbLine
 10
-1564.294763513514
 20
62.62424778293934
 30
0.0
 11
-1564.294763513514
 21
48.62410261824323
 31
0.0
  0
LINE
  5
3DD
330
1F
100
AcDbEntity
  8
1-2
  6
Continuous
 62
    92
370
     5
100
AcDbLine
 10
-1564.294763513514
 20
88.6242345861487
 30
0.0
 11
-1564.294763513514
 21
74.62421314136407
 31
0.0
  0
LINE
  5
3DE
330
1F
100
AcDbEntity
  8
1-2
  6
Continuous
 62
    92
370
     5
100
AcDbLine
 10
-1564.294763513514
 20
114.6242213893581
 30
0.0
 11
-1564.294763513514
 21
100.6241999445734
 31
0.0
  0
LINE
  5
3DF
330
1F
100
AcDbEntity
  8
1-2
  6
Continuous
 62
    92
370
     5
100
AcDbLine
 10
-1564.294763513514
 20
140.6242081925677
 30
0.0
 11
-1564.294763513514
 21
126.6241867477831
 31
0.0
  0
LINE
  5
3E0
330
1F
100
AcDbEntity
  8
1-2
  6
Continuous
 62
    92
370
     5
100
AcDbLine
 10
-1564.294763513514
 20
166.6241949957771
 30
0.0
 11
-1564.294763513514
 21
152.6241735509925
 31
0.0
  0
LINE
  5
3E1
330
1F
100
AcDbEntity
  8
1-2
  6
Continuous
 62
    92
370
     5
100
AcDbLine
 10
-1564.294763513514
 20
192.6243055188979
 30
0.0
 11
-1564.294763513514
 21
178.6241603542018
 31
0.0
  0
LINE
  5
3E2
330
1F
100
AcDbEntity
  8
1-2
  6
Continuous
 62
    92
370
     5
100
AcDbLine
 10
-1564.294763513514
 20
218.6242923221073
 30
0.0
 11
-1564.294763513514
 21
204.6242708773227
 31
0.0
  0
LINE
  5
3E3
330
1F
100
AcDbEntity
  8
1-2
  6
Continuous
 62
    92
370
     5
100
AcDbLine
 10
-1564.294763513514
 20
244.6242791253169
 30
0.0
 11
-1564.294763513514
 21
230.6242576805323
 31
0.0
  0
LINE
  5
3E4
330
1F
100
AcDbEntity
  8
1-2
  6
Continuous
 62
    92
370
     5
100
AcDbLine
 10
-1564.294763513514
 20
270.6242659285263
 30
0.0
 11
-1564.294763513514
 21
256.6242444837417
 31
0.0
  0
LINE
  5
3E5
330
1F
100
AcDbEntity
  8
1-2
  6
Continuous
 62
    92
370
     5
100
AcDbLine
 10
-1564.294763513514
 20
322.6242395349453
 30
0.0
 11
-1564.294763513514
 21
308.6242180901607
 31
0.0
  0
LINE
  5
3E6
330
1F
100
AcDbEntity
  8
1-2
  6
Continuous
 62
    92
370
     5
100
AcDbLine
 10
-1564.294763513514
 20
296.6242527317357
 30
0.0
 11
-1564.294763513514
 21
282.624231286951
 31
0.0
  0
LINE
  5
3E7
330
1F
100
AcDbEntity
  8
1-2
  6
Continuous
 62
    92
370
     5
100
AcDbLine
 10
-1554.394696209882
 20
322.6242395349453
 30
0.0
 11
-1554.394696209882
 21
308.6242180901607
 31
0.0
  0
LINE
  5
3E8
330
1F
100
AcDbEntity
  8
1-2
  6
Continuous
 62
    92
370
     5
100
AcDbLine
 10
-1554.394696209882
 20
296.6242527317357
 30
0.0
 11
-1554.394696209882
 21
282.624231286951
 31
0.0
  0
LINE
  5
3E9
330
1F
100
AcDbEntity
  8
1-2
  6
Continuous
 62
    92
370
     5
100
AcDbLine
 10
-1554.394696209882
 20
270.6242659285263
 30
0.0
 11
-1554.394696209882
 21
256.6242444837417
 31
0.0
  0
LINE
  5
3EA
330
1F
100
AcDbEntity
  8
1-2
  6
Continuous
 62
    92
370
     5
100
AcDbLine
 10
-1554.394696209882
 20
244.6242791253169
 30
0.0
 11
-1554.394696209882
 21
230.6242576805323
 31
0.0
  0
LINE
  5
3EB
330
1F
100
AcDbEntity
  8
1-2
  6
Continuous
 62
    92
370
     5
100
AcDbLine
 10
-1554.394696209882
 20
218.6242923221073
 30
0.0
 11
-1554.394696209882
 21
204.6242708773227
 31
0.0
  0
LINE
  5
3EC
330
1F
100
AcDbEntity
  8
1-2
  6
Continuous
 62
    92
370
     5
100
AcDbLine
 10
-1554.394696209882
 20
192.6243055188979
 30
0.0
 11
-1554.394696209882
 21
178.6241603542018
 31
0.0
  0
LINE
  5
3ED
330
1F
100
AcDbEntity
  8
1-2
  6
Continuous
 62
    92
370
     5
100
AcDbLine
 10
-1554.394696209882
 20
166.6241949957771
 30
0.0
 11
-1554.394696209882
 21
152.6241735509925
 31
0.0
  0
LINE
  5
3EE
330
1F
100
AcDbEntity
  8
1-2
  6
Continuous
 62
    92
370
     5
100
AcDbLine
 10
-1554.394696209882
 20
140.6242081925677
 30
0.0
 11
-1554.394696209882
 21
126.6241867477831
 31
0.0
  0
LINE
  5
3EF
330
1F
100
AcDbEntity
  8
1-2
  6
Continuous
 62
    92
370
     5
100
AcDbLine
 10
-1554.394696209882
 20
114.6242213893581
 30
0.0
 11
-1554.394696209882
 21
100.6241999445734
 31
0.0
  0
LINE
  5
3F0
330
1F
100
AcDbEntity
  8
1-2
  6
Continuous
 62
    92
370
     5
100
AcDbLine
 10
-1554.394696209882
 20
88.6242345861487
 30
0.0
 11
-1554.394696209882
 21
74.62421314136407
 31
0.0
  0
LINE
  5
3F1
330
1F
100
AcDbEntity
  8
1-2
  6
Continuous
 62
    92
370
     5
100
AcDbLine
 10
-1554.394696209882
 20
62.62424778293934
 30
0.0
 11
-1554.394696209882
 21
48.62410261824323
 31
0.0
  0
LINE
  5
3F2
330
1F
100
AcDbEntity
  8
1-2
  6
Continuous
 62
    92
370
     5
100
AcDbLine
 10
-1554.394696209882
 20
36.62426097972968
 30
0.0
 11
-1554.394696209882
 21
22.62411581503386
 31
0.0
  0
LINE
  5
3F3
330
1F
100
AcDbEntity
  8
1-2
  6
Continuous
 62
    92
370
     5
100
AcDbLine
 10
-1278.194942989865
 20
1158.624300570102
 30
0.0
 11
-1278.194942989865
 21
1144.624155405406
 31
0.0
  0
LINE
  5
3F4
330
1F
100
AcDbEntity
  8
1-2
  6
Continuous
 62
    92
370
     5
100
AcDbLine
 10
-1268.295123126056
 20
1158.624300570102
 30
0.0
 11
-1268.295123126056
 21
1144.624155405406
 31
0.0
  0
LINE
  5
3F5
330
1F
100
AcDbEntity
  8
1-2
  6
Continuous
 62
    92
370
     5
100
AcDbLine
 10
-1258.395055822424
 20
1158.624300570102
 30
0.0
 11
-1258.395055822424
 21
1144.624155405406
 31
0.0
  0
LINE
  5
3F6
330
1F
100
AcDbEntity
  8
1-2
  6
Continuous
 62
    92
370
     5
100
AcDbLine
 10
-1278.194942989865
 20
1132.624313766892
 30
0.0
 11
-1278.194942989865
 21
1118.624168602196
 31
0.0
  0
LINE
  5
3F7
330
1F
100
AcDbEntity
  8
1-2
  6
Continuous
 62
    92
370
     5
100
AcDbLine
 10
-1268.295123126056
 20
1132.624313766892
 30
0.0
 11
-1268.295123126056
 21
1118.624168602196
 31
0.0
  0
LINE
  5
3F8
330
1F
100
AcDbEntity
  8
1-2
  6
Continuous
 62
    92
370
     5
100
AcDbLine
 10
-1258.395055822424
 20
1132.624313766892
 30
0.0
 11
-1258.395055822424
 21
1118.624168602196
 31
0.0
  0
LINE
  5
3F9
330
1F
100
AcDbEntity
  8
1-2
  6
Continuous
 62
    92
370
     5
100
AcDbLine
 10
-1278.194942989865
 20
1106.624326963683
 30
0.0
 11
-1278.194942989865
 21
1092.624181798986
 31
0.0
  0
LINE
  5
3FA
330
1F
100
AcDbEntity
  8
1-2
  6
Continuous
 62
    92
370
     5
100
AcDbLine
 10
-1268.295123126056
 20
1106.624326963683
 30
0.0
 11
-1268.295123126056
 21
1092.624181798986
 31
0.0
  0
LINE
  5
3FB
330
1F
100
AcDbEntity
  8
1-2
  6
Continuous
 62
    92
370
     5
100
AcDbLine
 10
-1258.395055822424
 20
1106.624326963683
 30
0.0
 11
-1258.395055822424
 21
1092.624181798986
 31
0.0
  0
LINE
  5
3FC
330
1F
100
AcDbEntity
  8
1-2
  6
Continuous
 62
    92
370
     5
100
AcDbLine
 10
-1278.194942989865
 20
1080.624340160473
 30
0.0
 11
-1278.194942989865
 21
1066.624194995777
 31
0.0
  0
LINE
  5
3FD
330
1F
100
AcDbEntity
  8
1-2
  6
Continuous
 62
    92
370
     5
100
AcDbLine
 10
-1268.295123126056
 20
1080.624340160473
 30
0.0
 11
-1268.295123126056
 21
1066.624194995777
 31
0.0
  0
LINE
  5
3FE
330
1F
100
AcDbEntity
  8
1-2
  6
Continuous
 62
    92
370
     5
100
AcDbLine
 10
-1258.395055822424
 20
1080.624340160473
 30
0.0
 11
-1258.395055822424
 21
1066.624194995777
 31
0.0
  0
LINE
  5
3FF
330
1F
100
AcDbEntity
  8
1-2
  6
Continuous
 62
    92
370
     5
100
AcDbLine
 10
-1278.194942989865
 20
1054.624353357264
 30
0.0
 11
-1278.194942989865
 21
1040.624208192568
 31
0.0
  0
LINE
  5
400
330
1F
100
AcDbEntity
  8
1-2
  6
Continuous
 62
    92
370
     5
100
AcDbLine
 10
-1268.295123126056
 20
1054.624353357264
 30
0.0
 11
-1268.295123126056
 21
1040.624208192568
 31
0.0
  0
LINE
  5
401
330
1F
100
AcDbEntity
  8
1-2
  6
Continuous
 62
    92
370
     5
100
AcDbLine
 10
-1258.395055822424
 20
1054.624353357264
 30
0.0
 11
-1258.395055822424
 21
1040.624208192568
 31
0.0
  0
LINE
  5
402
330
1F
100
AcDbEntity
  8
1-2
  6
Continuous
 62
    92
370
     5
100
AcDbLine
 10
-1278.194942989865
 20
1028.624366554054
 30
0.0
 11
-1278.194942989865
 21
1014.624221389358
 31
0.0
  0
LINE
  5
403
330
1F
100
AcDbEntity
  8
1-2
  6
Continuous
 62
    92
370
     5
100
AcDbLine
 10
-1268.295123126056
 20
1028.624366554054
 30
0.0
 11
-1268.295123126056
 21
1014.624221389358
 31
0.0
  0
LINE
  5
404
330
1F
100
AcDbEntity
  8
1-2
  6
Continuous
 62
    92
370
     5
100
AcDbLine
 10
-1258.395055822424
 20
1028.624366554054
 30
0.0
 11
-1258.395055822424
 21
1014.624221389358
 31
0.0
  0
LINE
  5
405
330
1F
100
AcDbEntity
  8
1-2
  6
Continuous
 62
    92
370
     5
100
AcDbLine
 10
-1278.194942989865
 20
1002.624379750845
 30
0.0
 11
-1278.194942989865
 21
988.6242345861488
 31
0.0
  0
LINE
  5
406
330
1F
100
AcDbEntity
  8
1-2
  6
Continuous
 62
    92
370
     5
100
AcDbLine
 10
-1268.295123126056
 20
1002.624379750845
 30
0.0
 11
-1268.295123126056
 21
988.6242345861488
 31
0.0
  0
LINE
  5
407
330
1F
100
AcDbEntity
  8
1-2
  6
Continuous
 62
    92
370
     5
100
AcDbLine
 10
-1258.395055822424
 20
1002.624379750845
 30
0.0
 11
-1258.395055822424
 21
988.6242345861488
 31
0.0
  0
LINE
  5
408
330
1F
100
AcDbEntity
  8
1-2
  6
Continuous
 62
    92
370
     5
100
AcDbLine
 10
-1278.194942989865
 20
976.6243929476352
 30
0.0
 11
-1278.194942989865
 21
962.6242477829394
 31
0.0
  0
LINE
  5
409
330
1F
100
AcDbEntity
  8
1-2
  6
Continuous
 62
    92
370
     5
100
AcDbLine
 10
-1268.295123126056
 20
976.6243929476352
 30
0.0
 11
-1268.295123126056
 21
962.6242477829394
 31
0.0
  0
LINE
  5
40A
330
1F
100
AcDbEntity
  8
1-2
  6
Continuous
 62
    92
370
     5
100
AcDbLine
 10
-1258.395055822424
 20
976.6243929476352
 30
0.0
 11
-1258.395055822424
 21
962.6242477829394
 31
0.0
  0
LINE
  5
40B
330
1F
100
AcDbEntity
  8
1-2
  6
Continuous
 62
    92
370
     5
100
AcDbLine
 10
-1278.194942989865
 20
950.6244061444258
 30
0.0
 11
-1278.194942989865
 21
936.62426097973
 31
0.0
  0
LINE
  5
40C
330
1F
100
AcDbEntity
  8
1-2
  6
Continuous
 62
    92
370
     5
100
AcDbLine
 10
-1268.295123126056
 20
950.6244061444258
 30
0.0
 11
-1268.295123126056
 21
936.62426097973
 31
0.0
  0
LINE
  5
40D
330
1F
100
AcDbEntity
  8
1-2
  6
Continuous
 62
    92
370
     5
100
AcDbLine
 10
-1258.395055822424
 20
950.6244061444258
 30
0.0
 11
-1258.395055822424
 21
936.62426097973
 31
0.0
  0
LINE
  5
40E
330
1F
100
AcDbEntity
  8
1-2
  6
Continuous
 62
    92
370
     5
100
AcDbLine
 10
-1278.194942989865
 20
924.6244193412165
 30
0.0
 11
-1278.194942989865
 21
910.6242741765203
 31
0.0
  0
LINE
  5
40F
330
1F
100
AcDbEntity
  8
1-2
  6
Continuous
 62
    92
370
     5
100
AcDbLine
 10
-1268.295123126056
 20
924.6244193412165
 30
0.0
 11
-1268.295123126056
 21
910.6242741765203
 31
0.0
  0
LINE
  5
410
330
1F
100
AcDbEntity
  8
1-2
  6
Continuous
 62
    92
370
     5
100
AcDbLine
 10
-1258.395055822424
 20
924.6244193412165
 30
0.0
 11
-1258.395055822424
 21
910.6242741765203
 31
0.0
  0
LINE
  5
411
330
1F
100
AcDbEntity
  8
1-2
  6
Continuous
 62
    92
370
     5
100
AcDbLine
 10
-1278.194942989865
 20
898.6244325380068
 30
0.0
 11
-1278.194942989865
 21
884.624287373311
 31
0.0
  0
LINE
  5
412
330
1F
100
AcDbEntity
  8
1-2
  6
Continuous
 62
    92
370
     5
100
AcDbLine
 10
-1268.295123126056
 20
898.6244325380068
 30
0.0
 11
-1268.295123126056
 21
884.624287373311
 31
0.0
  0
LINE
  5
413
330
1F
100
AcDbEntity
  8
1-2
  6
Continuous
 62
    92
370
     5
100
AcDbLine
 10
-1258.395055822424
 20
898.6244325380068
 30
0.0
 11
-1258.395055822424
 21
884.624287373311
 31
0.0
  0
LINE
  5
414
330
1F
100
AcDbEntity
  8
1-2
  6
Continuous
 62
    92
370
     5
100
AcDbLine
 10
-1278.194942989865
 20
872.6244457347974
 30
0.0
 11
-1278.194942989865
 21
858.6243005701016
 31
0.0
  0
LINE
  5
415
330
1F
100
AcDbEntity
  8
1-2
  6
Continuous
 62
    92
370
     5
100
AcDbLine
 10
-1268.295123126056
 20
872.6244457347974
 30
0.0
 11
-1268.295123126056
 21
858.6243005701016
 31
0.0
  0
LINE
  5
416
330
1F
100
AcDbEntity
  8
1-2
  6
Continuous
 62
    92
370
     5
100
AcDbLine
 10
-1258.395055822424
 20
872.6244457347974
 30
0.0
 11
-1258.395055822424
 21
858.6243005701016
 31
0.0
  0
LINE
  5
417
330
1F
100
AcDbEntity
  8
1-2
  6
Continuous
 62
    92
370
     5
100
AcDbLine
 10
-1278.194942989865
 20
846.624458931588
 30
0.0
 11
-1278.194942989865
 21
832.6243137668919
 31
0.0
  0
LINE
  5
418
330
1F
100
AcDbEntity
  8
1-2
  6
Continuous
 62
    92
370
     5
100
AcDbLine
 10
-1268.295123126056
 20
846.624458931588
 30
0.0
 11
-1268.295123126056
 21
832.6243137668919
 31
0.0
  0
LINE
  5
419
330
1F
100
AcDbEntity
  8
1-2
  6
Continuous
 62
    92
370
     5
100
AcDbLine
 10
-1258.395055822424
 20
846.624458931588
 30
0.0
 11
-1258.395055822424
 21
832.6243137668919
 31
0.0
  0
LINE
  5
41A
330
1F
100
AcDbEntity
  8
1-2
  6
Continuous
 62
    92
370
     5
100
AcDbLine
 10
-1278.194942989865
 20
820.6244721283783
 30
0.0
 11
-1278.194942989865
 21
806.6243269636825
 31
0.0
  0
LINE
  5
41B
330
1F
100
AcDbEntity
  8
1-2
  6
Continuous
 62
    92
370
     5
100
AcDbLine
 10
-1268.295123126056
 20
820.6244721283783
 30
0.0
 11
-1268.295123126056
 21
806.6243269636825
 31
0.0
  0
LINE
  5
41C
330
1F
100
AcDbEntity
  8
1-2
  6
Continuous
 62
    92
370
     5
100
AcDbLine
 10
-1258.395055822424
 20
820.6244721283783
 30
0.0
 11
-1258.395055822424
 21
806.6243269636825
 31
0.0
  0
LINE
  5
41D
330
1F
100
AcDbEntity
  8
1-2
  6
Continuous
 62
    92
370
     5
100
AcDbLine
 10
-1278.194942989865
 20
794.624485325169
 30
0.0
 11
-1278.194942989865
 21
780.6243401604731
 31
0.0
  0
LINE
  5
41E
330
1F
100
AcDbEntity
  8
1-2
  6
Continuous
 62
    92
370
     5
100
AcDbLine
 10
-1268.295123126056
 20
794.624485325169
 30
0.0
 11
-1268.295123126056
 21
780.6243401604731
 31
0.0
  0
LINE
  5
41F
330
1F
100
AcDbEntity
  8
1-2
  6
Continuous
 62
    92
370
     5
100
AcDbLine
 10
-1258.395055822424
 20
794.624485325169
 30
0.0
 11
-1258.395055822424
 21
780.6243401604731
 31
0.0
  0
LINE
  5
420
330
1F
100
AcDbEntity
  8
1-2
  6
Continuous
 62
    92
370
     5
100
AcDbLine
 10
-1278.194942989865
 20
768.6244985219596
 30
0.0
 11
-1278.194942989865
 21
754.6243533572635
 31
0.0
  0
LINE
  5
421
330
1F
100
AcDbEntity
  8
1-2
  6
Continuous
 62
    92
370
     5
100
AcDbLine
 10
-1268.295123126056
 20
768.6244985219596
 30
0.0
 11
-1268.295123126056
 21
754.6243533572635
 31
0.0
  0
LINE
  5
422
330
1F
100
AcDbEntity
  8
1-2
  6
Continuous
 62
    92
370
     5
100
AcDbLine
 10
-1258.395055822424
 20
768.6244985219596
 30
0.0
 11
-1258.395055822424
 21
754.6243533572635
 31
0.0
  0
LINE
  5
423
330
1F
100
AcDbEntity
  8
1-2
  6
Continuous
 62
    92
370
     5
100
AcDbLine
 10
-938.1950584617821
 20
1158.624300570102
 30
0.0
 11
-938.1950584617821
 21
1144.624155405406
 31
0.0
  0
LINE
  5
424
330
1F
100
AcDbEntity
  8
1-2
  6
Continuous
 62
    92
370
     5
100
AcDbLine
 10
-928.2949911581502
 20
1158.624300570102
 30
0.0
 11
-928.2949911581502
 21
1144.624155405406
 31
0.0
  0
LINE
  5
425
330
1F
100
AcDbEntity
  8
1-2
  6
Continuous
 62
    92
370
     5
100
AcDbLine
 10
-918.3949238545185
 20
1158.624300570102
 30
0.0
 11
-918.3949238545185
 21
1144.624155405406
 31
0.0
  0
LINE
  5
426
330
1F
100
AcDbEntity
  8
1-2
  6
Continuous
 62
    92
370
     5
100
AcDbLine
 10
-938.1950584617821
 20
1132.624313766892
 30
0.0
 11
-938.1950584617821
 21
1118.624168602196
 31
0.0
  0
LINE
  5
427
330
1F
100
AcDbEntity
  8
1-2
  6
Continuous
 62
    92
370
     5
100
AcDbLine
 10
-928.2949911581502
 20
1132.624313766892
 30
0.0
 11
-928.2949911581502
 21
1118.624168602196
 31
0.0
  0
LINE
  5
428
330
1F
100
AcDbEntity
  8
1-2
  6
Continuous
 62
    92
370
     5
100
AcDbLine
 10
-918.3949238545185
 20
1132.624313766892
 30
0.0
 11
-918.3949238545185
 21
1118.624168602196
 31
0.0
  0
LINE
  5
429
330
1F
100
AcDbEntity
  8
1-2
  6
Continuous
 62
    92
370
     5
100
AcDbLine
 10
-938.1950584617821
 20
1106.624326963683
 30
0.0
 11
-938.1950584617821
 21
1092.624181798986
 31
0.0
  0
LINE
  5
42A
330
1F
100
AcDbEntity
  8
1-2
  6
Continuous
 62
    92
370
     5
100
AcDbLine
 10
-928.2949911581502
 20
1106.624326963683
 30
0.0
 11
-928.2949911581502
 21
1092.624181798986
 31
0.0
  0
LINE
  5
42B
330
1F
100
AcDbEntity
  8
1-2
  6
Continuous
 62
    92
370
     5
100
AcDbLine
 10
-918.3949238545185
 20
1106.624326963683
 30
0.0
 11
-918.3949238545185
 21
1092.624181798986
 31
0.0
  0
LINE
  5
42C
330
1F
100
AcDbEntity
  8
1-2
  6
Continuous
 62
    92
370
     5
100
AcDbLine
 10
-938.1950584617821
 20
1080.624340160473
 30
0.0
 11
-938.1950584617821
 21
1066.624194995777
 31
0.0
  0
LINE
  5
42D
330
1F
100
AcDbEntity
  8
1-2
  6
Continuous
 62
    92
370
     5
100
AcDbLine
 10
-928.2949911581502
 20
1080.624340160473
 30
0.0
 11
-928.2949911581502
 21
1066.624194995777
 31
0.0
  0
LINE
  5
42E
330
1F
100
AcDbEntity
  8
1-2
  6
Continuous
 62
    92
370
     5
100
AcDbLine
 10
-918.3949238545185
 20
1080.624340160473
 30
0.0
 11
-918.3949238545185
 21
1066.624194995777
 31
0.0
  0
LINE
  5
42F
330
1F
100
AcDbEntity
  8
1-2
  6
Continuous
 62
    92
370
     5
100
AcDbLine
 10
-938.1950584617821
 20
1054.624353357264
 30
0.0
 11
-938.1950584617821
 21
1040.624208192568
 31
0.0
  0
LINE
  5
430
330
1F
100
AcDbEntity
  8
1-2
  6
Continuous
 62
    92
370
     5
100
AcDbLine
 10
-928.2949911581502
 20
1054.624353357264
 30
0.0
 11
-928.2949911581502
 21
1040.624208192568
 31
0.0
  0
LINE
  5
431
330
1F
100
AcDbEntity
  8
1-2
  6
Continuous
 62
    92
370
     5
100
AcDbLine
 10
-918.3949238545185
 20
1054.624353357264
 30
0.0
 11
-918.3949238545185
 21
1040.624208192568
 31
0.0
  0
LINE
  5
432
330
1F
100
AcDbEntity
  8
1-2
  6
Continuous
 62
    92
370
     5
100
AcDbLine
 10
-938.1950584617821
 20
1028.624366554054
 30
0.0
 11
-938.1950584617821
 21
1014.624221389358
 31
0.0
  0
LINE
  5
433
330
1F
100
AcDbEntity
  8
1-2
  6
Continuous
 62
    92
370
     5
100
AcDbLine
 10
-928.2949911581502
 20
1028.624366554054
 30
0.0
 11
-928.2949911581502
 21
1014.624221389358
 31
0.0
  0
LINE
  5
434
330
1F
100
AcDbEntity
  8
1-2
  6
Continuous
 62
    92
370
     5
100
AcDbLine
 10
-918.3949238545185
 20
1028.624366554054
 30
0.0
 11
-918.3949238545185
 21
1014.624221389358
 31
0.0
  0
LINE
  5
435
330
1F
100
AcDbEntity
  8
1-2
  6
Continuous
 62
    92
370
     5
100
AcDbLine
 10
-938.1950584617821
 20
1002.624379750845
 30
0.0
 11
-938.1950584617821
 21
988.6242345861488
 31
0.0
  0
LINE
  5
436
330
1F
100
AcDbEntity
  8
1-2
  6
Continuous
 62
    92
370
     5
100
AcDbLine
 10
-928.2949911581502
 20
1002.624379750845
 30
0.0
 11
-928.2949911581502
 21
988.6242345861488
 31
0.0
  0
LINE
  5
437
330
1F
100
AcDbEntity
  8
1-2
  6
Continuous
 62
    92
370
     5
100
AcDbLine
 10
-918.3949238545185
 20
1002.624379750845
 30
0.0
 11
-918.3949238545185
 21
988.6242345861488
 31
0.0
  0
LINE
  5
438
330
1F
100
AcDbEntity
  8
1-2
  6
Continuous
 62
    92
370
     5
100
AcDbLine
 10
-938.1950584617821
 20
976.6243929476352
 30
0.0
 11
-938.1950584617821
 21
962.6242477829394
 31
0.0
  0
LINE
  5
439
330
1F
100
AcDbEntity
  8
1-2
  6
Continuous
 62
    92
370
     5
100
AcDbLine
 10
-928.2949911581502
 20
976.6243929476352
 30
0.0
 11
-928.2949911581502
 21
962.6242477829394
 31
0.0
  0
LINE
  5
43A
330
1F
100
AcDbEntity
  8
1-2
  6
Continuous
 62
    92
370
     5
100
AcDbLine
 10
-918.3949238545185
 20
976.6243929476352
 30
0.0
 11
-918.3949238545185
 21
962.6242477829394
 31
0.0
  0
LINE
  5
43B
330
1F
100
AcDbEntity
  8
1-2
  6
Continuous
 62
    92
370
     5
100
AcDbLine
 10
-938.1950584617821
 20
950.6244061444258
 30
0.0
 11
-938.1950584617821
 21
936.62426097973
 31
0.0
  0
LINE
  5
43C
330
1F
100
AcDbEntity
  8
1-2
  6
Continuous
 62
    92
370
     5
100
AcDbLine
 10
-928.2949911581502
 20
950.6244061444258
 30
0.0
 11
-928.2949911581502
 21
936.62426097973
 31
0.0
  0
LINE
  5
43D
330
1F
100
AcDbEntity
  8
1-2
  6
Continuous
 62
    92
370
     5
100
AcDbLine
 10
-918.3949238545185
 20
950.6244061444258
 30
0.0
 11
-918.3949238545185
 21
936.62426097973
 31
0.0
  0
LINE
  5
43E
330
1F
100
AcDbEntity
  8
1-2
  6
Continuous
 62
    92
370
     5
100
AcDbLine
 10
-938.1950584617821
 20
924.6244193412165
 30
0.0
 11
-938.1950584617821
 21
910.6242741765203
 31
0.0
  0
LINE
  5
43F
330
1F
100
AcDbEntity
  8
1-2
  6
Continuous
 62
    92
370
     5
100
AcDbLine
 10
-928.2949911581502
 20
924.6244193412165
 30
0.0
 11
-928.2949911581502
 21
910.6242741765203
 31
0.0
  0
LINE
  5
440
330
1F
100
AcDbEntity
  8
1-2
  6
Continuous
 62
    92
370
     5
100
AcDbLine
 10
-918.3949238545185
 20
924.6244193412165
 30
0.0
 11
-918.3949238545185
 21
910.6242741765203
 31
0.0
  0
LINE
  5
441
330
1F
100
AcDbEntity
  8
1-2
  6
Continuous
 62
    92
370
     5
100
AcDbLine
 10
-938.1950584617821
 20
898.6244325380068
 30
0.0
 11
-938.1950584617821
 21
884.624287373311
 31
0.0
  0
LINE
  5
442
330
1F
100
AcDbEntity
  8
1-2
  6
Continuous
 62
    92
370
     5
100
AcDbLine
 10
-928.2949911581502
 20
898.6244325380068
 30
0.0
 11
-928.2949911581502
 21
884.624287373311
 31
0.0
  0
LINE
  5
443
330
1F
100
AcDbEntity
  8
1-2
  6
Continuous
 62
    92
370
     5
100
AcDbLine
 10
-918.3949238545185
 20
898.6244325380068
 30
0.0
 11
-918.3949238545185
 21
884.624287373311
 31
0.0
  0
LINE
  5
444
330
1F
100
AcDbEntity
  8
1-2
  6
Continuous
 62
    92
370
     5
100
AcDbLine
 10
-938.1950584617821
 20
872.6244457347974
 30
0.0
 11
-938.1950584617821
 21
858.6243005701016
 31
0.0
  0
LINE
  5
445
330
1F
100
AcDbEntity
  8
1-2
  6
Continuous
 62
    92
370
     5
100
AcDbLine
 10
-928.2949911581502
 20
872.6244457347974
 30
0.0
 11
-928.2949911581502
 21
858.6243005701016
 31
0.0
  0
LINE
  5
446
330
1F
100
AcDbEntity
  8
1-2
  6
Continuous
 62
    92
370
     5
100
AcDbLine
 10
-918.3949238545185
 20
872.6244457347974
 30
0.0
 11
-918.3949238545185
 21
858.6243005701016
 31
0.0
  0
LINE
  5
447
330
1F
100
AcDbEntity
  8
1-2
  6
Continuous
 62
    92
370
     5
100
AcDbLine
 10
-938.1950584617821
 20
846.624458931588
 30
0.0
 11
-938.1950584617821
 21
832.6243137668919
 31
0.0
  0
LINE
  5
448
330
1F
100
AcDbEntity
  8
1-2
  6
Continuous
 62
    92
370
     5
100
AcDbLine
 10
-928.2949911581502
 20
846.624458931588
 30
0.0
 11
-928.2949911581502
 21
832.6243137668919
 31
0.0
  0
LINE
  5
449
330
1F
100
AcDbEntity
  8
1-2
  6
Continuous
 62
    92
370
     5
100
AcDbLine
 10
-918.3949238545185
 20
846.624458931588
 30
0.0
 11
-918.3949238545185
 21
832.6243137668919
 31
0.0
  0
LINE
  5
44A
330
1F
100
AcDbEntity
  8
1-2
  6
Continuous
 62
    92
370
     5
100
AcDbLine
 10
-938.1950584617821
 20
820.6244721283783
 30
0.0
 11
-938.1950584617821
 21
806.6243269636825
 31
0.0
  0
LINE
  5
44B
330
1F
100
AcDbEntity
  8
1-2
  6
Continuous
 62
    92
370
     5
100
AcDbLine
 10
-928.2949911581502
 20
820.6244721283783
 30
0.0
 11
-928.2949911581502
 21
806.6243269636825
 31
0.0
  0
LINE
  5
44C
330
1F
100
AcDbEntity
  8
1-2
  6
Continuous
 62
    92
370
     5
100
AcDbLine
 10
-918.3949238545185
 20
820.6244721283783
 30
0.0
 11
-918.3949238545185
 21
806.6243269636825
 31
0.0
  0
LINE
  5
44D
330
1F
100
AcDbEntity
  8
1-2
  6
Continuous
 62
    92
370
     5
100
AcDbLine
 10
-938.1950584617821
 20
794.624485325169
 30
0.0
 11
-938.1950584617821
 21
780.6243401604731
 31
0.0
  0
LINE
  5
44E
330
1F
100
AcDbEntity
  8
1-2
  6
Continuous
 62
    92
370
     5
100
AcDbLine
 10
-928.2949911581502
 20
794.624485325169
 30
0.0
 11
-928.2949911581502
 21
780.6243401604731
 31
0.0
  0
LINE
  5
44F
330
1F
100
AcDbEntity
  8
1-2
  6
Continuous
 62
    92
370
     5
100
AcDbLine
 10
-918.3949238545185
 20
794.624485325169
 30
0.0
 11
-918.3949238545185
 21
780.6243401604731
 31
0.0
  0
LINE
  5
450
330
1F
100
AcDbEntity
  8
1-2
  6
Continuous
 62
    92
370
     5
100
AcDbLine
 10
-670.1949660842481
 20
1158.624300570102
 30
0.0
 11
-670.1949660842481
 21
1144.624155405406
 31
0.0
  0
LINE
  5
451
330
1F
100
AcDbEntity
  8
1-2
  6
Continuous
 62
    92
370
     5
100
AcDbLine
 10
-660.2948987806164
 20
1158.624300570102
 30
0.0
 11
-660.2948987806164
 21
1144.624155405406
 31
0.0
  0
LINE
  5
452
330
1F
100
AcDbEntity
  8
1-2
  6
Continuous
 62
    92
370
     5
100
AcDbLine
 10
-650.3948314769846
 20
1158.624300570102
 30
0.0
 11
-650.3948314769846
 21
1144.624155405406
 31
0.0
  0
LINE
  5
453
330
1F
100
AcDbEntity
  8
1-2
  6
Continuous
 62
    92
370
     5
100
AcDbLine
 10
-670.1949660842481
 20
1132.624313766892
 30
0.0
 11
-670.1949660842481
 21
1118.624168602196
 31
0.0
  0
LINE
  5
454
330
1F
100
AcDbEntity
  8
1-2
  6
Continuous
 62
    92
370
     5
100
AcDbLine
 10
-660.2948987806164
 20
1132.624313766892
 30
0.0
 11
-660.2948987806164
 21
1118.624168602196
 31
0.0
  0
LINE
  5
455
330
1F
100
AcDbEntity
  8
1-2
  6
Continuous
 62
    92
370
     5
100
AcDbLine
 10
-650.3948314769846
 20
1132.624313766892
 30
0.0
 11
-650.3948314769846
 21
1118.624168602196
 31
0.0
  0
LINE
  5
456
330
1F
100
AcDbEntity
  8
1-2
  6
Continuous
 62
    92
370
     5
100
AcDbLine
 10
-670.1949660842481
 20
1106.624326963683
 30
0.0
 11
-670.1949660842481
 21
1092.624181798986
 31
0.0
  0
LINE
  5
457
330
1F
100
AcDbEntity
  8
1-2
  6
Continuous
 62
    92
370
     5
100
AcDbLine
 10
-660.2948987806164
 20
1106.624326963683
 30
0.0
 11
-660.2948987806164
 21
1092.624181798986
 31
0.0
  0
LINE
  5
458
330
1F
100
AcDbEntity
  8
1-2
  6
Continuous
 62
    92
370
     5
100
AcDbLine
 10
-650.3948314769846
 20
1106.624326963683
 30
0.0
 11
-650.3948314769846
 21
1092.624181798986
 31
0.0
  0
LINE
  5
459
330
1F
100
AcDbEntity
  8
1-2
  6
Continuous
 62
    92
370
     5
100
AcDbLine
 10
-670.1949660842481
 20
1080.624340160473
 30
0.0
 11
-670.1949660842481
 21
1066.624194995777
 31
0.0
  0
LINE
  5
45A
330
1F
100
AcDbEntity
  8
1-2
  6
Continuous
 62
    92
370
     5
100
AcDbLine
 10
-660.2948987806164
 20
1080.624340160473
 30
0.0
 11
-660.2948987806164
 21
1066.624194995777
 31
0.0
  0
LINE
  5
45B
330
1F
100
AcDbEntity
  8
1-2
  6
Continuous
 62
    92
370
     5
100
AcDbLine
 10
-650.3948314769846
 20
1080.624340160473
 30
0.0
 11
-650.3948314769846
 21
1066.624194995777
 31
0.0
  0
LINE
  5
45C
330
1F
100
AcDbEntity
  8
1-2
  6
Continuous
 62
    92
370
     5
100
AcDbLine
 10
-670.1949660842481
 20
1054.624353357264
 30
0.0
 11
-670.1949660842481
 21
1040.624208192568
 31
0.0
  0
LINE
  5
45D
330
1F
100
AcDbEntity
  8
1-2
  6
Continuous
 62
    92
370
     5
100
AcDbLine
 10
-660.2948987806164
 20
1054.624353357264
 30
0.0
 11
-660.2948987806164
 21
1040.624208192568
 31
0.0
  0
LINE
  5
45E
330
1F
100
AcDbEntity
  8
1-2
  6
Continuous
 62
    92
370
     5
100
AcDbLine
 10
-650.3948314769846
 20
1054.624353357264
 30
0.0
 11
-650.3948314769846
 21
1040.624208192568
 31
0.0
  0
LINE
  5
45F
330
1F
100
AcDbEntity
  8
1-2
  6
Continuous
 62
    92
370
     5
100
AcDbLine
 10
-670.1949660842481
 20
1028.624366554054
 30
0.0
 11
-670.1949660842481
 21
1014.624221389358
 31
0.0
  0
LINE
  5
460
330
1F
100
AcDbEntity
  8
1-2
  6
Continuous
 62
    92
370
     5
100
AcDbLine
 10
-660.2948987806164
 20
1028.624366554054
 30
0.0
 11
-660.2948987806164
 21
1014.624221389358
 31
0.0
  0
LINE
  5
461
330
1F
100
AcDbEntity
  8
1-2
  6
Continuous
 62
    92
370
     5
100
AcDbLine
 10
-650.3948314769846
 20
1028.624366554054
 30
0.0
 11
-650.3948314769846
 21
1014.624221389358
 31
0.0
  0
LINE
  5
462
330
1F
100
AcDbEntity
  8
1-2
  6
Continuous
 62
    92
370
     5
100
AcDbLine
 10
-670.1949660842481
 20
1002.624379750845
 30
0.0
 11
-670.1949660842481
 21
988.6242345861488
 31
0.0
  0
LINE
  5
463
330
1F
100
AcDbEntity
  8
1-2
  6
Continuous
 62
    92
370
     5
100
AcDbLine
 10
-660.2948987806164
 20
1002.624379750845
 30
0.0
 11
-660.2948987806164
 21
988.6242345861488
 31
0.0
  0
LINE
  5
464
330
1F
100
AcDbEntity
  8
1-2
  6
Continuous
 62
    92
370
     5
100
AcDbLine
 10
-650.3948314769846
 20
1002.624379750845
 30
0.0
 11
-650.3948314769846
 21
988.6242345861488
 31
0.0
  0
LINE
  5
465
330
1F
100
AcDbEntity
  8
1-2
  6
Continuous
 62
    92
370
     5
100
AcDbLine
 10
-670.1949660842481
 20
976.6243929476352
 30
0.0
 11
-670.1949660842481
 21
962.6242477829394
 31
0.0
  0
LINE
  5
466
330
1F
100
AcDbEntity
  8
1-2
  6
Continuous
 62
    92
370
     5
100
AcDbLine
 10
-660.2948987806164
 20
976.6243929476352
 30
0.0
 11
-660.2948987806164
 21
962.6242477829394
 31
0.0
  0
LINE
  5
467
330
1F
100
AcDbEntity
  8
1-2
  6
Continuous
 62
    92
370
     5
100
AcDbLine
 10
-650.3948314769846
 20
976.6243929476352
 30
0.0
 11
-650.3948314769846
 21
962.6242477829394
 31
0.0
  0
LINE
  5
468
330
1F
100
AcDbEntity
  8
1-2
  6
Continuous
 62
    92
370
     5
100
AcDbLine
 10
-670.1949660842481
 20
950.6244061444258
 30
0.0
 11
-670.1949660842481
 21
936.62426097973
 31
0.0
  0
LINE
  5
469
330
1F
100
AcDbEntity
  8
1-2
  6
Continuous
 62
    92
370
     5
100
AcDbLine
 10
-660.2948987806164
 20
950.6244061444258
 30
0.0
 11
-660.2948987806164
 21
936.62426097973
 31
0.0
  0
LINE
  5
46A
330
1F
100
AcDbEntity
  8
1-2
  6
Continuous
 62
    92
370
     5
100
AcDbLine
 10
-650.3948314769846
 20
950.6244061444258
 30
0.0
 11
-650.3948314769846
 21
936.62426097973
 31
0.0
  0
LINE
  5
46B
330
1F
100
AcDbEntity
  8
1-2
  6
Continuous
 62
    92
370
     5
100
AcDbLine
 10
-670.1949660842481
 20
924.6244193412165
 30
0.0
 11
-670.1949660842481
 21
910.6242741765203
 31
0.0
  0
LINE
  5
46C
330
1F
100
AcDbEntity
  8
1-2
  6
Continuous
 62
    92
370
     5
100
AcDbLine
 10
-660.2948987806164
 20
924.6244193412165
 30
0.0
 11
-660.2948987806164
 21
910.6242741765203
 31
0.0
  0
LINE
  5
46D
330
1F
100
AcDbEntity
  8
1-2
  6
Continuous
 62
    92
370
     5
100
AcDbLine
 10
-650.3948314769846
 20
924.6244193412165
 30
0.0
 11
-650.3948314769846
 21
910.6242741765203
 31
0.0
  0
LINE
  5
46E
330
1F
100
AcDbEntity
  8
1-2
  6
Continuous
 62
    92
370
     5
100
AcDbLine
 10
-670.1949660842481
 20
898.6244325380068
 30
0.0
 11
-670.1949660842481
 21
884.624287373311
 31
0.0
  0
LINE
  5
46F
330
1F
100
AcDbEntity
  8
1-2
  6
Continuous
 62
    92
370
     5
100
AcDbLine
 10
-660.2948987806164
 20
898.6244325380068
 30
0.0
 11
-660.2948987806164
 21
884.624287373311
 31
0.0
  0
LINE
  5
470
330
1F
100
AcDbEntity
  8
1-2
  6
Continuous
 62
    92
370
     5
100
AcDbLine
 10
-650.3948314769846
 20
898.6244325380068
 30
0.0
 11
-650.3948314769846
 21
884.624287373311
 31
0.0
  0
LINE
  5
471
330
1F
100
AcDbEntity
  8
1-2
  6
Continuous
 62
    92
370
     5
100
AcDbLine
 10
-670.1949660842481
 20
872.6244457347974
 30
0.0
 11
-670.1949660842481
 21
858.6243005701016
 31
0.0
  0
LINE
  5
472
330
1F
100
AcDbEntity
  8
1-2
  6
Continuous
 62
    92
370
     5
100
AcDbLine
 10
-660.2948987806164
 20
872.6244457347974
 30
0.0
 11
-660.2948987806164
 21
858.6243005701016
 31
0.0
  0
LINE
  5
473
330
1F
100
AcDbEntity
  8
1-2
  6
Continuous
 62
    92
370
     5
100
AcDbLine
 10
-650.3948314769846
 20
872.6244457347974
 30
0.0
 11
-650.3948314769846
 21
858.6243005701016
 31
0.0
  0
LINE
  5
474
330
1F
100
AcDbEntity
  8
1-2
  6
Continuous
 62
    92
370
     5
100
AcDbLine
 10
-670.1949660842481
 20
846.624458931588
 30
0.0
 11
-670.1949660842481
 21
832.6243137668919
 31
0.0
  0
LINE
  5
475
330
1F
100
AcDbEntity
  8
1-2
  6
Continuous
 62
    92
370
     5
100
AcDbLine
 10
-660.2948987806164
 20
846.624458931588
 30
0.0
 11
-660.2948987806164
 21
832.6243137668919
 31
0.0
  0
LINE
  5
476
330
1F
100
AcDbEntity
  8
1-2
  6
Continuous
 62
    92
370
     5
100
AcDbLine
 10
-650.3948314769846
 20
846.624458931588
 30
0.0
 11
-650.3948314769846
 21
832.6243137668919
 31
0.0
  0
LINE
  5
477
330
1F
100
AcDbEntity
  8
1-2
  6
Continuous
 62
    92
370
     5
100
AcDbLine
 10
-670.1949660842481
 20
820.6244721283783
 30
0.0
 11
-670.1949660842481
 21
806.6243269636825
 31
0.0
  0
LINE
  5
478
330
1F
100
AcDbEntity
  8
1-2
  6
Continuous
 62
    92
370
     5
100
AcDbLine
 10
-660.2948987806164
 20
820.6244721283783
 30
0.0
 11
-660.2948987806164
 21
806.6243269636825
 31
0.0
  0
LINE
  5
479
330
1F
100
AcDbEntity
  8
1-2
  6
Continuous
 62
    92
370
     5
100
AcDbLine
 10
-650.3948314769846
 20
820.6244721283783
 30
0.0
 11
-650.3948314769846
 21
806.6243269636825
 31
0.0
  0
LINE
  5
47A
330
1F
100
AcDbEntity
  8
1-2
  6
Continuous
 62
    92
370
     5
100
AcDbLine
 10
-330.1950815561653
 20
1158.624300570102
 30
0.0
 11
-330.1950815561653
 21
1144.624155405406
 31
0.0
  0
LINE
  5
47B
330
1F
100
AcDbEntity
  8
1-2
  6
Continuous
 62
    92
370
     5
100
AcDbLine
 10
-320.2950142525336
 20
1158.624300570102
 30
0.0
 11
-320.2950142525336
 21
1144.624155405406
 31
0.0
  0
LINE
  5
47C
330
1F
100
AcDbEntity
  8
1-2
  6
Continuous
 62
    92
370
     5
100
AcDbLine
 10
-310.3949469489018
 20
1158.624300570102
 30
0.0
 11
-310.3949469489018
 21
1144.624155405406
 31
0.0
  0
LINE
  5
47D
330
1F
100
AcDbEntity
  8
1-2
  6
Continuous
 62
    92
370
     5
100
AcDbLine
 10
-330.1950815561653
 20
1132.624313766892
 30
0.0
 11
-330.1950815561653
 21
1118.624168602196
 31
0.0
  0
LINE
  5
47E
330
1F
100
AcDbEntity
  8
1-2
  6
Continuous
 62
    92
370
     5
100
AcDbLine
 10
-320.2950142525336
 20
1132.624313766892
 30
0.0
 11
-320.2950142525336
 21
1118.624168602196
 31
0.0
  0
LINE
  5
47F
330
1F
100
AcDbEntity
  8
1-2
  6
Continuous
 62
    92
370
     5
100
AcDbLine
 10
-310.3949469489018
 20
1132.624313766892
 30
0.0
 11
-310.3949469489018
 21
1118.624168602196
 31
0.0
  0
LINE
  5
480
330
1F
100
AcDbEntity
  8
1-2
  6
Continuous
 62
    92
370
     5
100
AcDbLine
 10
-330.1950815561653
 20
1106.624326963683
 30
0.0
 11
-330.1950815561653
 21
1092.624181798986
 31
0.0
  0
LINE
  5
481
330
1F
100
AcDbEntity
  8
1-2
  6
Continuous
 62
    92
370
     5
100
AcDbLine
 10
-320.2950142525336
 20
1106.624326963683
 30
0.0
 11
-320.2950142525336
 21
1092.624181798986
 31
0.0
  0
LINE
  5
482
330
1F
100
AcDbEntity
  8
1-2
  6
Continuous
 62
    92
370
     5
100
AcDbLine
 10
-310.3949469489018
 20
1106.624326963683
 30
0.0
 11
-310.3949469489018
 21
1092.624181798986
 31
0.0
  0
LINE
  5
483
330
1F
100
AcDbEntity
  8
1-2
  6
Continuous
 62
    92
370
     5
100
AcDbLine
 10
-330.1950815561653
 20
1080.624340160473
 30
0.0
 11
-330.1950815561653
 21
1066.624194995777
 31
0.0
  0
LINE
  5
484
330
1F
100
AcDbEntity
  8
1-2
  6
Continuous
 62
    92
370
     5
100
AcDbLine
 10
-320.2950142525336
 20
1080.624340160473
 30
0.0
 11
-320.2950142525336
 21
1066.624194995777
 31
0.0
  0
LINE
  5
485
330
1F
100
AcDbEntity
  8
1-2
  6
Continuous
 62
    92
370
     5
100
AcDbLine
 10
-310.3949469489018
 20
1080.624340160473
 30
0.0
 11
-310.3949469489018
 21
1066.624194995777
 31
0.0
  0
LINE
  5
486
330
1F
100
AcDbEntity
  8
1-2
  6
Continuous
 62
    92
370
     5
100
AcDbLine
 10
-330.1950815561653
 20
1054.624353357264
 30
0.0
 11
-330.1950815561653
 21
1040.624208192568
 31
0.0
  0
LINE
  5
487
330
1F
100
AcDbEntity
  8
1-2
  6
Continuous
 62
    92
370
     5
100
AcDbLine
 10
-320.2950142525336
 20
1054.624353357264
 30
0.0
 11
-320.2950142525336
 21
1040.624208192568
 31
0.0
  0
LINE
  5
488
330
1F
100
AcDbEntity
  8
1-2
  6
Continuous
 62
    92
370
     5
100
AcDbLine
 10
-310.3949469489018
 20
1054.624353357264
 30
0.0
 11
-310.3949469489018
 21
1040.624208192568
 31
0.0
  0
LINE
  5
489
330
1F
100
AcDbEntity
  8
1-2
  6
Continuous
 62
    92
370
     5
100
AcDbLine
 10
-330.1950815561653
 20
1028.624366554054
 30
0.0
 11
-330.1950815561653
 21
1014.624221389358
 31
0.0
  0
LINE
  5
48A
330
1F
100
AcDbEntity
  8
1-2
  6
Continuous
 62
    92
370
     5
100
AcDbLine
 10
-320.2950142525336
 20
1028.624366554054
 30
0.0
 11
-320.2950142525336
 21
1014.624221389358
 31
0.0
  0
LINE
  5
48B
330
1F
100
AcDbEntity
  8
1-2
  6
Continuous
 62
    92
370
     5
100
AcDbLine
 10
-310.3949469489018
 20
1028.624366554054
 30
0.0
 11
-310.3949469489018
 21
1014.624221389358
 31
0.0
  0
LINE
  5
48C
330
1F
100
AcDbEntity
  8
1-2
  6
Continuous
 62
    92
370
     5
100
AcDbLine
 10
-330.1950815561653
 20
1002.624379750845
 30
0.0
 11
-330.1950815561653
 21
988.6242345861488
 31
0.0
  0
LINE
  5
48D
330
1F
100
AcDbEntity
  8
1-2
  6
Continuous
 62
    92
370
     5
100
AcDbLine
 10
-320.2950142525336
 20
1002.624379750845
 30
0.0
 11
-320.2950142525336
 21
988.6242345861488
 31
0.0
  0
LINE
  5
48E
330
1F
100
AcDbEntity
  8
1-2
  6
Continuous
 62
    92
370
     5
100
AcDbLine
 10
-310.3949469489018
 20
1002.624379750845
 30
0.0
 11
-310.3949469489018
 21
988.6242345861488
 31
0.0
  0
LINE
  5
48F
330
1F
100
AcDbEntity
  8
1-2
  6
Continuous
 62
    92
370
     5
100
AcDbLine
 10
-330.1950815561653
 20
976.6243929476352
 30
0.0
 11
-330.1950815561653
 21
962.6242477829394
 31
0.0
  0
LINE
  5
490
330
1F
100
AcDbEntity
  8
1-2
  6
Continuous
 62
    92
370
     5
100
AcDbLine
 10
-320.2950142525336
 20
976.6243929476352
 30
0.0
 11
-320.2950142525336
 21
962.6242477829394
 31
0.0
  0
LINE
  5
491
330
1F
100
AcDbEntity
  8
1-2
  6
Continuous
 62
    92
370
     5
100
AcDbLine
 10
-310.3949469489018
 20
976.6243929476352
 30
0.0
 11
-310.3949469489018
 21
962.6242477829394
 31
0.0
  0
LINE
  5
492
330
1F
100
AcDbEntity
  8
1-2
  6
Continuous
 62
    92
370
     5
100
AcDbLine
 10
-330.1950815561653
 20
950.6244061444258
 30
0.0
 11
-330.1950815561653
 21
936.62426097973
 31
0.0
  0
LINE
  5
493
330
1F
100
AcDbEntity
  8
1-2
  6
Continuous
 62
    92
370
     5
100
AcDbLine
 10
-320.2950142525336
 20
950.6244061444258
 30
0.0
 11
-320.2950142525336
 21
936.62426097973
 31
0.0
  0
LINE
  5
494
330
1F
100
AcDbEntity
  8
1-2
  6
Continuous
 62
    92
370
     5
100
AcDbLine
 10
-310.3949469489018
 20
950.6244061444258
 30
0.0
 11
-310.3949469489018
 21
936.62426097973
 31
0.0
  0
LINE
  5
495
330
1F
100
AcDbEntity
  8
1-2
  6
Continuous
 62
    92
370
     5
100
AcDbLine
 10
-330.1950815561653
 20
924.6244193412165
 30
0.0
 11
-330.1950815561653
 21
910.6242741765203
 31
0.0
  0
LINE
  5
496
330
1F
100
AcDbEntity
  8
1-2
  6
Continuous
 62
    92
370
     5
100
AcDbLine
 10
-320.2950142525336
 20
924.6244193412165
 30
0.0
 11
-320.2950142525336
 21
910.6242741765203
 31
0.0
  0
LINE
  5
497
330
1F
100
AcDbEntity
  8
1-2
  6
Continuous
 62
    92
370
     5
100
AcDbLine
 10
-310.3949469489018
 20
924.6244193412165
 30
0.0
 11
-310.3949469489018
 21
910.6242741765203
 31
0.0
  0
LINE
  5
498
330
1F
100
AcDbEntity
  8
1-2
  6
Continuous
 62
    92
370
     5
100
AcDbLine
 10
-330.1950815561653
 20
898.6244325380068
 30
0.0
 11
-330.1950815561653
 21
884.624287373311
 31
0.0
  0
LINE
  5
499
330
1F
100
AcDbEntity
  8
1-2
  6
Continuous
 62
    92
370
     5
100
AcDbLine
 10
-320.2950142525336
 20
898.6244325380068
 30
0.0
 11
-320.2950142525336
 21
884.624287373311
 31
0.0
  0
LINE
  5
49A
330
1F
100
AcDbEntity
  8
1-2
  6
Continuous
 62
    92
370
     5
100
AcDbLine
 10
-310.3949469489018
 20
898.6244325380068
 30
0.0
 11
-310.3949469489018
 21
884.624287373311
 31
0.0
  0
LINE
  5
49B
330
1F
100
AcDbEntity
  8
1-2
  6
Continuous
 62
    92
370
     5
100
AcDbLine
 10
-330.1950815561653
 20
872.6244457347974
 30
0.0
 11
-330.1950815561653
 21
858.6243005701016
 31
0.0
  0
LINE
  5
49C
330
1F
100
AcDbEntity
  8
1-2
  6
Continuous
 62
    92
370
     5
100
AcDbLine
 10
-320.2950142525336
 20
872.6244457347974
 30
0.0
 11
-320.2950142525336
 21
858.6243005701016
 31
0.0
  0
LINE
  5
49D
330
1F
100
AcDbEntity
  8
1-2
  6
Continuous
 62
    92
370
     5
100
AcDbLine
 10
-310.3949469489018
 20
872.6244457347974
 30
0.0
 11
-310.3949469489018
 21
858.6243005701016
 31
0.0
  0
LINE
  5
49E
330
1F
100
AcDbEntity
  8
1-2
  6
Continuous
 62
    92
370
     5
100
AcDbLine
 10
-330.1950815561653
 20
846.624458931588
 30
0.0
 11
-330.1950815561653
 21
832.6243137668919
 31
0.0
  0
LINE
  5
49F
330
1F
100
AcDbEntity
  8
1-2
  6
Continuous
 62
    92
370
     5
100
AcDbLine
 10
-320.2950142525336
 20
846.624458931588
 30
0.0
 11
-320.2950142525336
 21
832.6243137668919
 31
0.0
  0
LINE
  5
4A0
330
1F
100
AcDbEntity
  8
1-2
  6
Continuous
 62
    92
370
     5
100
AcDbLine
 10
-310.3949469489018
 20
846.624458931588
 30
0.0
 11
-310.3949469489018
 21
832.6243137668919
 31
0.0
  0
LINE
  5
4A1
330
1F
100
AcDbEntity
  8
1-2
  6
Continuous
 62
    92
370
     5
100
AcDbLine
 10
-34.19519372888516
 20
1158.624300570102
 30
0.0
 11
-34.19519372888516
 21
1144.624155405406
 31
0.0
  0
LINE
  5
4A2
330
1F
100
AcDbEntity
  8
1-2
  6
Continuous
 62
    92
370
     5
100
AcDbLine
 10
-24.29512642525339
 20
1158.624300570102
 30
0.0
 11
-24.29512642525339
 21
1144.624155405406
 31
0.0
  0
LINE
  5
4A3
330
1F
100
AcDbEntity
  8
1-2
  6
Continuous
 62
    92
370
     5
100
AcDbLine
 10
-14.39505912162161
 20
1158.624300570102
 30
0.0
 11
-14.39505912162161
 21
1144.624155405406
 31
0.0
  0
LINE
  5
4A4
330
1F
100
AcDbEntity
  8
1-2
  6
Continuous
 62
    92
370
     5
100
AcDbLine
 10
-34.19519372888516
 20
1132.624313766892
 30
0.0
 11
-34.19519372888516
 21
1118.624168602196
 31
0.0
  0
LINE
  5
4A5
330
1F
100
AcDbEntity
  8
1-2
  6
Continuous
 62
    92
370
     5
100
AcDbLine
 10
-24.29512642525339
 20
1132.624313766892
 30
0.0
 11
-24.29512642525339
 21
1118.624168602196
 31
0.0
  0
LINE
  5
4A6
330
1F
100
AcDbEntity
  8
1-2
  6
Continuous
 62
    92
370
     5
100
AcDbLine
 10
-14.39505912162161
 20
1132.624313766892
 30
0.0
 11
-14.39505912162161
 21
1118.624168602196
 31
0.0
  0
LINE
  5
4A7
330
1F
100
AcDbEntity
  8
1-2
  6
Continuous
 62
    92
370
     5
100
AcDbLine
 10
-34.19519372888516
 20
1106.624326963683
 30
0.0
 11
-34.19519372888516
 21
1092.624181798986
 31
0.0
  0
LINE
  5
4A8
330
1F
100
AcDbEntity
  8
1-2
  6
Continuous
 62
    92
370
     5
100
AcDbLine
 10
-24.29512642525339
 20
1106.624326963683
 30
0.0
 11
-24.29512642525339
 21
1092.624181798986
 31
0.0
  0
LINE
  5
4A9
330
1F
100
AcDbEntity
  8
1-2
  6
Continuous
 62
    92
370
     5
100
AcDbLine
 10
-14.39505912162161
 20
1106.624326963683
 30
0.0
 11
-14.39505912162161
 21
1092.624181798986
 31
0.0
  0
LINE
  5
4AA
330
1F
100
AcDbEntity
  8
1-2
  6
Continuous
 62
    92
370
     5
100
AcDbLine
 10
-34.19519372888516
 20
1080.624340160473
 30
0.0
 11
-34.19519372888516
 21
1066.624194995777
 31
0.0
  0
LINE
  5
4AB
330
1F
100
AcDbEntity
  8
1-2
  6
Continuous
 62
    92
370
     5
100
AcDbLine
 10
-24.29512642525339
 20
1080.624340160473
 30
0.0
 11
-24.29512642525339
 21
1066.624194995777
 31
0.0
  0
LINE
  5
4AC
330
1F
100
AcDbEntity
  8
1-2
  6
Continuous
 62
    92
370
     5
100
AcDbLine
 10
-14.39505912162161
 20
1080.624340160473
 30
0.0
 11
-14.39505912162161
 21
1066.624194995777
 31
0.0
  0
LINE
  5
4AD
330
1F
100
AcDbEntity
  8
1-2
  6
Continuous
 62
    92
370
     5
100
AcDbLine
 10
-34.19519372888516
 20
1054.624353357264
 30
0.0
 11
-34.19519372888516
 21
1040.624208192568
 31
0.0
  0
LINE
  5
4AE
330
1F
100
AcDbEntity
  8
1-2
  6
Continuous
 62
    92
370
     5
100
AcDbLine
 10
-24.29512642525339
 20
1054.624353357264
 30
0.0
 11
-24.29512642525339
 21
1040.624208192568
 31
0.0
  0
LINE
  5
4AF
330
1F
100
AcDbEntity
  8
1-2
  6
Continuous
 62
    92
370
     5
100
AcDbLine
 10
-14.39505912162161
 20
1054.624353357264
 30
0.0
 11
-14.39505912162161
 21
1040.624208192568
 31
0.0
  0
LINE
  5
4B0
330
1F
100
AcDbEntity
  8
1-2
  6
Continuous
 62
    92
370
     5
100
AcDbLine
 10
-34.19519372888516
 20
1028.624366554054
 30
0.0
 11
-34.19519372888516
 21
1014.624221389358
 31
0.0
  0
LINE
  5
4B1
330
1F
100
AcDbEntity
  8
1-2
  6
Continuous
 62
    92
370
     5
100
AcDbLine
 10
-24.29512642525339
 20
1028.624366554054
 30
0.0
 11
-24.29512642525339
 21
1014.624221389358
 31
0.0
  0
LINE
  5
4B2
330
1F
100
AcDbEntity
  8
1-2
  6
Continuous
 62
    92
370
     5
100
AcDbLine
 10
-14.39505912162161
 20
1028.624366554054
 30
0.0
 11
-14.39505912162161
 21
1014.624221389358
 31
0.0
  0
LINE
  5
4B3
330
1F
100
AcDbEntity
  8
1-2
  6
Continuous
 62
    92
370
     5
100
AcDbLine
 10
-34.19519372888516
 20
1002.624379750845
 30
0.0
 11
-34.19519372888516
 21
988.6242345861488
 31
0.0
  0
LINE
  5
4B4
330
1F
100
AcDbEntity
  8
1-2
  6
Continuous
 62
    92
370
     5
100
AcDbLine
 10
-24.29512642525339
 20
1002.624379750845
 30
0.0
 11
-24.29512642525339
 21
988.6242345861488
 31
0.0
  0
LINE
  5
4B5
330
1F
100
AcDbEntity
  8
1-2
  6
Continuous
 62
    92
370
     5
100
AcDbLine
 10
-14.39505912162161
 20
1002.624379750845
 30
0.0
 11
-14.39505912162161
 21
988.6242345861488
 31
0.0
  0
LINE
  5
4B6
330
1F
100
AcDbEntity
  8
1-2
  6
Continuous
 62
    92
370
     5
100
AcDbLine
 10
-34.19519372888516
 20
976.6243929476352
 30
0.0
 11
-34.19519372888516
 21
962.6242477829394
 31
0.0
  0
LINE
  5
4B7
330
1F
100
AcDbEntity
  8
1-2
  6
Continuous
 62
    92
370
     5
100
AcDbLine
 10
-24.29512642525339
 20
976.6243929476352
 30
0.0
 11
-24.29512642525339
 21
962.6242477829394
 31
0.0
  0
LINE
  5
4B8
330
1F
100
AcDbEntity
  8
1-2
  6
Continuous
 62
    92
370
     5
100
AcDbLine
 10
-14.39505912162161
 20
976.6243929476352
 30
0.0
 11
-14.39505912162161
 21
962.6242477829394
 31
0.0
  0
LINE
  5
4B9
330
1F
100
AcDbEntity
  8
1-2
  6
Continuous
 62
    92
370
     5
100
AcDbLine
 10
-34.19519372888516
 20
950.6244061444258
 30
0.0
 11
-34.19519372888516
 21
936.62426097973
 31
0.0
  0
LINE
  5
4BA
330
1F
100
AcDbEntity
  8
1-2
  6
Continuous
 62
    92
370
     5
100
AcDbLine
 10
-24.29512642525339
 20
950.6244061444258
 30
0.0
 11
-24.29512642525339
 21
936.62426097973
 31
0.0
  0
LINE
  5
4BB
330
1F
100
AcDbEntity
  8
1-2
  6
Continuous
 62
    92
370
     5
100
AcDbLine
 10
-14.39505912162161
 20
950.6244061444258
 30
0.0
 11
-14.39505912162161
 21
936.62426097973
 31
0.0
  0
LINE
  5
4BC
330
1F
100
AcDbEntity
  8
1-2
  6
Continuous
 62
    92
370
     5
100
AcDbLine
 10
-34.19519372888516
 20
924.6244193412165
 30
0.0
 11
-34.19519372888516
 21
910.6242741765203
 31
0.0
  0
LINE
  5
4BD
330
1F
100
AcDbEntity
  8
1-2
  6
Continuous
 62
    92
370
     5
100
AcDbLine
 10
-24.29512642525339
 20
924.6244193412165
 30
0.0
 11
-24.29512642525339
 21
910.6242741765203
 31
0.0
  0
LINE
  5
4BE
330
1F
100
AcDbEntity
  8
1-2
  6
Continuous
 62
    92
370
     5
100
AcDbLine
 10
-14.39505912162161
 20
924.6244193412165
 30
0.0
 11
-14.39505912162161
 21
910.6242741765203
 31
0.0
  0
LINE
  5
4BF
330
1F
100
AcDbEntity
  8
1-2
  6
Continuous
 62
    92
370
     5
100
AcDbLine
 10
-34.19519372888516
 20
898.6244325380068
 30
0.0
 11
-34.19519372888516
 21
884.624287373311
 31
0.0
  0
LINE
  5
4C0
330
1F
100
AcDbEntity
  8
1-2
  6
Continuous
 62
    92
370
     5
100
AcDbLine
 10
-24.29512642525339
 20
898.6244325380068
 30
0.0
 11
-24.29512642525339
 21
884.624287373311
 31
0.0
  0
LINE
  5
4C1
330
1F
100
AcDbEntity
  8
1-2
  6
Continuous
 62
    92
370
     5
100
AcDbLine
 10
-14.39505912162161
 20
898.6244325380068
 30
0.0
 11
-14.39505912162161
 21
884.624287373311
 31
0.0
  0
LINE
  5
4C2
330
1F
100
AcDbEntity
  8
1-2
  6
Continuous
 62
    92
370
     5
100
AcDbLine
 10
-34.19519372888516
 20
872.6244457347974
 30
0.0
 11
-34.19519372888516
 21
858.6243005701016
 31
0.0
  0
LINE
  5
4C3
330
1F
100
AcDbEntity
  8
1-2
  6
Continuous
 62
    92
370
     5
100
AcDbLine
 10
-24.29512642525339
 20
872.6244457347974
 30
0.0
 11
-24.29512642525339
 21
858.6243005701016
 31
0.0
  0
LINE
  5
4C4
330
1F
100
AcDbEntity
  8
1-2
  6
Continuous
 62
    92
370
     5
100
AcDbLine
 10
-14.39505912162161
 20
872.6244457347974
 30
0.0
 11
-14.39505912162161
 21
858.6243005701016
 31
0.0
  0
LINE
  5
4C5
330
1F
100
AcDbEntity
  8
1-2
  6
Continuous
 62
    92
370
     5
100
AcDbLine
 10
-1278.194942989865
 20
36.62426097972968
 30
0.0
 11
-1278.194942989865
 21
22.62411581503386
 31
0.0
  0
LINE
  5
4C6
330
1F
100
AcDbEntity
  8
1-2
  6
Continuous
 62
    92
370
     5
100
AcDbLine
 10
-1278.194942989865
 20
62.62424778293934
 30
0.0
 11
-1278.194942989865
 21
48.62410261824323
 31
0.0
  0
LINE
  5
4C7
330
1F
100
AcDbEntity
  8
1-2
  6
Continuous
 62
    92
370
     5
100
AcDbLine
 10
-1278.194942989865
 20
88.6242345861487
 30
0.0
 11
-1278.194942989865
 21
74.62421314136407
 31
0.0
  0
LINE
  5
4C8
330
1F
100
AcDbEntity
  8
1-2
  6
Continuous
 62
    92
370
     5
100
AcDbLine
 10
-1278.194942989865
 20
114.6242213893581
 30
0.0
 11
-1278.194942989865
 21
100.6241999445734
 31
0.0
  0
LINE
  5
4C9
330
1F
100
AcDbEntity
  8
1-2
  6
Continuous
 62
    92
370
     5
100
AcDbLine
 10
-1278.194942989865
 20
140.6242081925677
 30
0.0
 11
-1278.194942989865
 21
126.6241867477831
 31
0.0
  0
LINE
  5
4CA
330
1F
100
AcDbEntity
  8
1-2
  6
Continuous
 62
    92
370
     5
100
AcDbLine
 10
-1278.194942989865
 20
166.6241949957771
 30
0.0
 11
-1278.194942989865
 21
152.6241735509925
 31
0.0
  0
LINE
  5
4CB
330
1F
100
AcDbEntity
  8
1-2
  6
Continuous
 62
    92
370
     5
100
AcDbLine
 10
-1278.194942989865
 20
192.6243055188979
 30
0.0
 11
-1278.194942989865
 21
178.6241603542018
 31
0.0
  0
LINE
  5
4CC
330
1F
100
AcDbEntity
  8
1-2
  6
Continuous
 62
    92
370
     5
100
AcDbLine
 10
-1278.194942989865
 20
218.6242923221073
 30
0.0
 11
-1278.194942989865
 21
204.6242708773227
 31
0.0
  0
LINE
  5
4CD
330
1F
100
AcDbEntity
  8
1-2
  6
Continuous
 62
    92
370
     5
100
AcDbLine
 10
-1278.194942989865
 20
244.6242791253169
 30
0.0
 11
-1278.194942989865
 21
230.6242576805323
 31
0.0
  0
LINE
  5
4CE
330
1F
100
AcDbEntity
  8
1-2
  6
Continuous
 62
    92
370
     5
100
AcDbLine
 10
-1278.194942989865
 20
270.6242659285263
 30
0.0
 11
-1278.194942989865
 21
256.6242444837417
 31
0.0
  0
LINE
  5
4CF
330
1F
100
AcDbEntity
  8
1-2
  6
Continuous
 62
    92
370
     5
100
AcDbLine
 10
-1278.194942989865
 20
322.6242395349453
 30
0.0
 11
-1278.194942989865
 21
308.6242180901607
 31
0.0
  0
LINE
  5
4D0
330
1F
100
AcDbEntity
  8
1-2
  6
Continuous
 62
    92
370
     5
100
AcDbLine
 10
-1278.194942989865
 20
296.6242527317357
 30
0.0
 11
-1278.194942989865
 21
282.624231286951
 31
0.0
  0
LINE
  5
4D1
330
1F
100
AcDbEntity
  8
1-2
  6
Continuous
 62
    92
370
     5
100
AcDbLine
 10
-1268.295123126056
 20
36.62426097972968
 30
0.0
 11
-1268.295123126056
 21
22.62411581503386
 31
0.0
  0
LINE
  5
4D2
330
1F
100
AcDbEntity
  8
1-2
  6
Continuous
 62
    92
370
     5
100
AcDbLine
 10
-1268.295123126056
 20
62.62424778293934
 30
0.0
 11
-1268.295123126056
 21
48.62410261824323
 31
0.0
  0
LINE
  5
4D3
330
1F
100
AcDbEntity
  8
1-2
  6
Continuous
 62
    92
370
     5
100
AcDbLine
 10
-1268.295123126056
 20
88.6242345861487
 30
0.0
 11
-1268.295123126056
 21
74.62421314136407
 31
0.0
  0
LINE
  5
4D4
330
1F
100
AcDbEntity
  8
1-2
  6
Continuous
 62
    92
370
     5
100
AcDbLine
 10
-1268.295123126056
 20
114.6242213893581
 30
0.0
 11
-1268.295123126056
 21
100.6241999445734
 31
0.0
  0
LINE
  5
4D5
330
1F
100
AcDbEntity
  8
1-2
  6
Continuous
 62
    92
370
     5
100
AcDbLine
 10
-1268.295123126056
 20
140.6242081925677
 30
0.0
 11
-1268.295123126056
 21
126.6241867477831
 31
0.0
  0
LINE
  5
4D6
330
1F
100
AcDbEntity
  8
1-2
  6
Continuous
 62
    92
370
     5
100
AcDbLine
 10
-1268.295123126056
 20
166.6241949957771
 30
0.0
 11
-1268.295123126056
 21
152.6241735509925
 31
0.0
  0
LINE
  5
4D7
330
1F
100
AcDbEntity
  8
1-2
  6
Continuous
 62
    92
370
     5
100
AcDbLine
 10
-1268.295123126056
 20
192.6243055188979
 30
0.0
 11
-1268.295123126056
 21
178.6241603542018
 31
0.0
  0
LINE
  5
4D8
330
1F
100
AcDbEntity
  8
1-2
  6
Continuous
 62
    92
370
     5
100
AcDbLine
 10
-1268.295123126056
 20
218.6242923221073
 30
0.0
 11
-1268.295123126056
 21
204.6242708773227
 31
0.0
  0
LINE
  5
4D9
330
1F
100
AcDbEntity
  8
1-2
  6
Continuous
 62
    92
370
     5
100
AcDbLine
 10
-1268.295123126056
 20
244.6242791253169
 30
0.0
 11
-1268.295123126056
 21
230.6242576805323
 31
0.0
  0
LINE
  5
4DA
330
1F
100
AcDbEntity
  8
1-2
  6
Continuous
 62
    92
370
     5
100
AcDbLine
 10
-1268.295123126056
 20
270.6242659285263
 30
0.0
 11
-1268.295123126056
 21
256.6242444837417
 31
0.0
  0
LINE
  5
4DB
330
1F
100
AcDbEntity
  8
1-2
  6
Continuous
 62
    92
370
     5
100
AcDbLine
 10
-1268.295123126056
 20
322.6242395349453
 30
0.0
 11
-1268.295123126056
 21
308.6242180901607
 31
0.0
  0
LINE
  5
4DC
330
1F
100
AcDbEntity
  8
1-2
  6
Continuous
 62
    92
370
     5
100
AcDbLine
 10
-1268.295123126056
 20
296.6242527317357
 30
0.0
 11
-1268.295123126056
 21
282.624231286951
 31
0.0
  0
LINE
  5
4DD
330
1F
100
AcDbEntity
  8
1-2
  6
Continuous
 62
    92
370
     5
100
AcDbLine
 10
-1258.394808382601
 20
322.6242395349453
 30
0.0
 11
-1258.394808382601
 21
308.6242180901607
 31
0.0
  0
LINE
  5
4DE
330
1F
100
AcDbEntity
  8
1-2
  6
Continuous
 62
    92
370
     5
100
AcDbLine
 10
-1258.394808382601
 20
296.6242527317357
 30
0.0
 11
-1258.394808382601
 21
282.624231286951
 31
0.0
  0
LINE
  5
4DF
330
1F
100
AcDbEntity
  8
1-2
  6
Continuous
 62
    92
370
     5
100
AcDbLine
 10
-1258.394808382601
 20
270.6242659285263
 30
0.0
 11
-1258.394808382601
 21
256.6242444837417
 31
0.0
  0
LINE
  5
4E0
330
1F
100
AcDbEntity
  8
1-2
  6
Continuous
 62
    92
370
     5
100
AcDbLine
 10
-1258.394808382601
 20
244.6242791253169
 30
0.0
 11
-1258.394808382601
 21
230.6242576805323
 31
0.0
  0
LINE
  5
4E1
330
1F
100
AcDbEntity
  8
1-2
  6
Continuous
 62
    92
370
     5
100
AcDbLine
 10
-1258.394808382601
 20
218.6242923221073
 30
0.0
 11
-1258.394808382601
 21
204.6242708773227
 31
0.0
  0
LINE
  5
4E2
330
1F
100
AcDbEntity
  8
1-2
  6
Continuous
 62
    92
370
     5
100
AcDbLine
 10
-1258.394808382601
 20
192.6243055188979
 30
0.0
 11
-1258.394808382601
 21
178.6241603542018
 31
0.0
  0
LINE
  5
4E3
330
1F
100
AcDbEntity
  8
1-2
  6
Continuous
 62
    92
370
     5
100
AcDbLine
 10
-1258.394808382601
 20
166.6241949957771
 30
0.0
 11
-1258.394808382601
 21
152.6241735509925
 31
0.0
  0
LINE
  5
4E4
330
1F
100
AcDbEntity
  8
1-2
  6
Continuous
 62
    92
370
     5
100
AcDbLine
 10
-1258.394808382601
 20
140.6242081925677
 30
0.0
 11
-1258.394808382601
 21
126.6241867477831
 31
0.0
  0
LINE
  5
4E5
330
1F
100
AcDbEntity
  8
1-2
  6
Continuous
 62
    92
370
     5
100
AcDbLine
 10
-1258.394808382601
 20
114.6242213893581
 30
0.0
 11
-1258.394808382601
 21
100.6241999445734
 31
0.0
  0
LINE
  5
4E6
330
1F
100
AcDbEntity
  8
1-2
  6
Continuous
 62
    92
370
     5
100
AcDbLine
 10
-1258.394808382601
 20
88.6242345861487
 30
0.0
 11
-1258.394808382601
 21
74.62421314136407
 31
0.0
  0
LINE
  5
4E7
330
1F
100
AcDbEntity
  8
1-2
  6
Continuous
 62
    92
370
     5
100
AcDbLine
 10
-1258.394808382601
 20
62.62424778293934
 30
0.0
 11
-1258.394808382601
 21
48.62410261824323
 31
0.0
  0
LINE
  5
4E8
330
1F
100
AcDbEntity
  8
1-2
  6
Continuous
 62
    92
370
     5
100
AcDbLine
 10
-1258.394808382601
 20
36.62426097972968
 30
0.0
 11
-1258.394808382601
 21
22.62411581503386
 31
0.0
  0
LINE
  5
4E9
330
1F
100
AcDbEntity
  8
1-2
  6
Continuous
 62
    92
370
     5
100
AcDbLine
 10
-938.1950584617821
 20
36.62426097972968
 30
0.0
 11
-938.1950584617821
 21
22.62411581503386
 31
0.0
  0
LINE
  5
4EA
330
1F
100
AcDbEntity
  8
1-2
  6
Continuous
 62
    92
370
     5
100
AcDbLine
 10
-938.1950584617821
 20
62.62424778293934
 30
0.0
 11
-938.1950584617821
 21
48.62410261824323
 31
0.0
  0
LINE
  5
4EB
330
1F
100
AcDbEntity
  8
1-2
  6
Continuous
 62
    92
370
     5
100
AcDbLine
 10
-938.1950584617821
 20
88.6242345861487
 30
0.0
 11
-938.1950584617821
 21
74.62421314136407
 31
0.0
  0
LINE
  5
4EC
330
1F
100
AcDbEntity
  8
1-2
  6
Continuous
 62
    92
370
     5
100
AcDbLine
 10
-938.1950584617821
 20
114.6242213893581
 30
0.0
 11
-938.1950584617821
 21
100.6241999445734
 31
0.0
  0
LINE
  5
4ED
330
1F
100
AcDbEntity
  8
1-2
  6
Continuous
 62
    92
370
     5
100
AcDbLine
 10
-938.1950584617821
 20
140.6242081925677
 30
0.0
 11
-938.1950584617821
 21
126.6241867477831
 31
0.0
  0
LINE
  5
4EE
330
1F
100
AcDbEntity
  8
1-2
  6
Continuous
 62
    92
370
     5
100
AcDbLine
 10
-938.1950584617821
 20
166.6241949957771
 30
0.0
 11
-938.1950584617821
 21
152.6241735509925
 31
0.0
  0
LINE
  5
4EF
330
1F
100
AcDbEntity
  8
1-2
  6
Continuous
 62
    92
370
     5
100
AcDbLine
 10
-938.1950584617821
 20
192.6243055188979
 30
0.0
 11
-938.1950584617821
 21
178.6241603542018
 31
0.0
  0
LINE
  5
4F0
330
1F
100
AcDbEntity
  8
1-2
  6
Continuous
 62
    92
370
     5
100
AcDbLine
 10
-938.1950584617821
 20
218.6242923221073
 30
0.0
 11
-938.1950584617821
 21
204.6242708773227
 31
0.0
  0
LINE
  5
4F1
330
1F
100
AcDbEntity
  8
1-2
  6
Continuous
 62
    92
370
     5
100
AcDbLine
 10
-938.1950584617821
 20
244.6242791253169
 30
0.0
 11
-938.1950584617821
 21
230.6242576805323
 31
0.0
  0
LINE
  5
4F2
330
1F
100
AcDbEntity
  8
1-2
  6
Continuous
 62
    92
370
     5
100
AcDbLine
 10
-938.1950584617821
 20
270.6242659285263
 30
0.0
 11
-938.1950584617821
 21
256.6242444837417
 31
0.0
  0
LINE
  5
4F3
330
1F
100
AcDbEntity
  8
1-2
  6
Continuous
 62
    92
370
     5
100
AcDbLine
 10
-938.1950584617821
 20
322.6242395349453
 30
0.0
 11
-938.1950584617821
 21
308.6242180901607
 31
0.0
  0
LINE
  5
4F4
330
1F
100
AcDbEntity
  8
1-2
  6
Continuous
 62
    92
370
     5
100
AcDbLine
 10
-938.1950584617821
 20
296.6242527317357
 30
0.0
 11
-938.1950584617821
 21
282.624231286951
 31
0.0
  0
LINE
  5
4F5
330
1F
100
AcDbEntity
  8
1-2
  6
Continuous
 62
    92
370
     5
100
AcDbLine
 10
-928.2949911581502
 20
36.62426097972968
 30
0.0
 11
-928.2949911581502
 21
22.62411581503386
 31
0.0
  0
LINE
  5
4F6
330
1F
100
AcDbEntity
  8
1-2
  6
Continuous
 62
    92
370
     5
100
AcDbLine
 10
-928.2949911581502
 20
62.62424778293934
 30
0.0
 11
-928.2949911581502
 21
48.62410261824323
 31
0.0
  0
LINE
  5
4F7
330
1F
100
AcDbEntity
  8
1-2
  6
Continuous
 62
    92
370
     5
100
AcDbLine
 10
-928.2949911581502
 20
88.6242345861487
 30
0.0
 11
-928.2949911581502
 21
74.62421314136407
 31
0.0
  0
LINE
  5
4F8
330
1F
100
AcDbEntity
  8
1-2
  6
Continuous
 62
    92
370
     5
100
AcDbLine
 10
-928.2949911581502
 20
114.6242213893581
 30
0.0
 11
-928.2949911581502
 21
100.6241999445734
 31
0.0
  0
LINE
  5
4F9
330
1F
100
AcDbEntity
  8
1-2
  6
Continuous
 62
    92
370
     5
100
AcDbLine
 10
-928.2949911581502
 20
140.6242081925677
 30
0.0
 11
-928.2949911581502
 21
126.6241867477831
 31
0.0
  0
LINE
  5
4FA
330
1F
100
AcDbEntity
  8
1-2
  6
Continuous
 62
    92
370
     5
100
AcDbLine
 10
-928.2949911581502
 20
166.6241949957771
 30
0.0
 11
-928.2949911581502
 21
152.6241735509925
 31
0.0
  0
LINE
  5
4FB
330
1F
100
AcDbEntity
  8
1-2
  6
Continuous
 62
    92
370
     5
100
AcDbLine
 10
-928.2949911581502
 20
192.6243055188979
 30
0.0
 11
-928.2949911581502
 21
178.6241603542018
 31
0.0
  0
LINE
  5
4FC
330
1F
100
AcDbEntity
  8
1-2
  6
Continuous
 62
    92
370
     5
100
AcDbLine
 10
-928.2949911581502
 20
218.6242923221073
 30
0.0
 11
-928.2949911581502
 21
204.6242708773227
 31
0.0
  0
LINE
  5
4FD
330
1F
100
AcDbEntity
  8
1-2
  6
Continuous
 62
    92
370
     5
100
AcDbLine
 10
-928.2949911581502
 20
244.6242791253169
 30
0.0
 11
-928.2949911581502
 21
230.6242576805323
 31
0.0
  0
LINE
  5
4FE
330
1F
100
AcDbEntity
  8
1-2
  6
Continuous
 62
    92
370
     5
100
AcDbLine
 10
-928.2949911581502
 20
270.6242659285263
 30
0.0
 11
-928.2949911581502
 21
256.6242444837417
 31
0.0
  0
LINE
  5
4FF
330
1F
100
AcDbEntity
  8
1-2
  6
Continuous
 62
    92
370
     5
100
AcDbLine
 10
-928.2949911581502
 20
322.6242395349453
 30
0.0
 11
-928.2949911581502
 21
308.6242180901607
 31
0.0
  0
LINE
  5
500
330
1F
100
AcDbEntity
  8
1-2
  6
Continuous
 62
    92
370
     5
100
AcDbLine
 10
-928.2949911581502
 20
296.6242527317357
 30
0.0
 11
-928.2949911581502
 21
282.624231286951
 31
0.0
  0
LINE
  5
501
330
1F
100
AcDbEntity
  8
1-2
  6
Continuous
 62
    92
370
     5
100
AcDbLine
 10
-918.3949238545185
 20
322.6242395349453
 30
0.0
 11
-918.3949238545185
 21
308.6242180901607
 31
0.0
  0
LINE
  5
502
330
1F
100
AcDbEntity
  8
1-2
  6
Continuous
 62
    92
370
     5
100
AcDbLine
 10
-918.3949238545185
 20
296.6242527317357
 30
0.0
 11
-918.3949238545185
 21
282.624231286951
 31
0.0
  0
LINE
  5
503
330
1F
100
AcDbEntity
  8
1-2
  6
Continuous
 62
    92
370
     5
100
AcDbLine
 10
-918.3949238545185
 20
270.6242659285263
 30
0.0
 11
-918.3949238545185
 21
256.6242444837417
 31
0.0
  0
LINE
  5
504
330
1F
100
AcDbEntity
  8
1-2
  6
Continuous
 62
    92
370
     5
100
AcDbLine
 10
-918.3949238545185
 20
244.6242791253169
 30
0.0
 11
-918.3949238545185
 21
230.6242576805323
 31
0.0
  0
LINE
  5
505
330
1F
100
AcDbEntity
  8
1-2
  6
Continuous
 62
    92
370
     5
100
AcDbLine
 10
-918.3949238545185
 20
218.6242923221073
 30
0.0
 11
-918.3949238545185
 21
204.6242708773227
 31
0.0
  0
LINE
  5
506
330
1F
100
AcDbEntity
  8
1-2
  6
Continuous
 62
    92
370
     5
100
AcDbLine
 10
-918.3949238545185
 20
192.6243055188979
 30
0.0
 11
-918.3949238545185
 21
178.6241603542018
 31
0.0
  0
LINE
  5
507
330
1F
100
AcDbEntity
  8
1-2
  6
Continuous
 62
    92
370
     5
100
AcDbLine
 10
-918.3949238545185
 20
166.6241949957771
 30
0.0
 11
-918.3949238545185
 21
152.6241735509925
 31
0.0
  0
LINE
  5
508
330
1F
100
AcDbEntity
  8
1-2
  6
Continuous
 62
    92
370
     5
100
AcDbLine
 10
-918.3949238545185
 20
140.6242081925677
 30
0.0
 11
-918.3949238545185
 21
126.6241867477831
 31
0.0
  0
LINE
  5
509
330
1F
100
AcDbEntity
  8
1-2
  6
Continuous
 62
    92
370
     5
100
AcDbLine
 10
-918.3949238545185
 20
114.6242213893581
 30
0.0
 11
-918.3949238545185
 21
100.6241999445734
 31
0.0
  0
LINE
  5
50A
330
1F
100
AcDbEntity
  8
1-2
  6
Continuous
 62
    92
370
     5
100
AcDbLine
 10
-918.3949238545185
 20
88.6242345861487
 30
0.0
 11
-918.3949238545185
 21
74.62421314136407
 31
0.0
  0
LINE
  5
50B
330
1F
100
AcDbEntity
  8
1-2
  6
Continuous
 62
    92
370
     5
100
AcDbLine
 10
-918.3949238545185
 20
62.62424778293934
 30
0.0
 11
-918.3949238545185
 21
48.62410261824323
 31
0.0
  0
LINE
  5
50C
330
1F
100
AcDbEntity
  8
1-2
  6
Continuous
 62
    92
370
     5
100
AcDbLine
 10
-918.3949238545185
 20
36.62426097972968
 30
0.0
 11
-918.3949238545185
 21
22.62411581503386
 31
0.0
  0
LINE
  5
50D
330
1F
100
AcDbEntity
  8
1-2
  6
Continuous
 62
    92
370
     5
100
AcDbLine
 10
-670.1949660842481
 20
36.62426097972968
 30
0.0
 11
-670.1949660842481
 21
22.62411581503386
 31
0.0
  0
LINE
  5
50E
330
1F
100
AcDbEntity
  8
1-2
  6
Continuous
 62
    92
370
     5
100
AcDbLine
 10
-670.1949660842481
 20
62.62424778293934
 30
0.0
 11
-670.1949660842481
 21
48.62410261824323
 31
0.0
  0
LINE
  5
50F
330
1F
100
AcDbEntity
  8
1-2
  6
Continuous
 62
    92
370
     5
100
AcDbLine
 10
-670.1949660842481
 20
88.6242345861487
 30
0.0
 11
-670.1949660842481
 21
74.62421314136407
 31
0.0
  0
LINE
  5
510
330
1F
100
AcDbEntity
  8
1-2
  6
Continuous
 62
    92
370
     5
100
AcDbLine
 10
-670.1949660842481
 20
114.6242213893581
 30
0.0
 11
-670.1949660842481
 21
100.6241999445734
 31
0.0
  0
LINE
  5
511
330
1F
100
AcDbEntity
  8
1-2
  6
Continuous
 62
    92
370
     5
100
AcDbLine
 10
-670.1949660842481
 20
140.6242081925677
 30
0.0
 11
-670.1949660842481
 21
126.6241867477831
 31
0.0
  0
LINE
  5
512
330
1F
100
AcDbEntity
  8
1-2
  6
Continuous
 62
    92
370
     5
100
AcDbLine
 10
-670.1949660842481
 20
166.6241949957771
 30
0.0
 11
-670.1949660842481
 21
152.6241735509925
 31
0.0
  0
LINE
  5
513
330
1F
100
AcDbEntity
  8
1-2
  6
Continuous
 62
    92
370
     5
100
AcDbLine
 10
-670.1949660842481
 20
192.6243055188979
 30
0.0
 11
-670.1949660842481
 21
178.6241603542018
 31
0.0
  0
LINE
  5
514
330
1F
100
AcDbEntity
  8
1-2
  6
Continuous
 62
    92
370
     5
100
AcDbLine
 10
-670.1949660842481
 20
218.6242923221073
 30
0.0
 11
-670.1949660842481
 21
204.6242708773227
 31
0.0
  0
LINE
  5
515
330
1F
100
AcDbEntity
  8
1-2
  6
Continuous
 62
    92
370
     5
100
AcDbLine
 10
-670.1949660842481
 20
244.6242791253169
 30
0.0
 11
-670.1949660842481
 21
230.6242576805323
 31
0.0
  0
LINE
  5
516
330
1F
100
AcDbEntity
  8
1-2
  6
Continuous
 62
    92
370
     5
100
AcDbLine
 10
-670.1949660842481
 20
270.6242659285263
 30
0.0
 11
-670.1949660842481
 21
256.6242444837417
 31
0.0
  0
LINE
  5
517
330
1F
100
AcDbEntity
  8
1-2
  6
Continuous
 62
    92
370
     5
100
AcDbLine
 10
-670.1949660842481
 20
322.6242395349453
 30
0.0
 11
-670.1949660842481
 21
308.6242180901607
 31
0.0
  0
LINE
  5
518
330
1F
100
AcDbEntity
  8
1-2
  6
Continuous
 62
    92
370
     5
100
AcDbLine
 10
-670.1949660842481
 20
296.6242527317357
 30
0.0
 11
-670.1949660842481
 21
282.624231286951
 31
0.0
  0
LINE
  5
519
330
1F
100
AcDbEntity
  8
1-2
  6
Continuous
 62
    92
370
     5
100
AcDbLine
 10
-660.2948987806164
 20
36.62426097972968
 30
0.0
 11
-660.2948987806164
 21
22.62411581503386
 31
0.0
  0
LINE
  5
51A
330
1F
100
AcDbEntity
  8
1-2
  6
Continuous
 62
    92
370
     5
100
AcDbLine
 10
-660.2948987806164
 20
62.62424778293934
 30
0.0
 11
-660.2948987806164
 21
48.62410261824323
 31
0.0
  0
LINE
  5
51B
330
1F
100
AcDbEntity
  8
1-2
  6
Continuous
 62
    92
370
     5
100
AcDbLine
 10
-660.2948987806164
 20
88.6242345861487
 30
0.0
 11
-660.2948987806164
 21
74.62421314136407
 31
0.0
  0
LINE
  5
51C
330
1F
100
AcDbEntity
  8
1-2
  6
Continuous
 62
    92
370
     5
100
AcDbLine
 10
-660.2948987806164
 20
114.6242213893581
 30
0.0
 11
-660.2948987806164
 21
100.6241999445734
 31
0.0
  0
LINE
  5
51D
330
1F
100
AcDbEntity
  8
1-2
  6
Continuous
 62
    92
370
     5
100
AcDbLine
 10
-660.2948987806164
 20
140.6242081925677
 30
0.0
 11
-660.2948987806164
 21
126.6241867477831
 31
0.0
  0
LINE
  5
51E
330
1F
100
AcDbEntity
  8
1-2
  6
Continuous
 62
    92
370
     5
100
AcDbLine
 10
-660.2948987806164
 20
166.6241949957771
 30
0.0
 11
-660.2948987806164
 21
152.6241735509925
 31
0.0
  0
LINE
  5
51F
330
1F
100
AcDbEntity
  8
1-2
  6
Continuous
 62
    92
370
     5
100
AcDbLine
 10
-660.2948987806164
 20
192.6243055188979
 30
0.0
 11
-660.2948987806164
 21
178.6241603542018
 31
0.0
  0
LINE
  5
520
330
1F
100
AcDbEntity
  8
1-2
  6
Continuous
 62
    92
370
     5
100
AcDbLine
 10
-660.2948987806164
 20
218.6242923221073
 30
0.0
 11
-660.2948987806164
 21
204.6242708773227
 31
0.0
  0
LINE
  5
521
330
1F
100
AcDbEntity
  8
1-2
  6
Continuous
 62
    92
370
     5
100
AcDbLine
 10
-660.2948987806164
 20
244.6242791253169
 30
0.0
 11
-660.2948987806164
 21
230.6242576805323
 31
0.0
  0
LINE
  5
522
330
1F
100
AcDbEntity
  8
1-2
  6
Continuous
 62
    92
370
     5
100
AcDbLine
 10
-660.2948987806164
 20
270.6242659285263
 30
0.0
 11
-660.2948987806164
 21
256.6242444837417
 31
0.0
  0
LINE
  5
523
330
1F
100
AcDbEntity
  8
1-2
  6
Continuous
 62
    92
370
     5
100
AcDbLine
 10
-660.2948987806164
 20
322.6242395349453
 30
0.0
 11
-660.2948987806164
 21
308.6242180901607
 31
0.0
  0
LINE
  5
524
330
1F
100
AcDbEntity
  8
1-2
  6
Continuous
 62
    92
370
     5
100
AcDbLine
 10
-660.2948987806164
 20
296.6242527317357
 30
0.0
 11
-660.2948987806164
 21
282.624231286951
 31
0.0
  0
LINE
  5
525
330
1F
100
AcDbEntity
  8
1-2
  6
Continuous
 62
    92
370
     5
100
AcDbLine
 10
-650.3948314769846
 20
322.6242395349453
 30
0.0
 11
-650.3948314769846
 21
308.6242180901607
 31
0.0
  0
LINE
  5
526
330
1F
100
AcDbEntity
  8
1-2
  6
Continuous
 62
    92
370
     5
100
AcDbLine
 10
-650.3948314769846
 20
296.6242527317357
 30
0.0
 11
-650.3948314769846
 21
282.624231286951
 31
0.0
  0
LINE
  5
527
330
1F
100
AcDbEntity
  8
1-2
  6
Continuous
 62
    92
370
     5
100
AcDbLine
 10
-650.3948314769846
 20
270.6242659285263
 30
0.0
 11
-650.3948314769846
 21
256.6242444837417
 31
0.0
  0
LINE
  5
528
330
1F
100
AcDbEntity
  8
1-2
  6
Continuous
 62
    92
370
     5
100
AcDbLine
 10
-650.3948314769846
 20
244.6242791253169
 30
0.0
 11
-650.3948314769846
 21
230.6242576805323
 31
0.0
  0
LINE
  5
529
330
1F
100
AcDbEntity
  8
1-2
  6
Continuous
 62
    92
370
     5
100
AcDbLine
 10
-650.3948314769846
 20
218.6242923221073
 30
0.0
 11
-650.3948314769846
 21
204.6242708773227
 31
0.0
  0
LINE
  5
52A
330
1F
100
AcDbEntity
  8
1-2
  6
Continuous
 62
    92
370
     5
100
AcDbLine
 10
-650.3948314769846
 20
192.6243055188979
 30
0.0
 11
-650.3948314769846
 21
178.6241603542018
 31
0.0
  0
LINE
  5
52B
330
1F
100
AcDbEntity
  8
1-2
  6
Continuous
 62
    92
370
     5
100
AcDbLine
 10
-650.3948314769846
 20
166.6241949957771
 30
0.0
 11
-650.3948314769846
 21
152.6241735509925
 31
0.0
  0
LINE
  5
52C
330
1F
100
AcDbEntity
  8
1-2
  6
Continuous
 62
    92
370
     5
100
AcDbLine
 10
-650.3948314769846
 20
140.6242081925677
 30
0.0
 11
-650.3948314769846
 21
126.6241867477831
 31
0.0
  0
LINE
  5
52D
330
1F
100
AcDbEntity
  8
1-2
  6
Continuous
 62
    92
370
     5
100
AcDbLine
 10
-650.3948314769846
 20
114.6242213893581
 30
0.0
 11
-650.3948314769846
 21
100.6241999445734
 31
0.0
  0
LINE
  5
52E
330
1F
100
AcDbEntity
  8
1-2
  6
Continuous
 62
    92
370
     5
100
AcDbLine
 10
-650.3948314769846
 20
88.6242345861487
 30
0.0
 11
-650.3948314769846
 21
74.62421314136407
 31
0.0
  0
LINE
  5
52F
330
1F
100
AcDbEntity
  8
1-2
  6
Continuous
 62
    92
370
     5
100
AcDbLine
 10
-650.3948314769846
 20
62.62424778293934
 30
0.0
 11
-650.3948314769846
 21
48.62410261824323
 31
0.0
  0
LINE
  5
530
330
1F
100
AcDbEntity
  8
1-2
  6
Continuous
 62
    92
370
     5
100
AcDbLine
 10
-650.3948314769846
 20
36.62426097972968
 30
0.0
 11
-650.3948314769846
 21
22.62411581503386
 31
0.0
  0
LINE
  5
531
330
1F
100
AcDbEntity
  8
1-2
  6
Continuous
 62
    92
370
     5
100
AcDbLine
 10
-330.1950815561653
 20
36.62426097972968
 30
0.0
 11
-330.1950815561653
 21
22.62411581503386
 31
0.0
  0
LINE
  5
532
330
1F
100
AcDbEntity
  8
1-2
  6
Continuous
 62
    92
370
     5
100
AcDbLine
 10
-330.1950815561653
 20
62.62424778293934
 30
0.0
 11
-330.1950815561653
 21
48.62410261824323
 31
0.0
  0
LINE
  5
533
330
1F
100
AcDbEntity
  8
1-2
  6
Continuous
 62
    92
370
     5
100
AcDbLine
 10
-330.1950815561653
 20
88.6242345861487
 30
0.0
 11
-330.1950815561653
 21
74.62421314136407
 31
0.0
  0
LINE
  5
534
330
1F
100
AcDbEntity
  8
1-2
  6
Continuous
 62
    92
370
     5
100
AcDbLine
 10
-330.1950815561653
 20
114.6242213893581
 30
0.0
 11
-330.1950815561653
 21
100.6241999445734
 31
0.0
  0
LINE
  5
535
330
1F
100
AcDbEntity
  8
1-2
  6
Continuous
 62
    92
370
     5
100
AcDbLine
 10
-330.1950815561653
 20
140.6242081925677
 30
0.0
 11
-330.1950815561653
 21
126.6241867477831
 31
0.0
  0
LINE
  5
536
330
1F
100
AcDbEntity
  8
1-2
  6
Continuous
 62
    92
370
     5
100
AcDbLine
 10
-330.1950815561653
 20
166.6241949957771
 30
0.0
 11
-330.1950815561653
 21
152.6241735509925
 31
0.0
  0
LINE
  5
537
330
1F
100
AcDbEntity
  8
1-2
  6
Continuous
 62
    92
370
     5
100
AcDbLine
 10
-330.1950815561653
 20
192.6243055188979
 30
0.0
 11
-330.1950815561653
 21
178.6241603542018
 31
0.0
  0
LINE
  5
538
330
1F
100
AcDbEntity
  8
1-2
  6
Continuous
 62
    92
370
     5
100
AcDbLine
 10
-330.1950815561653
 20
218.6242923221073
 30
0.0
 11
-330.1950815561653
 21
204.6242708773227
 31
0.0
  0
LINE
  5
539
330
1F
100
AcDbEntity
  8
1-2
  6
Continuous
 62
    92
370
     5
100
AcDbLine
 10
-330.1950815561653
 20
244.6242791253169
 30
0.0
 11
-330.1950815561653
 21
230.6242576805323
 31
0.0
  0
LINE
  5
53A
330
1F
100
AcDbEntity
  8
1-2
  6
Continuous
 62
    92
370
     5
100
AcDbLine
 10
-330.1950815561653
 20
270.6242659285263
 30
0.0
 11
-330.1950815561653
 21
256.6242444837417
 31
0.0
  0
LINE
  5
53B
330
1F
100
AcDbEntity
  8
1-2
  6
Continuous
 62
    92
370
     5
100
AcDbLine
 10
-330.1950815561653
 20
322.6242395349453
 30
0.0
 11
-330.1950815561653
 21
308.6242180901607
 31
0.0
  0
LINE
  5
53C
330
1F
100
AcDbEntity
  8
1-2
  6
Continuous
 62
    92
370
     5
100
AcDbLine
 10
-330.1950815561653
 20
296.6242527317357
 30
0.0
 11
-330.1950815561653
 21
282.624231286951
 31
0.0
  0
LINE
  5
53D
330
1F
100
AcDbEntity
  8
1-2
  6
Continuous
 62
    92
370
     5
100
AcDbLine
 10
-320.2950142525336
 20
36.62426097972968
 30
0.0
 11
-320.2950142525336
 21
22.62411581503386
 31
0.0
  0
LINE
  5
53E
330
1F
100
AcDbEntity
  8
1-2
  6
Continuous
 62
    92
370
     5
100
AcDbLine
 10
-320.2950142525336
 20
62.62424778293934
 30
0.0
 11
-320.2950142525336
 21
48.62410261824323
 31
0.0
  0
LINE
  5
53F
330
1F
100
AcDbEntity
  8
1-2
  6
Continuous
 62
    92
370
     5
100
AcDbLine
 10
-320.2950142525336
 20
88.6242345861487
 30
0.0
 11
-320.2950142525336
 21
74.62421314136407
 31
0.0
  0
LINE
  5
540
330
1F
100
AcDbEntity
  8
1-2
  6
Continuous
 62
    92
370
     5
100
AcDbLine
 10
-320.2950142525336
 20
114.6242213893581
 30
0.0
 11
-320.2950142525336
 21
100.6241999445734
 31
0.0
  0
LINE
  5
541
330
1F
100
AcDbEntity
  8
1-2
  6
Continuous
 62
    92
370
     5
100
AcDbLine
 10
-320.2950142525336
 20
140.6242081925677
 30
0.0
 11
-320.2950142525336
 21
126.6241867477831
 31
0.0
  0
LINE
  5
542
330
1F
100
AcDbEntity
  8
1-2
  6
Continuous
 62
    92
370
     5
100
AcDbLine
 10
-320.2950142525336
 20
166.6241949957771
 30
0.0
 11
-320.2950142525336
 21
152.6241735509925
 31
0.0
  0
LINE
  5
543
330
1F
100
AcDbEntity
  8
1-2
  6
Continuous
 62
    92
370
     5
100
AcDbLine
 10
-320.2950142525336
 20
192.6243055188979
 30
0.0
 11
-320.2950142525336
 21
178.6241603542018
 31
0.0
  0
LINE
  5
544
330
1F
100
AcDbEntity
  8
1-2
  6
Continuous
 62
    92
370
     5
100
AcDbLine
 10
-320.2950142525336
 20
218.6242923221073
 30
0.0
 11
-320.2950142525336
 21
204.6242708773227
 31
0.0
  0
LINE
  5
545
330
1F
100
AcDbEntity
  8
1-2
  6
Continuous
 62
    92
370
     5
100
AcDbLine
 10
-320.2950142525336
 20
244.6242791253169
 30
0.0
 11
-320.2950142525336
 21
230.6242576805323
 31
0.0
  0
LINE
  5
546
330
1F
100
AcDbEntity
  8
1-2
  6
Continuous
 62
    92
370
     5
100
AcDbLine
 10
-320.2950142525336
 20
270.6242659285263
 30
0.0
 11
-320.2950142525336
 21
256.6242444837417
 31
0.0
  0
LINE
  5
547
330
1F
100
AcDbEntity
  8
1-2
  6
Continuous
 62
    92
370
     5
100
AcDbLine
 10
-320.2950142525336
 20
322.6242395349453
 30
0.0
 11
-320.2950142525336
 21
308.6242180901607
 31
0.0
  0
LINE
  5
548
330
1F
100
AcDbEntity
  8
1-2
  6
Continuous
 62
    92
370
     5
100
AcDbLine
 10
-320.2950142525336
 20
296.6242527317357
 30
0.0
 11
-320.2950142525336
 21
282.624231286951
 31
0.0
  0
LINE
  5
549
330
1F
100
AcDbEntity
  8
1-2
  6
Continuous
 62
    92
370
     5
100
AcDbLine
 10
-310.3949469489018
 20
322.6242395349453
 30
0.0
 11
-310.3949469489018
 21
308.6242180901607
 31
0.0
  0
LINE
  5
54A
330
1F
100
AcDbEntity
  8
1-2
  6
Continuous
 62
    92
370
     5
100
AcDbLine
 10
-310.3949469489018
 20
296.6242527317357
 30
0.0
 11
-310.3949469489018
 21
282.624231286951
 31
0.0
  0
LINE
  5
54B
330
1F
100
AcDbEntity
  8
1-2
  6
Continuous
 62
    92
370
     5
100
AcDbLine
 10
-310.3949469489018
 20
270.6242659285263
 30
0.0
 11
-310.3949469489018
 21
256.6242444837417
 31
0.0
  0
LINE
  5
54C
330
1F
100
AcDbEntity
  8
1-2
  6
Continuous
 62
    92
370
     5
100
AcDbLine
 10
-310.3949469489018
 20
244.6242791253169
 30
0.0
 11
-310.3949469489018
 21
230.6242576805323
 31
0.0
  0
LINE
  5
54D
330
1F
100
AcDbEntity
  8
1-2
  6
Continuous
 62
    92
370
     5
100
AcDbLine
 10
-310.3949469489018
 20
218.6242923221073
 30
0.0
 11
-310.3949469489018
 21
204.6242708773227
 31
0.0
  0
LINE
  5
54E
330
1F
100
AcDbEntity
  8
1-2
  6
Continuous
 62
    92
370
     5
100
AcDbLine
 10
-310.3949469489018
 20
192.6243055188979
 30
0.0
 11
-310.3949469489018
 21
178.6241603542018
 31
0.0
  0
LINE
  5
54F
330
1F
100
AcDbEntity
  8
1-2
  6
Continuous
 62
    92
370
     5
100
AcDbLine
 10
-310.3949469489018
 20
166.6241949957771
 30
0.0
 11
-310.3949469489018
 21
152.6241735509925
 31
0.0
  0
LINE
  5
550
330
1F
100
AcDbEntity
  8
1-2
  6
Continuous
 62
    92
370
     5
100
AcDbLine
 10
-310.3949469489018
 20
140.6242081925677
 30
0.0
 11
-310.3949469489018
 21
126.6241867477831
 31
0.0
  0
LINE
  5
551
330
1F
100
AcDbEntity
  8
1-2
  6
Continuous
 62
    92
370
     5
100
AcDbLine
 10
-310.3949469489018
 20
114.6242213893581
 30
0.0
 11
-310.3949469489018
 21
100.6241999445734
 31
0.0
  0
LINE
  5
552
330
1F
100
AcDbEntity
  8
1-2
  6
Continuous
 62
    92
370
     5
100
AcDbLine
 10
-310.3949469489018
 20
88.6242345861487
 30
0.0
 11
-310.3949469489018
 21
74.62421314136407
 31
0.0
  0
LINE
  5
553
330
1F
100
AcDbEntity
  8
1-2
  6
Continuous
 62
    92
370
     5
100
AcDbLine
 10
-310.3949469489018
 20
62.62424778293934
 30
0.0
 11
-310.3949469489018
 21
48.62410261824323
 31
0.0
  0
LINE
  5
554
330
1F
100
AcDbEntity
  8
1-2
  6
Continuous
 62
    92
370
     5
100
AcDbLine
 10
-310.3949469489018
 20
36.62426097972968
 30
0.0
 11
-310.3949469489018
 21
22.62411581503386
 31
0.0
  0
LINE
  5
555
330
1F
100
AcDbEntity
  8
1-2
  6
Continuous
 62
    92
370
     5
100
AcDbLine
 10
-34.19519372888516
 20
36.62426097972968
 30
0.0
 11
-34.19519372888516
 21
22.62411581503386
 31
0.0
  0
LINE
  5
556
330
1F
100
AcDbEntity
  8
1-2
  6
Continuous
 62
    92
370
     5
100
AcDbLine
 10
-34.19519372888516
 20
62.62424778293934
 30
0.0
 11
-34.19519372888516
 21
48.62410261824323
 31
0.0
  0
LINE
  5
557
330
1F
100
AcDbEntity
  8
1-2
  6
Continuous
 62
    92
370
     5
100
AcDbLine
 10
-34.19519372888516
 20
88.6242345861487
 30
0.0
 11
-34.19519372888516
 21
74.62421314136407
 31
0.0
  0
LINE
  5
558
330
1F
100
AcDbEntity
  8
1-2
  6
Continuous
 62
    92
370
     5
100
AcDbLine
 10
-34.19519372888516
 20
114.6242213893581
 30
0.0
 11
-34.19519372888516
 21
100.6241999445734
 31
0.0
  0
LINE
  5
559
330
1F
100
AcDbEntity
  8
1-2
  6
Continuous
 62
    92
370
     5
100
AcDbLine
 10
-34.19519372888516
 20
140.6242081925677
 30
0.0
 11
-34.19519372888516
 21
126.6241867477831
 31
0.0
  0
LINE
  5
55A
330
1F
100
AcDbEntity
  8
1-2
  6
Continuous
 62
    92
370
     5
100
AcDbLine
 10
-34.19519372888516
 20
166.6241949957771
 30
0.0
 11
-34.19519372888516
 21
152.6241735509925
 31
0.0
  0
LINE
  5
55B
330
1F
100
AcDbEntity
  8
1-2
  6
Continuous
 62
    92
370
     5
100
AcDbLine
 10
-34.19519372888516
 20
192.6243055188979
 30
0.0
 11
-34.19519372888516
 21
178.6241603542018
 31
0.0
  0
LINE
  5
55C
330
1F
100
AcDbEntity
  8
1-2
  6
Continuous
 62
    92
370
     5
100
AcDbLine
 10
-34.19519372888516
 20
218.6242923221073
 30
0.0
 11
-34.19519372888516
 21
204.6242708773227
 31
0.0
  0
LINE
  5
55D
330
1F
100
AcDbEntity
  8
1-2
  6
Continuous
 62
    92
370
     5
100
AcDbLine
 10
-34.19519372888516
 20
244.6242791253169
 30
0.0
 11
-34.19519372888516
 21
230.6242576805323
 31
0.0
  0
LINE
  5
55E
330
1F
100
AcDbEntity
  8
1-2
  6
Continuous
 62
    92
370
     5
100
AcDbLine
 10
-34.19519372888516
 20
270.6242659285263
 30
0.0
 11
-34.19519372888516
 21
256.6242444837417
 31
0.0
  0
LINE
  5
55F
330
1F
100
AcDbEntity
  8
1-2
  6
Continuous
 62
    92
370
     5
100
AcDbLine
 10
-34.19519372888516
 20
322.6242395349453
 30
0.0
 11
-34.19519372888516
 21
308.6242180901607
 31
0.0
  0
LINE
  5
560
330
1F
100
AcDbEntity
  8
1-2
  6
Continuous
 62
    92
370
     5
100
AcDbLine
 10
-34.19519372888516
 20
296.6242527317357
 30
0.0
 11
-34.19519372888516
 21
282.624231286951
 31
0.0
  0
LINE
  5
561
330
1F
100
AcDbEntity
  8
1-2
  6
Continuous
 62
    92
370
     5
100
AcDbLine
 10
-24.29512642525339
 20
36.62426097972968
 30
0.0
 11
-24.29512642525339
 21
22.62411581503386
 31
0.0
  0
LINE
  5
562
330
1F
100
AcDbEntity
  8
1-2
  6
Continuous
 62
    92
370
     5
100
AcDbLine
 10
-24.29512642525339
 20
62.62424778293934
 30
0.0
 11
-24.29512642525339
 21
48.62410261824323
 31
0.0
  0
LINE
  5
563
330
1F
100
AcDbEntity
  8
1-2
  6
Continuous
 62
    92
370
     5
100
AcDbLine
 10
-24.29512642525339
 20
88.6242345861487
 30
0.0
 11
-24.29512642525339
 21
74.62421314136407
 31
0.0
  0
LINE
  5
564
330
1F
100
AcDbEntity
  8
1-2
  6
Continuous
 62
    92
370
     5
100
AcDbLine
 10
-24.29512642525339
 20
114.6242213893581
 30
0.0
 11
-24.29512642525339
 21
100.6241999445734
 31
0.0
  0
LINE
  5
565
330
1F
100
AcDbEntity
  8
1-2
  6
Continuous
 62
    92
370
     5
100
AcDbLine
 10
-24.29512642525339
 20
140.6242081925677
 30
0.0
 11
-24.29512642525339
 21
126.6241867477831
 31
0.0
  0
LINE
  5
566
330
1F
100
AcDbEntity
  8
1-2
  6
Continuous
 62
    92
370
     5
100
AcDbLine
 10
-24.29512642525339
 20
166.6241949957771
 30
0.0
 11
-24.29512642525339
 21
152.6241735509925
 31
0.0
  0
LINE
  5
567
330
1F
100
AcDbEntity
  8
1-2
  6
Continuous
 62
    92
370
     5
100
AcDbLine
 10
-24.29512642525339
 20
192.6243055188979
 30
0.0
 11
-24.29512642525339
 21
178.6241603542018
 31
0.0
  0
LINE
  5
568
330
1F
100
AcDbEntity
  8
1-2
  6
Continuous
 62
    92
370
     5
100
AcDbLine
 10
-24.29512642525339
 20
218.6242923221073
 30
0.0
 11
-24.29512642525339
 21
204.6242708773227
 31
0.0
  0
LINE
  5
569
330
1F
100
AcDbEntity
  8
1-2
  6
Continuous
 62
    92
370
     5
100
AcDbLine
 10
-24.29512642525339
 20
244.6242791253169
 30
0.0
 11
-24.29512642525339
 21
230.6242576805323
 31
0.0
  0
LINE
  5
56A
330
1F
100
AcDbEntity
  8
1-2
  6
Continuous
 62
    92
370
     5
100
AcDbLine
 10
-24.29512642525339
 20
270.6242659285263
 30
0.0
 11
-24.29512642525339
 21
256.6242444837417
 31
0.0
  0
LINE
  5
56B
330
1F
100
AcDbEntity
  8
1-2
  6
Continuous
 62
    92
370
     5
100
AcDbLine
 10
-24.29512642525339
 20
322.6242395349453
 30
0.0
 11
-24.29512642525339
 21
308.6242180901607
 31
0.0
  0
LINE
  5
56C
330
1F
100
AcDbEntity
  8
1-2
  6
Continuous
 62
    92
370
     5
100
AcDbLine
 10
-24.29512642525339
 20
296.6242527317357
 30
0.0
 11
-24.29512642525339
 21
282.624231286951
 31
0.0
  0
LINE
  5
56D
330
1F
100
AcDbEntity
  8
1-2
  6
Continuous
 62
    92
370
     5
100
AcDbLine
 10
-14.39505912162161
 20
322.6242395349453
 30
0.0
 11
-14.39505912162161
 21
308.6242180901607
 31
0.0
  0
LINE
  5
56E
330
1F
100
AcDbEntity
  8
1-2
  6
Continuous
 62
    92
370
     5
100
AcDbLine
 10
-14.39505912162161
 20
296.6242527317357
 30
0.0
 11
-14.39505912162161
 21
282.624231286951
 31
0.0
  0
LINE
  5
56F
330
1F
100
AcDbEntity
  8
1-2
  6
Continuous
 62
    92
370
     5
100
AcDbLine
 10
-14.39505912162161
 20
270.6242659285263
 30
0.0
 11
-14.39505912162161
 21
256.6242444837417
 31
0.0
  0
LINE
  5
570
330
1F
100
AcDbEntity
  8
1-2
  6
Continuous
 62
    92
370
     5
100
AcDbLine
 10
-14.39505912162161
 20
244.6242791253169
 30
0.0
 11
-14.39505912162161
 21
230.6242576805323
 31
0.0
  0
LINE
  5
571
330
1F
100
AcDbEntity
  8
1-2
  6
Continuous
 62
    92
370
     5
100
AcDbLine
 10
-14.39505912162161
 20
218.6242923221073
 30
0.0
 11
-14.39505912162161
 21
204.6242708773227
 31
0.0
  0
LINE
  5
572
330
1F
100
AcDbEntity
  8
1-2
  6
Continuous
 62
    92
370
     5
100
AcDbLine
 10
-14.39505912162161
 20
192.6243055188979
 30
0.0
 11
-14.39505912162161
 21
178.6241603542018
 31
0.0
  0
LINE
  5
573
330
1F
100
AcDbEntity
  8
1-2
  6
Continuous
 62
    92
370
     5
100
AcDbLine
 10
-14.39505912162161
 20
166.6241949957771
 30
0.0
 11
-14.39505912162161
 21
152.6241735509925
 31
0.0
  0
LINE
  5
574
330
1F
100
AcDbEntity
  8
1-2
  6
Continuous
 62
    92
370
     5
100
AcDbLine
 10
-14.39505912162161
 20
140.6242081925677
 30
0.0
 11
-14.39505912162161
 21
126.6241867477831
 31
0.0
  0
LINE
  5
575
330
1F
100
AcDbEntity
  8
1-2
  6
Continuous
 62
    92
370
     5
100
AcDbLine
 10
-14.39505912162161
 20
114.6242213893581
 30
0.0
 11
-14.39505912162161
 21
100.6241999445734
 31
0.0
  0
LINE
  5
576
330
1F
100
AcDbEntity
  8
1-2
  6
Continuous
 62
    92
370
     5
100
AcDbLine
 10
-14.39505912162161
 20
88.6242345861487
 30
0.0
 11
-14.39505912162161
 21
74.62421314136407
 31
0.0
  0
LINE
  5
577
330
1F
100
AcDbEntity
  8
1-2
  6
Continuous
 62
    92
370
     5
100
AcDbLine
 10
-14.39505912162161
 20
62.62424778293934
 30
0.0
 11
-14.39505912162161
 21
48.62410261824323
 31
0.0
  0
LINE
  5
578
330
1F
100
AcDbEntity
  8
1-2
  6
Continuous
 62
    92
370
     5
100
AcDbLine
 10
-14.39505912162161
 20
36.62426097972968
 30
0.0
 11
-14.39505912162161
 21
22.62411581503386
 31
0.0
  0
LINE
  5
579
330
1F
100
AcDbEntity
  8
1-2
  6
Continuous
 62
    92
370
     5
100
AcDbLine
 10
-1278.194942989865
 20
348.6242263381547
 30
0.0
 11
-1278.194942989865
 21
334.6242048933701
 31
0.0
  0
LINE
  5
57A
330
1F
100
AcDbEntity
  8
1-2
  6
Continuous
 62
    92
370
     5
100
AcDbLine
 10
-1268.295123126056
 20
348.6242263381547
 30
0.0
 11
-1268.295123126056
 21
334.6242048933701
 31
0.0
  0
LINE
  5
57B
330
1F
100
AcDbEntity
  8
1-2
  6
Continuous
 62
    92
370
     5
100
AcDbLine
 10
-1258.394808382601
 20
348.6242263381547
 30
0.0
 11
-1258.394808382601
 21
334.6242048933701
 31
0.0
  0
LINE
  5
57C
330
1F
100
AcDbEntity
  8
1-2
  6
Continuous
 62
    92
370
     5
100
AcDbLine
 10
-938.1950584617821
 20
348.6242263381547
 30
0.0
 11
-938.1950584617821
 21
334.6242048933701
 31
0.0
  0
LINE
  5
57D
330
1F
100
AcDbEntity
  8
1-2
  6
Continuous
 62
    92
370
     5
100
AcDbLine
 10
-928.2949911581502
 20
348.6242263381547
 30
0.0
 11
-928.2949911581502
 21
334.6242048933701
 31
0.0
  0
LINE
  5
57E
330
1F
100
AcDbEntity
  8
1-2
  6
Continuous
 62
    92
370
     5
100
AcDbLine
 10
-918.3949238545185
 20
348.6242263381547
 30
0.0
 11
-918.3949238545185
 21
334.6242048933701
 31
0.0
  0
LINE
  5
57F
330
1F
100
AcDbEntity
  8
1-2
  6
Continuous
 62
    92
370
     5
100
AcDbLine
 10
-670.1949660842481
 20
348.6242263381547
 30
0.0
 11
-670.1949660842481
 21
334.6242048933701
 31
0.0
  0
LINE
  5
580
330
1F
100
AcDbEntity
  8
1-2
  6
Continuous
 62
    92
370
     5
100
AcDbLine
 10
-660.2948987806164
 20
348.6242263381547
 30
0.0
 11
-660.2948987806164
 21
334.6242048933701
 31
0.0
  0
LINE
  5
581
330
1F
100
AcDbEntity
  8
1-2
  6
Continuous
 62
    92
370
     5
100
AcDbLine
 10
-650.3948314769846
 20
348.6242263381547
 30
0.0
 11
-650.3948314769846
 21
334.6242048933701
 31
0.0
  0
LINE
  5
582
330
1F
100
AcDbEntity
  8
1-2
  6
Continuous
 62
    92
370
     5
100
AcDbLine
 10
-330.1950815561653
 20
348.6242263381547
 30
0.0
 11
-330.1950815561653
 21
334.6242048933701
 31
0.0
  0
LINE
  5
583
330
1F
100
AcDbEntity
  8
1-2
  6
Continuous
 62
    92
370
     5
100
AcDbLine
 10
-320.2950142525336
 20
348.6242263381547
 30
0.0
 11
-320.2950142525336
 21
334.6242048933701
 31
0.0
  0
LINE
  5
584
330
1F
100
AcDbEntity
  8
1-2
  6
Continuous
 62
    92
370
     5
100
AcDbLine
 10
-310.3949469489018
 20
348.6242263381547
 30
0.0
 11
-310.3949469489018
 21
334.6242048933701
 31
0.0
  0
LINE
  5
585
330
1F
100
AcDbEntity
  8
1-2
  6
Continuous
 62
    92
370
     5
100
AcDbLine
 10
-34.19519372888516
 20
348.6242263381547
 30
0.0
 11
-34.19519372888516
 21
334.6242048933701
 31
0.0
  0
LINE
  5
586
330
1F
100
AcDbEntity
  8
1-2
  6
Continuous
 62
    92
370
     5
100
AcDbLine
 10
-24.29512642525339
 20
348.6242263381547
 30
0.0
 11
-24.29512642525339
 21
334.6242048933701
 31
0.0
  0
LINE
  5
587
330
1F
100
AcDbEntity
  8
1-2
  6
Continuous
 62
    92
370
     5
100
AcDbLine
 10
-14.39505912162161
 20
348.6242263381547
 30
0.0
 11
-14.39505912162161
 21
334.6242048933701
 31
0.0
  0
LINE
  5
588
330
1F
100
AcDbEntity
  8
1-2
  6
Continuous
 62
    92
370
     5
100
AcDbLine
 10
-938.1950584617821
 20
374.6242131413641
 30
0.0
 11
-938.1950584617821
 21
360.6241916965794
 31
0.0
  0
LINE
  5
589
330
1F
100
AcDbEntity
  8
1-2
  6
Continuous
 62
    92
370
     5
100
AcDbLine
 10
-928.2949911581502
 20
374.6242131413641
 30
0.0
 11
-928.2949911581502
 21
360.6241916965794
 31
0.0
  0
LINE
  5
58A
330
1F
100
AcDbEntity
  8
1-2
  6
Continuous
 62
    92
370
     5
100
AcDbLine
 10
-918.3949238545185
 20
374.6242131413641
 30
0.0
 11
-918.3949238545185
 21
360.6241916965794
 31
0.0
  0
LINE
  5
58B
330
1F
100
AcDbEntity
  8
1-2
  6
Continuous
 62
    92
370
     5
100
AcDbLine
 10
-670.1949660842481
 20
374.6242131413641
 30
0.0
 11
-670.1949660842481
 21
360.6241916965794
 31
0.0
  0
LINE
  5
58C
330
1F
100
AcDbEntity
  8
1-2
  6
Continuous
 62
    92
370
     5
100
AcDbLine
 10
-660.2948987806164
 20
374.6242131413641
 30
0.0
 11
-660.2948987806164
 21
360.6241916965794
 31
0.0
  0
LINE
  5
58D
330
1F
100
AcDbEntity
  8
1-2
  6
Continuous
 62
    92
370
     5
100
AcDbLine
 10
-650.3948314769846
 20
374.6242131413641
 30
0.0
 11
-650.3948314769846
 21
360.6241916965794
 31
0.0
  0
LINE
  5
58E
330
1F
100
AcDbEntity
  8
1-2
  6
Continuous
 62
    92
370
     5
100
AcDbLine
 10
-330.1950815561653
 20
374.6242131413641
 30
0.0
 11
-330.1950815561653
 21
360.6241916965794
 31
0.0
  0
LINE
  5
58F
330
1F
100
AcDbEntity
  8
1-2
  6
Continuous
 62
    92
370
     5
100
AcDbLine
 10
-320.2950142525336
 20
374.6242131413641
 30
0.0
 11
-320.2950142525336
 21
360.6241916965794
 31
0.0
  0
LINE
  5
590
330
1F
100
AcDbEntity
  8
1-2
  6
Continuous
 62
    92
370
     5
100
AcDbLine
 10
-310.3949469489018
 20
374.6242131413641
 30
0.0
 11
-310.3949469489018
 21
360.6241916965794
 31
0.0
  0
LINE
  5
591
330
1F
100
AcDbEntity
  8
1-2
  6
Continuous
 62
    92
370
     5
100
AcDbLine
 10
-34.19519372888516
 20
374.6242131413641
 30
0.0
 11
-34.19519372888516
 21
360.6241916965794
 31
0.0
  0
LINE
  5
592
330
1F
100
AcDbEntity
  8
1-2
  6
Continuous
 62
    92
370
     5
100
AcDbLine
 10
-24.29512642525339
 20
374.6242131413641
 30
0.0
 11
-24.29512642525339
 21
360.6241916965794
 31
0.0
  0
LINE
  5
593
330
1F
100
AcDbEntity
  8
1-2
  6
Continuous
 62
    92
370
     5
100
AcDbLine
 10
-14.39505912162161
 20
374.6242131413641
 30
0.0
 11
-14.39505912162161
 21
360.6241916965794
 31
0.0
  0
LINE
  5
594
330
1F
100
AcDbEntity
  8
1-2
  6
Continuous
 62
    92
370
     5
100
AcDbLine
 10
-670.1949660842481
 20
400.6241999445737
 30
0.0
 11
-670.1949660842481
 21
386.6241784997891
 31
0.0
  0
LINE
  5
595
330
1F
100
AcDbEntity
  8
1-2
  6
Continuous
 62
    92
370
     5
100
AcDbLine
 10
-660.2948987806164
 20
400.6241999445737
 30
0.0
 11
-660.2948987806164
 21
386.6241784997891
 31
0.0
  0
LINE
  5
596
330
1F
100
AcDbEntity
  8
1-2
  6
Continuous
 62
    92
370
     5
100
AcDbLine
 10
-650.3948314769846
 20
400.6241999445737
 30
0.0
 11
-650.3948314769846
 21
386.6241784997891
 31
0.0
  0
LINE
  5
597
330
1F
100
AcDbEntity
  8
1-2
  6
Continuous
 62
    92
370
     5
100
AcDbLine
 10
-330.1950815561653
 20
400.6241999445737
 30
0.0
 11
-330.1950815561653
 21
386.6241784997891
 31
0.0
  0
LINE
  5
598
330
1F
100
AcDbEntity
  8
1-2
  6
Continuous
 62
    92
370
     5
100
AcDbLine
 10
-320.2950142525336
 20
400.6241999445737
 30
0.0
 11
-320.2950142525336
 21
386.6241784997891
 31
0.0
  0
LINE
  5
599
330
1F
100
AcDbEntity
  8
1-2
  6
Continuous
 62
    92
370
     5
100
AcDbLine
 10
-310.3949469489018
 20
400.6241999445737
 30
0.0
 11
-310.3949469489018
 21
386.6241784997891
 31
0.0
  0
LINE
  5
59A
330
1F
100
AcDbEntity
  8
1-2
  6
Continuous
 62
    92
370
     5
100
AcDbLine
 10
-34.19519372888516
 20
400.6241999445737
 30
0.0
 11
-34.19519372888516
 21
386.6241784997891
 31
0.0
  0
LINE
  5
59B
330
1F
100
AcDbEntity
  8
1-2
  6
Continuous
 62
    92
370
     5
100
AcDbLine
 10
-24.29512642525339
 20
400.6241999445737
 30
0.0
 11
-24.29512642525339
 21
386.6241784997891
 31
0.0
  0
LINE
  5
59C
330
1F
100
AcDbEntity
  8
1-2
  6
Continuous
 62
    92
370
     5
100
AcDbLine
 10
-14.39505912162161
 20
400.6241999445737
 30
0.0
 11
-14.39505912162161
 21
386.6241784997891
 31
0.0
  0
LINE
  5
59D
330
1F
100
AcDbEntity
  8
1-2
  6
Continuous
 62
    92
370
     5
100
AcDbLine
 10
-330.1950815561653
 20
426.6241867477831
 30
0.0
 11
-330.1950815561653
 21
412.6241653029984
 31
0.0
  0
LINE
  5
59E
330
1F
100
AcDbEntity
  8
1-2
  6
Continuous
 62
    92
370
     5
100
AcDbLine
 10
-320.2950142525336
 20
426.6241867477831
 30
0.0
 11
-320.2950142525336
 21
412.6241653029984
 31
0.0
  0
LINE
  5
59F
330
1F
100
AcDbEntity
  8
1-2
  6
Continuous
 62
    92
370
     5
100
AcDbLine
 10
-310.3949469489018
 20
426.6241867477831
 30
0.0
 11
-310.3949469489018
 21
412.6241653029984
 31
0.0
  0
LINE
  5
5A0
330
1F
100
AcDbEntity
  8
1-2
  6
Continuous
 62
    92
370
     5
100
AcDbLine
 10
-34.19519372888516
 20
426.6241867477831
 30
0.0
 11
-34.19519372888516
 21
412.6241653029984
 31
0.0
  0
LINE
  5
5A1
330
1F
100
AcDbEntity
  8
1-2
  6
Continuous
 62
    92
370
     5
100
AcDbLine
 10
-24.29512642525339
 20
426.6241867477831
 30
0.0
 11
-24.29512642525339
 21
412.6241653029984
 31
0.0
  0
LINE
  5
5A2
330
1F
100
AcDbEntity
  8
1-2
  6
Continuous
 62
    92
370
     5
100
AcDbLine
 10
-14.39505912162161
 20
426.6241867477831
 30
0.0
 11
-14.39505912162161
 21
412.6241653029984
 31
0.0
  0
LINE
  5
5A3
330
1F
100
AcDbEntity
  8
D-2
  6
Continuous
 62
    92
370
     5
100
AcDbLine
 10
1271.428453600084
 20
1028.513513513514
 30
0.0
 11
1271.428453600084
 21
993.513645481419
 31
0.0
  0
LINE
  5
5A4
330
1F
100
AcDbEntity
  8
D-2
  6
Continuous
 62
    92
370
     5
100
AcDbLine
 10
1271.428453600084
 20
963.5135465054901
 30
0.0
 11
1271.428453600084
 21
928.5136784733953
 31
0.0
  0
LINE
  5
5A5
330
1F
100
AcDbEntity
  8
D-2
  6
Continuous
 62
    92
370
     5
100
AcDbLine
 10
1271.428453600084
 20
898.5135794974665
 30
0.0
 11
1271.428453600084
 21
863.5137114653717
 31
0.0
  0
LINE
  5
5A6
330
1F
100
AcDbEntity
  8
D-2
  6
Continuous
 62
    92
370
     5
100
AcDbLine
 10
1271.428453600084
 20
833.5136124894427
 30
0.0
 11
1271.428453600084
 21
798.5137444573481
 31
0.0
  0
LINE
  5
5A7
330
1F
100
AcDbEntity
  8
D-2
  6
Continuous
 62
    92
370
     5
100
AcDbLine
 10
1271.428453600084
 20
768.513645481419
 30
0.0
 11
1271.428453600084
 21
733.5137774493245
 31
0.0
  0
LINE
  5
5A8
330
1F
100
AcDbEntity
  8
D-2
  6
Continuous
 62
    92
370
     5
100
AcDbLine
 10
1271.428453600084
 20
703.5134310335727
 30
0.0
 11
1271.428453600084
 21
668.5135630014781
 31
0.0
  0
LINE
  5
5A9
330
1F
100
AcDbEntity
  8
D-2
  6
Continuous
 62
    92
370
     5
100
AcDbLine
 10
1271.428453600084
 20
638.5134640255492
 30
0.0
 11
1271.428453600084
 21
603.5135959934544
 31
0.0
  0
LINE
  5
5AA
330
1F
100
AcDbEntity
  8
D-2
  6
Continuous
 62
    92
370
     5
100
AcDbLine
 10
1271.428453600084
 20
573.5134970175255
 30
0.0
 11
1271.428453600084
 21
538.5136289854307
 31
0.0
  0
LINE
  5
5AB
330
1F
100
AcDbEntity
  8
D-2
  6
Continuous
 62
    92
370
     5
100
AcDbLine
 10
1271.428453600084
 20
508.5135300095018
 30
0.0
 11
1271.428453600084
 21
473.5136619774073
 31
0.0
  0
LINE
  5
5AC
330
1F
100
AcDbEntity
  8
2-1
  6
Continuous
 62
    40
370
     9
100
AcDbLine
 10
383.6722709037164
 20
-481.2366052576013
 30
0.0
 11
1346.172105943834
 21
-481.2366052576013
 31
0.0
  0
LINE
  5
5AD
330
1F
100
AcDbEntity
  8
2-1
  6
Continuous
 62
    40
370
     9
100
AcDbLine
 10
1346.172105943834
 20
-731.2364402977196
 30
0.0
 11
383.6722709037164
 21
-731.2364402977196
 31
0.0
  0
LINE
  5
5AE
330
1F
100
AcDbEntity
  8
1-4
  6
Continuous
 62
    40
370
     9
100
AcDbLine
 10
-1054.054054054054
 20
-495.9454180743242
 30
0.0
 11
-1054.054054054054
 21
-430.9459459459458
 31
0.0
  0
LINE
  5
5AF
330
1F
100
AcDbEntity
  8
1-4
  6
Continuous
 62
    40
370
     9
100
AcDbLine
 10
-1054.054054054054
 20
-430.9459459459458
 30
0.0
 11
-510.5470399598818
 21
-430.9459459459458
 31
0.0
  0
LINE
  5
5B0
330
1F
100
AcDbEntity
  8
1-4
  6
Continuous
 62
    40
370
     9
100
AcDbLine
 10
-510.5470399598818
 20
-430.9459459459458
 30
0.0
 11
-510.5470399598818
 21
-495.9454180743242
 31
0.0
  0
LINE
  5
5B1
330
1F
100
AcDbEntity
  8
1-4
  6
Continuous
 62
    40
370
     9
100
AcDbLine
 10
-510.5470399598818
 20
-495.9454180743242
 30
0.0
 11
-1054.054054054054
 21
-495.9454180743242
 31
0.0
  0
LINE
  5
5B2
330
1F
100
AcDbEntity
  8
D-4
  6
Continuous
 62
    40
370
     9
100
AcDbLine
 10
840.8942970069683
 20
-66.87932194890209
 30
0.0
 11
840.8942970069683
 21
-1.879602380701044
 31
0.0
  0
LINE
  5
5B3
330
1F
100
AcDbEntity
  8
D-4
  6
Continuous
 62
    40
370
     9
100
AcDbLine
 10
840.8942970069683
 20
-1.879602380701044
 30
0.0
 11
1508.057877824114
 21
-1.879602380701044
 31
0.0
  0
LINE
  5
5B4
330
1F
100
AcDbEntity
  8
D-4
  6
Continuous
 62
    40
370
     9
100
AcDbLine
 10
1508.057877824114
 20
-1.879602380701044
 30
0.0
 11
1508.057877824114
 21
-66.87932194890209
 31
0.0
  0
LINE
  5
5B5
330
1F
100
AcDbEntity
  8
D-4
  6
Continuous
 62
    40
370
     9
100
AcDbLine
 10
1508.057877824114
 20
-66.87932194890209
 30
0.0
 11
840.8942970069683
 21
-66.87932194890209
 31
0.0
  0
LINE
  5
5B6
330
1F
100
AcDbEntity
  8
2-4
  6
Continuous
 62
    40
370
     9
100
AcDbLine
 10
678.1152673669766
 20
-1124.84094568201
 30
0.0
 11
678.1152673669766
 21
-1059.841226113809
 31
0.0
  0
LINE
  5
5B7
330
1F
100
AcDbEntity
  8
2-4
  6
Continuous
 62
    40
370
     9
100
AcDbLine
 10
678.1152673669766
 20
-1059.841226113809
 30
0.0
 11
1291.558672930743
 21
-1059.841226113809
 31
0.0
  0
LINE
  5
5B8
330
1F
100
AcDbEntity
  8
2-4
  6
Continuous
 62
    40
370
     9
100
AcDbLine
 10
1291.558672930743
 20
-1059.841226113809
 30
0.0
 11
1291.558672930743
 21
-1124.84094568201
 31
0.0
  0
LINE
  5
5B9
330
1F
100
AcDbEntity
  8
2-4
  6
Continuous
 62
    40
370
     9
100
AcDbLine
 10
1291.558672930743
 20
-1124.84094568201
 30
0.0
 11
678.1152673669766
 21
-1124.84094568201
 31
0.0
  0
CIRCLE
  5
5BA
330
1F
100
AcDbEntity
  8
1-5
  6
Continuous
 62
     7
370
     5
100
AcDbCircle
 10
-57.24421320734791
 20
85.52171037003802
 30
0.0
 40
200.0000103099926
  0
ARC
  5
5BB
330
1F
100
AcDbEntity
  8
1-9
  6
Continuous
 62
    92
370
     5
100
AcDbCircle
 10
-1660.294981260557
 20
324.6241719013938
 30
0.0
 40
5.999999594044041
100
AcDbArc
 50
0.0
 51
90.0
  0
ARC
  5
5BC
330
1F
100
AcDbEntity
  8
1-9
  6
Continuous
 62
    92
370
     5
100
AcDbCircle
 10
-1698.295057142103
 20
324.6241719013938
 30
0.0
 40
5.999999594044041
100
AcDbArc
 50
90.0
 51
180.0
  0
ARC
  5
5BD
330
1F
100
AcDbEntity
  8
1-9
  6
Continuous
 62
    92
370
     5
100
AcDbCircle
 10
71.70484388196797
 20
856.623997043919
 30
0.0
 40
5.999999594044041
100
AcDbArc
 50
180.0
 51
270.0
  0
ARC
  5
5BE
330
1F
100
AcDbEntity
  8
1-9
  6
Continuous
 62
    92
370
     5
100
AcDbCircle
 10
-1310.295063740498
 20
1206.624162003801
 30
0.0
 40
5.999999594044041
100
AcDbArc
 50
270.0
 51
0.0
  0
ARC
  5
5BF
330
1F
100
AcDbEntity
  8
1-9
  6
Continuous
 62
    92
370
     5
100
AcDbCircle
 10
-1310.295063740498
 20
1244.623990445524
 30
0.0
 40
5.999999594044041
100
AcDbArc
 50
0.0
 51
90.0
  0
ARC
  5
5C0
330
1F
100
AcDbEntity
  8
1-9
  6
Continuous
 62
    92
370
     5
100
AcDbCircle
 10
109.7051672033362
 20
856.623997043919
 30
0.0
 40
5.999999594044041
100
AcDbArc
 50
270.0
 51
0.0
  0
ARC
  5
5C1
330
1F
100
AcDbEntity
  8
1-9
  6
Continuous
 62
    92
370
     5
100
AcDbCircle
 10
109.7051672033362
 20
256.6242444837417
 30
0.0
 40
5.999999594044041
100
AcDbArc
 50
270.0
 51
0.0
  0
ARC
  5
5C2
330
1F
100
AcDbEntity
  8
1-9
  6
Continuous
 62
    92
370
     5
100
AcDbCircle
 10
71.70484388196797
 20
256.6242444837417
 30
0.0
 40
5.999999594044041
100
AcDbArc
 50
180.0
 51
270.0
  0
ARC
  5
5C3
330
1F
100
AcDbEntity
  8
1-9
  6
Continuous
 62
    92
370
     5
100
AcDbCircle
 10
-278.2950736380911
 20
-25.37574561866535
 30
0.0
 40
5.999999594044041
100
AcDbArc
 50
90.0
 51
180.0
  0
ARC
  5
5C4
330
1F
100
AcDbEntity
  8
1-9
  6
Continuous
 62
    92
370
     5
100
AcDbCircle
 10
-278.2950736380911
 20
-63.37557406038854
 30
0.0
 40
5.999999594044041
100
AcDbArc
 50
180.0
 51
270.0
  0
ARC
  5
5C5
330
1F
100
AcDbEntity
  8
1-9
  6
Continuous
 62
    92
370
     5
100
AcDbCircle
 10
-1378.29499115815
 20
-63.37557406038854
 30
0.0
 40
5.999999594044041
100
AcDbArc
 50
180.0
 51
270.0
  0
ARC
  5
5C6
330
1F
100
AcDbEntity
  8
1-9
  6
Continuous
 62
    92
370
     5
100
AcDbCircle
 10
-1378.29499115815
 20
-25.37574561866535
 30
0.0
 40
5.999999594044041
100
AcDbArc
 50
90.0
 51
180.0
  0
ARC
  5
5C7
330
1F
100
AcDbEntity
  8
D-A
  6
Continuous
 62
    92
370
     5
100
AcDbCircle
 10
1271.428701039907
 20
385.370153478674
 30
0.0
 40
19.8566282117689
100
AcDbArc
 50
209.7614288330078
 51
330.2385559082031
  0
ARC
  5
5C8
330
1F
100
AcDbEntity
  8
D-A
  6
Continuous
 62
    92
370
     5
100
AcDbCircle
 10
1421.428701039907
 20
385.370153478674
 30
0.0
 40
19.8566282117689
100
AcDbArc
 50
209.7614288330078
 51
330.2385559082031
  0
ARC
  5
5C9
330
1F
100
AcDbEntity
  8
D-A
  6
Continuous
 62
    92
370
     5
100
AcDbCircle
 10
1479.571615683066
 20
443.5134392815669
 30
0.0
 40
19.8566282117689
100
AcDbArc
 50
299.7614288330078
 51
60.23855590820312
  0
ARC
  5
5CA
330
1F
100
AcDbEntity
  8
D-A
  6
Continuous
 62
    92
370
     5
100
AcDbCircle
 10
1479.571615683066
 20
593.5135630014781
 30
0.0
 40
19.8566282117689
100
AcDbArc
 50
299.7614288330078
 51
60.23855590820312
  0
ARC
  5
5CB
330
1F
100
AcDbEntity
  8
1-9
  6
Continuous
 62
    92
370
     5
100
AcDbCircle
 10
-1698.295057142103
 20
924.623924461571
 30
0.0
 40
5.999999594044041
100
AcDbArc
 50
90.0
 51
180.0
  0
ARC
  5
5CC
330
1F
100
AcDbEntity
  8
1-9
  6
Continuous
 62
    92
370
     5
100
AcDbCircle
 10
-1660.294981260557
 20
924.623924461571
 30
0.0
 40
5.999999594044041
100
AcDbArc
 50
0.0
 51
90.0
  0
ARC
  5
5CD
330
1F
100
AcDbEntity
  8
1-9
  6
Continuous
 62
    92
370
     5
100
AcDbCircle
 10
-210.2951462204391
 20
1244.623990445524
 30
0.0
 40
5.999999594044041
100
AcDbArc
 50
0.0
 51
90.0
  0
ARC
  5
5CE
330
1F
100
AcDbEntity
  8
1-9
  6
Continuous
 62
    92
370
     5
100
AcDbCircle
 10
-210.2951462204391
 20
1206.624162003801
 30
0.0
 40
5.999999594044041
100
AcDbArc
 50
270.0
 51
0.0
  0
ARC
  5
5CF
330
1F
100
AcDbEntity
  8
2-1
  6
Continuous
 62
    40
370
     9
100
AcDbCircle
 10
1276.172122439823
 20
-486.2366217535895
 30
0.0
 40
4.99999958115655
100
AcDbArc
 50
90.0
 51
180.0
  0
ARC
  5
5D0
330
1F
100
AcDbEntity
  8
2-1
  6
Continuous
 62
    40
370
     9
100
AcDbCircle
 10
1346.172105943834
 20
-486.2366217535895
 30
0.0
 40
4.99999958115655
100
AcDbArc
 50
0.0
 51
90.0
  0
ARC
  5
5D1
330
1F
100
AcDbEntity
  8
2-1
  6
Continuous
 62
    40
370
     9
100
AcDbCircle
 10
1276.172122439823
 20
-726.2366712415541
 30
0.0
 40
4.99999958115655
100
AcDbArc
 50
180.0
 51
270.0
  0
ARC
  5
5D2
330
1F
100
AcDbEntity
  8
2-1
  6
Continuous
 62
    40
370
     9
100
AcDbCircle
 10
1346.172105943834
 20
-726.2366712415541
 30
0.0
 40
4.99999958115655
100
AcDbArc
 50
270.0
 51
0.0
  0
ARC
  5
5D3
330
1F
100
AcDbEntity
  8
2-9
  6
Continuous
 62
    92
370
     5
100
AcDbCircle
 10
1367.45885900549
 20
-606.2365227776604
 30
0.0
 40
39.7132564235378
100
AcDbArc
 50
299.7614288330078
 51
60.23855590820312
  0
ARC
  5
5D4
330
1F
100
AcDbEntity
  8
2-9
  6
Continuous
 62
    92
370
     5
100
AcDbCircle
 10
1461.882885082348
 20
-606.2365227776604
 30
0.0
 40
50.00000257749815
100
AcDbArc
 50
225.0
 51
270.0
  0
ARC
  5
5D5
330
1F
100
AcDbEntity
  8
2-9
  6
Continuous
 62
    92
370
     5
100
AcDbCircle
 10
1371.172188423775
 20
-714.5208905194256
 30
0.0
 40
19.9999983246262
100
AcDbArc
 50
0.0
 51
45.0
  0
ARC
  5
5D6
330
1F
100
AcDbEntity
  8
2-2
  6
Continuous
 62
    92
370
     5
100
AcDbCircle
 10
1084.172429265203
 20
-506.2364402977195
 30
0.0
 40
4.99999958115655
100
AcDbArc
 50
0.0
 51
90.0
  0
ARC
  5
5D7
330
1F
100
AcDbEntity
  8
2-2
  6
Continuous
 62
    92
370
     5
100
AcDbCircle
 10
1114.172528241132
 20
-506.2364402977195
 30
0.0
 40
4.99999958115655
100
AcDbArc
 50
90.0
 51
180.0
  0
ARC
  5
5D8
330
1F
100
AcDbEntity
  8
2-2
  6
Continuous
 62
    92
370
     5
100
AcDbCircle
 10
1074.172396273227
 20
-496.2366547455659
 30
0.0
 40
4.99999958115655
100
AcDbArc
 50
180.0
 51
270.0
  0
ARC
  5
5D9
330
1F
100
AcDbEntity
  8
2-2
  6
Continuous
 62
    92
370
     5
100
AcDbCircle
 10
1124.172808672931
 20
-496.2366547455659
 30
0.0
 40
4.99999958115655
100
AcDbArc
 50
270.0
 51
0.0
  0
ARC
  5
5DA
330
1F
100
AcDbEntity
  8
2-2
  6
Continuous
 62
    92
370
     5
100
AcDbCircle
 10
1099.172478753167
 20
-671.2367372255068
 30
0.0
 40
9.9999991623131
100
AcDbArc
 50
180.0
 51
0.0
  0
ARC
  5
5DB
330
1F
100
AcDbEntity
  8
2-2
  6
Continuous
 62
    92
370
     5
100
AcDbCircle
 10
1214.17236328125
 20
-506.2364402977195
 30
0.0
 40
4.99999958115655
100
AcDbArc
 50
0.0
 51
90.0
  0
ARC
  5
5DC
330
1F
100
AcDbEntity
  8
2-2
  6
Continuous
 62
    92
370
     5
100
AcDbCircle
 10
1244.172462257179
 20
-506.2364402977195
 30
0.0
 40
4.99999958115655
100
AcDbArc
 50
90.0
 51
180.0
  0
ARC
  5
5DD
330
1F
100
AcDbEntity
  8
2-2
  6
Continuous
 62
    92
370
     5
100
AcDbCircle
 10
1204.172330289274
 20
-496.2366547455659
 30
0.0
 40
4.99999958115655
100
AcDbArc
 50
180.0
 51
270.0
  0
ARC
  5
5DE
330
1F
100
AcDbEntity
  8
2-2
  6
Continuous
 62
    92
370
     5
100
AcDbCircle
 10
1254.172742688978
 20
-496.2366547455659
 30
0.0
 40
4.99999958115655
100
AcDbArc
 50
270.0
 51
0.0
  0
ARC
  5
5DF
330
1F
100
AcDbEntity
  8
2-2
  6
Continuous
 62
    92
370
     5
100
AcDbCircle
 10
1229.172412769215
 20
-671.2367372255068
 30
0.0
 40
9.9999991623131
100
AcDbArc
 50
180.0
 51
0.0
  0
ARC
  5
5E0
330
1F
100
AcDbEntity
  8
2-2
  6
Continuous
 62
    92
370
     5
100
AcDbCircle
 10
954.1724952491558
 20
-506.2364402977195
 30
0.0
 40
4.99999958115655
100
AcDbArc
 50
0.0
 51
90.0
  0
ARC
  5
5E1
330
1F
100
AcDbEntity
  8
2-2
  6
Continuous
 62
    92
370
     5
100
AcDbCircle
 10
984.1725942250844
 20
-506.2364402977195
 30
0.0
 40
4.99999958115655
100
AcDbArc
 50
90.0
 51
180.0
  0
ARC
  5
5E2
330
1F
100
AcDbEntity
  8
2-2
  6
Continuous
 62
    92
370
     5
100
AcDbCircle
 10
944.1724622571792
 20
-496.2366547455659
 30
0.0
 40
4.99999958115655
100
AcDbArc
 50
180.0
 51
270.0
  0
ARC
  5
5E3
330
1F
100
AcDbEntity
  8
2-2
  6
Continuous
 62
    92
370
     5
100
AcDbCircle
 10
994.1728746568839
 20
-496.2366547455659
 30
0.0
 40
4.99999958115655
100
AcDbArc
 50
270.0
 51
0.0
  0
ARC
  5
5E4
330
1F
100
AcDbEntity
  8
2-2
  6
Continuous
 62
    92
370
     5
100
AcDbCircle
 10
969.1725447371203
 20
-671.2367372255068
 30
0.0
 40
9.9999991623131
100
AcDbArc
 50
180.0
 51
0.0
  0
ARC
  5
5E5
330
1F
100
AcDbEntity
  8
2-2
  6
Continuous
 62
    92
370
     5
100
AcDbCircle
 10
824.1725612331084
 20
-506.2364402977195
 30
0.0
 40
4.99999958115655
100
AcDbArc
 50
0.0
 51
90.0
  0
ARC
  5
5E6
330
1F
100
AcDbEntity
  8
2-2
  6
Continuous
 62
    92
370
     5
100
AcDbCircle
 10
854.1726602090375
 20
-506.2364402977195
 30
0.0
 40
4.99999958115655
100
AcDbArc
 50
90.0
 51
180.0
  0
ARC
  5
5E7
330
1F
100
AcDbEntity
  8
2-2
  6
Continuous
 62
    92
370
     5
100
AcDbCircle
 10
814.1725282411318
 20
-496.2366547455659
 30
0.0
 40
4.99999958115655
100
AcDbArc
 50
180.0
 51
270.0
  0
ARC
  5
5E8
330
1F
100
AcDbEntity
  8
2-2
  6
Continuous
 62
    92
370
     5
100
AcDbCircle
 10
864.1726932010135
 20
-496.2366547455659
 30
0.0
 40
4.99999958115655
100
AcDbArc
 50
270.0
 51
0.0
  0
ARC
  5
5E9
330
1F
100
AcDbEntity
  8
2-2
  6
Continuous
 62
    92
370
     5
100
AcDbCircle
 10
839.17236328125
 20
-671.2367372255068
 30
0.0
 40
9.9999991623131
100
AcDbArc
 50
180.0
 51
0.0
  0
ARC
  5
5EA
330
1F
100
AcDbEntity
  8
2-2
  6
Continuous
 62
    92
370
     5
100
AcDbCircle
 10
694.1723797772386
 20
-506.2364402977195
 30
0.0
 40
4.99999958115655
100
AcDbArc
 50
0.0
 51
90.0
  0
ARC
  5
5EB
330
1F
100
AcDbEntity
  8
2-2
  6
Continuous
 62
    92
370
     5
100
AcDbCircle
 10
724.1724787531672
 20
-506.2364402977195
 30
0.0
 40
4.99999958115655
100
AcDbArc
 50
90.0
 51
180.0
  0
ARC
  5
5EC
330
1F
100
AcDbEntity
  8
2-2
  6
Continuous
 62
    92
370
     5
100
AcDbCircle
 10
684.172346785262
 20
-496.2366547455659
 30
0.0
 40
4.99999958115655
100
AcDbArc
 50
180.0
 51
270.0
  0
ARC
  5
5ED
330
1F
100
AcDbEntity
  8
2-2
  6
Continuous
 62
    92
370
     5
100
AcDbCircle
 10
734.1727591849661
 20
-496.2366547455659
 30
0.0
 40
4.99999958115655
100
AcDbArc
 50
270.0
 51
0.0
  0
ARC
  5
5EE
330
1F
100
AcDbEntity
  8
2-2
  6
Continuous
 62
    92
370
     5
100
AcDbCircle
 10
709.1724292652026
 20
-671.2367372255068
 30
0.0
 40
9.9999991623131
100
AcDbArc
 50
180.0
 51
0.0
  0
ARC
  5
5EF
330
1F
100
AcDbEntity
  8
2-2
  6
Continuous
 62
    92
370
     5
100
AcDbCircle
 10
564.1724457611912
 20
-506.2364402977195
 30
0.0
 40
4.99999958115655
100
AcDbArc
 50
0.0
 51
90.0
  0
ARC
  5
5F0
330
1F
100
AcDbEntity
  8
2-2
  6
Continuous
 62
    92
370
     5
100
AcDbCircle
 10
594.1725447371203
 20
-506.2364402977195
 30
0.0
 40
4.99999958115655
100
AcDbArc
 50
90.0
 51
180.0
  0
ARC
  5
5F1
330
1F
100
AcDbEntity
  8
2-2
  6
Continuous
 62
    92
370
     5
100
AcDbCircle
 10
554.1724127692146
 20
-496.2366547455659
 30
0.0
 40
4.99999958115655
100
AcDbArc
 50
180.0
 51
270.0
  0
ARC
  5
5F2
330
1F
100
AcDbEntity
  8
2-2
  6
Continuous
 62
    92
370
     5
100
AcDbCircle
 10
604.1728251689193
 20
-496.2366547455659
 30
0.0
 40
4.99999958115655
100
AcDbArc
 50
270.0
 51
0.0
  0
ARC
  5
5F3
330
1F
100
AcDbEntity
  8
2-2
  6
Continuous
 62
    92
370
     5
100
AcDbCircle
 10
579.1724952491558
 20
-671.2367372255068
 30
0.0
 40
9.9999991623131
100
AcDbArc
 50
180.0
 51
0.0
  0
ARC
  5
5F4
330
1F
100
AcDbEntity
  8
2-2
  6
Continuous
 62
    92
370
     5
100
AcDbCircle
 10
434.1725117451438
 20
-506.2364402977195
 30
0.0
 40
4.99999958115655
100
AcDbArc
 50
0.0
 51
90.0
  0
ARC
  5
5F5
330
1F
100
AcDbEntity
  8
2-2
  6
Continuous
 62
    92
370
     5
100
AcDbCircle
 10
464.1726107210729
 20
-506.2364402977195
 30
0.0
 40
4.99999958115655
100
AcDbArc
 50
90.0
 51
180.0
  0
ARC
  5
5F6
330
1F
100
AcDbEntity
  8
2-2
  6
Continuous
 62
    92
370
     5
100
AcDbCircle
 10
424.1724787531675
 20
-496.2366547455659
 30
0.0
 40
4.99999958115655
100
AcDbArc
 50
180.0
 51
270.0
  0
ARC
  5
5F7
330
1F
100
AcDbEntity
  8
2-2
  6
Continuous
 62
    92
370
     5
100
AcDbCircle
 10
474.1728911528719
 20
-496.2366547455659
 30
0.0
 40
4.99999958115655
100
AcDbArc
 50
270.0
 51
0.0
  0
ARC
  5
5F8
330
1F
100
AcDbEntity
  8
2-2
  6
Continuous
 62
    92
370
     5
100
AcDbCircle
 10
449.1725612331084
 20
-671.2367372255068
 30
0.0
 40
9.9999991623131
100
AcDbArc
 50
180.0
 51
0.0
  0
ARC
  5
5F9
330
1F
100
AcDbEntity
  8
2-9
  6
Continuous
 62
    92
370
     5
100
AcDbCircle
 10
1621.172023463894
 20
-676.2365062816723
 30
0.0
 40
19.9999983246262
100
AcDbArc
 50
0.0
 51
90.0
  0
ARC
  5
5FA
330
1F
100
AcDbEntity
  8
2-0
  6
Continuous
 62
    92
370
     5
100
AcDbCircle
 10
-1562.722283440667
 20
-798.422290698902
 30
0.0
 40
39.7122589317528
100
AcDbArc
 50
50.82627868652344
 51
129.1737060546875
  0
ARC
  5
5FB
330
1F
100
AcDbEntity
  8
2-0
  6
Continuous
 62
    92
370
     5
100
AcDbCircle
 10
-1512.552127322635
 20
-736.849365234375
 30
0.0
 40
39.7122589317528
100
AcDbArc
 50
230.8262786865234
 51
309.1737060546876
  0
ARC
  5
5FC
330
1F
100
AcDbEntity
  8
2-0
  6
Continuous
 62
    92
370
     5
100
AcDbCircle
 10
-1512.552127322635
 20
-506.8493487383867
 30
0.0
 40
39.7122589317528
100
AcDbArc
 50
230.8262786865234
 51
309.1737060546876
  0
ARC
  5
5FD
330
1F
100
AcDbEntity
  8
2-0
  6
Continuous
 62
    92
370
     5
100
AcDbCircle
 10
-1562.722283440667
 20
-568.4222742029137
 30
0.0
 40
39.7122589317528
100
AcDbArc
 50
50.82627868652344
 51
129.1737060546875
  0
TEXT
  5
5FE
330
1F
100
AcDbEntity
  8
1-4
  6
Continuous
 62
    40
370
     9
100
AcDbText
 10
-1435.545204781197
 20
-158.3376776288005
 30
0.0
 40
30.48
  1
131
 41
1.083333333333333
  7
ＭＳ ゴシック
100
AcDbText
  0
TEXT
  5
5FF
330
1F
100
AcDbEntity
  8
1-4
  6
Continuous
 62
    40
370
     9
100
AcDbText
 10
-916.795472841005
 20
-158.3376776288005
 30
0.0
 40
30.48
  1
170×5=850
 41
1.11249995876003
  7
ＭＳ ゴシック
100
AcDbText
  0
TEXT
  5
600
330
1F
100
AcDbEntity
  8
1-4
  6
Continuous
 62
    40
370
     9
100
AcDbText
 10
-838.0455223289696
 20
-221.4491839104729
 30
0.0
 40
30.48
  1
1172
 41
1.09375
  7
ＭＳ ゴシック
100
AcDbText
  0
TEXT
  5
601
330
1F
100
AcDbEntity
  8
1-4
  6
Continuous
 62
    40
370
     9
100
AcDbText
 10
-838.0455223289696
 20
-283.2903341427365
 30
0.0
 40
30.48
  1
1192
 41
1.09375
  7
ＭＳ ゴシック
100
AcDbText
  0
TEXT
  5
602
330
1F
100
AcDbEntity
  8
1-4
  6
Continuous
 62
    40
370
     9
100
AcDbText
 10
-195.5455058329812
 20
-158.3376776288005
 30
0.0
 40
30.48
  1
131
 41
1.083333333333333
  7
ＭＳ ゴシック
100
AcDbText
  0
TEXT
  5
603
330
1F
100
AcDbEntity
  8
D-4
  6
Continuous
 62
    40
370
     9
100
AcDbText
 10
798.594954207137
 20
126.3039800200591
 30
0.0
 40
30.48
  1
1192
 41
1.09375
  7
ＭＳ ゴシック
100
AcDbText
  0
TEXT
  5
604
330
1F
100
AcDbEntity
  8
1-4
  6
Continuous
 62
    40
370
     9
100
AcDbText
 10
213.2143371252112
 20
558.1244721283783
 30
0.0
 40
30.48
  1
872
 50
90.0
 41
1.083333333333333
  7
ＭＳ ゴシック
100
AcDbText
  0
TEXT
  5
605
330
1F
100
AcDbEntity
  8
1-4
  6
Continuous
 62
    40
370
     9
100
AcDbText
 10
280.8995210884714
 20
558.1244721283783
 30
0.0
 40
30.48
  1
892
 50
90.0
 41
1.083333333333333
  7
ＭＳ ゴシック
100
AcDbText
  0
TEXT
  5
606
330
1F
100
AcDbEntity
  8
D-4
  6
Continuous
 62
    40
370
     9
100
AcDbText
 10
1692.397967166385
 20
977.2036495724242
 30
0.0
 40
30.48
  1
892
 50
90.0
 41
1.083333333333333
  7
ＭＳ ゴシック
100
AcDbText
  0
TEXT
  5
607
330
1F
100
AcDbEntity
  8
F-4
  6
Continuous
 62
    40
370
     9
100
AcDbText
 10
395.9232639622044
 20
-331.5005194256756
 30
0.0
 40
30.48
  1
892
 41
1.083333333333333
  7
ＭＳ ゴシック
100
AcDbText
  0
TEXT
  5
608
330
1F
100
AcDbEntity
  8
F-4
  6
Continuous
 62
    40
370
     9
100
AcDbText
 10
-875.99722372519
 20
-1358.132055136191
 30
0.0
 40
30.48
  1
ノンスリップタイプステンレス製玄関マット　ＱＭ２０　１２００×９００（呼称寸法）
 41
0.7743749999999999
  7
ＭＳ ゴシック
100
AcDbText
  0
TEXT
  5
609
330
1F
100
AcDbEntity
  8
1-5
  6
Continuous
 62
    40
370
     9
100
AcDbText
 10
458.240488413218
 20
-1304.247579840583
 30
0.0
 40
30.48
  1
水谷環
 41
1.083333333333333
  7
ＭＳ ゴシック
100
AcDbText
  0
TEXT
  5
60A
330
1F
100
AcDbEntity
  8
1-5
  6
Continuous
 62
    40
370
     9
100
AcDbText
 10
658.5640572212839
 20
-1307.957197661529
 30
0.0
 40
30.48
  1
樋口
 41
1.0625
  7
ＭＳ ゴシック
100
AcDbText
  0
TEXT
  5
60B
330
1F
100
AcDbEntity
  8
2-0
  6
Continuous
 62
    40
370
     9
100
AcDbText
 10
-1086.17322767103
 20
-877.4502594489021
 30
0.0
 40
30.48
  1
※本体：ＳＵＳ３０４
 41
1.1125
  7
ＭＳ ゴシック
100
AcDbText
  0
TEXT
  5
60C
330
1F
100
AcDbEntity
  8
2-0
  6
Continuous
 62
    40
370
     9
100
AcDbText
 10
-1086.17322767103
 20
-929.9503089368666
 30
0.0
 40
30.48
  1
　枠　：ＳＵＳ３０４（但し、アンカー除く）
 41
1.11904762886666
  7
ＭＳ ゴシック
100
AcDbText
  0
TEXT
  5
60D
330
1F
100
AcDbEntity
  8
1-5
  6
Continuous
 62
    40
370
     9
100
AcDbText
 10
-444.9794459987331
 20
1258.34933408995
 30
0.0
 40
30.48
  1
Ａ
 41
1.00000020619985
  7
ＭＳ ゴシック
100
AcDbText
  0
TEXT
  5
60E
330
1F
100
AcDbEntity
  8
D-5
  6
Continuous
 62
     7
370
     5
100
AcDbText
 10
1519.710313951648
 20
204.8667781355576
 30
0.0
 40
22.86
  1
コーナー補助金物
 41
1.145833333333333
  7
ＭＳ ゴシック
100
AcDbText
  0
TEXT
  5
60F
330
1F
100
AcDbEntity
  8
2-5
  6
Continuous
 62
     7
370
     5
100
AcDbText
 10
1009.732385583826
 20
-953.5405671980574
 30
0.0
 40
22.86
  1
溶接用アンカー＠３００
 41
1.151515151515152
  7
ＭＳ ゴシック
100
AcDbText
  0
TEXT
  5
610
330
1F
100
AcDbEntity
  8
2-5
  6
Continuous
 62
     7
370
     5
100
AcDbText
 10
1009.732385583826
 20
-1000.113690614442
 30
0.0
 40
22.86
  1
ｔ＝２．３（ＳＰＨＣ）
 41
1.151515151515152
  7
ＭＳ ゴシック
100
AcDbText
  0
TEXT
  5
611
330
1F
100
AcDbEntity
  8
2-4
  6
Continuous
 62
    40
370
     9
100
AcDbText
 10
300.3171137299409
 20
-602.486572265625
 30
0.0
 40
30.48
  1
20
 50
90.0
 41
1.0625
  7
ＭＳ ゴシック
100
AcDbText
  0
TEXT
  5
612
330
1F
100
AcDbEntity
  8
2-4
  6
Continuous
 62
    40
370
     9
100
AcDbText
 10
220.0562956608953
 20
-627.4866547455658
 30
0.0
 40
30.48
  1
25
 50
90.0
 41
1.0625
  7
ＭＳ ゴシック
100
AcDbText
  0
TEXT
  5
613
330
1F
100
AcDbEntity
  8
2-4
  6
Continuous
 62
    40
370
     9
100
AcDbText
 10
1727.783593881968
 20
-727.4864897856842
 30
0.0
 40
30.48
  1
10
 50
90.0
 41
1.0625
  7
ＭＳ ゴシック
100
AcDbText
  0
TEXT
  5
614
330
1F
100
AcDbEntity
  8
2-4
  6
Continuous
 62
    40
370
     9
100
AcDbText
 10
1727.783593881968
 20
-589.9866547455658
 30
0.0
 40
30.48
  1
17
 50
90.0
 41
1.0625
  7
ＭＳ ゴシック
100
AcDbText
  0
TEXT
  5
615
330
1F
100
AcDbEntity
  8
2-4
  6
Continuous
 62
    40
370
     9
100
AcDbText
 10
1251.172039959882
 20
-404.1998239548142
 30
0.0
 40
30.48
  1
2
 41
0.9999999999999998
  7
ＭＳ ゴシック
100
AcDbText
  0
TEXT
  5
616
330
1F
100
AcDbEntity
  8
2-4
  6
Continuous
 62
    40
370
     9
100
AcDbText
 10
1301.172204919764
 20
-404.1998239548142
 30
0.0
 40
30.48
  1
8
 41
0.9999999999999998
  7
ＭＳ ゴシック
100
AcDbText
  0
TEXT
  5
617
330
1F
100
AcDbEntity
  8
2-4
  6
Continuous
 62
    40
370
     9
100
AcDbText
 10
1474.922221415752
 20
-331.5007668654983
 30
0.0
 40
30.48
  1
29
 41
1.0625
  7
ＭＳ ゴシック
100
AcDbText
  0
TEXT
  5
618
330
1F
100
AcDbEntity
  8
2-5
  6
Continuous
 62
     7
370
     5
100
AcDbText
 10
840.4575657200172
 20
-875.3899159364443
 30
0.0
 40
22.86
  1
枠：８×２５×１．０
 41
1.15
  7
ＭＳ ゴシック
100
AcDbText
  0
TEXT
  5
619
330
1F
100
AcDbEntity
  8
2-4
  6
Continuous
 62
    40
370
     9
100
AcDbText
 10
699.172643713049
 20
-404.1998239548142
 30
0.0
 40
30.48
  1
6
 41
0.9999999999999998
  7
ＭＳ ゴシック
100
AcDbText
  0
TEXT
  5
61A
330
1F
100
AcDbEntity
  8
2-4
  6
Continuous
 62
    40
370
     9
100
AcDbText
 10
764.17236328125
 20
-404.1998239548142
 30
0.0
 40
30.48
  1
7
 41
0.9999999999999998
  7
ＭＳ ゴシック
100
AcDbText
  0
TEXT
  5
61B
330
1F
100
AcDbEntity
  8
2-4
  6
Continuous
 62
    40
370
     9
100
AcDbText
 10
829.1725777290964
 20
-404.1998239548142
 30
0.0
 40
30.48
  1
6
 41
0.9999999999999998
  7
ＭＳ ゴシック
100
AcDbText
  0
TEXT
  5
61C
330
1F
100
AcDbEntity
  8
2-4
  6
Continuous
 62
    40
370
     9
100
AcDbText
 10
894.1727921769427
 20
-404.1998239548142
 30
0.0
 40
30.48
  1
7
 41
0.9999999999999998
  7
ＭＳ ゴシック
100
AcDbText
  0
TEXT
  5
61D
330
1F
100
AcDbEntity
  8
2-4
  6
Continuous
 62
    40
370
     9
100
AcDbText
 10
959.1727591849661
 20
-404.1998239548142
 30
0.0
 40
30.48
  1
6
 41
0.9999999999999998
  7
ＭＳ ゴシック
100
AcDbText
  0
TEXT
  5
61E
330
1F
100
AcDbEntity
  8
2-4
  6
Continuous
 62
    40
370
     9
100
AcDbText
 10
661.9398787214953
 20
-783.730694547086
 30
0.0
 40
30.48
  1
2
 41
0.9999999999999998
  7
ＭＳ ゴシック
100
AcDbText
  0
TEXT
  5
61F
330
1F
100
AcDbEntity
  8
D-5
  6
Continuous
 62
     7
370
     5
100
AcDbText
 10
592.2491949957771
 20
1109.600796822213
 30
0.0
 40
22.86
  1
メインバー：ｔ２．０
 41
1.15
  7
ＭＳ ゴシック
100
AcDbText
  0
TEXT
  5
620
330
1F
100
AcDbEntity
  8
D-4
  6
Continuous
 62
    40
370
     9
100
AcDbText
 10
692.4590023226355
 20
403.5135547534841
 30
0.0
 40
30.48
  1
8
 50
90.0
 41
0.9999999999999998
  7
ＭＳ ゴシック
100
AcDbText
  0
TEXT
  5
621
330
1F
100
AcDbEntity
  8
D-4
  6
Continuous
 62
    40
370
     9
100
AcDbText
 10
692.4590023226355
 20
448.736275337838
 30
0.0
 40
30.48
  1
2
 50
90.0
 41
0.9999999999999998
  7
ＭＳ ゴシック
100
AcDbText
  0
TEXT
  5
622
330
1F
100
AcDbEntity
  8
1-5
  6
Continuous
 62
    40
370
     9
100
AcDbText
 10
220.218225427576
 20
-153.7253993348818
 30
0.0
 40
30.48
  1
Ｂ
 41
0.9999999999999998
  7
ＭＳ ゴシック
100
AcDbText
  0
TEXT
  5
623
330
1F
100
AcDbEntity
  8
1-4
  6
Continuous
 62
    40
370
     9
100
AcDbText
 10
-522.7948163006755
 20
-92.28757601351354
 30
0.0
 40
30.48
  1
170
 41
1.083333333333333
  7
ＭＳ ゴシック
100
AcDbText
  0
TEXT
  5
624
330
1F
100
AcDbEntity
  8
1-4
  6
Continuous
 62
    40
370
     9
100
AcDbText
 10
-1615.544994457348
 20
-158.3376776288005
 30
0.0
 40
30.48
  1
30
 41
1.0625
  7
ＭＳ ゴシック
100
AcDbText
  0
TEXT
  5
625
330
1F
100
AcDbEntity
  8
1-4
  6
Continuous
 62
    40
370
     9
100
AcDbText
 10
-15.54540685705234
 20
-158.3376776288005
 30
0.0
 40
30.48
  1
30
 41
1.0625
  7
ＭＳ ゴシック
100
AcDbText
  0
TEXT
  5
626
330
1F
100
AcDbEntity
  8
1-4
  6
Continuous
 62
    40
370
     9
100
AcDbText
 10
-1674.56434095228
 20
-221.4491839104729
 30
0.0
 40
30.48
  1
8
 41
1.000000206199857
  7
ＭＳ ゴシック
100
AcDbText
  0
TEXT
  5
627
330
1F
100
AcDbEntity
  8
1-4
  6
Continuous
 62
    40
370
     9
100
AcDbText
 10
-1616.082433752111
 20
-221.4491839104729
 30
0.0
 40
30.48
  1
2
 41
1.000000206199857
  7
ＭＳ ゴシック
100
AcDbText
  0
TEXT
  5
628
330
1F
100
AcDbEntity
  8
1-4
  6
Continuous
 62
    40
370
     9
100
AcDbText
 10
9.080051731419019
 20
-221.4491839104729
 30
0.0
 40
30.48
  1
2
 41
0.9999999999999998
  7
ＭＳ ゴシック
100
AcDbText
  0
TEXT
  5
629
330
1F
100
AcDbEntity
  8
1-4
  6
Continuous
 62
    40
370
     9
100
AcDbText
 10
67.04678922086174
 20
-221.4491839104729
 30
0.0
 40
30.48
  1
8
 41
0.9999999999999998
  7
ＭＳ ゴシック
100
AcDbText
  0
TEXT
  5
62A
330
1F
100
AcDbEntity
  8
1-4
  6
Continuous
 62
    40
370
     9
100
AcDbText
 10
213.2143371252112
 20
-38.97874986803203
 30
0.0
 40
30.48
  1
8
 50
90.0
 41
0.9999999999999997
  7
ＭＳ ゴシック
100
AcDbText
  0
TEXT
  5
62B
330
1F
100
AcDbEntity
  8
1-4
  6
Continuous
 62
    40
370
     9
100
AcDbText
 10
213.2143371252112
 20
18.61237397065054
 30
0.0
 40
30.48
  1
2
 50
90.0
 41
0.9999999999999998
  7
ＭＳ ゴシック
100
AcDbText
  0
TEXT
  5
62C
330
1F
100
AcDbEntity
  8
1-4
  6
Continuous
 62
    40
370
     9
100
AcDbText
 10
213.2143371252112
 20
1144.189156197213
 30
0.0
 40
30.48
  1
2
 50
90.0
 41
0.9999999999999998
  7
ＭＳ ゴシック
100
AcDbText
  0
TEXT
  5
62D
330
1F
100
AcDbEntity
  8
1-4
  6
Continuous
 62
    40
370
     9
100
AcDbText
 10
213.2143371252112
 20
1198.786753061656
 30
0.0
 40
30.48
  1
8
 50
90.0
 41
0.9999999999999998
  7
ＭＳ ゴシック
100
AcDbText
  0
TEXT
  5
62E
330
1F
100
AcDbEntity
  8
2-4
  6
Continuous
 62
    40
370
     9
100
AcDbText
 10
-1799.96879165237
 20
-1100.31386402027
 30
0.0
 40
30.48
  1
注記：メインバーの両端部のピッチは、玄関マットの大きさにより狭くなる場合があります。
 41
1.122023810751189
  7
ＭＳ ゴシック
100
AcDbText
  0
TEXT
  5
62F
330
1F
100
AcDbEntity
  8
2-5
  6
Continuous
 62
     7
370
     5
100
AcDbText
 10
-1759.943451752534
 20
-826.2441606841217
 30
0.0
 40
22.86
  1
メインバー表面　Ｓ＝１：１
 41
1.153846153846154
  7
ＭＳ ゴシック
100
AcDbText
  0
TEXT
  5
630
330
1F
100
AcDbEntity
  8
2-5
  6
Continuous
 62
     7
370
     5
100
AcDbText
 10
-1462.646979254645
 20
-578.0704315350506
 30
0.0
 40
22.86
  1
ローレットアヤ目模様
 41
1.15
  7
ＭＳ ゴシック
100
AcDbText
  0
TEXT
  5
631
330
1F
100
AcDbEntity
  8
2-4
  6
Continuous
 62
    40
370
     9
100
AcDbText
 10
-1548.755295212204
 20
-488.6287658361485
 30
0.0
 40
30.48
  1
6
 41
1.00000020627639
  7
ＭＳ ゴシック
100
AcDbText
  0
TEXT
  5
632
330
1F
100
AcDbEntity
  8
2-5
  6
Continuous
 62
     7
370
     5
100
AcDbText
 10
115.8805228568414
 20
-804.9009913429053
 30
0.0
 40
22.86
  1
クロスバー：□７
 41
1.145833333333333
  7
ＭＳ ゴシック
100
AcDbText
  0
TEXT
  5
633
330
1F
100
AcDbEntity
  8
D-5
  6
Continuous
 62
     7
370
     5
100
AcDbText
 10
894.4704622835729
 20
1167.62716730891
 30
0.0
 40
22.86
  1
クロスバー：□７
 41
1.145833333333333
  7
ＭＳ ゴシック
100
AcDbText
  0
TEXT
  5
634
330
1F
100
AcDbEntity
  8
1-4
  6
Continuous
 62
    40
370
     9
100
AcDbText
 10
-1027.300612990921
 20
-477.8057479940878
 30
0.0
 40
30.48
  1
平面詳細図　Ｓ＝１：５
 41
1.113636382381805
  7
ＭＳ ゴシック
100
AcDbText
  0
TEXT
  5
635
330
1F
100
AcDbEntity
  8
D-4
  6
Continuous
 62
    40
370
     9
100
AcDbText
 10
884.4761204075172
 20
-48.73915698902032
 30
0.0
 40
30.48
  1
Ｂ部平面詳細図　Ｓ＝１：２
 41
1.115384615384615
  7
ＭＳ ゴシック
100
AcDbText
  0
TEXT
  5
636
330
1F
100
AcDbEntity
  8
2-4
  6
Continuous
 62
    40
370
     9
100
AcDbText
 10
717.3369536528719
 20
-1106.701028161951
 30
0.0
 40
30.48
  1
断面Ａ詳細図　Ｓ＝１：１
 41
1.114583333333333
  7
ＭＳ ゴシック
100
AcDbText
  0
ENDSEC
  0
SECTION
  2
OBJECTS
  0
DICTIONARY
  5
C
330
0
100
AcDbDictionary
281
     1
  3
ACAD_GROUP
350
D
  3
ACAD_LAYOUT
350
1A
  3
ACAD_MLEADERSTYLE
350
638
  3
ACAD_MLINESTYLE
350
17
  3
ACAD_PLOTSETTINGS
350
19
  3
ACAD_PLOTSTYLENAME
350
E
  3
ACAD_TABLESTYLE
350
637
  3
ACAD_VISUALSTYLE
350
2A
  0
DICTIONARY
  5
D
102
{ACAD_REACTORS
330
C
102
}
330
C
100
AcDbDictionary
281
     1
  0
DICTIONARY
  5
1A
102
{ACAD_REACTORS
330
C
102
}
330
C
100
AcDbDictionary
281
     1
  3
Layout1
350
1E
  3
Layout2
350
26
  3
Model
350
22
  0
DICTIONARY
  5
638
102
{ACAD_REACTORS
330
C
102
}
330
C
100
AcDbDictionary
281
     1
  0
DICTIONARY
  5
17
102
{ACAD_REACTORS
330
C
102
}
330
C
100
AcDbDictionary
281
     1
  3
Standard
350
18
  0
DICTIONARY
  5
19
102
{ACAD_REACTORS
330
C
102
}
330
C
100
AcDbDictionary
281
     1
  0
ACDBDICTIONARYWDFLT
  5
E
102
{ACAD_REACTORS
330
C
102
}
330
C
100
AcDbDictionary
281
     1
  3
Normal
350
F
100
AcDbDictionaryWithDefault
340
F
  0
DICTIONARY
  5
637
102
{ACAD_REACTORS
330
C
102
}
330
C
100
AcDbDictionary
281
     1
  0
DICTIONARY
  5
2A
102
{ACAD_REACTORS
330
C
102
}
330
C
100
AcDbDictionary
281
     1
  3
2dWireframe
350
2F
  3
3D Hidden
350
31
  3
3dWireframe
350
30
  3
Basic
350
32
  3
Brighten
350
36
  3
ColorChange
350
3A
  3
Conceptual
350
34
  3
Dim
350
35
  3
Facepattern
350
39
  3
Flat
350
2B
  3
FlatWithEdges
350
2C
  3
Gouraud
350
2D
  3
GouraudWithEdges
350
2E
  3
Linepattern
350
38
  3
Realistic
350
33
  3
Thicken
350
37
  0
LAYOUT
  5
1E
102
{ACAD_REACTORS
330
1A
102
}
330
1A
100
AcDbPlotSettings
  1

  2
none_device
  4

  6

 40
0.0
 41
0.0
 42
0.0
 43
0.0
 44
0.0
 45
0.0
 46
0.0
 47
0.0
 48
0.0
 49
0.0
140
0.0
141
0.0
142
1.0
143
1.0
 70
   688
 72
     0
 73
     0
 74
     5
  7

 75
    16
 76
     0
 77
     5
 78
   300
147
1.0
148
0.0
149
0.0
100
AcDbLayout
  1
Layout1
 70
     1
 71
     1
 10
0.0
 20
0.0
 11
420.0
 21
297.0
 12
0.0
 22
0.0
 32
0.0
 14
1.000000000000000E+20
 24
1.000000000000000E+20
 34
1.000000000000000E+20
 15
-1.000000000000000E+20
 25
-1.000000000000000E+20
 35
-1.000000000000000E+20
146
0.0
 13
0.0
 23
0.0
 33
0.0
 16
1.0
 26
0.0
 36
0.0
 17
0.0
 27
1.0
 37
0.0
 76
     0
330
1B
  0
LAYOUT
  5
26
102
{ACAD_REACTORS
330
1A
102
}
330
1A
100
AcDbPlotSettings
  1

  2
none_device
  4

  6

 40
0.0
 41
0.0
 42
0.0
 43
0.0
 44
0.0
 45
0.0
 46
0.0
 47
0.0
 48
0.0
 49
0.0
140
0.0
141
0.0
142
1.0
143
1.0
 70
   688
 72
     0
 73
     0
 74
     5
  7

 75
    16
 76
     0
 77
     5
 78
   300
147
1.0
148
0.0
149
0.0
100
AcDbLayout
  1
Layout2
 70
     1
 71
     2
 10
0.0
 20
0.0
 11
0.0
 21
0.0
 12
0.0
 22
0.0
 32
0.0
 14
0.0
 24
0.0
 34
0.0
 15
0.0
 25
0.0
 35
0.0
146
0.0
 13
0.0
 23
0.0
 33
0.0
 16
1.0
 26
0.0
 36
0.0
 17
0.0
 27
1.0
 37
0.0
 76
     0
330
23
  0
LAYOUT
  5
22
102
{ACAD_REACTORS
330
1A
102
}
330
1A
100
AcDbPlotSettings
  1

  2
none_device
  4

  6

 40
0.0
 41
0.0
 42
0.0
 43
0.0
 44
0.0
 45
0.0
 46
0.0
 47
0.0
 48
0.0
 49
0.0
140
0.0
141
0.0
142
1.0
143
1.0
 70
  1712
 72
     0
 73
     0
 74
     0
  7

 75
     0
 76
     0
 77
     5
 78
   300
147
1.0
148
0.0
149
0.0
100
AcDbLayout
  1
Model
 70
     1
 71
     0
 10
-2100.0
 20
-1485.0
 11
2100.0
 21
1485.0
 12
0.0
 22
0.0
 32
0.0
 14
-2100.0
 24
-1485.0
 34
0.0
 15
2100.0
 25
1485.0
 35
0.0
146
0.0
 13
0.0
 23
0.0
 33
0.0
 16
1.0
 26
0.0
 36
0.0
 17
0.0
 27
1.0
 37
0.0
 76
     0
330
1F
331
29
  0
MLINESTYLE
  5
18
102
{ACAD_REACTORS
330
17
102
}
330
17
100
AcDbMlineStyle
  2
Standard
 70
     0
  3

 62
   256
 51
90.0
 52
90.0
 71
     2
 49
0.5
 62
   256
  6
BYLAYER
 49
-0.5
 62
   256
  6
BYLAYER
  0
ACDBPLACEHOLDER
  5
F
102
{ACAD_REACTORS
330
E
102
}
330
E
  0
VISUALSTYLE
  5
2F
102
{ACAD_REACTORS
330
2A
102
}
330
2A
100
AcDbVisualStyle
  2
2dWireframe
 70
     4
 71
     0
 72
     2
 73
     0
 90
        0
 40
-0.6
 41
-30.0
 62
     5
 63
     7
421
 16777215
 74
     1
 91
        4
 64
     7
 65
   257
 75
     1
175
     1
 42
1.0
 92
        0
 66
   257
 43
1.0
 76
     1
 77
     6
 78
     2
 67
     7
 79
     5
170
     0
171
     0
290
     0
174
     0
 93
        1
 44
0.0
173
     0
291
     0
 45
0.0
1001
ACAD
1000
AcDbSavedByObjectVersion
1070
     0
  0
VISUALSTYLE
  5
31
102
{ACAD_REACTORS
330
2A
102
}
330
2A
100
AcDbVisualStyle
  2
3D Hidden
 70
     6
 71
     1
 72
     2
 73
     2
 90
        0
 40
-0.6
 41
-30.0
 62
     5
 63
     7
421
 16777215
 74
     2
 91
        2
 64
     7
 65
   257
 75
     2
175
     1
 42
40.0
 92
        0
 66
   257
 43
1.0
 76
     1
 77
     6
 78
     2
 67
     7
 79
     3
170
     0
171
     0
290
     0
174
     0
 93
        1
 44
0.0
173
     0
291
     0
 45
0.0
1001
ACAD
1000
AcDbSavedByObjectVersion
1070
     0
  0
VISUALSTYLE
  5
30
102
{ACAD_REACTORS
330
2A
102
}
330
2A
100
AcDbVisualStyle
  2
3dWireframe
 70
     5
 71
     0
 72
     2
 73
     0
 90
        0
 40
-0.6
 41
-30.0
 62
     5
 63
     7
421
 16777215
 74
     1
 91
        4
 64
     7
 65
   257
 75
     1
175
     1
 42
1.0
 92
        0
 66
   257
 43
1.0
 76
     1
 77
     6
 78
     2
 67
     7
 79
     5
170
     0
171
     0
290
     0
174
     0
 93
        1
 44
0.0
173
     0
291
     0
 45
0.0
1001
ACAD
1000
AcDbSavedByObjectVersion
1070
     0
  0
VISUALSTYLE
  5
32
102
{ACAD_REACTORS
330
2A
102
}
330
2A
100
AcDbVisualStyle
  2
Basic
 70
     7
 71
     1
 72
     0
 73
     1
 90
        0
 40
-0.6
 41
-30.0
 62
     5
 63
     7
421
 16777215
 74
     0
 91
        4
 64
     7
 65
   257
 75
     1
175
     1
 42
1.0
 92
        8
 66
     7
 43
1.0
 76
     1
 77
     6
 78
     2
 67
     7
 79
     5
170
     0
171
     0
290
     0
174
     0
 93
        1
 44
0.0
173
     0
291
     1
 45
0.0
1001
ACAD
1000
AcDbSavedByObjectVersion
1070
     0
  0
VISUALSTYLE
  5
36
102
{ACAD_REACTORS
330
2A
102
}
330
2A
100
AcDbVisualStyle
  2
Brighten
 70
    12
 71
     2
 72
     2
 73
     0
 90
        0
 40
-0.6
 41
-30.0
 62
     5
 63
     7
421
 16777215
 74
     1
 91
        4
 64
     7
 65
   257
 75
     1
175
     1
 42
1.0
 92
        8
 66
     7
 43
1.0
 76
     1
 77
     6
 78
     2
 67
     7
 79
     5
170
     0
171
     0
290
     0
174
     0
 93
        1
 44
50.0
173
     0
291
     1
 45
0.0
1001
ACAD
1000
AcDbSavedByObjectVersion
1070
     0
  0
VISUALSTYLE
  5
3A
102
{ACAD_REACTORS
330
2A
102
}
330
2A
100
AcDbVisualStyle
  2
ColorChange
 70
    16
 71
     2
 72
     2
 73
     3
 90
        0
 40
-0.6
 41
-30.0
 62
     5
 63
     8
421
  8421504
 74
     1
 91
        4
 64
     7
 65
   257
 75
     1
175
     1
 42
1.0
 92
        8
 66
     8
424
  8421504
 43
1.0
 76
     1
 77
     6
 78
     2
 67
     7
 79
     5
170
     0
171
     0
290
     0
174
     0
 93
        1
 44
0.0
173
     0
291
     1
 45
0.0
1001
ACAD
1000
AcDbSavedByObjectVersion
1070
     0
  0
VISUALSTYLE
  5
34
102
{ACAD_REACTORS
330
2A
102
}
330
2A
100
AcDbVisualStyle
  2
Conceptual
 70
     9
 71
     3
 72
     2
 73
     0
 90
        0
 40
-0.6
 41
-30.0
 62
     5
 63
     7
421
 16777215
 74
     2
 91
        2
 64
     7
 65
   257
 75
     1
175
     1
 42
40.0
 92
        8
 66
     7
 43
1.0
 76
     1
 77
     6
 78
     2
 67
     7
 79
     3
170
     0
171
     0
290
     0
174
     0
 93
        1
 44
0.0
173
     0
291
     0
 45
0.0
1001
ACAD
1000
AcDbSavedByObjectVersion
1070
     0
  0
VISUALSTYLE
  5
35
102
{ACAD_REACTORS
330
2A
102
}
330
2A
100
AcDbVisualStyle
  2
Dim
 70
    11
 71
     2
 72
     2
 73
     0
 90
        0
 40
-0.6
 41
-30.0
 62
     5
 63
     7
421
 16777215
 74
     1
 91
        4
 64
     7
 65
   257
 75
     1
175
     1
 42
1.0
 92
        8
 66
     7
 43
1.0
 76
     1
 77
     6
 78
     2
 67
     7
 79
     5
170
     0
171
     0
290
     0
174
     0
 93
        1
 44
-50.0
173
     0
291
     1
 45
0.0
1001
ACAD
1000
AcDbSavedByObjectVersion
1070
     0
  0
VISUALSTYLE
  5
39
102
{ACAD_REACTORS
330
2A
102
}
330
2A
100
AcDbVisualStyle
  2
Facepattern
 70
    15
 71
     2
 72
     2
 73
     0
 90
        0
 40
-0.6
 41
-30.0
 62
     5
 63
     7
421
 16777215
 74
     1
 91
        4
 64
     7
 65
   257
 75
     1
175
     1
 42
1.0
 92
        8
 66
     7
 43
1.0
 76
     1
 77
     6
 78
     2
 67
     7
 79
     5
170
     0
171
     0
290
     0
174
     0
 93
        1
 44
0.0
173
     0
291
     1
 45
0.0
1001
ACAD
1000
AcDbSavedByObjectVersion
1070
     0
  0
VISUALSTYLE
  5
2B
102
{ACAD_REACTORS
330
2A
102
}
330
2A
100
AcDbVisualStyle
  2
Flat
 70
     0
 71
     2
 72
     1
 73
     1
 90
        2
 40
-0.6
 41
30.0
 62
     5
 63
     7
421
 16777215
 74
     0
 91
        4
 64
     7
 65
   257
 75
     1
175
     1
 42
1.0
 92
        8
 66
     7
 43
1.0
 76
     1
 77
     6
 78
     2
 67
     7
 79
     5
170
     0
171
     0
290
     0
174
     0
 93
       13
 44
0.0
173
     0
291
     1
 45
0.0
1001
ACAD
1000
AcDbSavedByObjectVersion
1070
     0
  0
VISUALSTYLE
  5
2C
102
{ACAD_REACTORS
330
2A
102
}
330
2A
100
AcDbVisualStyle
  2
FlatWithEdges
 70
     1
 71
     2
 72
     1
 73
     1
 90
        2
 40
-0.6
 41
30.0
 62
     5
 63
     7
421
 16777215
 74
     1
 91
        4
 64
     7
 65
   257
 75
     1
175
     1
 42
1.0
 92
        0
 66
   257
 43
1.0
 76
     1
 77
     6
 78
     2
 67
     7
 79
     5
170
     0
171
     0
290
     0
174
     0
 93
       13
 44
0.0
173
     0
291
     1
 45
0.0
1001
ACAD
1000
AcDbSavedByObjectVersion
1070
     0
  0
VISUALSTYLE
  5
2D
102
{ACAD_REACTORS
330
2A
102
}
330
2A
100
AcDbVisualStyle
  2
Gouraud
 70
     2
 71
     2
 72
     2
 73
     1
 90
        2
 40
-0.6
 41
30.0
 62
     5
 63
     7
421
 16777215
 74
     0
 91
        4
 64
     7
 65
   257
 75
     1
175
     1
 42
1.0
 92
        0
 66
     7
 43
1.0
 76
     1
 77
     6
 78
     2
 67
     7
 79
     5
170
     0
171
     0
290
     0
174
     0
 93
       13
 44
0.0
173
     0
291
     1
 45
0.0
1001
ACAD
1000
AcDbSavedByObjectVersion
1070
     0
  0
VISUALSTYLE
  5
2E
102
{ACAD_REACTORS
330
2A
102
}
330
2A
100
AcDbVisualStyle
  2
GouraudWithEdges
 70
     3
 71
     2
 72
     2
 73
     1
 90
        2
 40
-0.6
 41
30.0
 62
     5
 63
     7
421
 16777215
 74
     1
 91
        4
 64
     7
 65
   257
 75
     1
175
     1
 42
1.0
 92
        0
 66
   257
 43
1.0
 76
     1
 77
     6
 78
     2
 67
     7
 79
     5
170
     0
171
     0
290
     0
174
     0
 93
       13
 44
0.0
173
     0
291
     1
 45
0.0
1001
ACAD
1000
AcDbSavedByObjectVersion
1070
     0
  0
VISUALSTYLE
  5
38
102
{ACAD_REACTORS
330
2A
102
}
330
2A
100
AcDbVisualStyle
  2
Linepattern
 70
    14
 71
     2
 72
     2
 73
     0
 90
        0
 40
-0.6
 41
-30.0
 62
     5
 63
     7
421
 16777215
 74
     1
 91
        4
 64
     7
 65
   257
 75
     7
175
     7
 42
1.0
 92
        8
 66
     7
 43
1.0
 76
     1
 77
     6
 78
     2
 67
     7
 79
     5
170
     0
171
     0
290
     0
174
     0
 93
        1
 44
0.0
173
     0
291
     1
 45
0.0
1001
ACAD
1000
AcDbSavedByObjectVersion
1070
     0
  0
VISUALSTYLE
  5
33
102
{ACAD_REACTORS
330
2A
102
}
330
2A
100
AcDbVisualStyle
  2
Realistic
 70
     8
 71
     2
 72
     2
 73
     0
 90
        0
 40
-0.6
 41
-30.0
 62
     5
 63
     7
421
 16777215
 74
     1
 91
        0
 64
     7
 65
   257
 75
     1
175
     1
 42
1.0
 92
        8
 66
     8
424
  7895160
 43
1.0
 76
     1
 77
     6
 78
     2
 67
     7
 79
     5
170
     0
171
     0
290
     0
174
     0
 93
       13
 44
0.0
173
     0
291
     0
 45
0.0
1001
ACAD
1000
AcDbSavedByObjectVersion
1070
     0
  0
VISUALSTYLE
  5
37
102
{ACAD_REACTORS
330
2A
102
}
330
2A
100
AcDbVisualStyle
  2
Thicken
 70
    13
 71
     2
 72
     2
 73
     0
 90
        0
 40
-0.6
 41
-30.0
 62
     5
 63
     7
421
 16777215
 74
     1
 91
        4
 64
     7
 65
   257
 75
     1
175
     1
 42
1.0
 92
       12
 66
     7
 43
1.0
 76
     1
 77
     6
 78
     2
 67
     7
 79
     5
170
     0
171
     0
290
     0
174
     0
 93
        1
 44
0.0
173
     0
291
     1
 45
0.0
1001
ACAD
1000
AcDbSavedByObjectVersion
1070
     0
  0
ENDSEC
  0
EOF
