  0
SECTION
  2
HEADER
  9
$ACADVER
  1
AC1018
  9
$ACADMAINTVER
 70
     0
  9
$DWGCODEPAGE
  3
ANSI_932
  9
$INSBASE
 10
0.0
 20
0.0
 30
0.0
  9
$EXTMIN
 10
-1050.0
 20
-742.5
 30
0.0
  9
$EXTMAX
 10
1050.0
 20
742.5
 30
0.0
  9
$LIMMIN
 10
-1050.0
 20
-742.5
  9
$LIMMAX
 10
1050.0
 20
742.5
  9
$ORTHOMODE
 70
     0
  9
$REGENMODE
 70
     1
  9
$FILLMODE
 70
     1
  9
$QTEXTMODE
 70
     0
  9
$MIRRTEXT
 70
     1
  9
$LTSCALE
 40
5.0
  9
$ATTMODE
 70
     1
  9
$TEXTSIZE
 40
2.5
  9
$TRACEWID
 40
1.0
  9
$TEXTSTYLE
  7
Standard
  9
$CLAYER
  8
0
  9
$CELTYPE
  6
ByLayer
  9
$CECOLOR
 62
   256
  9
$CELTSCALE
 40
1.0
  9
$DISPSILH
 70
     0
  9
$DIMSCALE
 40
1.0
  9
$DIMASZ
 40
2.5
  9
$DIMEXO
 40
0.625
  9
$DIMDLI
 40
3.75
  9
$DIMRND
 40
0.0
  9
$DIMDLE
 40
0.0
  9
$DIMEXE
 40
1.25
  9
$DIMTP
 40
0.0
  9
$DIMTM
 40
0.0
  9
$DIMTXT
 40
2.5
  9
$DIMCEN
 40
2.5
  9
$DIMTSZ
 40
0.0
  9
$DIMTOL
 70
     0
  9
$DIMLIM
 70
     0
  9
$DIMTIH
 70
     0
  9
$DIMTOH
 70
     0
  9
$DIMSE1
 70
     0
  9
$DIMSE2
 70
     0
  9
$DIMTAD
 70
     1
  9
$DIMZIN
 70
     8
  9
$DIMBLK
  1

  9
$DIMASO
 70
     1
  9
$DIMSHO
 70
     1
  9
$DIMPOST
  1

  9
$DIMAPOST
  1

  9
$DIMALT
 70
     0
  9
$DIMALTD
 70
     3
  9
$DIMALTF
 40
0.03937007874016
  9
$DIMLFAC
 40
1.0
  9
$DIMTOFL
 70
     1
  9
$DIMTVP
 40
0.0
  9
$DIMTIX
 70
     0
  9
$DIMSOXD
 70
     0
  9
$DIMSAH
 70
     0
  9
$DIMBLK1
  1

  9
$DIMBLK2
  1

  9
$DIMSTYLE
  2
ISO-25
  9
$DIMCLRD
 70
     0
  9
$DIMCLRE
 70
     0
  9
$DIMCLRT
 70
     0
  9
$DIMTFAC
 40
1.0
  9
$DIMGAP
 40
0.625
  9
$DIMJUST
 70
     0
  9
$DIMSD1
 70
     0
  9
$DIMSD2
 70
     0
  9
$DIMTOLJ
 70
     0
  9
$DIMTZIN
 70
     8
  9
$DIMALTZ
 70
     0
  9
$DIMALTTZ
 70
     0
  9
$DIMUPT
 70
     0
  9
$DIMDEC
 70
     2
  9
$DIMTDEC
 70
     2
  9
$DIMALTU
 70
     2
  9
$DIMALTTD
 70
     3
  9
$DIMTXSTY
  7
Standard
  9
$DIMAUNIT
 70
     0
  9
$DIMADEC
 70
     0
  9
$DIMALTRND
 40
0.0
  9
$DIMAZIN
 70
     0
  9
$DIMDSEP
 70
    44
  9
$DIMATFIT
 70
     3
  9
$DIMFRAC
 70
     0
  9
$DIMLDRBLK
  1

  9
$DIMLUNIT
 70
     2
  9
$DIMLWD
 70
    -2
  9
$DIMLWE
 70
    -2
  9
$DIMTMOVE
 70
     0
  9
$LUNITS
 70
     2
  9
$LUPREC
 70
     4
  9
$SKETCHINC
 40
1.0
  9
$FILLETRAD
 40
10.0
  9
$AUNITS
 70
     0
  9
$AUPREC
 70
     0
  9
$MENU
  1
.
  9
$ELEVATION
 40
0.0
  9
$PELEVATION
 40
0.0
  9
$THICKNESS
 40
0.0
  9
$LIMCHECK
 70
     0
  9
$CHAMFERA
 40
0.0
  9
$CHAMFERB
 40
0.0
  9
$CHAMFERC
 40
0.0
  9
$CHAMFERD
 40
0.0
  9
$SKPOLY
 70
     0
  9
$TDCREATE
 40
2459489.40915463
  9
$TDUCREATE
 40
2459489.03415463
  9
$TDUPDATE
 40
2459489.409154757
  9
$TDUUPDATE
 40
2459489.034154757
  9
$TDINDWG
 40
0.0000000116
  9
$TDUSRTIMER
 40
0.0000000116
  9
$USRTIMER
 70
     1
  9
$ANGBASE
 50
0.0
  9
$ANGDIR
 70
     0
  9
$PDMODE
 70
     0
  9
$PDSIZE
 40
0.0
  9
$PLINEWID
 40
0.0
  9
$SPLFRAME
 70
     0
  9
$SPLINETYPE
 70
     6
  9
$SPLINESEGS
 70
     8
  9
$HANDSEED
  5
43C
  9
$SURFTAB1
 70
     6
  9
$SURFTAB2
 70
     6
  9
$SURFTYPE
 70
     6
  9
$SURFU
 70
     6
  9
$SURFV
 70
     6
  9
$UCSBASE
  2

  9
$UCSNAME
  2

  9
$UCSORG
 10
0.0
 20
0.0
 30
0.0
  9
$UCSXDIR
 10
1.0
 20
0.0
 30
0.0
  9
$UCSYDIR
 10
0.0
 20
1.0
 30
0.0
  9
$UCSORTHOREF
  2

  9
$UCSORTHOVIEW
 70
     0
  9
$UCSORGTOP
 10
0.0
 20
0.0
 30
0.0
  9
$UCSORGBOTTOM
 10
0.0
 20
0.0
 30
0.0
  9
$UCSORGLEFT
 10
0.0
 20
0.0
 30
0.0
  9
$UCSORGRIGHT
 10
0.0
 20
0.0
 30
0.0
  9
$UCSORGFRONT
 10
0.0
 20
0.0
 30
0.0
  9
$UCSORGBACK
 10
0.0
 20
0.0
 30
0.0
  9
$PUCSBASE
  2

  9
$PUCSNAME
  2

  9
$PUCSORG
 10
0.0
 20
0.0
 30
0.0
  9
$PUCSXDIR
 10
1.0
 20
0.0
 30
0.0
  9
$PUCSYDIR
 10
0.0
 20
1.0
 30
0.0
  9
$PUCSORTHOREF
  2

  9
$PUCSORTHOVIEW
 70
     0
  9
$PUCSORGTOP
 10
0.0
 20
0.0
 30
0.0
  9
$PUCSORGBOTTOM
 10
0.0
 20
0.0
 30
0.0
  9
$PUCSORGLEFT
 10
0.0
 20
0.0
 30
0.0
  9
$PUCSORGRIGHT
 10
0.0
 20
0.0
 30
0.0
  9
$PUCSORGFRONT
 10
0.0
 20
0.0
 30
0.0
  9
$PUCSORGBACK
 10
0.0
 20
0.0
 30
0.0
  9
$USERI1
 70
     0
  9
$USERI2
 70
     0
  9
$USERI3
 70
     0
  9
$USERI4
 70
     0
  9
$USERI5
 70
     0
  9
$USERR1
 40
0.0
  9
$USERR2
 40
0.0
  9
$USERR3
 40
0.0
  9
$USERR4
 40
0.0
  9
$USERR5
 40
0.0
  9
$WORLDVIEW
 70
     1
  9
$SHADEDGE
 70
     3
  9
$SHADEDIF
 70
    70
  9
$TILEMODE
 70
     1
  9
$MAXACTVP
 70
    64
  9
$PINSBASE
 10
0.0
 20
0.0
 30
0.0
  9
$PLIMCHECK
 70
     0
  9
$PEXTMIN
 10
1.000000000000000E+20
 20
1.000000000000000E+20
 30
1.000000000000000E+20
  9
$PEXTMAX
 10
-1.000000000000000E+20
 20
-1.000000000000000E+20
 30
-1.000000000000000E+20
  9
$PLIMMIN
 10
0.0
 20
0.0
  9
$PLIMMAX
 10
420.0
 20
297.0
  9
$UNITMODE
 70
     0
  9
$VISRETAIN
 70
     1
  9
$PLINEGEN
 70
     0
  9
$PSLTSCALE
 70
     1
  9
$TREEDEPTH
 70
  3020
  9
$CMLSTYLE
  2
Standard
  9
$CMLJUST
 70
     0
  9
$CMLSCALE
 40
20.0
  9
$PROXYGRAPHICS
 70
     1
  9
$MEASUREMENT
 70
     1
  9
$CELWEIGHT
370
    -1
  9
$ENDCAPS
280
     0
  9
$JOINSTYLE
280
     0
  9
$LWDISPLAY
290
     0
  9
$INSUNITS
 70
     4
  9
$HYPERLINKBASE
  1

  9
$STYLESHEET
  1

  9
$XEDIT
290
     1
  9
$CEPSNTYPE
380
     0
  9
$PSTYLEMODE
290
     1
  9
$FINGERPRINTGUID
  2
{D49CE456-C590-48C6-B17F-DC804E6467F9}
  9
$VERSIONGUID
  2
{FAEB1C32-E019-11D5-929B-00C0DF256EC4}
  9
$EXTNAMES
290
     1
  9
$PSVPSCALE
 40
0.0
  9
$OLESTARTUP
290
     0
  9
$SORTENTS
280
   127
  9
$INDEXCTL
280
     0
  9
$HIDETEXT
280
     1
  9
$XCLIPFRAME
290
     0
  9
$HALOGAP
280
     0
  9
$OBSCOLOR
 70
   257
  9
$OBSLTYPE
280
     0
  9
$INTERSECTIONDISPLAY
280
     0
  9
$INTERSECTIONCOLOR
 70
   257
  9
$DIMASSOC
280
     2
  9
$PROJECTNAME
  1

  0
ENDSEC
  0
SECTION
  2
CLASSES
  0
CLASS
  1
ACDBDICTIONARYWDFLT
  2
AcDbDictionaryWithDefault
  3
ObjectDBX Classes
 90
        0
 91
        4
280
     0
281
     0
  0
CLASS
  1
VISUALSTYLE
  2
AcDbVisualStyle
  3
ObjectDBX Classes
 90
     4095
 91
        4
280
     0
281
     0
  0
CLASS
  1
MATERIAL
  2
AcDbMaterial
  3
ObjectDBX Classes
 90
     1153
 91
        4
280
     0
281
     0
  0
CLASS
  1
SCALE
  2
AcDbScale
  3
ObjectDBX Classes
 90
     1153
 91
        4
280
     0
281
     0
  0
CLASS
  1
TABLESTYLE
  2
AcDbTableStyle
  3
ObjectDBX Classes
 90
     4095
 91
        4
280
     0
281
     0
  0
CLASS
  1
MLEADERSTYLE
  2
AcDbMLeaderStyle
  3
ACDB_MLEADERSTYLE_CLASS
 90
     4095
 91
        4
280
     0
281
     0
  0
CLASS
  1
SUN
  2
AcDbSun
  3
SCENEOE
 90
     1153
 91
        4
280
     0
281
     0
  0
CLASS
  1
DICTIONARYVAR
  2
AcDbDictionaryVar
  3
ObjectDBX Classes
 90
        0
 91
        4
280
     0
281
     0
  0
CLASS
  1
CELLSTYLEMAP
  2
AcDbCellStyleMap
  3
ObjectDBX Classes
 90
     1152
 91
        4
280
     0
281
     0
  0
ENDSEC
  0
SECTION
  2
TABLES
  0
TABLE
  2
VPORT
  5
8
102
{ACAD_XDICTIONARY
360
3F3
102
}
330
0
100
AcDbSymbolTable
 70
     1
  0
VPORT
  5
29
330
8
100
AcDbSymbolTableRecord
100
AcDbViewportTableRecord
  2
*Active
 70
     0
 10
0.0
 20
0.0
 11
1.0
 21
1.0
 12
0.0
 22
0.0
 13
0.0
 23
0.0
 14
10.0
 24
10.0
 15
10.0
 25
10.0
 16
0.0
 26
0.0
 36
1.0
 17
0.0
 27
0.0
 37
0.0
 40
1633.5
 41
1.414141414141414
 42
50.0
 43
0.0
 44
0.0
 50
0.0
 51
0.0
 71
     0
 72
 10000
 73
     1
 74
     3
 75
     0
 76
     0
 77
     0
 78
     0
281
     0
 65
     1
110
0.0
120
0.0
130
0.0
111
1.0
121
0.0
131
0.0
112
0.0
122
1.0
132
0.0
 79
     0
146
0.0
  0
ENDTAB
  0
TABLE
  2
LTYPE
  5
5
330
0
100
AcDbSymbolTable
 70
     5
  0
LTYPE
  5
14
330
5
100
AcDbSymbolTableRecord
100
AcDbLinetypeTableRecord
  2
ByBlock
 70
     0
  3

 72
    65
 73
     0
 40
0.0
  0
LTYPE
  5
15
330
5
100
AcDbSymbolTableRecord
100
AcDbLinetypeTableRecord
  2
ByLayer
 70
     0
  3

 72
    65
 73
     0
 40
0.0
  0
LTYPE
  5
16
330
5
100
AcDbSymbolTableRecord
100
AcDbLinetypeTableRecord
  2
Continuous
 70
     0
  3
Solid line
 72
    65
 73
     0
 40
0.0
  0
LTYPE
  5
6F
330
5
100
AcDbSymbolTableRecord
100
AcDbLinetypeTableRecord
  2
JWW_CENTER1
 70
     0
  3
-----  --  ----------  --  -----
 72
    65
 73
     4
 40
6.773333333333333
 49
4.233333333333333
 74
     0
 49
-0.8466666666666667
 74
     0
 49
0.8466666666666667
 74
     0
 49
-0.8466666666666667
 74
     0
  0
LTYPE
  5
70
330
5
100
AcDbSymbolTableRecord
100
AcDbLinetypeTableRecord
  2
JWW_PHANTOM2
 70
     0
  3
------------  -  -  ------------
 72
    65
 73
     6
 40
13.54666666666667
 49
10.16
 74
     0
 49
-0.8466666666666667
 74
     0
 49
0.4233333333333333
 74
     0
 49
-0.8466666666666667
 74
     0
 49
0.4233333333333333
 74
     0
 49
-0.8466666666666667
 74
     0
  0
LTYPE
  5
71
330
5
100
AcDbSymbolTableRecord
100
AcDbLinetypeTableRecord
  2
JWW_DASHED3
 70
     0
  3
---  ------  ------  ------  ---
 72
    65
 73
     2
 40
3.386666666666667
 49
2.54
 74
     0
 49
-0.8466666666666667
 74
     0
  0
LTYPE
  5
72
330
5
100
AcDbSymbolTableRecord
100
AcDbLinetypeTableRecord
  2
JWW_CENTER2
 70
     0
  3
-------------  --  -------------
 72
    65
 73
     4
 40
13.54666666666667
 49
11.00666666666667
 74
     0
 49
-0.8466666666666667
 74
     0
 49
0.8466666666666667
 74
     0
 49
-0.8466666666666667
 74
     0
  0
ENDTAB
  0
TABLE
  2
LAYER
  5
2
330
0
100
AcDbSymbolTable
 70
     7
  0
LAYER
  5
10
330
2
100
AcDbSymbolTableRecord
100
AcDbLayerTableRecord
  2
0
 70
     0
 62
     7
  6
Continuous
370
    -3
390
F
  0
LAYER
  5
73
330
2
100
AcDbSymbolTableRecord
100
AcDbLayerTableRecord
  2
A-4_寸法
 70
     0
 62
     7
  6
Continuous
370
    -3
390
F
  0
LAYER
  5
74
330
2
100
AcDbSymbolTableRecord
100
AcDbLayerTableRecord
  2
A-2_蓋
 70
     0
 62
     7
  6
Continuous
370
    -3
390
F
  0
LAYER
  5
75
330
2
100
AcDbSymbolTableRecord
100
AcDbLayerTableRecord
  2
A-5_仕様文
 70
     0
 62
     7
  6
Continuous
370
    -3
390
F
  0
LAYER
  5
76
330
2
100
AcDbSymbolTableRecord
100
AcDbLayerTableRecord
  2
A-1_ピット
 70
     0
 62
     7
  6
Continuous
370
    -3
390
F
  0
LAYER
  5
77
330
2
100
AcDbSymbolTableRecord
100
AcDbLayerTableRecord
  2
F-5ﾚｲﾔ
 70
     0
 62
     7
  6
Continuous
370
    -3
390
F
  0
LAYER
  5
78
330
2
100
AcDbSymbolTableRecord
100
AcDbLayerTableRecord
  2
F-4ﾚｲﾔ
 70
     0
 62
     7
  6
Continuous
370
    -3
390
F
  0
ENDTAB
  0
TABLE
  2
STYLE
  5
3
330
0
100
AcDbSymbolTable
 70
     2
  0
STYLE
  5
11
330
3
100
AcDbSymbolTableRecord
100
AcDbTextStyleTableRecord
  2
Standard
 70
     0
 40
0.0
 41
1.0
 50
0.0
 71
     0
 42
2.5
  3
txt
  4

  0
STYLE
  5
6E
330
3
100
AcDbSymbolTableRecord
100
AcDbTextStyleTableRecord
  2
ＭＳ ゴシック
 70
     0
 40
1.0
 41
1.0
 50
0.0
 71
     0
 42
2.5
  3

  4

1001
ACAD
1000
MS Gothic
1071
    32817
  0
ENDTAB
  0
TABLE
  2
VIEW
  5
6
330
0
100
AcDbSymbolTable
 70
     0
  0
ENDTAB
  0
TABLE
  2
UCS
  5
7
330
0
100
AcDbSymbolTable
 70
     0
  0
ENDTAB
  0
TABLE
  2
APPID
  5
9
330
0
100
AcDbSymbolTable
 70
     2
  0
APPID
  5
12
330
9
100
AcDbSymbolTableRecord
100
AcDbRegAppTableRecord
  2
ACAD
 70
     0
  0
APPID
  5
432
330
9
100
AcDbSymbolTableRecord
100
AcDbRegAppTableRecord
  2
ACAD_MLEADERVER
 70
     0
  0
ENDTAB
  0
TABLE
  2
DIMSTYLE
  5
A
330
0
100
AcDbSymbolTable
 70
     1
100
AcDbDimStyleTable
  0
DIMSTYLE
105
27
330
A
100
AcDbSymbolTableRecord
100
AcDbDimStyleTableRecord
  2
ISO-25
 70
     0
 41
2.5
 42
0.625
 43
3.75
 44
1.25
 73
     0
 74
     0
 77
     1
 78
     8
140
2.5
141
2.5
143
0.03937007874016
147
0.625
171
     3
172
     1
178
     0
271
     2
272
     2
274
     3
278
    44
283
     0
284
     8
340
11
  0
ENDTAB
  0
TABLE
  2
BLOCK_RECORD
  5
1
330
0
100
AcDbSymbolTable
 70
     1
  0
BLOCK_RECORD
  5
1F
330
1
100
AcDbSymbolTableRecord
100
AcDbBlockTableRecord
  2
*Model_Space
340
22
  0
BLOCK_RECORD
  5
1B
330
1
100
AcDbSymbolTableRecord
100
AcDbBlockTableRecord
  2
*Paper_Space
340
1E
  0
BLOCK_RECORD
  5
23
330
1
100
AcDbSymbolTableRecord
100
AcDbBlockTableRecord
  2
*Paper_Space0
340
26
  0
ENDTAB
  0
ENDSEC
  0
SECTION
  2
BLOCKS
  0
BLOCK
  5
20
330
1F
100
AcDbEntity
  8
0
100
AcDbBlockBegin
  2
*Model_Space
 70
     0
 10
0.0
 20
0.0
 30
0.0
  3
*Model_Space
  1

  0
ENDBLK
  5
21
330
1F
100
AcDbEntity
  8
0
100
AcDbBlockEnd
  0
BLOCK
  5
1C
330
1B
100
AcDbEntity
 67
     1
  8
0
100
AcDbBlockBegin
  2
*Paper_Space
 70
     0
 10
0.0
 20
0.0
 30
0.0
  3
*Paper_Space
  1

  0
ENDBLK
  5
1D
330
1B
100
AcDbEntity
 67
     1
  8
0
100
AcDbBlockEnd
  0
BLOCK
  5
24
330
23
100
AcDbEntity
  8
0
100
AcDbBlockBegin
  2
*Paper_Space0
 70
     0
 10
0.0
 20
0.0
 30
0.0
  3
*Paper_Space0
  1

  0
ENDBLK
  5
25
330
23
100
AcDbEntity
  8
0
100
AcDbBlockEnd
  0
ENDSEC
  0
SECTION
  2
ENTITIES
  0
LWPOLYLINE
  5
79
330
1F
100
AcDbEntity
  8
A-4_寸法
  6
Continuous
 62
     7
370
     9
100
AcDbPolyline
 90
        4
 70
     1
 43
1.0
 10
553.891863848712
 20
-36.13508482237123
 42
0.4142135623731
 10
553.391863848712
 20
-35.63508482237123
 42
0.4142135623731
 10
552.891863848712
 20
-36.13508482237123
 42
0.4142135623731
 10
553.391863848712
 20
-36.63508482237123
 42
0.4142135623731
  0
LWPOLYLINE
  5
7A
330
1F
100
AcDbEntity
  8
A-4_寸法
  6
Continuous
 62
     7
370
     9
100
AcDbPolyline
 90
        4
 70
     1
 43
1.0
 10
553.891863848712
 20
-31.63514420792865
 42
0.4142135623731
 10
553.391863848712
 20
-31.13514420792865
 42
0.4142135623731
 10
552.891863848712
 20
-31.63514420792865
 42
0.4142135623731
 10
553.391863848712
 20
-32.13514420792865
 42
0.4142135623731
  0
LWPOLYLINE
  5
7B
330
1F
100
AcDbEntity
  8
A-4_寸法
  6
Continuous
 62
     7
370
     9
100
AcDbPolyline
 90
        4
 70
     1
 43
1.0
 10
553.891863848712
 20
-27.63515575512031
 42
0.4142135623731
 10
553.391863848712
 20
-27.13515575512031
 42
0.4142135623731
 10
552.891863848712
 20
-27.63515575512031
 42
0.4142135623731
 10
553.391863848712
 20
-28.13515575512031
 42
0.4142135623731
  0
LWPOLYLINE
  5
7C
330
1F
100
AcDbEntity
  8
A-4_寸法
  6
Continuous
 62
     7
370
     9
100
AcDbPolyline
 90
        4
 70
     1
 43
1.0
 10
553.891863848712
 20
322.3646999049832
 42
0.4142135623731
 10
553.391863848712
 20
322.8646999049832
 42
0.4142135623731
 10
552.891863848712
 20
322.3646999049832
 42
0.4142135623731
 10
553.391863848712
 20
321.8646999049832
 42
0.4142135623731
  0
LWPOLYLINE
  5
7D
330
1F
100
AcDbEntity
  8
A-4_寸法
  6
Continuous
 62
     7
370
     9
100
AcDbPolyline
 90
        4
 70
     1
 43
1.0
 10
553.891863848712
 20
326.3648120777027
 42
0.4142135623731
 10
553.391863848712
 20
326.8648120777027
 42
0.4142135623731
 10
552.891863848712
 20
326.3648120777027
 42
0.4142135623731
 10
553.391863848712
 20
325.8648120777028
 42
0.4142135623731
  0
LWPOLYLINE
  5
7E
330
1F
100
AcDbEntity
  8
A-4_寸法
  6
Continuous
 62
     7
370
     9
100
AcDbPolyline
 90
        4
 70
     1
 43
1.0
 10
553.891863848712
 20
330.8647526921453
 42
0.4142135623731
 10
553.391863848712
 20
331.3647526921453
 42
0.4142135623731
 10
552.891863848712
 20
330.8647526921453
 42
0.4142135623731
 10
553.391863848712
 20
330.3647526921453
 42
0.4142135623731
  0
LWPOLYLINE
  5
7F
330
1F
100
AcDbEntity
  8
A-4_寸法
  6
Continuous
 62
     7
370
     9
100
AcDbPolyline
 90
        4
 70
     1
 43
1.0
 10
513.8918556007179
 20
-36.13508482237123
 42
0.4142135623731
 10
513.3918556007179
 20
-35.63508482237123
 42
0.4142135623731
 10
512.891855600718
 20
-36.13508482237123
 42
0.4142135623731
 10
513.3918556007179
 20
-36.63508482237123
 42
0.4142135623731
  0
LWPOLYLINE
  5
80
330
1F
100
AcDbEntity
  8
A-4_寸法
  6
Continuous
 62
     7
370
     9
100
AcDbPolyline
 90
        4
 70
     1
 43
1.0
 10
513.8918556007179
 20
330.8647526921453
 42
0.4142135623731
 10
513.3918556007179
 20
331.3647526921453
 42
0.4142135623731
 10
512.891855600718
 20
330.8647526921453
 42
0.4142135623731
 10
513.3918556007179
 20
330.3647526921453
 42
0.4142135623731
  0
LWPOLYLINE
  5
81
330
1F
100
AcDbEntity
  8
A-4_寸法
  6
Continuous
 62
     7
370
     9
100
AcDbPolyline
 90
        4
 70
     1
 43
1.0
 10
742.3918918918919
 20
-36.13508482237123
 42
0.4142135623731
 10
741.8918918918919
 20
-35.63508482237123
 42
0.4142135623731
 10
741.391891891892
 20
-36.13508482237123
 42
0.4142135623731
 10
741.8918918918919
 20
-36.63508482237123
 42
0.4142135623731
  0
LWPOLYLINE
  5
82
330
1F
100
AcDbEntity
  8
A-4_寸法
  6
Continuous
 62
     7
370
     9
100
AcDbPolyline
 90
        4
 70
     1
 43
1.0
 10
742.3918918918919
 20
22.36488548485013
 42
0.4142135623731
 10
741.8918918918919
 20
22.86488548485013
 42
0.4142135623731
 10
741.391891891892
 20
22.36488548485013
 42
0.4142135623731
 10
741.8918918918919
 20
21.86488548485013
 42
0.4142135623731
  0
LWPOLYLINE
  5
83
330
1F
100
AcDbEntity
  8
A-4_寸法
  6
Continuous
 62
     7
370
     9
100
AcDbPolyline
 90
        4
 70
     1
 43
1.0
 10
742.3918918918919
 20
272.3649061048354
 42
0.4142135623731
 10
741.8918918918919
 20
272.8649061048354
 42
0.4142135623731
 10
741.391891891892
 20
272.3649061048354
 42
0.4142135623731
 10
741.8918918918919
 20
271.8649061048354
 42
0.4142135623731
  0
LWPOLYLINE
  5
84
330
1F
100
AcDbEntity
  8
A-4_寸法
  6
Continuous
 62
     7
370
     9
100
AcDbPolyline
 90
        4
 70
     1
 43
1.0
 10
742.3918918918919
 20
330.8647526921453
 42
0.4142135623731
 10
741.8918918918919
 20
331.3647526921453
 42
0.4142135623731
 10
741.391891891892
 20
330.8647526921453
 42
0.4142135623731
 10
741.8918918918919
 20
330.3647526921453
 42
0.4142135623731
  0
LWPOLYLINE
  5
85
330
1F
100
AcDbEntity
  8
A-4_寸法
  6
Continuous
 62
     7
370
     9
100
AcDbPolyline
 90
        4
 70
     1
 43
1.0
 10
77.80762378589532
 20
349.5836989944046
 42
0.4142135623731
 10
77.30762378589532
 20
350.0836989944045
 42
0.4142135623731
 10
76.80762378589532
 20
349.5836989944046
 42
0.4142135623731
 10
77.30762378589532
 20
349.0836989944046
 42
0.4142135623731
  0
LWPOLYLINE
  5
86
330
1F
100
AcDbEntity
  8
A-4_寸法
  6
Continuous
 62
     7
370
     9
100
AcDbPolyline
 90
        4
 70
     1
 43
1.0
 10
90.38758808857696
 20
349.5836989944046
 42
0.4142135623731
 10
89.88758808857696
 20
350.0836989944045
 42
0.4142135623731
 10
89.38758808857696
 20
349.5836989944046
 42
0.4142135623731
 10
89.88758808857696
 20
349.0836989944046
 42
0.4142135623731
  0
LWPOLYLINE
  5
87
330
1F
100
AcDbEntity
  8
A-4_寸法
  6
Continuous
 62
     7
370
     9
100
AcDbPolyline
 90
        4
 70
     1
 43
1.0
 10
-805.973190720017
 20
389.9324736724029
 42
0.4142135623731
 10
-806.4731907200169
 20
390.4324736724028
 42
0.4142135623731
 10
-806.9731907200169
 20
389.9324736724029
 42
0.4142135623731
 10
-806.4731907200169
 20
389.4324736724029
 42
0.4142135623731
  0
LWPOLYLINE
  5
88
330
1F
100
AcDbEntity
  8
A-4_寸法
  6
Continuous
 62
     7
370
     9
100
AcDbPolyline
 90
        4
 70
     1
 43
1.0
 10
-555.973108240076
 20
389.9324736724029
 42
0.4142135623731
 10
-556.4731082400759
 20
390.4324736724028
 42
0.4142135623731
 10
-556.9731082400759
 20
389.9324736724029
 42
0.4142135623731
 10
-556.4731082400759
 20
389.4324736724029
 42
0.4142135623731
  0
LWPOLYLINE
  5
89
330
1F
100
AcDbEntity
  8
A-4_寸法
  6
Continuous
 62
     7
370
     9
100
AcDbPolyline
 90
        4
 70
     1
 43
1.0
 10
-55.97325257997252
 20
389.9324736724029
 42
0.4142135623731
 10
-56.47325257997252
 20
390.4324736724028
 42
0.4142135623731
 10
-56.97325257997252
 20
389.9324736724029
 42
0.4142135623731
 10
-56.47325257997252
 20
389.4324736724029
 42
0.4142135623731
  0
LWPOLYLINE
  5
8A
330
1F
100
AcDbEntity
  8
A-4_寸法
  6
Continuous
 62
     7
370
     9
100
AcDbPolyline
 90
        4
 70
     1
 43
1.0
 10
603.8919050886825
 20
-113.4339244945629
 42
0.4142135623731
 10
603.3919050886825
 20
-112.9339244945629
 42
0.4142135623731
 10
602.8919050886826
 20
-113.4339244945629
 42
0.4142135623731
 10
603.3919050886825
 20
-113.9339244945629
 42
0.4142135623731
  0
LWPOLYLINE
  5
8B
330
1F
100
AcDbEntity
  8
A-4_寸法
  6
Continuous
 62
     7
370
     9
100
AcDbPolyline
 90
        4
 70
     1
 43
1.0
 10
622.891819309544
 20
-113.4339244945629
 42
0.4142135623731
 10
622.391819309544
 20
-112.9339244945629
 42
0.4142135623731
 10
621.8918193095441
 20
-113.4339244945629
 42
0.4142135623731
 10
622.391819309544
 20
-113.9339244945629
 42
0.4142135623731
  0
LWPOLYLINE
  5
8C
330
1F
100
AcDbEntity
  8
A-4_寸法
  6
Continuous
 62
     7
370
     9
100
AcDbPolyline
 90
        4
 70
     1
 43
1.0
 10
603.8919050886825
 20
-165.4729935929581
 42
0.4142135623731
 10
603.3919050886825
 20
-164.9729935929581
 42
0.4142135623731
 10
602.8919050886826
 20
-165.4729935929581
 42
0.4142135623731
 10
603.3919050886825
 20
-165.9729935929581
 42
0.4142135623731
  0
LWPOLYLINE
  5
8D
330
1F
100
AcDbEntity
  8
A-4_寸法
  6
Continuous
 62
     7
370
     9
100
AcDbPolyline
 90
        4
 70
     1
 43
1.0
 10
627.3917599239865
 20
-165.4729935929581
 42
0.4142135623731
 10
626.8917599239865
 20
-164.9729935929581
 42
0.4142135623731
 10
626.3917599239865
 20
-165.4729935929581
 42
0.4142135623731
 10
626.8917599239865
 20
-165.9729935929581
 42
0.4142135623731
  0
LWPOLYLINE
  5
8E
330
1F
100
AcDbEntity
  8
A-4_寸法
  6
Continuous
 62
     7
370
     9
100
AcDbPolyline
 90
        4
 70
     1
 43
1.0
 10
-805.973190720017
 20
-113.4339244945629
 42
0.4142135623731
 10
-806.4731907200169
 20
-112.9339244945629
 42
0.4142135623731
 10
-806.9731907200169
 20
-113.4339244945629
 42
0.4142135623731
 10
-806.4731907200169
 20
-113.9339244945629
 42
0.4142135623731
  0
LWPOLYLINE
  5
8F
330
1F
100
AcDbEntity
  8
A-4_寸法
  6
Continuous
 62
     7
370
     9
100
AcDbPolyline
 90
        4
 70
     1
 43
1.0
 10
-804.4732105152027
 20
-113.4339244945629
 42
0.4142135623731
 10
-804.9732105152027
 20
-112.9339244945629
 42
0.4142135623731
 10
-805.4732105152027
 20
-113.4339244945629
 42
0.4142135623731
 10
-804.9732105152027
 20
-113.9339244945629
 42
0.4142135623731
  0
LWPOLYLINE
  5
90
330
1F
100
AcDbEntity
  8
A-4_寸法
  6
Continuous
 62
     7
370
     9
100
AcDbPolyline
 90
        4
 70
     1
 43
1.0
 10
192.5269115551099
 20
-113.4339244945629
 42
0.4142135623731
 10
192.0269115551099
 20
-112.9339244945629
 42
0.4142135623731
 10
191.5269115551099
 20
-113.4339244945629
 42
0.4142135623731
 10
192.0269115551099
 20
-113.9339244945629
 42
0.4142135623731
  0
LWPOLYLINE
  5
91
330
1F
100
AcDbEntity
  8
A-4_寸法
  6
Continuous
 62
     7
370
     9
100
AcDbPolyline
 90
        4
 70
     1
 43
1.0
 10
195.5268719647383
 20
-113.4339244945629
 42
0.4142135623731
 10
195.0268719647383
 20
-112.9339244945629
 42
0.4142135623731
 10
194.5268719647383
 20
-113.4339244945629
 42
0.4142135623731
 10
195.0268719647383
 20
-113.9339244945629
 42
0.4142135623731
  0
LWPOLYLINE
  5
92
330
1F
100
AcDbEntity
  8
A-4_寸法
  6
Continuous
 62
     7
370
     9
100
AcDbPolyline
 90
        4
 70
     1
 43
1.0
 10
-805.973190720017
 20
-165.4729935929581
 42
0.4142135623731
 10
-806.4731907200169
 20
-164.9729935929581
 42
0.4142135623731
 10
-806.9731907200169
 20
-165.4729935929581
 42
0.4142135623731
 10
-806.4731907200169
 20
-165.9729935929581
 42
0.4142135623731
  0
LINE
  5
93
330
1F
100
AcDbEntity
  8
A-4_寸法
  6
Continuous
 62
     7
370
     9
100
AcDbLine
 10
590.891863848712
 20
-36.13508482237123
 30
0.0
 11
511.8917516759925
 21
-36.13508482237123
 31
0.0
  0
LINE
  5
94
330
1F
100
AcDbEntity
  8
A-4_寸法
  6
Continuous
 62
     7
370
     9
100
AcDbLine
 10
590.891863848712
 20
-31.63514420792865
 30
0.0
 11
551.8917599239865
 21
-31.63514420792865
 31
0.0
  0
LINE
  5
95
330
1F
100
AcDbEntity
  8
A-4_寸法
  6
Continuous
 62
     7
370
     9
100
AcDbLine
 10
590.891863848712
 20
-27.63515575512031
 30
0.0
 11
551.8917599239865
 21
-27.63515575512031
 31
0.0
  0
LINE
  5
96
330
1F
100
AcDbEntity
  8
A-4_寸法
  6
Continuous
 62
     7
370
     9
100
AcDbLine
 10
590.891863848712
 20
322.3646999049832
 30
0.0
 11
551.8917599239865
 21
322.3646999049832
 31
0.0
  0
LINE
  5
97
330
1F
100
AcDbEntity
  8
A-4_寸法
  6
Continuous
 62
     7
370
     9
100
AcDbLine
 10
590.891863848712
 20
326.3648120777027
 30
0.0
 11
551.8917599239865
 21
326.3648120777027
 31
0.0
  0
LINE
  5
98
330
1F
100
AcDbEntity
  8
A-4_寸法
  6
Continuous
 62
     7
370
     9
100
AcDbLine
 10
590.891863848712
 20
330.8647526921453
 30
0.0
 11
511.8917516759925
 21
330.8647526921453
 31
0.0
  0
LINE
  5
99
330
1F
100
AcDbEntity
  8
A-4_寸法
  6
Continuous
 62
     7
370
     9
100
AcDbLine
 10
513.3918556007179
 20
-36.13508482237123
 30
0.0
 11
513.3918556007179
 21
330.8647526921453
 31
0.0
  0
LINE
  5
9A
330
1F
100
AcDbEntity
  8
A-4_寸法
  6
Continuous
 62
     7
370
     9
100
AcDbLine
 10
741.8918918918919
 20
-36.13508482237123
 30
0.0
 11
741.8918918918919
 21
330.8647526921453
 31
0.0
  0
LINE
  5
9B
330
1F
100
AcDbEntity
  8
A-4_寸法
  6
Continuous
 62
     7
370
     9
100
AcDbLine
 10
638.2071830130915
 20
-36.13508482237123
 30
0.0
 11
743.3919958166175
 21
-36.13508482237123
 31
0.0
  0
LINE
  5
9C
330
1F
100
AcDbEntity
  8
A-4_寸法
  6
Continuous
 62
     7
370
     9
100
AcDbLine
 10
639.3920486037797
 20
272.3649061048354
 30
0.0
 11
743.3919958166175
 21
272.3649061048354
 31
0.0
  0
LINE
  5
9D
330
1F
100
AcDbEntity
  8
A-4_寸法
  6
Continuous
 62
     7
370
     9
100
AcDbLine
 10
638.2071830130915
 20
330.8647526921453
 30
0.0
 11
743.3919958166175
 21
330.8647526921453
 31
0.0
  0
LINE
  5
9E
330
1F
100
AcDbEntity
  8
A-4_寸法
  6
Continuous
 62
     7
370
     9
100
AcDbLine
 10
553.391863848712
 20
-87.41340018607474
 30
0.0
 11
553.391863848712
 21
380.7253615920608
 31
0.0
  0
LINE
  5
9F
330
1F
100
AcDbEntity
  8
A-4_寸法
  6
Continuous
 62
     7
370
     9
100
AcDbLine
 10
603.3919050886825
 20
330.8647526921453
 30
0.0
 11
595.7823882231842
 21
340.7816459037163
 31
0.0
  0
LINE
  5
A0
330
1F
100
AcDbEntity
  8
A-4_寸法
  6
Continuous
 62
     7
370
     9
100
AcDbLine
 10
603.3919050886825
 20
330.8647526921453
 30
0.0
 11
598.6085221574115
 21
342.4132640941724
 31
0.0
  0
LINE
  5
A1
330
1F
100
AcDbEntity
  8
A-2_蓋
  6
Continuous
 62
     3
370
     9
100
AcDbLine
 10
603.3919050886825
 20
322.3649473448058
 30
0.0
 11
622.391819309544
 21
322.3649473448058
 31
0.0
  0
LINE
  5
A2
330
1F
100
AcDbEntity
  8
A-2_蓋
  6
Continuous
 62
     3
370
     9
100
AcDbLine
 10
603.3919050886825
 20
319.3649869351775
 30
0.0
 11
622.391819309544
 21
319.3649869351775
 31
0.0
  0
LINE
  5
A3
330
1F
100
AcDbEntity
  8
A-2_蓋
  6
Continuous
 62
     3
370
     9
100
AcDbLine
 10
603.3919050886825
 20
-27.63503203520898
 30
0.0
 11
622.391819309544
 21
-27.63503203520898
 31
0.0
  0
LINE
  5
A4
330
1F
100
AcDbEntity
  8
A-2_蓋
  6
Continuous
 62
     3
370
     9
100
AcDbLine
 10
603.3919050886825
 20
-24.63507162558059
 30
0.0
 11
622.391819309544
 21
-24.63507162558059
 31
0.0
  0
LINE
  5
A5
330
1F
100
AcDbEntity
  8
A-2_蓋
  6
Continuous
 62
     3
370
     9
100
AcDbLine
 10
603.3919050886825
 20
-27.63503203520898
 30
0.0
 11
603.3919050886825
 21
322.3649473448058
 31
0.0
  0
LINE
  5
A6
330
1F
100
AcDbEntity
  8
A-2_蓋
  6
Continuous
 62
     3
370
     9
100
AcDbLine
 10
622.391819309544
 20
322.3649473448058
 30
0.0
 11
622.391819309544
 21
-27.63503203520898
 31
0.0
  0
LINE
  5
A7
330
1F
100
AcDbEntity
  8
A-2_蓋
  6
JWW_CENTER1
 62
     3
370
     9
100
AcDbLine
 10
586.2957928631758
 20
147.3649885847762
 30
0.0
 11
640.5619440851984
 21
147.3649885847762
 31
0.0
  0
LINE
  5
A8
330
1F
100
AcDbEntity
  8
A-4_寸法
  6
Continuous
 62
     7
370
     9
100
AcDbLine
 10
689.6416329048776
 20
355.314281566723
 30
0.0
 11
694.4251395560602
 21
366.86279296875
 31
0.0
  0
LINE
  5
A9
330
1F
100
AcDbEntity
  8
A-4_寸法
  6
Continuous
 62
     7
370
     9
100
AcDbLine
 10
689.6416329048776
 20
355.314281566723
 30
0.0
 11
697.2511497703761
 21
365.231174778294
 31
0.0
  0
LINE
  5
AA
330
1F
100
AcDbEntity
  8
A-4_寸法
  6
Continuous
 62
     7
370
     9
100
AcDbLine
 10
603.3919050886825
 20
330.8647526921453
 30
0.0
 11
534.0622360641894
 21
450.9470511771538
 31
0.0
  0
LINE
  5
AB
330
1F
100
AcDbEntity
  8
A-5_仕様文
  6
Continuous
 62
     7
370
     9
100
AcDbLine
 10
534.0622360641894
 20
450.9470511771538
 30
0.0
 11
413.7646649334883
 21
450.9470511771538
 31
0.0
  0
LINE
  5
AC
330
1F
100
AcDbEntity
  8
A-4_寸法
  6
Continuous
 62
     7
370
     9
100
AcDbLine
 10
689.6416329048776
 20
355.314281566723
 30
0.0
 11
742.0449334221919
 21
446.0791675464527
 31
0.0
  0
LINE
  5
AD
330
1F
100
AcDbEntity
  8
A-5_仕様文
  6
Continuous
 62
     7
370
     9
100
AcDbLine
 10
742.0449334221919
 20
446.0791675464527
 30
0.0
 11
861.2743068385771
 21
446.0791675464527
 31
0.0
  0
LINE
  5
AE
330
1F
100
AcDbEntity
  8
A-2_蓋
  6
Continuous
 62
     3
370
     9
100
AcDbLine
 10
192.0269115551099
 20
-27.63515575512031
 30
0.0
 11
-804.9732105152027
 21
-27.63515575512031
 31
0.0
  0
LINE
  5
AF
330
1F
100
AcDbEntity
  8
A-2_蓋
  6
Continuous
 62
     3
370
     9
100
AcDbLine
 10
192.0269115551099
 20
-24.63507162558059
 30
0.0
 11
-804.9732105152027
 21
-24.63507162558059
 31
0.0
  0
LINE
  5
B0
330
1F
100
AcDbEntity
  8
A-2_蓋
  6
Continuous
 62
     3
370
     9
100
AcDbLine
 10
-804.9732105152027
 20
49.86460505305118
 30
0.0
 11
192.0269115551099
 21
49.86460505305118
 31
0.0
  0
LINE
  5
B1
330
1F
100
AcDbEntity
  8
A-2_蓋
  6
Continuous
 62
     3
370
     9
100
AcDbLine
 10
-804.9732105152027
 20
319.365234375
 30
0.0
 11
192.0269115551099
 21
319.365234375
 31
0.0
  0
LINE
  5
B2
330
1F
100
AcDbEntity
  8
A-2_蓋
  6
Continuous
 62
     3
370
     9
100
AcDbLine
 10
-804.9732105152027
 20
44.86489785684128
 30
0.0
 11
192.0269115551099
 21
44.86489785684128
 31
0.0
  0
LINE
  5
B3
330
1F
100
AcDbEntity
  8
A-2_蓋
  6
Continuous
 62
     3
370
     9
100
AcDbLine
 10
-801.9727552259291
 20
-24.63507162558059
 30
0.0
 11
-801.9727552259291
 21
44.86489785684128
 31
0.0
  0
LINE
  5
B4
330
1F
100
AcDbEntity
  8
A-2_蓋
  6
Continuous
 62
     3
370
     9
100
AcDbLine
 10
189.027940904772
 20
44.86489785684128
 30
0.0
 11
189.027940904772
 21
-24.63507162558059
 31
0.0
  0
LINE
  5
B5
330
1F
100
AcDbEntity
  8
A-2_蓋
  6
Continuous
 62
     3
370
     9
100
AcDbLine
 10
176.4481003220017
 20
44.86489785684128
 30
0.0
 11
176.4481003220017
 21
-24.63507162558059
 31
0.0
  0
LINE
  5
B6
330
1F
100
AcDbEntity
  8
A-2_蓋
  6
Continuous
 62
     3
370
     9
100
AcDbLine
 10
179.4480607316301
 20
44.86489785684128
 30
0.0
 11
179.4480607316301
 21
-24.63507162558059
 31
0.0
  0
LINE
  5
B7
330
1F
100
AcDbEntity
  8
A-2_蓋
  6
Continuous
 62
     3
370
     9
100
AcDbLine
 10
163.8680122994089
 20
44.86489785684128
 30
0.0
 11
163.8680122994089
 21
-24.63507162558059
 31
0.0
  0
LINE
  5
B8
330
1F
100
AcDbEntity
  8
A-2_蓋
  6
Continuous
 62
     3
370
     9
100
AcDbLine
 10
166.8682201488599
 20
44.86489785684128
 30
0.0
 11
166.8682201488599
 21
-24.63507162558059
 31
0.0
  0
LINE
  5
B9
330
1F
100
AcDbEntity
  8
A-2_蓋
  6
Continuous
 62
     3
370
     9
100
AcDbLine
 10
151.2881717166385
 20
44.86489785684128
 30
0.0
 11
151.2881717166385
 21
-24.63507162558059
 31
0.0
  0
LINE
  5
BA
330
1F
100
AcDbEntity
  8
A-2_蓋
  6
Continuous
 62
     3
370
     9
100
AcDbLine
 10
154.2881321262669
 20
44.86489785684128
 30
0.0
 11
154.2881321262669
 21
-24.63507162558059
 31
0.0
  0
LINE
  5
BB
330
1F
100
AcDbEntity
  8
A-2_蓋
  6
Continuous
 62
     3
370
     9
100
AcDbLine
 10
138.7080836940457
 20
44.86489785684128
 30
0.0
 11
138.7080836940457
 21
-24.63507162558059
 31
0.0
  0
LINE
  5
BC
330
1F
100
AcDbEntity
  8
A-2_蓋
  6
Continuous
 62
     3
370
     9
100
AcDbLine
 10
141.7082915434968
 20
44.86489785684128
 30
0.0
 11
141.7082915434968
 21
-24.63507162558059
 31
0.0
  0
LINE
  5
BD
330
1F
100
AcDbEntity
  8
A-2_蓋
  6
Continuous
 62
     3
370
     9
100
AcDbLine
 10
126.1277482316301
 20
44.86489785684128
 30
0.0
 11
126.1277482316301
 21
-24.63507162558059
 31
0.0
  0
LINE
  5
BE
330
1F
100
AcDbEntity
  8
A-2_蓋
  6
Continuous
 62
     3
370
     9
100
AcDbLine
 10
129.1282035209038
 20
44.86489785684128
 30
0.0
 11
129.1282035209038
 21
-24.63507162558059
 31
0.0
  0
LINE
  5
BF
330
1F
100
AcDbEntity
  8
A-2_蓋
  6
Continuous
 62
     3
370
     9
100
AcDbLine
 10
113.5476602090372
 20
44.86489785684128
 30
0.0
 11
113.5476602090372
 21
-24.63507162558059
 31
0.0
  0
LINE
  5
C0
330
1F
100
AcDbEntity
  8
A-2_蓋
  6
Continuous
 62
     3
370
     9
100
AcDbLine
 10
116.5483629381335
 20
44.86489785684128
 30
0.0
 11
116.5483629381335
 21
-24.63507162558059
 31
0.0
  0
LINE
  5
C1
330
1F
100
AcDbEntity
  8
A-2_蓋
  6
Continuous
 62
     3
370
     9
100
AcDbLine
 10
100.9678196262669
 20
44.86489785684128
 30
0.0
 11
100.9678196262669
 21
-24.63507162558059
 31
0.0
  0
LINE
  5
C2
330
1F
100
AcDbEntity
  8
A-2_蓋
  6
Continuous
 62
     3
370
     9
100
AcDbLine
 10
103.96728515625
 20
44.86489785684128
 30
0.0
 11
103.96728515625
 21
-24.63507162558059
 31
0.0
  0
LINE
  5
C3
330
1F
100
AcDbEntity
  8
A-2_蓋
  6
Continuous
 62
     3
370
     9
100
AcDbLine
 10
88.3877316036741
 20
44.86489785684128
 30
0.0
 11
88.3877316036741
 21
-24.63507162558059
 31
0.0
  0
LINE
  5
C4
330
1F
100
AcDbEntity
  8
A-2_蓋
  6
Continuous
 62
     3
370
     9
100
AcDbLine
 10
91.38744457347983
 20
44.86489785684128
 30
0.0
 11
91.38744457347983
 21
-24.63507162558059
 31
0.0
  0
LINE
  5
C5
330
1F
100
AcDbEntity
  8
A-2_蓋
  6
Continuous
 62
     3
370
     9
100
AcDbLine
 10
75.80789102090378
 20
44.86489785684128
 30
0.0
 11
75.80789102090378
 21
-24.63507162558059
 31
0.0
  0
LINE
  5
C6
330
1F
100
AcDbEntity
  8
A-2_蓋
  6
Continuous
 62
     3
370
     9
100
AcDbLine
 10
78.80735655088685
 20
44.86489785684128
 30
0.0
 11
78.80735655088685
 21
-24.63507162558059
 31
0.0
  0
LINE
  5
C7
330
1F
100
AcDbEntity
  8
A-2_蓋
  6
Continuous
 62
     3
370
     9
100
AcDbLine
 10
63.22805043813347
 20
44.86489785684128
 30
0.0
 11
63.22805043813347
 21
-24.63507162558059
 31
0.0
  0
LINE
  5
C8
330
1F
100
AcDbEntity
  8
A-2_蓋
  6
Continuous
 62
     3
370
     9
100
AcDbLine
 10
66.22751596811668
 20
44.86489785684128
 30
0.0
 11
66.22751596811668
 21
-24.63507162558059
 31
0.0
  0
LINE
  5
C9
330
1F
100
AcDbEntity
  8
A-2_蓋
  6
Continuous
 62
     3
370
     9
100
AcDbLine
 10
50.64796241554063
 20
44.86489785684128
 30
0.0
 11
50.64796241554063
 21
-24.63507162558059
 31
0.0
  0
LINE
  5
CA
330
1F
100
AcDbEntity
  8
A-2_蓋
  6
Continuous
 62
     3
370
     9
100
AcDbLine
 10
53.6474279455237
 20
44.86489785684128
 30
0.0
 11
53.6474279455237
 21
-24.63507162558059
 31
0.0
  0
LINE
  5
CB
330
1F
100
AcDbEntity
  8
A-2_蓋
  6
Continuous
 62
     3
370
     9
100
AcDbLine
 10
38.06812183277032
 20
44.86489785684128
 30
0.0
 11
38.06812183277032
 21
-24.63507162558059
 31
0.0
  0
LINE
  5
CC
330
1F
100
AcDbEntity
  8
A-2_蓋
  6
Continuous
 62
     3
370
     9
100
AcDbLine
 10
41.06758736275339
 20
44.86489785684128
 30
0.0
 11
41.06758736275339
 21
-24.63507162558059
 31
0.0
  0
LINE
  5
CD
330
1F
100
AcDbEntity
  8
A-2_蓋
  6
Continuous
 62
     3
370
     9
100
AcDbLine
 10
25.48803381017748
 20
44.86489785684128
 30
0.0
 11
25.48803381017748
 21
-24.63507162558059
 31
0.0
  0
LINE
  5
CE
330
1F
100
AcDbEntity
  8
A-2_蓋
  6
Continuous
 62
     3
370
     9
100
AcDbLine
 10
28.48749934016055
 20
44.86489785684128
 30
0.0
 11
28.48749934016055
 21
-24.63507162558059
 31
0.0
  0
LINE
  5
CF
330
1F
100
AcDbEntity
  8
A-2_蓋
  6
Continuous
 62
     3
370
     9
100
AcDbLine
 10
12.90819322740717
 20
44.86489785684128
 30
0.0
 11
12.90819322740717
 21
-24.63507162558059
 31
0.0
  0
LINE
  5
D0
330
1F
100
AcDbEntity
  8
A-2_蓋
  6
Continuous
 62
     3
370
     9
100
AcDbLine
 10
15.90765875739024
 20
44.86489785684128
 30
0.0
 11
15.90765875739024
 21
-24.63507162558059
 31
0.0
  0
LINE
  5
D1
330
1F
100
AcDbEntity
  8
A-2_蓋
  6
Continuous
 62
     3
370
     9
100
AcDbLine
 10
0.328105204814193
 20
44.86489785684128
 30
0.0
 11
0.328105204814193
 21
-24.63507162558059
 31
0.0
  0
LINE
  5
D2
330
1F
100
AcDbEntity
  8
A-2_蓋
  6
Continuous
 62
     3
370
     9
100
AcDbLine
 10
3.328313054265237
 20
44.86489785684128
 30
0.0
 11
3.328313054265237
 21
-24.63507162558059
 31
0.0
  0
LINE
  5
D3
330
1F
100
AcDbEntity
  8
A-2_蓋
  6
Continuous
 62
     3
370
     9
100
AcDbLine
 10
-12.25173537795598
 20
44.86489785684128
 30
0.0
 11
-12.25173537795598
 21
-24.63507162558059
 31
0.0
  0
LINE
  5
D4
330
1F
100
AcDbEntity
  8
A-2_蓋
  6
Continuous
 62
     3
370
     9
100
AcDbLine
 10
-9.251774968327595
 20
44.86489785684128
 30
0.0
 11
-9.251774968327595
 21
-24.63507162558059
 31
0.0
  0
LINE
  5
D5
330
1F
100
AcDbEntity
  8
A-2_蓋
  6
Continuous
 62
     3
370
     9
100
AcDbLine
 10
-24.83281315983945
 20
44.86489785684128
 30
0.0
 11
-24.83281315983945
 21
-24.63507162558059
 31
0.0
  0
LINE
  5
D6
330
1F
100
AcDbEntity
  8
A-2_蓋
  6
Continuous
 62
     3
370
     9
100
AcDbLine
 10
-21.83211043074323
 20
44.86489785684128
 30
0.0
 11
-21.83211043074323
 21
-24.63507162558059
 31
0.0
  0
LINE
  5
D7
330
1F
100
AcDbEntity
  8
A-2_蓋
  6
Continuous
 62
     3
370
     9
100
AcDbLine
 10
-37.41265374260976
 20
44.86489785684128
 30
0.0
 11
-37.41265374260976
 21
-24.63507162558059
 31
0.0
  0
LINE
  5
D8
330
1F
100
AcDbEntity
  8
A-2_蓋
  6
Continuous
 62
     3
370
     9
100
AcDbLine
 10
-34.41219845333606
 20
44.86489785684128
 30
0.0
 11
-34.41219845333606
 21
-24.63507162558059
 31
0.0
  0
LINE
  5
D9
330
1F
100
AcDbEntity
  8
A-2_蓋
  6
Continuous
 62
     3
370
     9
100
AcDbLine
 10
-49.9927417652026
 20
44.86489785684128
 30
0.0
 11
-49.9927417652026
 21
-24.63507162558059
 31
0.0
  0
LINE
  5
DA
330
1F
100
AcDbEntity
  8
A-2_蓋
  6
Continuous
 62
     3
370
     9
100
AcDbLine
 10
-46.99203903610638
 20
44.86489785684128
 30
0.0
 11
-46.99203903610638
 21
-24.63507162558059
 31
0.0
  0
LINE
  5
DB
330
1F
100
AcDbEntity
  8
A-2_蓋
  6
Continuous
 62
     3
370
     9
100
AcDbLine
 10
-62.57258234797291
 20
44.86489785684128
 30
0.0
 11
-62.57258234797291
 21
-24.63507162558059
 31
0.0
  0
LINE
  5
DC
330
1F
100
AcDbEntity
  8
A-2_蓋
  6
Continuous
 62
     3
370
     9
100
AcDbLine
 10
-59.57212705869921
 20
44.86489785684128
 30
0.0
 11
-59.57212705869921
 21
-24.63507162558059
 31
0.0
  0
LINE
  5
DD
330
1F
100
AcDbEntity
  8
A-2_蓋
  6
Continuous
 62
     3
370
     9
100
AcDbLine
 10
-75.15267037056589
 20
44.86489785684128
 30
0.0
 11
-75.15267037056589
 21
-24.63507162558059
 31
0.0
  0
LINE
  5
DE
330
1F
100
AcDbEntity
  8
A-2_蓋
  6
Continuous
 62
     3
370
     9
100
AcDbLine
 10
-72.15196764146953
 20
44.86489785684128
 30
0.0
 11
-72.15196764146953
 21
-24.63507162558059
 31
0.0
  0
LINE
  5
DF
330
1F
100
AcDbEntity
  8
A-2_蓋
  6
Continuous
 62
     3
370
     9
100
AcDbLine
 10
-87.73251095333606
 20
44.86489785684128
 30
0.0
 11
-87.73251095333606
 21
-24.63507162558059
 31
0.0
  0
LINE
  5
E0
330
1F
100
AcDbEntity
  8
A-2_蓋
  6
Continuous
 62
     3
370
     9
100
AcDbLine
 10
-84.7320556640625
 20
44.86489785684128
 30
0.0
 11
-84.7320556640625
 21
-24.63507162558059
 31
0.0
  0
LINE
  5
E1
330
1F
100
AcDbEntity
  8
A-2_蓋
  6
Continuous
 62
     3
370
     9
100
AcDbLine
 10
-100.3123515361064
 20
44.86489785684128
 30
0.0
 11
-100.3123515361064
 21
-24.63507162558059
 31
0.0
  0
LINE
  5
E2
330
1F
100
AcDbEntity
  8
A-2_蓋
  6
Continuous
 62
     3
370
     9
100
AcDbLine
 10
-97.31189624683267
 20
44.86489785684128
 30
0.0
 11
-97.31189624683267
 21
-24.63507162558059
 31
0.0
  0
LINE
  5
E3
330
1F
100
AcDbEntity
  8
A-2_蓋
  6
Continuous
 62
     3
370
     9
100
AcDbLine
 10
-112.8924395586992
 20
44.86489785684128
 30
0.0
 11
-112.8924395586992
 21
-24.63507162558059
 31
0.0
  0
LINE
  5
E4
330
1F
100
AcDbEntity
  8
A-2_蓋
  6
Continuous
 62
     3
370
     9
100
AcDbLine
 10
-109.891736829603
 20
44.86489785684128
 30
0.0
 11
-109.891736829603
 21
-24.63507162558059
 31
0.0
  0
LINE
  5
E5
330
1F
100
AcDbEntity
  8
A-2_蓋
  6
Continuous
 62
     3
370
     9
100
AcDbLine
 10
-125.4722801414695
 20
44.86489785684128
 30
0.0
 11
-125.4722801414695
 21
-24.63507162558059
 31
0.0
  0
LINE
  5
E6
330
1F
100
AcDbEntity
  8
A-2_蓋
  6
Continuous
 62
     3
370
     9
100
AcDbLine
 10
-122.471824852196
 20
44.86489785684128
 30
0.0
 11
-122.471824852196
 21
-24.63507162558059
 31
0.0
  0
LINE
  5
E7
330
1F
100
AcDbEntity
  8
A-2_蓋
  6
Continuous
 62
     3
370
     9
100
AcDbLine
 10
-138.0523681640625
 20
44.86489785684128
 30
0.0
 11
-138.0523681640625
 21
-24.63507162558059
 31
0.0
  0
LINE
  5
E8
330
1F
100
AcDbEntity
  8
A-2_蓋
  6
Continuous
 62
     3
370
     9
100
AcDbLine
 10
-135.052778914168
 20
44.86489785684128
 30
0.0
 11
-135.052778914168
 21
-24.63507162558059
 31
0.0
  0
LINE
  5
E9
330
1F
100
AcDbEntity
  8
A-2_蓋
  6
Continuous
 62
     3
370
     9
100
AcDbLine
 10
-150.6322087468327
 20
44.86489785684128
 30
0.0
 11
-150.6322087468327
 21
-24.63507162558059
 31
0.0
  0
LINE
  5
EA
330
1F
100
AcDbEntity
  8
A-2_蓋
  6
Continuous
 62
     3
370
     9
100
AcDbLine
 10
-147.6327432168496
 20
44.86489785684128
 30
0.0
 11
-147.6327432168496
 21
-24.63507162558059
 31
0.0
  0
LINE
  5
EB
330
1F
100
AcDbEntity
  8
A-2_蓋
  6
Continuous
 62
     3
370
     9
100
AcDbLine
 10
-163.2121730495143
 20
44.86489785684128
 30
0.0
 11
-163.2121730495143
 21
-24.63507162558059
 31
0.0
  0
LINE
  5
EC
330
1F
100
AcDbEntity
  8
A-2_蓋
  6
Continuous
 62
     3
370
     9
100
AcDbLine
 10
-160.2125837996199
 20
44.86489785684128
 30
0.0
 11
-160.2125837996199
 21
-24.63507162558059
 31
0.0
  0
LINE
  5
ED
330
1F
100
AcDbEntity
  8
A-2_蓋
  6
Continuous
 62
     3
370
     9
100
AcDbLine
 10
-175.792137352196
 20
44.86489785684128
 30
0.0
 11
-175.792137352196
 21
-24.63507162558059
 31
0.0
  0
LINE
  5
EE
330
1F
100
AcDbEntity
  8
A-2_蓋
  6
Continuous
 62
     3
370
     9
100
AcDbLine
 10
-172.7925481023014
 20
44.86489785684128
 30
0.0
 11
-172.7925481023014
 21
-24.63507162558059
 31
0.0
  0
LINE
  5
EF
330
1F
100
AcDbEntity
  8
A-2_蓋
  6
Continuous
 62
     3
370
     9
100
AcDbLine
 10
-188.3721016548775
 20
44.86489785684128
 30
0.0
 11
-188.3721016548775
 21
-24.63507162558059
 31
0.0
  0
LINE
  5
F0
330
1F
100
AcDbEntity
  8
A-2_蓋
  6
Continuous
 62
     3
370
     9
100
AcDbLine
 10
-185.3725124049831
 20
44.86489785684128
 30
0.0
 11
-185.3725124049831
 21
-24.63507162558059
 31
0.0
  0
LINE
  5
F1
330
1F
100
AcDbEntity
  8
A-2_蓋
  6
Continuous
 62
     3
370
     9
100
AcDbLine
 10
-200.9520659575591
 20
44.86489785684128
 30
0.0
 11
-200.9520659575591
 21
-24.63507162558059
 31
0.0
  0
LINE
  5
F2
330
1F
100
AcDbEntity
  8
A-2_蓋
  6
Continuous
 62
     3
370
     9
100
AcDbLine
 10
-197.9524767076647
 20
44.86489785684128
 30
0.0
 11
-197.9524767076647
 21
-24.63507162558059
 31
0.0
  0
LINE
  5
F3
330
1F
100
AcDbEntity
  8
A-2_蓋
  6
Continuous
 62
     3
370
     9
100
AcDbLine
 10
-213.5320302602406
 20
44.86489785684128
 30
0.0
 11
-213.5320302602406
 21
-24.63507162558059
 31
0.0
  0
LINE
  5
F4
330
1F
100
AcDbEntity
  8
A-2_蓋
  6
Continuous
 62
     3
370
     9
100
AcDbLine
 10
-210.5324410103462
 20
44.86489785684128
 30
0.0
 11
-210.5324410103462
 21
-24.63507162558059
 31
0.0
  0
LINE
  5
F5
330
1F
100
AcDbEntity
  8
A-2_蓋
  6
Continuous
 62
     3
370
     9
100
AcDbLine
 10
-226.1119945629223
 20
44.86489785684128
 30
0.0
 11
-226.1119945629223
 21
-24.63507162558059
 31
0.0
  0
LINE
  5
F6
330
1F
100
AcDbEntity
  8
A-2_蓋
  6
Continuous
 62
     3
370
     9
100
AcDbLine
 10
-223.1124053130279
 20
44.86489785684128
 30
0.0
 11
-223.1124053130279
 21
-24.63507162558059
 31
0.0
  0
LINE
  5
F7
330
1F
100
AcDbEntity
  8
A-2_蓋
  6
Continuous
 62
     3
370
     9
100
AcDbLine
 10
-238.6928249049831
 20
44.86489785684128
 30
0.0
 11
-238.6928249049831
 21
-24.63507162558059
 31
0.0
  0
LINE
  5
F8
330
1F
100
AcDbEntity
  8
A-2_蓋
  6
Continuous
 62
     3
370
     9
100
AcDbLine
 10
-235.6923696157094
 20
44.86489785684128
 30
0.0
 11
-235.6923696157094
 21
-24.63507162558059
 31
0.0
  0
LINE
  5
F9
330
1F
100
AcDbEntity
  8
A-2_蓋
  6
Continuous
 62
     3
370
     9
100
AcDbLine
 10
-251.2729129275759
 20
44.86489785684128
 30
0.0
 11
-251.2729129275759
 21
-24.63507162558059
 31
0.0
  0
LINE
  5
FA
330
1F
100
AcDbEntity
  8
A-2_蓋
  6
Continuous
 62
     3
370
     9
100
AcDbLine
 10
-248.272333918391
 20
44.86489785684128
 30
0.0
 11
-248.272333918391
 21
-24.63507162558059
 31
0.0
  0
LINE
  5
FB
330
1F
100
AcDbEntity
  8
A-2_蓋
  6
Continuous
 62
     3
370
     9
100
AcDbLine
 10
-263.8527535103462
 20
44.86489785684128
 30
0.0
 11
-263.8527535103462
 21
-24.63507162558059
 31
0.0
  0
LINE
  5
FC
330
1F
100
AcDbEntity
  8
A-2_蓋
  6
Continuous
 62
     3
370
     9
100
AcDbLine
 10
-260.8522982210727
 20
44.86489785684128
 30
0.0
 11
-260.8522982210727
 21
-24.63507162558059
 31
0.0
  0
LINE
  5
FD
330
1F
100
AcDbEntity
  8
A-2_蓋
  6
Continuous
 62
     3
370
     9
100
AcDbLine
 10
-276.4328415329392
 20
44.86489785684128
 30
0.0
 11
-276.4328415329392
 21
-24.63507162558059
 31
0.0
  0
LINE
  5
FE
330
1F
100
AcDbEntity
  8
A-2_蓋
  6
Continuous
 62
     3
370
     9
100
AcDbLine
 10
-273.4322625237542
 20
44.86489785684128
 30
0.0
 11
-273.4322625237542
 21
-24.63507162558059
 31
0.0
  0
LINE
  5
FF
330
1F
100
AcDbEntity
  8
A-2_蓋
  6
Continuous
 62
     3
370
     9
100
AcDbLine
 10
-289.0126821157094
 20
44.86489785684128
 30
0.0
 11
-289.0126821157094
 21
-24.63507162558059
 31
0.0
  0
LINE
  5
100
330
1F
100
AcDbEntity
  8
A-2_蓋
  6
Continuous
 62
     3
370
     9
100
AcDbLine
 10
-286.0121649664801
 20
44.86489785684128
 30
0.0
 11
-286.0121649664801
 21
-24.63507162558059
 31
0.0
  0
LINE
  5
101
330
1F
100
AcDbEntity
  8
A-2_蓋
  6
Continuous
 62
     3
370
     9
100
AcDbLine
 10
-301.592646418391
 20
44.86489785684128
 30
0.0
 11
-301.592646418391
 21
-24.63507162558059
 31
0.0
  0
LINE
  5
102
330
1F
100
AcDbEntity
  8
A-2_蓋
  6
Continuous
 62
     3
370
     9
100
AcDbLine
 10
-298.592067409206
 20
44.86489785684128
 30
0.0
 11
-298.592067409206
 21
-24.63507162558059
 31
0.0
  0
LINE
  5
103
330
1F
100
AcDbEntity
  8
A-2_蓋
  6
Continuous
 62
     3
370
     9
100
AcDbLine
 10
-314.17236328125
 20
44.86489785684128
 30
0.0
 11
-314.17236328125
 21
-24.63507162558059
 31
0.0
  0
LINE
  5
104
330
1F
100
AcDbEntity
  8
A-2_蓋
  6
Continuous
 62
     3
370
     9
100
AcDbLine
 10
-311.1722791517103
 20
44.86489785684128
 30
0.0
 11
-311.1722791517103
 21
-24.63507162558059
 31
0.0
  0
LINE
  5
105
330
1F
100
AcDbEntity
  8
A-2_蓋
  6
Continuous
 62
     3
370
     9
100
AcDbLine
 10
-326.7523275839315
 20
44.86489785684128
 30
0.0
 11
-326.7523275839315
 21
-24.63507162558059
 31
0.0
  0
LINE
  5
106
330
1F
100
AcDbEntity
  8
A-2_蓋
  6
Continuous
 62
     3
370
     9
100
AcDbLine
 10
-323.7522434543918
 20
44.86489785684128
 30
0.0
 11
-323.7522434543918
 21
-24.63507162558059
 31
0.0
  0
LINE
  5
107
330
1F
100
AcDbEntity
  8
A-2_蓋
  6
Continuous
 62
     3
370
     9
100
AcDbLine
 10
-339.3323537465687
 20
44.86489785684128
 30
0.0
 11
-339.3323537465687
 21
-24.63507162558059
 31
0.0
  0
LINE
  5
108
330
1F
100
AcDbEntity
  8
A-2_蓋
  6
Continuous
 62
     3
370
     9
100
AcDbLine
 10
-336.3327026367188
 20
44.86489785684128
 30
0.0
 11
-336.3327026367188
 21
-24.63507162558059
 31
0.0
  0
LINE
  5
109
330
1F
100
AcDbEntity
  8
A-2_蓋
  6
Continuous
 62
     3
370
     9
100
AcDbLine
 10
-351.9126273490286
 20
44.86489785684128
 30
0.0
 11
-351.9126273490286
 21
-24.63507162558059
 31
0.0
  0
LINE
  5
10A
330
1F
100
AcDbEntity
  8
A-2_蓋
  6
Continuous
 62
     3
370
     9
100
AcDbLine
 10
-348.9126669394003
 20
44.86489785684128
 30
0.0
 11
-348.9126669394003
 21
-24.63507162558059
 31
0.0
  0
LINE
  5
10B
330
1F
100
AcDbEntity
  8
A-2_蓋
  6
Continuous
 62
     3
370
     9
100
AcDbLine
 10
-364.4927153716216
 20
44.86489785684128
 30
0.0
 11
-364.4927153716216
 21
-24.63507162558059
 31
0.0
  0
LINE
  5
10C
330
1F
100
AcDbEntity
  8
A-2_蓋
  6
Continuous
 62
     3
370
     9
100
AcDbLine
 10
-361.4926312420819
 20
44.86489785684128
 30
0.0
 11
-361.4926312420819
 21
-24.63507162558059
 31
0.0
  0
LINE
  5
10D
330
1F
100
AcDbEntity
  8
A-2_蓋
  6
Continuous
 62
     3
370
     9
100
AcDbLine
 10
-377.0725559543918
 20
44.86489785684128
 30
0.0
 11
-377.0725559543918
 21
-24.63507162558059
 31
0.0
  0
LINE
  5
10E
330
1F
100
AcDbEntity
  8
A-2_蓋
  6
Continuous
 62
     3
370
     9
100
AcDbLine
 10
-374.0725955447635
 20
44.86489785684128
 30
0.0
 11
-374.0725955447635
 21
-24.63507162558059
 31
0.0
  0
LINE
  5
10F
330
1F
100
AcDbEntity
  8
A-2_蓋
  6
Continuous
 62
     3
370
     9
100
AcDbLine
 10
-389.6526439769848
 20
44.86489785684128
 30
0.0
 11
-389.6526439769848
 21
-24.63507162558059
 31
0.0
  0
LINE
  5
110
330
1F
100
AcDbEntity
  8
A-2_蓋
  6
Continuous
 62
     3
370
     9
100
AcDbLine
 10
-386.6524361275337
 20
44.86489785684128
 30
0.0
 11
-386.6524361275337
 21
-24.63507162558059
 31
0.0
  0
LINE
  5
111
330
1F
100
AcDbEntity
  8
A-2_蓋
  6
Continuous
 62
     3
370
     9
100
AcDbLine
 10
-402.2324845597551
 20
44.86489785684128
 30
0.0
 11
-402.2324845597551
 21
-24.63507162558059
 31
0.0
  0
LINE
  5
112
330
1F
100
AcDbEntity
  8
A-2_蓋
  6
Continuous
 62
     3
370
     9
100
AcDbLine
 10
-399.2325241501267
 20
44.86489785684128
 30
0.0
 11
-399.2325241501267
 21
-24.63507162558059
 31
0.0
  0
LINE
  5
113
330
1F
100
AcDbEntity
  8
A-2_蓋
  6
Continuous
 62
     3
370
     9
100
AcDbLine
 10
-414.8126344423036
 20
44.86489785684128
 30
0.0
 11
-414.8126344423036
 21
-24.63507162558059
 31
0.0
  0
LINE
  5
114
330
1F
100
AcDbEntity
  8
A-2_蓋
  6
Continuous
 62
     3
370
     9
100
AcDbLine
 10
-411.8123647328969
 20
44.86489785684128
 30
0.0
 11
-411.8123647328969
 21
-24.63507162558059
 31
0.0
  0
LINE
  5
115
330
1F
100
AcDbEntity
  8
A-2_蓋
  6
Continuous
 62
     3
370
     9
100
AcDbLine
 10
-427.3929699047192
 20
44.86489785684128
 30
0.0
 11
-427.3929699047192
 21
-24.63507162558059
 31
0.0
  0
LINE
  5
116
330
1F
100
AcDbEntity
  8
A-2_蓋
  6
Continuous
 62
     3
370
     9
100
AcDbLine
 10
-424.3924527554898
 20
44.86489785684128
 30
0.0
 11
-424.3924527554898
 21
-24.63507162558059
 31
0.0
  0
LINE
  5
117
330
1F
100
AcDbEntity
  8
A-2_蓋
  6
Continuous
 62
     3
370
     9
100
AcDbLine
 10
-439.972872347445
 20
44.86489785684128
 30
0.0
 11
-439.972872347445
 21
-24.63507162558059
 31
0.0
  0
LINE
  5
118
330
1F
100
AcDbEntity
  8
A-2_蓋
  6
Continuous
 62
     3
370
     9
100
AcDbLine
 10
-436.9722933382601
 20
44.86489785684128
 30
0.0
 11
-436.9722933382601
 21
-24.63507162558059
 31
0.0
  0
LINE
  5
119
330
1F
100
AcDbEntity
  8
A-2_蓋
  6
Continuous
 62
     3
370
     9
100
AcDbLine
 10
-452.5528366501266
 20
44.86489785684128
 30
0.0
 11
-452.5528366501266
 21
-24.63507162558059
 31
0.0
  0
LINE
  5
11A
330
1F
100
AcDbEntity
  8
A-2_蓋
  6
Continuous
 62
     3
370
     9
100
AcDbLine
 10
-449.5528762404983
 20
44.86489785684128
 30
0.0
 11
-449.5528762404983
 21
-24.63507162558059
 31
0.0
  0
LINE
  5
11B
330
1F
100
AcDbEntity
  8
A-2_蓋
  6
Continuous
 62
     3
370
     9
100
AcDbLine
 10
-465.1328009528083
 20
44.86489785684128
 30
0.0
 11
-465.1328009528083
 21
-24.63507162558059
 31
0.0
  0
LINE
  5
11C
330
1F
100
AcDbEntity
  8
A-2_蓋
  6
Continuous
 62
     3
370
     9
100
AcDbLine
 10
-462.1327168232685
 20
44.86489785684128
 30
0.0
 11
-462.1327168232685
 21
-24.63507162558059
 31
0.0
  0
LINE
  5
11D
330
1F
100
AcDbEntity
  8
A-2_蓋
  6
Continuous
 62
     3
370
     9
100
AcDbLine
 10
-477.7127652554898
 20
44.86489785684128
 30
0.0
 11
-477.7127652554898
 21
-24.63507162558059
 31
0.0
  0
LINE
  5
11E
330
1F
100
AcDbEntity
  8
A-2_蓋
  6
Continuous
 62
     3
370
     9
100
AcDbLine
 10
-474.7126811259501
 20
44.86489785684128
 30
0.0
 11
-474.7126811259501
 21
-24.63507162558059
 31
0.0
  0
LINE
  5
11F
330
1F
100
AcDbEntity
  8
A-2_蓋
  6
Continuous
 62
     3
370
     9
100
AcDbLine
 10
-490.2927295581714
 20
44.86489785684128
 30
0.0
 11
-490.2927295581714
 21
-24.63507162558059
 31
0.0
  0
LINE
  5
120
330
1F
100
AcDbEntity
  8
A-2_蓋
  6
Continuous
 62
     3
370
     9
100
AcDbLine
 10
-487.2926454286317
 20
44.86489785684128
 30
0.0
 11
-487.2926454286317
 21
-24.63507162558059
 31
0.0
  0
LINE
  5
121
330
1F
100
AcDbEntity
  8
A-2_蓋
  6
Continuous
 62
     3
370
     9
100
AcDbLine
 10
-502.872693860853
 20
44.86489785684128
 30
0.0
 11
-502.872693860853
 21
-24.63507162558059
 31
0.0
  0
LINE
  5
122
330
1F
100
AcDbEntity
  8
A-2_蓋
  6
Continuous
 62
     3
370
     9
100
AcDbLine
 10
-499.8726097313133
 20
44.86489785684128
 30
0.0
 11
-499.8726097313133
 21
-24.63507162558059
 31
0.0
  0
LINE
  5
123
330
1F
100
AcDbEntity
  8
A-2_蓋
  6
Continuous
 62
     3
370
     9
100
AcDbLine
 10
-515.4525344436233
 20
44.86489785684128
 30
0.0
 11
-515.4525344436233
 21
-24.63507162558059
 31
0.0
  0
LINE
  5
124
330
1F
100
AcDbEntity
  8
A-2_蓋
  6
Continuous
 62
     3
370
     9
100
AcDbLine
 10
-512.4525740339949
 20
44.86489785684128
 30
0.0
 11
-512.4525740339949
 21
-24.63507162558059
 31
0.0
  0
LINE
  5
125
330
1F
100
AcDbEntity
  8
A-2_蓋
  6
Continuous
 62
     3
370
     9
100
AcDbLine
 10
-528.0331173458615
 20
44.86489785684128
 30
0.0
 11
-528.0331173458615
 21
-24.63507162558059
 31
0.0
  0
LINE
  5
126
330
1F
100
AcDbEntity
  8
A-2_蓋
  6
Continuous
 62
     3
370
     9
100
AcDbLine
 10
-525.0330332163218
 20
44.86489785684128
 30
0.0
 11
-525.0330332163218
 21
-24.63507162558059
 31
0.0
  0
LINE
  5
127
330
1F
100
AcDbEntity
  8
A-2_蓋
  6
Continuous
 62
     3
370
     9
100
AcDbLine
 10
-540.6129579286317
 20
44.86489785684128
 30
0.0
 11
-540.6129579286317
 21
-24.63507162558059
 31
0.0
  0
LINE
  5
128
330
1F
100
AcDbEntity
  8
A-2_蓋
  6
Continuous
 62
     3
370
     9
100
AcDbLine
 10
-537.6129975190033
 20
44.86489785684128
 30
0.0
 11
-537.6129975190033
 21
-24.63507162558059
 31
0.0
  0
LINE
  5
129
330
1F
100
AcDbEntity
  8
A-2_蓋
  6
Continuous
 62
     3
370
     9
100
AcDbLine
 10
-553.192427351668
 20
44.86489785684128
 30
0.0
 11
-553.192427351668
 21
-24.63507162558059
 31
0.0
  0
LINE
  5
12A
330
1F
100
AcDbEntity
  8
A-2_蓋
  6
Continuous
 62
     3
370
     9
100
AcDbLine
 10
-550.1928381017736
 20
44.86489785684128
 30
0.0
 11
-550.1928381017736
 21
-24.63507162558059
 31
0.0
  0
LINE
  5
12B
330
1F
100
AcDbEntity
  8
A-2_蓋
  6
Continuous
 62
     3
370
     9
100
AcDbLine
 10
-565.7728865339949
 20
44.86489785684128
 30
0.0
 11
-565.7728865339949
 21
-24.63507162558059
 31
0.0
  0
LINE
  5
12C
330
1F
100
AcDbEntity
  8
A-2_蓋
  6
Continuous
 62
     3
370
     9
100
AcDbLine
 10
-562.7728024044552
 20
44.86489785684128
 30
0.0
 11
-562.7728024044552
 21
-24.63507162558059
 31
0.0
  0
LINE
  5
12D
330
1F
100
AcDbEntity
  8
A-2_蓋
  6
Continuous
 62
     3
370
     9
100
AcDbLine
 10
-578.3528508366765
 20
44.86489785684128
 30
0.0
 11
-578.3528508366765
 21
-24.63507162558059
 31
0.0
  0
LINE
  5
12E
330
1F
100
AcDbEntity
  8
A-2_蓋
  6
Continuous
 62
     3
370
     9
100
AcDbLine
 10
-575.3527667071368
 20
44.86489785684128
 30
0.0
 11
-575.3527667071368
 21
-24.63507162558059
 31
0.0
  0
LINE
  5
12F
330
1F
100
AcDbEntity
  8
A-2_蓋
  6
Continuous
 62
     3
370
     9
100
AcDbLine
 10
-590.9328151393581
 20
44.86489785684128
 30
0.0
 11
-590.9328151393581
 21
-24.63507162558059
 31
0.0
  0
LINE
  5
130
330
1F
100
AcDbEntity
  8
A-2_蓋
  6
Continuous
 62
     3
370
     9
100
AcDbLine
 10
-587.9327310098183
 20
44.86489785684128
 30
0.0
 11
-587.9327310098183
 21
-24.63507162558059
 31
0.0
  0
LINE
  5
131
330
1F
100
AcDbEntity
  8
A-2_蓋
  6
Continuous
 62
     3
370
     9
100
AcDbLine
 10
-603.5126557221283
 20
44.86489785684128
 30
0.0
 11
-603.5126557221283
 21
-24.63507162558059
 31
0.0
  0
LINE
  5
132
330
1F
100
AcDbEntity
  8
A-2_蓋
  6
Continuous
 62
     3
370
     9
100
AcDbLine
 10
-600.5126953125
 20
44.86489785684128
 30
0.0
 11
-600.5126953125
 21
-24.63507162558059
 31
0.0
  0
LINE
  5
133
330
1F
100
AcDbEntity
  8
A-2_蓋
  6
Continuous
 62
     3
370
     9
100
AcDbLine
 10
-616.0927437447212
 20
44.86489785684128
 30
0.0
 11
-616.0927437447212
 21
-24.63507162558059
 31
0.0
  0
LINE
  5
134
330
1F
100
AcDbEntity
  8
A-2_蓋
  6
Continuous
 62
     3
370
     9
100
AcDbLine
 10
-613.0926596151816
 20
44.86489785684128
 30
0.0
 11
-613.0926596151816
 21
-24.63507162558059
 31
0.0
  0
LINE
  5
135
330
1F
100
AcDbEntity
  8
A-2_蓋
  6
Continuous
 62
     3
370
     9
100
AcDbLine
 10
-628.6730792071368
 20
44.86489785684128
 30
0.0
 11
-628.6730792071368
 21
-24.63507162558059
 31
0.0
  0
LINE
  5
136
330
1F
100
AcDbEntity
  8
A-2_蓋
  6
Continuous
 62
     3
370
     9
100
AcDbLine
 10
-625.6726239178631
 20
44.86489785684128
 30
0.0
 11
-625.6726239178631
 21
-24.63507162558059
 31
0.0
  0
LINE
  5
137
330
1F
100
AcDbEntity
  8
A-2_蓋
  6
Continuous
 62
     3
370
     9
100
AcDbLine
 10
-641.2531672297297
 20
44.86489785684128
 30
0.0
 11
-641.2531672297297
 21
-24.63507162558059
 31
0.0
  0
LINE
  5
138
330
1F
100
AcDbEntity
  8
A-2_蓋
  6
Continuous
 62
     3
370
     9
100
AcDbLine
 10
-638.2524645006334
 20
44.86489785684128
 30
0.0
 11
-638.2524645006334
 21
-24.63507162558059
 31
0.0
  0
LINE
  5
139
330
1F
100
AcDbEntity
  8
A-2_蓋
  6
Continuous
 62
     3
370
     9
100
AcDbLine
 10
-653.8330078125
 20
44.86489785684128
 30
0.0
 11
-653.8330078125
 21
-24.63507162558059
 31
0.0
  0
LINE
  5
13A
330
1F
100
AcDbEntity
  8
A-2_蓋
  6
Continuous
 62
     3
370
     9
100
AcDbLine
 10
-650.8325525232262
 20
44.86489785684128
 30
0.0
 11
-650.8325525232262
 21
-24.63507162558059
 31
0.0
  0
LINE
  5
13B
330
1F
100
AcDbEntity
  8
A-2_蓋
  6
Continuous
 62
     3
370
     9
100
AcDbLine
 10
-666.4130958350929
 20
44.86489785684128
 30
0.0
 11
-666.4130958350929
 21
-24.63507162558059
 31
0.0
  0
LINE
  5
13C
330
1F
100
AcDbEntity
  8
A-2_蓋
  6
Continuous
 62
     3
370
     9
100
AcDbLine
 10
-663.4128879856419
 20
44.86489785684128
 30
0.0
 11
-663.4128879856419
 21
-24.63507162558059
 31
0.0
  0
LINE
  5
13D
330
1F
100
AcDbEntity
  8
A-2_蓋
  6
Continuous
 62
     3
370
     9
100
AcDbLine
 10
-678.9929364178631
 20
44.86489785684128
 30
0.0
 11
-678.9929364178631
 21
-24.63507162558059
 31
0.0
  0
LINE
  5
13E
330
1F
100
AcDbEntity
  8
A-2_蓋
  6
Continuous
 62
     3
370
     9
100
AcDbLine
 10
-675.9929760082348
 20
44.86489785684128
 30
0.0
 11
-675.9929760082348
 21
-24.63507162558059
 31
0.0
  0
LINE
  5
13F
330
1F
100
AcDbEntity
  8
A-2_蓋
  6
Continuous
 62
     3
370
     9
100
AcDbLine
 10
-691.5729007205448
 20
44.86489785684128
 30
0.0
 11
-691.5729007205448
 21
-24.63507162558059
 31
0.0
  0
LINE
  5
140
330
1F
100
AcDbEntity
  8
A-2_蓋
  6
Continuous
 62
     3
370
     9
100
AcDbLine
 10
-688.5728165910051
 20
44.86489785684128
 30
0.0
 11
-688.5728165910051
 21
-24.63507162558059
 31
0.0
  0
LINE
  5
141
330
1F
100
AcDbEntity
  8
A-2_蓋
  6
Continuous
 62
     3
370
     9
100
AcDbLine
 10
-704.1528650232262
 20
44.86489785684128
 30
0.0
 11
-704.1528650232262
 21
-24.63507162558059
 31
0.0
  0
LINE
  5
142
330
1F
100
AcDbEntity
  8
A-2_蓋
  6
Continuous
 62
     3
370
     9
100
AcDbLine
 10
-701.1527808936867
 20
44.86489785684128
 30
0.0
 11
-701.1527808936867
 21
-24.63507162558059
 31
0.0
  0
LINE
  5
143
330
1F
100
AcDbEntity
  8
A-2_蓋
  6
Continuous
 62
     3
370
     9
100
AcDbLine
 10
-716.7328293259079
 20
44.86489785684128
 30
0.0
 11
-716.7328293259079
 21
-24.63507162558059
 31
0.0
  0
LINE
  5
144
330
1F
100
AcDbEntity
  8
A-2_蓋
  6
Continuous
 62
     3
370
     9
100
AcDbLine
 10
-713.7327451963682
 20
44.86489785684128
 30
0.0
 11
-713.7327451963682
 21
-24.63507162558059
 31
0.0
  0
LINE
  5
145
330
1F
100
AcDbEntity
  8
A-2_蓋
  6
Continuous
 62
     3
370
     9
100
AcDbLine
 10
-729.3132885082348
 20
44.86489785684128
 30
0.0
 11
-729.3132885082348
 21
-24.63507162558059
 31
0.0
  0
LINE
  5
146
330
1F
100
AcDbEntity
  8
A-2_蓋
  6
Continuous
 62
     3
370
     9
100
AcDbLine
 10
-726.313204378695
 20
44.86489785684128
 30
0.0
 11
-726.313204378695
 21
-24.63507162558059
 31
0.0
  0
LINE
  5
147
330
1F
100
AcDbEntity
  8
A-2_蓋
  6
Continuous
 62
     3
370
     9
100
AcDbLine
 10
-741.8928816511824
 20
44.86489785684128
 30
0.0
 11
-741.8928816511824
 21
-24.63507162558059
 31
0.0
  0
LINE
  5
148
330
1F
100
AcDbEntity
  8
A-2_蓋
  6
Continuous
 62
     3
370
     9
100
AcDbLine
 10
-754.4727222339527
 20
44.86489785684128
 30
0.0
 11
-754.4727222339527
 21
-24.63507162558059
 31
0.0
  0
LINE
  5
149
330
1F
100
AcDbEntity
  8
A-2_蓋
  6
Continuous
 62
     3
370
     9
100
AcDbLine
 10
-751.4731329840583
 20
44.86489785684128
 30
0.0
 11
-751.4731329840583
 21
-24.63507162558059
 31
0.0
  0
LINE
  5
14A
330
1F
100
AcDbEntity
  8
A-2_蓋
  6
Continuous
 62
     3
370
     9
100
AcDbLine
 10
-767.0530576963682
 20
44.86489785684128
 30
0.0
 11
-767.0530576963682
 21
-24.63507162558059
 31
0.0
  0
LINE
  5
14B
330
1F
100
AcDbEntity
  8
A-2_蓋
  6
Continuous
 62
     3
370
     9
100
AcDbLine
 10
-764.0530972867398
 20
44.86489785684128
 30
0.0
 11
-764.0530972867398
 21
-24.63507162558059
 31
0.0
  0
LINE
  5
14C
330
1F
100
AcDbEntity
  8
A-2_蓋
  6
Continuous
 62
     3
370
     9
100
AcDbLine
 10
-779.6331457189613
 20
44.86489785684128
 30
0.0
 11
-779.6331457189613
 21
-24.63507162558059
 31
0.0
  0
LINE
  5
14D
330
1F
100
AcDbEntity
  8
A-2_蓋
  6
Continuous
 62
     3
370
     9
100
AcDbLine
 10
-776.6329378695102
 20
44.86489785684128
 30
0.0
 11
-776.6329378695102
 21
-24.63507162558059
 31
0.0
  0
LINE
  5
14E
330
1F
100
AcDbEntity
  8
A-2_蓋
  6
Continuous
 62
     3
370
     9
100
AcDbLine
 10
-792.2129863017313
 20
44.86489785684128
 30
0.0
 11
-792.2129863017313
 21
-24.63507162558059
 31
0.0
  0
LINE
  5
14F
330
1F
100
AcDbEntity
  8
A-2_蓋
  6
Continuous
 62
     3
370
     9
100
AcDbLine
 10
-789.213025892103
 20
44.86489785684128
 30
0.0
 11
-789.213025892103
 21
-24.63507162558059
 31
0.0
  0
LINE
  5
150
330
1F
100
AcDbEntity
  8
A-2_蓋
  6
Continuous
 62
     3
370
     9
100
AcDbLine
 10
-804.9732105152027
 20
244.8644442171664
 30
0.0
 11
192.0269115551099
 21
244.8644442171664
 31
0.0
  0
LINE
  5
151
330
1F
100
AcDbEntity
  8
A-2_蓋
  6
Continuous
 62
     3
370
     9
100
AcDbLine
 10
-804.9732105152027
 20
249.864213273332
 30
0.0
 11
192.0269115551099
 21
249.864213273332
 31
0.0
  0
LINE
  5
152
330
1F
100
AcDbEntity
  8
A-2_蓋
  6
Continuous
 62
     3
370
     9
100
AcDbLine
 10
-801.9727552259291
 20
319.3642446157095
 30
0.0
 11
-801.9727552259291
 21
249.864213273332
 31
0.0
  0
LINE
  5
153
330
1F
100
AcDbEntity
  8
A-2_蓋
  6
Continuous
 62
     3
370
     9
100
AcDbLine
 10
189.027940904772
 20
249.864213273332
 30
0.0
 11
189.027940904772
 21
319.3642446157095
 31
0.0
  0
LINE
  5
154
330
1F
100
AcDbEntity
  8
A-2_蓋
  6
Continuous
 62
     3
370
     9
100
AcDbLine
 10
176.4481003220017
 20
249.864213273332
 30
0.0
 11
176.4481003220017
 21
319.3642446157095
 31
0.0
  0
LINE
  5
155
330
1F
100
AcDbEntity
  8
A-2_蓋
  6
Continuous
 62
     3
370
     9
100
AcDbLine
 10
179.4480607316301
 20
249.864213273332
 30
0.0
 11
179.4480607316301
 21
319.3642446157095
 31
0.0
  0
LINE
  5
156
330
1F
100
AcDbEntity
  8
A-2_蓋
  6
Continuous
 62
     3
370
     9
100
AcDbLine
 10
163.8680122994089
 20
249.864213273332
 30
0.0
 11
163.8680122994089
 21
319.3642446157095
 31
0.0
  0
LINE
  5
157
330
1F
100
AcDbEntity
  8
A-2_蓋
  6
Continuous
 62
     3
370
     9
100
AcDbLine
 10
166.8682201488599
 20
249.864213273332
 30
0.0
 11
166.8682201488599
 21
319.3642446157095
 31
0.0
  0
LINE
  5
158
330
1F
100
AcDbEntity
  8
A-2_蓋
  6
Continuous
 62
     3
370
     9
100
AcDbLine
 10
151.2881717166385
 20
249.864213273332
 30
0.0
 11
151.2881717166385
 21
319.3642446157095
 31
0.0
  0
LINE
  5
159
330
1F
100
AcDbEntity
  8
A-2_蓋
  6
Continuous
 62
     3
370
     9
100
AcDbLine
 10
154.2881321262669
 20
249.864213273332
 30
0.0
 11
154.2881321262669
 21
319.3642446157095
 31
0.0
  0
LINE
  5
15A
330
1F
100
AcDbEntity
  8
A-2_蓋
  6
Continuous
 62
     3
370
     9
100
AcDbLine
 10
138.7080836940457
 20
249.864213273332
 30
0.0
 11
138.7080836940457
 21
319.3642446157095
 31
0.0
  0
LINE
  5
15B
330
1F
100
AcDbEntity
  8
A-2_蓋
  6
Continuous
 62
     3
370
     9
100
AcDbLine
 10
141.7082915434968
 20
249.864213273332
 30
0.0
 11
141.7082915434968
 21
319.3642446157095
 31
0.0
  0
LINE
  5
15C
330
1F
100
AcDbEntity
  8
A-2_蓋
  6
Continuous
 62
     3
370
     9
100
AcDbLine
 10
126.1277482316301
 20
249.864213273332
 30
0.0
 11
126.1277482316301
 21
319.3642446157095
 31
0.0
  0
LINE
  5
15D
330
1F
100
AcDbEntity
  8
A-2_蓋
  6
Continuous
 62
     3
370
     9
100
AcDbLine
 10
129.1282035209038
 20
249.864213273332
 30
0.0
 11
129.1282035209038
 21
319.3642446157095
 31
0.0
  0
LINE
  5
15E
330
1F
100
AcDbEntity
  8
A-2_蓋
  6
Continuous
 62
     3
370
     9
100
AcDbLine
 10
113.5476602090372
 20
249.864213273332
 30
0.0
 11
113.5476602090372
 21
319.3642446157095
 31
0.0
  0
LINE
  5
15F
330
1F
100
AcDbEntity
  8
A-2_蓋
  6
Continuous
 62
     3
370
     9
100
AcDbLine
 10
116.5483629381335
 20
249.864213273332
 30
0.0
 11
116.5483629381335
 21
319.3642446157095
 31
0.0
  0
LINE
  5
160
330
1F
100
AcDbEntity
  8
A-2_蓋
  6
Continuous
 62
     3
370
     9
100
AcDbLine
 10
100.9678196262669
 20
249.864213273332
 30
0.0
 11
100.9678196262669
 21
319.3642446157095
 31
0.0
  0
LINE
  5
161
330
1F
100
AcDbEntity
  8
A-2_蓋
  6
Continuous
 62
     3
370
     9
100
AcDbLine
 10
103.96728515625
 20
249.864213273332
 30
0.0
 11
103.96728515625
 21
319.3642446157095
 31
0.0
  0
LINE
  5
162
330
1F
100
AcDbEntity
  8
A-2_蓋
  6
Continuous
 62
     3
370
     9
100
AcDbLine
 10
88.3877316036741
 20
249.864213273332
 30
0.0
 11
88.3877316036741
 21
319.3642446157095
 31
0.0
  0
LINE
  5
163
330
1F
100
AcDbEntity
  8
A-2_蓋
  6
Continuous
 62
     3
370
     9
100
AcDbLine
 10
91.38744457347983
 20
249.864213273332
 30
0.0
 11
91.38744457347983
 21
319.3642446157095
 31
0.0
  0
LINE
  5
164
330
1F
100
AcDbEntity
  8
A-2_蓋
  6
Continuous
 62
     3
370
     9
100
AcDbLine
 10
75.80789102090378
 20
249.864213273332
 30
0.0
 11
75.80789102090378
 21
319.3642446157095
 31
0.0
  0
LINE
  5
165
330
1F
100
AcDbEntity
  8
A-2_蓋
  6
Continuous
 62
     3
370
     9
100
AcDbLine
 10
78.80735655088685
 20
249.864213273332
 30
0.0
 11
78.80735655088685
 21
319.3642446157095
 31
0.0
  0
LINE
  5
166
330
1F
100
AcDbEntity
  8
A-2_蓋
  6
Continuous
 62
     3
370
     9
100
AcDbLine
 10
63.22805043813347
 20
249.864213273332
 30
0.0
 11
63.22805043813347
 21
319.3642446157095
 31
0.0
  0
LINE
  5
167
330
1F
100
AcDbEntity
  8
A-2_蓋
  6
Continuous
 62
     3
370
     9
100
AcDbLine
 10
66.22751596811668
 20
249.864213273332
 30
0.0
 11
66.22751596811668
 21
319.3642446157095
 31
0.0
  0
LINE
  5
168
330
1F
100
AcDbEntity
  8
A-2_蓋
  6
Continuous
 62
     3
370
     9
100
AcDbLine
 10
50.64796241554063
 20
249.864213273332
 30
0.0
 11
50.64796241554063
 21
319.3642446157095
 31
0.0
  0
LINE
  5
169
330
1F
100
AcDbEntity
  8
A-2_蓋
  6
Continuous
 62
     3
370
     9
100
AcDbLine
 10
53.6474279455237
 20
249.864213273332
 30
0.0
 11
53.6474279455237
 21
319.3642446157095
 31
0.0
  0
LINE
  5
16A
330
1F
100
AcDbEntity
  8
A-2_蓋
  6
Continuous
 62
     3
370
     9
100
AcDbLine
 10
38.06812183277032
 20
249.864213273332
 30
0.0
 11
38.06812183277032
 21
319.3642446157095
 31
0.0
  0
LINE
  5
16B
330
1F
100
AcDbEntity
  8
A-2_蓋
  6
Continuous
 62
     3
370
     9
100
AcDbLine
 10
41.06758736275339
 20
249.864213273332
 30
0.0
 11
41.06758736275339
 21
319.3642446157095
 31
0.0
  0
LINE
  5
16C
330
1F
100
AcDbEntity
  8
A-2_蓋
  6
Continuous
 62
     3
370
     9
100
AcDbLine
 10
25.48803381017748
 20
249.864213273332
 30
0.0
 11
25.48803381017748
 21
319.3642446157095
 31
0.0
  0
LINE
  5
16D
330
1F
100
AcDbEntity
  8
A-2_蓋
  6
Continuous
 62
     3
370
     9
100
AcDbLine
 10
28.48749934016055
 20
249.864213273332
 30
0.0
 11
28.48749934016055
 21
319.3642446157095
 31
0.0
  0
LINE
  5
16E
330
1F
100
AcDbEntity
  8
A-2_蓋
  6
Continuous
 62
     3
370
     9
100
AcDbLine
 10
12.90819322740717
 20
249.864213273332
 30
0.0
 11
12.90819322740717
 21
319.3642446157095
 31
0.0
  0
LINE
  5
16F
330
1F
100
AcDbEntity
  8
A-2_蓋
  6
Continuous
 62
     3
370
     9
100
AcDbLine
 10
15.90765875739024
 20
249.864213273332
 30
0.0
 11
15.90765875739024
 21
319.3642446157095
 31
0.0
  0
LINE
  5
170
330
1F
100
AcDbEntity
  8
A-2_蓋
  6
Continuous
 62
     3
370
     9
100
AcDbLine
 10
0.328105204814193
 20
249.864213273332
 30
0.0
 11
0.328105204814193
 21
319.3642446157095
 31
0.0
  0
LINE
  5
171
330
1F
100
AcDbEntity
  8
A-2_蓋
  6
Continuous
 62
     3
370
     9
100
AcDbLine
 10
3.328313054265237
 20
249.864213273332
 30
0.0
 11
3.328313054265237
 21
319.3642446157095
 31
0.0
  0
LINE
  5
172
330
1F
100
AcDbEntity
  8
A-2_蓋
  6
Continuous
 62
     3
370
     9
100
AcDbLine
 10
-12.25173537795598
 20
249.864213273332
 30
0.0
 11
-12.25173537795598
 21
319.3642446157095
 31
0.0
  0
LINE
  5
173
330
1F
100
AcDbEntity
  8
A-2_蓋
  6
Continuous
 62
     3
370
     9
100
AcDbLine
 10
-9.251774968327595
 20
249.864213273332
 30
0.0
 11
-9.251774968327595
 21
319.3642446157095
 31
0.0
  0
LINE
  5
174
330
1F
100
AcDbEntity
  8
A-2_蓋
  6
Continuous
 62
     3
370
     9
100
AcDbLine
 10
-24.83281315983945
 20
249.864213273332
 30
0.0
 11
-24.83281315983945
 21
319.3642446157095
 31
0.0
  0
LINE
  5
175
330
1F
100
AcDbEntity
  8
A-2_蓋
  6
Continuous
 62
     3
370
     9
100
AcDbLine
 10
-21.83211043074323
 20
249.864213273332
 30
0.0
 11
-21.83211043074323
 21
319.3642446157095
 31
0.0
  0
LINE
  5
176
330
1F
100
AcDbEntity
  8
A-2_蓋
  6
Continuous
 62
     3
370
     9
100
AcDbLine
 10
-37.41265374260976
 20
249.864213273332
 30
0.0
 11
-37.41265374260976
 21
319.3642446157095
 31
0.0
  0
LINE
  5
177
330
1F
100
AcDbEntity
  8
A-2_蓋
  6
Continuous
 62
     3
370
     9
100
AcDbLine
 10
-34.41219845333606
 20
249.864213273332
 30
0.0
 11
-34.41219845333606
 21
319.3642446157095
 31
0.0
  0
LINE
  5
178
330
1F
100
AcDbEntity
  8
A-2_蓋
  6
Continuous
 62
     3
370
     9
100
AcDbLine
 10
-49.9927417652026
 20
249.864213273332
 30
0.0
 11
-49.9927417652026
 21
319.3642446157095
 31
0.0
  0
LINE
  5
179
330
1F
100
AcDbEntity
  8
A-2_蓋
  6
Continuous
 62
     3
370
     9
100
AcDbLine
 10
-46.99203903610638
 20
249.864213273332
 30
0.0
 11
-46.99203903610638
 21
319.3642446157095
 31
0.0
  0
LINE
  5
17A
330
1F
100
AcDbEntity
  8
A-2_蓋
  6
Continuous
 62
     3
370
     9
100
AcDbLine
 10
-62.57258234797291
 20
249.864213273332
 30
0.0
 11
-62.57258234797291
 21
319.3642446157095
 31
0.0
  0
LINE
  5
17B
330
1F
100
AcDbEntity
  8
A-2_蓋
  6
Continuous
 62
     3
370
     9
100
AcDbLine
 10
-59.57212705869921
 20
249.864213273332
 30
0.0
 11
-59.57212705869921
 21
319.3642446157095
 31
0.0
  0
LINE
  5
17C
330
1F
100
AcDbEntity
  8
A-2_蓋
  6
Continuous
 62
     3
370
     9
100
AcDbLine
 10
-75.15267037056589
 20
249.864213273332
 30
0.0
 11
-75.15267037056589
 21
319.3642446157095
 31
0.0
  0
LINE
  5
17D
330
1F
100
AcDbEntity
  8
A-2_蓋
  6
Continuous
 62
     3
370
     9
100
AcDbLine
 10
-72.15196764146953
 20
249.864213273332
 30
0.0
 11
-72.15196764146953
 21
319.3642446157095
 31
0.0
  0
LINE
  5
17E
330
1F
100
AcDbEntity
  8
A-2_蓋
  6
Continuous
 62
     3
370
     9
100
AcDbLine
 10
-87.73251095333606
 20
249.864213273332
 30
0.0
 11
-87.73251095333606
 21
319.3642446157095
 31
0.0
  0
LINE
  5
17F
330
1F
100
AcDbEntity
  8
A-2_蓋
  6
Continuous
 62
     3
370
     9
100
AcDbLine
 10
-84.7320556640625
 20
249.864213273332
 30
0.0
 11
-84.7320556640625
 21
319.3642446157095
 31
0.0
  0
LINE
  5
180
330
1F
100
AcDbEntity
  8
A-2_蓋
  6
Continuous
 62
     3
370
     9
100
AcDbLine
 10
-100.3123515361064
 20
249.864213273332
 30
0.0
 11
-100.3123515361064
 21
319.3642446157095
 31
0.0
  0
LINE
  5
181
330
1F
100
AcDbEntity
  8
A-2_蓋
  6
Continuous
 62
     3
370
     9
100
AcDbLine
 10
-97.31189624683267
 20
249.864213273332
 30
0.0
 11
-97.31189624683267
 21
319.3642446157095
 31
0.0
  0
LINE
  5
182
330
1F
100
AcDbEntity
  8
A-2_蓋
  6
Continuous
 62
     3
370
     9
100
AcDbLine
 10
-112.8924395586992
 20
249.864213273332
 30
0.0
 11
-112.8924395586992
 21
319.3642446157095
 31
0.0
  0
LINE
  5
183
330
1F
100
AcDbEntity
  8
A-2_蓋
  6
Continuous
 62
     3
370
     9
100
AcDbLine
 10
-109.891736829603
 20
249.864213273332
 30
0.0
 11
-109.891736829603
 21
319.3642446157095
 31
0.0
  0
LINE
  5
184
330
1F
100
AcDbEntity
  8
A-2_蓋
  6
Continuous
 62
     3
370
     9
100
AcDbLine
 10
-125.4722801414695
 20
249.864213273332
 30
0.0
 11
-125.4722801414695
 21
319.3642446157095
 31
0.0
  0
LINE
  5
185
330
1F
100
AcDbEntity
  8
A-2_蓋
  6
Continuous
 62
     3
370
     9
100
AcDbLine
 10
-122.471824852196
 20
249.864213273332
 30
0.0
 11
-122.471824852196
 21
319.3642446157095
 31
0.0
  0
LINE
  5
186
330
1F
100
AcDbEntity
  8
A-2_蓋
  6
Continuous
 62
     3
370
     9
100
AcDbLine
 10
-138.0523681640625
 20
249.864213273332
 30
0.0
 11
-138.0523681640625
 21
319.3642446157095
 31
0.0
  0
LINE
  5
187
330
1F
100
AcDbEntity
  8
A-2_蓋
  6
Continuous
 62
     3
370
     9
100
AcDbLine
 10
-135.052778914168
 20
249.864213273332
 30
0.0
 11
-135.052778914168
 21
319.3642446157095
 31
0.0
  0
LINE
  5
188
330
1F
100
AcDbEntity
  8
A-2_蓋
  6
Continuous
 62
     3
370
     9
100
AcDbLine
 10
-150.6322087468327
 20
249.864213273332
 30
0.0
 11
-150.6322087468327
 21
319.3642446157095
 31
0.0
  0
LINE
  5
189
330
1F
100
AcDbEntity
  8
A-2_蓋
  6
Continuous
 62
     3
370
     9
100
AcDbLine
 10
-147.6327432168496
 20
249.864213273332
 30
0.0
 11
-147.6327432168496
 21
319.3642446157095
 31
0.0
  0
LINE
  5
18A
330
1F
100
AcDbEntity
  8
A-2_蓋
  6
Continuous
 62
     3
370
     9
100
AcDbLine
 10
-163.2121730495143
 20
249.864213273332
 30
0.0
 11
-163.2121730495143
 21
319.3642446157095
 31
0.0
  0
LINE
  5
18B
330
1F
100
AcDbEntity
  8
A-2_蓋
  6
Continuous
 62
     3
370
     9
100
AcDbLine
 10
-160.2125837996199
 20
249.864213273332
 30
0.0
 11
-160.2125837996199
 21
319.3642446157095
 31
0.0
  0
LINE
  5
18C
330
1F
100
AcDbEntity
  8
A-2_蓋
  6
Continuous
 62
     3
370
     9
100
AcDbLine
 10
-175.792137352196
 20
249.864213273332
 30
0.0
 11
-175.792137352196
 21
319.3642446157095
 31
0.0
  0
LINE
  5
18D
330
1F
100
AcDbEntity
  8
A-2_蓋
  6
Continuous
 62
     3
370
     9
100
AcDbLine
 10
-172.7925481023014
 20
249.864213273332
 30
0.0
 11
-172.7925481023014
 21
319.3642446157095
 31
0.0
  0
LINE
  5
18E
330
1F
100
AcDbEntity
  8
A-2_蓋
  6
Continuous
 62
     3
370
     9
100
AcDbLine
 10
-188.3721016548775
 20
249.864213273332
 30
0.0
 11
-188.3721016548775
 21
319.3642446157095
 31
0.0
  0
LINE
  5
18F
330
1F
100
AcDbEntity
  8
A-2_蓋
  6
Continuous
 62
     3
370
     9
100
AcDbLine
 10
-185.3725124049831
 20
249.864213273332
 30
0.0
 11
-185.3725124049831
 21
319.3642446157095
 31
0.0
  0
LINE
  5
190
330
1F
100
AcDbEntity
  8
A-2_蓋
  6
Continuous
 62
     3
370
     9
100
AcDbLine
 10
-200.9520659575591
 20
249.864213273332
 30
0.0
 11
-200.9520659575591
 21
319.3642446157095
 31
0.0
  0
LINE
  5
191
330
1F
100
AcDbEntity
  8
A-2_蓋
  6
Continuous
 62
     3
370
     9
100
AcDbLine
 10
-197.9524767076647
 20
249.864213273332
 30
0.0
 11
-197.9524767076647
 21
319.3642446157095
 31
0.0
  0
LINE
  5
192
330
1F
100
AcDbEntity
  8
A-2_蓋
  6
Continuous
 62
     3
370
     9
100
AcDbLine
 10
-213.5320302602406
 20
249.864213273332
 30
0.0
 11
-213.5320302602406
 21
319.3642446157095
 31
0.0
  0
LINE
  5
193
330
1F
100
AcDbEntity
  8
A-2_蓋
  6
Continuous
 62
     3
370
     9
100
AcDbLine
 10
-210.5324410103462
 20
249.864213273332
 30
0.0
 11
-210.5324410103462
 21
319.3642446157095
 31
0.0
  0
LINE
  5
194
330
1F
100
AcDbEntity
  8
A-2_蓋
  6
Continuous
 62
     3
370
     9
100
AcDbLine
 10
-226.1119945629223
 20
249.864213273332
 30
0.0
 11
-226.1119945629223
 21
319.3642446157095
 31
0.0
  0
LINE
  5
195
330
1F
100
AcDbEntity
  8
A-2_蓋
  6
Continuous
 62
     3
370
     9
100
AcDbLine
 10
-223.1124053130279
 20
249.864213273332
 30
0.0
 11
-223.1124053130279
 21
319.3642446157095
 31
0.0
  0
LINE
  5
196
330
1F
100
AcDbEntity
  8
A-2_蓋
  6
Continuous
 62
     3
370
     9
100
AcDbLine
 10
-238.6928249049831
 20
249.864213273332
 30
0.0
 11
-238.6928249049831
 21
319.3642446157095
 31
0.0
  0
LINE
  5
197
330
1F
100
AcDbEntity
  8
A-2_蓋
  6
Continuous
 62
     3
370
     9
100
AcDbLine
 10
-235.6923696157094
 20
249.864213273332
 30
0.0
 11
-235.6923696157094
 21
319.3642446157095
 31
0.0
  0
LINE
  5
198
330
1F
100
AcDbEntity
  8
A-2_蓋
  6
Continuous
 62
     3
370
     9
100
AcDbLine
 10
-251.2729129275759
 20
249.864213273332
 30
0.0
 11
-251.2729129275759
 21
319.3642446157095
 31
0.0
  0
LINE
  5
199
330
1F
100
AcDbEntity
  8
A-2_蓋
  6
Continuous
 62
     3
370
     9
100
AcDbLine
 10
-248.272333918391
 20
249.864213273332
 30
0.0
 11
-248.272333918391
 21
319.3642446157095
 31
0.0
  0
LINE
  5
19A
330
1F
100
AcDbEntity
  8
A-2_蓋
  6
Continuous
 62
     3
370
     9
100
AcDbLine
 10
-263.8527535103462
 20
249.864213273332
 30
0.0
 11
-263.8527535103462
 21
319.3642446157095
 31
0.0
  0
LINE
  5
19B
330
1F
100
AcDbEntity
  8
A-2_蓋
  6
Continuous
 62
     3
370
     9
100
AcDbLine
 10
-260.8522982210727
 20
249.864213273332
 30
0.0
 11
-260.8522982210727
 21
319.3642446157095
 31
0.0
  0
LINE
  5
19C
330
1F
100
AcDbEntity
  8
A-2_蓋
  6
Continuous
 62
     3
370
     9
100
AcDbLine
 10
-276.4328415329392
 20
249.864213273332
 30
0.0
 11
-276.4328415329392
 21
319.3642446157095
 31
0.0
  0
LINE
  5
19D
330
1F
100
AcDbEntity
  8
A-2_蓋
  6
Continuous
 62
     3
370
     9
100
AcDbLine
 10
-273.4322625237542
 20
249.864213273332
 30
0.0
 11
-273.4322625237542
 21
319.3642446157095
 31
0.0
  0
LINE
  5
19E
330
1F
100
AcDbEntity
  8
A-2_蓋
  6
Continuous
 62
     3
370
     9
100
AcDbLine
 10
-289.0126821157094
 20
249.864213273332
 30
0.0
 11
-289.0126821157094
 21
319.3642446157095
 31
0.0
  0
LINE
  5
19F
330
1F
100
AcDbEntity
  8
A-2_蓋
  6
Continuous
 62
     3
370
     9
100
AcDbLine
 10
-286.0121649664801
 20
249.864213273332
 30
0.0
 11
-286.0121649664801
 21
319.3642446157095
 31
0.0
  0
LINE
  5
1A0
330
1F
100
AcDbEntity
  8
A-2_蓋
  6
Continuous
 62
     3
370
     9
100
AcDbLine
 10
-301.592646418391
 20
249.864213273332
 30
0.0
 11
-301.592646418391
 21
319.3642446157095
 31
0.0
  0
LINE
  5
1A1
330
1F
100
AcDbEntity
  8
A-2_蓋
  6
Continuous
 62
     3
370
     9
100
AcDbLine
 10
-298.592067409206
 20
249.864213273332
 30
0.0
 11
-298.592067409206
 21
319.3642446157095
 31
0.0
  0
LINE
  5
1A2
330
1F
100
AcDbEntity
  8
A-2_蓋
  6
Continuous
 62
     3
370
     9
100
AcDbLine
 10
-314.17236328125
 20
249.864213273332
 30
0.0
 11
-314.17236328125
 21
319.3642446157095
 31
0.0
  0
LINE
  5
1A3
330
1F
100
AcDbEntity
  8
A-2_蓋
  6
Continuous
 62
     3
370
     9
100
AcDbLine
 10
-311.1722791517103
 20
249.864213273332
 30
0.0
 11
-311.1722791517103
 21
319.3642446157095
 31
0.0
  0
LINE
  5
1A4
330
1F
100
AcDbEntity
  8
A-2_蓋
  6
Continuous
 62
     3
370
     9
100
AcDbLine
 10
-326.7523275839315
 20
249.864213273332
 30
0.0
 11
-326.7523275839315
 21
319.3642446157095
 31
0.0
  0
LINE
  5
1A5
330
1F
100
AcDbEntity
  8
A-2_蓋
  6
Continuous
 62
     3
370
     9
100
AcDbLine
 10
-323.7522434543918
 20
249.864213273332
 30
0.0
 11
-323.7522434543918
 21
319.3642446157095
 31
0.0
  0
LINE
  5
1A6
330
1F
100
AcDbEntity
  8
A-2_蓋
  6
Continuous
 62
     3
370
     9
100
AcDbLine
 10
-339.3323537465687
 20
249.864213273332
 30
0.0
 11
-339.3323537465687
 21
319.3642446157095
 31
0.0
  0
LINE
  5
1A7
330
1F
100
AcDbEntity
  8
A-2_蓋
  6
Continuous
 62
     3
370
     9
100
AcDbLine
 10
-336.3327026367188
 20
249.864213273332
 30
0.0
 11
-336.3327026367188
 21
319.3642446157095
 31
0.0
  0
LINE
  5
1A8
330
1F
100
AcDbEntity
  8
A-2_蓋
  6
Continuous
 62
     3
370
     9
100
AcDbLine
 10
-351.9126273490286
 20
249.864213273332
 30
0.0
 11
-351.9126273490286
 21
319.3642446157095
 31
0.0
  0
LINE
  5
1A9
330
1F
100
AcDbEntity
  8
A-2_蓋
  6
Continuous
 62
     3
370
     9
100
AcDbLine
 10
-348.9126669394003
 20
249.864213273332
 30
0.0
 11
-348.9126669394003
 21
319.3642446157095
 31
0.0
  0
LINE
  5
1AA
330
1F
100
AcDbEntity
  8
A-2_蓋
  6
Continuous
 62
     3
370
     9
100
AcDbLine
 10
-364.4927153716216
 20
249.864213273332
 30
0.0
 11
-364.4927153716216
 21
319.3642446157095
 31
0.0
  0
LINE
  5
1AB
330
1F
100
AcDbEntity
  8
A-2_蓋
  6
Continuous
 62
     3
370
     9
100
AcDbLine
 10
-361.4926312420819
 20
249.864213273332
 30
0.0
 11
-361.4926312420819
 21
319.3642446157095
 31
0.0
  0
LINE
  5
1AC
330
1F
100
AcDbEntity
  8
A-2_蓋
  6
Continuous
 62
     3
370
     9
100
AcDbLine
 10
-377.0725559543918
 20
249.864213273332
 30
0.0
 11
-377.0725559543918
 21
319.3642446157095
 31
0.0
  0
LINE
  5
1AD
330
1F
100
AcDbEntity
  8
A-2_蓋
  6
Continuous
 62
     3
370
     9
100
AcDbLine
 10
-374.0725955447635
 20
249.864213273332
 30
0.0
 11
-374.0725955447635
 21
319.3642446157095
 31
0.0
  0
LINE
  5
1AE
330
1F
100
AcDbEntity
  8
A-2_蓋
  6
Continuous
 62
     3
370
     9
100
AcDbLine
 10
-389.6526439769848
 20
249.864213273332
 30
0.0
 11
-389.6526439769848
 21
319.3642446157095
 31
0.0
  0
LINE
  5
1AF
330
1F
100
AcDbEntity
  8
A-2_蓋
  6
Continuous
 62
     3
370
     9
100
AcDbLine
 10
-386.6524361275337
 20
249.864213273332
 30
0.0
 11
-386.6524361275337
 21
319.3642446157095
 31
0.0
  0
LINE
  5
1B0
330
1F
100
AcDbEntity
  8
A-2_蓋
  6
Continuous
 62
     3
370
     9
100
AcDbLine
 10
-402.2324845597551
 20
249.864213273332
 30
0.0
 11
-402.2324845597551
 21
319.3642446157095
 31
0.0
  0
LINE
  5
1B1
330
1F
100
AcDbEntity
  8
A-2_蓋
  6
Continuous
 62
     3
370
     9
100
AcDbLine
 10
-399.2325241501267
 20
249.864213273332
 30
0.0
 11
-399.2325241501267
 21
319.3642446157095
 31
0.0
  0
LINE
  5
1B2
330
1F
100
AcDbEntity
  8
A-2_蓋
  6
Continuous
 62
     3
370
     9
100
AcDbLine
 10
-414.8126344423036
 20
249.864213273332
 30
0.0
 11
-414.8126344423036
 21
319.3642446157095
 31
0.0
  0
LINE
  5
1B3
330
1F
100
AcDbEntity
  8
A-2_蓋
  6
Continuous
 62
     3
370
     9
100
AcDbLine
 10
-411.8123647328969
 20
249.864213273332
 30
0.0
 11
-411.8123647328969
 21
319.3642446157095
 31
0.0
  0
LINE
  5
1B4
330
1F
100
AcDbEntity
  8
A-2_蓋
  6
Continuous
 62
     3
370
     9
100
AcDbLine
 10
-427.3929699047192
 20
249.864213273332
 30
0.0
 11
-427.3929699047192
 21
319.3642446157095
 31
0.0
  0
LINE
  5
1B5
330
1F
100
AcDbEntity
  8
A-2_蓋
  6
Continuous
 62
     3
370
     9
100
AcDbLine
 10
-424.3924527554898
 20
249.864213273332
 30
0.0
 11
-424.3924527554898
 21
319.3642446157095
 31
0.0
  0
LINE
  5
1B6
330
1F
100
AcDbEntity
  8
A-2_蓋
  6
Continuous
 62
     3
370
     9
100
AcDbLine
 10
-439.972872347445
 20
249.864213273332
 30
0.0
 11
-439.972872347445
 21
319.3642446157095
 31
0.0
  0
LINE
  5
1B7
330
1F
100
AcDbEntity
  8
A-2_蓋
  6
Continuous
 62
     3
370
     9
100
AcDbLine
 10
-436.9722933382601
 20
249.864213273332
 30
0.0
 11
-436.9722933382601
 21
319.3642446157095
 31
0.0
  0
LINE
  5
1B8
330
1F
100
AcDbEntity
  8
A-2_蓋
  6
Continuous
 62
     3
370
     9
100
AcDbLine
 10
-452.5528366501266
 20
249.864213273332
 30
0.0
 11
-452.5528366501266
 21
319.3642446157095
 31
0.0
  0
LINE
  5
1B9
330
1F
100
AcDbEntity
  8
A-2_蓋
  6
Continuous
 62
     3
370
     9
100
AcDbLine
 10
-449.5528762404983
 20
249.864213273332
 30
0.0
 11
-449.5528762404983
 21
319.3642446157095
 31
0.0
  0
LINE
  5
1BA
330
1F
100
AcDbEntity
  8
A-2_蓋
  6
Continuous
 62
     3
370
     9
100
AcDbLine
 10
-465.1328009528083
 20
249.864213273332
 30
0.0
 11
-465.1328009528083
 21
319.3642446157095
 31
0.0
  0
LINE
  5
1BB
330
1F
100
AcDbEntity
  8
A-2_蓋
  6
Continuous
 62
     3
370
     9
100
AcDbLine
 10
-462.1327168232685
 20
249.864213273332
 30
0.0
 11
-462.1327168232685
 21
319.3642446157095
 31
0.0
  0
LINE
  5
1BC
330
1F
100
AcDbEntity
  8
A-2_蓋
  6
Continuous
 62
     3
370
     9
100
AcDbLine
 10
-477.7127652554898
 20
249.864213273332
 30
0.0
 11
-477.7127652554898
 21
319.3642446157095
 31
0.0
  0
LINE
  5
1BD
330
1F
100
AcDbEntity
  8
A-2_蓋
  6
Continuous
 62
     3
370
     9
100
AcDbLine
 10
-474.7126811259501
 20
249.864213273332
 30
0.0
 11
-474.7126811259501
 21
319.3642446157095
 31
0.0
  0
LINE
  5
1BE
330
1F
100
AcDbEntity
  8
A-2_蓋
  6
Continuous
 62
     3
370
     9
100
AcDbLine
 10
-490.2927295581714
 20
249.864213273332
 30
0.0
 11
-490.2927295581714
 21
319.3642446157095
 31
0.0
  0
LINE
  5
1BF
330
1F
100
AcDbEntity
  8
A-2_蓋
  6
Continuous
 62
     3
370
     9
100
AcDbLine
 10
-487.2926454286317
 20
249.864213273332
 30
0.0
 11
-487.2926454286317
 21
319.3642446157095
 31
0.0
  0
LINE
  5
1C0
330
1F
100
AcDbEntity
  8
A-2_蓋
  6
Continuous
 62
     3
370
     9
100
AcDbLine
 10
-502.872693860853
 20
249.864213273332
 30
0.0
 11
-502.872693860853
 21
319.3642446157095
 31
0.0
  0
LINE
  5
1C1
330
1F
100
AcDbEntity
  8
A-2_蓋
  6
Continuous
 62
     3
370
     9
100
AcDbLine
 10
-499.8726097313133
 20
249.864213273332
 30
0.0
 11
-499.8726097313133
 21
319.3642446157095
 31
0.0
  0
LINE
  5
1C2
330
1F
100
AcDbEntity
  8
A-2_蓋
  6
Continuous
 62
     3
370
     9
100
AcDbLine
 10
-515.4525344436233
 20
249.864213273332
 30
0.0
 11
-515.4525344436233
 21
319.3642446157095
 31
0.0
  0
LINE
  5
1C3
330
1F
100
AcDbEntity
  8
A-2_蓋
  6
Continuous
 62
     3
370
     9
100
AcDbLine
 10
-512.4525740339949
 20
249.864213273332
 30
0.0
 11
-512.4525740339949
 21
319.3642446157095
 31
0.0
  0
LINE
  5
1C4
330
1F
100
AcDbEntity
  8
A-2_蓋
  6
Continuous
 62
     3
370
     9
100
AcDbLine
 10
-528.0331173458615
 20
249.864213273332
 30
0.0
 11
-528.0331173458615
 21
319.3642446157095
 31
0.0
  0
LINE
  5
1C5
330
1F
100
AcDbEntity
  8
A-2_蓋
  6
Continuous
 62
     3
370
     9
100
AcDbLine
 10
-525.0330332163218
 20
249.864213273332
 30
0.0
 11
-525.0330332163218
 21
319.3642446157095
 31
0.0
  0
LINE
  5
1C6
330
1F
100
AcDbEntity
  8
A-2_蓋
  6
Continuous
 62
     3
370
     9
100
AcDbLine
 10
-540.6129579286317
 20
249.864213273332
 30
0.0
 11
-540.6129579286317
 21
319.3642446157095
 31
0.0
  0
LINE
  5
1C7
330
1F
100
AcDbEntity
  8
A-2_蓋
  6
Continuous
 62
     3
370
     9
100
AcDbLine
 10
-537.6129975190033
 20
249.864213273332
 30
0.0
 11
-537.6129975190033
 21
319.3642446157095
 31
0.0
  0
LINE
  5
1C8
330
1F
100
AcDbEntity
  8
A-2_蓋
  6
Continuous
 62
     3
370
     9
100
AcDbLine
 10
-553.192427351668
 20
249.864213273332
 30
0.0
 11
-553.192427351668
 21
319.3642446157095
 31
0.0
  0
LINE
  5
1C9
330
1F
100
AcDbEntity
  8
A-2_蓋
  6
Continuous
 62
     3
370
     9
100
AcDbLine
 10
-550.1928381017736
 20
249.864213273332
 30
0.0
 11
-550.1928381017736
 21
319.3642446157095
 31
0.0
  0
LINE
  5
1CA
330
1F
100
AcDbEntity
  8
A-2_蓋
  6
Continuous
 62
     3
370
     9
100
AcDbLine
 10
-565.7728865339949
 20
249.864213273332
 30
0.0
 11
-565.7728865339949
 21
319.3642446157095
 31
0.0
  0
LINE
  5
1CB
330
1F
100
AcDbEntity
  8
A-2_蓋
  6
Continuous
 62
     3
370
     9
100
AcDbLine
 10
-562.7728024044552
 20
249.864213273332
 30
0.0
 11
-562.7728024044552
 21
319.3642446157095
 31
0.0
  0
LINE
  5
1CC
330
1F
100
AcDbEntity
  8
A-2_蓋
  6
Continuous
 62
     3
370
     9
100
AcDbLine
 10
-578.3528508366765
 20
249.864213273332
 30
0.0
 11
-578.3528508366765
 21
319.3642446157095
 31
0.0
  0
LINE
  5
1CD
330
1F
100
AcDbEntity
  8
A-2_蓋
  6
Continuous
 62
     3
370
     9
100
AcDbLine
 10
-575.3527667071368
 20
249.864213273332
 30
0.0
 11
-575.3527667071368
 21
319.3642446157095
 31
0.0
  0
LINE
  5
1CE
330
1F
100
AcDbEntity
  8
A-2_蓋
  6
Continuous
 62
     3
370
     9
100
AcDbLine
 10
-590.9328151393581
 20
249.864213273332
 30
0.0
 11
-590.9328151393581
 21
319.3642446157095
 31
0.0
  0
LINE
  5
1CF
330
1F
100
AcDbEntity
  8
A-2_蓋
  6
Continuous
 62
     3
370
     9
100
AcDbLine
 10
-587.9327310098183
 20
249.864213273332
 30
0.0
 11
-587.9327310098183
 21
319.3642446157095
 31
0.0
  0
LINE
  5
1D0
330
1F
100
AcDbEntity
  8
A-2_蓋
  6
Continuous
 62
     3
370
     9
100
AcDbLine
 10
-603.5126557221283
 20
249.864213273332
 30
0.0
 11
-603.5126557221283
 21
319.3642446157095
 31
0.0
  0
LINE
  5
1D1
330
1F
100
AcDbEntity
  8
A-2_蓋
  6
Continuous
 62
     3
370
     9
100
AcDbLine
 10
-600.5126953125
 20
249.864213273332
 30
0.0
 11
-600.5126953125
 21
319.3642446157095
 31
0.0
  0
LINE
  5
1D2
330
1F
100
AcDbEntity
  8
A-2_蓋
  6
Continuous
 62
     3
370
     9
100
AcDbLine
 10
-616.0927437447212
 20
249.864213273332
 30
0.0
 11
-616.0927437447212
 21
319.3642446157095
 31
0.0
  0
LINE
  5
1D3
330
1F
100
AcDbEntity
  8
A-2_蓋
  6
Continuous
 62
     3
370
     9
100
AcDbLine
 10
-613.0926596151816
 20
249.864213273332
 30
0.0
 11
-613.0926596151816
 21
319.3642446157095
 31
0.0
  0
LINE
  5
1D4
330
1F
100
AcDbEntity
  8
A-2_蓋
  6
Continuous
 62
     3
370
     9
100
AcDbLine
 10
-628.6730792071368
 20
249.864213273332
 30
0.0
 11
-628.6730792071368
 21
319.3642446157095
 31
0.0
  0
LINE
  5
1D5
330
1F
100
AcDbEntity
  8
A-2_蓋
  6
Continuous
 62
     3
370
     9
100
AcDbLine
 10
-625.6726239178631
 20
249.864213273332
 30
0.0
 11
-625.6726239178631
 21
319.3642446157095
 31
0.0
  0
LINE
  5
1D6
330
1F
100
AcDbEntity
  8
A-2_蓋
  6
Continuous
 62
     3
370
     9
100
AcDbLine
 10
-641.2531672297297
 20
249.864213273332
 30
0.0
 11
-641.2531672297297
 21
319.3642446157095
 31
0.0
  0
LINE
  5
1D7
330
1F
100
AcDbEntity
  8
A-2_蓋
  6
Continuous
 62
     3
370
     9
100
AcDbLine
 10
-638.2524645006334
 20
249.864213273332
 30
0.0
 11
-638.2524645006334
 21
319.3642446157095
 31
0.0
  0
LINE
  5
1D8
330
1F
100
AcDbEntity
  8
A-2_蓋
  6
Continuous
 62
     3
370
     9
100
AcDbLine
 10
-653.8330078125
 20
249.864213273332
 30
0.0
 11
-653.8330078125
 21
319.3642446157095
 31
0.0
  0
LINE
  5
1D9
330
1F
100
AcDbEntity
  8
A-2_蓋
  6
Continuous
 62
     3
370
     9
100
AcDbLine
 10
-650.8325525232262
 20
249.864213273332
 30
0.0
 11
-650.8325525232262
 21
319.3642446157095
 31
0.0
  0
LINE
  5
1DA
330
1F
100
AcDbEntity
  8
A-2_蓋
  6
Continuous
 62
     3
370
     9
100
AcDbLine
 10
-666.4130958350929
 20
249.864213273332
 30
0.0
 11
-666.4130958350929
 21
319.3642446157095
 31
0.0
  0
LINE
  5
1DB
330
1F
100
AcDbEntity
  8
A-2_蓋
  6
Continuous
 62
     3
370
     9
100
AcDbLine
 10
-663.4128879856419
 20
249.864213273332
 30
0.0
 11
-663.4128879856419
 21
319.3642446157095
 31
0.0
  0
LINE
  5
1DC
330
1F
100
AcDbEntity
  8
A-2_蓋
  6
Continuous
 62
     3
370
     9
100
AcDbLine
 10
-678.9929364178631
 20
249.864213273332
 30
0.0
 11
-678.9929364178631
 21
319.3642446157095
 31
0.0
  0
LINE
  5
1DD
330
1F
100
AcDbEntity
  8
A-2_蓋
  6
Continuous
 62
     3
370
     9
100
AcDbLine
 10
-675.9929760082348
 20
249.864213273332
 30
0.0
 11
-675.9929760082348
 21
319.3642446157095
 31
0.0
  0
LINE
  5
1DE
330
1F
100
AcDbEntity
  8
A-2_蓋
  6
Continuous
 62
     3
370
     9
100
AcDbLine
 10
-691.5729007205448
 20
249.864213273332
 30
0.0
 11
-691.5729007205448
 21
319.3642446157095
 31
0.0
  0
LINE
  5
1DF
330
1F
100
AcDbEntity
  8
A-2_蓋
  6
Continuous
 62
     3
370
     9
100
AcDbLine
 10
-688.5728165910051
 20
249.864213273332
 30
0.0
 11
-688.5728165910051
 21
319.3642446157095
 31
0.0
  0
LINE
  5
1E0
330
1F
100
AcDbEntity
  8
A-2_蓋
  6
Continuous
 62
     3
370
     9
100
AcDbLine
 10
-704.1528650232262
 20
249.864213273332
 30
0.0
 11
-704.1528650232262
 21
319.3642446157095
 31
0.0
  0
LINE
  5
1E1
330
1F
100
AcDbEntity
  8
A-2_蓋
  6
Continuous
 62
     3
370
     9
100
AcDbLine
 10
-701.1527808936867
 20
249.864213273332
 30
0.0
 11
-701.1527808936867
 21
319.3642446157095
 31
0.0
  0
LINE
  5
1E2
330
1F
100
AcDbEntity
  8
A-2_蓋
  6
Continuous
 62
     3
370
     9
100
AcDbLine
 10
-716.7328293259079
 20
249.864213273332
 30
0.0
 11
-716.7328293259079
 21
319.3642446157095
 31
0.0
  0
LINE
  5
1E3
330
1F
100
AcDbEntity
  8
A-2_蓋
  6
Continuous
 62
     3
370
     9
100
AcDbLine
 10
-713.7327451963682
 20
249.864213273332
 30
0.0
 11
-713.7327451963682
 21
319.3642446157095
 31
0.0
  0
LINE
  5
1E4
330
1F
100
AcDbEntity
  8
A-2_蓋
  6
Continuous
 62
     3
370
     9
100
AcDbLine
 10
-729.3132885082348
 20
249.864213273332
 30
0.0
 11
-729.3132885082348
 21
319.3642446157095
 31
0.0
  0
LINE
  5
1E5
330
1F
100
AcDbEntity
  8
A-2_蓋
  6
Continuous
 62
     3
370
     9
100
AcDbLine
 10
-726.313204378695
 20
249.864213273332
 30
0.0
 11
-726.313204378695
 21
319.3642446157095
 31
0.0
  0
LINE
  5
1E6
330
1F
100
AcDbEntity
  8
A-2_蓋
  6
Continuous
 62
     3
370
     9
100
AcDbLine
 10
-741.8928816511824
 20
249.864213273332
 30
0.0
 11
-741.8928816511824
 21
319.3642446157095
 31
0.0
  0
LINE
  5
1E7
330
1F
100
AcDbEntity
  8
A-2_蓋
  6
Continuous
 62
     3
370
     9
100
AcDbLine
 10
-738.8931686813767
 20
249.864213273332
 30
0.0
 11
-738.8931686813767
 21
319.3642446157095
 31
0.0
  0
LINE
  5
1E8
330
1F
100
AcDbEntity
  8
A-2_蓋
  6
Continuous
 62
     3
370
     9
100
AcDbLine
 10
-754.4727222339527
 20
249.864213273332
 30
0.0
 11
-754.4727222339527
 21
319.3642446157095
 31
0.0
  0
LINE
  5
1E9
330
1F
100
AcDbEntity
  8
A-2_蓋
  6
Continuous
 62
     3
370
     9
100
AcDbLine
 10
-751.4731329840583
 20
249.864213273332
 30
0.0
 11
-751.4731329840583
 21
319.3642446157095
 31
0.0
  0
LINE
  5
1EA
330
1F
100
AcDbEntity
  8
A-2_蓋
  6
Continuous
 62
     3
370
     9
100
AcDbLine
 10
-767.0530576963682
 20
249.864213273332
 30
0.0
 11
-767.0530576963682
 21
319.3642446157095
 31
0.0
  0
LINE
  5
1EB
330
1F
100
AcDbEntity
  8
A-2_蓋
  6
Continuous
 62
     3
370
     9
100
AcDbLine
 10
-764.0530972867398
 20
249.864213273332
 30
0.0
 11
-764.0530972867398
 21
319.3642446157095
 31
0.0
  0
LINE
  5
1EC
330
1F
100
AcDbEntity
  8
A-2_蓋
  6
Continuous
 62
     3
370
     9
100
AcDbLine
 10
-779.6331457189613
 20
249.864213273332
 30
0.0
 11
-779.6331457189613
 21
319.3642446157095
 31
0.0
  0
LINE
  5
1ED
330
1F
100
AcDbEntity
  8
A-2_蓋
  6
Continuous
 62
     3
370
     9
100
AcDbLine
 10
-776.6329378695102
 20
249.864213273332
 30
0.0
 11
-776.6329378695102
 21
319.3642446157095
 31
0.0
  0
LINE
  5
1EE
330
1F
100
AcDbEntity
  8
A-2_蓋
  6
Continuous
 62
     3
370
     9
100
AcDbLine
 10
-792.2129863017313
 20
249.864213273332
 30
0.0
 11
-792.2129863017313
 21
319.3642446157095
 31
0.0
  0
LINE
  5
1EF
330
1F
100
AcDbEntity
  8
A-2_蓋
  6
Continuous
 62
     3
370
     9
100
AcDbLine
 10
-789.213025892103
 20
249.864213273332
 30
0.0
 11
-789.213025892103
 21
319.3642446157095
 31
0.0
  0
LINE
  5
1F0
330
1F
100
AcDbEntity
  8
A-4_寸法
  6
Continuous
 62
     7
370
     9
100
AcDbLine
 10
77.30762378589532
 20
349.5836989944046
 30
0.0
 11
89.88758808857696
 21
349.5836989944046
 31
0.0
  0
LINE
  5
1F1
330
1F
100
AcDbEntity
  8
A-4_寸法
  6
Continuous
 62
     7
370
     9
100
AcDbLine
 10
77.30762378589532
 20
297.9161607896959
 30
0.0
 11
77.30762378589532
 21
351.0836791992188
 31
0.0
  0
LINE
  5
1F2
330
1F
100
AcDbEntity
  8
A-4_寸法
  6
Continuous
 62
     7
370
     9
100
AcDbLine
 10
89.88758808857696
 20
297.9161607896959
 30
0.0
 11
89.88758808857696
 21
351.0836791992188
 31
0.0
  0
LINE
  5
1F3
330
1F
100
AcDbEntity
  8
A-1_ピット
  6
Continuous
 62
     2
370
     9
100
AcDbLine
 10
-611.4731659760346
 20
341.4643323743667
 30
0.0
 11
-611.4731659760346
 21
335.3646933065879
 31
0.0
  0
LINE
  5
1F4
330
1F
100
AcDbEntity
  8
A-1_ピット
  6
Continuous
 62
     2
370
     9
100
AcDbLine
 10
-511.473207216005
 20
351.4644890862543
 30
0.0
 11
-601.4731329840582
 21
351.4644890862543
 31
0.0
  0
LINE
  5
1F5
330
1F
100
AcDbEntity
  8
A-1_ピット
  6
Continuous
 62
     2
370
     9
100
AcDbLine
 10
-501.4731742240287
 20
341.4643323743667
 30
0.0
 11
-501.4731742240287
 21
335.3646933065879
 31
0.0
  0
LINE
  5
1F6
330
1F
100
AcDbEntity
  8
A-1_ピット
  6
Continuous
 62
     2
370
     9
100
AcDbLine
 10
-510.4733028927365
 20
341.4643323743667
 30
0.0
 11
-510.4733028927365
 21
335.3646933065879
 31
0.0
  0
LINE
  5
1F7
330
1F
100
AcDbEntity
  8
A-1_ピット
  6
Continuous
 62
     2
370
     9
100
AcDbLine
 10
-601.4731329840582
 20
342.4642366976352
 30
0.0
 11
-511.473207216005
 21
342.4642366976352
 31
0.0
  0
LINE
  5
1F8
330
1F
100
AcDbEntity
  8
A-1_ピット
  6
Continuous
 62
     2
370
     9
100
AcDbLine
 10
-602.4734084670608
 20
341.4643323743667
 30
0.0
 11
-602.4734084670608
 21
335.3646933065879
 31
0.0
  0
LINE
  5
1F9
330
1F
100
AcDbEntity
  8
A-1_ピット
  6
JWW_CENTER1
 62
     2
370
     9
100
AcDbLine
 10
-606.9733490815033
 20
328.7573077227619
 30
0.0
 11
-606.9733490815033
 21
342.8546967377534
 31
0.0
  0
LINE
  5
1FA
330
1F
100
AcDbEntity
  8
A-1_ピット
  6
JWW_CENTER1
 62
     2
370
     9
100
AcDbLine
 10
-598.8105567725929
 20
335.3646933065879
 30
0.0
 11
-615.2174253721495
 21
335.3646933065879
 31
0.0
  0
LINE
  5
1FB
330
1F
100
AcDbEntity
  8
A-1_ピット
  6
JWW_CENTER1
 62
     2
370
     9
100
AcDbLine
 10
-505.9729911185599
 20
328.7573077227619
 30
0.0
 11
-505.9729911185599
 21
342.8546967377534
 31
0.0
  0
LINE
  5
1FC
330
1F
100
AcDbEntity
  8
A-1_ピット
  6
JWW_CENTER1
 62
     2
370
     9
100
AcDbLine
 10
-497.8103225295608
 20
335.3646933065879
 30
0.0
 11
-514.2173148490288
 21
335.3646933065879
 31
0.0
  0
LINE
  5
1FD
330
1F
100
AcDbEntity
  8
A-1_ピット
  6
Continuous
 62
     2
370
     9
100
AcDbLine
 10
-111.4732484559755
 20
341.4643323743667
 30
0.0
 11
-111.4732484559755
 21
335.3646933065879
 31
0.0
  0
LINE
  5
1FE
330
1F
100
AcDbEntity
  8
A-1_ピット
  6
Continuous
 62
     2
370
     9
100
AcDbLine
 10
-11.47328969594582
 20
351.4644890862543
 30
0.0
 11
-101.4732154639991
 21
351.4644890862543
 31
0.0
  0
LINE
  5
1FF
330
1F
100
AcDbEntity
  8
A-1_ピット
  6
Continuous
 62
     2
370
     9
100
AcDbLine
 10
-1.473256703969525
 20
341.4643323743667
 30
0.0
 11
-1.473256703969525
 21
335.3646933065879
 31
0.0
  0
LINE
  5
200
330
1F
100
AcDbEntity
  8
A-1_ピット
  6
Continuous
 62
     2
370
     9
100
AcDbLine
 10
-10.47338537267734
 20
341.4643323743667
 30
0.0
 11
-10.47338537267734
 21
335.3646933065879
 31
0.0
  0
LINE
  5
201
330
1F
100
AcDbEntity
  8
A-1_ピット
  6
Continuous
 62
     2
370
     9
100
AcDbLine
 10
-101.4732154639991
 20
342.4642366976352
 30
0.0
 11
-11.47328969594582
 21
342.4642366976352
 31
0.0
  0
LINE
  5
202
330
1F
100
AcDbEntity
  8
A-1_ピット
  6
Continuous
 62
     2
370
     9
100
AcDbLine
 10
-102.4734909470017
 20
341.4643323743667
 30
0.0
 11
-102.4734909470017
 21
335.3646933065879
 31
0.0
  0
LINE
  5
203
330
1F
100
AcDbEntity
  8
A-1_ピット
  6
JWW_CENTER1
 62
     2
370
     9
100
AcDbLine
 10
-106.9734315614443
 20
328.7573077227619
 30
0.0
 11
-106.9734315614443
 21
342.8546967377534
 31
0.0
  0
LINE
  5
204
330
1F
100
AcDbEntity
  8
A-1_ピット
  6
JWW_CENTER1
 62
     2
370
     9
100
AcDbLine
 10
-98.81063925253372
 20
335.3646933065879
 30
0.0
 11
-115.2175078520904
 21
335.3646933065879
 31
0.0
  0
LINE
  5
205
330
1F
100
AcDbEntity
  8
A-1_ピット
  6
JWW_CENTER1
 62
     2
370
     9
100
AcDbLine
 10
-5.973073598500775
 20
328.7573077227619
 30
0.0
 11
-5.973073598500775
 21
342.8546967377534
 31
0.0
  0
LINE
  5
206
330
1F
100
AcDbEntity
  8
A-1_ピット
  6
JWW_CENTER1
 62
     2
370
     9
100
AcDbLine
 10
2.189594990498307
 20
335.3646933065879
 30
0.0
 11
-14.21739732896953
 21
335.3646933065879
 31
0.0
  0
LINE
  5
207
330
1F
100
AcDbEntity
  8
A-4_寸法
  6
Continuous
 62
     7
370
     9
100
AcDbLine
 10
-268.8186851707664
 20
322.3646999049832
 30
0.0
 11
-265.1305946143897
 21
334.3082489838471
 31
0.0
  0
LINE
  5
208
330
1F
100
AcDbEntity
  8
A-4_寸法
  6
Continuous
 62
     7
370
     9
100
AcDbLine
 10
-268.8186851707664
 20
322.3646999049832
 30
0.0
 11
-262.1650283401077
 21
332.9467113597974
 31
0.0
  0
LINE
  5
209
330
1F
100
AcDbEntity
  8
A-4_寸法
  6
Continuous
 62
     7
370
     9
100
AcDbLine
 10
-160.2125837996199
 20
303.7342133393159
 30
0.0
 11
-156.5244932432432
 21
315.67776241818
 31
0.0
  0
LINE
  5
20A
330
1F
100
AcDbEntity
  8
A-4_寸法
  6
Continuous
 62
     7
370
     9
100
AcDbLine
 10
-160.2125837996199
 20
303.7342133393159
 30
0.0
 11
-153.5589269689611
 21
314.3162247941301
 31
0.0
  0
LINE
  5
20B
330
1F
100
AcDbEntity
  8
A-4_寸法
  6
Continuous
 62
     7
370
     9
100
AcDbLine
 10
-168.2052612304688
 20
541.5122532200169
 30
0.0
 11
34.9681957347974
 21
541.5122532200169
 31
0.0
  0
LINE
  5
20C
330
1F
100
AcDbEntity
  8
A-4_寸法
  6
Continuous
 62
     7
370
     9
100
AcDbLine
 10
-127.0250887484163
 20
501.5121212521116
 30
0.0
 11
55.8879955394849
 21
501.5121212521116
 31
0.0
  0
LINE
  5
20D
330
1F
100
AcDbEntity
  8
A-5_仕様文
  6
Continuous
 62
     7
370
     9
100
AcDbLine
 10
-88.99637170740064
 20
458.8512688714105
 30
0.0
 11
-160.2125837996199
 21
303.7342133393159
 31
0.0
  0
LINE
  5
20E
330
1F
100
AcDbEntity
  8
A-4_寸法
  6
Continuous
 62
     7
370
     9
100
AcDbLine
 10
-88.99637170740064
 20
458.8512688714105
 30
0.0
 11
150.1800124709671
 21
458.8512688714105
 31
0.0
  0
LINE
  5
20F
330
1F
100
AcDbEntity
  8
A-4_寸法
  6
Continuous
 62
     7
370
     9
100
AcDbLine
 10
-806.4731907200169
 20
389.9324736724029
 30
0.0
 11
292.0269940350508
 21
389.9324736724029
 31
0.0
  0
LINE
  5
210
330
1F
100
AcDbEntity
  8
A-4_寸法
  6
Continuous
 62
     7
370
     9
100
AcDbLine
 10
-806.4731907200169
 20
338.3647774361276
 30
0.0
 11
-806.4731907200169
 21
391.4324538772171
 31
0.0
  0
LINE
  5
211
330
1F
100
AcDbEntity
  8
A-4_寸法
  6
Continuous
 62
     7
370
     9
100
AcDbLine
 10
-556.4731082400759
 20
358.9643901103253
 30
0.0
 11
-556.4731082400759
 21
391.4324538772171
 31
0.0
  0
LINE
  5
212
330
1F
100
AcDbEntity
  8
A-4_寸法
  6
Continuous
 62
     7
370
     9
100
AcDbLine
 10
-56.47325257997252
 20
358.9643901103253
 30
0.0
 11
-56.47325257997252
 21
391.4324538772171
 31
0.0
  0
LINE
  5
213
330
1F
100
AcDbEntity
  8
A-5_仕様文
  6
Continuous
 62
     7
370
     9
100
AcDbLine
 10
-168.2052612304688
 20
541.5122532200169
 30
0.0
 11
-268.8186851707664
 21
322.3646999049832
 31
0.0
  0
LINE
  5
214
330
1F
100
AcDbEntity
  8
A-4_寸法
  6
Continuous
 62
     7
370
     9
100
AcDbLine
 10
626.8917599239865
 20
-165.4729935929581
 30
0.0
 11
545.4353126319679
 21
-165.4729935929581
 31
0.0
  0
LINE
  5
215
330
1F
100
AcDbEntity
  8
A-4_寸法
  6
Continuous
 62
     7
370
     9
100
AcDbLine
 10
626.8917599239865
 20
-43.7811609216638
 30
0.0
 11
626.8917599239865
 21
-165.4729935929581
 31
0.0
  0
LINE
  5
216
330
1F
100
AcDbEntity
  8
A-4_寸法
  6
Continuous
 62
     7
370
     9
100
AcDbLine
 10
603.3919050886825
 20
-43.7811609216638
 30
0.0
 11
603.3919050886825
 21
-166.9729737977723
 31
0.0
  0
LINE
  5
217
330
1F
100
AcDbEntity
  8
A-1_ピット
  6
Continuous
 62
     2
370
     9
100
AcDbLine
 10
-611.4731659760346
 20
-46.73472636454804
 30
0.0
 11
-611.4731659760346
 21
-40.6350872967694
 31
0.0
  0
LINE
  5
218
330
1F
100
AcDbEntity
  8
A-1_ピット
  6
Continuous
 62
     2
370
     9
100
AcDbLine
 10
-511.473207216005
 20
-56.73482121648007
 30
0.0
 11
-601.4731329840582
 21
-56.73482121648007
 31
0.0
  0
LINE
  5
219
330
1F
100
AcDbEntity
  8
A-1_ピット
  6
Continuous
 62
     2
370
     9
100
AcDbLine
 10
-501.4731742240287
 20
-46.73472636454804
 30
0.0
 11
-501.4731742240287
 21
-40.6350872967694
 31
0.0
  0
LINE
  5
21A
330
1F
100
AcDbEntity
  8
A-1_ピット
  6
Continuous
 62
     2
370
     9
100
AcDbLine
 10
-510.4733028927365
 20
-46.73472636454804
 30
0.0
 11
-510.4733028927365
 21
-40.6350872967694
 31
0.0
  0
LINE
  5
21B
330
1F
100
AcDbEntity
  8
A-1_ピット
  6
Continuous
 62
     2
370
     9
100
AcDbLine
 10
-601.4731329840582
 20
-47.73463068781666
 30
0.0
 11
-511.473207216005
 21
-47.73463068781666
 31
0.0
  0
LINE
  5
21C
330
1F
100
AcDbEntity
  8
A-1_ピット
  6
Continuous
 62
     2
370
     9
100
AcDbLine
 10
-602.4734084670608
 20
-46.73472636454804
 30
0.0
 11
-602.4734084670608
 21
-40.6350872967694
 31
0.0
  0
LINE
  5
21D
330
1F
100
AcDbEntity
  8
A-1_ピット
  6
JWW_CENTER1
 62
     2
370
     9
100
AcDbLine
 10
-606.9733490815033
 20
-34.02770171294335
 30
0.0
 11
-606.9733490815033
 21
-48.12509072793489
 31
0.0
  0
LINE
  5
21E
330
1F
100
AcDbEntity
  8
A-1_ピット
  6
JWW_CENTER1
 62
     2
370
     9
100
AcDbLine
 10
-598.8105567725929
 20
-40.6350872967694
 30
0.0
 11
-615.2174253721495
 21
-40.6350872967694
 31
0.0
  0
LINE
  5
21F
330
1F
100
AcDbEntity
  8
A-1_ピット
  6
JWW_CENTER1
 62
     2
370
     9
100
AcDbLine
 10
-505.9729911185599
 20
-34.02770171294335
 30
0.0
 11
-505.9729911185599
 21
-48.12509072793489
 31
0.0
  0
LINE
  5
220
330
1F
100
AcDbEntity
  8
A-1_ピット
  6
JWW_CENTER1
 62
     2
370
     9
100
AcDbLine
 10
-497.8103225295608
 20
-40.6350872967694
 30
0.0
 11
-514.2173148490288
 21
-40.6350872967694
 31
0.0
  0
LINE
  5
221
330
1F
100
AcDbEntity
  8
A-1_ピット
  6
Continuous
 62
     2
370
     9
100
AcDbLine
 10
-111.4732484559755
 20
-46.73472636454804
 30
0.0
 11
-111.4732484559755
 21
-40.6350872967694
 31
0.0
  0
LINE
  5
222
330
1F
100
AcDbEntity
  8
A-1_ピット
  6
Continuous
 62
     2
370
     9
100
AcDbLine
 10
-11.47328969594582
 20
-56.73482121648007
 30
0.0
 11
-101.4732154639991
 21
-56.73482121648007
 31
0.0
  0
LINE
  5
223
330
1F
100
AcDbEntity
  8
A-1_ピット
  6
Continuous
 62
     2
370
     9
100
AcDbLine
 10
-1.473256703969525
 20
-46.73472636454804
 30
0.0
 11
-1.473256703969525
 21
-40.6350872967694
 31
0.0
  0
LINE
  5
224
330
1F
100
AcDbEntity
  8
A-1_ピット
  6
Continuous
 62
     2
370
     9
100
AcDbLine
 10
-10.47338537267734
 20
-46.73472636454804
 30
0.0
 11
-10.47338537267734
 21
-40.6350872967694
 31
0.0
  0
LINE
  5
225
330
1F
100
AcDbEntity
  8
A-1_ピット
  6
Continuous
 62
     2
370
     9
100
AcDbLine
 10
-101.4732154639991
 20
-47.73463068781666
 30
0.0
 11
-11.47328969594582
 21
-47.73463068781666
 31
0.0
  0
LINE
  5
226
330
1F
100
AcDbEntity
  8
A-1_ピット
  6
Continuous
 62
     2
370
     9
100
AcDbLine
 10
-102.4734909470017
 20
-46.73472636454804
 30
0.0
 11
-102.4734909470017
 21
-40.6350872967694
 31
0.0
  0
LINE
  5
227
330
1F
100
AcDbEntity
  8
A-1_ピット
  6
JWW_CENTER1
 62
     2
370
     9
100
AcDbLine
 10
-106.9734315614443
 20
-34.02770171294335
 30
0.0
 11
-106.9734315614443
 21
-48.12509072793489
 31
0.0
  0
LINE
  5
228
330
1F
100
AcDbEntity
  8
A-1_ピット
  6
JWW_CENTER1
 62
     2
370
     9
100
AcDbLine
 10
-98.81063925253372
 20
-40.6350872967694
 30
0.0
 11
-115.2175078520904
 21
-40.6350872967694
 31
0.0
  0
LINE
  5
229
330
1F
100
AcDbEntity
  8
A-1_ピット
  6
JWW_CENTER1
 62
     2
370
     9
100
AcDbLine
 10
-5.973073598500775
 20
-34.02770171294335
 30
0.0
 11
-5.973073598500775
 21
-48.12509072793489
 31
0.0
  0
LINE
  5
22A
330
1F
100
AcDbEntity
  8
A-1_ピット
  6
JWW_CENTER1
 62
     2
370
     9
100
AcDbLine
 10
2.189594990498307
 20
-40.6350872967694
 30
0.0
 11
-14.21739732896953
 21
-40.6350872967694
 31
0.0
  0
LINE
  5
22B
330
1F
100
AcDbEntity
  8
A-1_ピット
  6
Continuous
 62
     2
370
     9
100
AcDbLine
 10
-806.4731907200169
 20
272.3651535446579
 30
0.0
 11
-806.4731907200169
 21
330.8643815324114
 31
0.0
  0
LINE
  5
22C
330
1F
100
AcDbEntity
  8
A-2_蓋
  6
Continuous
 62
     3
370
     9
100
AcDbLine
 10
-738.8931686813767
 20
44.86489785684128
 30
0.0
 11
-738.8931686813767
 21
-24.63507162558059
 31
0.0
  0
LINE
  5
22D
330
1F
100
AcDbEntity
  8
A-2_蓋
  6
Continuous
 62
     3
370
     9
100
AcDbLine
 10
-804.9732105152027
 20
322.3646999049832
 30
0.0
 11
192.0269115551099
 21
322.3646999049832
 31
0.0
  0
LINE
  5
22E
330
1F
100
AcDbEntity
  8
A-1_ピット
  6
Continuous
 62
     2
370
     9
100
AcDbLine
 10
-806.4731907200169
 20
-36.13520854228241
 30
0.0
 11
-806.4731907200169
 21
22.36401944547097
 31
0.0
  0
LINE
  5
22F
330
1F
100
AcDbEntity
  8
A-2_蓋
  6
JWW_PHANTOM2
 62
     3
370
     9
100
AcDbLine
 10
195.0268719647383
 20
322.3648236248945
 30
0.0
 11
195.0268719647383
 21
-27.63515575512031
 31
0.0
  0
LINE
  5
230
330
1F
100
AcDbEntity
  8
A-1_ピット
  6
Continuous
 62
     2
370
     9
100
AcDbLine
 10
292.0269940350508
 20
-31.63502048801732
 30
0.0
 11
-806.4731907200169
 21
-31.63502048801732
 31
0.0
  0
LINE
  5
231
330
1F
100
AcDbEntity
  8
A-4_寸法
  6
Continuous
 62
     7
370
     9
100
AcDbLine
 10
-860.1482082057644
 20
-113.4339244945629
 30
0.0
 11
292.0269940350508
 21
-113.4339244945629
 31
0.0
  0
LINE
  5
232
330
1F
100
AcDbEntity
  8
A-4_寸法
  6
Continuous
 62
     7
370
     9
100
AcDbLine
 10
-806.4731907200169
 20
-43.63523328626471
 30
0.0
 11
-806.4731907200169
 21
-166.9729737977723
 31
0.0
  0
LINE
  5
233
330
1F
100
AcDbEntity
  8
A-4_寸法
  6
Continuous
 62
     7
370
     9
100
AcDbLine
 10
-804.9732105152027
 20
-35.1351804991026
 30
0.0
 11
-804.9732105152027
 21
-114.9339046993771
 31
0.0
  0
LINE
  5
234
330
1F
100
AcDbEntity
  8
A-4_寸法
  6
Continuous
 62
     7
370
     9
100
AcDbLine
 10
192.0269115551099
 20
-35.1351804991026
 30
0.0
 11
192.0269115551099
 21
-114.9339046993771
 31
0.0
  0
LINE
  5
235
330
1F
100
AcDbEntity
  8
A-4_寸法
  6
Continuous
 62
     7
370
     9
100
AcDbLine
 10
195.0268719647383
 20
-35.1351804991026
 30
0.0
 11
195.0268719647383
 21
-114.9339046993771
 31
0.0
  0
LINE
  5
236
330
1F
100
AcDbEntity
  8
A-4_寸法
  6
Continuous
 62
     7
370
     9
100
AcDbLine
 10
-806.4731907200169
 20
-165.4729935929581
 30
0.0
 11
292.0269940350508
 21
-165.4729935929581
 31
0.0
  0
LINE
  5
237
330
1F
100
AcDbEntity
  8
A-4_寸法
  6
Continuous
 62
     7
370
     9
100
AcDbLine
 10
622.391819309544
 20
-113.4339244945629
 30
0.0
 11
568.8125610351562
 21
-113.4339244945629
 31
0.0
  0
LINE
  5
238
330
1F
100
AcDbEntity
  8
A-4_寸法
  6
Continuous
 62
     7
370
     9
100
AcDbLine
 10
622.391819309544
 20
-43.7811609216638
 30
0.0
 11
622.391819309544
 21
-113.4339244945629
 31
0.0
  0
LINE
  5
239
330
1F
100
AcDbEntity
  8
A-2_蓋
  6
Continuous
 62
     3
370
     9
100
AcDbLine
 10
-804.9732105152027
 20
-27.63515575512031
 30
0.0
 11
-804.9732105152027
 21
322.3646999049832
 31
0.0
  0
LINE
  5
23A
330
1F
100
AcDbEntity
  8
A-2_蓋
  6
Continuous
 62
     3
370
     9
100
AcDbLine
 10
192.0269115551099
 20
322.3646999049832
 30
0.0
 11
192.0269115551099
 21
-27.63515575512031
 31
0.0
  0
LINE
  5
23B
330
1F
100
AcDbEntity
  8
A-4_寸法
  6
Continuous
 62
     7
370
     9
100
AcDbLine
 10
639.3920486037797
 20
22.36488548485013
 30
0.0
 11
743.3919958166175
 21
22.36488548485013
 31
0.0
  0
LINE
  5
23C
330
1F
100
AcDbEntity
  8
A-5_仕様文
  6
Continuous
 62
     7
370
     9
100
AcDbLine
 10
-127.0250887484163
 20
501.5121212521116
 30
0.0
 11
-244.0432780497783
 21
249.3135359480574
 31
0.0
  0
LINE
  5
23D
330
1F
100
AcDbEntity
  8
A-4_寸法
  6
Continuous
 62
     7
370
     9
100
AcDbLine
 10
-244.0432780497783
 20
249.3135359480574
 30
0.0
 11
-240.3071841678103
 21
261.2421149176521
 31
0.0
  0
LINE
  5
23E
330
1F
100
AcDbEntity
  8
A-4_寸法
  6
Continuous
 62
     7
370
     9
100
AcDbLine
 10
-244.0432780497783
 20
249.3135359480574
 30
0.0
 11
-237.3471234295819
 21
259.8687001821157
 31
0.0
  0
LINE
  5
23F
330
1F
100
AcDbEntity
  8
A-2_蓋
  6
Continuous
 62
     3
370
     9
100
AcDbLine
 10
-804.9732105152027
 20
149.8646256730363
 30
0.0
 11
192.0269115551099
 21
149.8646256730363
 31
0.0
  0
LINE
  5
240
330
1F
100
AcDbEntity
  8
A-2_蓋
  6
Continuous
 62
     3
370
     9
100
AcDbLine
 10
-804.9732105152027
 20
144.8649184768264
 30
0.0
 11
192.0269115551099
 21
144.8649184768264
 31
0.0
  0
LINE
  5
241
330
1F
100
AcDbEntity
  8
A-2_蓋
  6
Continuous
 62
     3
370
     9
100
AcDbLine
 10
179.4480607316301
 20
248.8531741580448
 30
0.0
 11
179.4480607316301
 21
149.8646256730363
 31
0.0
  0
LINE
  5
242
330
1F
100
AcDbEntity
  8
A-2_蓋
  6
Continuous
 62
     3
370
     9
100
AcDbLine
 10
179.4480607316301
 20
144.8649184768264
 30
0.0
 11
179.4480607316301
 21
49.86460505305118
 31
0.0
  0
LINE
  5
243
330
1F
100
AcDbEntity
  8
A-2_蓋
  6
Continuous
 62
     3
370
     9
100
AcDbLine
 10
-801.9727552259291
 20
244.8644442171664
 30
0.0
 11
-801.9727552259291
 21
149.8646256730363
 31
0.0
  0
LINE
  5
244
330
1F
100
AcDbEntity
  8
A-2_蓋
  6
Continuous
 62
     3
370
     9
100
AcDbLine
 10
-801.9727552259291
 20
144.8649184768264
 30
0.0
 11
-801.9727552259291
 21
49.86460505305118
 31
0.0
  0
LINE
  5
245
330
1F
100
AcDbEntity
  8
A-2_蓋
  6
Continuous
 62
     3
370
     9
100
AcDbLine
 10
-704.1528650232262
 20
49.86460505305118
 30
0.0
 11
-704.1528650232262
 21
144.8649184768264
 31
0.0
  0
LINE
  5
246
330
1F
100
AcDbEntity
  8
A-2_蓋
  6
Continuous
 62
     3
370
     9
100
AcDbLine
 10
-704.1528650232262
 20
149.8646256730363
 30
0.0
 11
-704.1528650232262
 21
244.8644442171664
 31
0.0
  0
LINE
  5
247
330
1F
100
AcDbEntity
  8
A-2_蓋
  6
Continuous
 62
     3
370
     9
100
AcDbLine
 10
-701.1527808936867
 20
49.86460505305118
 30
0.0
 11
-701.1527808936867
 21
144.8649184768264
 31
0.0
  0
LINE
  5
248
330
1F
100
AcDbEntity
  8
A-2_蓋
  6
Continuous
 62
     3
370
     9
100
AcDbLine
 10
-701.1527808936867
 20
149.8646256730363
 30
0.0
 11
-701.1527808936867
 21
244.8644442171664
 31
0.0
  0
LINE
  5
249
330
1F
100
AcDbEntity
  8
A-2_蓋
  6
Continuous
 62
     3
370
     9
100
AcDbLine
 10
-716.7328293259079
 20
49.86460505305118
 30
0.0
 11
-716.7328293259079
 21
144.8649184768264
 31
0.0
  0
LINE
  5
24A
330
1F
100
AcDbEntity
  8
A-2_蓋
  6
Continuous
 62
     3
370
     9
100
AcDbLine
 10
-716.7328293259079
 20
149.8646256730363
 30
0.0
 11
-716.7328293259079
 21
244.8644442171664
 31
0.0
  0
LINE
  5
24B
330
1F
100
AcDbEntity
  8
A-2_蓋
  6
Continuous
 62
     3
370
     9
100
AcDbLine
 10
-713.7327451963682
 20
49.86460505305118
 30
0.0
 11
-713.7327451963682
 21
144.8649184768264
 31
0.0
  0
LINE
  5
24C
330
1F
100
AcDbEntity
  8
A-2_蓋
  6
Continuous
 62
     3
370
     9
100
AcDbLine
 10
-713.7327451963682
 20
149.8646256730363
 30
0.0
 11
-713.7327451963682
 21
244.8644442171664
 31
0.0
  0
LINE
  5
24D
330
1F
100
AcDbEntity
  8
A-2_蓋
  6
Continuous
 62
     3
370
     9
100
AcDbLine
 10
-729.3132885082348
 20
49.86460505305118
 30
0.0
 11
-729.3132885082348
 21
144.8649184768264
 31
0.0
  0
LINE
  5
24E
330
1F
100
AcDbEntity
  8
A-2_蓋
  6
Continuous
 62
     3
370
     9
100
AcDbLine
 10
-729.3132885082348
 20
149.8646256730363
 30
0.0
 11
-729.3132885082348
 21
244.8644442171664
 31
0.0
  0
LINE
  5
24F
330
1F
100
AcDbEntity
  8
A-2_蓋
  6
Continuous
 62
     3
370
     9
100
AcDbLine
 10
-726.313204378695
 20
49.86460505305118
 30
0.0
 11
-726.313204378695
 21
144.8649184768264
 31
0.0
  0
LINE
  5
250
330
1F
100
AcDbEntity
  8
A-2_蓋
  6
Continuous
 62
     3
370
     9
100
AcDbLine
 10
-726.313204378695
 20
149.8646256730363
 30
0.0
 11
-726.313204378695
 21
244.8644442171664
 31
0.0
  0
LINE
  5
251
330
1F
100
AcDbEntity
  8
A-2_蓋
  6
Continuous
 62
     3
370
     9
100
AcDbLine
 10
-741.8928816511824
 20
49.86460505305118
 30
0.0
 11
-741.8928816511824
 21
144.8649184768264
 31
0.0
  0
LINE
  5
252
330
1F
100
AcDbEntity
  8
A-2_蓋
  6
Continuous
 62
     3
370
     9
100
AcDbLine
 10
-741.8928816511824
 20
149.8646256730363
 30
0.0
 11
-741.8928816511824
 21
244.8644442171664
 31
0.0
  0
LINE
  5
253
330
1F
100
AcDbEntity
  8
A-2_蓋
  6
Continuous
 62
     3
370
     9
100
AcDbLine
 10
-738.8931686813767
 20
49.86460505305118
 30
0.0
 11
-738.8931686813767
 21
144.8649184768264
 31
0.0
  0
LINE
  5
254
330
1F
100
AcDbEntity
  8
A-2_蓋
  6
Continuous
 62
     3
370
     9
100
AcDbLine
 10
-738.8931686813767
 20
149.8646256730363
 30
0.0
 11
-738.8931686813767
 21
244.8644442171664
 31
0.0
  0
LINE
  5
255
330
1F
100
AcDbEntity
  8
A-2_蓋
  6
Continuous
 62
     3
370
     9
100
AcDbLine
 10
-754.4727222339527
 20
49.86460505305118
 30
0.0
 11
-754.4727222339527
 21
144.8649184768264
 31
0.0
  0
LINE
  5
256
330
1F
100
AcDbEntity
  8
A-2_蓋
  6
Continuous
 62
     3
370
     9
100
AcDbLine
 10
-754.4727222339527
 20
149.8646256730363
 30
0.0
 11
-754.4727222339527
 21
244.8644442171664
 31
0.0
  0
LINE
  5
257
330
1F
100
AcDbEntity
  8
A-2_蓋
  6
Continuous
 62
     3
370
     9
100
AcDbLine
 10
-751.4731329840583
 20
49.86460505305118
 30
0.0
 11
-751.4731329840583
 21
144.8649184768264
 31
0.0
  0
LINE
  5
258
330
1F
100
AcDbEntity
  8
A-2_蓋
  6
Continuous
 62
     3
370
     9
100
AcDbLine
 10
-751.4731329840583
 20
149.8646256730363
 30
0.0
 11
-751.4731329840583
 21
244.8644442171664
 31
0.0
  0
LINE
  5
259
330
1F
100
AcDbEntity
  8
A-2_蓋
  6
Continuous
 62
     3
370
     9
100
AcDbLine
 10
-767.0530576963682
 20
49.86460505305118
 30
0.0
 11
-767.0530576963682
 21
144.8649184768264
 31
0.0
  0
LINE
  5
25A
330
1F
100
AcDbEntity
  8
A-2_蓋
  6
Continuous
 62
     3
370
     9
100
AcDbLine
 10
-767.0530576963682
 20
149.8646256730363
 30
0.0
 11
-767.0530576963682
 21
244.8644442171664
 31
0.0
  0
LINE
  5
25B
330
1F
100
AcDbEntity
  8
A-2_蓋
  6
Continuous
 62
     3
370
     9
100
AcDbLine
 10
-764.0530972867398
 20
49.86460505305118
 30
0.0
 11
-764.0530972867398
 21
144.8649184768264
 31
0.0
  0
LINE
  5
25C
330
1F
100
AcDbEntity
  8
A-2_蓋
  6
Continuous
 62
     3
370
     9
100
AcDbLine
 10
-764.0530972867398
 20
149.8646256730363
 30
0.0
 11
-764.0530972867398
 21
244.8644442171664
 31
0.0
  0
LINE
  5
25D
330
1F
100
AcDbEntity
  8
A-2_蓋
  6
Continuous
 62
     3
370
     9
100
AcDbLine
 10
-779.6331457189613
 20
49.86460505305118
 30
0.0
 11
-779.6331457189613
 21
144.8649184768264
 31
0.0
  0
LINE
  5
25E
330
1F
100
AcDbEntity
  8
A-2_蓋
  6
Continuous
 62
     3
370
     9
100
AcDbLine
 10
-779.6331457189613
 20
149.8646256730363
 30
0.0
 11
-779.6331457189613
 21
244.8644442171664
 31
0.0
  0
LINE
  5
25F
330
1F
100
AcDbEntity
  8
A-2_蓋
  6
Continuous
 62
     3
370
     9
100
AcDbLine
 10
-776.6329378695102
 20
49.86460505305118
 30
0.0
 11
-776.6329378695102
 21
144.8649184768264
 31
0.0
  0
LINE
  5
260
330
1F
100
AcDbEntity
  8
A-2_蓋
  6
Continuous
 62
     3
370
     9
100
AcDbLine
 10
-776.6329378695102
 20
149.8646256730363
 30
0.0
 11
-776.6329378695102
 21
244.8644442171664
 31
0.0
  0
LINE
  5
261
330
1F
100
AcDbEntity
  8
A-2_蓋
  6
Continuous
 62
     3
370
     9
100
AcDbLine
 10
-792.2129863017313
 20
49.86460505305118
 30
0.0
 11
-792.2129863017313
 21
144.8649184768264
 31
0.0
  0
LINE
  5
262
330
1F
100
AcDbEntity
  8
A-2_蓋
  6
Continuous
 62
     3
370
     9
100
AcDbLine
 10
-792.2129863017313
 20
149.8646256730363
 30
0.0
 11
-792.2129863017313
 21
244.8644442171664
 31
0.0
  0
LINE
  5
263
330
1F
100
AcDbEntity
  8
A-2_蓋
  6
Continuous
 62
     3
370
     9
100
AcDbLine
 10
-789.213025892103
 20
49.86460505305118
 30
0.0
 11
-789.213025892103
 21
144.8649184768264
 31
0.0
  0
LINE
  5
264
330
1F
100
AcDbEntity
  8
A-2_蓋
  6
Continuous
 62
     3
370
     9
100
AcDbLine
 10
-789.213025892103
 20
149.8646256730363
 30
0.0
 11
-789.213025892103
 21
244.8644442171664
 31
0.0
  0
LINE
  5
265
330
1F
100
AcDbEntity
  8
A-2_蓋
  6
Continuous
 62
     3
370
     9
100
AcDbLine
 10
-603.5126557221283
 20
49.86460505305118
 30
0.0
 11
-603.5126557221283
 21
144.8649184768264
 31
0.0
  0
LINE
  5
266
330
1F
100
AcDbEntity
  8
A-2_蓋
  6
Continuous
 62
     3
370
     9
100
AcDbLine
 10
-603.5126557221283
 20
149.8646256730363
 30
0.0
 11
-603.5126557221283
 21
244.8644442171664
 31
0.0
  0
LINE
  5
267
330
1F
100
AcDbEntity
  8
A-2_蓋
  6
Continuous
 62
     3
370
     9
100
AcDbLine
 10
-600.5126953125
 20
49.86460505305118
 30
0.0
 11
-600.5126953125
 21
144.8649184768264
 31
0.0
  0
LINE
  5
268
330
1F
100
AcDbEntity
  8
A-2_蓋
  6
Continuous
 62
     3
370
     9
100
AcDbLine
 10
-600.5126953125
 20
149.8646256730363
 30
0.0
 11
-600.5126953125
 21
244.8644442171664
 31
0.0
  0
LINE
  5
269
330
1F
100
AcDbEntity
  8
A-2_蓋
  6
Continuous
 62
     3
370
     9
100
AcDbLine
 10
-616.0927437447212
 20
49.86460505305118
 30
0.0
 11
-616.0927437447212
 21
144.8649184768264
 31
0.0
  0
LINE
  5
26A
330
1F
100
AcDbEntity
  8
A-2_蓋
  6
Continuous
 62
     3
370
     9
100
AcDbLine
 10
-616.0927437447212
 20
149.8646256730363
 30
0.0
 11
-616.0927437447212
 21
244.8644442171664
 31
0.0
  0
LINE
  5
26B
330
1F
100
AcDbEntity
  8
A-2_蓋
  6
Continuous
 62
     3
370
     9
100
AcDbLine
 10
-613.0926596151816
 20
49.86460505305118
 30
0.0
 11
-613.0926596151816
 21
144.8649184768264
 31
0.0
  0
LINE
  5
26C
330
1F
100
AcDbEntity
  8
A-2_蓋
  6
Continuous
 62
     3
370
     9
100
AcDbLine
 10
-613.0926596151816
 20
149.8646256730363
 30
0.0
 11
-613.0926596151816
 21
244.8644442171664
 31
0.0
  0
LINE
  5
26D
330
1F
100
AcDbEntity
  8
A-2_蓋
  6
Continuous
 62
     3
370
     9
100
AcDbLine
 10
-628.6730792071368
 20
49.86460505305118
 30
0.0
 11
-628.6730792071368
 21
144.8649184768264
 31
0.0
  0
LINE
  5
26E
330
1F
100
AcDbEntity
  8
A-2_蓋
  6
Continuous
 62
     3
370
     9
100
AcDbLine
 10
-628.6730792071368
 20
149.8646256730363
 30
0.0
 11
-628.6730792071368
 21
244.8644442171664
 31
0.0
  0
LINE
  5
26F
330
1F
100
AcDbEntity
  8
A-2_蓋
  6
Continuous
 62
     3
370
     9
100
AcDbLine
 10
-625.6726239178631
 20
49.86460505305118
 30
0.0
 11
-625.6726239178631
 21
144.8649184768264
 31
0.0
  0
LINE
  5
270
330
1F
100
AcDbEntity
  8
A-2_蓋
  6
Continuous
 62
     3
370
     9
100
AcDbLine
 10
-625.6726239178631
 20
149.8646256730363
 30
0.0
 11
-625.6726239178631
 21
244.8644442171664
 31
0.0
  0
LINE
  5
271
330
1F
100
AcDbEntity
  8
A-2_蓋
  6
Continuous
 62
     3
370
     9
100
AcDbLine
 10
-641.2531672297297
 20
49.86460505305118
 30
0.0
 11
-641.2531672297297
 21
144.8649184768264
 31
0.0
  0
LINE
  5
272
330
1F
100
AcDbEntity
  8
A-2_蓋
  6
Continuous
 62
     3
370
     9
100
AcDbLine
 10
-641.2531672297297
 20
149.8646256730363
 30
0.0
 11
-641.2531672297297
 21
244.8644442171664
 31
0.0
  0
LINE
  5
273
330
1F
100
AcDbEntity
  8
A-2_蓋
  6
Continuous
 62
     3
370
     9
100
AcDbLine
 10
-638.2524645006334
 20
49.86460505305118
 30
0.0
 11
-638.2524645006334
 21
144.8649184768264
 31
0.0
  0
LINE
  5
274
330
1F
100
AcDbEntity
  8
A-2_蓋
  6
Continuous
 62
     3
370
     9
100
AcDbLine
 10
-638.2524645006334
 20
149.8646256730363
 30
0.0
 11
-638.2524645006334
 21
244.8644442171664
 31
0.0
  0
LINE
  5
275
330
1F
100
AcDbEntity
  8
A-2_蓋
  6
Continuous
 62
     3
370
     9
100
AcDbLine
 10
-653.8330078125
 20
49.86460505305118
 30
0.0
 11
-653.8330078125
 21
144.8649184768264
 31
0.0
  0
LINE
  5
276
330
1F
100
AcDbEntity
  8
A-2_蓋
  6
Continuous
 62
     3
370
     9
100
AcDbLine
 10
-653.8330078125
 20
149.8646256730363
 30
0.0
 11
-653.8330078125
 21
244.8644442171664
 31
0.0
  0
LINE
  5
277
330
1F
100
AcDbEntity
  8
A-2_蓋
  6
Continuous
 62
     3
370
     9
100
AcDbLine
 10
-650.8325525232262
 20
49.86460505305118
 30
0.0
 11
-650.8325525232262
 21
144.8649184768264
 31
0.0
  0
LINE
  5
278
330
1F
100
AcDbEntity
  8
A-2_蓋
  6
Continuous
 62
     3
370
     9
100
AcDbLine
 10
-650.8325525232262
 20
149.8646256730363
 30
0.0
 11
-650.8325525232262
 21
244.8644442171664
 31
0.0
  0
LINE
  5
279
330
1F
100
AcDbEntity
  8
A-2_蓋
  6
Continuous
 62
     3
370
     9
100
AcDbLine
 10
-666.4130958350929
 20
49.86460505305118
 30
0.0
 11
-666.4130958350929
 21
144.8649184768264
 31
0.0
  0
LINE
  5
27A
330
1F
100
AcDbEntity
  8
A-2_蓋
  6
Continuous
 62
     3
370
     9
100
AcDbLine
 10
-666.4130958350929
 20
149.8646256730363
 30
0.0
 11
-666.4130958350929
 21
244.8644442171664
 31
0.0
  0
LINE
  5
27B
330
1F
100
AcDbEntity
  8
A-2_蓋
  6
Continuous
 62
     3
370
     9
100
AcDbLine
 10
-663.4128879856419
 20
49.86460505305118
 30
0.0
 11
-663.4128879856419
 21
144.8649184768264
 31
0.0
  0
LINE
  5
27C
330
1F
100
AcDbEntity
  8
A-2_蓋
  6
Continuous
 62
     3
370
     9
100
AcDbLine
 10
-663.4128879856419
 20
149.8646256730363
 30
0.0
 11
-663.4128879856419
 21
244.8644442171664
 31
0.0
  0
LINE
  5
27D
330
1F
100
AcDbEntity
  8
A-2_蓋
  6
Continuous
 62
     3
370
     9
100
AcDbLine
 10
-678.9929364178631
 20
49.86460505305118
 30
0.0
 11
-678.9929364178631
 21
144.8649184768264
 31
0.0
  0
LINE
  5
27E
330
1F
100
AcDbEntity
  8
A-2_蓋
  6
Continuous
 62
     3
370
     9
100
AcDbLine
 10
-678.9929364178631
 20
149.8646256730363
 30
0.0
 11
-678.9929364178631
 21
244.8644442171664
 31
0.0
  0
LINE
  5
27F
330
1F
100
AcDbEntity
  8
A-2_蓋
  6
Continuous
 62
     3
370
     9
100
AcDbLine
 10
-675.9929760082348
 20
49.86460505305118
 30
0.0
 11
-675.9929760082348
 21
144.8649184768264
 31
0.0
  0
LINE
  5
280
330
1F
100
AcDbEntity
  8
A-2_蓋
  6
Continuous
 62
     3
370
     9
100
AcDbLine
 10
-675.9929760082348
 20
149.8646256730363
 30
0.0
 11
-675.9929760082348
 21
244.8644442171664
 31
0.0
  0
LINE
  5
281
330
1F
100
AcDbEntity
  8
A-2_蓋
  6
Continuous
 62
     3
370
     9
100
AcDbLine
 10
-691.5729007205448
 20
49.86460505305118
 30
0.0
 11
-691.5729007205448
 21
144.8649184768264
 31
0.0
  0
LINE
  5
282
330
1F
100
AcDbEntity
  8
A-2_蓋
  6
Continuous
 62
     3
370
     9
100
AcDbLine
 10
-691.5729007205448
 20
149.8646256730363
 30
0.0
 11
-691.5729007205448
 21
244.8644442171664
 31
0.0
  0
LINE
  5
283
330
1F
100
AcDbEntity
  8
A-2_蓋
  6
Continuous
 62
     3
370
     9
100
AcDbLine
 10
-688.5728165910051
 20
49.86460505305118
 30
0.0
 11
-688.5728165910051
 21
144.8649184768264
 31
0.0
  0
LINE
  5
284
330
1F
100
AcDbEntity
  8
A-2_蓋
  6
Continuous
 62
     3
370
     9
100
AcDbLine
 10
-688.5728165910051
 20
149.8646256730363
 30
0.0
 11
-688.5728165910051
 21
244.8644442171664
 31
0.0
  0
LINE
  5
285
330
1F
100
AcDbEntity
  8
A-2_蓋
  6
Continuous
 62
     3
370
     9
100
AcDbLine
 10
-477.7127652554898
 20
49.86460505305118
 30
0.0
 11
-477.7127652554898
 21
144.8649184768264
 31
0.0
  0
LINE
  5
286
330
1F
100
AcDbEntity
  8
A-2_蓋
  6
Continuous
 62
     3
370
     9
100
AcDbLine
 10
-477.7127652554898
 20
149.8646256730363
 30
0.0
 11
-477.7127652554898
 21
244.8644442171664
 31
0.0
  0
LINE
  5
287
330
1F
100
AcDbEntity
  8
A-2_蓋
  6
Continuous
 62
     3
370
     9
100
AcDbLine
 10
-474.7126811259501
 20
49.86460505305118
 30
0.0
 11
-474.7126811259501
 21
144.8649184768264
 31
0.0
  0
LINE
  5
288
330
1F
100
AcDbEntity
  8
A-2_蓋
  6
Continuous
 62
     3
370
     9
100
AcDbLine
 10
-474.7126811259501
 20
149.8646256730363
 30
0.0
 11
-474.7126811259501
 21
244.8644442171664
 31
0.0
  0
LINE
  5
289
330
1F
100
AcDbEntity
  8
A-2_蓋
  6
Continuous
 62
     3
370
     9
100
AcDbLine
 10
-490.2927295581714
 20
49.86460505305118
 30
0.0
 11
-490.2927295581714
 21
144.8649184768264
 31
0.0
  0
LINE
  5
28A
330
1F
100
AcDbEntity
  8
A-2_蓋
  6
Continuous
 62
     3
370
     9
100
AcDbLine
 10
-490.2927295581714
 20
149.8646256730363
 30
0.0
 11
-490.2927295581714
 21
244.8644442171664
 31
0.0
  0
LINE
  5
28B
330
1F
100
AcDbEntity
  8
A-2_蓋
  6
Continuous
 62
     3
370
     9
100
AcDbLine
 10
-487.2926454286317
 20
49.86460505305118
 30
0.0
 11
-487.2926454286317
 21
144.8649184768264
 31
0.0
  0
LINE
  5
28C
330
1F
100
AcDbEntity
  8
A-2_蓋
  6
Continuous
 62
     3
370
     9
100
AcDbLine
 10
-487.2926454286317
 20
149.8646256730363
 30
0.0
 11
-487.2926454286317
 21
244.8644442171664
 31
0.0
  0
LINE
  5
28D
330
1F
100
AcDbEntity
  8
A-2_蓋
  6
Continuous
 62
     3
370
     9
100
AcDbLine
 10
-502.872693860853
 20
49.86460505305118
 30
0.0
 11
-502.872693860853
 21
144.8649184768264
 31
0.0
  0
LINE
  5
28E
330
1F
100
AcDbEntity
  8
A-2_蓋
  6
Continuous
 62
     3
370
     9
100
AcDbLine
 10
-502.872693860853
 20
149.8646256730363
 30
0.0
 11
-502.872693860853
 21
244.8644442171664
 31
0.0
  0
LINE
  5
28F
330
1F
100
AcDbEntity
  8
A-2_蓋
  6
Continuous
 62
     3
370
     9
100
AcDbLine
 10
-499.8726097313133
 20
49.86460505305118
 30
0.0
 11
-499.8726097313133
 21
144.8649184768264
 31
0.0
  0
LINE
  5
290
330
1F
100
AcDbEntity
  8
A-2_蓋
  6
Continuous
 62
     3
370
     9
100
AcDbLine
 10
-499.8726097313133
 20
149.8646256730363
 30
0.0
 11
-499.8726097313133
 21
244.8644442171664
 31
0.0
  0
LINE
  5
291
330
1F
100
AcDbEntity
  8
A-2_蓋
  6
Continuous
 62
     3
370
     9
100
AcDbLine
 10
-515.4525344436233
 20
49.86460505305118
 30
0.0
 11
-515.4525344436233
 21
144.8649184768264
 31
0.0
  0
LINE
  5
292
330
1F
100
AcDbEntity
  8
A-2_蓋
  6
Continuous
 62
     3
370
     9
100
AcDbLine
 10
-515.4525344436233
 20
149.8646256730363
 30
0.0
 11
-515.4525344436233
 21
244.8644442171664
 31
0.0
  0
LINE
  5
293
330
1F
100
AcDbEntity
  8
A-2_蓋
  6
Continuous
 62
     3
370
     9
100
AcDbLine
 10
-512.4525740339949
 20
49.86460505305118
 30
0.0
 11
-512.4525740339949
 21
144.8649184768264
 31
0.0
  0
LINE
  5
294
330
1F
100
AcDbEntity
  8
A-2_蓋
  6
Continuous
 62
     3
370
     9
100
AcDbLine
 10
-512.4525740339949
 20
149.8646256730363
 30
0.0
 11
-512.4525740339949
 21
244.8644442171664
 31
0.0
  0
LINE
  5
295
330
1F
100
AcDbEntity
  8
A-2_蓋
  6
Continuous
 62
     3
370
     9
100
AcDbLine
 10
-528.0331173458615
 20
49.86460505305118
 30
0.0
 11
-528.0331173458615
 21
144.8649184768264
 31
0.0
  0
LINE
  5
296
330
1F
100
AcDbEntity
  8
A-2_蓋
  6
Continuous
 62
     3
370
     9
100
AcDbLine
 10
-528.0331173458615
 20
149.8646256730363
 30
0.0
 11
-528.0331173458615
 21
244.8644442171664
 31
0.0
  0
LINE
  5
297
330
1F
100
AcDbEntity
  8
A-2_蓋
  6
Continuous
 62
     3
370
     9
100
AcDbLine
 10
-525.0330332163218
 20
49.86460505305118
 30
0.0
 11
-525.0330332163218
 21
144.8649184768264
 31
0.0
  0
LINE
  5
298
330
1F
100
AcDbEntity
  8
A-2_蓋
  6
Continuous
 62
     3
370
     9
100
AcDbLine
 10
-525.0330332163218
 20
149.8646256730363
 30
0.0
 11
-525.0330332163218
 21
244.8644442171664
 31
0.0
  0
LINE
  5
299
330
1F
100
AcDbEntity
  8
A-2_蓋
  6
Continuous
 62
     3
370
     9
100
AcDbLine
 10
-540.6129579286317
 20
49.86460505305118
 30
0.0
 11
-540.6129579286317
 21
144.8649184768264
 31
0.0
  0
LINE
  5
29A
330
1F
100
AcDbEntity
  8
A-2_蓋
  6
Continuous
 62
     3
370
     9
100
AcDbLine
 10
-540.6129579286317
 20
149.8646256730363
 30
0.0
 11
-540.6129579286317
 21
244.8644442171664
 31
0.0
  0
LINE
  5
29B
330
1F
100
AcDbEntity
  8
A-2_蓋
  6
Continuous
 62
     3
370
     9
100
AcDbLine
 10
-537.6129975190033
 20
49.86460505305118
 30
0.0
 11
-537.6129975190033
 21
144.8649184768264
 31
0.0
  0
LINE
  5
29C
330
1F
100
AcDbEntity
  8
A-2_蓋
  6
Continuous
 62
     3
370
     9
100
AcDbLine
 10
-537.6129975190033
 20
149.8646256730363
 30
0.0
 11
-537.6129975190033
 21
244.8644442171664
 31
0.0
  0
LINE
  5
29D
330
1F
100
AcDbEntity
  8
A-2_蓋
  6
Continuous
 62
     3
370
     9
100
AcDbLine
 10
-553.192427351668
 20
49.86460505305118
 30
0.0
 11
-553.192427351668
 21
144.8649184768264
 31
0.0
  0
LINE
  5
29E
330
1F
100
AcDbEntity
  8
A-2_蓋
  6
Continuous
 62
     3
370
     9
100
AcDbLine
 10
-553.192427351668
 20
149.8646256730363
 30
0.0
 11
-553.192427351668
 21
244.8644442171664
 31
0.0
  0
LINE
  5
29F
330
1F
100
AcDbEntity
  8
A-2_蓋
  6
Continuous
 62
     3
370
     9
100
AcDbLine
 10
-550.1928381017736
 20
49.86460505305118
 30
0.0
 11
-550.1928381017736
 21
144.8649184768264
 31
0.0
  0
LINE
  5
2A0
330
1F
100
AcDbEntity
  8
A-2_蓋
  6
Continuous
 62
     3
370
     9
100
AcDbLine
 10
-550.1928381017736
 20
149.8646256730363
 30
0.0
 11
-550.1928381017736
 21
244.8644442171664
 31
0.0
  0
LINE
  5
2A1
330
1F
100
AcDbEntity
  8
A-2_蓋
  6
Continuous
 62
     3
370
     9
100
AcDbLine
 10
-565.7728865339949
 20
49.86460505305118
 30
0.0
 11
-565.7728865339949
 21
144.8649184768264
 31
0.0
  0
LINE
  5
2A2
330
1F
100
AcDbEntity
  8
A-2_蓋
  6
Continuous
 62
     3
370
     9
100
AcDbLine
 10
-565.7728865339949
 20
149.8646256730363
 30
0.0
 11
-565.7728865339949
 21
244.8644442171664
 31
0.0
  0
LINE
  5
2A3
330
1F
100
AcDbEntity
  8
A-2_蓋
  6
Continuous
 62
     3
370
     9
100
AcDbLine
 10
-562.7728024044552
 20
49.86460505305118
 30
0.0
 11
-562.7728024044552
 21
144.8649184768264
 31
0.0
  0
LINE
  5
2A4
330
1F
100
AcDbEntity
  8
A-2_蓋
  6
Continuous
 62
     3
370
     9
100
AcDbLine
 10
-562.7728024044552
 20
149.8646256730363
 30
0.0
 11
-562.7728024044552
 21
244.8644442171664
 31
0.0
  0
LINE
  5
2A5
330
1F
100
AcDbEntity
  8
A-2_蓋
  6
Continuous
 62
     3
370
     9
100
AcDbLine
 10
-578.3528508366765
 20
49.86460505305118
 30
0.0
 11
-578.3528508366765
 21
144.8649184768264
 31
0.0
  0
LINE
  5
2A6
330
1F
100
AcDbEntity
  8
A-2_蓋
  6
Continuous
 62
     3
370
     9
100
AcDbLine
 10
-578.3528508366765
 20
149.8646256730363
 30
0.0
 11
-578.3528508366765
 21
244.8644442171664
 31
0.0
  0
LINE
  5
2A7
330
1F
100
AcDbEntity
  8
A-2_蓋
  6
Continuous
 62
     3
370
     9
100
AcDbLine
 10
-575.3527667071368
 20
49.86460505305118
 30
0.0
 11
-575.3527667071368
 21
144.8649184768264
 31
0.0
  0
LINE
  5
2A8
330
1F
100
AcDbEntity
  8
A-2_蓋
  6
Continuous
 62
     3
370
     9
100
AcDbLine
 10
-575.3527667071368
 20
149.8646256730363
 30
0.0
 11
-575.3527667071368
 21
244.8644442171664
 31
0.0
  0
LINE
  5
2A9
330
1F
100
AcDbEntity
  8
A-2_蓋
  6
Continuous
 62
     3
370
     9
100
AcDbLine
 10
-590.9328151393581
 20
49.86460505305118
 30
0.0
 11
-590.9328151393581
 21
144.8649184768264
 31
0.0
  0
LINE
  5
2AA
330
1F
100
AcDbEntity
  8
A-2_蓋
  6
Continuous
 62
     3
370
     9
100
AcDbLine
 10
-590.9328151393581
 20
149.8646256730363
 30
0.0
 11
-590.9328151393581
 21
244.8644442171664
 31
0.0
  0
LINE
  5
2AB
330
1F
100
AcDbEntity
  8
A-2_蓋
  6
Continuous
 62
     3
370
     9
100
AcDbLine
 10
-587.9327310098183
 20
49.86460505305118
 30
0.0
 11
-587.9327310098183
 21
144.8649184768264
 31
0.0
  0
LINE
  5
2AC
330
1F
100
AcDbEntity
  8
A-2_蓋
  6
Continuous
 62
     3
370
     9
100
AcDbLine
 10
-587.9327310098183
 20
149.8646256730363
 30
0.0
 11
-587.9327310098183
 21
244.8644442171664
 31
0.0
  0
LINE
  5
2AD
330
1F
100
AcDbEntity
  8
A-2_蓋
  6
Continuous
 62
     3
370
     9
100
AcDbLine
 10
-377.0725559543918
 20
49.86460505305118
 30
0.0
 11
-377.0725559543918
 21
144.8649184768264
 31
0.0
  0
LINE
  5
2AE
330
1F
100
AcDbEntity
  8
A-2_蓋
  6
Continuous
 62
     3
370
     9
100
AcDbLine
 10
-377.0725559543918
 20
149.8646256730363
 30
0.0
 11
-377.0725559543918
 21
244.8644442171664
 31
0.0
  0
LINE
  5
2AF
330
1F
100
AcDbEntity
  8
A-2_蓋
  6
Continuous
 62
     3
370
     9
100
AcDbLine
 10
-374.0725955447635
 20
49.86460505305118
 30
0.0
 11
-374.0725955447635
 21
144.8649184768264
 31
0.0
  0
LINE
  5
2B0
330
1F
100
AcDbEntity
  8
A-2_蓋
  6
Continuous
 62
     3
370
     9
100
AcDbLine
 10
-374.0725955447635
 20
149.8646256730363
 30
0.0
 11
-374.0725955447635
 21
244.8644442171664
 31
0.0
  0
LINE
  5
2B1
330
1F
100
AcDbEntity
  8
A-2_蓋
  6
Continuous
 62
     3
370
     9
100
AcDbLine
 10
-389.6526439769848
 20
49.86460505305118
 30
0.0
 11
-389.6526439769848
 21
144.8649184768264
 31
0.0
  0
LINE
  5
2B2
330
1F
100
AcDbEntity
  8
A-2_蓋
  6
Continuous
 62
     3
370
     9
100
AcDbLine
 10
-389.6526439769848
 20
149.8646256730363
 30
0.0
 11
-389.6526439769848
 21
244.8644442171664
 31
0.0
  0
LINE
  5
2B3
330
1F
100
AcDbEntity
  8
A-2_蓋
  6
Continuous
 62
     3
370
     9
100
AcDbLine
 10
-386.6524361275337
 20
49.86460505305118
 30
0.0
 11
-386.6524361275337
 21
144.8649184768264
 31
0.0
  0
LINE
  5
2B4
330
1F
100
AcDbEntity
  8
A-2_蓋
  6
Continuous
 62
     3
370
     9
100
AcDbLine
 10
-386.6524361275337
 20
149.8646256730363
 30
0.0
 11
-386.6524361275337
 21
244.8644442171664
 31
0.0
  0
LINE
  5
2B5
330
1F
100
AcDbEntity
  8
A-2_蓋
  6
Continuous
 62
     3
370
     9
100
AcDbLine
 10
-402.2324845597551
 20
49.86460505305118
 30
0.0
 11
-402.2324845597551
 21
144.8649184768264
 31
0.0
  0
LINE
  5
2B6
330
1F
100
AcDbEntity
  8
A-2_蓋
  6
Continuous
 62
     3
370
     9
100
AcDbLine
 10
-402.2324845597551
 20
149.8646256730363
 30
0.0
 11
-402.2324845597551
 21
244.8644442171664
 31
0.0
  0
LINE
  5
2B7
330
1F
100
AcDbEntity
  8
A-2_蓋
  6
Continuous
 62
     3
370
     9
100
AcDbLine
 10
-399.2325241501267
 20
49.86460505305118
 30
0.0
 11
-399.2325241501267
 21
144.8649184768264
 31
0.0
  0
LINE
  5
2B8
330
1F
100
AcDbEntity
  8
A-2_蓋
  6
Continuous
 62
     3
370
     9
100
AcDbLine
 10
-399.2325241501267
 20
149.8646256730363
 30
0.0
 11
-399.2325241501267
 21
244.8644442171664
 31
0.0
  0
LINE
  5
2B9
330
1F
100
AcDbEntity
  8
A-2_蓋
  6
Continuous
 62
     3
370
     9
100
AcDbLine
 10
-414.8126344423036
 20
49.86460505305118
 30
0.0
 11
-414.8126344423036
 21
144.8649184768264
 31
0.0
  0
LINE
  5
2BA
330
1F
100
AcDbEntity
  8
A-2_蓋
  6
Continuous
 62
     3
370
     9
100
AcDbLine
 10
-414.8126344423036
 20
149.8646256730363
 30
0.0
 11
-414.8126344423036
 21
244.8644442171664
 31
0.0
  0
LINE
  5
2BB
330
1F
100
AcDbEntity
  8
A-2_蓋
  6
Continuous
 62
     3
370
     9
100
AcDbLine
 10
-411.8123647328969
 20
49.86460505305118
 30
0.0
 11
-411.8123647328969
 21
144.8649184768264
 31
0.0
  0
LINE
  5
2BC
330
1F
100
AcDbEntity
  8
A-2_蓋
  6
Continuous
 62
     3
370
     9
100
AcDbLine
 10
-411.8123647328969
 20
149.8646256730363
 30
0.0
 11
-411.8123647328969
 21
244.8644442171664
 31
0.0
  0
LINE
  5
2BD
330
1F
100
AcDbEntity
  8
A-2_蓋
  6
Continuous
 62
     3
370
     9
100
AcDbLine
 10
-427.3929699047192
 20
49.86460505305118
 30
0.0
 11
-427.3929699047192
 21
144.8649184768264
 31
0.0
  0
LINE
  5
2BE
330
1F
100
AcDbEntity
  8
A-2_蓋
  6
Continuous
 62
     3
370
     9
100
AcDbLine
 10
-427.3929699047192
 20
149.8646256730363
 30
0.0
 11
-427.3929699047192
 21
244.8644442171664
 31
0.0
  0
LINE
  5
2BF
330
1F
100
AcDbEntity
  8
A-2_蓋
  6
Continuous
 62
     3
370
     9
100
AcDbLine
 10
-424.3924527554898
 20
49.86460505305118
 30
0.0
 11
-424.3924527554898
 21
144.8649184768264
 31
0.0
  0
LINE
  5
2C0
330
1F
100
AcDbEntity
  8
A-2_蓋
  6
Continuous
 62
     3
370
     9
100
AcDbLine
 10
-424.3924527554898
 20
149.8646256730363
 30
0.0
 11
-424.3924527554898
 21
244.8644442171664
 31
0.0
  0
LINE
  5
2C1
330
1F
100
AcDbEntity
  8
A-2_蓋
  6
Continuous
 62
     3
370
     9
100
AcDbLine
 10
-439.972872347445
 20
49.86460505305118
 30
0.0
 11
-439.972872347445
 21
144.8649184768264
 31
0.0
  0
LINE
  5
2C2
330
1F
100
AcDbEntity
  8
A-2_蓋
  6
Continuous
 62
     3
370
     9
100
AcDbLine
 10
-439.972872347445
 20
149.8646256730363
 30
0.0
 11
-439.972872347445
 21
244.8644442171664
 31
0.0
  0
LINE
  5
2C3
330
1F
100
AcDbEntity
  8
A-2_蓋
  6
Continuous
 62
     3
370
     9
100
AcDbLine
 10
-436.9722933382601
 20
49.86460505305118
 30
0.0
 11
-436.9722933382601
 21
144.8649184768264
 31
0.0
  0
LINE
  5
2C4
330
1F
100
AcDbEntity
  8
A-2_蓋
  6
Continuous
 62
     3
370
     9
100
AcDbLine
 10
-436.9722933382601
 20
149.8646256730363
 30
0.0
 11
-436.9722933382601
 21
244.8644442171664
 31
0.0
  0
LINE
  5
2C5
330
1F
100
AcDbEntity
  8
A-2_蓋
  6
Continuous
 62
     3
370
     9
100
AcDbLine
 10
-449.5528762404983
 20
49.86460505305118
 30
0.0
 11
-449.5528762404983
 21
144.8649184768264
 31
0.0
  0
LINE
  5
2C6
330
1F
100
AcDbEntity
  8
A-2_蓋
  6
Continuous
 62
     3
370
     9
100
AcDbLine
 10
-449.5528762404983
 20
149.8646256730363
 30
0.0
 11
-449.5528762404983
 21
244.8644442171664
 31
0.0
  0
LINE
  5
2C7
330
1F
100
AcDbEntity
  8
A-2_蓋
  6
Continuous
 62
     3
370
     9
100
AcDbLine
 10
-452.5528366501266
 20
49.86460505305118
 30
0.0
 11
-452.5528366501266
 21
144.8649184768264
 31
0.0
  0
LINE
  5
2C8
330
1F
100
AcDbEntity
  8
A-2_蓋
  6
Continuous
 62
     3
370
     9
100
AcDbLine
 10
-452.5528366501266
 20
149.8646256730363
 30
0.0
 11
-452.5528366501266
 21
244.8644442171664
 31
0.0
  0
LINE
  5
2C9
330
1F
100
AcDbEntity
  8
A-2_蓋
  6
Continuous
 62
     3
370
     9
100
AcDbLine
 10
-465.1328009528083
 20
49.86460505305118
 30
0.0
 11
-465.1328009528083
 21
144.8649184768264
 31
0.0
  0
LINE
  5
2CA
330
1F
100
AcDbEntity
  8
A-2_蓋
  6
Continuous
 62
     3
370
     9
100
AcDbLine
 10
-465.1328009528083
 20
149.8646256730363
 30
0.0
 11
-465.1328009528083
 21
244.8644442171664
 31
0.0
  0
LINE
  5
2CB
330
1F
100
AcDbEntity
  8
A-2_蓋
  6
Continuous
 62
     3
370
     9
100
AcDbLine
 10
-462.1327168232685
 20
49.86460505305118
 30
0.0
 11
-462.1327168232685
 21
144.8649184768264
 31
0.0
  0
LINE
  5
2CC
330
1F
100
AcDbEntity
  8
A-2_蓋
  6
Continuous
 62
     3
370
     9
100
AcDbLine
 10
-462.1327168232685
 20
149.8646256730363
 30
0.0
 11
-462.1327168232685
 21
244.8644442171664
 31
0.0
  0
LINE
  5
2CD
330
1F
100
AcDbEntity
  8
A-2_蓋
  6
Continuous
 62
     3
370
     9
100
AcDbLine
 10
-263.8527535103462
 20
49.86460505305118
 30
0.0
 11
-263.8527535103462
 21
144.8649184768264
 31
0.0
  0
LINE
  5
2CE
330
1F
100
AcDbEntity
  8
A-2_蓋
  6
Continuous
 62
     3
370
     9
100
AcDbLine
 10
-263.8527535103462
 20
149.8646256730363
 30
0.0
 11
-263.8527535103462
 21
244.8644442171664
 31
0.0
  0
LINE
  5
2CF
330
1F
100
AcDbEntity
  8
A-2_蓋
  6
Continuous
 62
     3
370
     9
100
AcDbLine
 10
-260.8522982210727
 20
49.86460505305118
 30
0.0
 11
-260.8522982210727
 21
144.8649184768264
 31
0.0
  0
LINE
  5
2D0
330
1F
100
AcDbEntity
  8
A-2_蓋
  6
Continuous
 62
     3
370
     9
100
AcDbLine
 10
-260.8522982210727
 20
149.8646256730363
 30
0.0
 11
-260.8522982210727
 21
244.8644442171664
 31
0.0
  0
LINE
  5
2D1
330
1F
100
AcDbEntity
  8
A-2_蓋
  6
Continuous
 62
     3
370
     9
100
AcDbLine
 10
-276.4328415329392
 20
49.86460505305118
 30
0.0
 11
-276.4328415329392
 21
144.8649184768264
 31
0.0
  0
LINE
  5
2D2
330
1F
100
AcDbEntity
  8
A-2_蓋
  6
Continuous
 62
     3
370
     9
100
AcDbLine
 10
-276.4328415329392
 20
149.8646256730363
 30
0.0
 11
-276.4328415329392
 21
244.8644442171664
 31
0.0
  0
LINE
  5
2D3
330
1F
100
AcDbEntity
  8
A-2_蓋
  6
Continuous
 62
     3
370
     9
100
AcDbLine
 10
-273.4322625237542
 20
49.86460505305118
 30
0.0
 11
-273.4322625237542
 21
144.8649184768264
 31
0.0
  0
LINE
  5
2D4
330
1F
100
AcDbEntity
  8
A-2_蓋
  6
Continuous
 62
     3
370
     9
100
AcDbLine
 10
-273.4322625237542
 20
149.8646256730363
 30
0.0
 11
-273.4322625237542
 21
244.8644442171664
 31
0.0
  0
LINE
  5
2D5
330
1F
100
AcDbEntity
  8
A-2_蓋
  6
Continuous
 62
     3
370
     9
100
AcDbLine
 10
-289.0126821157094
 20
49.86460505305118
 30
0.0
 11
-289.0126821157094
 21
144.8649184768264
 31
0.0
  0
LINE
  5
2D6
330
1F
100
AcDbEntity
  8
A-2_蓋
  6
Continuous
 62
     3
370
     9
100
AcDbLine
 10
-289.0126821157094
 20
149.8646256730363
 30
0.0
 11
-289.0126821157094
 21
244.8644442171664
 31
0.0
  0
LINE
  5
2D7
330
1F
100
AcDbEntity
  8
A-2_蓋
  6
Continuous
 62
     3
370
     9
100
AcDbLine
 10
-286.0121649664801
 20
49.86460505305118
 30
0.0
 11
-286.0121649664801
 21
144.8649184768264
 31
0.0
  0
LINE
  5
2D8
330
1F
100
AcDbEntity
  8
A-2_蓋
  6
Continuous
 62
     3
370
     9
100
AcDbLine
 10
-286.0121649664801
 20
149.8646256730363
 30
0.0
 11
-286.0121649664801
 21
244.8644442171664
 31
0.0
  0
LINE
  5
2D9
330
1F
100
AcDbEntity
  8
A-2_蓋
  6
Continuous
 62
     3
370
     9
100
AcDbLine
 10
-301.592646418391
 20
49.86460505305118
 30
0.0
 11
-301.592646418391
 21
144.8649184768264
 31
0.0
  0
LINE
  5
2DA
330
1F
100
AcDbEntity
  8
A-2_蓋
  6
Continuous
 62
     3
370
     9
100
AcDbLine
 10
-301.592646418391
 20
149.8646256730363
 30
0.0
 11
-301.592646418391
 21
244.8644442171664
 31
0.0
  0
LINE
  5
2DB
330
1F
100
AcDbEntity
  8
A-2_蓋
  6
Continuous
 62
     3
370
     9
100
AcDbLine
 10
-298.592067409206
 20
49.86460505305118
 30
0.0
 11
-298.592067409206
 21
144.8649184768264
 31
0.0
  0
LINE
  5
2DC
330
1F
100
AcDbEntity
  8
A-2_蓋
  6
Continuous
 62
     3
370
     9
100
AcDbLine
 10
-298.592067409206
 20
149.8646256730363
 30
0.0
 11
-298.592067409206
 21
244.8644442171664
 31
0.0
  0
LINE
  5
2DD
330
1F
100
AcDbEntity
  8
A-2_蓋
  6
Continuous
 62
     3
370
     9
100
AcDbLine
 10
-314.17236328125
 20
49.86460505305118
 30
0.0
 11
-314.17236328125
 21
144.8649184768264
 31
0.0
  0
LINE
  5
2DE
330
1F
100
AcDbEntity
  8
A-2_蓋
  6
Continuous
 62
     3
370
     9
100
AcDbLine
 10
-314.17236328125
 20
149.8646256730363
 30
0.0
 11
-314.17236328125
 21
244.8644442171664
 31
0.0
  0
LINE
  5
2DF
330
1F
100
AcDbEntity
  8
A-2_蓋
  6
Continuous
 62
     3
370
     9
100
AcDbLine
 10
-311.1722791517103
 20
49.86460505305118
 30
0.0
 11
-311.1722791517103
 21
144.8649184768264
 31
0.0
  0
LINE
  5
2E0
330
1F
100
AcDbEntity
  8
A-2_蓋
  6
Continuous
 62
     3
370
     9
100
AcDbLine
 10
-311.1722791517103
 20
149.8646256730363
 30
0.0
 11
-311.1722791517103
 21
244.8644442171664
 31
0.0
  0
LINE
  5
2E1
330
1F
100
AcDbEntity
  8
A-2_蓋
  6
Continuous
 62
     3
370
     9
100
AcDbLine
 10
-326.7523275839315
 20
49.86460505305118
 30
0.0
 11
-326.7523275839315
 21
144.8649184768264
 31
0.0
  0
LINE
  5
2E2
330
1F
100
AcDbEntity
  8
A-2_蓋
  6
Continuous
 62
     3
370
     9
100
AcDbLine
 10
-326.7523275839315
 20
149.8646256730363
 30
0.0
 11
-326.7523275839315
 21
244.8644442171664
 31
0.0
  0
LINE
  5
2E3
330
1F
100
AcDbEntity
  8
A-2_蓋
  6
Continuous
 62
     3
370
     9
100
AcDbLine
 10
-323.7522434543918
 20
49.86460505305118
 30
0.0
 11
-323.7522434543918
 21
144.8649184768264
 31
0.0
  0
LINE
  5
2E4
330
1F
100
AcDbEntity
  8
A-2_蓋
  6
Continuous
 62
     3
370
     9
100
AcDbLine
 10
-323.7522434543918
 20
149.8646256730363
 30
0.0
 11
-323.7522434543918
 21
244.8644442171664
 31
0.0
  0
LINE
  5
2E5
330
1F
100
AcDbEntity
  8
A-2_蓋
  6
Continuous
 62
     3
370
     9
100
AcDbLine
 10
-339.3323537465687
 20
49.86460505305118
 30
0.0
 11
-339.3323537465687
 21
144.8649184768264
 31
0.0
  0
LINE
  5
2E6
330
1F
100
AcDbEntity
  8
A-2_蓋
  6
Continuous
 62
     3
370
     9
100
AcDbLine
 10
-339.3323537465687
 20
149.8646256730363
 30
0.0
 11
-339.3323537465687
 21
244.8644442171664
 31
0.0
  0
LINE
  5
2E7
330
1F
100
AcDbEntity
  8
A-2_蓋
  6
Continuous
 62
     3
370
     9
100
AcDbLine
 10
-336.3327026367188
 20
49.86460505305118
 30
0.0
 11
-336.3327026367188
 21
144.8649184768264
 31
0.0
  0
LINE
  5
2E8
330
1F
100
AcDbEntity
  8
A-2_蓋
  6
Continuous
 62
     3
370
     9
100
AcDbLine
 10
-336.3327026367188
 20
149.8646256730363
 30
0.0
 11
-336.3327026367188
 21
244.8644442171664
 31
0.0
  0
LINE
  5
2E9
330
1F
100
AcDbEntity
  8
A-2_蓋
  6
Continuous
 62
     3
370
     9
100
AcDbLine
 10
-351.9126273490286
 20
49.86460505305118
 30
0.0
 11
-351.9126273490286
 21
144.8649184768264
 31
0.0
  0
LINE
  5
2EA
330
1F
100
AcDbEntity
  8
A-2_蓋
  6
Continuous
 62
     3
370
     9
100
AcDbLine
 10
-351.9126273490286
 20
149.8646256730363
 30
0.0
 11
-351.9126273490286
 21
244.8644442171664
 31
0.0
  0
LINE
  5
2EB
330
1F
100
AcDbEntity
  8
A-2_蓋
  6
Continuous
 62
     3
370
     9
100
AcDbLine
 10
-348.9126669394003
 20
49.86460505305118
 30
0.0
 11
-348.9126669394003
 21
144.8649184768264
 31
0.0
  0
LINE
  5
2EC
330
1F
100
AcDbEntity
  8
A-2_蓋
  6
Continuous
 62
     3
370
     9
100
AcDbLine
 10
-348.9126669394003
 20
149.8646256730363
 30
0.0
 11
-348.9126669394003
 21
244.8644442171664
 31
0.0
  0
LINE
  5
2ED
330
1F
100
AcDbEntity
  8
A-2_蓋
  6
Continuous
 62
     3
370
     9
100
AcDbLine
 10
-364.4927153716216
 20
49.86460505305118
 30
0.0
 11
-364.4927153716216
 21
144.8649184768264
 31
0.0
  0
LINE
  5
2EE
330
1F
100
AcDbEntity
  8
A-2_蓋
  6
Continuous
 62
     3
370
     9
100
AcDbLine
 10
-364.4927153716216
 20
149.8646256730363
 30
0.0
 11
-364.4927153716216
 21
244.8644442171664
 31
0.0
  0
LINE
  5
2EF
330
1F
100
AcDbEntity
  8
A-2_蓋
  6
Continuous
 62
     3
370
     9
100
AcDbLine
 10
-361.4926312420819
 20
49.86460505305118
 30
0.0
 11
-361.4926312420819
 21
144.8649184768264
 31
0.0
  0
LINE
  5
2F0
330
1F
100
AcDbEntity
  8
A-2_蓋
  6
Continuous
 62
     3
370
     9
100
AcDbLine
 10
-361.4926312420819
 20
149.8646256730363
 30
0.0
 11
-361.4926312420819
 21
244.8644442171664
 31
0.0
  0
LINE
  5
2F1
330
1F
100
AcDbEntity
  8
A-2_蓋
  6
Continuous
 62
     3
370
     9
100
AcDbLine
 10
-175.792137352196
 20
49.86460505305118
 30
0.0
 11
-175.792137352196
 21
144.8649184768264
 31
0.0
  0
LINE
  5
2F2
330
1F
100
AcDbEntity
  8
A-2_蓋
  6
Continuous
 62
     3
370
     9
100
AcDbLine
 10
-175.792137352196
 20
149.8646256730363
 30
0.0
 11
-175.792137352196
 21
244.8644442171664
 31
0.0
  0
LINE
  5
2F3
330
1F
100
AcDbEntity
  8
A-2_蓋
  6
Continuous
 62
     3
370
     9
100
AcDbLine
 10
-172.7925481023014
 20
49.86460505305118
 30
0.0
 11
-172.7925481023014
 21
144.8649184768264
 31
0.0
  0
LINE
  5
2F4
330
1F
100
AcDbEntity
  8
A-2_蓋
  6
Continuous
 62
     3
370
     9
100
AcDbLine
 10
-172.7925481023014
 20
149.8646256730363
 30
0.0
 11
-172.7925481023014
 21
244.8644442171664
 31
0.0
  0
LINE
  5
2F5
330
1F
100
AcDbEntity
  8
A-2_蓋
  6
Continuous
 62
     3
370
     9
100
AcDbLine
 10
-188.3721016548775
 20
49.86460505305118
 30
0.0
 11
-188.3721016548775
 21
144.8649184768264
 31
0.0
  0
LINE
  5
2F6
330
1F
100
AcDbEntity
  8
A-2_蓋
  6
Continuous
 62
     3
370
     9
100
AcDbLine
 10
-188.3721016548775
 20
149.8646256730363
 30
0.0
 11
-188.3721016548775
 21
244.8644442171664
 31
0.0
  0
LINE
  5
2F7
330
1F
100
AcDbEntity
  8
A-2_蓋
  6
Continuous
 62
     3
370
     9
100
AcDbLine
 10
-185.3725124049831
 20
49.86460505305118
 30
0.0
 11
-185.3725124049831
 21
144.8649184768264
 31
0.0
  0
LINE
  5
2F8
330
1F
100
AcDbEntity
  8
A-2_蓋
  6
Continuous
 62
     3
370
     9
100
AcDbLine
 10
-185.3725124049831
 20
149.8646256730363
 30
0.0
 11
-185.3725124049831
 21
244.8644442171664
 31
0.0
  0
LINE
  5
2F9
330
1F
100
AcDbEntity
  8
A-2_蓋
  6
Continuous
 62
     3
370
     9
100
AcDbLine
 10
-200.9520659575591
 20
49.86460505305118
 30
0.0
 11
-200.9520659575591
 21
144.8649184768264
 31
0.0
  0
LINE
  5
2FA
330
1F
100
AcDbEntity
  8
A-2_蓋
  6
Continuous
 62
     3
370
     9
100
AcDbLine
 10
-200.9520659575591
 20
149.8646256730363
 30
0.0
 11
-200.9520659575591
 21
244.8644442171664
 31
0.0
  0
LINE
  5
2FB
330
1F
100
AcDbEntity
  8
A-2_蓋
  6
Continuous
 62
     3
370
     9
100
AcDbLine
 10
-197.9524767076647
 20
49.86460505305118
 30
0.0
 11
-197.9524767076647
 21
144.8649184768264
 31
0.0
  0
LINE
  5
2FC
330
1F
100
AcDbEntity
  8
A-2_蓋
  6
Continuous
 62
     3
370
     9
100
AcDbLine
 10
-197.9524767076647
 20
149.8646256730363
 30
0.0
 11
-197.9524767076647
 21
244.8644442171664
 31
0.0
  0
LINE
  5
2FD
330
1F
100
AcDbEntity
  8
A-2_蓋
  6
Continuous
 62
     3
370
     9
100
AcDbLine
 10
-213.5320302602406
 20
49.86460505305118
 30
0.0
 11
-213.5320302602406
 21
144.8649184768264
 31
0.0
  0
LINE
  5
2FE
330
1F
100
AcDbEntity
  8
A-2_蓋
  6
Continuous
 62
     3
370
     9
100
AcDbLine
 10
-213.5320302602406
 20
149.8646256730363
 30
0.0
 11
-213.5320302602406
 21
244.8644442171664
 31
0.0
  0
LINE
  5
2FF
330
1F
100
AcDbEntity
  8
A-2_蓋
  6
Continuous
 62
     3
370
     9
100
AcDbLine
 10
-210.5324410103462
 20
49.86460505305118
 30
0.0
 11
-210.5324410103462
 21
144.8649184768264
 31
0.0
  0
LINE
  5
300
330
1F
100
AcDbEntity
  8
A-2_蓋
  6
Continuous
 62
     3
370
     9
100
AcDbLine
 10
-210.5324410103462
 20
149.8646256730363
 30
0.0
 11
-210.5324410103462
 21
244.8644442171664
 31
0.0
  0
LINE
  5
301
330
1F
100
AcDbEntity
  8
A-2_蓋
  6
Continuous
 62
     3
370
     9
100
AcDbLine
 10
-226.1119945629223
 20
49.86460505305118
 30
0.0
 11
-226.1119945629223
 21
144.8649184768264
 31
0.0
  0
LINE
  5
302
330
1F
100
AcDbEntity
  8
A-2_蓋
  6
Continuous
 62
     3
370
     9
100
AcDbLine
 10
-226.1119945629223
 20
149.8646256730363
 30
0.0
 11
-226.1119945629223
 21
244.8644442171664
 31
0.0
  0
LINE
  5
303
330
1F
100
AcDbEntity
  8
A-2_蓋
  6
Continuous
 62
     3
370
     9
100
AcDbLine
 10
-223.1124053130279
 20
49.86460505305118
 30
0.0
 11
-223.1124053130279
 21
144.8649184768264
 31
0.0
  0
LINE
  5
304
330
1F
100
AcDbEntity
  8
A-2_蓋
  6
Continuous
 62
     3
370
     9
100
AcDbLine
 10
-223.1124053130279
 20
149.8646256730363
 30
0.0
 11
-223.1124053130279
 21
244.8644442171664
 31
0.0
  0
LINE
  5
305
330
1F
100
AcDbEntity
  8
A-2_蓋
  6
Continuous
 62
     3
370
     9
100
AcDbLine
 10
-238.6928249049831
 20
49.86460505305118
 30
0.0
 11
-238.6928249049831
 21
144.8649184768264
 31
0.0
  0
LINE
  5
306
330
1F
100
AcDbEntity
  8
A-2_蓋
  6
Continuous
 62
     3
370
     9
100
AcDbLine
 10
-238.6928249049831
 20
149.8646256730363
 30
0.0
 11
-238.6928249049831
 21
244.8644442171664
 31
0.0
  0
LINE
  5
307
330
1F
100
AcDbEntity
  8
A-2_蓋
  6
Continuous
 62
     3
370
     9
100
AcDbLine
 10
-235.6923696157094
 20
49.86460505305118
 30
0.0
 11
-235.6923696157094
 21
144.8649184768264
 31
0.0
  0
LINE
  5
308
330
1F
100
AcDbEntity
  8
A-2_蓋
  6
Continuous
 62
     3
370
     9
100
AcDbLine
 10
-235.6923696157094
 20
149.8646256730363
 30
0.0
 11
-235.6923696157094
 21
244.8644442171664
 31
0.0
  0
LINE
  5
309
330
1F
100
AcDbEntity
  8
A-2_蓋
  6
Continuous
 62
     3
370
     9
100
AcDbLine
 10
-251.2729129275759
 20
49.86460505305118
 30
0.0
 11
-251.2729129275759
 21
144.8649184768264
 31
0.0
  0
LINE
  5
30A
330
1F
100
AcDbEntity
  8
A-2_蓋
  6
Continuous
 62
     3
370
     9
100
AcDbLine
 10
-251.2729129275759
 20
149.8646256730363
 30
0.0
 11
-251.2729129275759
 21
244.8644442171664
 31
0.0
  0
LINE
  5
30B
330
1F
100
AcDbEntity
  8
A-2_蓋
  6
Continuous
 62
     3
370
     9
100
AcDbLine
 10
-248.272333918391
 20
49.86460505305118
 30
0.0
 11
-248.272333918391
 21
144.8649184768264
 31
0.0
  0
LINE
  5
30C
330
1F
100
AcDbEntity
  8
A-2_蓋
  6
Continuous
 62
     3
370
     9
100
AcDbLine
 10
-248.272333918391
 20
149.8646256730363
 30
0.0
 11
-248.272333918391
 21
244.8644442171664
 31
0.0
  0
LINE
  5
30D
330
1F
100
AcDbEntity
  8
A-2_蓋
  6
Continuous
 62
     3
370
     9
100
AcDbLine
 10
-112.8924395586992
 20
49.86460505305118
 30
0.0
 11
-112.8924395586992
 21
144.8649184768264
 31
0.0
  0
LINE
  5
30E
330
1F
100
AcDbEntity
  8
A-2_蓋
  6
Continuous
 62
     3
370
     9
100
AcDbLine
 10
-112.8924395586992
 20
149.8646256730363
 30
0.0
 11
-112.8924395586992
 21
244.8644442171664
 31
0.0
  0
LINE
  5
30F
330
1F
100
AcDbEntity
  8
A-2_蓋
  6
Continuous
 62
     3
370
     9
100
AcDbLine
 10
-109.891736829603
 20
49.86460505305118
 30
0.0
 11
-109.891736829603
 21
144.8649184768264
 31
0.0
  0
LINE
  5
310
330
1F
100
AcDbEntity
  8
A-2_蓋
  6
Continuous
 62
     3
370
     9
100
AcDbLine
 10
-109.891736829603
 20
149.8646256730363
 30
0.0
 11
-109.891736829603
 21
244.8644442171664
 31
0.0
  0
LINE
  5
311
330
1F
100
AcDbEntity
  8
A-2_蓋
  6
Continuous
 62
     3
370
     9
100
AcDbLine
 10
-125.4722801414695
 20
49.86460505305118
 30
0.0
 11
-125.4722801414695
 21
144.8649184768264
 31
0.0
  0
LINE
  5
312
330
1F
100
AcDbEntity
  8
A-2_蓋
  6
Continuous
 62
     3
370
     9
100
AcDbLine
 10
-125.4722801414695
 20
149.8646256730363
 30
0.0
 11
-125.4722801414695
 21
244.8644442171664
 31
0.0
  0
LINE
  5
313
330
1F
100
AcDbEntity
  8
A-2_蓋
  6
Continuous
 62
     3
370
     9
100
AcDbLine
 10
-122.471824852196
 20
49.86460505305118
 30
0.0
 11
-122.471824852196
 21
144.8649184768264
 31
0.0
  0
LINE
  5
314
330
1F
100
AcDbEntity
  8
A-2_蓋
  6
Continuous
 62
     3
370
     9
100
AcDbLine
 10
-122.471824852196
 20
149.8646256730363
 30
0.0
 11
-122.471824852196
 21
244.8644442171664
 31
0.0
  0
LINE
  5
315
330
1F
100
AcDbEntity
  8
A-2_蓋
  6
Continuous
 62
     3
370
     9
100
AcDbLine
 10
-138.0523681640625
 20
49.86460505305118
 30
0.0
 11
-138.0523681640625
 21
144.8649184768264
 31
0.0
  0
LINE
  5
316
330
1F
100
AcDbEntity
  8
A-2_蓋
  6
Continuous
 62
     3
370
     9
100
AcDbLine
 10
-138.0523681640625
 20
149.8646256730363
 30
0.0
 11
-138.0523681640625
 21
244.8644442171664
 31
0.0
  0
LINE
  5
317
330
1F
100
AcDbEntity
  8
A-2_蓋
  6
Continuous
 62
     3
370
     9
100
AcDbLine
 10
-135.052778914168
 20
49.86460505305118
 30
0.0
 11
-135.052778914168
 21
144.8649184768264
 31
0.0
  0
LINE
  5
318
330
1F
100
AcDbEntity
  8
A-2_蓋
  6
Continuous
 62
     3
370
     9
100
AcDbLine
 10
-135.052778914168
 20
149.8646256730363
 30
0.0
 11
-135.052778914168
 21
244.8644442171664
 31
0.0
  0
LINE
  5
319
330
1F
100
AcDbEntity
  8
A-2_蓋
  6
Continuous
 62
     3
370
     9
100
AcDbLine
 10
-150.6322087468327
 20
49.86460505305118
 30
0.0
 11
-150.6322087468327
 21
144.8649184768264
 31
0.0
  0
LINE
  5
31A
330
1F
100
AcDbEntity
  8
A-2_蓋
  6
Continuous
 62
     3
370
     9
100
AcDbLine
 10
-150.6322087468327
 20
149.8646256730363
 30
0.0
 11
-150.6322087468327
 21
244.8644442171664
 31
0.0
  0
LINE
  5
31B
330
1F
100
AcDbEntity
  8
A-2_蓋
  6
Continuous
 62
     3
370
     9
100
AcDbLine
 10
-147.6327432168496
 20
49.86460505305118
 30
0.0
 11
-147.6327432168496
 21
144.8649184768264
 31
0.0
  0
LINE
  5
31C
330
1F
100
AcDbEntity
  8
A-2_蓋
  6
Continuous
 62
     3
370
     9
100
AcDbLine
 10
-147.6327432168496
 20
149.8646256730363
 30
0.0
 11
-147.6327432168496
 21
244.8644442171664
 31
0.0
  0
LINE
  5
31D
330
1F
100
AcDbEntity
  8
A-2_蓋
  6
Continuous
 62
     3
370
     9
100
AcDbLine
 10
-163.2121730495143
 20
49.86460505305118
 30
0.0
 11
-163.2121730495143
 21
144.8649184768264
 31
0.0
  0
LINE
  5
31E
330
1F
100
AcDbEntity
  8
A-2_蓋
  6
Continuous
 62
     3
370
     9
100
AcDbLine
 10
-163.2121730495143
 20
149.8646256730363
 30
0.0
 11
-163.2121730495143
 21
244.8644442171664
 31
0.0
  0
LINE
  5
31F
330
1F
100
AcDbEntity
  8
A-2_蓋
  6
Continuous
 62
     3
370
     9
100
AcDbLine
 10
-160.2125837996199
 20
49.86460505305118
 30
0.0
 11
-160.2125837996199
 21
144.8649184768264
 31
0.0
  0
LINE
  5
320
330
1F
100
AcDbEntity
  8
A-2_蓋
  6
Continuous
 62
     3
370
     9
100
AcDbLine
 10
-160.2125837996199
 20
149.8646256730363
 30
0.0
 11
-160.2125837996199
 21
244.8644442171664
 31
0.0
  0
LINE
  5
321
330
1F
100
AcDbEntity
  8
A-2_蓋
  6
Continuous
 62
     3
370
     9
100
AcDbLine
 10
63.22805043813347
 20
49.86460505305118
 30
0.0
 11
63.22805043813347
 21
144.8649184768264
 31
0.0
  0
LINE
  5
322
330
1F
100
AcDbEntity
  8
A-2_蓋
  6
Continuous
 62
     3
370
     9
100
AcDbLine
 10
63.22805043813347
 20
149.8646256730363
 30
0.0
 11
63.22805043813347
 21
244.8644442171664
 31
0.0
  0
LINE
  5
323
330
1F
100
AcDbEntity
  8
A-2_蓋
  6
Continuous
 62
     3
370
     9
100
AcDbLine
 10
50.64796241554063
 20
49.86460505305118
 30
0.0
 11
50.64796241554063
 21
144.8649184768264
 31
0.0
  0
LINE
  5
324
330
1F
100
AcDbEntity
  8
A-2_蓋
  6
Continuous
 62
     3
370
     9
100
AcDbLine
 10
50.64796241554063
 20
149.8646256730363
 30
0.0
 11
50.64796241554063
 21
244.8644442171664
 31
0.0
  0
LINE
  5
325
330
1F
100
AcDbEntity
  8
A-2_蓋
  6
Continuous
 62
     3
370
     9
100
AcDbLine
 10
53.6474279455237
 20
49.86460505305118
 30
0.0
 11
53.6474279455237
 21
144.8649184768264
 31
0.0
  0
LINE
  5
326
330
1F
100
AcDbEntity
  8
A-2_蓋
  6
Continuous
 62
     3
370
     9
100
AcDbLine
 10
53.6474279455237
 20
149.8646256730363
 30
0.0
 11
53.6474279455237
 21
244.8644442171664
 31
0.0
  0
LINE
  5
327
330
1F
100
AcDbEntity
  8
A-2_蓋
  6
Continuous
 62
     3
370
     9
100
AcDbLine
 10
38.06812183277032
 20
49.86460505305118
 30
0.0
 11
38.06812183277032
 21
144.8649184768264
 31
0.0
  0
LINE
  5
328
330
1F
100
AcDbEntity
  8
A-2_蓋
  6
Continuous
 62
     3
370
     9
100
AcDbLine
 10
38.06812183277032
 20
149.8646256730363
 30
0.0
 11
38.06812183277032
 21
244.8644442171664
 31
0.0
  0
LINE
  5
329
330
1F
100
AcDbEntity
  8
A-2_蓋
  6
Continuous
 62
     3
370
     9
100
AcDbLine
 10
41.06758736275339
 20
49.86460505305118
 30
0.0
 11
41.06758736275339
 21
144.8649184768264
 31
0.0
  0
LINE
  5
32A
330
1F
100
AcDbEntity
  8
A-2_蓋
  6
Continuous
 62
     3
370
     9
100
AcDbLine
 10
41.06758736275339
 20
149.8646256730363
 30
0.0
 11
41.06758736275339
 21
244.8644442171664
 31
0.0
  0
LINE
  5
32B
330
1F
100
AcDbEntity
  8
A-2_蓋
  6
Continuous
 62
     3
370
     9
100
AcDbLine
 10
25.48803381017748
 20
49.86460505305118
 30
0.0
 11
25.48803381017748
 21
144.8649184768264
 31
0.0
  0
LINE
  5
32C
330
1F
100
AcDbEntity
  8
A-2_蓋
  6
Continuous
 62
     3
370
     9
100
AcDbLine
 10
25.48803381017748
 20
149.8646256730363
 30
0.0
 11
25.48803381017748
 21
244.8644442171664
 31
0.0
  0
LINE
  5
32D
330
1F
100
AcDbEntity
  8
A-2_蓋
  6
Continuous
 62
     3
370
     9
100
AcDbLine
 10
28.48749934016055
 20
49.86460505305118
 30
0.0
 11
28.48749934016055
 21
144.8649184768264
 31
0.0
  0
LINE
  5
32E
330
1F
100
AcDbEntity
  8
A-2_蓋
  6
Continuous
 62
     3
370
     9
100
AcDbLine
 10
28.48749934016055
 20
149.8646256730363
 30
0.0
 11
28.48749934016055
 21
244.8644442171664
 31
0.0
  0
LINE
  5
32F
330
1F
100
AcDbEntity
  8
A-2_蓋
  6
Continuous
 62
     3
370
     9
100
AcDbLine
 10
12.90819322740717
 20
49.86460505305118
 30
0.0
 11
12.90819322740717
 21
144.8649184768264
 31
0.0
  0
LINE
  5
330
330
1F
100
AcDbEntity
  8
A-2_蓋
  6
Continuous
 62
     3
370
     9
100
AcDbLine
 10
12.90819322740717
 20
149.8646256730363
 30
0.0
 11
12.90819322740717
 21
244.8644442171664
 31
0.0
  0
LINE
  5
331
330
1F
100
AcDbEntity
  8
A-2_蓋
  6
Continuous
 62
     3
370
     9
100
AcDbLine
 10
15.90765875739024
 20
49.86460505305118
 30
0.0
 11
15.90765875739024
 21
144.8649184768264
 31
0.0
  0
LINE
  5
332
330
1F
100
AcDbEntity
  8
A-2_蓋
  6
Continuous
 62
     3
370
     9
100
AcDbLine
 10
15.90765875739024
 20
149.8646256730363
 30
0.0
 11
15.90765875739024
 21
244.8644442171664
 31
0.0
  0
LINE
  5
333
330
1F
100
AcDbEntity
  8
A-2_蓋
  6
Continuous
 62
     3
370
     9
100
AcDbLine
 10
0.328105204814193
 20
49.86460505305118
 30
0.0
 11
0.328105204814193
 21
144.8649184768264
 31
0.0
  0
LINE
  5
334
330
1F
100
AcDbEntity
  8
A-2_蓋
  6
Continuous
 62
     3
370
     9
100
AcDbLine
 10
0.328105204814193
 20
149.8646256730363
 30
0.0
 11
0.328105204814193
 21
244.8644442171664
 31
0.0
  0
LINE
  5
335
330
1F
100
AcDbEntity
  8
A-2_蓋
  6
Continuous
 62
     3
370
     9
100
AcDbLine
 10
3.328313054265237
 20
49.86460505305118
 30
0.0
 11
3.328313054265237
 21
144.8649184768264
 31
0.0
  0
LINE
  5
336
330
1F
100
AcDbEntity
  8
A-2_蓋
  6
Continuous
 62
     3
370
     9
100
AcDbLine
 10
3.328313054265237
 20
149.8646256730363
 30
0.0
 11
3.328313054265237
 21
244.8644442171664
 31
0.0
  0
LINE
  5
337
330
1F
100
AcDbEntity
  8
A-2_蓋
  6
Continuous
 62
     3
370
     9
100
AcDbLine
 10
-12.25173537795598
 20
49.86460505305118
 30
0.0
 11
-12.25173537795598
 21
144.8649184768264
 31
0.0
  0
LINE
  5
338
330
1F
100
AcDbEntity
  8
A-2_蓋
  6
Continuous
 62
     3
370
     9
100
AcDbLine
 10
-12.25173537795598
 20
149.8646256730363
 30
0.0
 11
-12.25173537795598
 21
244.8644442171664
 31
0.0
  0
LINE
  5
339
330
1F
100
AcDbEntity
  8
A-2_蓋
  6
Continuous
 62
     3
370
     9
100
AcDbLine
 10
-9.251774968327595
 20
49.86460505305118
 30
0.0
 11
-9.251774968327595
 21
144.8649184768264
 31
0.0
  0
LINE
  5
33A
330
1F
100
AcDbEntity
  8
A-2_蓋
  6
Continuous
 62
     3
370
     9
100
AcDbLine
 10
-9.251774968327595
 20
149.8646256730363
 30
0.0
 11
-9.251774968327595
 21
244.8644442171664
 31
0.0
  0
LINE
  5
33B
330
1F
100
AcDbEntity
  8
A-2_蓋
  6
Continuous
 62
     3
370
     9
100
AcDbLine
 10
-24.83281315983945
 20
49.86460505305118
 30
0.0
 11
-24.83281315983945
 21
144.8649184768264
 31
0.0
  0
LINE
  5
33C
330
1F
100
AcDbEntity
  8
A-2_蓋
  6
Continuous
 62
     3
370
     9
100
AcDbLine
 10
-24.83281315983945
 20
149.8646256730363
 30
0.0
 11
-24.83281315983945
 21
244.8644442171664
 31
0.0
  0
LINE
  5
33D
330
1F
100
AcDbEntity
  8
A-2_蓋
  6
Continuous
 62
     3
370
     9
100
AcDbLine
 10
-21.83211043074323
 20
49.86460505305118
 30
0.0
 11
-21.83211043074323
 21
144.8649184768264
 31
0.0
  0
LINE
  5
33E
330
1F
100
AcDbEntity
  8
A-2_蓋
  6
Continuous
 62
     3
370
     9
100
AcDbLine
 10
-21.83211043074323
 20
149.8646256730363
 30
0.0
 11
-21.83211043074323
 21
244.8644442171664
 31
0.0
  0
LINE
  5
33F
330
1F
100
AcDbEntity
  8
A-2_蓋
  6
Continuous
 62
     3
370
     9
100
AcDbLine
 10
-37.41265374260976
 20
49.86460505305118
 30
0.0
 11
-37.41265374260976
 21
144.8649184768264
 31
0.0
  0
LINE
  5
340
330
1F
100
AcDbEntity
  8
A-2_蓋
  6
Continuous
 62
     3
370
     9
100
AcDbLine
 10
-37.41265374260976
 20
149.8646256730363
 30
0.0
 11
-37.41265374260976
 21
244.8644442171664
 31
0.0
  0
LINE
  5
341
330
1F
100
AcDbEntity
  8
A-2_蓋
  6
Continuous
 62
     3
370
     9
100
AcDbLine
 10
-34.41219845333606
 20
49.86460505305118
 30
0.0
 11
-34.41219845333606
 21
144.8649184768264
 31
0.0
  0
LINE
  5
342
330
1F
100
AcDbEntity
  8
A-2_蓋
  6
Continuous
 62
     3
370
     9
100
AcDbLine
 10
-34.41219845333606
 20
149.8646256730363
 30
0.0
 11
-34.41219845333606
 21
244.8644442171664
 31
0.0
  0
LINE
  5
343
330
1F
100
AcDbEntity
  8
A-2_蓋
  6
Continuous
 62
     3
370
     9
100
AcDbLine
 10
-49.9927417652026
 20
49.86460505305118
 30
0.0
 11
-49.9927417652026
 21
144.8649184768264
 31
0.0
  0
LINE
  5
344
330
1F
100
AcDbEntity
  8
A-2_蓋
  6
Continuous
 62
     3
370
     9
100
AcDbLine
 10
-49.9927417652026
 20
149.8646256730363
 30
0.0
 11
-49.9927417652026
 21
244.8644442171664
 31
0.0
  0
LINE
  5
345
330
1F
100
AcDbEntity
  8
A-2_蓋
  6
Continuous
 62
     3
370
     9
100
AcDbLine
 10
-46.99203903610638
 20
49.86460505305118
 30
0.0
 11
-46.99203903610638
 21
144.8649184768264
 31
0.0
  0
LINE
  5
346
330
1F
100
AcDbEntity
  8
A-2_蓋
  6
Continuous
 62
     3
370
     9
100
AcDbLine
 10
-46.99203903610638
 20
149.8646256730363
 30
0.0
 11
-46.99203903610638
 21
244.8644442171664
 31
0.0
  0
LINE
  5
347
330
1F
100
AcDbEntity
  8
A-2_蓋
  6
Continuous
 62
     3
370
     9
100
AcDbLine
 10
-62.57258234797291
 20
49.86460505305118
 30
0.0
 11
-62.57258234797291
 21
144.8649184768264
 31
0.0
  0
LINE
  5
348
330
1F
100
AcDbEntity
  8
A-2_蓋
  6
Continuous
 62
     3
370
     9
100
AcDbLine
 10
-62.57258234797291
 20
149.8646256730363
 30
0.0
 11
-62.57258234797291
 21
244.8644442171664
 31
0.0
  0
LINE
  5
349
330
1F
100
AcDbEntity
  8
A-2_蓋
  6
Continuous
 62
     3
370
     9
100
AcDbLine
 10
-59.57212705869921
 20
49.86460505305118
 30
0.0
 11
-59.57212705869921
 21
144.8649184768264
 31
0.0
  0
LINE
  5
34A
330
1F
100
AcDbEntity
  8
A-2_蓋
  6
Continuous
 62
     3
370
     9
100
AcDbLine
 10
-59.57212705869921
 20
149.8646256730363
 30
0.0
 11
-59.57212705869921
 21
244.8644442171664
 31
0.0
  0
LINE
  5
34B
330
1F
100
AcDbEntity
  8
A-2_蓋
  6
Continuous
 62
     3
370
     9
100
AcDbLine
 10
-75.15267037056589
 20
49.86460505305118
 30
0.0
 11
-75.15267037056589
 21
144.8649184768264
 31
0.0
  0
LINE
  5
34C
330
1F
100
AcDbEntity
  8
A-2_蓋
  6
Continuous
 62
     3
370
     9
100
AcDbLine
 10
-75.15267037056589
 20
149.8646256730363
 30
0.0
 11
-75.15267037056589
 21
244.8644442171664
 31
0.0
  0
LINE
  5
34D
330
1F
100
AcDbEntity
  8
A-2_蓋
  6
Continuous
 62
     3
370
     9
100
AcDbLine
 10
-72.15196764146953
 20
49.86460505305118
 30
0.0
 11
-72.15196764146953
 21
144.8649184768264
 31
0.0
  0
LINE
  5
34E
330
1F
100
AcDbEntity
  8
A-2_蓋
  6
Continuous
 62
     3
370
     9
100
AcDbLine
 10
-72.15196764146953
 20
149.8646256730363
 30
0.0
 11
-72.15196764146953
 21
244.8644442171664
 31
0.0
  0
LINE
  5
34F
330
1F
100
AcDbEntity
  8
A-2_蓋
  6
Continuous
 62
     3
370
     9
100
AcDbLine
 10
-87.73251095333606
 20
49.86460505305118
 30
0.0
 11
-87.73251095333606
 21
144.8649184768264
 31
0.0
  0
LINE
  5
350
330
1F
100
AcDbEntity
  8
A-2_蓋
  6
Continuous
 62
     3
370
     9
100
AcDbLine
 10
-87.73251095333606
 20
149.8646256730363
 30
0.0
 11
-87.73251095333606
 21
244.8644442171664
 31
0.0
  0
LINE
  5
351
330
1F
100
AcDbEntity
  8
A-2_蓋
  6
Continuous
 62
     3
370
     9
100
AcDbLine
 10
-84.7320556640625
 20
49.86460505305118
 30
0.0
 11
-84.7320556640625
 21
144.8649184768264
 31
0.0
  0
LINE
  5
352
330
1F
100
AcDbEntity
  8
A-2_蓋
  6
Continuous
 62
     3
370
     9
100
AcDbLine
 10
-84.7320556640625
 20
149.8646256730363
 30
0.0
 11
-84.7320556640625
 21
244.8644442171664
 31
0.0
  0
LINE
  5
353
330
1F
100
AcDbEntity
  8
A-2_蓋
  6
Continuous
 62
     3
370
     9
100
AcDbLine
 10
-100.3123515361064
 20
49.86460505305118
 30
0.0
 11
-100.3123515361064
 21
144.8649184768264
 31
0.0
  0
LINE
  5
354
330
1F
100
AcDbEntity
  8
A-2_蓋
  6
Continuous
 62
     3
370
     9
100
AcDbLine
 10
-100.3123515361064
 20
149.8646256730363
 30
0.0
 11
-100.3123515361064
 21
244.8644442171664
 31
0.0
  0
LINE
  5
355
330
1F
100
AcDbEntity
  8
A-2_蓋
  6
Continuous
 62
     3
370
     9
100
AcDbLine
 10
-97.31189624683267
 20
49.86460505305118
 30
0.0
 11
-97.31189624683267
 21
144.8649184768264
 31
0.0
  0
LINE
  5
356
330
1F
100
AcDbEntity
  8
A-2_蓋
  6
Continuous
 62
     3
370
     9
100
AcDbLine
 10
-97.31189624683267
 20
149.8646256730363
 30
0.0
 11
-97.31189624683267
 21
244.8644442171664
 31
0.0
  0
LINE
  5
357
330
1F
100
AcDbEntity
  8
A-2_蓋
  6
Continuous
 62
     3
370
     9
100
AcDbLine
 10
113.5476602090372
 20
49.86460505305118
 30
0.0
 11
113.5476602090372
 21
144.8649184768264
 31
0.0
  0
LINE
  5
358
330
1F
100
AcDbEntity
  8
A-2_蓋
  6
Continuous
 62
     3
370
     9
100
AcDbLine
 10
113.5476602090372
 20
149.8646256730363
 30
0.0
 11
113.5476602090372
 21
244.8644442171664
 31
0.0
  0
LINE
  5
359
330
1F
100
AcDbEntity
  8
A-2_蓋
  6
Continuous
 62
     3
370
     9
100
AcDbLine
 10
116.5483629381335
 20
49.86460505305118
 30
0.0
 11
116.5483629381335
 21
144.8649184768264
 31
0.0
  0
LINE
  5
35A
330
1F
100
AcDbEntity
  8
A-2_蓋
  6
Continuous
 62
     3
370
     9
100
AcDbLine
 10
116.5483629381335
 20
149.8646256730363
 30
0.0
 11
116.5483629381335
 21
244.8644442171664
 31
0.0
  0
LINE
  5
35B
330
1F
100
AcDbEntity
  8
A-2_蓋
  6
Continuous
 62
     3
370
     9
100
AcDbLine
 10
100.9678196262669
 20
49.86460505305118
 30
0.0
 11
100.9678196262669
 21
144.8649184768264
 31
0.0
  0
LINE
  5
35C
330
1F
100
AcDbEntity
  8
A-2_蓋
  6
Continuous
 62
     3
370
     9
100
AcDbLine
 10
100.9678196262669
 20
149.8646256730363
 30
0.0
 11
100.9678196262669
 21
244.8644442171664
 31
0.0
  0
LINE
  5
35D
330
1F
100
AcDbEntity
  8
A-2_蓋
  6
Continuous
 62
     3
370
     9
100
AcDbLine
 10
103.96728515625
 20
49.86460505305118
 30
0.0
 11
103.96728515625
 21
144.8649184768264
 31
0.0
  0
LINE
  5
35E
330
1F
100
AcDbEntity
  8
A-2_蓋
  6
Continuous
 62
     3
370
     9
100
AcDbLine
 10
103.96728515625
 20
149.8646256730363
 30
0.0
 11
103.96728515625
 21
244.8644442171664
 31
0.0
  0
LINE
  5
35F
330
1F
100
AcDbEntity
  8
A-2_蓋
  6
Continuous
 62
     3
370
     9
100
AcDbLine
 10
88.3877316036741
 20
49.86460505305118
 30
0.0
 11
88.3877316036741
 21
144.8649184768264
 31
0.0
  0
LINE
  5
360
330
1F
100
AcDbEntity
  8
A-2_蓋
  6
Continuous
 62
     3
370
     9
100
AcDbLine
 10
88.3877316036741
 20
149.8646256730363
 30
0.0
 11
88.3877316036741
 21
244.8644442171664
 31
0.0
  0
LINE
  5
361
330
1F
100
AcDbEntity
  8
A-2_蓋
  6
Continuous
 62
     3
370
     9
100
AcDbLine
 10
91.38744457347983
 20
49.86460505305118
 30
0.0
 11
91.38744457347983
 21
144.8649184768264
 31
0.0
  0
LINE
  5
362
330
1F
100
AcDbEntity
  8
A-2_蓋
  6
Continuous
 62
     3
370
     9
100
AcDbLine
 10
91.38744457347983
 20
149.8646256730363
 30
0.0
 11
91.38744457347983
 21
244.8644442171664
 31
0.0
  0
LINE
  5
363
330
1F
100
AcDbEntity
  8
A-2_蓋
  6
Continuous
 62
     3
370
     9
100
AcDbLine
 10
75.80789102090378
 20
49.86460505305118
 30
0.0
 11
75.80789102090378
 21
144.8649184768264
 31
0.0
  0
LINE
  5
364
330
1F
100
AcDbEntity
  8
A-2_蓋
  6
Continuous
 62
     3
370
     9
100
AcDbLine
 10
75.80789102090378
 20
149.8646256730363
 30
0.0
 11
75.80789102090378
 21
244.8644442171664
 31
0.0
  0
LINE
  5
365
330
1F
100
AcDbEntity
  8
A-2_蓋
  6
Continuous
 62
     3
370
     9
100
AcDbLine
 10
78.80735655088685
 20
49.86460505305118
 30
0.0
 11
78.80735655088685
 21
144.8649184768264
 31
0.0
  0
LINE
  5
366
330
1F
100
AcDbEntity
  8
A-2_蓋
  6
Continuous
 62
     3
370
     9
100
AcDbLine
 10
78.80735655088685
 20
149.8646256730363
 30
0.0
 11
78.80735655088685
 21
244.8644442171664
 31
0.0
  0
LINE
  5
367
330
1F
100
AcDbEntity
  8
A-2_蓋
  6
Continuous
 62
     3
370
     9
100
AcDbLine
 10
66.22751596811668
 20
49.86460505305118
 30
0.0
 11
66.22751596811668
 21
144.8649184768264
 31
0.0
  0
LINE
  5
368
330
1F
100
AcDbEntity
  8
A-2_蓋
  6
Continuous
 62
     3
370
     9
100
AcDbLine
 10
66.22751596811668
 20
149.8646256730363
 30
0.0
 11
66.22751596811668
 21
244.8644442171664
 31
0.0
  0
LINE
  5
369
330
1F
100
AcDbEntity
  8
A-2_蓋
  6
Continuous
 62
     3
370
     9
100
AcDbLine
 10
189.027940904772
 20
49.86460505305118
 30
0.0
 11
189.027940904772
 21
144.8649184768264
 31
0.0
  0
LINE
  5
36A
330
1F
100
AcDbEntity
  8
A-2_蓋
  6
Continuous
 62
     3
370
     9
100
AcDbLine
 10
189.027940904772
 20
149.8646256730363
 30
0.0
 11
189.027940904772
 21
244.8644442171664
 31
0.0
  0
LINE
  5
36B
330
1F
100
AcDbEntity
  8
A-2_蓋
  6
Continuous
 62
     3
370
     9
100
AcDbLine
 10
176.4481003220017
 20
49.86460505305118
 30
0.0
 11
176.4481003220017
 21
144.8649184768264
 31
0.0
  0
LINE
  5
36C
330
1F
100
AcDbEntity
  8
A-2_蓋
  6
Continuous
 62
     3
370
     9
100
AcDbLine
 10
176.4481003220017
 20
149.8646256730363
 30
0.0
 11
176.4481003220017
 21
244.8644442171664
 31
0.0
  0
LINE
  5
36D
330
1F
100
AcDbEntity
  8
A-2_蓋
  6
Continuous
 62
     3
370
     9
100
AcDbLine
 10
163.8680122994089
 20
49.86460505305118
 30
0.0
 11
163.8680122994089
 21
144.8649184768264
 31
0.0
  0
LINE
  5
36E
330
1F
100
AcDbEntity
  8
A-2_蓋
  6
Continuous
 62
     3
370
     9
100
AcDbLine
 10
163.8680122994089
 20
149.8646256730363
 30
0.0
 11
163.8680122994089
 21
244.8644442171664
 31
0.0
  0
LINE
  5
36F
330
1F
100
AcDbEntity
  8
A-2_蓋
  6
Continuous
 62
     3
370
     9
100
AcDbLine
 10
166.8682201488599
 20
49.86460505305118
 30
0.0
 11
166.8682201488599
 21
144.8649184768264
 31
0.0
  0
LINE
  5
370
330
1F
100
AcDbEntity
  8
A-2_蓋
  6
Continuous
 62
     3
370
     9
100
AcDbLine
 10
166.8682201488599
 20
149.8646256730363
 30
0.0
 11
166.8682201488599
 21
244.8644442171664
 31
0.0
  0
LINE
  5
371
330
1F
100
AcDbEntity
  8
A-2_蓋
  6
Continuous
 62
     3
370
     9
100
AcDbLine
 10
151.2881717166385
 20
49.86460505305118
 30
0.0
 11
151.2881717166385
 21
144.8649184768264
 31
0.0
  0
LINE
  5
372
330
1F
100
AcDbEntity
  8
A-2_蓋
  6
Continuous
 62
     3
370
     9
100
AcDbLine
 10
151.2881717166385
 20
149.8646256730363
 30
0.0
 11
151.2881717166385
 21
244.8644442171664
 31
0.0
  0
LINE
  5
373
330
1F
100
AcDbEntity
  8
A-2_蓋
  6
Continuous
 62
     3
370
     9
100
AcDbLine
 10
154.2881321262669
 20
49.86460505305118
 30
0.0
 11
154.2881321262669
 21
144.8649184768264
 31
0.0
  0
LINE
  5
374
330
1F
100
AcDbEntity
  8
A-2_蓋
  6
Continuous
 62
     3
370
     9
100
AcDbLine
 10
154.2881321262669
 20
149.8646256730363
 30
0.0
 11
154.2881321262669
 21
244.8644442171664
 31
0.0
  0
LINE
  5
375
330
1F
100
AcDbEntity
  8
A-2_蓋
  6
Continuous
 62
     3
370
     9
100
AcDbLine
 10
138.7080836940457
 20
49.86460505305118
 30
0.0
 11
138.7080836940457
 21
144.8649184768264
 31
0.0
  0
LINE
  5
376
330
1F
100
AcDbEntity
  8
A-2_蓋
  6
Continuous
 62
     3
370
     9
100
AcDbLine
 10
138.7080836940457
 20
149.8646256730363
 30
0.0
 11
138.7080836940457
 21
244.8644442171664
 31
0.0
  0
LINE
  5
377
330
1F
100
AcDbEntity
  8
A-2_蓋
  6
Continuous
 62
     3
370
     9
100
AcDbLine
 10
141.7082915434968
 20
49.86460505305118
 30
0.0
 11
141.7082915434968
 21
144.8649184768264
 31
0.0
  0
LINE
  5
378
330
1F
100
AcDbEntity
  8
A-2_蓋
  6
Continuous
 62
     3
370
     9
100
AcDbLine
 10
141.7082915434968
 20
149.8646256730363
 30
0.0
 11
141.7082915434968
 21
244.8644442171664
 31
0.0
  0
LINE
  5
379
330
1F
100
AcDbEntity
  8
A-2_蓋
  6
Continuous
 62
     3
370
     9
100
AcDbLine
 10
126.1277482316301
 20
49.86460505305118
 30
0.0
 11
126.1277482316301
 21
144.8649184768264
 31
0.0
  0
LINE
  5
37A
330
1F
100
AcDbEntity
  8
A-2_蓋
  6
Continuous
 62
     3
370
     9
100
AcDbLine
 10
126.1277482316301
 20
149.8646256730363
 30
0.0
 11
126.1277482316301
 21
244.8644442171664
 31
0.0
  0
LINE
  5
37B
330
1F
100
AcDbEntity
  8
A-2_蓋
  6
Continuous
 62
     3
370
     9
100
AcDbLine
 10
129.1282035209038
 20
49.86460505305118
 30
0.0
 11
129.1282035209038
 21
144.8649184768264
 31
0.0
  0
LINE
  5
37C
330
1F
100
AcDbEntity
  8
A-2_蓋
  6
Continuous
 62
     3
370
     9
100
AcDbLine
 10
129.1282035209038
 20
149.8646256730363
 30
0.0
 11
129.1282035209038
 21
244.8644442171664
 31
0.0
  0
LINE
  5
37D
330
1F
100
AcDbEntity
  8
A-1_ピット
  6
Continuous
 62
     2
370
     9
100
AcDbLine
 10
292.0269940350508
 20
339.2580351958404
 30
0.0
 11
292.0269940350508
 21
162.3649762127852
 31
0.0
  0
LINE
  5
37E
330
1F
100
AcDbEntity
  8
A-1_ピット
  6
Continuous
 62
     2
370
     9
100
AcDbLine
 10
292.0269940350508
 20
132.3650009567673
 30
0.0
 11
292.0269940350508
 21
-48.82107708905195
 31
0.0
  0
LINE
  5
37F
330
1F
100
AcDbEntity
  8
A-1_ピット
  6
Continuous
 62
     2
370
     9
100
AcDbLine
 10
292.0269940350508
 20
162.3649762127852
 30
0.0
 11
302.0270270270271
 21
152.3650050807645
 31
0.0
  0
LINE
  5
380
330
1F
100
AcDbEntity
  8
A-1_ピット
  6
Continuous
 62
     2
370
     9
100
AcDbLine
 10
302.0270270270271
 20
152.3650050807645
 30
0.0
 11
282.0269610430745
 21
142.364972088788
 31
0.0
  0
LINE
  5
381
330
1F
100
AcDbEntity
  8
A-1_ピット
  6
Continuous
 62
     2
370
     9
100
AcDbLine
 10
282.0269610430745
 20
142.364972088788
 30
0.0
 11
292.0269940350508
 21
132.3650009567673
 31
0.0
  0
LINE
  5
382
330
1F
100
AcDbEntity
  8
A-2_蓋
  6
JWW_PHANTOM2
 62
     3
370
     9
100
AcDbLine
 10
195.0268719647383
 20
-27.63515575512031
 30
0.0
 11
292.0269940350508
 21
-27.63515575512031
 31
0.0
  0
LINE
  5
383
330
1F
100
AcDbEntity
  8
A-1_ピット
  6
Continuous
 62
     2
370
     9
100
AcDbLine
 10
292.0269940350508
 20
-36.13520854228241
 30
0.0
 11
-806.4731907200169
 21
-36.13520854228241
 31
0.0
  0
LINE
  5
384
330
1F
100
AcDbEntity
  8
A-2_蓋
  6
JWW_PHANTOM2
 62
     3
370
     9
100
AcDbLine
 10
195.0268719647383
 20
322.3648236248945
 30
0.0
 11
292.0269940350508
 21
322.3648236248945
 31
0.0
  0
LINE
  5
385
330
1F
100
AcDbEntity
  8
A-1_ピット
  6
Continuous
 62
     2
370
     9
100
AcDbLine
 10
-806.4731907200169
 20
326.3646883577914
 30
0.0
 11
292.0269940350508
 21
326.3646883577914
 31
0.0
  0
LINE
  5
386
330
1F
100
AcDbEntity
  8
A-1_ピット
  6
Continuous
 62
     2
370
     9
100
AcDbLine
 10
292.0269940350508
 20
330.8643815324114
 30
0.0
 11
-806.4731907200169
 21
330.8643815324114
 31
0.0
  0
LINE
  5
387
330
1F
100
AcDbEntity
  8
A-1_ピット
  6
JWW_DASHED3
 62
     2
370
     9
100
AcDbLine
 10
292.0269940350508
 20
272.3651535446579
 30
0.0
 11
-806.4731907200169
 21
272.3651535446579
 31
0.0
  0
LINE
  5
388
330
1F
100
AcDbEntity
  8
A-1_ピット
  6
JWW_DASHED3
 62
     2
370
     9
100
AcDbLine
 10
292.0269940350508
 20
22.36401944547097
 30
0.0
 11
-806.4731907200169
 21
22.36401944547097
 31
0.0
  0
LINE
  5
389
330
1F
100
AcDbEntity
  8
A-1_ピット
  6
Continuous
 62
     2
370
     9
100
AcDbLine
 10
611.8919578758448
 20
330.864628972234
 30
0.0
 11
611.8919578758448
 21
339.8647576409418
 31
0.0
  0
LINE
  5
38A
330
1F
100
AcDbEntity
  8
A-1_ピット
  6
Continuous
 62
     2
370
     9
100
AcDbLine
 10
626.8920073638092
 20
330.864628972234
 30
0.0
 11
603.3919050886825
 21
330.864628972234
 31
0.0
  0
LINE
  5
38B
330
1F
100
AcDbEntity
  8
A-1_ピット
  6
Continuous
 62
     2
370
     9
100
AcDbLine
 10
625.7070180532096
 20
339.8647576409418
 30
0.0
 11
611.8919578758448
 21
339.8647576409418
 31
0.0
  0
LINE
  5
38C
330
1F
100
AcDbEntity
  8
A-1_ピット
  6
Continuous
 62
     2
370
     9
100
AcDbLine
 10
630.3658150337839
 20
331.4780322925465
 30
0.0
 11
688.5564855627113
 21
347.0703289959883
 31
0.0
  0
LINE
  5
38D
330
1F
100
AcDbEntity
  8
A-1_ピット
  6
Continuous
 62
     2
370
     9
100
AcDbLine
 10
628.0364165434967
 20
340.1715830210094
 30
0.0
 11
686.227087072424
 21
355.7636322846284
 31
0.0
  0
LINE
  5
38E
330
1F
100
AcDbEntity
  8
A-1_ピット
  6
JWW_CENTER2
 62
     2
370
     9
100
AcDbLine
 10
625.7070180532096
 20
335.3646933065879
 30
0.0
 11
608.0870757231842
 21
335.3646933065879
 31
0.0
  0
LINE
  5
38F
330
1F
100
AcDbEntity
  8
A-1_ピット
  6
JWW_CENTER2
 62
     2
370
     9
100
AcDbLine
 10
629.2008683488177
 20
335.8246839368667
 30
0.0
 11
694.3676097972974
 21
353.2860173405828
 31
0.0
  0
LINE
  5
390
330
1F
100
AcDbEntity
  8
A-1_ピット
  6
Continuous
 62
     2
370
     9
100
AcDbLine
 10
626.8920073638092
 20
330.864628972234
 30
0.0
 11
626.8920073638092
 21
272.3649061048354
 31
0.0
  0
LINE
  5
391
330
1F
100
AcDbEntity
  8
A-1_ピット
  6
Continuous
 62
     2
370
     9
100
AcDbLine
 10
622.391819309544
 20
275.3648665144636
 30
0.0
 11
622.391819309544
 21
323.3648516680744
 31
0.0
  0
LINE
  5
392
330
1F
100
AcDbEntity
  8
A-1_ピット
  6
Continuous
 62
     2
370
     9
100
AcDbLine
 10
625.392027158995
 20
272.3649061048354
 30
0.0
 11
626.8920073638092
 21
272.3649061048354
 31
0.0
  0
LINE
  5
393
330
1F
100
AcDbEntity
  8
A-1_ピット
  6
Continuous
 62
     2
370
     9
100
AcDbLine
 10
605.3919611750422
 20
326.3648120777027
 30
0.0
 11
619.3918588999156
 21
326.3648120777027
 31
0.0
  0
LINE
  5
394
330
1F
100
AcDbEntity
  8
A-1_ピット
  6
Continuous
 62
     2
370
     9
100
AcDbLine
 10
603.3919050886825
 20
330.864628972234
 30
0.0
 11
603.3919050886825
 21
328.3648681640625
 31
0.0
  0
LINE
  5
395
330
1F
100
AcDbEntity
  8
A-1_ピット
  6
Continuous
 62
     2
370
     9
100
AcDbLine
 10
611.8919578758448
 20
-36.1346518026815
 30
0.0
 11
611.8919578758448
 21
-45.13478047138932
 31
0.0
  0
LINE
  5
396
330
1F
100
AcDbEntity
  8
A-1_ピット
  6
Continuous
 62
     2
370
     9
100
AcDbLine
 10
626.8920073638092
 20
-36.1346518026815
 30
0.0
 11
603.3919050886825
 21
-36.1346518026815
 31
0.0
  0
LINE
  5
397
330
1F
100
AcDbEntity
  8
A-1_ピット
  6
Continuous
 62
     2
370
     9
100
AcDbLine
 10
625.7070180532096
 20
-45.13478047138932
 30
0.0
 11
611.8919578758448
 21
-45.13478047138932
 31
0.0
  0
LINE
  5
398
330
1F
100
AcDbEntity
  8
A-1_ピット
  6
Continuous
 62
     2
370
     9
100
AcDbLine
 10
630.3658150337839
 20
-36.748055122994
 30
0.0
 11
688.5564855627113
 21
-52.34035182643581
 31
0.0
  0
LINE
  5
399
330
1F
100
AcDbEntity
  8
A-1_ピット
  6
Continuous
 62
     2
370
     9
100
AcDbLine
 10
628.0364165434967
 20
-45.4416058514569
 30
0.0
 11
686.227087072424
 21
-61.03365511507604
 31
0.0
  0
LINE
  5
39A
330
1F
100
AcDbEntity
  8
A-1_ピット
  6
JWW_CENTER2
 62
     2
370
     9
100
AcDbLine
 10
625.7070180532096
 20
-40.63471613703541
 30
0.0
 11
608.0870757231842
 21
-40.63471613703541
 31
0.0
  0
LINE
  5
39B
330
1F
100
AcDbEntity
  8
A-1_ピット
  6
JWW_CENTER2
 62
     2
370
     9
100
AcDbLine
 10
629.2008683488177
 20
-41.09470676731419
 30
0.0
 11
694.3676097972974
 21
-58.55604017103033
 31
0.0
  0
LINE
  5
39C
330
1F
100
AcDbEntity
  8
A-1_ピット
  6
Continuous
 62
     2
370
     9
100
AcDbLine
 10
626.8920073638092
 20
-36.1346518026815
 30
0.0
 11
626.8920073638092
 21
22.36507106471706
 31
0.0
  0
LINE
  5
39D
330
1F
100
AcDbEntity
  8
A-1_ピット
  6
Continuous
 62
     2
370
     9
100
AcDbLine
 10
622.391819309544
 20
19.36511065508867
 30
0.0
 11
622.391819309544
 21
-28.63487449852187
 31
0.0
  0
LINE
  5
39E
330
1F
100
AcDbEntity
  8
A-1_ピット
  6
Continuous
 62
     2
370
     9
100
AcDbLine
 10
625.392027158995
 20
22.36507106471706
 30
0.0
 11
626.8920073638092
 21
22.36507106471706
 31
0.0
  0
LINE
  5
39F
330
1F
100
AcDbEntity
  8
A-1_ピット
  6
Continuous
 62
     2
370
     9
100
AcDbLine
 10
605.3919611750422
 20
-31.63483490815025
 30
0.0
 11
619.3918588999156
 21
-31.63483490815025
 31
0.0
  0
LINE
  5
3A0
330
1F
100
AcDbEntity
  8
A-1_ピット
  6
Continuous
 62
     2
370
     9
100
AcDbLine
 10
603.3919050886825
 20
-36.1346518026815
 30
0.0
 11
603.3919050886825
 21
-33.63489099451016
 31
0.0
  0
CIRCLE
  5
3A1
330
1F
100
AcDbEntity
  8
A-2_蓋
  6
Continuous
 62
     3
370
     9
100
AcDbCircle
 10
605.891665896854
 20
247.3650092047615
 30
0.0
 40
2.499999790578275
  0
CIRCLE
  5
3A2
330
1F
100
AcDbEntity
  8
A-2_蓋
  6
Continuous
 62
     3
370
     9
100
AcDbCircle
 10
605.891665896854
 20
47.36490610483528
 30
0.0
 40
2.499999790578275
  0
CIRCLE
  5
3A3
330
1F
100
AcDbEntity
  8
A-1_ピット
  6
Continuous
 62
     2
370
     9
100
AcDbCircle
 10
-606.9733490815033
 20
335.3646933065879
 30
0.0
 40
4.500000057993709
  0
CIRCLE
  5
3A4
330
1F
100
AcDbEntity
  8
A-1_ピット
  6
Continuous
 62
     2
370
     9
100
AcDbCircle
 10
-505.9736097181166
 20
335.3646933065879
 30
0.0
 40
4.500000057993709
  0
ARC
  5
3A5
330
1F
100
AcDbEntity
  8
A-1_ピット
  6
Continuous
 62
     2
370
     9
100
AcDbCircle
 10
-601.4731329840582
 20
341.4643323743667
 30
0.0
 40
9.9999991623131
100
AcDbArc
 50
90.0
 51
180.0
  0
ARC
  5
3A6
330
1F
100
AcDbEntity
  8
A-1_ピット
  6
Continuous
 62
     2
370
     9
100
AcDbCircle
 10
-511.473207216005
 20
341.4643323743667
 30
0.0
 40
9.9999991623131
100
AcDbArc
 50
0.0
 51
90.0
  0
ARC
  5
3A7
330
1F
100
AcDbEntity
  8
A-1_ピット
  6
Continuous
 62
     2
370
     9
100
AcDbCircle
 10
-511.473207216005
 20
341.4643323743667
 30
0.0
 40
0.9999999524773778
100
AcDbArc
 50
0.0
 51
90.0
  0
ARC
  5
3A8
330
1F
100
AcDbEntity
  8
A-1_ピット
  6
Continuous
 62
     2
370
     9
100
AcDbCircle
 10
-601.4731329840582
 20
341.4643323743667
 30
0.0
 40
0.9999999524773778
100
AcDbArc
 50
90.0
 51
180.0
  0
CIRCLE
  5
3A9
330
1F
100
AcDbEntity
  8
A-1_ピット
  6
Continuous
 62
     2
370
     9
100
AcDbCircle
 10
-106.9734315614443
 20
335.3646933065879
 30
0.0
 40
4.500000057993709
  0
CIRCLE
  5
3AA
330
1F
100
AcDbEntity
  8
A-1_ピット
  6
Continuous
 62
     2
370
     9
100
AcDbCircle
 10
-5.973692198057421
 20
335.3646933065879
 30
0.0
 40
4.500000057993709
  0
ARC
  5
3AB
330
1F
100
AcDbEntity
  8
A-1_ピット
  6
Continuous
 62
     2
370
     9
100
AcDbCircle
 10
-101.4732154639991
 20
341.4643323743667
 30
0.0
 40
9.9999991623131
100
AcDbArc
 50
90.0
 51
180.0
  0
ARC
  5
3AC
330
1F
100
AcDbEntity
  8
A-1_ピット
  6
Continuous
 62
     2
370
     9
100
AcDbCircle
 10
-11.47328969594582
 20
341.4643323743667
 30
0.0
 40
9.9999991623131
100
AcDbArc
 50
0.0
 51
90.0
  0
ARC
  5
3AD
330
1F
100
AcDbEntity
  8
A-1_ピット
  6
Continuous
 62
     2
370
     9
100
AcDbCircle
 10
-11.47328969594582
 20
341.4643323743667
 30
0.0
 40
0.9999999524773778
100
AcDbArc
 50
0.0
 51
90.0
  0
ARC
  5
3AE
330
1F
100
AcDbEntity
  8
A-1_ピット
  6
Continuous
 62
     2
370
     9
100
AcDbCircle
 10
-101.4732154639991
 20
341.4643323743667
 30
0.0
 40
0.9999999524773778
100
AcDbArc
 50
90.0
 51
180.0
  0
CIRCLE
  5
3AF
330
1F
100
AcDbEntity
  8
A-1_ピット
  6
Continuous
 62
     2
370
     9
100
AcDbCircle
 10
-606.9733490815033
 20
-40.6350872967694
 30
0.0
 40
4.500000057993709
  0
CIRCLE
  5
3B0
330
1F
100
AcDbEntity
  8
A-1_ピット
  6
Continuous
 62
     2
370
     9
100
AcDbCircle
 10
-505.9736097181166
 20
-40.6350872967694
 30
0.0
 40
4.500000057993709
  0
ARC
  5
3B1
330
1F
100
AcDbEntity
  8
A-1_ピット
  6
Continuous
 62
     2
370
     9
100
AcDbCircle
 10
-601.4731329840582
 20
-46.73472636454804
 30
0.0
 40
9.9999991623131
100
AcDbArc
 50
180.0
 51
270.0
  0
ARC
  5
3B2
330
1F
100
AcDbEntity
  8
A-1_ピット
  6
Continuous
 62
     2
370
     9
100
AcDbCircle
 10
-511.473207216005
 20
-46.73472636454804
 30
0.0
 40
9.9999991623131
100
AcDbArc
 50
270.0
 51
0.0
  0
ARC
  5
3B3
330
1F
100
AcDbEntity
  8
A-1_ピット
  6
Continuous
 62
     2
370
     9
100
AcDbCircle
 10
-511.473207216005
 20
-46.73472636454804
 30
0.0
 40
0.9999999524773778
100
AcDbArc
 50
270.0
 51
0.0
  0
ARC
  5
3B4
330
1F
100
AcDbEntity
  8
A-1_ピット
  6
Continuous
 62
     2
370
     9
100
AcDbCircle
 10
-601.4731329840582
 20
-46.73472636454804
 30
0.0
 40
0.9999999524773778
100
AcDbArc
 50
180.0
 51
270.0
  0
CIRCLE
  5
3B5
330
1F
100
AcDbEntity
  8
A-1_ピット
  6
Continuous
 62
     2
370
     9
100
AcDbCircle
 10
-106.9734315614443
 20
-40.6350872967694
 30
0.0
 40
4.500000057993709
  0
CIRCLE
  5
3B6
330
1F
100
AcDbEntity
  8
A-1_ピット
  6
Continuous
 62
     2
370
     9
100
AcDbCircle
 10
-5.973692198057421
 20
-40.6350872967694
 30
0.0
 40
4.500000057993709
  0
ARC
  5
3B7
330
1F
100
AcDbEntity
  8
A-1_ピット
  6
Continuous
 62
     2
370
     9
100
AcDbCircle
 10
-101.4732154639991
 20
-46.73472636454804
 30
0.0
 40
9.9999991623131
100
AcDbArc
 50
180.0
 51
270.0
  0
ARC
  5
3B8
330
1F
100
AcDbEntity
  8
A-1_ピット
  6
Continuous
 62
     2
370
     9
100
AcDbCircle
 10
-11.47328969594582
 20
-46.73472636454804
 30
0.0
 40
9.9999991623131
100
AcDbArc
 50
270.0
 51
0.0
  0
ARC
  5
3B9
330
1F
100
AcDbEntity
  8
A-1_ピット
  6
Continuous
 62
     2
370
     9
100
AcDbCircle
 10
-11.47328969594582
 20
-46.73472636454804
 30
0.0
 40
0.9999999524773778
100
AcDbArc
 50
270.0
 51
0.0
  0
ARC
  5
3BA
330
1F
100
AcDbEntity
  8
A-1_ピット
  6
Continuous
 62
     2
370
     9
100
AcDbCircle
 10
-101.4732154639991
 20
-46.73472636454804
 30
0.0
 40
0.9999999524773778
100
AcDbArc
 50
180.0
 51
270.0
  0
CIRCLE
  5
3BB
330
1F
100
AcDbEntity
  8
A-2_蓋
  6
Continuous
 62
     3
370
     9
100
AcDbCircle
 10
605.891665896854
 20
147.3649267248206
 30
0.0
 40
2.499999790578275
  0
ARC
  5
3BC
330
1F
100
AcDbEntity
  8
A-1_ピット
  6
Continuous
 62
     2
370
     9
100
AcDbCircle
 10
625.7070180532096
 20
348.8648863096496
 30
0.0
 40
17.99999829885122
100
AcDbArc
 50
270.0
 51
285.0
  0
ARC
  5
3BD
330
1F
100
AcDbEntity
  8
A-1_ピット
  6
Continuous
 62
     2
370
     9
100
AcDbCircle
 10
687.3917863175677
 20
351.4169806403083
 30
0.0
 40
4.499999574712805
100
AcDbArc
 50
285.0001373291016
 51
104.9999084472656
  0
ARC
  5
3BE
330
1F
100
AcDbEntity
  8
A-1_ピット
  6
JWW_CENTER2
 62
     2
370
     9
100
AcDbCircle
 10
625.7070180532096
 20
348.8648863096496
 30
0.0
 40
13.50000065726203
100
AcDbArc
 50
270.0
 51
284.9999542236328
  0
ARC
  5
3BF
330
1F
100
AcDbEntity
  8
A-1_ピット
  6
Continuous
 62
     2
370
     9
100
AcDbCircle
 10
625.7070180532096
 20
348.8648863096496
 30
0.0
 40
8.99999914942561
100
AcDbArc
 50
270.0
 51
285.0000152587891
  0
ARC
  5
3C0
330
1F
100
AcDbEntity
  8
A-1_ピット
  6
Continuous
 62
     2
370
     9
100
AcDbCircle
 10
619.3918588999156
 20
323.3648516680744
 30
0.0
 40
2.999999797022021
100
AcDbArc
 50
0.0
 51
90.0
  0
ARC
  5
3C1
330
1F
100
AcDbEntity
  8
A-1_ピット
  6
Continuous
 62
     2
370
     9
100
AcDbCircle
 10
625.392027158995
 20
275.3648665144636
 30
0.0
 40
2.999999797022021
100
AcDbArc
 50
180.0
 51
270.0
  0
ARC
  5
3C2
330
1F
100
AcDbEntity
  8
A-1_ピット
  6
Continuous
 62
     2
370
     9
100
AcDbCircle
 10
605.3919611750422
 20
328.3648681640625
 30
0.0
 40
1.999999904954756
100
AcDbArc
 50
180.0
 51
270.0
  0
ARC
  5
3C3
330
1F
100
AcDbEntity
  8
A-1_ピット
  6
Continuous
 62
     2
370
     9
100
AcDbCircle
 10
625.7070180532096
 20
-54.13490914009714
 30
0.0
 40
17.99999829885122
100
AcDbArc
 50
75.0
 51
89.99999999999999
  0
ARC
  5
3C4
330
1F
100
AcDbEntity
  8
A-1_ピット
  6
Continuous
 62
     2
370
     9
100
AcDbCircle
 10
687.3917863175677
 20
-56.68700347075585
 30
0.0
 40
4.499999574712805
100
AcDbArc
 50
255.0000915527344
 51
74.99986267089845
  0
ARC
  5
3C5
330
1F
100
AcDbEntity
  8
A-1_ピット
  6
JWW_CENTER2
 62
     2
370
     9
100
AcDbCircle
 10
625.7070180532096
 20
-54.13490914009714
 30
0.0
 40
13.50000065726203
100
AcDbArc
 50
75.00004577636717
 51
90.0
  0
ARC
  5
3C6
330
1F
100
AcDbEntity
  8
A-1_ピット
  6
Continuous
 62
     2
370
     9
100
AcDbCircle
 10
625.7070180532096
 20
-54.13490914009714
 30
0.0
 40
8.99999914942561
100
AcDbArc
 50
74.99998474121094
 51
90.00000000000001
  0
ARC
  5
3C7
330
1F
100
AcDbEntity
  8
A-1_ピット
  6
Continuous
 62
     2
370
     9
100
AcDbCircle
 10
619.3918588999156
 20
-28.63487449852187
 30
0.0
 40
2.999999797022021
100
AcDbArc
 50
270.0
 51
0.0
  0
ARC
  5
3C8
330
1F
100
AcDbEntity
  8
A-1_ピット
  6
Continuous
 62
     2
370
     9
100
AcDbCircle
 10
625.392027158995
 20
19.36511065508867
 30
0.0
 40
2.999999797022021
100
AcDbArc
 50
90.0
 51
180.0
  0
ARC
  5
3C9
330
1F
100
AcDbEntity
  8
A-1_ピット
  6
Continuous
 62
     2
370
     9
100
AcDbCircle
 10
605.3919611750422
 20
-33.63489099451016
 30
0.0
 40
1.999999904954756
100
AcDbArc
 50
90.0
 51
180.0
  0
TEXT
  5
3CA
330
1F
100
AcDbEntity
  8
A-4_寸法
  6
Continuous
 62
     2
370
     9
100
AcDbText
 10
545.5719710726352
 20
-80.54484186945729
 30
0.0
 40
15.24
  1
4.5
 50
90.0
 41
1.083333333333333
  7
ＭＳ ゴシック
100
AcDbText
  0
TEXT
  5
3CB
330
1F
100
AcDbEntity
  8
A-4_寸法
  6
Continuous
 62
     2
370
     9
100
AcDbText
 10
545.5719710726352
 20
-20.44641030801301
 30
0.0
 40
15.24
  1
4
 50
90.0
 41
0.9999999999999998
  7
ＭＳ ゴシック
100
AcDbText
  0
TEXT
  5
3CC
330
1F
100
AcDbEntity
  8
A-4_寸法
  6
Continuous
 62
     2
370
     9
100
AcDbText
 10
545.5719710726352
 20
307.9914154877534
 30
0.0
 40
15.24
  1
4
 50
90.0
 41
0.9999999999999998
  7
ＭＳ ゴシック
100
AcDbText
  0
TEXT
  5
3CD
330
1F
100
AcDbEntity
  8
A-4_寸法
  6
Continuous
 62
     2
370
     9
100
AcDbText
 10
545.5719710726352
 20
341.7869939030828
 30
0.0
 40
15.24
  1
4.5
 50
90.0
 41
1.083333333333333
  7
ＭＳ ゴシック
100
AcDbText
  0
TEXT
  5
3CE
330
1F
100
AcDbEntity
  8
A-4_寸法
  6
Continuous
 62
     2
370
     9
100
AcDbText
 10
734.0719991158151
 20
-28.76014090873099
 30
0.0
 40
15.24
  1
58.5
 50
90.0
 41
1.09375
  7
ＭＳ ゴシック
100
AcDbText
  0
TEXT
  5
3CF
330
1F
100
AcDbEntity
  8
A-4_寸法
  6
Continuous
 62
     2
370
     9
100
AcDbText
 10
734.0719991158151
 20
279.7397262985642
 30
0.0
 40
15.24
  1
58.5
 50
90.0
 41
1.09375
  7
ＭＳ ゴシック
100
AcDbText
  0
TEXT
  5
3D0
330
1F
100
AcDbEntity
  8
A-4_寸法
  6
Continuous
 62
     7
370
     9
100
AcDbText
 10
741.2742820945948
 20
455.8875665118244
 30
0.0
 40
11.43
  1
アンカー：φ９
 41
1.142857142857143
  7
ＭＳ ゴシック
100
AcDbText
  0
TEXT
  5
3D1
330
1F
100
AcDbEntity
  8
A-4_寸法
  6
Continuous
 62
     7
370
     9
100
AcDbText
 10
417.1819326039909
 20
460.7554501425254
 30
0.0
 40
11.43
  1
受枠：Ｌ－１９
 41
1.142857142857143
  7
ＭＳ ゴシック
100
AcDbText
  0
TEXT
  5
3D2
330
1F
100
AcDbEntity
  8
A-4_寸法
  6
Continuous
 62
     7
370
     9
100
AcDbText
 10
-126.9670022500527
 20
506.7469662558067
 30
0.0
 40
11.43
  1
クロスバー φ５ ＠100
 41
1.158730158730159
  7
ＭＳ ゴシック
100
AcDbText
  0
TEXT
  5
3D3
330
1F
100
AcDbEntity
  8
A-4_寸法
  6
Continuous
 62
     2
370
     9
100
AcDbText
 10
61.72262655722136
 20
355.4036594040329
 30
0.0
 40
15.24
  1
12.5
 41
1.09375
  7
ＭＳ ゴシック
100
AcDbText
  0
TEXT
  5
3D4
330
1F
100
AcDbEntity
  8
A-4_寸法
  6
Continuous
 62
     2
370
     9
100
AcDbText
 10
575.5119942330026
 20
-107.1033101509712
 30
0.0
 40
15.24
  1
19
 41
1.0625
  7
ＭＳ ゴシック
100
AcDbText
  0
TEXT
  5
3D5
330
1F
100
AcDbEntity
  8
A-4_寸法
  6
Continuous
 62
     2
370
     9
100
AcDbText
 10
552.5572493269638
 20
-162.4786722379117
 30
0.0
 40
15.24
  1
23.5
 41
1.09375
  7
ＭＳ ゴシック
100
AcDbText
  0
TEXT
  5
3D6
330
1F
100
AcDbEntity
  8
A-4_寸法
  6
Continuous
 62
     2
370
     9
100
AcDbText
 10
-697.7231412320523
 20
395.7524340820312
 30
0.0
 40
15.24
  1
250
 41
1.083333333333333
  7
ＭＳ ゴシック
100
AcDbText
  0
TEXT
  5
3D7
330
1F
100
AcDbEntity
  8
A-4_寸法
  6
Continuous
 62
     2
370
     9
100
AcDbText
 10
190.5405405405406
 20
395.7524340820312
 30
0.0
 40
15.24
  1
500
 41
1.083333333333333
  7
ＭＳ ゴシック
100
AcDbText
  0
TEXT
  5
3D8
330
1F
100
AcDbEntity
  8
A-4_寸法
  6
Continuous
 62
     2
370
     9
100
AcDbText
 10
-844.1040863861908
 20
-107.6139022249788
 30
0.0
 40
15.24
  1
1.5
 41
1.083333298966693
  7
ＭＳ ゴシック
100
AcDbText
  0
TEXT
  5
3D9
330
1F
100
AcDbEntity
  8
A-4_寸法
  6
Continuous
 62
     2
370
     9
100
AcDbText
 10
-322.7231412320523
 20
-107.6139022249788
 30
0.0
 40
15.24
  1
997
 41
1.083333333333333
  7
ＭＳ ゴシック
100
AcDbText
  0
TEXT
  5
3DA
330
1F
100
AcDbEntity
  8
A-4_寸法
  6
Continuous
 62
     2
370
     9
100
AcDbText
 10
204.8471399255702
 20
-107.4421789880701
 30
0.0
 40
15.24
  1
3
 41
0.9999999999999998
  7
ＭＳ ゴシック
100
AcDbText
  0
TEXT
  5
3DB
330
1F
100
AcDbEntity
  8
A-4_寸法
  6
Continuous
 62
     2
370
     9
100
AcDbText
 10
190.5405405405406
 20
-159.6529713233742
 30
0.0
 40
15.24
  1
2000
 41
1.09375
  7
ＭＳ ゴシック
100
AcDbText
  0
TEXT
  5
3DC
330
1F
100
AcDbEntity
  8
A-4_寸法
  6
Continuous
 62
     2
370
     9
100
AcDbText
 10
-322.7232030920079
 20
395.7524340820312
 30
0.0
 40
15.24
  1
500
 41
1.083333333333333
  7
ＭＳ ゴシック
100
AcDbText
  0
TEXT
  5
3DD
330
1F
100
AcDbEntity
  8
A-4_寸法
  6
Continuous
 62
     2
370
     9
100
AcDbText
 10
736.0719314822635
 20
131.114873112859
 30
0.0
 40
15.24
  1
250
 50
90.0
 41
1.083333333333333
  7
ＭＳ ゴシック
100
AcDbText
  0
TEXT
  5
3DE
330
1F
100
AcDbEntity
  8
A-4_寸法
  6
Continuous
 62
     2
370
     9
100
AcDbText
 10
547.5719034390835
 20
131.1147493929477
 30
0.0
 40
15.24
  1
350
 50
90.0
 41
1.083333333333333
  7
ＭＳ ゴシック
100
AcDbText
  0
TEXT
  5
3DF
330
1F
100
AcDbEntity
  8
A-4_寸法
  6
Continuous
 62
     2
370
     9
100
AcDbText
 10
507.5718951910896
 20
131.1148112529034
 30
0.0
 40
15.24
  1
367
 50
90.0
 41
1.083333333333333
  7
ＭＳ ゴシック
100
AcDbText
  0
TEXT
  5
3E0
330
1F
100
AcDbEntity
  8
A-4_寸法
  6
Continuous
 62
     7
370
     9
100
AcDbText
 10
-171.1311752731736
 20
546.2622398912586
 30
0.0
 40
11.43
  1
エンドプレート ＦＢ3×19
 41
1.159722222222222
  7
ＭＳ ゴシック
100
AcDbText
  0
TEXT
  5
3E1
330
1F
100
AcDbEntity
  8
A-4_寸法
  6
Continuous
 62
     7
370
     9
100
AcDbText
 10
-88.22652455922707
 20
464.9072429265203
 30
0.0
 40
11.43
  1
メインバー ＦＢ3×19 ＠12.5
 41
1.160493827160494
  7
ＭＳ ゴシック
100
AcDbText
  0
TEXT
  5
3E2
330
1F
100
AcDbEntity
  8
F-5ﾚｲﾔ
  6
Continuous
 62
     2
370
     9
100
AcDbText
 10
-409.446742289775
 20
-662.4841200380064
 30
0.0
 40
15.24
  1
スチール製グレーチング　細目プレーンタイプ　横断溝・側溝用
 41
0.8991379310344826
  7
ＭＳ ゴシック
100
AcDbText
  0
TEXT
  5
3E3
330
1F
100
AcDbEntity
  8
F-5ﾚｲﾔ
  6
Continuous
 62
     2
370
     9
100
AcDbText
 10
-75.50004948796442
 20
-684.9841200380064
 30
0.0
 40
15.24
  1
ＱＳＢ　１３５１９＋Ｌ－１９
 41
0.8982142857142855
  7
ＭＳ ゴシック
100
AcDbText
  0
LINE
  5
3E4
330
1F
100
AcDbEntity
  8
F-4ﾚｲﾔ
  6
Continuous
 62
     2
370
     9
100
AcDbLine
 10
321.9184619963565
 20
-283.0683137997553
 30
0.0
 11
321.9184619963565
 21
-258.0682003898366
 31
0.0
  0
LINE
  5
3E5
330
1F
100
AcDbEntity
  8
F-4ﾚｲﾔ
  6
Continuous
 62
     2
370
     9
100
AcDbLine
 10
321.9184619963565
 20
-258.0682003898366
 30
0.0
 11
434.4184619963565
 21
-258.0682003898366
 31
0.0
  0
LINE
  5
3E6
330
1F
100
AcDbEntity
  8
F-4ﾚｲﾔ
  6
Continuous
 62
     2
370
     9
100
AcDbLine
 10
434.4184619963565
 20
-258.0682003898366
 30
0.0
 11
434.4184619963565
 21
-283.0683137997553
 31
0.0
  0
LINE
  5
3E7
330
1F
100
AcDbEntity
  8
F-4ﾚｲﾔ
  6
Continuous
 62
     2
370
     9
100
AcDbLine
 10
434.4184619963565
 20
-283.0683137997553
 30
0.0
 11
321.9184619963565
 21
-283.0683137997553
 31
0.0
  0
TEXT
  5
3E8
330
1F
100
AcDbEntity
  8
F-4ﾚｲﾔ
  6
Continuous
 62
     2
370
     9
100
AcDbText
 10
345.6684784923448
 20
-277.7484292716725
 30
0.0
 40
15.24
  1
仕　様
 41
1.083333333333333
  7
ＭＳ ゴシック
100
AcDbText
  0
TEXT
  5
3E9
330
1F
100
AcDbEntity
  8
F-4ﾚｲﾔ
  6
Continuous
 62
     2
370
     9
100
AcDbText
 10
372.9631941674924
 20
-309.2084541311267
 30
0.0
 40
15.24
  1
スチール製グレーチング　細目プレーンタイプ
 41
1.119047619047619
  7
ＭＳ ゴシック
100
AcDbText
  0
TEXT
  5
3EA
330
1F
100
AcDbEntity
  8
F-4ﾚｲﾔ
  6
Continuous
 62
     2
370
     9
100
AcDbText
 10
402.940130664172
 20
-363.9839971980733
 30
0.0
 40
15.24
  1
材質：ＳＳ４００
 41
1.109375
  7
ＭＳ ゴシック
100
AcDbText
  0
TEXT
  5
3EB
330
1F
100
AcDbEntity
  8
F-4ﾚｲﾔ
  6
Continuous
 62
     2
370
     9
100
AcDbText
 10
402.940130664172
 20
-391.0374150438274
 30
0.0
 40
15.24
  1
処理：溶融亜鉛めっき
 41
1.1125
  7
ＭＳ ゴシック
100
AcDbText
  0
TEXT
  5
3EC
330
1F
100
AcDbEntity
  8
F-4ﾚｲﾔ
  6
Continuous
 62
     2
370
     9
100
AcDbText
 10
402.940130664172
 20
-418.5739296368272
 30
0.0
 40
15.24
  1
定尺：９９７
 41
1.104166666666667
  7
ＭＳ ゴシック
100
AcDbText
  0
TEXT
  5
3ED
330
1F
100
AcDbEntity
  8
F-4ﾚｲﾔ
  6
Continuous
 62
     2
370
     9
100
AcDbText
 10
372.9752341208186
 20
-449.7169607840519
 30
0.0
 40
15.24
  1
スチール製受枠　Ｌ－１９
 41
1.114583333333333
  7
ＭＳ ゴシック
100
AcDbText
  0
TEXT
  5
3EE
330
1F
100
AcDbEntity
  8
F-5ﾚｲﾔ
  6
Continuous
 62
     2
370
     9
100
AcDbText
 10
402.8272712905739
 20
-475.5245284017759
 30
0.0
 40
15.24
  1
材質：ＳＳ４００
 41
1.109375
  7
ＭＳ ゴシック
100
AcDbText
  0
TEXT
  5
3EF
330
1F
100
AcDbEntity
  8
F-5ﾚｲﾔ
  6
Continuous
 62
     2
370
     9
100
AcDbText
 10
402.8272712905739
 20
-533.3026648593666
 30
0.0
 40
15.24
  1
定尺：２０００
 41
1.107142857142857
  7
ＭＳ ゴシック
100
AcDbText
  0
TEXT
  5
3F0
330
1F
100
AcDbEntity
  8
F-4ﾚｲﾔ
  6
Continuous
 62
     2
370
     9
100
AcDbText
 10
372.9631941674924
 20
-335.7667267881417
 30
0.0
 40
15.24
  1
横断溝・側溝用　ＱＳＢ　１３５１９
 41
1.117647058823529
  7
ＭＳ ゴシック
100
AcDbText
  0
TEXT
  5
3F1
330
1F
100
AcDbEntity
  8
F-4ﾚｲﾔ
  6
Continuous
 62
     2
370
     9
100
AcDbText
 10
402.8272712905739
 20
-504.6061904187632
 30
0.0
 40
15.24
  1
処理：樹脂系塗装
 41
1.109375
  7
ＭＳ ゴシック
100
AcDbText
  0
TEXT
  5
3F2
330
1F
100
AcDbEntity
  8
F-5ﾚｲﾔ
  6
Continuous
 62
     3
370
     9
100
AcDbText
 10
459.4184619963565
 20
-279.5433137997554
 30
0.0
 40
19.05
  1
※適用荷重：歩行用
 41
1.088888888888889
  7
ＭＳ ゴシック
100
AcDbText
  0
ENDSEC
  0
SECTION
  2
OBJECTS
  0
DICTIONARY
  5
C
330
0
100
AcDbDictionary
281
     1
  3
ACAD_DETAILVIEWSTYLE
350
438
  3
ACAD_GROUP
350
D
  3
ACAD_LAYOUT
350
1A
  3
ACAD_MATERIAL
350
43
  3
ACAD_MLEADERSTYLE
350
6B
  3
ACAD_MLINESTYLE
350
17
  3
ACAD_PLOTSETTINGS
350
19
  3
ACAD_PLOTSTYLENAME
350
E
  3
ACAD_SCALELIST
350
47
  3
ACAD_SECTIONVIEWSTYLE
350
439
  3
ACAD_TABLESTYLE
350
69
  3
ACAD_VISUALSTYLE
350
2A
  3
ACDB_RECOMPOSE_DATA
350
435
  3
AcDbVariableDictionary
350
3F5
  0
DICTIONARY
  5
3F3
330
8
100
AcDbDictionary
280
     1
281
     1
  3
ACAD_XREC_ROUNDTRIP
360
3F4
  0
DICTIONARY
  5
438
102
{ACAD_REACTORS
330
C
102
}
330
C
100
AcDbDictionary
281
     1
  0
DICTIONARY
  5
D
102
{ACAD_REACTORS
330
C
102
}
330
C
100
AcDbDictionary
281
     1
  0
DICTIONARY
  5
1A
102
{ACAD_REACTORS
330
C
102
}
330
C
100
AcDbDictionary
281
     1
  3
Layout1
350
1E
  3
Layout2
350
26
  3
Model
350
22
  0
DICTIONARY
  5
43
102
{ACAD_REACTORS
330
C
102
}
330
C
100
AcDbDictionary
281
     1
  3
ByBlock
350
45
  3
ByLayer
350
44
  3
Global
350
46
  0
DICTIONARY
  5
6B
102
{ACAD_REACTORS
330
C
102
}
330
C
100
AcDbDictionary
281
     1
  3
Standard
350
6C
  0
DICTIONARY
  5
17
102
{ACAD_REACTORS
330
C
102
}
330
C
100
AcDbDictionary
281
     1
  3
Standard
350
18
  0
DICTIONARY
  5
19
102
{ACAD_REACTORS
330
C
102
}
330
C
100
AcDbDictionary
281
     1
  0
ACDBDICTIONARYWDFLT
  5
E
102
{ACAD_REACTORS
330
C
102
}
330
C
100
AcDbDictionary
281
     1
  3
Normal
350
F
100
AcDbDictionaryWithDefault
340
F
  0
DICTIONARY
  5
47
102
{ACAD_REACTORS
330
C
102
}
330
C
100
AcDbDictionary
281
     1
  3
A0
350
48
  3
A1
350
49
  3
A2
350
4A
  3
A3
350
4B
  3
A4
350
4C
  3
A5
350
4D
  3
A6
350
4E
  3
A7
350
4F
  3
A8
350
50
  3
A9
350
51
  3
B0
350
52
  3
B1
350
53
  3
B2
350
54
  3
B3
350
55
  3
B4
350
56
  3
B5
350
57
  3
B6
350
58
  3
B7
350
59
  3
B8
350
5A
  3
B9
350
5B
  3
C0
350
5C
  3
C1
350
5D
  3
C2
350
5E
  3
C3
350
5F
  3
C4
350
60
  3
C5
350
61
  3
C6
350
62
  3
C7
350
63
  3
C8
350
64
  3
C9
350
65
  3
D0
350
66
  3
D1
350
67
  3
D2
350
68
  0
DICTIONARY
  5
439
102
{ACAD_REACTORS
330
C
102
}
330
C
100
AcDbDictionary
281
     1
  0
DICTIONARY
  5
69
102
{ACAD_REACTORS
330
C
102
}
330
C
100
AcDbDictionary
281
     1
  3
Standard
350
6A
  0
DICTIONARY
  5
2A
102
{ACAD_REACTORS
330
C
102
}
330
C
100
AcDbDictionary
281
     1
  3
2dWireframe
350
2F
  3
Basic
350
32
  3
Brighten
350
36
  3
ColorChange
350
3A
  3
Conceptual
350
34
  3
Dim
350
35
  3
EdgeColorOff
350
3D
  3
Facepattern
350
39
  3
Flat
350
2B
  3
FlatWithEdges
350
2C
  3
Gouraud
350
2D
  3
GouraudWithEdges
350
2E
  3
Hidden
350
31
  3
JitterOff
350
3B
  3
Linepattern
350
38
  3
OverhangOff
350
3C
  3
Realistic
350
33
  3
Shaded
350
42
  3
Shaded with edges
350
41
  3
Shades of Gray
350
3E
  3
Sketchy
350
3F
  3
Thicken
350
37
  3
Wireframe
350
30
  3
X-Ray
350
40
  0
XRECORD
  5
435
102
{ACAD_REACTORS
330
C
102
}
330
C
100
AcDbXrecord
280
     1
 90
        1
330
6A
  0
DICTIONARY
  5
3F5
102
{ACAD_REACTORS
330
C
102
}
330
C
100
AcDbDictionary
281
     1
  3
CANNOSCALE
350
3F6
  3
CENTEREXE
350
43A
  3
CENTERLTYPEFILE
350
43B
  3
CMLEADERSTYLE
350
437
  3
CTABLESTYLE
350
436
  3
MSLTSCALE
350
3F7
  3
XCLIPFRAME
350
3F8
  0
XRECORD
  5
3F4
102
{ACAD_REACTORS
330
3F3
102
}
330
3F3
100
AcDbXrecord
280
     1
102
VTR_0.000_0.000_1.000_1.000_VISUALSTYLE
340
2F
102
VTR_0.000_0.000_1.000_1.000_GRIDDISPLAY
 70
     3
102
VTR_0.000_0.000_1.000_1.000_GRIDMAJOR
 70
     5
102
VTR_0.000_0.000_1.000_1.000_DEFAULTLIGHTING
280
     1
102
VTR_0.000_0.000_1.000_1.000_DEFAULTLIGHTINGTYPE
 70
     1
102
VTR_0.000_0.000_1.000_1.000_BRIGHTNESS
141
0.0
102
VTR_0.000_0.000_1.000_1.000_CONTRAST
142
0.0
  0
LAYOUT
  5
1E
102
{ACAD_REACTORS
330
1A
102
}
330
1A
100
AcDbPlotSettings
  1

  2
none_device
  4

  6

 40
0.0
 41
0.0
 42
0.0
 43
0.0
 44
0.0
 45
0.0
 46
0.0
 47
0.0
 48
0.0
 49
0.0
140
0.0
141
0.0
142
1.0
143
1.0
 70
   688
 72
     1
 73
     0
 74
     5
  7

 75
    16
 76
     0
 77
     5
 78
   300
147
1.0
148
0.0
149
0.0
100
AcDbLayout
  1
Layout1
 70
     1
 71
     1
 10
0.0
 20
0.0
 11
420.0
 21
297.0
 12
0.0
 22
0.0
 32
0.0
 14
1.000000000000000E+20
 24
1.000000000000000E+20
 34
1.000000000000000E+20
 15
-1.000000000000000E+20
 25
-1.000000000000000E+20
 35
-1.000000000000000E+20
146
0.0
 13
0.0
 23
0.0
 33
0.0
 16
1.0
 26
0.0
 36
0.0
 17
0.0
 27
1.0
 37
0.0
 76
     0
330
1B
  0
LAYOUT
  5
26
102
{ACAD_REACTORS
330
1A
102
}
330
1A
100
AcDbPlotSettings
  1

  2
none_device
  4

  6

 40
0.0
 41
0.0
 42
0.0
 43
0.0
 44
0.0
 45
0.0
 46
0.0
 47
0.0
 48
0.0
 49
0.0
140
0.0
141
0.0
142
1.0
143
1.0
 70
   688
 72
     1
 73
     0
 74
     5
  7

 75
    16
 76
     0
 77
     5
 78
   300
147
1.0
148
0.0
149
0.0
100
AcDbLayout
  1
Layout2
 70
     1
 71
     2
 10
0.0
 20
0.0
 11
0.0
 21
0.0
 12
0.0
 22
0.0
 32
0.0
 14
0.0
 24
0.0
 34
0.0
 15
0.0
 25
0.0
 35
0.0
146
0.0
 13
0.0
 23
0.0
 33
0.0
 16
1.0
 26
0.0
 36
0.0
 17
0.0
 27
1.0
 37
0.0
 76
     0
330
23
  0
LAYOUT
  5
22
102
{ACAD_REACTORS
330
1A
102
}
330
1A
100
AcDbPlotSettings
  1

  2
none_device
  4
Letter_(8.50_x_11.00_Inches)
  6

 40
6.35
 41
6.35
 42
6.35000508
 43
6.35000508
 44
215.9
 45
279.4
 46
0.0
 47
0.0
 48
0.0
 49
0.0
140
0.0
141
0.0
142
1.0
143
1.0
 70
  1712
 72
     1
 73
     0
 74
     0
  7

 75
     0
 76
     0
 77
     5
 78
   300
147
1.0
148
0.0
149
0.0
100
AcDbLayout
  1
Model
 70
     1
 71
     0
 10
-1050.0
 20
-742.5
 11
1050.0
 21
742.5
 12
0.0
 22
0.0
 32
0.0
 14
-1050.0
 24
-742.5
 34
0.0
 15
1050.0
 25
742.5
 35
0.0
146
0.0
 13
0.0
 23
0.0
 33
0.0
 16
1.0
 26
0.0
 36
0.0
 17
0.0
 27
1.0
 37
0.0
 76
     0
330
1F
331
29
  0
MATERIAL
  5
45
102
{ACAD_REACTORS
330
43
102
}
102
{ACAD_XDICTIONARY
360
42B
102
}
330
43
100
AcDbMaterial
  1
ByBlock
  0
MATERIAL
  5
44
102
{ACAD_REACTORS
330
43
102
}
102
{ACAD_XDICTIONARY
360
429
102
}
330
43
100
AcDbMaterial
  1
ByLayer
  0
MATERIAL
  5
46
102
{ACAD_REACTORS
330
43
102
}
102
{ACAD_XDICTIONARY
360
42D
102
}
330
43
100
AcDbMaterial
  1
Global
  0
MLEADERSTYLE
  5
6C
102
{ACAD_REACTORS
330
6B
102
}
102
{ACAD_XDICTIONARY
360
433
102
}
330
6B
100
AcDbMLeaderStyle
170
     2
171
     1
172
     0
 90
        2
 40
0.0
 41
0.0
173
     1
 91
-1056964608
340
14
 92
       -2
290
     1
 42
2.0
291
     1
 43
8.0
  3
Standard
341
0
 44
4.0
300

342
11
174
     1
178
     6
175
     1
176
     0
 93
-1056964608
 45
4.0
292
     0
297
     0
 46
4.0
343
0
 94
-1056964608
 47
1.0
 49
1.0
140
1.0
293
     1
141
0.0
294
     1
177
     0
142
1.0
295
     0
296
     0
143
3.75
1001
ACAD_MLEADERVER
1070
     2
  0
MLINESTYLE
  5
18
102
{ACAD_REACTORS
330
17
102
}
330
17
100
AcDbMlineStyle
  2
Standard
 70
     0
  3

 62
   256
 51
90.0
 52
90.0
 71
     2
 49
0.5
 62
   256
  6
BYLAYER
 49
-0.5
 62
   256
  6
BYLAYER
  0
ACDBPLACEHOLDER
  5
F
102
{ACAD_REACTORS
330
E
102
}
330
E
  0
SCALE
  5
48
102
{ACAD_REACTORS
330
47
102
}
330
47
100
AcDbScale
 70
     0
300
1:1
140
1.0
141
1.0
290
     1
  0
SCALE
  5
49
102
{ACAD_REACTORS
330
47
102
}
330
47
100
AcDbScale
 70
     0
300
1:2
140
1.0
141
2.0
290
     0
  0
SCALE
  5
4A
102
{ACAD_REACTORS
330
47
102
}
330
47
100
AcDbScale
 70
     0
300
1:4
140
1.0
141
4.0
290
     0
  0
SCALE
  5
4B
102
{ACAD_REACTORS
330
47
102
}
330
47
100
AcDbScale
 70
     0
300
1:5
140
1.0
141
5.0
290
     0
  0
SCALE
  5
4C
102
{ACAD_REACTORS
330
47
102
}
330
47
100
AcDbScale
 70
     0
300
1:8
140
1.0
141
8.0
290
     0
  0
SCALE
  5
4D
102
{ACAD_REACTORS
330
47
102
}
330
47
100
AcDbScale
 70
     0
300
1:10
140
1.0
141
10.0
290
     0
  0
SCALE
  5
4E
102
{ACAD_REACTORS
330
47
102
}
330
47
100
AcDbScale
 70
     0
300
1:16
140
1.0
141
16.0
290
     0
  0
SCALE
  5
4F
102
{ACAD_REACTORS
330
47
102
}
330
47
100
AcDbScale
 70
     0
300
1:20
140
1.0
141
20.0
290
     0
  0
SCALE
  5
50
102
{ACAD_REACTORS
330
47
102
}
330
47
100
AcDbScale
 70
     0
300
1:30
140
1.0
141
30.0
290
     0
  0
SCALE
  5
51
102
{ACAD_REACTORS
330
47
102
}
330
47
100
AcDbScale
 70
     0
300
1:40
140
1.0
141
40.0
290
     0
  0
SCALE
  5
52
102
{ACAD_REACTORS
330
47
102
}
330
47
100
AcDbScale
 70
     0
300
1:50
140
1.0
141
50.0
290
     0
  0
SCALE
  5
53
102
{ACAD_REACTORS
330
47
102
}
330
47
100
AcDbScale
 70
     0
300
1:100
140
1.0
141
100.0
290
     0
  0
SCALE
  5
54
102
{ACAD_REACTORS
330
47
102
}
330
47
100
AcDbScale
 70
     0
300
2:1
140
2.0
141
1.0
290
     0
  0
SCALE
  5
55
102
{ACAD_REACTORS
330
47
102
}
330
47
100
AcDbScale
 70
     0
300
4:1
140
4.0
141
1.0
290
     0
  0
SCALE
  5
56
102
{ACAD_REACTORS
330
47
102
}
330
47
100
AcDbScale
 70
     0
300
8:1
140
8.0
141
1.0
290
     0
  0
SCALE
  5
57
102
{ACAD_REACTORS
330
47
102
}
330
47
100
AcDbScale
 70
     0
300
10:1
140
10.0
141
1.0
290
     0
  0
SCALE
  5
58
102
{ACAD_REACTORS
330
47
102
}
330
47
100
AcDbScale
 70
     0
300
100:1
140
100.0
141
1.0
290
     0
  0
SCALE
  5
59
102
{ACAD_REACTORS
330
47
102
}
330
47
100
AcDbScale
 70
     0
300
1/128" = 1'-0"
140
0.0078125
141
12.0
290
     0
  0
SCALE
  5
5A
102
{ACAD_REACTORS
330
47
102
}
330
47
100
AcDbScale
 70
     0
300
1/64" = 1'-0"
140
0.015625
141
12.0
290
     0
  0
SCALE
  5
5B
102
{ACAD_REACTORS
330
47
102
}
330
47
100
AcDbScale
 70
     0
300
1/32" = 1'-0"
140
0.03125
141
12.0
290
     0
  0
SCALE
  5
5C
102
{ACAD_REACTORS
330
47
102
}
330
47
100
AcDbScale
 70
     0
300
1/16" = 1'-0"
140
0.0625
141
12.0
290
     0
  0
SCALE
  5
5D
102
{ACAD_REACTORS
330
47
102
}
330
47
100
AcDbScale
 70
     0
300
3/32" = 1'-0"
140
0.09375
141
12.0
290
     0
  0
SCALE
  5
5E
102
{ACAD_REACTORS
330
47
102
}
330
47
100
AcDbScale
 70
     0
300
1/8" = 1'-0"
140
0.125
141
12.0
290
     0
  0
SCALE
  5
5F
102
{ACAD_REACTORS
330
47
102
}
330
47
100
AcDbScale
 70
     0
300
3/16" = 1'-0"
140
0.1875
141
12.0
290
     0
  0
SCALE
  5
60
102
{ACAD_REACTORS
330
47
102
}
330
47
100
AcDbScale
 70
     0
300
1/4" = 1'-0"
140
0.25
141
12.0
290
     0
  0
SCALE
  5
61
102
{ACAD_REACTORS
330
47
102
}
330
47
100
AcDbScale
 70
     0
300
3/8" = 1'-0"
140
0.375
141
12.0
290
     0
  0
SCALE
  5
62
102
{ACAD_REACTORS
330
47
102
}
330
47
100
AcDbScale
 70
     0
300
1/2" = 1'-0"
140
0.5
141
12.0
290
     0
  0
SCALE
  5
63
102
{ACAD_REACTORS
330
47
102
}
330
47
100
AcDbScale
 70
     0
300
3/4" = 1'-0"
140
0.75
141
12.0
290
     0
  0
SCALE
  5
64
102
{ACAD_REACTORS
330
47
102
}
330
47
100
AcDbScale
 70
     0
300
1" = 1'-0"
140
1.0
141
12.0
290
     0
  0
SCALE
  5
65
102
{ACAD_REACTORS
330
47
102
}
330
47
100
AcDbScale
 70
     0
300
1-1/2" = 1'-0"
140
1.5
141
12.0
290
     0
  0
SCALE
  5
66
102
{ACAD_REACTORS
330
47
102
}
330
47
100
AcDbScale
 70
     0
300
3" = 1'-0"
140
3.0
141
12.0
290
     0
  0
SCALE
  5
67
102
{ACAD_REACTORS
330
47
102
}
330
47
100
AcDbScale
 70
     0
300
6" = 1'-0"
140
6.0
141
12.0
290
     0
  0
SCALE
  5
68
102
{ACAD_REACTORS
330
47
102
}
330
47
100
AcDbScale
 70
     0
300
1'-0" = 1'-0"
140
12.0
141
12.0
290
     0
  0
TABLESTYLE
  5
6A
102
{ACAD_REACTORS
330
69
102
}
102
{ACAD_XDICTIONARY
360
42F
102
}
330
69
100
AcDbTableStyle
  3
Standard
 70
     0
 71
     0
 40
0.06
 41
0.06
280
     0
281
     0
  7
Standard
140
4.5
170
     2
 62
     0
 63
   257
283
     0
274
    -2
284
     1
 64
     0
275
    -2
285
     1
 65
     0
276
    -2
286
     1
 66
     0
277
    -2
287
     1
 67
     0
278
    -2
288
     1
 68
     0
279
    -2
289
     1
 69
     0
  7
Standard
140
6.0
170
     5
 62
     0
 63
   257
283
     0
274
    -2
284
     1
 64
     0
275
    -2
285
     1
 65
     0
276
    -2
286
     1
 66
     0
277
    -2
287
     1
 67
     0
278
    -2
288
     1
 68
     0
279
    -2
289
     1
 69
     0
  7
Standard
140
4.5
170
     5
 62
     0
 63
   257
283
     0
274
    -2
284
     1
 64
     0
275
    -2
285
     1
 65
     0
276
    -2
286
     1
 66
     0
277
    -2
287
     1
 67
     0
278
    -2
288
     1
 68
     0
279
    -2
289
     1
 69
     0
  0
VISUALSTYLE
  5
2F
102
{ACAD_REACTORS
330
2A
102
}
102
{ACAD_XDICTIONARY
360
401
102
}
330
2A
100
AcDbVisualStyle
  2
2dWireframe
 70
     4
 71
     0
 72
     2
 73
     0
 90
        0
 40
0.6
 41
30.0
 62
     5
 63
     7
421
 16777215
 74
     1
 91
        4
 64
     7
 65
   257
 75
     1
175
     1
 42
1.0
 92
        0
 66
   257
 43
1.0
 76
     1
 77
     6
 78
     2
 67
     7
 79
     5
170
     0
171
     0
290
     0
174
     0
 93
        1
 44
0.0
173
     0
291
     0
 45
0.0
1001
ACAD
1000
AcDbSavedByObjectVersion
1070
     0
  0
VISUALSTYLE
  5
32
102
{ACAD_REACTORS
330
2A
102
}
102
{ACAD_XDICTIONARY
360
407
102
}
330
2A
100
AcDbVisualStyle
  2
Basic
 70
     7
 71
     1
 72
     0
 73
     1
 90
        0
 40
0.6
 41
30.0
 62
     5
 63
     7
421
 16777215
 74
     0
 91
        4
 64
     7
 65
   257
 75
     1
175
     1
 42
1.0
 92
        8
 66
     7
 43
1.0
 76
     1
 77
     6
 78
     2
 67
     7
 79
     5
170
     0
171
     0
290
     0
174
     0
 93
        1
 44
0.0
173
     0
291
     1
 45
0.0
1001
ACAD
1000
AcDbSavedByObjectVersion
1070
     0
  0
VISUALSTYLE
  5
36
102
{ACAD_REACTORS
330
2A
102
}
102
{ACAD_XDICTIONARY
360
40F
102
}
330
2A
100
AcDbVisualStyle
  2
Brighten
 70
    12
 71
     2
 72
     2
 73
     0
 90
        0
 40
0.6
 41
30.0
 62
     5
 63
     7
421
 16777215
 74
     1
 91
        4
 64
     7
 65
   257
 75
     1
175
     1
 42
1.0
 92
        8
 66
     7
 43
1.0
 76
     1
 77
     6
 78
     2
 67
     7
 79
     5
170
     0
171
     0
290
     0
174
     0
 93
        1
 44
50.0
173
     0
291
     1
 45
0.0
1001
ACAD
1000
AcDbSavedByObjectVersion
1070
     0
  0
VISUALSTYLE
  5
3A
102
{ACAD_REACTORS
330
2A
102
}
102
{ACAD_XDICTIONARY
360
417
102
}
330
2A
100
AcDbVisualStyle
  2
ColorChange
 70
    16
 71
     2
 72
     2
 73
     3
 90
        0
 40
0.6
 41
30.0
 62
     5
 63
     8
421
  8421504
 74
     1
 91
        4
 64
     7
 65
   257
 75
     1
175
     1
 42
1.0
 92
        8
 66
     8
424
  8421504
 43
1.0
 76
     1
 77
     6
 78
     2
 67
     7
 79
     5
170
     0
171
     0
290
     0
174
     0
 93
        1
 44
0.0
173
     0
291
     1
 45
0.0
1001
ACAD
1000
AcDbSavedByObjectVersion
1070
     0
  0
VISUALSTYLE
  5
34
102
{ACAD_REACTORS
330
2A
102
}
102
{ACAD_XDICTIONARY
360
40B
102
}
330
2A
100
AcDbVisualStyle
  2
Conceptual
 70
     9
 71
     3
 72
     2
 73
     0
 90
        0
 40
0.6
 41
30.0
 62
     5
 63
     7
421
 16777215
 74
     2
 91
        2
 64
     7
 65
   257
 75
     1
175
     1
 42
179.0
 92
        8
 66
     7
 43
1.0
 76
     1
 77
     6
 78
     2
 67
     7
 79
     3
170
     0
171
     0
290
     0
174
     0
 93
        1
 44
0.0
173
     0
291
     0
 45
0.0
1001
ACAD
1000
AcDbSavedByObjectVersion
1070
     0
  0
VISUALSTYLE
  5
35
102
{ACAD_REACTORS
330
2A
102
}
102
{ACAD_XDICTIONARY
360
40D
102
}
330
2A
100
AcDbVisualStyle
  2
Dim
 70
    11
 71
     2
 72
     2
 73
     0
 90
        0
 40
0.6
 41
30.0
 62
     5
 63
     7
421
 16777215
 74
     1
 91
        4
 64
     7
 65
   257
 75
     1
175
     1
 42
1.0
 92
        8
 66
     7
 43
1.0
 76
     1
 77
     6
 78
     2
 67
     7
 79
     5
170
     0
171
     0
290
     0
174
     0
 93
        1
 44
-50.0
173
     0
291
     1
 45
0.0
1001
ACAD
1000
AcDbSavedByObjectVersion
1070
     0
  0
VISUALSTYLE
  5
3D
102
{ACAD_REACTORS
330
2A
102
}
102
{ACAD_XDICTIONARY
360
41D
102
}
330
2A
100
AcDbVisualStyle
  2
EdgeColorOff
 70
    22
 71
     2
 72
     2
 73
     0
 90
        0
 40
0.6
 41
30.0
 62
     5
 63
     7
421
 16777215
 74
     1
 91
        4
 64
     7
 65
   257
 75
     1
175
     1
 42
1.0
 92
        8
 66
     7
 43
1.0
 76
     1
 77
     6
 78
     2
 67
     7
 79
     5
170
     0
171
     0
290
     0
174
     0
 93
        1
 44
0.0
173
     0
291
     1
 45
0.0
1001
ACAD
1000
AcDbSavedByObjectVersion
1070
     0
  0
VISUALSTYLE
  5
39
102
{ACAD_REACTORS
330
2A
102
}
102
{ACAD_XDICTIONARY
360
415
102
}
330
2A
100
AcDbVisualStyle
  2
Facepattern
 70
    15
 71
     2
 72
     2
 73
     0
 90
        0
 40
0.6
 41
30.0
 62
     5
 63
     7
421
 16777215
 74
     1
 91
        4
 64
     7
 65
   257
 75
     1
175
     1
 42
1.0
 92
        8
 66
     7
 43
1.0
 76
     1
 77
     6
 78
     2
 67
     7
 79
     5
170
     0
171
     0
290
     0
174
     0
 93
        1
 44
0.0
173
     0
291
     1
 45
0.0
1001
ACAD
1000
AcDbSavedByObjectVersion
1070
     0
  0
VISUALSTYLE
  5
2B
102
{ACAD_REACTORS
330
2A
102
}
102
{ACAD_XDICTIONARY
360
3F9
102
}
330
2A
100
AcDbVisualStyle
  2
Flat
 70
     0
 71
     2
 72
     1
 73
     1
 90
        2
 40
0.6
 41
30.0
 62
     5
 63
     7
421
 16777215
 74
     0
 91
        0
 64
     7
 65
   257
 75
     1
175
     1
 42
1.0
 92
        8
 66
     7
 43
1.0
 76
     1
 77
     6
 78
     2
 67
     7
 79
     5
170
     0
171
     0
290
     0
174
     0
 93
       13
 44
0.0
173
     0
291
     1
 45
0.0
1001
ACAD
1000
AcDbSavedByObjectVersion
1070
     0
  0
VISUALSTYLE
  5
2C
102
{ACAD_REACTORS
330
2A
102
}
102
{ACAD_XDICTIONARY
360
3FB
102
}
330
2A
100
AcDbVisualStyle
  2
FlatWithEdges
 70
     1
 71
     2
 72
     1
 73
     1
 90
        2
 40
0.6
 41
30.0
 62
     5
 63
     7
421
 16777215
 74
     1
 91
        0
 64
     7
 65
   257
 75
     1
175
     1
 42
1.0
 92
        0
 66
   257
 43
1.0
 76
     1
 77
     6
 78
     2
 67
     7
 79
     5
170
     0
171
     0
290
     0
174
     0
 93
       13
 44
0.0
173
     0
291
     1
 45
0.0
1001
ACAD
1000
AcDbSavedByObjectVersion
1070
     0
  0
VISUALSTYLE
  5
2D
102
{ACAD_REACTORS
330
2A
102
}
102
{ACAD_XDICTIONARY
360
3FD
102
}
330
2A
100
AcDbVisualStyle
  2
Gouraud
 70
     2
 71
     2
 72
     2
 73
     1
 90
        2
 40
0.6
 41
30.0
 62
     5
 63
     7
421
 16777215
 74
     0
 91
        0
 64
     7
 65
   257
 75
     1
175
     1
 42
1.0
 92
        0
 66
     7
 43
1.0
 76
     1
 77
     6
 78
     2
 67
     7
 79
     5
170
     0
171
     0
290
     0
174
     0
 93
       13
 44
0.0
173
     0
291
     1
 45
0.0
1001
ACAD
1000
AcDbSavedByObjectVersion
1070
     0
  0
VISUALSTYLE
  5
2E
102
{ACAD_REACTORS
330
2A
102
}
102
{ACAD_XDICTIONARY
360
3FF
102
}
330
2A
100
AcDbVisualStyle
  2
GouraudWithEdges
 70
     3
 71
     2
 72
     2
 73
     1
 90
        2
 40
0.6
 41
30.0
 62
     5
 63
     7
421
 16777215
 74
     1
 91
        0
 64
     7
 65
   257
 75
     1
175
     1
 42
1.0
 92
        0
 66
   257
 43
1.0
 76
     1
 77
     6
 78
     2
 67
     7
 79
     5
170
     0
171
     0
290
     0
174
     0
 93
       13
 44
0.0
173
     0
291
     1
 45
0.0
1001
ACAD
1000
AcDbSavedByObjectVersion
1070
     0
  0
VISUALSTYLE
  5
31
102
{ACAD_REACTORS
330
2A
102
}
102
{ACAD_XDICTIONARY
360
405
102
}
330
2A
100
AcDbVisualStyle
  2
Hidden
 70
     6
 71
     1
 72
     2
 73
     2
 90
        0
 40
0.6
 41
30.0
 62
     5
 63
     7
421
 16777215
 74
     2
 91
        2
 64
     7
 65
   257
 75
     2
175
     1
 42
40.0
 92
        0
 66
   257
 43
1.0
 76
     1
 77
     6
 78
     2
 67
     7
 79
     3
170
     0
171
     0
290
     0
174
     0
 93
        1
 44
0.0
173
     0
291
     0
 45
0.0
1001
ACAD
1000
AcDbSavedByObjectVersion
1070
     0
  0
VISUALSTYLE
  5
3B
102
{ACAD_REACTORS
330
2A
102
}
102
{ACAD_XDICTIONARY
360
419
102
}
330
2A
100
AcDbVisualStyle
  2
JitterOff
 70
    20
 71
     2
 72
     2
 73
     0
 90
        0
 40
0.6
 41
30.0
 62
     5
 63
     7
421
 16777215
 74
     1
 91
        4
 64
     7
 65
   257
 75
     1
175
     1
 42
1.0
 92
       10
 66
     7
 43
1.0
 76
     1
 77
     6
 78
     2
 67
     7
 79
     5
170
     0
171
     0
290
     0
174
     0
 93
        1
 44
0.0
173
     0
291
     1
 45
0.0
1001
ACAD
1000
AcDbSavedByObjectVersion
1070
     0
  0
VISUALSTYLE
  5
38
102
{ACAD_REACTORS
330
2A
102
}
102
{ACAD_XDICTIONARY
360
413
102
}
330
2A
100
AcDbVisualStyle
  2
Linepattern
 70
    14
 71
     2
 72
     2
 73
     0
 90
        0
 40
0.6
 41
30.0
 62
     5
 63
     7
421
 16777215
 74
     1
 91
        4
 64
     7
 65
   257
 75
     7
175
     7
 42
1.0
 92
        8
 66
     7
 43
1.0
 76
     1
 77
     6
 78
     2
 67
     7
 79
     5
170
     0
171
     0
290
     0
174
     0
 93
        1
 44
0.0
173
     0
291
     1
 45
0.0
1001
ACAD
1000
AcDbSavedByObjectVersion
1070
     0
  0
VISUALSTYLE
  5
3C
102
{ACAD_REACTORS
330
2A
102
}
102
{ACAD_XDICTIONARY
360
41B
102
}
330
2A
100
AcDbVisualStyle
  2
OverhangOff
 70
    21
 71
     2
 72
     2
 73
     0
 90
        0
 40
0.6
 41
30.0
 62
     5
 63
     7
421
 16777215
 74
     1
 91
        4
 64
     7
 65
   257
 75
     1
175
     1
 42
1.0
 92
        9
 66
     7
 43
1.0
 76
     1
 77
     6
 78
     2
 67
     7
 79
     5
170
     0
171
     0
290
     0
174
     0
 93
        1
 44
0.0
173
     0
291
     1
 45
0.0
1001
ACAD
1000
AcDbSavedByObjectVersion
1070
     0
  0
VISUALSTYLE
  5
33
102
{ACAD_REACTORS
330
2A
102
}
102
{ACAD_XDICTIONARY
360
409
102
}
330
2A
100
AcDbVisualStyle
  2
Realistic
 70
     8
 71
     2
 72
     3
 73
     0
 90
        2
 40
0.6
 41
30.0
 62
     5
 63
     7
421
 16777215
 74
     0
 91
        0
 64
     7
 65
   257
 75
     1
175
     1
 42
1.0
 92
        8
 66
   257
 43
1.0
 76
     1
 77
     6
 78
     2
 67
     7
 79
     3
170
     0
171
     0
290
     0
174
     0
 93
       13
 44
0.0
173
     0
291
     0
 45
0.0
1001
ACAD
1000
AcDbSavedByObjectVersion
1070
     0
  0
VISUALSTYLE
  5
42
102
{ACAD_REACTORS
330
2A
102
}
102
{ACAD_XDICTIONARY
360
427
102
}
330
2A
100
AcDbVisualStyle
  2
Shaded
 70
    27
 71
     2
 72
     2
 73
     1
 90
        2
 40
0.6
 41
30.0
 62
     5
 63
     7
421
 16777215
 74
     0
 91
        4
 64
     7
 65
   257
 75
     1
175
     1
 42
1.0
 92
        8
 66
   257
 43
1.0
 76
     1
 77
     6
 78
     2
 67
     8
425
  7895160
 79
     3
170
     0
171
     0
290
     0
174
     0
 93
        5
 44
0.0
173
     0
291
     0
 45
0.0
1001
ACAD
1000
AcDbSavedByObjectVersion
1070
     0
  0
VISUALSTYLE
  5
41
102
{ACAD_REACTORS
330
2A
102
}
102
{ACAD_XDICTIONARY
360
425
102
}
330
2A
100
AcDbVisualStyle
  2
Shaded with edges
 70
    26
 71
     2
 72
     2
 73
     1
 90
        2
 40
0.6
 41
30.0
 62
     5
 63
     7
421
 16777215
 74
     1
 91
       10
 64
     7
 65
   257
 75
     2
175
     1
 42
1.0
 92
        8
 66
   257
 43
1.0
 76
     1
 77
     6
 78
     2
 67
     7
 79
     3
170
     0
171
     0
290
     0
174
     0
 93
        5
 44
0.0
173
     0
291
     0
 45
0.0
1001
ACAD
1000
AcDbSavedByObjectVersion
1070
     0
  0
VISUALSTYLE
  5
3E
102
{ACAD_REACTORS
330
2A
102
}
102
{ACAD_XDICTIONARY
360
41F
102
}
330
2A
100
AcDbVisualStyle
  2
Shades of Gray
 70
    23
 71
     2
 72
     2
 73
     3
 90
        0
 40
0.6
 41
30.0
 62
     5
 63
     7
421
 16777215
 74
     2
 91
        2
 64
     7
 65
     7
 75
     1
175
     1
 42
40.0
 92
        8
 66
     7
 43
1.0
 76
     1
 77
     6
 78
     2
 67
     7
 79
     3
170
     0
171
     0
290
     0
174
     0
 93
        1
 44
0.0
173
     0
291
     0
 45
0.0
1001
ACAD
1000
AcDbSavedByObjectVersion
1070
     0
  0
VISUALSTYLE
  5
3F
102
{ACAD_REACTORS
330
2A
102
}
102
{ACAD_XDICTIONARY
360
421
102
}
330
2A
100
AcDbVisualStyle
  2
Sketchy
 70
    24
 71
     1
 72
     2
 73
     2
 90
        0
 40
0.6
 41
30.0
 62
     5
 63
     7
421
 16777215
 74
     2
 91
        2
 64
     7
 65
     7
 75
     1
175
     1
 42
40.0
 92
       11
 66
     7
 43
1.0
 76
     1
 77
     6
 78
     2
 67
     7
 79
     6
170
     0
171
     0
290
     0
174
     0
 93
        1
 44
0.0
173
     0
291
     0
 45
0.0
1001
ACAD
1000
AcDbSavedByObjectVersion
1070
     0
  0
VISUALSTYLE
  5
37
102
{ACAD_REACTORS
330
2A
102
}
102
{ACAD_XDICTIONARY
360
411
102
}
330
2A
100
AcDbVisualStyle
  2
Thicken
 70
    13
 71
     2
 72
     2
 73
     0
 90
        0
 40
0.6
 41
30.0
 62
     5
 63
     7
421
 16777215
 74
     1
 91
        4
 64
     7
 65
   257
 75
     1
175
     1
 42
1.0
 92
       12
 66
     7
 43
1.0
 76
     1
 77
     6
 78
     2
 67
     7
 79
     5
170
     0
171
     0
290
     0
174
     0
 93
        1
 44
0.0
173
     0
291
     1
 45
0.0
1001
ACAD
1000
AcDbSavedByObjectVersion
1070
     0
  0
VISUALSTYLE
  5
30
102
{ACAD_REACTORS
330
2A
102
}
102
{ACAD_XDICTIONARY
360
403
102
}
330
2A
100
AcDbVisualStyle
  2
Wireframe
 70
     5
 71
     0
 72
     2
 73
     0
 90
        0
 40
0.6
 41
30.0
 62
     5
 63
     7
421
 16777215
 74
     1
 91
        4
 64
     7
 65
   257
 75
     1
175
     1
 42
1.0
 92
        0
 66
   257
 43
1.0
 76
     1
 77
     6
 78
     2
 67
     7
 79
     3
170
     0
171
     0
290
     0
174
     0
 93
        1
 44
0.0
173
     0
291
     0
 45
0.0
1001
ACAD
1000
AcDbSavedByObjectVersion
1070
     0
  0
VISUALSTYLE
  5
40
102
{ACAD_REACTORS
330
2A
102
}
102
{ACAD_XDICTIONARY
360
423
102
}
330
2A
100
AcDbVisualStyle
  2
X-Ray
 70
    25
 71
     2
 72
     2
 73
     1
 90
        1
 40
0.5
 41
30.0
 62
     5
 63
     7
421
 16777215
 74
     1
 91
        0
 64
     7
 65
   257
 75
     1
175
     1
 42
1.0
 92
        8
 66
     7
 43
1.0
 76
     1
 77
     6
 78
     2
 67
     7
 79
     3
170
     0
171
     0
290
     0
174
     0
 93
       13
 44
0.0
173
     0
291
     0
 45
0.0
1001
ACAD
1000
AcDbSavedByObjectVersion
1070
     0
  0
DICTIONARYVAR
  5
3F6
102
{ACAD_REACTORS
330
3F5
102
}
330
3F5
100
DictionaryVariables
280
     0
  1
1:1
  0
DICTIONARYVAR
  5
43A
102
{ACAD_REACTORS
330
3F5
102
}
330
3F5
100
DictionaryVariables
280
     0
  1
3.500000
  0
DICTIONARYVAR
  5
43B
102
{ACAD_REACTORS
330
3F5
102
}
330
3F5
100
DictionaryVariables
280
     0
  1
acadiso.lin
  0
DICTIONARYVAR
  5
437
102
{ACAD_REACTORS
330
3F5
102
}
330
3F5
100
DictionaryVariables
280
     0
  1
Standard
  0
DICTIONARYVAR
  5
436
102
{ACAD_REACTORS
330
3F5
102
}
330
3F5
100
DictionaryVariables
280
     0
  1
Standard
  0
DICTIONARYVAR
  5
3F7
102
{ACAD_REACTORS
330
3F5
102
}
330
3F5
100
DictionaryVariables
280
     0
  1
1
  0
DICTIONARYVAR
  5
3F8
102
{ACAD_REACTORS
330
3F5
102
}
330
3F5
100
DictionaryVariables
280
     0
  1
2
  0
DICTIONARY
  5
42B
330
45
100
AcDbDictionary
280
     1
281
     1
  3
ACAD_XREC_ROUNDTRIP
360
42C
  0
DICTIONARY
  5
429
330
44
100
AcDbDictionary
280
     1
281
     1
  3
ACAD_XREC_ROUNDTRIP
360
42A
  0
DICTIONARY
  5
42D
330
46
100
AcDbDictionary
280
     1
281
     1
  3
ACAD_XREC_ROUNDTRIP
360
42E
  0
DICTIONARY
  5
433
330
6C
100
AcDbDictionary
280
     1
281
     1
  3
ACAD_XREC_ROUNDTRIP
360
434
  0
DICTIONARY
  5
42F
330
6A
100
AcDbDictionary
280
     1
281
     1
  3
ACAD_ROUNDTRIP_2008_TABLESTYLE_CELLSTYLEMAP
360
431
  3
ACAD_XREC_ROUNDTRIP
360
430
  0
DICTIONARY
  5
401
330
2F
100
AcDbDictionary
280
     1
281
     1
  3
ACAD_XREC_ROUNDTRIP
360
402
  0
DICTIONARY
  5
407
330
32
100
AcDbDictionary
280
     1
281
     1
  3
ACAD_XREC_ROUNDTRIP
360
408
  0
DICTIONARY
  5
40F
330
36
100
AcDbDictionary
280
     1
281
     1
  3
ACAD_XREC_ROUNDTRIP
360
410
  0
DICTIONARY
  5
417
330
3A
100
AcDbDictionary
280
     1
281
     1
  3
ACAD_XREC_ROUNDTRIP
360
418
  0
DICTIONARY
  5
40B
330
34
100
AcDbDictionary
280
     1
281
     1
  3
ACAD_XREC_ROUNDTRIP
360
40C
  0
DICTIONARY
  5
40D
330
35
100
AcDbDictionary
280
     1
281
     1
  3
ACAD_XREC_ROUNDTRIP
360
40E
  0
DICTIONARY
  5
41D
330
3D
100
AcDbDictionary
280
     1
281
     1
  3
ACAD_XREC_ROUNDTRIP
360
41E
  0
DICTIONARY
  5
415
330
39
100
AcDbDictionary
280
     1
281
     1
  3
ACAD_XREC_ROUNDTRIP
360
416
  0
DICTIONARY
  5
3F9
330
2B
100
AcDbDictionary
280
     1
281
     1
  3
ACAD_XREC_ROUNDTRIP
360
3FA
  0
DICTIONARY
  5
3FB
330
2C
100
AcDbDictionary
280
     1
281
     1
  3
ACAD_XREC_ROUNDTRIP
360
3FC
  0
DICTIONARY
  5
3FD
330
2D
100
AcDbDictionary
280
     1
281
     1
  3
ACAD_XREC_ROUNDTRIP
360
3FE
  0
DICTIONARY
  5
3FF
330
2E
100
AcDbDictionary
280
     1
281
     1
  3
ACAD_XREC_ROUNDTRIP
360
400
  0
DICTIONARY
  5
405
330
31
100
AcDbDictionary
280
     1
281
     1
  3
ACAD_XREC_ROUNDTRIP
360
406
  0
DICTIONARY
  5
419
330
3B
100
AcDbDictionary
280
     1
281
     1
  3
ACAD_XREC_ROUNDTRIP
360
41A
  0
DICTIONARY
  5
413
330
38
100
AcDbDictionary
280
     1
281
     1
  3
ACAD_XREC_ROUNDTRIP
360
414
  0
DICTIONARY
  5
41B
330
3C
100
AcDbDictionary
280
     1
281
     1
  3
ACAD_XREC_ROUNDTRIP
360
41C
  0
DICTIONARY
  5
409
330
33
100
AcDbDictionary
280
     1
281
     1
  3
ACAD_XREC_ROUNDTRIP
360
40A
  0
DICTIONARY
  5
427
330
42
100
AcDbDictionary
280
     1
281
     1
  3
ACAD_XREC_ROUNDTRIP
360
428
  0
DICTIONARY
  5
425
330
41
100
AcDbDictionary
280
     1
281
     1
  3
ACAD_XREC_ROUNDTRIP
360
426
  0
DICTIONARY
  5
41F
330
3E
100
AcDbDictionary
280
     1
281
     1
  3
ACAD_XREC_ROUNDTRIP
360
420
  0
DICTIONARY
  5
421
330
3F
100
AcDbDictionary
280
     1
281
     1
  3
ACAD_XREC_ROUNDTRIP
360
422
  0
DICTIONARY
  5
411
330
37
100
AcDbDictionary
280
     1
281
     1
  3
ACAD_XREC_ROUNDTRIP
360
412
  0
DICTIONARY
  5
403
330
30
100
AcDbDictionary
280
     1
281
     1
  3
ACAD_XREC_ROUNDTRIP
360
404
  0
DICTIONARY
  5
423
330
40
100
AcDbDictionary
280
     1
281
     1
  3
ACAD_XREC_ROUNDTRIP
360
424
  0
XRECORD
  5
42C
102
{ACAD_REACTORS
330
42B
102
}
330
42B
100
AcDbXrecord
280
     1
102
MATERIAL
148
0.0
149
0.0
149
0.0
 93
        0
 94
      127
282
     0
 72
     1
 77
     1
171
     1
175
     1
179
     1
273
     0
  0
XRECORD
  5
42A
102
{ACAD_REACTORS
330
429
102
}
330
429
100
AcDbXrecord
280
     1
102
MATERIAL
148
0.0
149
0.0
149
0.0
 93
        0
 94
      127
282
     0
 72
     1
 77
     1
171
     1
175
     1
179
     1
273
     0
  0
XRECORD
  5
42E
102
{ACAD_REACTORS
330
42D
102
}
330
42D
100
AcDbXrecord
280
     1
102
MATERIAL
148
0.0
149
0.0
149
0.0
 93
        0
 94
      127
282
     0
 72
     1
 77
     1
171
     1
175
     1
179
     1
273
     0
  0
XRECORD
  5
434
102
{ACAD_REACTORS
330
433
102
}
330
433
100
AcDbXrecord
280
     1
102
ACAD_ROUNDTRIP_2010_MLEADER_STYLE
  0
CELLSTYLEMAP
  5
431
102
{ACAD_REACTORS
330
42F
102
}
330
42F
100
AcDbCellStyleMap
 90
        3
300
CELLSTYLE
  1
TABLEFORMAT_BEGIN
 90
        5
170
     1
 91
        0
 92
    32768
 62
   257
 93
        1
300
CONTENTFORMAT
  1
CONTENTFORMAT_BEGIN
 90
        0
 91
        0
 92
        4
 93
        0
300

 40
0.0
140
1.0
 94
        5
 62
     0
340
11
144
6.0
309
CONTENTFORMAT_END
171
     1
301
MARGIN
  1
CELLMARGIN_BEGIN
 40
1.5
 40
1.5
 40
1.5
 40
1.5
 40
1.5
 40
1.5
309
CELLMARGIN_END
 94
        6
 95
        1
302
GRIDFORMAT
  1
GRIDFORMAT_BEGIN
 90
        0
 91
        1
 62
     0
 92
       -2
340
14
 93
        0
 40
0.045
309
GRIDFORMAT_END
 95
        2
302
GRIDFORMAT
  1
GRIDFORMAT_BEGIN
 90
        0
 91
        1
 62
     0
 92
       -2
340
14
 93
        0
 40
0.045
309
GRIDFORMAT_END
 95
        4
302
GRIDFORMAT
  1
GRIDFORMAT_BEGIN
 90
        0
 91
        1
 62
     0
 92
       -2
340
14
 93
        0
 40
0.045
309
GRIDFORMAT_END
 95
        8
302
GRIDFORMAT
  1
GRIDFORMAT_BEGIN
 90
        0
 91
        1
 62
     0
 92
       -2
340
14
 93
        0
 40
0.045
309
GRIDFORMAT_END
 95
       16
302
GRIDFORMAT
  1
GRIDFORMAT_BEGIN
 90
        0
 91
        1
 62
     0
 92
       -2
340
14
 93
        0
 40
0.045
309
GRIDFORMAT_END
 95
       32
302
GRIDFORMAT
  1
GRIDFORMAT_BEGIN
 90
        0
 91
        1
 62
     0
 92
       -2
340
14
 93
        0
 40
0.045
309
GRIDFORMAT_END
309
TABLEFORMAT_END
  1
CELLSTYLE_BEGIN
 90
        1
 91
        1
300
_TITLE
309
CELLSTYLE_END
300
CELLSTYLE
  1
TABLEFORMAT_BEGIN
 90
        5
170
     1
 91
        0
 92
        0
 62
   257
 93
        1
300
CONTENTFORMAT
  1
CONTENTFORMAT_BEGIN
 90
        0
 91
        0
 92
        4
 93
        0
300

 40
0.0
140
1.0
 94
        5
 62
     0
340
11
144
4.5
309
CONTENTFORMAT_END
171
     1
301
MARGIN
  1
CELLMARGIN_BEGIN
 40
1.5
 40
1.5
 40
1.5
 40
1.5
 40
1.5
 40
1.5
309
CELLMARGIN_END
 94
        6
 95
        1
302
GRIDFORMAT
  1
GRIDFORMAT_BEGIN
 90
        0
 91
        1
 62
     0
 92
       -2
340
14
 93
        0
 40
0.045
309
GRIDFORMAT_END
 95
        2
302
GRIDFORMAT
  1
GRIDFORMAT_BEGIN
 90
        0
 91
        1
 62
     0
 92
       -2
340
14
 93
        0
 40
0.045
309
GRIDFORMAT_END
 95
        4
302
GRIDFORMAT
  1
GRIDFORMAT_BEGIN
 90
        0
 91
        1
 62
     0
 92
       -2
340
14
 93
        0
 40
0.045
309
GRIDFORMAT_END
 95
        8
302
GRIDFORMAT
  1
GRIDFORMAT_BEGIN
 90
        0
 91
        1
 62
     0
 92
       -2
340
14
 93
        0
 40
0.045
309
GRIDFORMAT_END
 95
       16
302
GRIDFORMAT
  1
GRIDFORMAT_BEGIN
 90
        0
 91
        1
 62
     0
 92
       -2
340
14
 93
        0
 40
0.045
309
GRIDFORMAT_END
 95
       32
302
GRIDFORMAT
  1
GRIDFORMAT_BEGIN
 90
        0
 91
        1
 62
     0
 92
       -2
340
14
 93
        0
 40
0.045
309
GRIDFORMAT_END
309
TABLEFORMAT_END
  1
CELLSTYLE_BEGIN
 90
        2
 91
        1
300
_HEADER
309
CELLSTYLE_END
300
CELLSTYLE
  1
TABLEFORMAT_BEGIN
 90
        5
170
     1
 91
        0
 92
        0
 62
   257
 93
        1
300
CONTENTFORMAT
  1
CONTENTFORMAT_BEGIN
 90
        0
 91
        0
 92
        4
 93
        0
300

 40
0.0
140
1.0
 94
        2
 62
     0
340
11
144
4.5
309
CONTENTFORMAT_END
171
     1
301
MARGIN
  1
CELLMARGIN_BEGIN
 40
1.5
 40
1.5
 40
1.5
 40
1.5
 40
1.5
 40
1.5
309
CELLMARGIN_END
 94
        6
 95
        1
302
GRIDFORMAT
  1
GRIDFORMAT_BEGIN
 90
        0
 91
        1
 62
     0
 92
       -2
340
14
 93
        0
 40
0.045
309
GRIDFORMAT_END
 95
        2
302
GRIDFORMAT
  1
GRIDFORMAT_BEGIN
 90
        0
 91
        1
 62
     0
 92
       -2
340
14
 93
        0
 40
0.045
309
GRIDFORMAT_END
 95
        4
302
GRIDFORMAT
  1
GRIDFORMAT_BEGIN
 90
        0
 91
        1
 62
     0
 92
       -2
340
14
 93
        0
 40
0.045
309
GRIDFORMAT_END
 95
        8
302
GRIDFORMAT
  1
GRIDFORMAT_BEGIN
 90
        0
 91
        1
 62
     0
 92
       -2
340
14
 93
        0
 40
0.045
309
GRIDFORMAT_END
 95
       16
302
GRIDFORMAT
  1
GRIDFORMAT_BEGIN
 90
        0
 91
        1
 62
     0
 92
       -2
340
14
 93
        0
 40
0.045
309
GRIDFORMAT_END
 95
       32
302
GRIDFORMAT
  1
GRIDFORMAT_BEGIN
 90
        0
 91
        1
 62
     0
 92
       -2
340
14
 93
        0
 40
0.045
309
GRIDFORMAT_END
309
TABLEFORMAT_END
  1
CELLSTYLE_BEGIN
 90
        3
 91
        2
300
_DATA
309
CELLSTYLE_END
  0
XRECORD
  5
430
102
{ACAD_REACTORS
330
42F
102
}
330
42F
100
AcDbXrecord
280
     1
102
ACAD_ROUNDTRIP_PRE2007_TABLESTYLE
 90
        4
 91
        0
  1

 92
        4
 93
        0
  2

 94
        4
 95
        0
  3

  0
XRECORD
  5
402
102
{ACAD_REACTORS
330
401
102
}
330
401
100
AcDbXrecord
280
     1
102
RTVSPropertyOp0
 70
     1
102
RTVSPropertyOp1
 70
     1
102
RTVSPropertyOp2
 70
     1
102
RTVSPropertyOp3
 70
     1
102
RTVSPropertyOp4
 70
     1
102
RTVSPropertyOp5
 70
     1
102
RTVSPropertyOp6
 70
     1
102
RTVSPropertyOp7
 70
     1
102
RTVSPropertyOp8
 70
     1
102
RTVSPropertyOp9
 70
     1
102
RTVSPropertyOp10
 70
     1
102
RTVSPropertyOp11
 70
     1
102
RTVSPropertyOp12
 70
     1
102
RTVSPropertyOp13
 70
     1
102
RTVSPropertyOp14
 70
     1
102
RTVSPropertyOp15
 70
     1
102
RTVSPropertyOp16
 70
     1
102
RTVSPropertyOp17
 70
     1
102
RTVSPropertyOp18
 70
     1
102
RTVSPropertyOp19
 70
     1
102
RTVSPropertyOp20
 70
     1
102
RTVSPropertyOp21
 70
     1
102
RTVSPropertyOp22
 70
     1
102
RTVSPropertyOp23
 70
     1
102
RTVSPropertyOp24
 70
     1
102
RTVSPropertyOp25
 70
     1
102
RTVSPropertyOp26
 70
     1
102
RTVSPropertyOp27
 70
     1
102
RTVSPropertyOp28
 70
     1
102
RTVSPropertyOp29
 70
     1
102
RTVSPropertyOp30
 70
     1
102
RTVSPropertyOp31
 70
     1
102
RTVSPropertyOp32
 70
     1
102
RTVSPropertyOp33
 70
     1
102
RTVSPropertyOp34
 70
     1
102
RTVSPropertyOp35
 70
     1
102
RTVSPropertyOp36
 70
     1
102
RTVSPropertyOp37
 70
     1
102
RTVSPropertyOp38
 70
     1
102
RTVSPropertyOp39
 70
     1
102
RTVSPropertyOp40
 70
     1
102
RTVSPropertyOp41
 70
     1
102
RTVSPropertyOp42
 70
     1
102
RTVSPropertyOp43
 70
     1
102
RTVSPropertyOp44
 70
     1
102
RTVSPropertyOp45
 70
     1
102
RTVSPropertyOp46
 70
     1
102
RTVSPropertyOp47
 70
     1
102
RTVSPropertyOp48
 70
     1
102
RTVSPropertyOp49
 70
     1
102
RTVSPropertyOp50
 70
     1
102
RTVSPropertyOp51
 70
     0
102
RTVSPropertyOp52
 70
     0
102
RTVSPropertyOp53
 70
     1
102
RTVSPropertyOp54
 70
     1
102
RTVSPropertyOp55
 70
     1
102
RTVSPropertyOp56
 70
     1
102
RTVSPropertyOp57
 70
     1
102
RTVSPost2010Prop28
280
     1
102
RTVSPost2010PropOp28
 70
     1
102
RTVSPost2010Prop29
280
     1
102
RTVSPost2010PropOp29
 70
     1
102
RTVSPost2010Prop30
280
     0
102
RTVSPost2010PropOp30
 70
     1
102
RTVSPost2010Prop31
280
     0
102
RTVSPost2010PropOp31
 70
     1
102
RTVSPost2010Prop32
280
     0
102
RTVSPost2010PropOp32
 70
     1
102
RTVSPost2010Prop33
280
     0
102
RTVSPost2010PropOp33
 70
     1
102
RTVSPost2010Prop34
280
     0
102
RTVSPost2010PropOp34
 70
     1
102
RTVSPost2010Prop35
280
     0
102
RTVSPost2010PropOp35
 70
     1
102
RTVSPost2010Prop36
280
     0
102
RTVSPost2010PropOp36
 70
     1
102
RTVSPost2010Prop37
 90
       50
102
RTVSPost2010PropOp37
 70
     1
102
RTVSPost2010Prop38
140
0.0
102
RTVSPost2010PropOp38
 70
     1
102
RTVSPost2010Prop39
140
1.0
102
RTVSPost2010PropOp39
 70
     1
102
RTVSPost2010Prop40
 90
        0
102
RTVSPost2010PropOp40
 70
     1
102
RTVSPost2010Prop41ColorIndex
 90
       18
102
RTVSPost2010Prop41ColorRGB
 90
        0
102
RTVSPost2010PropOp41
 70
     1
102
RTVSPost2010Prop42
 90
       50
102
RTVSPost2010PropOp42
 70
     1
102
RTVSPost2010Prop43
 90
        3
102
RTVSPost2010PropOp43
 70
     1
102
RTVSPost2010Prop44ColorIndex
 90
        5
102
RTVSPost2010Prop44ColorRGB
 90
      255
102
RTVSPost2010PropOp44
 70
     1
102
RTVSPost2010Prop45
280
     0
102
RTVSPost2010PropOp45
 70
     1
102
RTVSPost2010Prop46
 90
       50
102
RTVSPost2010PropOp46
 70
     1
102
RTVSPost2010Prop47
 90
       50
102
RTVSPost2010PropOp47
 70
     1
102
RTVSPost2010Prop48
 90
       50
102
RTVSPost2010PropOp48
 70
     1
102
RTVSPost2010Prop49
280
     0
102
RTVSPost2010PropOp49
 70
     1
102
RTVSPost2010Prop50
 90
       50
102
RTVSPost2010PropOp50
 70
     1
102
RTVSPost2010Prop51ColorIndex
 90
      256
102
RTVSPost2010Prop51ColorRGB
 90
-16777216
102
RTVSPost2010PropOp51
 70
     0
102
RTVSPost2010Prop52
140
1.0
102
RTVSPost2010PropOp52
 70
     0
102
RTVSPost2010Prop53
 90
        2
102
RTVSPost2010PropOp53
 70
     1
102
RTVSPost2010Prop54
  1
strokes_ogs.tif
102
RTVSPost2010PropOp54
 70
     1
102
RTVSPost2010Prop55
280
     0
102
RTVSPost2010PropOp55
 70
     1
102
RTVSPost2010Prop56
140
1.0
102
RTVSPost2010PropOp56
 70
     1
102
RTVSPost2010Prop57
140
1.0
102
RTVSPost2010PropOp57
 70
     1
  0
XRECORD
  5
408
102
{ACAD_REACTORS
330
407
102
}
330
407
100
AcDbXrecord
280
     1
102
RTVSPropertyOp0
 70
     1
102
RTVSPropertyOp1
 70
     1
102
RTVSPropertyOp2
 70
     1
102
RTVSPropertyOp3
 70
     1
102
RTVSPropertyOp4
 70
     1
102
RTVSPropertyOp5
 70
     1
102
RTVSPropertyOp6
 70
     1
102
RTVSPropertyOp7
 70
     1
102
RTVSPropertyOp8
 70
     1
102
RTVSPropertyOp9
 70
     1
102
RTVSPropertyOp10
 70
     1
102
RTVSPropertyOp11
 70
     1
102
RTVSPropertyOp12
 70
     1
102
RTVSPropertyOp13
 70
     1
102
RTVSPropertyOp14
 70
     1
102
RTVSPropertyOp15
 70
     1
102
RTVSPropertyOp16
 70
     1
102
RTVSPropertyOp17
 70
     1
102
RTVSPropertyOp18
 70
     1
102
RTVSPropertyOp19
 70
     1
102
RTVSPropertyOp20
 70
     1
102
RTVSPropertyOp21
 70
     1
102
RTVSPropertyOp22
 70
     1
102
RTVSPropertyOp23
 70
     1
102
RTVSPropertyOp24
 70
     1
102
RTVSPropertyOp25
 70
     1
102
RTVSPropertyOp26
 70
     1
102
RTVSPropertyOp27
 70
     1
102
RTVSPropertyOp28
 70
     1
102
RTVSPropertyOp29
 70
     1
102
RTVSPropertyOp30
 70
     1
102
RTVSPropertyOp31
 70
     1
102
RTVSPropertyOp32
 70
     1
102
RTVSPropertyOp33
 70
     1
102
RTVSPropertyOp34
 70
     1
102
RTVSPropertyOp35
 70
     1
102
RTVSPropertyOp36
 70
     1
102
RTVSPropertyOp37
 70
     1
102
RTVSPropertyOp38
 70
     1
102
RTVSPropertyOp39
 70
     1
102
RTVSPropertyOp40
 70
     1
102
RTVSPropertyOp41
 70
     1
102
RTVSPropertyOp42
 70
     1
102
RTVSPropertyOp43
 70
     1
102
RTVSPropertyOp44
 70
     1
102
RTVSPropertyOp45
 70
     1
102
RTVSPropertyOp46
 70
     1
102
RTVSPropertyOp47
 70
     1
102
RTVSPropertyOp48
 70
     1
102
RTVSPropertyOp49
 70
     1
102
RTVSPropertyOp50
 70
     1
102
RTVSPropertyOp51
 70
     0
102
RTVSPropertyOp52
 70
     0
102
RTVSPropertyOp53
 70
     1
102
RTVSPropertyOp54
 70
     1
102
RTVSPropertyOp55
 70
     1
102
RTVSPropertyOp56
 70
     1
102
RTVSPropertyOp57
 70
     1
102
RTVSPost2010Prop28
280
     0
102
RTVSPost2010PropOp28
 70
     1
102
RTVSPost2010Prop29
280
     1
102
RTVSPost2010PropOp29
 70
     1
102
RTVSPost2010Prop30
280
     1
102
RTVSPost2010PropOp30
 70
     1
102
RTVSPost2010Prop31
280
     0
102
RTVSPost2010PropOp31
 70
     1
102
RTVSPost2010Prop32
280
     0
102
RTVSPost2010PropOp32
 70
     1
102
RTVSPost2010Prop33
280
     0
102
RTVSPost2010PropOp33
 70
     1
102
RTVSPost2010Prop34
280
     0
102
RTVSPost2010PropOp34
 70
     1
102
RTVSPost2010Prop35
280
     0
102
RTVSPost2010PropOp35
 70
     1
102
RTVSPost2010Prop36
280
     0
102
RTVSPost2010PropOp36
 70
     1
102
RTVSPost2010Prop37
 90
       50
102
RTVSPost2010PropOp37
 70
     1
102
RTVSPost2010Prop38
140
0.0
102
RTVSPost2010PropOp38
 70
     1
102
RTVSPost2010Prop39
140
1.0
102
RTVSPost2010PropOp39
 70
     1
102
RTVSPost2010Prop40
 90
        0
102
RTVSPost2010PropOp40
 70
     1
102
RTVSPost2010Prop41ColorIndex
 90
       18
102
RTVSPost2010Prop41ColorRGB
 90
        0
102
RTVSPost2010PropOp41
 70
     1
102
RTVSPost2010Prop42
 90
       50
102
RTVSPost2010PropOp42
 70
     1
102
RTVSPost2010Prop43
 90
        3
102
RTVSPost2010PropOp43
 70
     1
102
RTVSPost2010Prop44ColorIndex
 90
        5
102
RTVSPost2010Prop44ColorRGB
 90
      255
102
RTVSPost2010PropOp44
 70
     1
102
RTVSPost2010Prop45
280
     0
102
RTVSPost2010PropOp45
 70
     1
102
RTVSPost2010Prop46
 90
       50
102
RTVSPost2010PropOp46
 70
     1
102
RTVSPost2010Prop47
 90
       50
102
RTVSPost2010PropOp47
 70
     1
102
RTVSPost2010Prop48
 90
       50
102
RTVSPost2010PropOp48
 70
     1
102
RTVSPost2010Prop49
280
     0
102
RTVSPost2010PropOp49
 70
     1
102
RTVSPost2010Prop50
 90
       50
102
RTVSPost2010PropOp50
 70
     1
102
RTVSPost2010Prop51ColorIndex
 90
      256
102
RTVSPost2010Prop51ColorRGB
 90
-16777216
102
RTVSPost2010PropOp51
 70
     0
102
RTVSPost2010Prop52
140
1.0
102
RTVSPost2010PropOp52
 70
     0
102
RTVSPost2010Prop53
 90
        2
102
RTVSPost2010PropOp53
 70
     1
102
RTVSPost2010Prop54
  1
strokes_ogs.tif
102
RTVSPost2010PropOp54
 70
     1
102
RTVSPost2010Prop55
280
     0
102
RTVSPost2010PropOp55
 70
     1
102
RTVSPost2010Prop56
140
1.0
102
RTVSPost2010PropOp56
 70
     1
102
RTVSPost2010Prop57
140
1.0
102
RTVSPost2010PropOp57
 70
     1
  0
XRECORD
  5
410
102
{ACAD_REACTORS
330
40F
102
}
330
40F
100
AcDbXrecord
280
     1
102
RTVSPropertyOp0
 70
     1
102
RTVSPropertyOp1
 70
     1
102
RTVSPropertyOp2
 70
     1
102
RTVSPropertyOp3
 70
     1
102
RTVSPropertyOp4
 70
     1
102
RTVSPropertyOp5
 70
     1
102
RTVSPropertyOp6
 70
     1
102
RTVSPropertyOp7
 70
     1
102
RTVSPropertyOp8
 70
     1
102
RTVSPropertyOp9
 70
     1
102
RTVSPropertyOp10
 70
     1
102
RTVSPropertyOp11
 70
     1
102
RTVSPropertyOp12
 70
     1
102
RTVSPropertyOp13
 70
     1
102
RTVSPropertyOp14
 70
     1
102
RTVSPropertyOp15
 70
     1
102
RTVSPropertyOp16
 70
     1
102
RTVSPropertyOp17
 70
     1
102
RTVSPropertyOp18
 70
     1
102
RTVSPropertyOp19
 70
     1
102
RTVSPropertyOp20
 70
     1
102
RTVSPropertyOp21
 70
     1
102
RTVSPropertyOp22
 70
     1
102
RTVSPropertyOp23
 70
     1
102
RTVSPropertyOp24
 70
     1
102
RTVSPropertyOp25
 70
     1
102
RTVSPropertyOp26
 70
     1
102
RTVSPropertyOp27
 70
     1
102
RTVSPropertyOp28
 70
     1
102
RTVSPropertyOp29
 70
     1
102
RTVSPropertyOp30
 70
     1
102
RTVSPropertyOp31
 70
     1
102
RTVSPropertyOp32
 70
     1
102
RTVSPropertyOp33
 70
     1
102
RTVSPropertyOp34
 70
     1
102
RTVSPropertyOp35
 70
     1
102
RTVSPropertyOp36
 70
     1
102
RTVSPropertyOp37
 70
     1
102
RTVSPropertyOp38
 70
     1
102
RTVSPropertyOp39
 70
     1
102
RTVSPropertyOp40
 70
     1
102
RTVSPropertyOp41
 70
     1
102
RTVSPropertyOp42
 70
     1
102
RTVSPropertyOp43
 70
     1
102
RTVSPropertyOp44
 70
     1
102
RTVSPropertyOp45
 70
     1
102
RTVSPropertyOp46
 70
     1
102
RTVSPropertyOp47
 70
     1
102
RTVSPropertyOp48
 70
     1
102
RTVSPropertyOp49
 70
     1
102
RTVSPropertyOp50
 70
     1
102
RTVSPropertyOp51
 70
     0
102
RTVSPropertyOp52
 70
     0
102
RTVSPropertyOp53
 70
     1
102
RTVSPropertyOp54
 70
     1
102
RTVSPropertyOp55
 70
     1
102
RTVSPropertyOp56
 70
     1
102
RTVSPropertyOp57
 70
     1
102
RTVSPost2010Prop28
280
     0
102
RTVSPost2010PropOp28
 70
     1
102
RTVSPost2010Prop29
280
     1
102
RTVSPost2010PropOp29
 70
     1
102
RTVSPost2010Prop30
280
     1
102
RTVSPost2010PropOp30
 70
     1
102
RTVSPost2010Prop31
280
     0
102
RTVSPost2010PropOp31
 70
     1
102
RTVSPost2010Prop32
280
     0
102
RTVSPost2010PropOp32
 70
     1
102
RTVSPost2010Prop33
280
     0
102
RTVSPost2010PropOp33
 70
     1
102
RTVSPost2010Prop34
280
     0
102
RTVSPost2010PropOp34
 70
     1
102
RTVSPost2010Prop35
280
     0
102
RTVSPost2010PropOp35
 70
     1
102
RTVSPost2010Prop36
280
     0
102
RTVSPost2010PropOp36
 70
     1
102
RTVSPost2010Prop37
 90
       50
102
RTVSPost2010PropOp37
 70
     1
102
RTVSPost2010Prop38
140
0.0
102
RTVSPost2010PropOp38
 70
     1
102
RTVSPost2010Prop39
140
1.0
102
RTVSPost2010PropOp39
 70
     1
102
RTVSPost2010Prop40
 90
        0
102
RTVSPost2010PropOp40
 70
     1
102
RTVSPost2010Prop41ColorIndex
 90
       18
102
RTVSPost2010Prop41ColorRGB
 90
        0
102
RTVSPost2010PropOp41
 70
     1
102
RTVSPost2010Prop42
 90
       50
102
RTVSPost2010PropOp42
 70
     1
102
RTVSPost2010Prop43
 90
        3
102
RTVSPost2010PropOp43
 70
     1
102
RTVSPost2010Prop44ColorIndex
 90
        5
102
RTVSPost2010Prop44ColorRGB
 90
      255
102
RTVSPost2010PropOp44
 70
     1
102
RTVSPost2010Prop45
280
     0
102
RTVSPost2010PropOp45
 70
     1
102
RTVSPost2010Prop46
 90
       50
102
RTVSPost2010PropOp46
 70
     1
102
RTVSPost2010Prop47
 90
       50
102
RTVSPost2010PropOp47
 70
     1
102
RTVSPost2010Prop48
 90
       50
102
RTVSPost2010PropOp48
 70
     1
102
RTVSPost2010Prop49
280
     0
102
RTVSPost2010PropOp49
 70
     1
102
RTVSPost2010Prop50
 90
       50
102
RTVSPost2010PropOp50
 70
     1
102
RTVSPost2010Prop51ColorIndex
 90
      256
102
RTVSPost2010Prop51ColorRGB
 90
-16777216
102
RTVSPost2010PropOp51
 70
     0
102
RTVSPost2010Prop52
140
1.0
102
RTVSPost2010PropOp52
 70
     0
102
RTVSPost2010Prop53
 90
        2
102
RTVSPost2010PropOp53
 70
     1
102
RTVSPost2010Prop54
  1
strokes_ogs.tif
102
RTVSPost2010PropOp54
 70
     1
102
RTVSPost2010Prop55
280
     0
102
RTVSPost2010PropOp55
 70
     1
102
RTVSPost2010Prop56
140
1.0
102
RTVSPost2010PropOp56
 70
     1
102
RTVSPost2010Prop57
140
1.0
102
RTVSPost2010PropOp57
 70
     1
  0
XRECORD
  5
418
102
{ACAD_REACTORS
330
417
102
}
330
417
100
AcDbXrecord
280
     1
102
RTVSPropertyOp0
 70
     1
102
RTVSPropertyOp1
 70
     1
102
RTVSPropertyOp2
 70
     1
102
RTVSPropertyOp3
 70
     1
102
RTVSPropertyOp4
 70
     1
102
RTVSPropertyOp5
 70
     1
102
RTVSPropertyOp6
 70
     1
102
RTVSPropertyOp7
 70
     1
102
RTVSPropertyOp8
 70
     1
102
RTVSPropertyOp9
 70
     1
102
RTVSPropertyOp10
 70
     1
102
RTVSPropertyOp11
 70
     1
102
RTVSPropertyOp12
 70
     1
102
RTVSPropertyOp13
 70
     1
102
RTVSPropertyOp14
 70
     1
102
RTVSPropertyOp15
 70
     1
102
RTVSPropertyOp16
 70
     1
102
RTVSPropertyOp17
 70
     1
102
RTVSPropertyOp18
 70
     1
102
RTVSPropertyOp19
 70
     1
102
RTVSPropertyOp20
 70
     1
102
RTVSPropertyOp21
 70
     1
102
RTVSPropertyOp22
 70
     1
102
RTVSPropertyOp23
 70
     1
102
RTVSPropertyOp24
 70
     1
102
RTVSPropertyOp25
 70
     1
102
RTVSPropertyOp26
 70
     1
102
RTVSPropertyOp27
 70
     1
102
RTVSPropertyOp28
 70
     1
102
RTVSPropertyOp29
 70
     1
102
RTVSPropertyOp30
 70
     1
102
RTVSPropertyOp31
 70
     1
102
RTVSPropertyOp32
 70
     1
102
RTVSPropertyOp33
 70
     1
102
RTVSPropertyOp34
 70
     1
102
RTVSPropertyOp35
 70
     1
102
RTVSPropertyOp36
 70
     1
102
RTVSPropertyOp37
 70
     1
102
RTVSPropertyOp38
 70
     1
102
RTVSPropertyOp39
 70
     1
102
RTVSPropertyOp40
 70
     1
102
RTVSPropertyOp41
 70
     1
102
RTVSPropertyOp42
 70
     1
102
RTVSPropertyOp43
 70
     1
102
RTVSPropertyOp44
 70
     1
102
RTVSPropertyOp45
 70
     1
102
RTVSPropertyOp46
 70
     1
102
RTVSPropertyOp47
 70
     1
102
RTVSPropertyOp48
 70
     1
102
RTVSPropertyOp49
 70
     1
102
RTVSPropertyOp50
 70
     1
102
RTVSPropertyOp51
 70
     0
102
RTVSPropertyOp52
 70
     0
102
RTVSPropertyOp53
 70
     1
102
RTVSPropertyOp54
 70
     1
102
RTVSPropertyOp55
 70
     1
102
RTVSPropertyOp56
 70
     1
102
RTVSPropertyOp57
 70
     1
102
RTVSPost2010Prop28
280
     0
102
RTVSPost2010PropOp28
 70
     1
102
RTVSPost2010Prop29
280
     1
102
RTVSPost2010PropOp29
 70
     1
102
RTVSPost2010Prop30
280
     1
102
RTVSPost2010PropOp30
 70
     1
102
RTVSPost2010Prop31
280
     0
102
RTVSPost2010PropOp31
 70
     1
102
RTVSPost2010Prop32
280
     0
102
RTVSPost2010PropOp32
 70
     1
102
RTVSPost2010Prop33
280
     0
102
RTVSPost2010PropOp33
 70
     1
102
RTVSPost2010Prop34
280
     0
102
RTVSPost2010PropOp34
 70
     1
102
RTVSPost2010Prop35
280
     0
102
RTVSPost2010PropOp35
 70
     1
102
RTVSPost2010Prop36
280
     0
102
RTVSPost2010PropOp36
 70
     1
102
RTVSPost2010Prop37
 90
       50
102
RTVSPost2010PropOp37
 70
     1
102
RTVSPost2010Prop38
140
0.0
102
RTVSPost2010PropOp38
 70
     1
102
RTVSPost2010Prop39
140
1.0
102
RTVSPost2010PropOp39
 70
     1
102
RTVSPost2010Prop40
 90
        0
102
RTVSPost2010PropOp40
 70
     1
102
RTVSPost2010Prop41ColorIndex
 90
       18
102
RTVSPost2010Prop41ColorRGB
 90
        0
102
RTVSPost2010PropOp41
 70
     1
102
RTVSPost2010Prop42
 90
       50
102
RTVSPost2010PropOp42
 70
     1
102
RTVSPost2010Prop43
 90
        3
102
RTVSPost2010PropOp43
 70
     1
102
RTVSPost2010Prop44ColorIndex
 90
        5
102
RTVSPost2010Prop44ColorRGB
 90
      255
102
RTVSPost2010PropOp44
 70
     1
102
RTVSPost2010Prop45
280
     0
102
RTVSPost2010PropOp45
 70
     1
102
RTVSPost2010Prop46
 90
       50
102
RTVSPost2010PropOp46
 70
     1
102
RTVSPost2010Prop47
 90
       50
102
RTVSPost2010PropOp47
 70
     1
102
RTVSPost2010Prop48
 90
       50
102
RTVSPost2010PropOp48
 70
     1
102
RTVSPost2010Prop49
280
     0
102
RTVSPost2010PropOp49
 70
     1
102
RTVSPost2010Prop50
 90
       50
102
RTVSPost2010PropOp50
 70
     1
102
RTVSPost2010Prop51ColorIndex
 90
      256
102
RTVSPost2010Prop51ColorRGB
 90
-16777216
102
RTVSPost2010PropOp51
 70
     0
102
RTVSPost2010Prop52
140
1.0
102
RTVSPost2010PropOp52
 70
     0
102
RTVSPost2010Prop53
 90
        2
102
RTVSPost2010PropOp53
 70
     1
102
RTVSPost2010Prop54
  1
strokes_ogs.tif
102
RTVSPost2010PropOp54
 70
     1
102
RTVSPost2010Prop55
280
     0
102
RTVSPost2010PropOp55
 70
     1
102
RTVSPost2010Prop56
140
1.0
102
RTVSPost2010PropOp56
 70
     1
102
RTVSPost2010Prop57
140
1.0
102
RTVSPost2010PropOp57
 70
     1
  0
XRECORD
  5
40C
102
{ACAD_REACTORS
330
40B
102
}
330
40B
100
AcDbXrecord
280
     1
102
RTVSPropertyOp0
 70
     1
102
RTVSPropertyOp1
 70
     1
102
RTVSPropertyOp2
 70
     1
102
RTVSPropertyOp3
 70
     1
102
RTVSPropertyOp4
 70
     1
102
RTVSPropertyOp5
 70
     1
102
RTVSPropertyOp6
 70
     1
102
RTVSPropertyOp7
 70
     1
102
RTVSPropertyOp8
 70
     1
102
RTVSPropertyOp9
 70
     1
102
RTVSPropertyOp10
 70
     1
102
RTVSPropertyOp11
 70
     1
102
RTVSPropertyOp12
 70
     1
102
RTVSPropertyOp13
 70
     1
102
RTVSPropertyOp14
 70
     1
102
RTVSPropertyOp15
 70
     1
102
RTVSPropertyOp16
 70
     1
102
RTVSPropertyOp17
 70
     1
102
RTVSPropertyOp18
 70
     1
102
RTVSPropertyOp19
 70
     1
102
RTVSPropertyOp20
 70
     1
102
RTVSPropertyOp21
 70
     1
102
RTVSPropertyOp22
 70
     1
102
RTVSPropertyOp23
 70
     1
102
RTVSPropertyOp24
 70
     1
102
RTVSPropertyOp25
 70
     1
102
RTVSPropertyOp26
 70
     1
102
RTVSPropertyOp27
 70
     1
102
RTVSPropertyOp28
 70
     1
102
RTVSPropertyOp29
 70
     1
102
RTVSPropertyOp30
 70
     1
102
RTVSPropertyOp31
 70
     1
102
RTVSPropertyOp32
 70
     1
102
RTVSPropertyOp33
 70
     1
102
RTVSPropertyOp34
 70
     1
102
RTVSPropertyOp35
 70
     1
102
RTVSPropertyOp36
 70
     1
102
RTVSPropertyOp37
 70
     1
102
RTVSPropertyOp38
 70
     1
102
RTVSPropertyOp39
 70
     1
102
RTVSPropertyOp40
 70
     1
102
RTVSPropertyOp41
 70
     1
102
RTVSPropertyOp42
 70
     1
102
RTVSPropertyOp43
 70
     1
102
RTVSPropertyOp44
 70
     1
102
RTVSPropertyOp45
 70
     1
102
RTVSPropertyOp46
 70
     1
102
RTVSPropertyOp47
 70
     1
102
RTVSPropertyOp48
 70
     1
102
RTVSPropertyOp49
 70
     1
102
RTVSPropertyOp50
 70
     1
102
RTVSPropertyOp51
 70
     0
102
RTVSPropertyOp52
 70
     0
102
RTVSPropertyOp53
 70
     1
102
RTVSPropertyOp54
 70
     1
102
RTVSPropertyOp55
 70
     1
102
RTVSPropertyOp56
 70
     1
102
RTVSPropertyOp57
 70
     1
102
RTVSPost2010Prop28
280
     0
102
RTVSPost2010PropOp28
 70
     1
102
RTVSPost2010Prop29
280
     1
102
RTVSPost2010PropOp29
 70
     1
102
RTVSPost2010Prop30
280
     1
102
RTVSPost2010PropOp30
 70
     1
102
RTVSPost2010Prop31
280
     0
102
RTVSPost2010PropOp31
 70
     1
102
RTVSPost2010Prop32
280
     0
102
RTVSPost2010PropOp32
 70
     1
102
RTVSPost2010Prop33
280
     0
102
RTVSPost2010PropOp33
 70
     1
102
RTVSPost2010Prop34
280
     0
102
RTVSPost2010PropOp34
 70
     1
102
RTVSPost2010Prop35
280
     0
102
RTVSPost2010PropOp35
 70
     1
102
RTVSPost2010Prop36
280
     0
102
RTVSPost2010PropOp36
 70
     1
102
RTVSPost2010Prop37
 90
       50
102
RTVSPost2010PropOp37
 70
     1
102
RTVSPost2010Prop38
140
0.0
102
RTVSPost2010PropOp38
 70
     1
102
RTVSPost2010Prop39
140
1.0
102
RTVSPost2010PropOp39
 70
     1
102
RTVSPost2010Prop40
 90
        0
102
RTVSPost2010PropOp40
 70
     1
102
RTVSPost2010Prop41ColorIndex
 90
       18
102
RTVSPost2010Prop41ColorRGB
 90
        0
102
RTVSPost2010PropOp41
 70
     1
102
RTVSPost2010Prop42
 90
       50
102
RTVSPost2010PropOp42
 70
     1
102
RTVSPost2010Prop43
 90
        3
102
RTVSPost2010PropOp43
 70
     1
102
RTVSPost2010Prop44ColorIndex
 90
        5
102
RTVSPost2010Prop44ColorRGB
 90
      255
102
RTVSPost2010PropOp44
 70
     1
102
RTVSPost2010Prop45
280
     0
102
RTVSPost2010PropOp45
 70
     1
102
RTVSPost2010Prop46
 90
       50
102
RTVSPost2010PropOp46
 70
     1
102
RTVSPost2010Prop47
 90
       50
102
RTVSPost2010PropOp47
 70
     1
102
RTVSPost2010Prop48
 90
       50
102
RTVSPost2010PropOp48
 70
     1
102
RTVSPost2010Prop49
280
     0
102
RTVSPost2010PropOp49
 70
     1
102
RTVSPost2010Prop50
 90
       50
102
RTVSPost2010PropOp50
 70
     1
102
RTVSPost2010Prop51ColorIndex
 90
      256
102
RTVSPost2010Prop51ColorRGB
 90
-16777216
102
RTVSPost2010PropOp51
 70
     0
102
RTVSPost2010Prop52
140
1.0
102
RTVSPost2010PropOp52
 70
     0
102
RTVSPost2010Prop53
 90
        2
102
RTVSPost2010PropOp53
 70
     1
102
RTVSPost2010Prop54
  1
strokes_ogs.tif
102
RTVSPost2010PropOp54
 70
     1
102
RTVSPost2010Prop55
280
     0
102
RTVSPost2010PropOp55
 70
     1
102
RTVSPost2010Prop56
140
1.0
102
RTVSPost2010PropOp56
 70
     1
102
RTVSPost2010Prop57
140
1.0
102
RTVSPost2010PropOp57
 70
     1
  0
XRECORD
  5
40E
102
{ACAD_REACTORS
330
40D
102
}
330
40D
100
AcDbXrecord
280
     1
102
RTVSPropertyOp0
 70
     1
102
RTVSPropertyOp1
 70
     1
102
RTVSPropertyOp2
 70
     1
102
RTVSPropertyOp3
 70
     1
102
RTVSPropertyOp4
 70
     1
102
RTVSPropertyOp5
 70
     1
102
RTVSPropertyOp6
 70
     1
102
RTVSPropertyOp7
 70
     1
102
RTVSPropertyOp8
 70
     1
102
RTVSPropertyOp9
 70
     1
102
RTVSPropertyOp10
 70
     1
102
RTVSPropertyOp11
 70
     1
102
RTVSPropertyOp12
 70
     1
102
RTVSPropertyOp13
 70
     1
102
RTVSPropertyOp14
 70
     1
102
RTVSPropertyOp15
 70
     1
102
RTVSPropertyOp16
 70
     1
102
RTVSPropertyOp17
 70
     1
102
RTVSPropertyOp18
 70
     1
102
RTVSPropertyOp19
 70
     1
102
RTVSPropertyOp20
 70
     1
102
RTVSPropertyOp21
 70
     1
102
RTVSPropertyOp22
 70
     1
102
RTVSPropertyOp23
 70
     1
102
RTVSPropertyOp24
 70
     1
102
RTVSPropertyOp25
 70
     1
102
RTVSPropertyOp26
 70
     1
102
RTVSPropertyOp27
 70
     1
102
RTVSPropertyOp28
 70
     1
102
RTVSPropertyOp29
 70
     1
102
RTVSPropertyOp30
 70
     1
102
RTVSPropertyOp31
 70
     1
102
RTVSPropertyOp32
 70
     1
102
RTVSPropertyOp33
 70
     1
102
RTVSPropertyOp34
 70
     1
102
RTVSPropertyOp35
 70
     1
102
RTVSPropertyOp36
 70
     1
102
RTVSPropertyOp37
 70
     1
102
RTVSPropertyOp38
 70
     1
102
RTVSPropertyOp39
 70
     1
102
RTVSPropertyOp40
 70
     1
102
RTVSPropertyOp41
 70
     1
102
RTVSPropertyOp42
 70
     1
102
RTVSPropertyOp43
 70
     1
102
RTVSPropertyOp44
 70
     1
102
RTVSPropertyOp45
 70
     1
102
RTVSPropertyOp46
 70
     1
102
RTVSPropertyOp47
 70
     1
102
RTVSPropertyOp48
 70
     1
102
RTVSPropertyOp49
 70
     1
102
RTVSPropertyOp50
 70
     1
102
RTVSPropertyOp51
 70
     0
102
RTVSPropertyOp52
 70
     0
102
RTVSPropertyOp53
 70
     1
102
RTVSPropertyOp54
 70
     1
102
RTVSPropertyOp55
 70
     1
102
RTVSPropertyOp56
 70
     1
102
RTVSPropertyOp57
 70
     1
102
RTVSPost2010Prop28
280
     0
102
RTVSPost2010PropOp28
 70
     1
102
RTVSPost2010Prop29
280
     1
102
RTVSPost2010PropOp29
 70
     1
102
RTVSPost2010Prop30
280
     1
102
RTVSPost2010PropOp30
 70
     1
102
RTVSPost2010Prop31
280
     0
102
RTVSPost2010PropOp31
 70
     1
102
RTVSPost2010Prop32
280
     0
102
RTVSPost2010PropOp32
 70
     1
102
RTVSPost2010Prop33
280
     0
102
RTVSPost2010PropOp33
 70
     1
102
RTVSPost2010Prop34
280
     0
102
RTVSPost2010PropOp34
 70
     1
102
RTVSPost2010Prop35
280
     0
102
RTVSPost2010PropOp35
 70
     1
102
RTVSPost2010Prop36
280
     0
102
RTVSPost2010PropOp36
 70
     1
102
RTVSPost2010Prop37
 90
       50
102
RTVSPost2010PropOp37
 70
     1
102
RTVSPost2010Prop38
140
0.0
102
RTVSPost2010PropOp38
 70
     1
102
RTVSPost2010Prop39
140
1.0
102
RTVSPost2010PropOp39
 70
     1
102
RTVSPost2010Prop40
 90
        0
102
RTVSPost2010PropOp40
 70
     1
102
RTVSPost2010Prop41ColorIndex
 90
       18
102
RTVSPost2010Prop41ColorRGB
 90
        0
102
RTVSPost2010PropOp41
 70
     1
102
RTVSPost2010Prop42
 90
       50
102
RTVSPost2010PropOp42
 70
     1
102
RTVSPost2010Prop43
 90
        3
102
RTVSPost2010PropOp43
 70
     1
102
RTVSPost2010Prop44ColorIndex
 90
        5
102
RTVSPost2010Prop44ColorRGB
 90
      255
102
RTVSPost2010PropOp44
 70
     1
102
RTVSPost2010Prop45
280
     0
102
RTVSPost2010PropOp45
 70
     1
102
RTVSPost2010Prop46
 90
       50
102
RTVSPost2010PropOp46
 70
     1
102
RTVSPost2010Prop47
 90
       50
102
RTVSPost2010PropOp47
 70
     1
102
RTVSPost2010Prop48
 90
       50
102
RTVSPost2010PropOp48
 70
     1
102
RTVSPost2010Prop49
280
     0
102
RTVSPost2010PropOp49
 70
     1
102
RTVSPost2010Prop50
 90
       50
102
RTVSPost2010PropOp50
 70
     1
102
RTVSPost2010Prop51ColorIndex
 90
      256
102
RTVSPost2010Prop51ColorRGB
 90
-16777216
102
RTVSPost2010PropOp51
 70
     0
102
RTVSPost2010Prop52
140
1.0
102
RTVSPost2010PropOp52
 70
     0
102
RTVSPost2010Prop53
 90
        2
102
RTVSPost2010PropOp53
 70
     1
102
RTVSPost2010Prop54
  1
strokes_ogs.tif
102
RTVSPost2010PropOp54
 70
     1
102
RTVSPost2010Prop55
280
     0
102
RTVSPost2010PropOp55
 70
     1
102
RTVSPost2010Prop56
140
1.0
102
RTVSPost2010PropOp56
 70
     1
102
RTVSPost2010Prop57
140
1.0
102
RTVSPost2010PropOp57
 70
     1
  0
XRECORD
  5
41E
102
{ACAD_REACTORS
330
41D
102
}
330
41D
100
AcDbXrecord
280
     1
102
RTVSPropertyOp0
 70
     0
102
RTVSPropertyOp1
 70
     0
102
RTVSPropertyOp2
 70
     0
102
RTVSPropertyOp3
 70
     0
102
RTVSPropertyOp4
 70
     0
102
RTVSPropertyOp5
 70
     0
102
RTVSPropertyOp6
 70
     0
102
RTVSPropertyOp7
 70
     0
102
RTVSPropertyOp8
 70
     0
102
RTVSPropertyOp9
 70
     0
102
RTVSPropertyOp10
 70
     0
102
RTVSPropertyOp11
 70
     0
102
RTVSPropertyOp12
 70
     0
102
RTVSPropertyOp13
 70
     0
102
RTVSPropertyOp14
 70
     2
102
RTVSPropertyOp15
 70
     0
102
RTVSPropertyOp16
 70
     0
102
RTVSPropertyOp17
 70
     0
102
RTVSPropertyOp18
 70
     0
102
RTVSPropertyOp19
 70
     0
102
RTVSPropertyOp20
 70
     0
102
RTVSPropertyOp21
 70
     0
102
RTVSPropertyOp22
 70
     0
102
RTVSPropertyOp23
 70
     0
102
RTVSPropertyOp24
 70
     0
102
RTVSPropertyOp25
 70
     0
102
RTVSPropertyOp26
 70
     0
102
RTVSPropertyOp27
 70
     0
102
RTVSPropertyOp28
 70
     0
102
RTVSPropertyOp29
 70
     0
102
RTVSPropertyOp30
 70
     0
102
RTVSPropertyOp31
 70
     0
102
RTVSPropertyOp32
 70
     0
102
RTVSPropertyOp33
 70
     0
102
RTVSPropertyOp34
 70
     0
102
RTVSPropertyOp35
 70
     0
102
RTVSPropertyOp36
 70
     0
102
RTVSPropertyOp37
 70
     0
102
RTVSPropertyOp38
 70
     0
102
RTVSPropertyOp39
 70
     0
102
RTVSPropertyOp40
 70
     0
102
RTVSPropertyOp41
 70
     0
102
RTVSPropertyOp42
 70
     0
102
RTVSPropertyOp43
 70
     0
102
RTVSPropertyOp44
 70
     0
102
RTVSPropertyOp45
 70
     0
102
RTVSPropertyOp46
 70
     0
102
RTVSPropertyOp47
 70
     0
102
RTVSPropertyOp48
 70
     0
102
RTVSPropertyOp49
 70
     0
102
RTVSPropertyOp50
 70
     0
102
RTVSPropertyOp51
 70
     0
102
RTVSPropertyOp52
 70
     0
102
RTVSPropertyOp53
 70
     0
102
RTVSPropertyOp54
 70
     0
102
RTVSPropertyOp55
 70
     0
102
RTVSPropertyOp56
 70
     0
102
RTVSPropertyOp57
 70
     0
102
RTVSPost2010Prop28
280
     0
102
RTVSPost2010PropOp28
 70
     0
102
RTVSPost2010Prop29
280
     1
102
RTVSPost2010PropOp29
 70
     0
102
RTVSPost2010Prop30
280
     1
102
RTVSPost2010PropOp30
 70
     0
102
RTVSPost2010Prop31
280
     0
102
RTVSPost2010PropOp31
 70
     0
102
RTVSPost2010Prop32
280
     0
102
RTVSPost2010PropOp32
 70
     0
102
RTVSPost2010Prop33
280
     0
102
RTVSPost2010PropOp33
 70
     0
102
RTVSPost2010Prop34
280
     0
102
RTVSPost2010PropOp34
 70
     0
102
RTVSPost2010Prop35
280
     0
102
RTVSPost2010PropOp35
 70
     0
102
RTVSPost2010Prop36
280
     0
102
RTVSPost2010PropOp36
 70
     0
102
RTVSPost2010Prop37
 90
       50
102
RTVSPost2010PropOp37
 70
     0
102
RTVSPost2010Prop38
140
0.0
102
RTVSPost2010PropOp38
 70
     0
102
RTVSPost2010Prop39
140
1.0
102
RTVSPost2010PropOp39
 70
     0
102
RTVSPost2010Prop40
 90
        0
102
RTVSPost2010PropOp40
 70
     0
102
RTVSPost2010Prop41ColorIndex
 90
       18
102
RTVSPost2010Prop41ColorRGB
 90
        0
102
RTVSPost2010PropOp41
 70
     0
102
RTVSPost2010Prop42
 90
       50
102
RTVSPost2010PropOp42
 70
     0
102
RTVSPost2010Prop43
 90
        3
102
RTVSPost2010PropOp43
 70
     0
102
RTVSPost2010Prop44ColorIndex
 90
        5
102
RTVSPost2010Prop44ColorRGB
 90
      255
102
RTVSPost2010PropOp44
 70
     0
102
RTVSPost2010Prop45
280
     0
102
RTVSPost2010PropOp45
 70
     0
102
RTVSPost2010Prop46
 90
       50
102
RTVSPost2010PropOp46
 70
     0
102
RTVSPost2010Prop47
 90
       50
102
RTVSPost2010PropOp47
 70
     0
102
RTVSPost2010Prop48
 90
       50
102
RTVSPost2010PropOp48
 70
     0
102
RTVSPost2010Prop49
280
     0
102
RTVSPost2010PropOp49
 70
     0
102
RTVSPost2010Prop50
 90
       50
102
RTVSPost2010PropOp50
 70
     0
102
RTVSPost2010Prop51ColorIndex
 90
      256
102
RTVSPost2010Prop51ColorRGB
 90
-16777216
102
RTVSPost2010PropOp51
 70
     0
102
RTVSPost2010Prop52
140
1.0
102
RTVSPost2010PropOp52
 70
     0
102
RTVSPost2010Prop53
 90
        2
102
RTVSPost2010PropOp53
 70
     0
102
RTVSPost2010Prop54
  1
strokes_ogs.tif
102
RTVSPost2010PropOp54
 70
     0
102
RTVSPost2010Prop55
280
     0
102
RTVSPost2010PropOp55
 70
     0
102
RTVSPost2010Prop56
140
1.0
102
RTVSPost2010PropOp56
 70
     0
102
RTVSPost2010Prop57
140
1.0
102
RTVSPost2010PropOp57
 70
     0
  0
XRECORD
  5
416
102
{ACAD_REACTORS
330
415
102
}
330
415
100
AcDbXrecord
280
     1
102
RTVSPropertyOp0
 70
     1
102
RTVSPropertyOp1
 70
     1
102
RTVSPropertyOp2
 70
     1
102
RTVSPropertyOp3
 70
     1
102
RTVSPropertyOp4
 70
     1
102
RTVSPropertyOp5
 70
     1
102
RTVSPropertyOp6
 70
     1
102
RTVSPropertyOp7
 70
     1
102
RTVSPropertyOp8
 70
     1
102
RTVSPropertyOp9
 70
     1
102
RTVSPropertyOp10
 70
     1
102
RTVSPropertyOp11
 70
     1
102
RTVSPropertyOp12
 70
     1
102
RTVSPropertyOp13
 70
     1
102
RTVSPropertyOp14
 70
     1
102
RTVSPropertyOp15
 70
     1
102
RTVSPropertyOp16
 70
     1
102
RTVSPropertyOp17
 70
     1
102
RTVSPropertyOp18
 70
     1
102
RTVSPropertyOp19
 70
     1
102
RTVSPropertyOp20
 70
     1
102
RTVSPropertyOp21
 70
     1
102
RTVSPropertyOp22
 70
     1
102
RTVSPropertyOp23
 70
     1
102
RTVSPropertyOp24
 70
     1
102
RTVSPropertyOp25
 70
     1
102
RTVSPropertyOp26
 70
     1
102
RTVSPropertyOp27
 70
     1
102
RTVSPropertyOp28
 70
     1
102
RTVSPropertyOp29
 70
     1
102
RTVSPropertyOp30
 70
     1
102
RTVSPropertyOp31
 70
     1
102
RTVSPropertyOp32
 70
     1
102
RTVSPropertyOp33
 70
     1
102
RTVSPropertyOp34
 70
     1
102
RTVSPropertyOp35
 70
     1
102
RTVSPropertyOp36
 70
     1
102
RTVSPropertyOp37
 70
     1
102
RTVSPropertyOp38
 70
     1
102
RTVSPropertyOp39
 70
     1
102
RTVSPropertyOp40
 70
     1
102
RTVSPropertyOp41
 70
     1
102
RTVSPropertyOp42
 70
     1
102
RTVSPropertyOp43
 70
     1
102
RTVSPropertyOp44
 70
     1
102
RTVSPropertyOp45
 70
     1
102
RTVSPropertyOp46
 70
     1
102
RTVSPropertyOp47
 70
     1
102
RTVSPropertyOp48
 70
     1
102
RTVSPropertyOp49
 70
     1
102
RTVSPropertyOp50
 70
     1
102
RTVSPropertyOp51
 70
     0
102
RTVSPropertyOp52
 70
     0
102
RTVSPropertyOp53
 70
     1
102
RTVSPropertyOp54
 70
     1
102
RTVSPropertyOp55
 70
     1
102
RTVSPropertyOp56
 70
     1
102
RTVSPropertyOp57
 70
     1
102
RTVSPost2010Prop28
280
     0
102
RTVSPost2010PropOp28
 70
     1
102
RTVSPost2010Prop29
280
     1
102
RTVSPost2010PropOp29
 70
     1
102
RTVSPost2010Prop30
280
     1
102
RTVSPost2010PropOp30
 70
     1
102
RTVSPost2010Prop31
280
     0
102
RTVSPost2010PropOp31
 70
     1
102
RTVSPost2010Prop32
280
     0
102
RTVSPost2010PropOp32
 70
     1
102
RTVSPost2010Prop33
280
     0
102
RTVSPost2010PropOp33
 70
     1
102
RTVSPost2010Prop34
280
     0
102
RTVSPost2010PropOp34
 70
     1
102
RTVSPost2010Prop35
280
     0
102
RTVSPost2010PropOp35
 70
     1
102
RTVSPost2010Prop36
280
     0
102
RTVSPost2010PropOp36
 70
     1
102
RTVSPost2010Prop37
 90
       50
102
RTVSPost2010PropOp37
 70
     1
102
RTVSPost2010Prop38
140
0.0
102
RTVSPost2010PropOp38
 70
     1
102
RTVSPost2010Prop39
140
1.0
102
RTVSPost2010PropOp39
 70
     1
102
RTVSPost2010Prop40
 90
        0
102
RTVSPost2010PropOp40
 70
     1
102
RTVSPost2010Prop41ColorIndex
 90
       18
102
RTVSPost2010Prop41ColorRGB
 90
        0
102
RTVSPost2010PropOp41
 70
     1
102
RTVSPost2010Prop42
 90
       50
102
RTVSPost2010PropOp42
 70
     1
102
RTVSPost2010Prop43
 90
        3
102
RTVSPost2010PropOp43
 70
     1
102
RTVSPost2010Prop44ColorIndex
 90
        5
102
RTVSPost2010Prop44ColorRGB
 90
      255
102
RTVSPost2010PropOp44
 70
     1
102
RTVSPost2010Prop45
280
     0
102
RTVSPost2010PropOp45
 70
     1
102
RTVSPost2010Prop46
 90
       50
102
RTVSPost2010PropOp46
 70
     1
102
RTVSPost2010Prop47
 90
       50
102
RTVSPost2010PropOp47
 70
     1
102
RTVSPost2010Prop48
 90
       50
102
RTVSPost2010PropOp48
 70
     1
102
RTVSPost2010Prop49
280
     0
102
RTVSPost2010PropOp49
 70
     1
102
RTVSPost2010Prop50
 90
       50
102
RTVSPost2010PropOp50
 70
     1
102
RTVSPost2010Prop51ColorIndex
 90
      256
102
RTVSPost2010Prop51ColorRGB
 90
-16777216
102
RTVSPost2010PropOp51
 70
     0
102
RTVSPost2010Prop52
140
1.0
102
RTVSPost2010PropOp52
 70
     0
102
RTVSPost2010Prop53
 90
        2
102
RTVSPost2010PropOp53
 70
     1
102
RTVSPost2010Prop54
  1
strokes_ogs.tif
102
RTVSPost2010PropOp54
 70
     1
102
RTVSPost2010Prop55
280
     0
102
RTVSPost2010PropOp55
 70
     1
102
RTVSPost2010Prop56
140
1.0
102
RTVSPost2010PropOp56
 70
     1
102
RTVSPost2010Prop57
140
1.0
102
RTVSPost2010PropOp57
 70
     1
  0
XRECORD
  5
3FA
102
{ACAD_REACTORS
330
3F9
102
}
330
3F9
100
AcDbXrecord
280
     1
102
RTVSPropertyOp0
 70
     1
102
RTVSPropertyOp1
 70
     1
102
RTVSPropertyOp2
 70
     1
102
RTVSPropertyOp3
 70
     1
102
RTVSPropertyOp4
 70
     1
102
RTVSPropertyOp5
 70
     1
102
RTVSPropertyOp6
 70
     1
102
RTVSPropertyOp7
 70
     1
102
RTVSPropertyOp8
 70
     1
102
RTVSPropertyOp9
 70
     1
102
RTVSPropertyOp10
 70
     1
102
RTVSPropertyOp11
 70
     1
102
RTVSPropertyOp12
 70
     1
102
RTVSPropertyOp13
 70
     1
102
RTVSPropertyOp14
 70
     1
102
RTVSPropertyOp15
 70
     1
102
RTVSPropertyOp16
 70
     1
102
RTVSPropertyOp17
 70
     1
102
RTVSPropertyOp18
 70
     1
102
RTVSPropertyOp19
 70
     1
102
RTVSPropertyOp20
 70
     1
102
RTVSPropertyOp21
 70
     1
102
RTVSPropertyOp22
 70
     1
102
RTVSPropertyOp23
 70
     1
102
RTVSPropertyOp24
 70
     1
102
RTVSPropertyOp25
 70
     1
102
RTVSPropertyOp26
 70
     1
102
RTVSPropertyOp27
 70
     1
102
RTVSPropertyOp28
 70
     1
102
RTVSPropertyOp29
 70
     1
102
RTVSPropertyOp30
 70
     1
102
RTVSPropertyOp31
 70
     1
102
RTVSPropertyOp32
 70
     1
102
RTVSPropertyOp33
 70
     1
102
RTVSPropertyOp34
 70
     1
102
RTVSPropertyOp35
 70
     1
102
RTVSPropertyOp36
 70
     1
102
RTVSPropertyOp37
 70
     1
102
RTVSPropertyOp38
 70
     1
102
RTVSPropertyOp39
 70
     1
102
RTVSPropertyOp40
 70
     1
102
RTVSPropertyOp41
 70
     1
102
RTVSPropertyOp42
 70
     1
102
RTVSPropertyOp43
 70
     1
102
RTVSPropertyOp44
 70
     1
102
RTVSPropertyOp45
 70
     1
102
RTVSPropertyOp46
 70
     1
102
RTVSPropertyOp47
 70
     1
102
RTVSPropertyOp48
 70
     1
102
RTVSPropertyOp49
 70
     1
102
RTVSPropertyOp50
 70
     1
102
RTVSPropertyOp51
 70
     0
102
RTVSPropertyOp52
 70
     0
102
RTVSPropertyOp53
 70
     1
102
RTVSPropertyOp54
 70
     1
102
RTVSPropertyOp55
 70
     1
102
RTVSPropertyOp56
 70
     1
102
RTVSPropertyOp57
 70
     1
102
RTVSPost2010Prop28
280
     0
102
RTVSPost2010PropOp28
 70
     1
102
RTVSPost2010Prop29
280
     1
102
RTVSPost2010PropOp29
 70
     1
102
RTVSPost2010Prop30
280
     1
102
RTVSPost2010PropOp30
 70
     1
102
RTVSPost2010Prop31
280
     0
102
RTVSPost2010PropOp31
 70
     1
102
RTVSPost2010Prop32
280
     0
102
RTVSPost2010PropOp32
 70
     1
102
RTVSPost2010Prop33
280
     0
102
RTVSPost2010PropOp33
 70
     1
102
RTVSPost2010Prop34
280
     0
102
RTVSPost2010PropOp34
 70
     1
102
RTVSPost2010Prop35
280
     0
102
RTVSPost2010PropOp35
 70
     1
102
RTVSPost2010Prop36
280
     0
102
RTVSPost2010PropOp36
 70
     1
102
RTVSPost2010Prop37
 90
       50
102
RTVSPost2010PropOp37
 70
     1
102
RTVSPost2010Prop38
140
0.0
102
RTVSPost2010PropOp38
 70
     1
102
RTVSPost2010Prop39
140
1.0
102
RTVSPost2010PropOp39
 70
     1
102
RTVSPost2010Prop40
 90
        0
102
RTVSPost2010PropOp40
 70
     1
102
RTVSPost2010Prop41ColorIndex
 90
       18
102
RTVSPost2010Prop41ColorRGB
 90
        0
102
RTVSPost2010PropOp41
 70
     1
102
RTVSPost2010Prop42
 90
       50
102
RTVSPost2010PropOp42
 70
     1
102
RTVSPost2010Prop43
 90
        3
102
RTVSPost2010PropOp43
 70
     1
102
RTVSPost2010Prop44ColorIndex
 90
        5
102
RTVSPost2010Prop44ColorRGB
 90
      255
102
RTVSPost2010PropOp44
 70
     1
102
RTVSPost2010Prop45
280
     0
102
RTVSPost2010PropOp45
 70
     1
102
RTVSPost2010Prop46
 90
       50
102
RTVSPost2010PropOp46
 70
     1
102
RTVSPost2010Prop47
 90
       50
102
RTVSPost2010PropOp47
 70
     1
102
RTVSPost2010Prop48
 90
       50
102
RTVSPost2010PropOp48
 70
     1
102
RTVSPost2010Prop49
280
     0
102
RTVSPost2010PropOp49
 70
     1
102
RTVSPost2010Prop50
 90
       50
102
RTVSPost2010PropOp50
 70
     1
102
RTVSPost2010Prop51ColorIndex
 90
      256
102
RTVSPost2010Prop51ColorRGB
 90
-16777216
102
RTVSPost2010PropOp51
 70
     0
102
RTVSPost2010Prop52
140
1.0
102
RTVSPost2010PropOp52
 70
     0
102
RTVSPost2010Prop53
 90
        2
102
RTVSPost2010PropOp53
 70
     1
102
RTVSPost2010Prop54
  1
strokes_ogs.tif
102
RTVSPost2010PropOp54
 70
     1
102
RTVSPost2010Prop55
280
     0
102
RTVSPost2010PropOp55
 70
     1
102
RTVSPost2010Prop56
140
1.0
102
RTVSPost2010PropOp56
 70
     1
102
RTVSPost2010Prop57
140
1.0
102
RTVSPost2010PropOp57
 70
     1
  0
XRECORD
  5
3FC
102
{ACAD_REACTORS
330
3FB
102
}
330
3FB
100
AcDbXrecord
280
     1
102
RTVSPropertyOp0
 70
     1
102
RTVSPropertyOp1
 70
     1
102
RTVSPropertyOp2
 70
     1
102
RTVSPropertyOp3
 70
     1
102
RTVSPropertyOp4
 70
     1
102
RTVSPropertyOp5
 70
     1
102
RTVSPropertyOp6
 70
     1
102
RTVSPropertyOp7
 70
     1
102
RTVSPropertyOp8
 70
     1
102
RTVSPropertyOp9
 70
     1
102
RTVSPropertyOp10
 70
     1
102
RTVSPropertyOp11
 70
     1
102
RTVSPropertyOp12
 70
     1
102
RTVSPropertyOp13
 70
     1
102
RTVSPropertyOp14
 70
     1
102
RTVSPropertyOp15
 70
     1
102
RTVSPropertyOp16
 70
     1
102
RTVSPropertyOp17
 70
     1
102
RTVSPropertyOp18
 70
     1
102
RTVSPropertyOp19
 70
     1
102
RTVSPropertyOp20
 70
     1
102
RTVSPropertyOp21
 70
     1
102
RTVSPropertyOp22
 70
     1
102
RTVSPropertyOp23
 70
     1
102
RTVSPropertyOp24
 70
     1
102
RTVSPropertyOp25
 70
     1
102
RTVSPropertyOp26
 70
     1
102
RTVSPropertyOp27
 70
     1
102
RTVSPropertyOp28
 70
     1
102
RTVSPropertyOp29
 70
     1
102
RTVSPropertyOp30
 70
     1
102
RTVSPropertyOp31
 70
     1
102
RTVSPropertyOp32
 70
     1
102
RTVSPropertyOp33
 70
     1
102
RTVSPropertyOp34
 70
     1
102
RTVSPropertyOp35
 70
     1
102
RTVSPropertyOp36
 70
     1
102
RTVSPropertyOp37
 70
     1
102
RTVSPropertyOp38
 70
     1
102
RTVSPropertyOp39
 70
     1
102
RTVSPropertyOp40
 70
     1
102
RTVSPropertyOp41
 70
     1
102
RTVSPropertyOp42
 70
     1
102
RTVSPropertyOp43
 70
     1
102
RTVSPropertyOp44
 70
     1
102
RTVSPropertyOp45
 70
     1
102
RTVSPropertyOp46
 70
     1
102
RTVSPropertyOp47
 70
     1
102
RTVSPropertyOp48
 70
     1
102
RTVSPropertyOp49
 70
     1
102
RTVSPropertyOp50
 70
     1
102
RTVSPropertyOp51
 70
     0
102
RTVSPropertyOp52
 70
     0
102
RTVSPropertyOp53
 70
     1
102
RTVSPropertyOp54
 70
     1
102
RTVSPropertyOp55
 70
     1
102
RTVSPropertyOp56
 70
     1
102
RTVSPropertyOp57
 70
     1
102
RTVSPost2010Prop28
280
     0
102
RTVSPost2010PropOp28
 70
     1
102
RTVSPost2010Prop29
280
     1
102
RTVSPost2010PropOp29
 70
     1
102
RTVSPost2010Prop30
280
     1
102
RTVSPost2010PropOp30
 70
     1
102
RTVSPost2010Prop31
280
     0
102
RTVSPost2010PropOp31
 70
     1
102
RTVSPost2010Prop32
280
     0
102
RTVSPost2010PropOp32
 70
     1
102
RTVSPost2010Prop33
280
     0
102
RTVSPost2010PropOp33
 70
     1
102
RTVSPost2010Prop34
280
     0
102
RTVSPost2010PropOp34
 70
     1
102
RTVSPost2010Prop35
280
     0
102
RTVSPost2010PropOp35
 70
     1
102
RTVSPost2010Prop36
280
     0
102
RTVSPost2010PropOp36
 70
     1
102
RTVSPost2010Prop37
 90
       50
102
RTVSPost2010PropOp37
 70
     1
102
RTVSPost2010Prop38
140
0.0
102
RTVSPost2010PropOp38
 70
     1
102
RTVSPost2010Prop39
140
1.0
102
RTVSPost2010PropOp39
 70
     1
102
RTVSPost2010Prop40
 90
        0
102
RTVSPost2010PropOp40
 70
     1
102
RTVSPost2010Prop41ColorIndex
 90
       18
102
RTVSPost2010Prop41ColorRGB
 90
        0
102
RTVSPost2010PropOp41
 70
     1
102
RTVSPost2010Prop42
 90
       50
102
RTVSPost2010PropOp42
 70
     1
102
RTVSPost2010Prop43
 90
        3
102
RTVSPost2010PropOp43
 70
     1
102
RTVSPost2010Prop44ColorIndex
 90
        5
102
RTVSPost2010Prop44ColorRGB
 90
      255
102
RTVSPost2010PropOp44
 70
     1
102
RTVSPost2010Prop45
280
     0
102
RTVSPost2010PropOp45
 70
     1
102
RTVSPost2010Prop46
 90
       50
102
RTVSPost2010PropOp46
 70
     1
102
RTVSPost2010Prop47
 90
       50
102
RTVSPost2010PropOp47
 70
     1
102
RTVSPost2010Prop48
 90
       50
102
RTVSPost2010PropOp48
 70
     1
102
RTVSPost2010Prop49
280
     0
102
RTVSPost2010PropOp49
 70
     1
102
RTVSPost2010Prop50
 90
       50
102
RTVSPost2010PropOp50
 70
     1
102
RTVSPost2010Prop51ColorIndex
 90
      256
102
RTVSPost2010Prop51ColorRGB
 90
-16777216
102
RTVSPost2010PropOp51
 70
     0
102
RTVSPost2010Prop52
140
1.0
102
RTVSPost2010PropOp52
 70
     0
102
RTVSPost2010Prop53
 90
        2
102
RTVSPost2010PropOp53
 70
     1
102
RTVSPost2010Prop54
  1
strokes_ogs.tif
102
RTVSPost2010PropOp54
 70
     1
102
RTVSPost2010Prop55
280
     0
102
RTVSPost2010PropOp55
 70
     1
102
RTVSPost2010Prop56
140
1.0
102
RTVSPost2010PropOp56
 70
     1
102
RTVSPost2010Prop57
140
1.0
102
RTVSPost2010PropOp57
 70
     1
  0
XRECORD
  5
3FE
102
{ACAD_REACTORS
330
3FD
102
}
330
3FD
100
AcDbXrecord
280
     1
102
RTVSPropertyOp0
 70
     1
102
RTVSPropertyOp1
 70
     1
102
RTVSPropertyOp2
 70
     1
102
RTVSPropertyOp3
 70
     1
102
RTVSPropertyOp4
 70
     1
102
RTVSPropertyOp5
 70
     1
102
RTVSPropertyOp6
 70
     1
102
RTVSPropertyOp7
 70
     1
102
RTVSPropertyOp8
 70
     1
102
RTVSPropertyOp9
 70
     1
102
RTVSPropertyOp10
 70
     1
102
RTVSPropertyOp11
 70
     1
102
RTVSPropertyOp12
 70
     1
102
RTVSPropertyOp13
 70
     1
102
RTVSPropertyOp14
 70
     1
102
RTVSPropertyOp15
 70
     1
102
RTVSPropertyOp16
 70
     1
102
RTVSPropertyOp17
 70
     1
102
RTVSPropertyOp18
 70
     1
102
RTVSPropertyOp19
 70
     1
102
RTVSPropertyOp20
 70
     1
102
RTVSPropertyOp21
 70
     1
102
RTVSPropertyOp22
 70
     1
102
RTVSPropertyOp23
 70
     1
102
RTVSPropertyOp24
 70
     1
102
RTVSPropertyOp25
 70
     1
102
RTVSPropertyOp26
 70
     1
102
RTVSPropertyOp27
 70
     1
102
RTVSPropertyOp28
 70
     1
102
RTVSPropertyOp29
 70
     1
102
RTVSPropertyOp30
 70
     1
102
RTVSPropertyOp31
 70
     1
102
RTVSPropertyOp32
 70
     1
102
RTVSPropertyOp33
 70
     1
102
RTVSPropertyOp34
 70
     1
102
RTVSPropertyOp35
 70
     1
102
RTVSPropertyOp36
 70
     1
102
RTVSPropertyOp37
 70
     1
102
RTVSPropertyOp38
 70
     1
102
RTVSPropertyOp39
 70
     1
102
RTVSPropertyOp40
 70
     1
102
RTVSPropertyOp41
 70
     1
102
RTVSPropertyOp42
 70
     1
102
RTVSPropertyOp43
 70
     1
102
RTVSPropertyOp44
 70
     1
102
RTVSPropertyOp45
 70
     1
102
RTVSPropertyOp46
 70
     1
102
RTVSPropertyOp47
 70
     1
102
RTVSPropertyOp48
 70
     1
102
RTVSPropertyOp49
 70
     1
102
RTVSPropertyOp50
 70
     1
102
RTVSPropertyOp51
 70
     0
102
RTVSPropertyOp52
 70
     0
102
RTVSPropertyOp53
 70
     1
102
RTVSPropertyOp54
 70
     1
102
RTVSPropertyOp55
 70
     1
102
RTVSPropertyOp56
 70
     1
102
RTVSPropertyOp57
 70
     1
102
RTVSPost2010Prop28
280
     0
102
RTVSPost2010PropOp28
 70
     1
102
RTVSPost2010Prop29
280
     1
102
RTVSPost2010PropOp29
 70
     1
102
RTVSPost2010Prop30
280
     1
102
RTVSPost2010PropOp30
 70
     1
102
RTVSPost2010Prop31
280
     0
102
RTVSPost2010PropOp31
 70
     1
102
RTVSPost2010Prop32
280
     0
102
RTVSPost2010PropOp32
 70
     1
102
RTVSPost2010Prop33
280
     0
102
RTVSPost2010PropOp33
 70
     1
102
RTVSPost2010Prop34
280
     0
102
RTVSPost2010PropOp34
 70
     1
102
RTVSPost2010Prop35
280
     0
102
RTVSPost2010PropOp35
 70
     1
102
RTVSPost2010Prop36
280
     0
102
RTVSPost2010PropOp36
 70
     1
102
RTVSPost2010Prop37
 90
       50
102
RTVSPost2010PropOp37
 70
     1
102
RTVSPost2010Prop38
140
0.0
102
RTVSPost2010PropOp38
 70
     1
102
RTVSPost2010Prop39
140
1.0
102
RTVSPost2010PropOp39
 70
     1
102
RTVSPost2010Prop40
 90
        0
102
RTVSPost2010PropOp40
 70
     1
102
RTVSPost2010Prop41ColorIndex
 90
       18
102
RTVSPost2010Prop41ColorRGB
 90
        0
102
RTVSPost2010PropOp41
 70
     1
102
RTVSPost2010Prop42
 90
       50
102
RTVSPost2010PropOp42
 70
     1
102
RTVSPost2010Prop43
 90
        3
102
RTVSPost2010PropOp43
 70
     1
102
RTVSPost2010Prop44ColorIndex
 90
        5
102
RTVSPost2010Prop44ColorRGB
 90
      255
102
RTVSPost2010PropOp44
 70
     1
102
RTVSPost2010Prop45
280
     0
102
RTVSPost2010PropOp45
 70
     1
102
RTVSPost2010Prop46
 90
       50
102
RTVSPost2010PropOp46
 70
     1
102
RTVSPost2010Prop47
 90
       50
102
RTVSPost2010PropOp47
 70
     1
102
RTVSPost2010Prop48
 90
       50
102
RTVSPost2010PropOp48
 70
     1
102
RTVSPost2010Prop49
280
     0
102
RTVSPost2010PropOp49
 70
     1
102
RTVSPost2010Prop50
 90
       50
102
RTVSPost2010PropOp50
 70
     1
102
RTVSPost2010Prop51ColorIndex
 90
      256
102
RTVSPost2010Prop51ColorRGB
 90
-16777216
102
RTVSPost2010PropOp51
 70
     0
102
RTVSPost2010Prop52
140
1.0
102
RTVSPost2010PropOp52
 70
     0
102
RTVSPost2010Prop53
 90
        2
102
RTVSPost2010PropOp53
 70
     1
102
RTVSPost2010Prop54
  1
strokes_ogs.tif
102
RTVSPost2010PropOp54
 70
     1
102
RTVSPost2010Prop55
280
     0
102
RTVSPost2010PropOp55
 70
     1
102
RTVSPost2010Prop56
140
1.0
102
RTVSPost2010PropOp56
 70
     1
102
RTVSPost2010Prop57
140
1.0
102
RTVSPost2010PropOp57
 70
     1
  0
XRECORD
  5
400
102
{ACAD_REACTORS
330
3FF
102
}
330
3FF
100
AcDbXrecord
280
     1
102
RTVSPropertyOp0
 70
     1
102
RTVSPropertyOp1
 70
     1
102
RTVSPropertyOp2
 70
     1
102
RTVSPropertyOp3
 70
     1
102
RTVSPropertyOp4
 70
     1
102
RTVSPropertyOp5
 70
     1
102
RTVSPropertyOp6
 70
     1
102
RTVSPropertyOp7
 70
     1
102
RTVSPropertyOp8
 70
     1
102
RTVSPropertyOp9
 70
     1
102
RTVSPropertyOp10
 70
     1
102
RTVSPropertyOp11
 70
     1
102
RTVSPropertyOp12
 70
     1
102
RTVSPropertyOp13
 70
     1
102
RTVSPropertyOp14
 70
     1
102
RTVSPropertyOp15
 70
     1
102
RTVSPropertyOp16
 70
     1
102
RTVSPropertyOp17
 70
     1
102
RTVSPropertyOp18
 70
     1
102
RTVSPropertyOp19
 70
     1
102
RTVSPropertyOp20
 70
     1
102
RTVSPropertyOp21
 70
     1
102
RTVSPropertyOp22
 70
     1
102
RTVSPropertyOp23
 70
     1
102
RTVSPropertyOp24
 70
     1
102
RTVSPropertyOp25
 70
     1
102
RTVSPropertyOp26
 70
     1
102
RTVSPropertyOp27
 70
     1
102
RTVSPropertyOp28
 70
     1
102
RTVSPropertyOp29
 70
     1
102
RTVSPropertyOp30
 70
     1
102
RTVSPropertyOp31
 70
     1
102
RTVSPropertyOp32
 70
     1
102
RTVSPropertyOp33
 70
     1
102
RTVSPropertyOp34
 70
     1
102
RTVSPropertyOp35
 70
     1
102
RTVSPropertyOp36
 70
     1
102
RTVSPropertyOp37
 70
     1
102
RTVSPropertyOp38
 70
     1
102
RTVSPropertyOp39
 70
     1
102
RTVSPropertyOp40
 70
     1
102
RTVSPropertyOp41
 70
     1
102
RTVSPropertyOp42
 70
     1
102
RTVSPropertyOp43
 70
     1
102
RTVSPropertyOp44
 70
     1
102
RTVSPropertyOp45
 70
     1
102
RTVSPropertyOp46
 70
     1
102
RTVSPropertyOp47
 70
     1
102
RTVSPropertyOp48
 70
     1
102
RTVSPropertyOp49
 70
     1
102
RTVSPropertyOp50
 70
     1
102
RTVSPropertyOp51
 70
     0
102
RTVSPropertyOp52
 70
     0
102
RTVSPropertyOp53
 70
     1
102
RTVSPropertyOp54
 70
     1
102
RTVSPropertyOp55
 70
     1
102
RTVSPropertyOp56
 70
     1
102
RTVSPropertyOp57
 70
     1
102
RTVSPost2010Prop28
280
     0
102
RTVSPost2010PropOp28
 70
     1
102
RTVSPost2010Prop29
280
     1
102
RTVSPost2010PropOp29
 70
     1
102
RTVSPost2010Prop30
280
     1
102
RTVSPost2010PropOp30
 70
     1
102
RTVSPost2010Prop31
280
     0
102
RTVSPost2010PropOp31
 70
     1
102
RTVSPost2010Prop32
280
     0
102
RTVSPost2010PropOp32
 70
     1
102
RTVSPost2010Prop33
280
     0
102
RTVSPost2010PropOp33
 70
     1
102
RTVSPost2010Prop34
280
     0
102
RTVSPost2010PropOp34
 70
     1
102
RTVSPost2010Prop35
280
     0
102
RTVSPost2010PropOp35
 70
     1
102
RTVSPost2010Prop36
280
     0
102
RTVSPost2010PropOp36
 70
     1
102
RTVSPost2010Prop37
 90
       50
102
RTVSPost2010PropOp37
 70
     1
102
RTVSPost2010Prop38
140
0.0
102
RTVSPost2010PropOp38
 70
     1
102
RTVSPost2010Prop39
140
1.0
102
RTVSPost2010PropOp39
 70
     1
102
RTVSPost2010Prop40
 90
        0
102
RTVSPost2010PropOp40
 70
     1
102
RTVSPost2010Prop41ColorIndex
 90
       18
102
RTVSPost2010Prop41ColorRGB
 90
        0
102
RTVSPost2010PropOp41
 70
     1
102
RTVSPost2010Prop42
 90
       50
102
RTVSPost2010PropOp42
 70
     1
102
RTVSPost2010Prop43
 90
        3
102
RTVSPost2010PropOp43
 70
     1
102
RTVSPost2010Prop44ColorIndex
 90
        5
102
RTVSPost2010Prop44ColorRGB
 90
      255
102
RTVSPost2010PropOp44
 70
     1
102
RTVSPost2010Prop45
280
     0
102
RTVSPost2010PropOp45
 70
     1
102
RTVSPost2010Prop46
 90
       50
102
RTVSPost2010PropOp46
 70
     1
102
RTVSPost2010Prop47
 90
       50
102
RTVSPost2010PropOp47
 70
     1
102
RTVSPost2010Prop48
 90
       50
102
RTVSPost2010PropOp48
 70
     1
102
RTVSPost2010Prop49
280
     0
102
RTVSPost2010PropOp49
 70
     1
102
RTVSPost2010Prop50
 90
       50
102
RTVSPost2010PropOp50
 70
     1
102
RTVSPost2010Prop51ColorIndex
 90
      256
102
RTVSPost2010Prop51ColorRGB
 90
-16777216
102
RTVSPost2010PropOp51
 70
     0
102
RTVSPost2010Prop52
140
1.0
102
RTVSPost2010PropOp52
 70
     0
102
RTVSPost2010Prop53
 90
        2
102
RTVSPost2010PropOp53
 70
     1
102
RTVSPost2010Prop54
  1
strokes_ogs.tif
102
RTVSPost2010PropOp54
 70
     1
102
RTVSPost2010Prop55
280
     0
102
RTVSPost2010PropOp55
 70
     1
102
RTVSPost2010Prop56
140
1.0
102
RTVSPost2010PropOp56
 70
     1
102
RTVSPost2010Prop57
140
1.0
102
RTVSPost2010PropOp57
 70
     1
  0
XRECORD
  5
406
102
{ACAD_REACTORS
330
405
102
}
330
405
100
AcDbXrecord
280
     1
102
RTVSPropertyOp0
 70
     1
102
RTVSPropertyOp1
 70
     1
102
RTVSPropertyOp2
 70
     1
102
RTVSPropertyOp3
 70
     1
102
RTVSPropertyOp4
 70
     1
102
RTVSPropertyOp5
 70
     1
102
RTVSPropertyOp6
 70
     1
102
RTVSPropertyOp7
 70
     1
102
RTVSPropertyOp8
 70
     1
102
RTVSPropertyOp9
 70
     1
102
RTVSPropertyOp10
 70
     1
102
RTVSPropertyOp11
 70
     1
102
RTVSPropertyOp12
 70
     1
102
RTVSPropertyOp13
 70
     1
102
RTVSPropertyOp14
 70
     1
102
RTVSPropertyOp15
 70
     1
102
RTVSPropertyOp16
 70
     1
102
RTVSPropertyOp17
 70
     1
102
RTVSPropertyOp18
 70
     1
102
RTVSPropertyOp19
 70
     1
102
RTVSPropertyOp20
 70
     1
102
RTVSPropertyOp21
 70
     1
102
RTVSPropertyOp22
 70
     1
102
RTVSPropertyOp23
 70
     1
102
RTVSPropertyOp24
 70
     1
102
RTVSPropertyOp25
 70
     1
102
RTVSPropertyOp26
 70
     1
102
RTVSPropertyOp27
 70
     1
102
RTVSPropertyOp28
 70
     1
102
RTVSPropertyOp29
 70
     1
102
RTVSPropertyOp30
 70
     1
102
RTVSPropertyOp31
 70
     1
102
RTVSPropertyOp32
 70
     1
102
RTVSPropertyOp33
 70
     1
102
RTVSPropertyOp34
 70
     1
102
RTVSPropertyOp35
 70
     1
102
RTVSPropertyOp36
 70
     1
102
RTVSPropertyOp37
 70
     1
102
RTVSPropertyOp38
 70
     1
102
RTVSPropertyOp39
 70
     1
102
RTVSPropertyOp40
 70
     1
102
RTVSPropertyOp41
 70
     1
102
RTVSPropertyOp42
 70
     1
102
RTVSPropertyOp43
 70
     1
102
RTVSPropertyOp44
 70
     1
102
RTVSPropertyOp45
 70
     1
102
RTVSPropertyOp46
 70
     1
102
RTVSPropertyOp47
 70
     1
102
RTVSPropertyOp48
 70
     1
102
RTVSPropertyOp49
 70
     1
102
RTVSPropertyOp50
 70
     1
102
RTVSPropertyOp51
 70
     0
102
RTVSPropertyOp52
 70
     0
102
RTVSPropertyOp53
 70
     1
102
RTVSPropertyOp54
 70
     1
102
RTVSPropertyOp55
 70
     1
102
RTVSPropertyOp56
 70
     1
102
RTVSPropertyOp57
 70
     1
102
RTVSPost2010Prop28
280
     0
102
RTVSPost2010PropOp28
 70
     1
102
RTVSPost2010Prop29
280
     1
102
RTVSPost2010PropOp29
 70
     1
102
RTVSPost2010Prop30
280
     1
102
RTVSPost2010PropOp30
 70
     1
102
RTVSPost2010Prop31
280
     0
102
RTVSPost2010PropOp31
 70
     1
102
RTVSPost2010Prop32
280
     0
102
RTVSPost2010PropOp32
 70
     1
102
RTVSPost2010Prop33
280
     0
102
RTVSPost2010PropOp33
 70
     1
102
RTVSPost2010Prop34
280
     0
102
RTVSPost2010PropOp34
 70
     1
102
RTVSPost2010Prop35
280
     0
102
RTVSPost2010PropOp35
 70
     1
102
RTVSPost2010Prop36
280
     0
102
RTVSPost2010PropOp36
 70
     1
102
RTVSPost2010Prop37
 90
       50
102
RTVSPost2010PropOp37
 70
     1
102
RTVSPost2010Prop38
140
0.0
102
RTVSPost2010PropOp38
 70
     1
102
RTVSPost2010Prop39
140
1.0
102
RTVSPost2010PropOp39
 70
     1
102
RTVSPost2010Prop40
 90
        0
102
RTVSPost2010PropOp40
 70
     1
102
RTVSPost2010Prop41ColorIndex
 90
       18
102
RTVSPost2010Prop41ColorRGB
 90
        0
102
RTVSPost2010PropOp41
 70
     1
102
RTVSPost2010Prop42
 90
       50
102
RTVSPost2010PropOp42
 70
     1
102
RTVSPost2010Prop43
 90
        3
102
RTVSPost2010PropOp43
 70
     1
102
RTVSPost2010Prop44ColorIndex
 90
        5
102
RTVSPost2010Prop44ColorRGB
 90
      255
102
RTVSPost2010PropOp44
 70
     1
102
RTVSPost2010Prop45
280
     0
102
RTVSPost2010PropOp45
 70
     1
102
RTVSPost2010Prop46
 90
       50
102
RTVSPost2010PropOp46
 70
     1
102
RTVSPost2010Prop47
 90
       50
102
RTVSPost2010PropOp47
 70
     1
102
RTVSPost2010Prop48
 90
       50
102
RTVSPost2010PropOp48
 70
     1
102
RTVSPost2010Prop49
280
     0
102
RTVSPost2010PropOp49
 70
     1
102
RTVSPost2010Prop50
 90
       50
102
RTVSPost2010PropOp50
 70
     1
102
RTVSPost2010Prop51ColorIndex
 90
      256
102
RTVSPost2010Prop51ColorRGB
 90
-16777216
102
RTVSPost2010PropOp51
 70
     0
102
RTVSPost2010Prop52
140
1.0
102
RTVSPost2010PropOp52
 70
     0
102
RTVSPost2010Prop53
 90
        2
102
RTVSPost2010PropOp53
 70
     1
102
RTVSPost2010Prop54
  1
strokes_ogs.tif
102
RTVSPost2010PropOp54
 70
     1
102
RTVSPost2010Prop55
280
     0
102
RTVSPost2010PropOp55
 70
     1
102
RTVSPost2010Prop56
140
1.0
102
RTVSPost2010PropOp56
 70
     1
102
RTVSPost2010Prop57
140
1.0
102
RTVSPost2010PropOp57
 70
     1
  0
XRECORD
  5
41A
102
{ACAD_REACTORS
330
419
102
}
330
419
100
AcDbXrecord
280
     1
102
RTVSPropertyOp0
 70
     0
102
RTVSPropertyOp1
 70
     0
102
RTVSPropertyOp2
 70
     0
102
RTVSPropertyOp3
 70
     0
102
RTVSPropertyOp4
 70
     0
102
RTVSPropertyOp5
 70
     0
102
RTVSPropertyOp6
 70
     0
102
RTVSPropertyOp7
 70
     0
102
RTVSPropertyOp8
 70
     0
102
RTVSPropertyOp9
 70
     0
102
RTVSPropertyOp10
 70
     0
102
RTVSPropertyOp11
 70
     0
102
RTVSPropertyOp12
 70
     0
102
RTVSPropertyOp13
 70
     0
102
RTVSPropertyOp14
 70
     2
102
RTVSPropertyOp15
 70
     0
102
RTVSPropertyOp16
 70
     0
102
RTVSPropertyOp17
 70
     0
102
RTVSPropertyOp18
 70
     0
102
RTVSPropertyOp19
 70
     0
102
RTVSPropertyOp20
 70
     0
102
RTVSPropertyOp21
 70
     0
102
RTVSPropertyOp22
 70
     0
102
RTVSPropertyOp23
 70
     0
102
RTVSPropertyOp24
 70
     0
102
RTVSPropertyOp25
 70
     0
102
RTVSPropertyOp26
 70
     0
102
RTVSPropertyOp27
 70
     0
102
RTVSPropertyOp28
 70
     0
102
RTVSPropertyOp29
 70
     0
102
RTVSPropertyOp30
 70
     0
102
RTVSPropertyOp31
 70
     0
102
RTVSPropertyOp32
 70
     0
102
RTVSPropertyOp33
 70
     0
102
RTVSPropertyOp34
 70
     0
102
RTVSPropertyOp35
 70
     0
102
RTVSPropertyOp36
 70
     0
102
RTVSPropertyOp37
 70
     0
102
RTVSPropertyOp38
 70
     0
102
RTVSPropertyOp39
 70
     0
102
RTVSPropertyOp40
 70
     0
102
RTVSPropertyOp41
 70
     0
102
RTVSPropertyOp42
 70
     0
102
RTVSPropertyOp43
 70
     0
102
RTVSPropertyOp44
 70
     0
102
RTVSPropertyOp45
 70
     0
102
RTVSPropertyOp46
 70
     0
102
RTVSPropertyOp47
 70
     0
102
RTVSPropertyOp48
 70
     0
102
RTVSPropertyOp49
 70
     0
102
RTVSPropertyOp50
 70
     0
102
RTVSPropertyOp51
 70
     0
102
RTVSPropertyOp52
 70
     0
102
RTVSPropertyOp53
 70
     0
102
RTVSPropertyOp54
 70
     0
102
RTVSPropertyOp55
 70
     0
102
RTVSPropertyOp56
 70
     0
102
RTVSPropertyOp57
 70
     0
102
RTVSPost2010Prop28
280
     0
102
RTVSPost2010PropOp28
 70
     0
102
RTVSPost2010Prop29
280
     1
102
RTVSPost2010PropOp29
 70
     0
102
RTVSPost2010Prop30
280
     1
102
RTVSPost2010PropOp30
 70
     0
102
RTVSPost2010Prop31
280
     0
102
RTVSPost2010PropOp31
 70
     0
102
RTVSPost2010Prop32
280
     0
102
RTVSPost2010PropOp32
 70
     0
102
RTVSPost2010Prop33
280
     0
102
RTVSPost2010PropOp33
 70
     0
102
RTVSPost2010Prop34
280
     0
102
RTVSPost2010PropOp34
 70
     0
102
RTVSPost2010Prop35
280
     0
102
RTVSPost2010PropOp35
 70
     0
102
RTVSPost2010Prop36
280
     0
102
RTVSPost2010PropOp36
 70
     0
102
RTVSPost2010Prop37
 90
       50
102
RTVSPost2010PropOp37
 70
     0
102
RTVSPost2010Prop38
140
0.0
102
RTVSPost2010PropOp38
 70
     0
102
RTVSPost2010Prop39
140
1.0
102
RTVSPost2010PropOp39
 70
     0
102
RTVSPost2010Prop40
 90
        0
102
RTVSPost2010PropOp40
 70
     0
102
RTVSPost2010Prop41ColorIndex
 90
       18
102
RTVSPost2010Prop41ColorRGB
 90
        0
102
RTVSPost2010PropOp41
 70
     0
102
RTVSPost2010Prop42
 90
       50
102
RTVSPost2010PropOp42
 70
     0
102
RTVSPost2010Prop43
 90
        3
102
RTVSPost2010PropOp43
 70
     0
102
RTVSPost2010Prop44ColorIndex
 90
        5
102
RTVSPost2010Prop44ColorRGB
 90
      255
102
RTVSPost2010PropOp44
 70
     0
102
RTVSPost2010Prop45
280
     0
102
RTVSPost2010PropOp45
 70
     0
102
RTVSPost2010Prop46
 90
       50
102
RTVSPost2010PropOp46
 70
     0
102
RTVSPost2010Prop47
 90
       50
102
RTVSPost2010PropOp47
 70
     0
102
RTVSPost2010Prop48
 90
       50
102
RTVSPost2010PropOp48
 70
     0
102
RTVSPost2010Prop49
280
     0
102
RTVSPost2010PropOp49
 70
     0
102
RTVSPost2010Prop50
 90
       50
102
RTVSPost2010PropOp50
 70
     0
102
RTVSPost2010Prop51ColorIndex
 90
      256
102
RTVSPost2010Prop51ColorRGB
 90
-16777216
102
RTVSPost2010PropOp51
 70
     0
102
RTVSPost2010Prop52
140
1.0
102
RTVSPost2010PropOp52
 70
     0
102
RTVSPost2010Prop53
 90
        2
102
RTVSPost2010PropOp53
 70
     0
102
RTVSPost2010Prop54
  1
strokes_ogs.tif
102
RTVSPost2010PropOp54
 70
     0
102
RTVSPost2010Prop55
280
     0
102
RTVSPost2010PropOp55
 70
     0
102
RTVSPost2010Prop56
140
1.0
102
RTVSPost2010PropOp56
 70
     0
102
RTVSPost2010Prop57
140
1.0
102
RTVSPost2010PropOp57
 70
     0
  0
XRECORD
  5
414
102
{ACAD_REACTORS
330
413
102
}
330
413
100
AcDbXrecord
280
     1
102
RTVSPropertyOp0
 70
     1
102
RTVSPropertyOp1
 70
     1
102
RTVSPropertyOp2
 70
     1
102
RTVSPropertyOp3
 70
     1
102
RTVSPropertyOp4
 70
     1
102
RTVSPropertyOp5
 70
     1
102
RTVSPropertyOp6
 70
     1
102
RTVSPropertyOp7
 70
     1
102
RTVSPropertyOp8
 70
     1
102
RTVSPropertyOp9
 70
     1
102
RTVSPropertyOp10
 70
     1
102
RTVSPropertyOp11
 70
     1
102
RTVSPropertyOp12
 70
     1
102
RTVSPropertyOp13
 70
     1
102
RTVSPropertyOp14
 70
     1
102
RTVSPropertyOp15
 70
     1
102
RTVSPropertyOp16
 70
     1
102
RTVSPropertyOp17
 70
     1
102
RTVSPropertyOp18
 70
     1
102
RTVSPropertyOp19
 70
     1
102
RTVSPropertyOp20
 70
     1
102
RTVSPropertyOp21
 70
     1
102
RTVSPropertyOp22
 70
     1
102
RTVSPropertyOp23
 70
     1
102
RTVSPropertyOp24
 70
     1
102
RTVSPropertyOp25
 70
     1
102
RTVSPropertyOp26
 70
     1
102
RTVSPropertyOp27
 70
     1
102
RTVSPropertyOp28
 70
     1
102
RTVSPropertyOp29
 70
     1
102
RTVSPropertyOp30
 70
     1
102
RTVSPropertyOp31
 70
     1
102
RTVSPropertyOp32
 70
     1
102
RTVSPropertyOp33
 70
     1
102
RTVSPropertyOp34
 70
     1
102
RTVSPropertyOp35
 70
     1
102
RTVSPropertyOp36
 70
     1
102
RTVSPropertyOp37
 70
     1
102
RTVSPropertyOp38
 70
     1
102
RTVSPropertyOp39
 70
     1
102
RTVSPropertyOp40
 70
     1
102
RTVSPropertyOp41
 70
     1
102
RTVSPropertyOp42
 70
     1
102
RTVSPropertyOp43
 70
     1
102
RTVSPropertyOp44
 70
     1
102
RTVSPropertyOp45
 70
     1
102
RTVSPropertyOp46
 70
     1
102
RTVSPropertyOp47
 70
     1
102
RTVSPropertyOp48
 70
     1
102
RTVSPropertyOp49
 70
     1
102
RTVSPropertyOp50
 70
     1
102
RTVSPropertyOp51
 70
     0
102
RTVSPropertyOp52
 70
     0
102
RTVSPropertyOp53
 70
     1
102
RTVSPropertyOp54
 70
     1
102
RTVSPropertyOp55
 70
     1
102
RTVSPropertyOp56
 70
     1
102
RTVSPropertyOp57
 70
     1
102
RTVSPost2010Prop28
280
     0
102
RTVSPost2010PropOp28
 70
     1
102
RTVSPost2010Prop29
280
     1
102
RTVSPost2010PropOp29
 70
     1
102
RTVSPost2010Prop30
280
     1
102
RTVSPost2010PropOp30
 70
     1
102
RTVSPost2010Prop31
280
     0
102
RTVSPost2010PropOp31
 70
     1
102
RTVSPost2010Prop32
280
     0
102
RTVSPost2010PropOp32
 70
     1
102
RTVSPost2010Prop33
280
     0
102
RTVSPost2010PropOp33
 70
     1
102
RTVSPost2010Prop34
280
     0
102
RTVSPost2010PropOp34
 70
     1
102
RTVSPost2010Prop35
280
     0
102
RTVSPost2010PropOp35
 70
     1
102
RTVSPost2010Prop36
280
     0
102
RTVSPost2010PropOp36
 70
     1
102
RTVSPost2010Prop37
 90
       50
102
RTVSPost2010PropOp37
 70
     1
102
RTVSPost2010Prop38
140
0.0
102
RTVSPost2010PropOp38
 70
     1
102
RTVSPost2010Prop39
140
1.0
102
RTVSPost2010PropOp39
 70
     1
102
RTVSPost2010Prop40
 90
        0
102
RTVSPost2010PropOp40
 70
     1
102
RTVSPost2010Prop41ColorIndex
 90
       18
102
RTVSPost2010Prop41ColorRGB
 90
        0
102
RTVSPost2010PropOp41
 70
     1
102
RTVSPost2010Prop42
 90
       50
102
RTVSPost2010PropOp42
 70
     1
102
RTVSPost2010Prop43
 90
        3
102
RTVSPost2010PropOp43
 70
     1
102
RTVSPost2010Prop44ColorIndex
 90
        5
102
RTVSPost2010Prop44ColorRGB
 90
      255
102
RTVSPost2010PropOp44
 70
     1
102
RTVSPost2010Prop45
280
     0
102
RTVSPost2010PropOp45
 70
     1
102
RTVSPost2010Prop46
 90
       50
102
RTVSPost2010PropOp46
 70
     1
102
RTVSPost2010Prop47
 90
       50
102
RTVSPost2010PropOp47
 70
     1
102
RTVSPost2010Prop48
 90
       50
102
RTVSPost2010PropOp48
 70
     1
102
RTVSPost2010Prop49
280
     0
102
RTVSPost2010PropOp49
 70
     1
102
RTVSPost2010Prop50
 90
       50
102
RTVSPost2010PropOp50
 70
     1
102
RTVSPost2010Prop51ColorIndex
 90
      256
102
RTVSPost2010Prop51ColorRGB
 90
-16777216
102
RTVSPost2010PropOp51
 70
     0
102
RTVSPost2010Prop52
140
1.0
102
RTVSPost2010PropOp52
 70
     0
102
RTVSPost2010Prop53
 90
        2
102
RTVSPost2010PropOp53
 70
     1
102
RTVSPost2010Prop54
  1
strokes_ogs.tif
102
RTVSPost2010PropOp54
 70
     1
102
RTVSPost2010Prop55
280
     0
102
RTVSPost2010PropOp55
 70
     1
102
RTVSPost2010Prop56
140
1.0
102
RTVSPost2010PropOp56
 70
     1
102
RTVSPost2010Prop57
140
1.0
102
RTVSPost2010PropOp57
 70
     1
  0
XRECORD
  5
41C
102
{ACAD_REACTORS
330
41B
102
}
330
41B
100
AcDbXrecord
280
     1
102
RTVSPropertyOp0
 70
     0
102
RTVSPropertyOp1
 70
     0
102
RTVSPropertyOp2
 70
     0
102
RTVSPropertyOp3
 70
     0
102
RTVSPropertyOp4
 70
     0
102
RTVSPropertyOp5
 70
     0
102
RTVSPropertyOp6
 70
     0
102
RTVSPropertyOp7
 70
     0
102
RTVSPropertyOp8
 70
     0
102
RTVSPropertyOp9
 70
     0
102
RTVSPropertyOp10
 70
     0
102
RTVSPropertyOp11
 70
     0
102
RTVSPropertyOp12
 70
     0
102
RTVSPropertyOp13
 70
     0
102
RTVSPropertyOp14
 70
     2
102
RTVSPropertyOp15
 70
     0
102
RTVSPropertyOp16
 70
     0
102
RTVSPropertyOp17
 70
     0
102
RTVSPropertyOp18
 70
     0
102
RTVSPropertyOp19
 70
     0
102
RTVSPropertyOp20
 70
     0
102
RTVSPropertyOp21
 70
     0
102
RTVSPropertyOp22
 70
     0
102
RTVSPropertyOp23
 70
     0
102
RTVSPropertyOp24
 70
     0
102
RTVSPropertyOp25
 70
     0
102
RTVSPropertyOp26
 70
     0
102
RTVSPropertyOp27
 70
     0
102
RTVSPropertyOp28
 70
     0
102
RTVSPropertyOp29
 70
     0
102
RTVSPropertyOp30
 70
     0
102
RTVSPropertyOp31
 70
     0
102
RTVSPropertyOp32
 70
     0
102
RTVSPropertyOp33
 70
     0
102
RTVSPropertyOp34
 70
     0
102
RTVSPropertyOp35
 70
     0
102
RTVSPropertyOp36
 70
     0
102
RTVSPropertyOp37
 70
     0
102
RTVSPropertyOp38
 70
     0
102
RTVSPropertyOp39
 70
     0
102
RTVSPropertyOp40
 70
     0
102
RTVSPropertyOp41
 70
     0
102
RTVSPropertyOp42
 70
     0
102
RTVSPropertyOp43
 70
     0
102
RTVSPropertyOp44
 70
     0
102
RTVSPropertyOp45
 70
     0
102
RTVSPropertyOp46
 70
     0
102
RTVSPropertyOp47
 70
     0
102
RTVSPropertyOp48
 70
     0
102
RTVSPropertyOp49
 70
     0
102
RTVSPropertyOp50
 70
     0
102
RTVSPropertyOp51
 70
     0
102
RTVSPropertyOp52
 70
     0
102
RTVSPropertyOp53
 70
     0
102
RTVSPropertyOp54
 70
     0
102
RTVSPropertyOp55
 70
     0
102
RTVSPropertyOp56
 70
     0
102
RTVSPropertyOp57
 70
     0
102
RTVSPost2010Prop28
280
     0
102
RTVSPost2010PropOp28
 70
     0
102
RTVSPost2010Prop29
280
     1
102
RTVSPost2010PropOp29
 70
     0
102
RTVSPost2010Prop30
280
     1
102
RTVSPost2010PropOp30
 70
     0
102
RTVSPost2010Prop31
280
     0
102
RTVSPost2010PropOp31
 70
     0
102
RTVSPost2010Prop32
280
     0
102
RTVSPost2010PropOp32
 70
     0
102
RTVSPost2010Prop33
280
     0
102
RTVSPost2010PropOp33
 70
     0
102
RTVSPost2010Prop34
280
     0
102
RTVSPost2010PropOp34
 70
     0
102
RTVSPost2010Prop35
280
     0
102
RTVSPost2010PropOp35
 70
     0
102
RTVSPost2010Prop36
280
     0
102
RTVSPost2010PropOp36
 70
     0
102
RTVSPost2010Prop37
 90
       50
102
RTVSPost2010PropOp37
 70
     0
102
RTVSPost2010Prop38
140
0.0
102
RTVSPost2010PropOp38
 70
     0
102
RTVSPost2010Prop39
140
1.0
102
RTVSPost2010PropOp39
 70
     0
102
RTVSPost2010Prop40
 90
        0
102
RTVSPost2010PropOp40
 70
     0
102
RTVSPost2010Prop41ColorIndex
 90
       18
102
RTVSPost2010Prop41ColorRGB
 90
        0
102
RTVSPost2010PropOp41
 70
     0
102
RTVSPost2010Prop42
 90
       50
102
RTVSPost2010PropOp42
 70
     0
102
RTVSPost2010Prop43
 90
        3
102
RTVSPost2010PropOp43
 70
     0
102
RTVSPost2010Prop44ColorIndex
 90
        5
102
RTVSPost2010Prop44ColorRGB
 90
      255
102
RTVSPost2010PropOp44
 70
     0
102
RTVSPost2010Prop45
280
     0
102
RTVSPost2010PropOp45
 70
     0
102
RTVSPost2010Prop46
 90
       50
102
RTVSPost2010PropOp46
 70
     0
102
RTVSPost2010Prop47
 90
       50
102
RTVSPost2010PropOp47
 70
     0
102
RTVSPost2010Prop48
 90
       50
102
RTVSPost2010PropOp48
 70
     0
102
RTVSPost2010Prop49
280
     0
102
RTVSPost2010PropOp49
 70
     0
102
RTVSPost2010Prop50
 90
       50
102
RTVSPost2010PropOp50
 70
     0
102
RTVSPost2010Prop51ColorIndex
 90
      256
102
RTVSPost2010Prop51ColorRGB
 90
-16777216
102
RTVSPost2010PropOp51
 70
     0
102
RTVSPost2010Prop52
140
1.0
102
RTVSPost2010PropOp52
 70
     0
102
RTVSPost2010Prop53
 90
        2
102
RTVSPost2010PropOp53
 70
     0
102
RTVSPost2010Prop54
  1
strokes_ogs.tif
102
RTVSPost2010PropOp54
 70
     0
102
RTVSPost2010Prop55
280
     0
102
RTVSPost2010PropOp55
 70
     0
102
RTVSPost2010Prop56
140
1.0
102
RTVSPost2010PropOp56
 70
     0
102
RTVSPost2010Prop57
140
1.0
102
RTVSPost2010PropOp57
 70
     0
  0
XRECORD
  5
40A
102
{ACAD_REACTORS
330
409
102
}
330
409
100
AcDbXrecord
280
     1
102
RTVSPropertyOp0
 70
     1
102
RTVSPropertyOp1
 70
     1
102
RTVSPropertyOp2
 70
     1
102
RTVSPropertyOp3
 70
     1
102
RTVSPropertyOp4
 70
     1
102
RTVSPropertyOp5
 70
     1
102
RTVSPropertyOp6
 70
     1
102
RTVSPropertyOp7
 70
     1
102
RTVSPropertyOp8
 70
     1
102
RTVSPropertyOp9
 70
     1
102
RTVSPropertyOp10
 70
     1
102
RTVSPropertyOp11
 70
     1
102
RTVSPropertyOp12
 70
     1
102
RTVSPropertyOp13
 70
     1
102
RTVSPropertyOp14
 70
     1
102
RTVSPropertyOp15
 70
     1
102
RTVSPropertyOp16
 70
     1
102
RTVSPropertyOp17
 70
     1
102
RTVSPropertyOp18
 70
     1
102
RTVSPropertyOp19
 70
     1
102
RTVSPropertyOp20
 70
     1
102
RTVSPropertyOp21
 70
     1
102
RTVSPropertyOp22
 70
     1
102
RTVSPropertyOp23
 70
     1
102
RTVSPropertyOp24
 70
     1
102
RTVSPropertyOp25
 70
     1
102
RTVSPropertyOp26
 70
     1
102
RTVSPropertyOp27
 70
     1
102
RTVSPropertyOp28
 70
     1
102
RTVSPropertyOp29
 70
     1
102
RTVSPropertyOp30
 70
     1
102
RTVSPropertyOp31
 70
     1
102
RTVSPropertyOp32
 70
     1
102
RTVSPropertyOp33
 70
     1
102
RTVSPropertyOp34
 70
     1
102
RTVSPropertyOp35
 70
     1
102
RTVSPropertyOp36
 70
     1
102
RTVSPropertyOp37
 70
     1
102
RTVSPropertyOp38
 70
     1
102
RTVSPropertyOp39
 70
     1
102
RTVSPropertyOp40
 70
     1
102
RTVSPropertyOp41
 70
     1
102
RTVSPropertyOp42
 70
     1
102
RTVSPropertyOp43
 70
     1
102
RTVSPropertyOp44
 70
     1
102
RTVSPropertyOp45
 70
     1
102
RTVSPropertyOp46
 70
     1
102
RTVSPropertyOp47
 70
     1
102
RTVSPropertyOp48
 70
     1
102
RTVSPropertyOp49
 70
     1
102
RTVSPropertyOp50
 70
     1
102
RTVSPropertyOp51
 70
     0
102
RTVSPropertyOp52
 70
     0
102
RTVSPropertyOp53
 70
     1
102
RTVSPropertyOp54
 70
     1
102
RTVSPropertyOp55
 70
     1
102
RTVSPropertyOp56
 70
     1
102
RTVSPropertyOp57
 70
     1
102
RTVSPost2010Prop28
280
     0
102
RTVSPost2010PropOp28
 70
     1
102
RTVSPost2010Prop29
280
     1
102
RTVSPost2010PropOp29
 70
     1
102
RTVSPost2010Prop30
280
     1
102
RTVSPost2010PropOp30
 70
     1
102
RTVSPost2010Prop31
280
     0
102
RTVSPost2010PropOp31
 70
     1
102
RTVSPost2010Prop32
280
     0
102
RTVSPost2010PropOp32
 70
     1
102
RTVSPost2010Prop33
280
     0
102
RTVSPost2010PropOp33
 70
     1
102
RTVSPost2010Prop34
280
     0
102
RTVSPost2010PropOp34
 70
     1
102
RTVSPost2010Prop35
280
     0
102
RTVSPost2010PropOp35
 70
     1
102
RTVSPost2010Prop36
280
     0
102
RTVSPost2010PropOp36
 70
     1
102
RTVSPost2010Prop37
 90
       50
102
RTVSPost2010PropOp37
 70
     1
102
RTVSPost2010Prop38
140
0.0
102
RTVSPost2010PropOp38
 70
     1
102
RTVSPost2010Prop39
140
1.0
102
RTVSPost2010PropOp39
 70
     1
102
RTVSPost2010Prop40
 90
        0
102
RTVSPost2010PropOp40
 70
     1
102
RTVSPost2010Prop41ColorIndex
 90
       18
102
RTVSPost2010Prop41ColorRGB
 90
        0
102
RTVSPost2010PropOp41
 70
     1
102
RTVSPost2010Prop42
 90
       50
102
RTVSPost2010PropOp42
 70
     1
102
RTVSPost2010Prop43
 90
        3
102
RTVSPost2010PropOp43
 70
     1
102
RTVSPost2010Prop44ColorIndex
 90
        5
102
RTVSPost2010Prop44ColorRGB
 90
      255
102
RTVSPost2010PropOp44
 70
     1
102
RTVSPost2010Prop45
280
     0
102
RTVSPost2010PropOp45
 70
     1
102
RTVSPost2010Prop46
 90
       50
102
RTVSPost2010PropOp46
 70
     1
102
RTVSPost2010Prop47
 90
       50
102
RTVSPost2010PropOp47
 70
     1
102
RTVSPost2010Prop48
 90
       50
102
RTVSPost2010PropOp48
 70
     1
102
RTVSPost2010Prop49
280
     0
102
RTVSPost2010PropOp49
 70
     1
102
RTVSPost2010Prop50
 90
       50
102
RTVSPost2010PropOp50
 70
     1
102
RTVSPost2010Prop51ColorIndex
 90
      256
102
RTVSPost2010Prop51ColorRGB
 90
-16777216
102
RTVSPost2010PropOp51
 70
     0
102
RTVSPost2010Prop52
140
1.0
102
RTVSPost2010PropOp52
 70
     0
102
RTVSPost2010Prop53
 90
        2
102
RTVSPost2010PropOp53
 70
     1
102
RTVSPost2010Prop54
  1
strokes_ogs.tif
102
RTVSPost2010PropOp54
 70
     1
102
RTVSPost2010Prop55
280
     0
102
RTVSPost2010PropOp55
 70
     1
102
RTVSPost2010Prop56
140
1.0
102
RTVSPost2010PropOp56
 70
     1
102
RTVSPost2010Prop57
140
1.0
102
RTVSPost2010PropOp57
 70
     1
  0
XRECORD
  5
428
102
{ACAD_REACTORS
330
427
102
}
330
427
100
AcDbXrecord
280
     1
102
RTVSPropertyOp0
 70
     1
102
RTVSPropertyOp1
 70
     1
102
RTVSPropertyOp2
 70
     1
102
RTVSPropertyOp3
 70
     1
102
RTVSPropertyOp4
 70
     1
102
RTVSPropertyOp5
 70
     1
102
RTVSPropertyOp6
 70
     1
102
RTVSPropertyOp7
 70
     1
102
RTVSPropertyOp8
 70
     1
102
RTVSPropertyOp9
 70
     1
102
RTVSPropertyOp10
 70
     1
102
RTVSPropertyOp11
 70
     1
102
RTVSPropertyOp12
 70
     1
102
RTVSPropertyOp13
 70
     1
102
RTVSPropertyOp14
 70
     1
102
RTVSPropertyOp15
 70
     1
102
RTVSPropertyOp16
 70
     1
102
RTVSPropertyOp17
 70
     1
102
RTVSPropertyOp18
 70
     1
102
RTVSPropertyOp19
 70
     1
102
RTVSPropertyOp20
 70
     1
102
RTVSPropertyOp21
 70
     1
102
RTVSPropertyOp22
 70
     1
102
RTVSPropertyOp23
 70
     1
102
RTVSPropertyOp24
 70
     1
102
RTVSPropertyOp25
 70
     1
102
RTVSPropertyOp26
 70
     1
102
RTVSPropertyOp27
 70
     1
102
RTVSPropertyOp28
 70
     1
102
RTVSPropertyOp29
 70
     1
102
RTVSPropertyOp30
 70
     1
102
RTVSPropertyOp31
 70
     1
102
RTVSPropertyOp32
 70
     1
102
RTVSPropertyOp33
 70
     1
102
RTVSPropertyOp34
 70
     1
102
RTVSPropertyOp35
 70
     1
102
RTVSPropertyOp36
 70
     1
102
RTVSPropertyOp37
 70
     1
102
RTVSPropertyOp38
 70
     1
102
RTVSPropertyOp39
 70
     1
102
RTVSPropertyOp40
 70
     1
102
RTVSPropertyOp41
 70
     1
102
RTVSPropertyOp42
 70
     1
102
RTVSPropertyOp43
 70
     1
102
RTVSPropertyOp44
 70
     1
102
RTVSPropertyOp45
 70
     1
102
RTVSPropertyOp46
 70
     1
102
RTVSPropertyOp47
 70
     1
102
RTVSPropertyOp48
 70
     1
102
RTVSPropertyOp49
 70
     1
102
RTVSPropertyOp50
 70
     1
102
RTVSPropertyOp51
 70
     0
102
RTVSPropertyOp52
 70
     0
102
RTVSPropertyOp53
 70
     1
102
RTVSPropertyOp54
 70
     1
102
RTVSPropertyOp55
 70
     1
102
RTVSPropertyOp56
 70
     1
102
RTVSPropertyOp57
 70
     1
102
RTVSPost2010Prop28
280
     0
102
RTVSPost2010PropOp28
 70
     1
102
RTVSPost2010Prop29
280
     1
102
RTVSPost2010PropOp29
 70
     1
102
RTVSPost2010Prop30
280
     1
102
RTVSPost2010PropOp30
 70
     1
102
RTVSPost2010Prop31
280
     0
102
RTVSPost2010PropOp31
 70
     1
102
RTVSPost2010Prop32
280
     0
102
RTVSPost2010PropOp32
 70
     1
102
RTVSPost2010Prop33
280
     0
102
RTVSPost2010PropOp33
 70
     1
102
RTVSPost2010Prop34
280
     0
102
RTVSPost2010PropOp34
 70
     1
102
RTVSPost2010Prop35
280
     0
102
RTVSPost2010PropOp35
 70
     1
102
RTVSPost2010Prop36
280
     0
102
RTVSPost2010PropOp36
 70
     1
102
RTVSPost2010Prop37
 90
       50
102
RTVSPost2010PropOp37
 70
     1
102
RTVSPost2010Prop38
140
0.0
102
RTVSPost2010PropOp38
 70
     1
102
RTVSPost2010Prop39
140
1.0
102
RTVSPost2010PropOp39
 70
     1
102
RTVSPost2010Prop40
 90
        0
102
RTVSPost2010PropOp40
 70
     1
102
RTVSPost2010Prop41ColorIndex
 90
       18
102
RTVSPost2010Prop41ColorRGB
 90
        0
102
RTVSPost2010PropOp41
 70
     1
102
RTVSPost2010Prop42
 90
       50
102
RTVSPost2010PropOp42
 70
     1
102
RTVSPost2010Prop43
 90
        3
102
RTVSPost2010PropOp43
 70
     1
102
RTVSPost2010Prop44ColorIndex
 90
        5
102
RTVSPost2010Prop44ColorRGB
 90
      255
102
RTVSPost2010PropOp44
 70
     1
102
RTVSPost2010Prop45
280
     0
102
RTVSPost2010PropOp45
 70
     1
102
RTVSPost2010Prop46
 90
       50
102
RTVSPost2010PropOp46
 70
     1
102
RTVSPost2010Prop47
 90
       50
102
RTVSPost2010PropOp47
 70
     1
102
RTVSPost2010Prop48
 90
       50
102
RTVSPost2010PropOp48
 70
     1
102
RTVSPost2010Prop49
280
     0
102
RTVSPost2010PropOp49
 70
     1
102
RTVSPost2010Prop50
 90
       50
102
RTVSPost2010PropOp50
 70
     1
102
RTVSPost2010Prop51ColorIndex
 90
      256
102
RTVSPost2010Prop51ColorRGB
 90
-16777216
102
RTVSPost2010PropOp51
 70
     0
102
RTVSPost2010Prop52
140
1.0
102
RTVSPost2010PropOp52
 70
     0
102
RTVSPost2010Prop53
 90
        2
102
RTVSPost2010PropOp53
 70
     1
102
RTVSPost2010Prop54
  1
strokes_ogs.tif
102
RTVSPost2010PropOp54
 70
     1
102
RTVSPost2010Prop55
280
     0
102
RTVSPost2010PropOp55
 70
     1
102
RTVSPost2010Prop56
140
1.0
102
RTVSPost2010PropOp56
 70
     1
102
RTVSPost2010Prop57
140
1.0
102
RTVSPost2010PropOp57
 70
     1
  0
XRECORD
  5
426
102
{ACAD_REACTORS
330
425
102
}
330
425
100
AcDbXrecord
280
     1
102
RTVSPropertyOp0
 70
     1
102
RTVSPropertyOp1
 70
     1
102
RTVSPropertyOp2
 70
     1
102
RTVSPropertyOp3
 70
     1
102
RTVSPropertyOp4
 70
     1
102
RTVSPropertyOp5
 70
     1
102
RTVSPropertyOp6
 70
     1
102
RTVSPropertyOp7
 70
     1
102
RTVSPropertyOp8
 70
     1
102
RTVSPropertyOp9
 70
     1
102
RTVSPropertyOp10
 70
     1
102
RTVSPropertyOp11
 70
     1
102
RTVSPropertyOp12
 70
     1
102
RTVSPropertyOp13
 70
     1
102
RTVSPropertyOp14
 70
     1
102
RTVSPropertyOp15
 70
     1
102
RTVSPropertyOp16
 70
     1
102
RTVSPropertyOp17
 70
     1
102
RTVSPropertyOp18
 70
     1
102
RTVSPropertyOp19
 70
     1
102
RTVSPropertyOp20
 70
     1
102
RTVSPropertyOp21
 70
     1
102
RTVSPropertyOp22
 70
     1
102
RTVSPropertyOp23
 70
     1
102
RTVSPropertyOp24
 70
     1
102
RTVSPropertyOp25
 70
     1
102
RTVSPropertyOp26
 70
     1
102
RTVSPropertyOp27
 70
     1
102
RTVSPropertyOp28
 70
     1
102
RTVSPropertyOp29
 70
     1
102
RTVSPropertyOp30
 70
     1
102
RTVSPropertyOp31
 70
     1
102
RTVSPropertyOp32
 70
     1
102
RTVSPropertyOp33
 70
     1
102
RTVSPropertyOp34
 70
     1
102
RTVSPropertyOp35
 70
     1
102
RTVSPropertyOp36
 70
     1
102
RTVSPropertyOp37
 70
     1
102
RTVSPropertyOp38
 70
     1
102
RTVSPropertyOp39
 70
     1
102
RTVSPropertyOp40
 70
     1
102
RTVSPropertyOp41
 70
     1
102
RTVSPropertyOp42
 70
     1
102
RTVSPropertyOp43
 70
     1
102
RTVSPropertyOp44
 70
     1
102
RTVSPropertyOp45
 70
     1
102
RTVSPropertyOp46
 70
     1
102
RTVSPropertyOp47
 70
     1
102
RTVSPropertyOp48
 70
     1
102
RTVSPropertyOp49
 70
     1
102
RTVSPropertyOp50
 70
     1
102
RTVSPropertyOp51
 70
     0
102
RTVSPropertyOp52
 70
     0
102
RTVSPropertyOp53
 70
     1
102
RTVSPropertyOp54
 70
     1
102
RTVSPropertyOp55
 70
     1
102
RTVSPropertyOp56
 70
     1
102
RTVSPropertyOp57
 70
     1
102
RTVSPost2010Prop28
280
     0
102
RTVSPost2010PropOp28
 70
     1
102
RTVSPost2010Prop29
280
     1
102
RTVSPost2010PropOp29
 70
     1
102
RTVSPost2010Prop30
280
     1
102
RTVSPost2010PropOp30
 70
     1
102
RTVSPost2010Prop31
280
     0
102
RTVSPost2010PropOp31
 70
     1
102
RTVSPost2010Prop32
280
     0
102
RTVSPost2010PropOp32
 70
     1
102
RTVSPost2010Prop33
280
     0
102
RTVSPost2010PropOp33
 70
     1
102
RTVSPost2010Prop34
280
     0
102
RTVSPost2010PropOp34
 70
     1
102
RTVSPost2010Prop35
280
     0
102
RTVSPost2010PropOp35
 70
     1
102
RTVSPost2010Prop36
280
     0
102
RTVSPost2010PropOp36
 70
     1
102
RTVSPost2010Prop37
 90
       50
102
RTVSPost2010PropOp37
 70
     1
102
RTVSPost2010Prop38
140
0.0
102
RTVSPost2010PropOp38
 70
     1
102
RTVSPost2010Prop39
140
1.0
102
RTVSPost2010PropOp39
 70
     1
102
RTVSPost2010Prop40
 90
        0
102
RTVSPost2010PropOp40
 70
     1
102
RTVSPost2010Prop41ColorIndex
 90
       18
102
RTVSPost2010Prop41ColorRGB
 90
        0
102
RTVSPost2010PropOp41
 70
     1
102
RTVSPost2010Prop42
 90
       50
102
RTVSPost2010PropOp42
 70
     1
102
RTVSPost2010Prop43
 90
        3
102
RTVSPost2010PropOp43
 70
     1
102
RTVSPost2010Prop44ColorIndex
 90
        5
102
RTVSPost2010Prop44ColorRGB
 90
      255
102
RTVSPost2010PropOp44
 70
     1
102
RTVSPost2010Prop45
280
     0
102
RTVSPost2010PropOp45
 70
     1
102
RTVSPost2010Prop46
 90
       50
102
RTVSPost2010PropOp46
 70
     1
102
RTVSPost2010Prop47
 90
       50
102
RTVSPost2010PropOp47
 70
     1
102
RTVSPost2010Prop48
 90
       50
102
RTVSPost2010PropOp48
 70
     1
102
RTVSPost2010Prop49
280
     0
102
RTVSPost2010PropOp49
 70
     1
102
RTVSPost2010Prop50
 90
       50
102
RTVSPost2010PropOp50
 70
     1
102
RTVSPost2010Prop51ColorIndex
 90
      256
102
RTVSPost2010Prop51ColorRGB
 90
-16777216
102
RTVSPost2010PropOp51
 70
     0
102
RTVSPost2010Prop52
140
1.0
102
RTVSPost2010PropOp52
 70
     0
102
RTVSPost2010Prop53
 90
        2
102
RTVSPost2010PropOp53
 70
     1
102
RTVSPost2010Prop54
  1
strokes_ogs.tif
102
RTVSPost2010PropOp54
 70
     1
102
RTVSPost2010Prop55
280
     0
102
RTVSPost2010PropOp55
 70
     1
102
RTVSPost2010Prop56
140
1.0
102
RTVSPost2010PropOp56
 70
     1
102
RTVSPost2010Prop57
140
1.0
102
RTVSPost2010PropOp57
 70
     1
  0
XRECORD
  5
420
102
{ACAD_REACTORS
330
41F
102
}
330
41F
100
AcDbXrecord
280
     1
102
RTVSPropertyOp0
 70
     1
102
RTVSPropertyOp1
 70
     1
102
RTVSPropertyOp2
 70
     1
102
RTVSPropertyOp3
 70
     1
102
RTVSPropertyOp4
 70
     1
102
RTVSPropertyOp5
 70
     1
102
RTVSPropertyOp6
 70
     1
102
RTVSPropertyOp7
 70
     1
102
RTVSPropertyOp8
 70
     1
102
RTVSPropertyOp9
 70
     1
102
RTVSPropertyOp10
 70
     1
102
RTVSPropertyOp11
 70
     1
102
RTVSPropertyOp12
 70
     1
102
RTVSPropertyOp13
 70
     1
102
RTVSPropertyOp14
 70
     1
102
RTVSPropertyOp15
 70
     1
102
RTVSPropertyOp16
 70
     1
102
RTVSPropertyOp17
 70
     1
102
RTVSPropertyOp18
 70
     1
102
RTVSPropertyOp19
 70
     1
102
RTVSPropertyOp20
 70
     1
102
RTVSPropertyOp21
 70
     1
102
RTVSPropertyOp22
 70
     1
102
RTVSPropertyOp23
 70
     1
102
RTVSPropertyOp24
 70
     1
102
RTVSPropertyOp25
 70
     1
102
RTVSPropertyOp26
 70
     1
102
RTVSPropertyOp27
 70
     1
102
RTVSPropertyOp28
 70
     1
102
RTVSPropertyOp29
 70
     1
102
RTVSPropertyOp30
 70
     1
102
RTVSPropertyOp31
 70
     1
102
RTVSPropertyOp32
 70
     1
102
RTVSPropertyOp33
 70
     1
102
RTVSPropertyOp34
 70
     1
102
RTVSPropertyOp35
 70
     1
102
RTVSPropertyOp36
 70
     1
102
RTVSPropertyOp37
 70
     1
102
RTVSPropertyOp38
 70
     1
102
RTVSPropertyOp39
 70
     1
102
RTVSPropertyOp40
 70
     1
102
RTVSPropertyOp41
 70
     1
102
RTVSPropertyOp42
 70
     1
102
RTVSPropertyOp43
 70
     1
102
RTVSPropertyOp44
 70
     1
102
RTVSPropertyOp45
 70
     1
102
RTVSPropertyOp46
 70
     1
102
RTVSPropertyOp47
 70
     1
102
RTVSPropertyOp48
 70
     1
102
RTVSPropertyOp49
 70
     1
102
RTVSPropertyOp50
 70
     1
102
RTVSPropertyOp51
 70
     0
102
RTVSPropertyOp52
 70
     0
102
RTVSPropertyOp53
 70
     1
102
RTVSPropertyOp54
 70
     1
102
RTVSPropertyOp55
 70
     1
102
RTVSPropertyOp56
 70
     1
102
RTVSPropertyOp57
 70
     1
102
RTVSPost2010Prop28
280
     0
102
RTVSPost2010PropOp28
 70
     1
102
RTVSPost2010Prop29
280
     1
102
RTVSPost2010PropOp29
 70
     1
102
RTVSPost2010Prop30
280
     1
102
RTVSPost2010PropOp30
 70
     1
102
RTVSPost2010Prop31
280
     0
102
RTVSPost2010PropOp31
 70
     1
102
RTVSPost2010Prop32
280
     0
102
RTVSPost2010PropOp32
 70
     1
102
RTVSPost2010Prop33
280
     0
102
RTVSPost2010PropOp33
 70
     1
102
RTVSPost2010Prop34
280
     0
102
RTVSPost2010PropOp34
 70
     1
102
RTVSPost2010Prop35
280
     0
102
RTVSPost2010PropOp35
 70
     1
102
RTVSPost2010Prop36
280
     0
102
RTVSPost2010PropOp36
 70
     1
102
RTVSPost2010Prop37
 90
       50
102
RTVSPost2010PropOp37
 70
     1
102
RTVSPost2010Prop38
140
0.0
102
RTVSPost2010PropOp38
 70
     1
102
RTVSPost2010Prop39
140
1.0
102
RTVSPost2010PropOp39
 70
     1
102
RTVSPost2010Prop40
 90
        0
102
RTVSPost2010PropOp40
 70
     1
102
RTVSPost2010Prop41ColorIndex
 90
       18
102
RTVSPost2010Prop41ColorRGB
 90
        0
102
RTVSPost2010PropOp41
 70
     1
102
RTVSPost2010Prop42
 90
       50
102
RTVSPost2010PropOp42
 70
     1
102
RTVSPost2010Prop43
 90
        3
102
RTVSPost2010PropOp43
 70
     1
102
RTVSPost2010Prop44ColorIndex
 90
        5
102
RTVSPost2010Prop44ColorRGB
 90
      255
102
RTVSPost2010PropOp44
 70
     1
102
RTVSPost2010Prop45
280
     0
102
RTVSPost2010PropOp45
 70
     1
102
RTVSPost2010Prop46
 90
       50
102
RTVSPost2010PropOp46
 70
     1
102
RTVSPost2010Prop47
 90
       50
102
RTVSPost2010PropOp47
 70
     1
102
RTVSPost2010Prop48
 90
       50
102
RTVSPost2010PropOp48
 70
     1
102
RTVSPost2010Prop49
280
     0
102
RTVSPost2010PropOp49
 70
     1
102
RTVSPost2010Prop50
 90
       50
102
RTVSPost2010PropOp50
 70
     1
102
RTVSPost2010Prop51ColorIndex
 90
      256
102
RTVSPost2010Prop51ColorRGB
 90
-16777216
102
RTVSPost2010PropOp51
 70
     0
102
RTVSPost2010Prop52
140
1.0
102
RTVSPost2010PropOp52
 70
     0
102
RTVSPost2010Prop53
 90
        2
102
RTVSPost2010PropOp53
 70
     1
102
RTVSPost2010Prop54
  1
strokes_ogs.tif
102
RTVSPost2010PropOp54
 70
     1
102
RTVSPost2010Prop55
280
     0
102
RTVSPost2010PropOp55
 70
     1
102
RTVSPost2010Prop56
140
1.0
102
RTVSPost2010PropOp56
 70
     1
102
RTVSPost2010Prop57
140
1.0
102
RTVSPost2010PropOp57
 70
     1
  0
XRECORD
  5
422
102
{ACAD_REACTORS
330
421
102
}
330
421
100
AcDbXrecord
280
     1
102
RTVSPropertyOp0
 70
     1
102
RTVSPropertyOp1
 70
     1
102
RTVSPropertyOp2
 70
     1
102
RTVSPropertyOp3
 70
     1
102
RTVSPropertyOp4
 70
     1
102
RTVSPropertyOp5
 70
     1
102
RTVSPropertyOp6
 70
     1
102
RTVSPropertyOp7
 70
     1
102
RTVSPropertyOp8
 70
     1
102
RTVSPropertyOp9
 70
     1
102
RTVSPropertyOp10
 70
     1
102
RTVSPropertyOp11
 70
     1
102
RTVSPropertyOp12
 70
     1
102
RTVSPropertyOp13
 70
     1
102
RTVSPropertyOp14
 70
     1
102
RTVSPropertyOp15
 70
     1
102
RTVSPropertyOp16
 70
     1
102
RTVSPropertyOp17
 70
     1
102
RTVSPropertyOp18
 70
     1
102
RTVSPropertyOp19
 70
     1
102
RTVSPropertyOp20
 70
     1
102
RTVSPropertyOp21
 70
     1
102
RTVSPropertyOp22
 70
     1
102
RTVSPropertyOp23
 70
     1
102
RTVSPropertyOp24
 70
     1
102
RTVSPropertyOp25
 70
     1
102
RTVSPropertyOp26
 70
     1
102
RTVSPropertyOp27
 70
     1
102
RTVSPropertyOp28
 70
     1
102
RTVSPropertyOp29
 70
     1
102
RTVSPropertyOp30
 70
     1
102
RTVSPropertyOp31
 70
     1
102
RTVSPropertyOp32
 70
     1
102
RTVSPropertyOp33
 70
     1
102
RTVSPropertyOp34
 70
     1
102
RTVSPropertyOp35
 70
     1
102
RTVSPropertyOp36
 70
     1
102
RTVSPropertyOp37
 70
     1
102
RTVSPropertyOp38
 70
     1
102
RTVSPropertyOp39
 70
     1
102
RTVSPropertyOp40
 70
     1
102
RTVSPropertyOp41
 70
     1
102
RTVSPropertyOp42
 70
     1
102
RTVSPropertyOp43
 70
     1
102
RTVSPropertyOp44
 70
     1
102
RTVSPropertyOp45
 70
     1
102
RTVSPropertyOp46
 70
     1
102
RTVSPropertyOp47
 70
     1
102
RTVSPropertyOp48
 70
     1
102
RTVSPropertyOp49
 70
     1
102
RTVSPropertyOp50
 70
     1
102
RTVSPropertyOp51
 70
     0
102
RTVSPropertyOp52
 70
     0
102
RTVSPropertyOp53
 70
     1
102
RTVSPropertyOp54
 70
     1
102
RTVSPropertyOp55
 70
     1
102
RTVSPropertyOp56
 70
     1
102
RTVSPropertyOp57
 70
     1
102
RTVSPost2010Prop28
280
     0
102
RTVSPost2010PropOp28
 70
     1
102
RTVSPost2010Prop29
280
     1
102
RTVSPost2010PropOp29
 70
     1
102
RTVSPost2010Prop30
280
     1
102
RTVSPost2010PropOp30
 70
     1
102
RTVSPost2010Prop31
280
     0
102
RTVSPost2010PropOp31
 70
     1
102
RTVSPost2010Prop32
280
     0
102
RTVSPost2010PropOp32
 70
     1
102
RTVSPost2010Prop33
280
     0
102
RTVSPost2010PropOp33
 70
     1
102
RTVSPost2010Prop34
280
     0
102
RTVSPost2010PropOp34
 70
     1
102
RTVSPost2010Prop35
280
     0
102
RTVSPost2010PropOp35
 70
     1
102
RTVSPost2010Prop36
280
     0
102
RTVSPost2010PropOp36
 70
     1
102
RTVSPost2010Prop37
 90
       50
102
RTVSPost2010PropOp37
 70
     1
102
RTVSPost2010Prop38
140
0.0
102
RTVSPost2010PropOp38
 70
     1
102
RTVSPost2010Prop39
140
1.0
102
RTVSPost2010PropOp39
 70
     1
102
RTVSPost2010Prop40
 90
        0
102
RTVSPost2010PropOp40
 70
     1
102
RTVSPost2010Prop41ColorIndex
 90
       18
102
RTVSPost2010Prop41ColorRGB
 90
        0
102
RTVSPost2010PropOp41
 70
     1
102
RTVSPost2010Prop42
 90
       50
102
RTVSPost2010PropOp42
 70
     1
102
RTVSPost2010Prop43
 90
        3
102
RTVSPost2010PropOp43
 70
     1
102
RTVSPost2010Prop44ColorIndex
 90
        5
102
RTVSPost2010Prop44ColorRGB
 90
      255
102
RTVSPost2010PropOp44
 70
     1
102
RTVSPost2010Prop45
280
     0
102
RTVSPost2010PropOp45
 70
     1
102
RTVSPost2010Prop46
 90
       50
102
RTVSPost2010PropOp46
 70
     1
102
RTVSPost2010Prop47
 90
       50
102
RTVSPost2010PropOp47
 70
     1
102
RTVSPost2010Prop48
 90
       50
102
RTVSPost2010PropOp48
 70
     1
102
RTVSPost2010Prop49
280
     0
102
RTVSPost2010PropOp49
 70
     1
102
RTVSPost2010Prop50
 90
       50
102
RTVSPost2010PropOp50
 70
     1
102
RTVSPost2010Prop51ColorIndex
 90
      256
102
RTVSPost2010Prop51ColorRGB
 90
-16777216
102
RTVSPost2010PropOp51
 70
     0
102
RTVSPost2010Prop52
140
1.0
102
RTVSPost2010PropOp52
 70
     0
102
RTVSPost2010Prop53
 90
        2
102
RTVSPost2010PropOp53
 70
     1
102
RTVSPost2010Prop54
  1
strokes_ogs.tif
102
RTVSPost2010PropOp54
 70
     1
102
RTVSPost2010Prop55
280
     0
102
RTVSPost2010PropOp55
 70
     1
102
RTVSPost2010Prop56
140
1.0
102
RTVSPost2010PropOp56
 70
     1
102
RTVSPost2010Prop57
140
1.0
102
RTVSPost2010PropOp57
 70
     1
  0
XRECORD
  5
412
102
{ACAD_REACTORS
330
411
102
}
330
411
100
AcDbXrecord
280
     1
102
RTVSPropertyOp0
 70
     1
102
RTVSPropertyOp1
 70
     1
102
RTVSPropertyOp2
 70
     1
102
RTVSPropertyOp3
 70
     1
102
RTVSPropertyOp4
 70
     1
102
RTVSPropertyOp5
 70
     1
102
RTVSPropertyOp6
 70
     1
102
RTVSPropertyOp7
 70
     1
102
RTVSPropertyOp8
 70
     1
102
RTVSPropertyOp9
 70
     1
102
RTVSPropertyOp10
 70
     1
102
RTVSPropertyOp11
 70
     1
102
RTVSPropertyOp12
 70
     1
102
RTVSPropertyOp13
 70
     1
102
RTVSPropertyOp14
 70
     1
102
RTVSPropertyOp15
 70
     1
102
RTVSPropertyOp16
 70
     1
102
RTVSPropertyOp17
 70
     1
102
RTVSPropertyOp18
 70
     1
102
RTVSPropertyOp19
 70
     1
102
RTVSPropertyOp20
 70
     1
102
RTVSPropertyOp21
 70
     1
102
RTVSPropertyOp22
 70
     1
102
RTVSPropertyOp23
 70
     1
102
RTVSPropertyOp24
 70
     1
102
RTVSPropertyOp25
 70
     1
102
RTVSPropertyOp26
 70
     1
102
RTVSPropertyOp27
 70
     1
102
RTVSPropertyOp28
 70
     1
102
RTVSPropertyOp29
 70
     1
102
RTVSPropertyOp30
 70
     1
102
RTVSPropertyOp31
 70
     1
102
RTVSPropertyOp32
 70
     1
102
RTVSPropertyOp33
 70
     1
102
RTVSPropertyOp34
 70
     1
102
RTVSPropertyOp35
 70
     1
102
RTVSPropertyOp36
 70
     1
102
RTVSPropertyOp37
 70
     1
102
RTVSPropertyOp38
 70
     1
102
RTVSPropertyOp39
 70
     1
102
RTVSPropertyOp40
 70
     1
102
RTVSPropertyOp41
 70
     1
102
RTVSPropertyOp42
 70
     1
102
RTVSPropertyOp43
 70
     1
102
RTVSPropertyOp44
 70
     1
102
RTVSPropertyOp45
 70
     1
102
RTVSPropertyOp46
 70
     1
102
RTVSPropertyOp47
 70
     1
102
RTVSPropertyOp48
 70
     1
102
RTVSPropertyOp49
 70
     1
102
RTVSPropertyOp50
 70
     1
102
RTVSPropertyOp51
 70
     0
102
RTVSPropertyOp52
 70
     0
102
RTVSPropertyOp53
 70
     1
102
RTVSPropertyOp54
 70
     1
102
RTVSPropertyOp55
 70
     1
102
RTVSPropertyOp56
 70
     1
102
RTVSPropertyOp57
 70
     1
102
RTVSPost2010Prop28
280
     0
102
RTVSPost2010PropOp28
 70
     1
102
RTVSPost2010Prop29
280
     1
102
RTVSPost2010PropOp29
 70
     1
102
RTVSPost2010Prop30
280
     1
102
RTVSPost2010PropOp30
 70
     1
102
RTVSPost2010Prop31
280
     0
102
RTVSPost2010PropOp31
 70
     1
102
RTVSPost2010Prop32
280
     0
102
RTVSPost2010PropOp32
 70
     1
102
RTVSPost2010Prop33
280
     0
102
RTVSPost2010PropOp33
 70
     1
102
RTVSPost2010Prop34
280
     0
102
RTVSPost2010PropOp34
 70
     1
102
RTVSPost2010Prop35
280
     0
102
RTVSPost2010PropOp35
 70
     1
102
RTVSPost2010Prop36
280
     0
102
RTVSPost2010PropOp36
 70
     1
102
RTVSPost2010Prop37
 90
       50
102
RTVSPost2010PropOp37
 70
     1
102
RTVSPost2010Prop38
140
0.0
102
RTVSPost2010PropOp38
 70
     1
102
RTVSPost2010Prop39
140
1.0
102
RTVSPost2010PropOp39
 70
     1
102
RTVSPost2010Prop40
 90
        0
102
RTVSPost2010PropOp40
 70
     1
102
RTVSPost2010Prop41ColorIndex
 90
       18
102
RTVSPost2010Prop41ColorRGB
 90
        0
102
RTVSPost2010PropOp41
 70
     1
102
RTVSPost2010Prop42
 90
       50
102
RTVSPost2010PropOp42
 70
     1
102
RTVSPost2010Prop43
 90
        3
102
RTVSPost2010PropOp43
 70
     1
102
RTVSPost2010Prop44ColorIndex
 90
        5
102
RTVSPost2010Prop44ColorRGB
 90
      255
102
RTVSPost2010PropOp44
 70
     1
102
RTVSPost2010Prop45
280
     0
102
RTVSPost2010PropOp45
 70
     1
102
RTVSPost2010Prop46
 90
       50
102
RTVSPost2010PropOp46
 70
     1
102
RTVSPost2010Prop47
 90
       50
102
RTVSPost2010PropOp47
 70
     1
102
RTVSPost2010Prop48
 90
       50
102
RTVSPost2010PropOp48
 70
     1
102
RTVSPost2010Prop49
280
     0
102
RTVSPost2010PropOp49
 70
     1
102
RTVSPost2010Prop50
 90
       50
102
RTVSPost2010PropOp50
 70
     1
102
RTVSPost2010Prop51ColorIndex
 90
      256
102
RTVSPost2010Prop51ColorRGB
 90
-16777216
102
RTVSPost2010PropOp51
 70
     0
102
RTVSPost2010Prop52
140
1.0
102
RTVSPost2010PropOp52
 70
     0
102
RTVSPost2010Prop53
 90
        2
102
RTVSPost2010PropOp53
 70
     1
102
RTVSPost2010Prop54
  1
strokes_ogs.tif
102
RTVSPost2010PropOp54
 70
     1
102
RTVSPost2010Prop55
280
     0
102
RTVSPost2010PropOp55
 70
     1
102
RTVSPost2010Prop56
140
1.0
102
RTVSPost2010PropOp56
 70
     1
102
RTVSPost2010Prop57
140
1.0
102
RTVSPost2010PropOp57
 70
     1
  0
XRECORD
  5
404
102
{ACAD_REACTORS
330
403
102
}
330
403
100
AcDbXrecord
280
     1
102
RTVSPropertyOp0
 70
     1
102
RTVSPropertyOp1
 70
     1
102
RTVSPropertyOp2
 70
     1
102
RTVSPropertyOp3
 70
     1
102
RTVSPropertyOp4
 70
     1
102
RTVSPropertyOp5
 70
     1
102
RTVSPropertyOp6
 70
     1
102
RTVSPropertyOp7
 70
     1
102
RTVSPropertyOp8
 70
     1
102
RTVSPropertyOp9
 70
     1
102
RTVSPropertyOp10
 70
     1
102
RTVSPropertyOp11
 70
     1
102
RTVSPropertyOp12
 70
     1
102
RTVSPropertyOp13
 70
     1
102
RTVSPropertyOp14
 70
     1
102
RTVSPropertyOp15
 70
     1
102
RTVSPropertyOp16
 70
     1
102
RTVSPropertyOp17
 70
     1
102
RTVSPropertyOp18
 70
     1
102
RTVSPropertyOp19
 70
     1
102
RTVSPropertyOp20
 70
     1
102
RTVSPropertyOp21
 70
     1
102
RTVSPropertyOp22
 70
     1
102
RTVSPropertyOp23
 70
     1
102
RTVSPropertyOp24
 70
     1
102
RTVSPropertyOp25
 70
     1
102
RTVSPropertyOp26
 70
     1
102
RTVSPropertyOp27
 70
     1
102
RTVSPropertyOp28
 70
     1
102
RTVSPropertyOp29
 70
     1
102
RTVSPropertyOp30
 70
     1
102
RTVSPropertyOp31
 70
     1
102
RTVSPropertyOp32
 70
     1
102
RTVSPropertyOp33
 70
     1
102
RTVSPropertyOp34
 70
     1
102
RTVSPropertyOp35
 70
     1
102
RTVSPropertyOp36
 70
     1
102
RTVSPropertyOp37
 70
     1
102
RTVSPropertyOp38
 70
     1
102
RTVSPropertyOp39
 70
     1
102
RTVSPropertyOp40
 70
     1
102
RTVSPropertyOp41
 70
     1
102
RTVSPropertyOp42
 70
     1
102
RTVSPropertyOp43
 70
     1
102
RTVSPropertyOp44
 70
     1
102
RTVSPropertyOp45
 70
     1
102
RTVSPropertyOp46
 70
     1
102
RTVSPropertyOp47
 70
     1
102
RTVSPropertyOp48
 70
     1
102
RTVSPropertyOp49
 70
     1
102
RTVSPropertyOp50
 70
     1
102
RTVSPropertyOp51
 70
     0
102
RTVSPropertyOp52
 70
     0
102
RTVSPropertyOp53
 70
     1
102
RTVSPropertyOp54
 70
     1
102
RTVSPropertyOp55
 70
     1
102
RTVSPropertyOp56
 70
     1
102
RTVSPropertyOp57
 70
     1
102
RTVSPost2010Prop28
280
     0
102
RTVSPost2010PropOp28
 70
     1
102
RTVSPost2010Prop29
280
     1
102
RTVSPost2010PropOp29
 70
     1
102
RTVSPost2010Prop30
280
     1
102
RTVSPost2010PropOp30
 70
     1
102
RTVSPost2010Prop31
280
     0
102
RTVSPost2010PropOp31
 70
     1
102
RTVSPost2010Prop32
280
     0
102
RTVSPost2010PropOp32
 70
     1
102
RTVSPost2010Prop33
280
     0
102
RTVSPost2010PropOp33
 70
     1
102
RTVSPost2010Prop34
280
     0
102
RTVSPost2010PropOp34
 70
     1
102
RTVSPost2010Prop35
280
     0
102
RTVSPost2010PropOp35
 70
     1
102
RTVSPost2010Prop36
280
     0
102
RTVSPost2010PropOp36
 70
     1
102
RTVSPost2010Prop37
 90
       50
102
RTVSPost2010PropOp37
 70
     1
102
RTVSPost2010Prop38
140
0.0
102
RTVSPost2010PropOp38
 70
     1
102
RTVSPost2010Prop39
140
1.0
102
RTVSPost2010PropOp39
 70
     1
102
RTVSPost2010Prop40
 90
        0
102
RTVSPost2010PropOp40
 70
     1
102
RTVSPost2010Prop41ColorIndex
 90
       18
102
RTVSPost2010Prop41ColorRGB
 90
        0
102
RTVSPost2010PropOp41
 70
     1
102
RTVSPost2010Prop42
 90
       50
102
RTVSPost2010PropOp42
 70
     1
102
RTVSPost2010Prop43
 90
        3
102
RTVSPost2010PropOp43
 70
     1
102
RTVSPost2010Prop44ColorIndex
 90
        5
102
RTVSPost2010Prop44ColorRGB
 90
      255
102
RTVSPost2010PropOp44
 70
     1
102
RTVSPost2010Prop45
280
     0
102
RTVSPost2010PropOp45
 70
     1
102
RTVSPost2010Prop46
 90
       50
102
RTVSPost2010PropOp46
 70
     1
102
RTVSPost2010Prop47
 90
       50
102
RTVSPost2010PropOp47
 70
     1
102
RTVSPost2010Prop48
 90
       50
102
RTVSPost2010PropOp48
 70
     1
102
RTVSPost2010Prop49
280
     0
102
RTVSPost2010PropOp49
 70
     1
102
RTVSPost2010Prop50
 90
       50
102
RTVSPost2010PropOp50
 70
     1
102
RTVSPost2010Prop51ColorIndex
 90
      256
102
RTVSPost2010Prop51ColorRGB
 90
-16777216
102
RTVSPost2010PropOp51
 70
     0
102
RTVSPost2010Prop52
140
1.0
102
RTVSPost2010PropOp52
 70
     0
102
RTVSPost2010Prop53
 90
        2
102
RTVSPost2010PropOp53
 70
     1
102
RTVSPost2010Prop54
  1
strokes_ogs.tif
102
RTVSPost2010PropOp54
 70
     1
102
RTVSPost2010Prop55
280
     0
102
RTVSPost2010PropOp55
 70
     1
102
RTVSPost2010Prop56
140
1.0
102
RTVSPost2010PropOp56
 70
     1
102
RTVSPost2010Prop57
140
1.0
102
RTVSPost2010PropOp57
 70
     1
  0
XRECORD
  5
424
102
{ACAD_REACTORS
330
423
102
}
330
423
100
AcDbXrecord
280
     1
102
RTVSPropertyOp0
 70
     1
102
RTVSPropertyOp1
 70
     1
102
RTVSPropertyOp2
 70
     1
102
RTVSPropertyOp3
 70
     1
102
RTVSPropertyOp4
 70
     1
102
RTVSPropertyOp5
 70
     1
102
RTVSPropertyOp6
 70
     1
102
RTVSPropertyOp7
 70
     1
102
RTVSPropertyOp8
 70
     1
102
RTVSPropertyOp9
 70
     1
102
RTVSPropertyOp10
 70
     1
102
RTVSPropertyOp11
 70
     1
102
RTVSPropertyOp12
 70
     1
102
RTVSPropertyOp13
 70
     1
102
RTVSPropertyOp14
 70
     1
102
RTVSPropertyOp15
 70
     1
102
RTVSPropertyOp16
 70
     1
102
RTVSPropertyOp17
 70
     1
102
RTVSPropertyOp18
 70
     1
102
RTVSPropertyOp19
 70
     1
102
RTVSPropertyOp20
 70
     1
102
RTVSPropertyOp21
 70
     1
102
RTVSPropertyOp22
 70
     1
102
RTVSPropertyOp23
 70
     1
102
RTVSPropertyOp24
 70
     1
102
RTVSPropertyOp25
 70
     1
102
RTVSPropertyOp26
 70
     1
102
RTVSPropertyOp27
 70
     1
102
RTVSPropertyOp28
 70
     1
102
RTVSPropertyOp29
 70
     1
102
RTVSPropertyOp30
 70
     1
102
RTVSPropertyOp31
 70
     1
102
RTVSPropertyOp32
 70
     1
102
RTVSPropertyOp33
 70
     1
102
RTVSPropertyOp34
 70
     1
102
RTVSPropertyOp35
 70
     1
102
RTVSPropertyOp36
 70
     1
102
RTVSPropertyOp37
 70
     1
102
RTVSPropertyOp38
 70
     1
102
RTVSPropertyOp39
 70
     1
102
RTVSPropertyOp40
 70
     1
102
RTVSPropertyOp41
 70
     1
102
RTVSPropertyOp42
 70
     1
102
RTVSPropertyOp43
 70
     1
102
RTVSPropertyOp44
 70
     1
102
RTVSPropertyOp45
 70
     1
102
RTVSPropertyOp46
 70
     1
102
RTVSPropertyOp47
 70
     1
102
RTVSPropertyOp48
 70
     1
102
RTVSPropertyOp49
 70
     1
102
RTVSPropertyOp50
 70
     1
102
RTVSPropertyOp51
 70
     0
102
RTVSPropertyOp52
 70
     0
102
RTVSPropertyOp53
 70
     1
102
RTVSPropertyOp54
 70
     1
102
RTVSPropertyOp55
 70
     1
102
RTVSPropertyOp56
 70
     1
102
RTVSPropertyOp57
 70
     1
102
RTVSPost2010Prop28
280
     0
102
RTVSPost2010PropOp28
 70
     1
102
RTVSPost2010Prop29
280
     1
102
RTVSPost2010PropOp29
 70
     1
102
RTVSPost2010Prop30
280
     1
102
RTVSPost2010PropOp30
 70
     1
102
RTVSPost2010Prop31
280
     0
102
RTVSPost2010PropOp31
 70
     1
102
RTVSPost2010Prop32
280
     0
102
RTVSPost2010PropOp32
 70
     1
102
RTVSPost2010Prop33
280
     0
102
RTVSPost2010PropOp33
 70
     1
102
RTVSPost2010Prop34
280
     0
102
RTVSPost2010PropOp34
 70
     1
102
RTVSPost2010Prop35
280
     0
102
RTVSPost2010PropOp35
 70
     1
102
RTVSPost2010Prop36
280
     0
102
RTVSPost2010PropOp36
 70
     1
102
RTVSPost2010Prop37
 90
       50
102
RTVSPost2010PropOp37
 70
     1
102
RTVSPost2010Prop38
140
0.0
102
RTVSPost2010PropOp38
 70
     1
102
RTVSPost2010Prop39
140
1.0
102
RTVSPost2010PropOp39
 70
     1
102
RTVSPost2010Prop40
 90
        0
102
RTVSPost2010PropOp40
 70
     1
102
RTVSPost2010Prop41ColorIndex
 90
       18
102
RTVSPost2010Prop41ColorRGB
 90
        0
102
RTVSPost2010PropOp41
 70
     1
102
RTVSPost2010Prop42
 90
       50
102
RTVSPost2010PropOp42
 70
     1
102
RTVSPost2010Prop43
 90
        3
102
RTVSPost2010PropOp43
 70
     1
102
RTVSPost2010Prop44ColorIndex
 90
        5
102
RTVSPost2010Prop44ColorRGB
 90
      255
102
RTVSPost2010PropOp44
 70
     1
102
RTVSPost2010Prop45
280
     0
102
RTVSPost2010PropOp45
 70
     1
102
RTVSPost2010Prop46
 90
       50
102
RTVSPost2010PropOp46
 70
     1
102
RTVSPost2010Prop47
 90
       50
102
RTVSPost2010PropOp47
 70
     1
102
RTVSPost2010Prop48
 90
       50
102
RTVSPost2010PropOp48
 70
     1
102
RTVSPost2010Prop49
280
     0
102
RTVSPost2010PropOp49
 70
     1
102
RTVSPost2010Prop50
 90
       50
102
RTVSPost2010PropOp50
 70
     1
102
RTVSPost2010Prop51ColorIndex
 90
      256
102
RTVSPost2010Prop51ColorRGB
 90
-16777216
102
RTVSPost2010PropOp51
 70
     0
102
RTVSPost2010Prop52
140
1.0
102
RTVSPost2010PropOp52
 70
     0
102
RTVSPost2010Prop53
 90
        2
102
RTVSPost2010PropOp53
 70
     1
102
RTVSPost2010Prop54
  1
strokes_ogs.tif
102
RTVSPost2010PropOp54
 70
     1
102
RTVSPost2010Prop55
280
     0
102
RTVSPost2010PropOp55
 70
     1
102
RTVSPost2010Prop56
140
1.0
102
RTVSPost2010PropOp56
 70
     1
102
RTVSPost2010Prop57
140
1.0
102
RTVSPost2010PropOp57
 70
     1
  0
ENDSEC
  0
EOF
