  0
SECTION
  2
HEADER
  9
$ACADVER
  1
AC1018
  9
$ACADMAINTVER
 70
     0
  9
$DWGCODEPAGE
  3
ANSI_932
  9
$INSBASE
 10
0.0
 20
0.0
 30
0.0
  9
$EXTMIN
 10
-10500.0
 20
-7425.0
 30
0.0
  9
$EXTMAX
 10
10500.0
 20
7425.0
 30
0.0
  9
$LIMMIN
 10
-10500.0
 20
-7425.0
  9
$LIMMAX
 10
10500.0
 20
7425.0
  9
$ORTHOMODE
 70
     0
  9
$REGENMODE
 70
     1
  9
$FILLMODE
 70
     1
  9
$QTEXTMODE
 70
     0
  9
$MIRRTEXT
 70
     1
  9
$LTSCALE
 40
50.0
  9
$ATTMODE
 70
     1
  9
$TEXTSIZE
 40
2.5
  9
$TRACEWID
 40
1.0
  9
$TEXTSTYLE
  7
Standard
  9
$CLAYER
  8
0
  9
$CELTYPE
  6
ByLayer
  9
$CECOLOR
 62
   256
  9
$CELTSCALE
 40
1.0
  9
$DISPSILH
 70
     0
  9
$DIMSCALE
 40
1.0
  9
$DIMASZ
 40
2.5
  9
$DIMEXO
 40
0.625
  9
$DIMDLI
 40
3.75
  9
$DIMRND
 40
0.0
  9
$DIMDLE
 40
0.0
  9
$DIMEXE
 40
1.25
  9
$DIMTP
 40
0.0
  9
$DIMTM
 40
0.0
  9
$DIMTXT
 40
2.5
  9
$DIMCEN
 40
2.5
  9
$DIMTSZ
 40
0.0
  9
$DIMTOL
 70
     0
  9
$DIMLIM
 70
     0
  9
$DIMTIH
 70
     0
  9
$DIMTOH
 70
     0
  9
$DIMSE1
 70
     0
  9
$DIMSE2
 70
     0
  9
$DIMTAD
 70
     1
  9
$DIMZIN
 70
     8
  9
$DIMBLK
  1

  9
$DIMASO
 70
     1
  9
$DIMSHO
 70
     1
  9
$DIMPOST
  1

  9
$DIMAPOST
  1

  9
$DIMALT
 70
     0
  9
$DIMALTD
 70
     3
  9
$DIMALTF
 40
0.03937007874016
  9
$DIMLFAC
 40
1.0
  9
$DIMTOFL
 70
     1
  9
$DIMTVP
 40
0.0
  9
$DIMTIX
 70
     0
  9
$DIMSOXD
 70
     0
  9
$DIMSAH
 70
     0
  9
$DIMBLK1
  1

  9
$DIMBLK2
  1

  9
$DIMSTYLE
  2
ISO-25
  9
$DIMCLRD
 70
     0
  9
$DIMCLRE
 70
     0
  9
$DIMCLRT
 70
     0
  9
$DIMTFAC
 40
1.0
  9
$DIMGAP
 40
0.625
  9
$DIMJUST
 70
     0
  9
$DIMSD1
 70
     0
  9
$DIMSD2
 70
     0
  9
$DIMTOLJ
 70
     0
  9
$DIMTZIN
 70
     8
  9
$DIMALTZ
 70
     0
  9
$DIMALTTZ
 70
     0
  9
$DIMUPT
 70
     0
  9
$DIMDEC
 70
     2
  9
$DIMTDEC
 70
     2
  9
$DIMALTU
 70
     2
  9
$DIMALTTD
 70
     3
  9
$DIMTXSTY
  7
Standard
  9
$DIMAUNIT
 70
     0
  9
$DIMADEC
 70
     0
  9
$DIMALTRND
 40
0.0
  9
$DIMAZIN
 70
     0
  9
$DIMDSEP
 70
    44
  9
$DIMATFIT
 70
     3
  9
$DIMFRAC
 70
     0
  9
$DIMLDRBLK
  1

  9
$DIMLUNIT
 70
     2
  9
$DIMLWD
 70
    -2
  9
$DIMLWE
 70
    -2
  9
$DIMTMOVE
 70
     0
  9
$LUNITS
 70
     2
  9
$LUPREC
 70
     4
  9
$SKETCHINC
 40
1.0
  9
$FILLETRAD
 40
10.0
  9
$AUNITS
 70
     0
  9
$AUPREC
 70
     0
  9
$MENU
  1
.
  9
$ELEVATION
 40
0.0
  9
$PELEVATION
 40
0.0
  9
$THICKNESS
 40
0.0
  9
$LIMCHECK
 70
     0
  9
$CHAMFERA
 40
10.0
  9
$CHAMFERB
 40
10.0
  9
$CHAMFERC
 40
20.0
  9
$CHAMFERD
 40
0.0
  9
$SKPOLY
 70
     0
  9
$TDCREATE
 40
2456499.582630637
  9
$TDUCREATE
 40
2456499.207630637
  9
$TDUPDATE
 40
2456499.582630648
  9
$TDUUPDATE
 40
2456499.207630648
  9
$TDINDWG
 40
0.0000000116
  9
$TDUSRTIMER
 40
0.0000000116
  9
$USRTIMER
 70
     1
  9
$ANGBASE
 50
0.0
  9
$ANGDIR
 70
     0
  9
$PDMODE
 70
     0
  9
$PDSIZE
 40
0.0
  9
$PLINEWID
 40
0.0
  9
$SPLFRAME
 70
     0
  9
$SPLINETYPE
 70
     6
  9
$SPLINESEGS
 70
     8
  9
$HANDSEED
  5
320
  9
$SURFTAB1
 70
     6
  9
$SURFTAB2
 70
     6
  9
$SURFTYPE
 70
     6
  9
$SURFU
 70
     6
  9
$SURFV
 70
     6
  9
$UCSBASE
  2

  9
$UCSNAME
  2

  9
$UCSORG
 10
0.0
 20
0.0
 30
0.0
  9
$UCSXDIR
 10
1.0
 20
0.0
 30
0.0
  9
$UCSYDIR
 10
0.0
 20
1.0
 30
0.0
  9
$UCSORTHOREF
  2

  9
$UCSORTHOVIEW
 70
     0
  9
$UCSORGTOP
 10
0.0
 20
0.0
 30
0.0
  9
$UCSORGBOTTOM
 10
0.0
 20
0.0
 30
0.0
  9
$UCSORGLEFT
 10
0.0
 20
0.0
 30
0.0
  9
$UCSORGRIGHT
 10
0.0
 20
0.0
 30
0.0
  9
$UCSORGFRONT
 10
0.0
 20
0.0
 30
0.0
  9
$UCSORGBACK
 10
0.0
 20
0.0
 30
0.0
  9
$PUCSBASE
  2

  9
$PUCSNAME
  2

  9
$PUCSORG
 10
0.0
 20
0.0
 30
0.0
  9
$PUCSXDIR
 10
1.0
 20
0.0
 30
0.0
  9
$PUCSYDIR
 10
0.0
 20
1.0
 30
0.0
  9
$PUCSORTHOREF
  2

  9
$PUCSORTHOVIEW
 70
     0
  9
$PUCSORGTOP
 10
0.0
 20
0.0
 30
0.0
  9
$PUCSORGBOTTOM
 10
0.0
 20
0.0
 30
0.0
  9
$PUCSORGLEFT
 10
0.0
 20
0.0
 30
0.0
  9
$PUCSORGRIGHT
 10
0.0
 20
0.0
 30
0.0
  9
$PUCSORGFRONT
 10
0.0
 20
0.0
 30
0.0
  9
$PUCSORGBACK
 10
0.0
 20
0.0
 30
0.0
  9
$USERI1
 70
     0
  9
$USERI2
 70
     0
  9
$USERI3
 70
     0
  9
$USERI4
 70
     0
  9
$USERI5
 70
     0
  9
$USERR1
 40
0.0
  9
$USERR2
 40
0.0
  9
$USERR3
 40
0.0
  9
$USERR4
 40
0.0
  9
$USERR5
 40
0.0
  9
$WORLDVIEW
 70
     1
  9
$SHADEDGE
 70
     3
  9
$SHADEDIF
 70
    70
  9
$TILEMODE
 70
     1
  9
$MAXACTVP
 70
    64
  9
$PINSBASE
 10
0.0
 20
0.0
 30
0.0
  9
$PLIMCHECK
 70
     0
  9
$PEXTMIN
 10
1.000000000000000E+20
 20
1.000000000000000E+20
 30
1.000000000000000E+20
  9
$PEXTMAX
 10
-1.000000000000000E+20
 20
-1.000000000000000E+20
 30
-1.000000000000000E+20
  9
$PLIMMIN
 10
0.0
 20
0.0
  9
$PLIMMAX
 10
420.0
 20
297.0
  9
$UNITMODE
 70
     0
  9
$VISRETAIN
 70
     1
  9
$PLINEGEN
 70
     0
  9
$PSLTSCALE
 70
     1
  9
$TREEDEPTH
 70
  3020
  9
$CMLSTYLE
  2
Standard
  9
$CMLJUST
 70
     0
  9
$CMLSCALE
 40
20.0
  9
$PROXYGRAPHICS
 70
     1
  9
$MEASUREMENT
 70
     1
  9
$CELWEIGHT
370
    -1
  9
$ENDCAPS
280
     0
  9
$JOINSTYLE
280
     0
  9
$LWDISPLAY
290
     0
  9
$INSUNITS
 70
     4
  9
$HYPERLINKBASE
  1

  9
$STYLESHEET
  1

  9
$XEDIT
290
     1
  9
$CEPSNTYPE
380
     0
  9
$PSTYLEMODE
290
     1
  9
$FINGERPRINTGUID
  2
{372B212F-D098-4F27-809C-2C7F3FC5895A}
  9
$VERSIONGUID
  2
{FAEB1C32-E019-11D5-929B-00C0DF256EC4}
  9
$EXTNAMES
290
     1
  9
$PSVPSCALE
 40
0.0
  9
$OLESTARTUP
290
     0
  9
$SORTENTS
280
   127
  9
$INDEXCTL
280
     0
  9
$HIDETEXT
280
     1
  9
$XCLIPFRAME
290
     0
  9
$HALOGAP
280
     0
  9
$OBSCOLOR
 70
   257
  9
$OBSLTYPE
280
     0
  9
$INTERSECTIONDISPLAY
280
     0
  9
$INTERSECTIONCOLOR
 70
   257
  9
$DIMASSOC
280
     2
  9
$PROJECTNAME
  1

  0
ENDSEC
  0
SECTION
  2
CLASSES
  0
CLASS
  1
ACDBDICTIONARYWDFLT
  2
AcDbDictionaryWithDefault
  3
ObjectDBX Classes
 90
        0
 91
        4
280
     0
281
     0
  0
CLASS
  1
VISUALSTYLE
  2
AcDbVisualStyle
  3
ObjectDBX Classes
 90
     4095
 91
        4
280
     0
281
     0
  0
ENDSEC
  0
SECTION
  2
TABLES
  0
TABLE
  2
VPORT
  5
8
330
0
100
AcDbSymbolTable
 70
     1
  0
VPORT
  5
29
330
8
100
AcDbSymbolTableRecord
100
AcDbViewportTableRecord
  2
*Active
 70
     0
 10
0.0
 20
0.0
 11
1.0
 21
1.0
 12
0.0
 22
0.0
 13
0.0
 23
0.0
 14
10.0
 24
10.0
 15
10.0
 25
10.0
 16
0.0
 26
0.0
 36
1.0
 17
0.0
 27
0.0
 37
0.0
 40
16335.0
 41
1.414141414141414
 42
50.0
 43
0.0
 44
0.0
 50
0.0
 51
0.0
 71
     0
 72
 10000
 73
     1
 74
     3
 75
     0
 76
     0
 77
     0
 78
     0
281
     0
 65
     1
110
0.0
120
0.0
130
0.0
111
1.0
121
0.0
131
0.0
112
0.0
122
1.0
132
0.0
 79
     0
146
0.0
  0
ENDTAB
  0
TABLE
  2
LTYPE
  5
5
330
0
100
AcDbSymbolTable
 70
     3
  0
LTYPE
  5
14
330
5
100
AcDbSymbolTableRecord
100
AcDbLinetypeTableRecord
  2
ByBlock
 70
     0
  3

 72
    65
 73
     0
 40
0.0
  0
LTYPE
  5
15
330
5
100
AcDbSymbolTableRecord
100
AcDbLinetypeTableRecord
  2
ByLayer
 70
     0
  3

 72
    65
 73
     0
 40
0.0
  0
LTYPE
  5
16
330
5
100
AcDbSymbolTableRecord
100
AcDbLinetypeTableRecord
  2
Continuous
 70
     0
  3
Solid line
 72
    65
 73
     0
 40
0.0
  0
LTYPE
  5
3C
330
5
100
AcDbSymbolTableRecord
100
AcDbLinetypeTableRecord
  2
JWW_DASHED1
 70
     0
  3
-  --  --  --  --  --  --  --  -
 72
    65
 73
     2
 40
1.693333333333333
 49
0.8466666666666667
 74
     0
 49
-0.8466666666666667
 74
     0
  0
LTYPE
  5
3D
330
5
100
AcDbSymbolTableRecord
100
AcDbLinetypeTableRecord
  2
JWW_CENTER1
 70
     0
  3
-----  --  ----------  --  -----
 72
    65
 73
     4
 40
6.773333333333333
 49
4.233333333333333
 74
     0
 49
-0.8466666666666667
 74
     0
 49
0.8466666666666667
 74
     0
 49
-0.8466666666666667
 74
     0
  0
ENDTAB
  0
TABLE
  2
LAYER
  5
2
330
0
100
AcDbSymbolTable
 70
     5
  0
LAYER
  5
10
330
2
100
AcDbSymbolTableRecord
100
AcDbLayerTableRecord
  2
0
 70
     0
 62
     7
  6
Continuous
370
    -3
390
F
  0
LAYER
  5
3E
330
2
100
AcDbSymbolTableRecord
100
AcDbLayerTableRecord
  2
A-2_蓋
 70
     0
 62
     7
  6
Continuous
370
    -3
390
F
  0
LAYER
  5
3F
330
2
100
AcDbSymbolTableRecord
100
AcDbLayerTableRecord
  2
A-3_受枠
 70
     0
 62
     7
  6
Continuous
370
    -3
390
F
  0
LAYER
  5
40
330
2
100
AcDbSymbolTableRecord
100
AcDbLayerTableRecord
  2
A-4_寸法
 70
     0
 62
     7
  6
Continuous
370
    -3
390
F
  0
LAYER
  5
41
330
2
100
AcDbSymbolTableRecord
100
AcDbLayerTableRecord
  2
A-5_仕様文
 70
     0
 62
     7
  6
Continuous
370
    -3
390
F
  0
ENDTAB
  0
TABLE
  2
STYLE
  5
3
330
0
100
AcDbSymbolTable
 70
     2
  0
STYLE
  5
11
330
3
100
AcDbSymbolTableRecord
100
AcDbTextStyleTableRecord
  2
Standard
 70
     0
 40
0.0
 41
1.0
 50
0.0
 71
     0
 42
2.5
  3
txt
  4

1001
ACAD
1000

1071
        0
  0
STYLE
  5
3B
330
3
100
AcDbSymbolTableRecord
100
AcDbTextStyleTableRecord
  2
ＭＳ ゴシック
 70
     0
 40
1.0
 41
1.0
 50
0.0
 71
     0
 42
10.0
  3

  4

1001
ACAD
1000
MS Gothic
1071
    32817
  0
ENDTAB
  0
TABLE
  2
VIEW
  5
6
330
0
100
AcDbSymbolTable
 70
     0
  0
ENDTAB
  0
TABLE
  2
UCS
  5
7
330
0
100
AcDbSymbolTable
 70
     0
  0
ENDTAB
  0
TABLE
  2
APPID
  5
9
330
0
100
AcDbSymbolTable
 70
     1
  0
APPID
  5
12
330
9
100
AcDbSymbolTableRecord
100
AcDbRegAppTableRecord
  2
ACAD
 70
     0
  0
ENDTAB
  0
TABLE
  2
DIMSTYLE
  5
A
330
0
100
AcDbSymbolTable
 70
     1
100
AcDbDimStyleTable
  0
DIMSTYLE
105
27
330
A
100
AcDbSymbolTableRecord
100
AcDbDimStyleTableRecord
  2
ISO-25
 70
     0
 41
2.5
 42
0.625
 43
3.75
 44
1.25
 73
     0
 74
     0
 77
     1
 78
     8
140
2.5
141
2.5
143
0.03937007874016
147
0.625
171
     3
172
     1
271
     2
272
     2
274
     3
278
    44
283
     0
284
     8
340
11
  0
ENDTAB
  0
TABLE
  2
BLOCK_RECORD
  5
1
330
0
100
AcDbSymbolTable
 70
     1
  0
BLOCK_RECORD
  5
1F
330
1
100
AcDbSymbolTableRecord
100
AcDbBlockTableRecord
  2
*Model_Space
340
22
  0
BLOCK_RECORD
  5
1B
330
1
100
AcDbSymbolTableRecord
100
AcDbBlockTableRecord
  2
*Paper_Space
340
1E
  0
BLOCK_RECORD
  5
23
330
1
100
AcDbSymbolTableRecord
100
AcDbBlockTableRecord
  2
*Paper_Space0
340
26
  0
ENDTAB
  0
ENDSEC
  0
SECTION
  2
BLOCKS
  0
BLOCK
  5
20
330
1F
100
AcDbEntity
  8
0
100
AcDbBlockBegin
  2
*Model_Space
 70
     0
 10
0.0
 20
0.0
 30
0.0
  3
*Model_Space
  1

  0
ENDBLK
  5
21
330
1F
100
AcDbEntity
  8
0
100
AcDbBlockEnd
  0
BLOCK
  5
1C
330
1B
100
AcDbEntity
 67
     1
  8
0
100
AcDbBlockBegin
  2
*Paper_Space
 70
     0
 10
0.0
 20
0.0
 30
0.0
  3
*Paper_Space
  1

  0
ENDBLK
  5
1D
330
1B
100
AcDbEntity
 67
     1
  8
0
100
AcDbBlockEnd
  0
BLOCK
  5
24
330
23
100
AcDbEntity
  8
0
100
AcDbBlockBegin
  2
*Paper_Space0
 70
     0
 10
0.0
 20
0.0
 30
0.0
  3
*Paper_Space0
  1

  0
ENDBLK
  5
25
330
23
100
AcDbEntity
  8
0
100
AcDbBlockEnd
  0
ENDSEC
  0
SECTION
  2
ENTITIES
  0
LINE
  5
42
330
1F
100
AcDbEntity
  8
A-2_蓋
  6
Continuous
 62
     3
370
    13
100
AcDbLine
 10
-2358.919298326647
 20
-1375.26954444679
 30
0.0
 11
-7418.918918918919
 21
-1375.26954444679
 31
0.0
  0
LINE
  5
43
330
1F
100
AcDbEntity
  8
A-2_蓋
  6
Continuous
 62
     3
370
    13
100
AcDbLine
 10
-2358.919298326647
 20
-1345.268703151393
 30
0.0
 11
-7418.918918918919
 21
-1345.268703151393
 31
0.0
  0
LINE
  5
44
330
1F
100
AcDbEntity
  8
A-2_蓋
  6
Continuous
 62
     3
370
    13
100
AcDbLine
 10
-7418.918918918919
 20
3239.730587521116
 30
0.0
 11
-2358.919298326647
 21
3239.730587521116
 31
0.0
  0
LINE
  5
45
330
1F
100
AcDbEntity
  8
A-2_蓋
  6
Continuous
 62
     3
370
    13
100
AcDbLine
 10
-7418.918918918919
 20
3189.735371357686
 30
0.0
 11
-2358.919298326647
 21
3189.735371357686
 31
0.0
  0
LINE
  5
46
330
1F
100
AcDbEntity
  8
A-2_蓋
  6
Continuous
 62
     3
370
    13
100
AcDbLine
 10
-7418.918918918919
 20
2239.730999920821
 30
0.0
 11
-2358.919298326647
 21
2239.730999920821
 31
0.0
  0
LINE
  5
47
330
1F
100
AcDbEntity
  8
A-2_蓋
  6
Continuous
 62
     3
370
    13
100
AcDbLine
 10
-7418.918918918919
 20
2189.728360562712
 30
0.0
 11
-2358.919298326647
 21
2189.728360562712
 31
0.0
  0
LINE
  5
48
330
1F
100
AcDbEntity
  8
A-2_蓋
  6
Continuous
 62
     3
370
    13
100
AcDbLine
 10
-7418.918918918919
 20
3774.733837230787
 30
0.0
 11
-2358.919298326647
 21
3774.733837230787
 31
0.0
  0
LINE
  5
49
330
1F
100
AcDbEntity
  8
A-2_蓋
  6
Continuous
 62
     3
370
    13
100
AcDbLine
 10
-7418.918918918919
 20
3804.72972972973
 30
0.0
 11
-2358.919298326647
 21
3804.72972972973
 31
0.0
  0
LINE
  5
4A
330
1F
100
AcDbEntity
  8
A-2_蓋
  6
Continuous
 62
     3
370
    13
100
AcDbLine
 10
-7418.918918918919
 20
-1375.26954444679
 30
0.0
 11
-7418.918918918919
 21
3804.72972972973
 31
0.0
  0
LINE
  5
4B
330
1F
100
AcDbEntity
  8
A-2_蓋
  6
Continuous
 62
     3
370
    13
100
AcDbLine
 10
-7418.918918918919
 20
1239.732030920081
 30
0.0
 11
-2358.919298326647
 21
1239.732030920081
 31
0.0
  0
LINE
  5
4C
330
1F
100
AcDbEntity
  8
A-2_蓋
  6
Continuous
 62
     3
370
    13
100
AcDbLine
 10
-7418.918918918919
 20
-810.2660720412786
 30
0.0
 11
-2358.919298326647
 21
-810.2660720412786
 31
0.0
  0
LINE
  5
4D
330
1F
100
AcDbEntity
  8
A-2_蓋
  6
Continuous
 62
     3
370
    13
100
AcDbLine
 10
-7388.914366026183
 20
-1345.268703151393
 30
0.0
 11
-7388.914366026183
 21
-810.2660720412786
 31
0.0
  0
LINE
  5
4E
330
1F
100
AcDbEntity
  8
A-2_蓋
  6
Continuous
 62
     3
370
    13
100
AcDbLine
 10
-2388.914572226034
 20
-810.2660720412786
 30
0.0
 11
-2388.914572226034
 21
-1345.268703151393
 31
0.0
  0
LINE
  5
4F
330
1F
100
AcDbEntity
  8
A-2_蓋
  6
Continuous
 62
     3
370
    13
100
AcDbLine
 10
-7388.914366026183
 20
1239.732030920081
 30
0.0
 11
-7388.914366026183
 21
2189.728360562712
 31
0.0
  0
LINE
  5
50
330
1F
100
AcDbEntity
  8
A-2_蓋
  6
Continuous
 62
     3
370
    13
100
AcDbLine
 10
-7388.914366026183
 20
2239.730999920821
 30
0.0
 11
-7388.914366026183
 21
3189.735371357686
 31
0.0
  0
LINE
  5
51
330
1F
100
AcDbEntity
  8
A-2_蓋
  6
Continuous
 62
     3
370
    13
100
AcDbLine
 10
-7388.914366026183
 20
3239.730587521116
 30
0.0
 11
-7388.914366026183
 21
3774.733837230787
 31
0.0
  0
LINE
  5
52
330
1F
100
AcDbEntity
  8
A-2_蓋
  6
Continuous
 62
     3
370
    13
100
AcDbLine
 10
-2388.914572226034
 20
3774.733837230787
 30
0.0
 11
-2388.914572226034
 21
3239.730587521116
 31
0.0
  0
LINE
  5
53
330
1F
100
AcDbEntity
  8
A-2_蓋
  6
Continuous
 62
     3
370
    13
100
AcDbLine
 10
-2388.914572226034
 20
3189.735371357686
 30
0.0
 11
-2388.914572226034
 21
2239.730999920821
 31
0.0
  0
LINE
  5
54
330
1F
100
AcDbEntity
  8
A-2_蓋
  6
Continuous
 62
     3
370
    13
100
AcDbLine
 10
-2388.914572226034
 20
2189.728360562712
 30
0.0
 11
-2388.914572226034
 21
1239.732030920081
 31
0.0
  0
LINE
  5
55
330
1F
100
AcDbEntity
  8
A-2_蓋
  6
Continuous
 62
     3
370
    13
100
AcDbLine
 10
-3393.314258472338
 20
3774.733837230787
 30
0.0
 11
-3393.314258472338
 21
3239.730587521116
 31
0.0
  0
LINE
  5
56
330
1F
100
AcDbEntity
  8
A-2_蓋
  6
Continuous
 62
     3
370
    13
100
AcDbLine
 10
-3363.313417176942
 20
3774.733837230787
 30
0.0
 11
-3363.313417176942
 21
3239.730587521116
 31
0.0
  0
LINE
  5
57
330
1F
100
AcDbEntity
  8
A-2_蓋
  6
Continuous
 62
     3
370
    13
100
AcDbLine
 10
-3393.314258472338
 20
3189.735371357686
 30
0.0
 11
-3393.314258472338
 21
2239.730999920821
 31
0.0
  0
LINE
  5
58
330
1F
100
AcDbEntity
  8
A-2_蓋
  6
Continuous
 62
     3
370
    13
100
AcDbLine
 10
-3363.313417176942
 20
3189.735371357686
 30
0.0
 11
-3363.313417176942
 21
2239.730999920821
 31
0.0
  0
LINE
  5
59
330
1F
100
AcDbEntity
  8
A-2_蓋
  6
Continuous
 62
     3
370
    13
100
AcDbLine
 10
-3393.314258472338
 20
2189.728360562712
 30
0.0
 11
-3393.314258472338
 21
1239.732030920081
 31
0.0
  0
LINE
  5
5A
330
1F
100
AcDbEntity
  8
A-2_蓋
  6
Continuous
 62
     3
370
    13
100
AcDbLine
 10
-3363.313417176942
 20
2189.728360562712
 30
0.0
 11
-3363.313417176942
 21
1239.732030920081
 31
0.0
  0
LINE
  5
5B
330
1F
100
AcDbEntity
  8
A-2_蓋
  6
Continuous
 62
     3
370
    13
100
AcDbLine
 10
-3393.314258472338
 20
-810.2660720412786
 30
0.0
 11
-3393.314258472338
 21
-1345.268703151393
 31
0.0
  0
LINE
  5
5C
330
1F
100
AcDbEntity
  8
A-2_蓋
  6
Continuous
 62
     3
370
    13
100
AcDbLine
 10
-3363.313417176942
 20
-810.2660720412786
 30
0.0
 11
-3363.313417176942
 21
-1345.268703151393
 31
0.0
  0
LINE
  5
5D
330
1F
100
AcDbEntity
  8
A-2_蓋
  6
Continuous
 62
     3
370
    13
100
AcDbLine
 10
-3519.113901499155
 20
3774.733837230787
 30
0.0
 11
-3519.113901499155
 21
3239.730587521116
 31
0.0
  0
LINE
  5
5E
330
1F
100
AcDbEntity
  8
A-2_蓋
  6
Continuous
 62
     3
370
    13
100
AcDbLine
 10
-3489.113060203758
 20
3774.733837230787
 30
0.0
 11
-3489.113060203758
 21
3239.730587521116
 31
0.0
  0
LINE
  5
5F
330
1F
100
AcDbEntity
  8
A-2_蓋
  6
Continuous
 62
     3
370
    13
100
AcDbLine
 10
-3519.113901499155
 20
3189.735371357686
 30
0.0
 11
-3519.113901499155
 21
2239.730999920821
 31
0.0
  0
LINE
  5
60
330
1F
100
AcDbEntity
  8
A-2_蓋
  6
Continuous
 62
     3
370
    13
100
AcDbLine
 10
-3489.113060203758
 20
3189.735371357686
 30
0.0
 11
-3489.113060203758
 21
2239.730999920821
 31
0.0
  0
LINE
  5
61
330
1F
100
AcDbEntity
  8
A-2_蓋
  6
Continuous
 62
     3
370
    13
100
AcDbLine
 10
-3519.113901499155
 20
2189.728360562712
 30
0.0
 11
-3519.113901499155
 21
1239.732030920081
 31
0.0
  0
LINE
  5
62
330
1F
100
AcDbEntity
  8
A-2_蓋
  6
Continuous
 62
     3
370
    13
100
AcDbLine
 10
-3489.113060203758
 20
2189.728360562712
 30
0.0
 11
-3489.113060203758
 21
1239.732030920081
 31
0.0
  0
LINE
  5
63
330
1F
100
AcDbEntity
  8
A-2_蓋
  6
Continuous
 62
     3
370
    13
100
AcDbLine
 10
-3519.113901499155
 20
-810.2660720412786
 30
0.0
 11
-3519.113901499155
 21
-1345.268703151393
 31
0.0
  0
LINE
  5
64
330
1F
100
AcDbEntity
  8
A-2_蓋
  6
Continuous
 62
     3
370
    13
100
AcDbLine
 10
-3489.113060203758
 20
-810.2660720412786
 30
0.0
 11
-3489.113060203758
 21
-1345.268703151393
 31
0.0
  0
LINE
  5
65
330
1F
100
AcDbEntity
  8
A-2_蓋
  6
Continuous
 62
     3
370
    13
100
AcDbLine
 10
-3644.918493322423
 20
3774.733837230787
 30
0.0
 11
-3644.918493322423
 21
3239.730587521116
 31
0.0
  0
LINE
  5
66
330
1F
100
AcDbEntity
  8
A-2_蓋
  6
Continuous
 62
     3
370
    13
100
AcDbLine
 10
-3614.912703230574
 20
3774.733837230787
 30
0.0
 11
-3614.912703230574
 21
3239.730587521116
 31
0.0
  0
LINE
  5
67
330
1F
100
AcDbEntity
  8
A-2_蓋
  6
Continuous
 62
     3
370
    13
100
AcDbLine
 10
-3644.918493322423
 20
3189.735371357686
 30
0.0
 11
-3644.918493322423
 21
2239.730999920821
 31
0.0
  0
LINE
  5
68
330
1F
100
AcDbEntity
  8
A-2_蓋
  6
Continuous
 62
     3
370
    13
100
AcDbLine
 10
-3614.912703230574
 20
3189.735371357686
 30
0.0
 11
-3614.912703230574
 21
2239.730999920821
 31
0.0
  0
LINE
  5
69
330
1F
100
AcDbEntity
  8
A-2_蓋
  6
Continuous
 62
     3
370
    13
100
AcDbLine
 10
-3644.918493322423
 20
2189.728360562712
 30
0.0
 11
-3644.918493322423
 21
1239.732030920081
 31
0.0
  0
LINE
  5
6A
330
1F
100
AcDbEntity
  8
A-2_蓋
  6
Continuous
 62
     3
370
    13
100
AcDbLine
 10
-3614.912703230574
 20
2189.728360562712
 30
0.0
 11
-3614.912703230574
 21
1239.732030920081
 31
0.0
  0
LINE
  5
6B
330
1F
100
AcDbEntity
  8
A-2_蓋
  6
Continuous
 62
     3
370
    13
100
AcDbLine
 10
-3644.918493322423
 20
-810.2660720412786
 30
0.0
 11
-3644.918493322423
 21
-1345.268703151393
 31
0.0
  0
LINE
  5
6C
330
1F
100
AcDbEntity
  8
A-2_蓋
  6
Continuous
 62
     3
370
    13
100
AcDbLine
 10
-3614.912703230574
 20
-810.2660720412786
 30
0.0
 11
-3614.912703230574
 21
-1345.268703151393
 31
0.0
  0
LINE
  5
6D
330
1F
100
AcDbEntity
  8
A-2_蓋
  6
Continuous
 62
     3
370
    13
100
AcDbLine
 10
-3770.71813634924
 20
3774.733837230787
 30
0.0
 11
-3770.71813634924
 21
3239.730587521116
 31
0.0
  0
LINE
  5
6E
330
1F
100
AcDbEntity
  8
A-2_蓋
  6
Continuous
 62
     3
370
    13
100
AcDbLine
 10
-3740.712346257389
 20
3774.733837230787
 30
0.0
 11
-3740.712346257389
 21
3239.730587521116
 31
0.0
  0
LINE
  5
6F
330
1F
100
AcDbEntity
  8
A-2_蓋
  6
Continuous
 62
     3
370
    13
100
AcDbLine
 10
-3770.71813634924
 20
3189.735371357686
 30
0.0
 11
-3770.71813634924
 21
2239.730999920821
 31
0.0
  0
LINE
  5
70
330
1F
100
AcDbEntity
  8
A-2_蓋
  6
Continuous
 62
     3
370
    13
100
AcDbLine
 10
-3740.712346257389
 20
3189.735371357686
 30
0.0
 11
-3740.712346257389
 21
2239.730999920821
 31
0.0
  0
LINE
  5
71
330
1F
100
AcDbEntity
  8
A-2_蓋
  6
Continuous
 62
     3
370
    13
100
AcDbLine
 10
-3770.71813634924
 20
2189.728360562712
 30
0.0
 11
-3770.71813634924
 21
1239.732030920081
 31
0.0
  0
LINE
  5
72
330
1F
100
AcDbEntity
  8
A-2_蓋
  6
Continuous
 62
     3
370
    13
100
AcDbLine
 10
-3740.712346257389
 20
2189.728360562712
 30
0.0
 11
-3740.712346257389
 21
1239.732030920081
 31
0.0
  0
LINE
  5
73
330
1F
100
AcDbEntity
  8
A-2_蓋
  6
Continuous
 62
     3
370
    13
100
AcDbLine
 10
-3770.71813634924
 20
-810.2660720412786
 30
0.0
 11
-3770.71813634924
 21
-1345.268703151393
 31
0.0
  0
LINE
  5
74
330
1F
100
AcDbEntity
  8
A-2_蓋
  6
Continuous
 62
     3
370
    13
100
AcDbLine
 10
-3740.712346257389
 20
-810.2660720412786
 30
0.0
 11
-3740.712346257389
 21
-1345.268703151393
 31
0.0
  0
LINE
  5
75
330
1F
100
AcDbEntity
  8
A-2_蓋
  6
Continuous
 62
     3
370
    13
100
AcDbLine
 10
-3896.517779376056
 20
3774.733837230787
 30
0.0
 11
-3896.517779376056
 21
3239.730587521116
 31
0.0
  0
LINE
  5
76
330
1F
100
AcDbEntity
  8
A-2_蓋
  6
Continuous
 62
     3
370
    13
100
AcDbLine
 10
-3866.516938080659
 20
3774.733837230787
 30
0.0
 11
-3866.516938080659
 21
3239.730587521116
 31
0.0
  0
LINE
  5
77
330
1F
100
AcDbEntity
  8
A-2_蓋
  6
Continuous
 62
     3
370
    13
100
AcDbLine
 10
-3896.517779376056
 20
3189.735371357686
 30
0.0
 11
-3896.517779376056
 21
2239.730999920821
 31
0.0
  0
LINE
  5
78
330
1F
100
AcDbEntity
  8
A-2_蓋
  6
Continuous
 62
     3
370
    13
100
AcDbLine
 10
-3866.516938080659
 20
3189.735371357686
 30
0.0
 11
-3866.516938080659
 21
2239.730999920821
 31
0.0
  0
LINE
  5
79
330
1F
100
AcDbEntity
  8
A-2_蓋
  6
Continuous
 62
     3
370
    13
100
AcDbLine
 10
-3896.517779376056
 20
2189.728360562712
 30
0.0
 11
-3896.517779376056
 21
1239.732030920081
 31
0.0
  0
LINE
  5
7A
330
1F
100
AcDbEntity
  8
A-2_蓋
  6
Continuous
 62
     3
370
    13
100
AcDbLine
 10
-3866.516938080659
 20
2189.728360562712
 30
0.0
 11
-3866.516938080659
 21
1239.732030920081
 31
0.0
  0
LINE
  5
7B
330
1F
100
AcDbEntity
  8
A-2_蓋
  6
Continuous
 62
     3
370
    13
100
AcDbLine
 10
-3896.517779376056
 20
-810.2660720412786
 30
0.0
 11
-3896.517779376056
 21
-1345.268703151393
 31
0.0
  0
LINE
  5
7C
330
1F
100
AcDbEntity
  8
A-2_蓋
  6
Continuous
 62
     3
370
    13
100
AcDbLine
 10
-3866.516938080659
 20
-810.2660720412786
 30
0.0
 11
-3866.516938080659
 21
-1345.268703151393
 31
0.0
  0
LINE
  5
7D
330
1F
100
AcDbEntity
  8
A-2_蓋
  6
Continuous
 62
     3
370
    13
100
AcDbLine
 10
-4022.316185203758
 20
3774.733837230787
 30
0.0
 11
-4022.316185203758
 21
3239.730587521116
 31
0.0
  0
LINE
  5
7E
330
1F
100
AcDbEntity
  8
A-2_蓋
  6
Continuous
 62
     3
370
    13
100
AcDbLine
 10
-3992.316581107474
 20
3774.733837230787
 30
0.0
 11
-3992.316581107474
 21
3239.730587521116
 31
0.0
  0
LINE
  5
7F
330
1F
100
AcDbEntity
  8
A-2_蓋
  6
Continuous
 62
     3
370
    13
100
AcDbLine
 10
-4022.316185203758
 20
3189.735371357686
 30
0.0
 11
-4022.316185203758
 21
2239.730999920821
 31
0.0
  0
LINE
  5
80
330
1F
100
AcDbEntity
  8
A-2_蓋
  6
Continuous
 62
     3
370
    13
100
AcDbLine
 10
-3992.316581107474
 20
3189.735371357686
 30
0.0
 11
-3992.316581107474
 21
2239.730999920821
 31
0.0
  0
LINE
  5
81
330
1F
100
AcDbEntity
  8
A-2_蓋
  6
Continuous
 62
     3
370
    13
100
AcDbLine
 10
-4022.316185203758
 20
2189.728360562712
 30
0.0
 11
-4022.316185203758
 21
1239.732030920081
 31
0.0
  0
LINE
  5
82
330
1F
100
AcDbEntity
  8
A-2_蓋
  6
Continuous
 62
     3
370
    13
100
AcDbLine
 10
-3992.316581107474
 20
2189.728360562712
 30
0.0
 11
-3992.316581107474
 21
1239.732030920081
 31
0.0
  0
LINE
  5
83
330
1F
100
AcDbEntity
  8
A-2_蓋
  6
Continuous
 62
     3
370
    13
100
AcDbLine
 10
-4022.316185203758
 20
-810.2660720412786
 30
0.0
 11
-4022.316185203758
 21
-1345.268703151393
 31
0.0
  0
LINE
  5
84
330
1F
100
AcDbEntity
  8
A-2_蓋
  6
Continuous
 62
     3
370
    13
100
AcDbLine
 10
-3992.316581107474
 20
-810.2660720412786
 30
0.0
 11
-3992.316581107474
 21
-1345.268703151393
 31
0.0
  0
LINE
  5
85
330
1F
100
AcDbEntity
  8
A-2_蓋
  6
Continuous
 62
     3
370
    13
100
AcDbLine
 10
-4148.115828230574
 20
3774.733837230787
 30
0.0
 11
-4148.115828230574
 21
3239.730587521116
 31
0.0
  0
LINE
  5
86
330
1F
100
AcDbEntity
  8
A-2_蓋
  6
Continuous
 62
     3
370
    13
100
AcDbLine
 10
-4118.117461333403
 20
3774.733837230787
 30
0.0
 11
-4118.117461333403
 21
3239.730587521116
 31
0.0
  0
LINE
  5
87
330
1F
100
AcDbEntity
  8
A-2_蓋
  6
Continuous
 62
     3
370
    13
100
AcDbLine
 10
-4148.115828230574
 20
3189.735371357686
 30
0.0
 11
-4148.115828230574
 21
2239.730999920821
 31
0.0
  0
LINE
  5
88
330
1F
100
AcDbEntity
  8
A-2_蓋
  6
Continuous
 62
     3
370
    13
100
AcDbLine
 10
-4118.117461333403
 20
3189.735371357686
 30
0.0
 11
-4118.117461333403
 21
2239.730999920821
 31
0.0
  0
LINE
  5
89
330
1F
100
AcDbEntity
  8
A-2_蓋
  6
Continuous
 62
     3
370
    13
100
AcDbLine
 10
-4148.115828230574
 20
2189.728360562712
 30
0.0
 11
-4148.115828230574
 21
1239.732030920081
 31
0.0
  0
LINE
  5
8A
330
1F
100
AcDbEntity
  8
A-2_蓋
  6
Continuous
 62
     3
370
    13
100
AcDbLine
 10
-4118.117461333403
 20
2189.728360562712
 30
0.0
 11
-4118.117461333403
 21
1239.732030920081
 31
0.0
  0
LINE
  5
8B
330
1F
100
AcDbEntity
  8
A-2_蓋
  6
Continuous
 62
     3
370
    13
100
AcDbLine
 10
-4148.115828230574
 20
-810.2660720412786
 30
0.0
 11
-4148.115828230574
 21
-1345.268703151393
 31
0.0
  0
LINE
  5
8C
330
1F
100
AcDbEntity
  8
A-2_蓋
  6
Continuous
 62
     3
370
    13
100
AcDbLine
 10
-4118.117461333403
 20
-810.2660720412786
 30
0.0
 11
-4118.117461333403
 21
-1345.268703151393
 31
0.0
  0
LINE
  5
8D
330
1F
100
AcDbEntity
  8
A-2_蓋
  6
Continuous
 62
     3
370
    13
100
AcDbLine
 10
-4273.91547125739
 20
3774.733837230787
 30
0.0
 11
-4273.91547125739
 21
3239.730587521116
 31
0.0
  0
LINE
  5
8E
330
1F
100
AcDbEntity
  8
A-2_蓋
  6
Continuous
 62
     3
370
    13
100
AcDbLine
 10
-4243.914629961992
 20
3774.733837230787
 30
0.0
 11
-4243.914629961992
 21
3239.730587521116
 31
0.0
  0
LINE
  5
8F
330
1F
100
AcDbEntity
  8
A-2_蓋
  6
Continuous
 62
     3
370
    13
100
AcDbLine
 10
-4273.91547125739
 20
3189.735371357686
 30
0.0
 11
-4273.91547125739
 21
2239.730999920821
 31
0.0
  0
LINE
  5
90
330
1F
100
AcDbEntity
  8
A-2_蓋
  6
Continuous
 62
     3
370
    13
100
AcDbLine
 10
-4243.914629961992
 20
3189.735371357686
 30
0.0
 11
-4243.914629961992
 21
2239.730999920821
 31
0.0
  0
LINE
  5
91
330
1F
100
AcDbEntity
  8
A-2_蓋
  6
Continuous
 62
     3
370
    13
100
AcDbLine
 10
-4273.91547125739
 20
2189.728360562712
 30
0.0
 11
-4273.91547125739
 21
1239.732030920081
 31
0.0
  0
LINE
  5
92
330
1F
100
AcDbEntity
  8
A-2_蓋
  6
Continuous
 62
     3
370
    13
100
AcDbLine
 10
-4243.914629961992
 20
2189.728360562712
 30
0.0
 11
-4243.914629961992
 21
1239.732030920081
 31
0.0
  0
LINE
  5
93
330
1F
100
AcDbEntity
  8
A-2_蓋
  6
Continuous
 62
     3
370
    13
100
AcDbLine
 10
-4273.91547125739
 20
-810.2660720412786
 30
0.0
 11
-4273.91547125739
 21
-1345.268703151393
 31
0.0
  0
LINE
  5
94
330
1F
100
AcDbEntity
  8
A-2_蓋
  6
Continuous
 62
     3
370
    13
100
AcDbLine
 10
-4243.914629961992
 20
-810.2660720412786
 30
0.0
 11
-4243.914629961992
 21
-1345.268703151393
 31
0.0
  0
LINE
  5
95
330
1F
100
AcDbEntity
  8
A-2_蓋
  6
Continuous
 62
     3
370
    13
100
AcDbLine
 10
-4399.716351483319
 20
3774.733837230787
 30
0.0
 11
-4399.716351483319
 21
3239.730587521116
 31
0.0
  0
LINE
  5
96
330
1F
100
AcDbEntity
  8
A-2_蓋
  6
Continuous
 62
     3
370
    13
100
AcDbLine
 10
-4369.714272988808
 20
3774.733837230787
 30
0.0
 11
-4369.714272988808
 21
3239.730587521116
 31
0.0
  0
LINE
  5
97
330
1F
100
AcDbEntity
  8
A-2_蓋
  6
Continuous
 62
     3
370
    13
100
AcDbLine
 10
-4399.716351483319
 20
3189.735371357686
 30
0.0
 11
-4399.716351483319
 21
2239.730999920821
 31
0.0
  0
LINE
  5
98
330
1F
100
AcDbEntity
  8
A-2_蓋
  6
Continuous
 62
     3
370
    13
100
AcDbLine
 10
-4369.714272988808
 20
3189.735371357686
 30
0.0
 11
-4369.714272988808
 21
2239.730999920821
 31
0.0
  0
LINE
  5
99
330
1F
100
AcDbEntity
  8
A-2_蓋
  6
Continuous
 62
     3
370
    13
100
AcDbLine
 10
-4399.716351483319
 20
2189.728360562712
 30
0.0
 11
-4399.716351483319
 21
1239.732030920081
 31
0.0
  0
LINE
  5
9A
330
1F
100
AcDbEntity
  8
A-2_蓋
  6
Continuous
 62
     3
370
    13
100
AcDbLine
 10
-4369.714272988808
 20
2189.728360562712
 30
0.0
 11
-4369.714272988808
 21
1239.732030920081
 31
0.0
  0
LINE
  5
9B
330
1F
100
AcDbEntity
  8
A-2_蓋
  6
Continuous
 62
     3
370
    13
100
AcDbLine
 10
-4399.716351483319
 20
-810.2660720412786
 30
0.0
 11
-4399.716351483319
 21
-1345.268703151393
 31
0.0
  0
LINE
  5
9C
330
1F
100
AcDbEntity
  8
A-2_蓋
  6
Continuous
 62
     3
370
    13
100
AcDbLine
 10
-4369.714272988808
 20
-810.2660720412786
 30
0.0
 11
-4369.714272988808
 21
-1345.268703151393
 31
0.0
  0
LINE
  5
9D
330
1F
100
AcDbEntity
  8
A-2_蓋
  6
Continuous
 62
     3
370
    13
100
AcDbLine
 10
-4525.515994510135
 20
3774.733837230787
 30
0.0
 11
-4525.515994510135
 21
3239.730587521116
 31
0.0
  0
LINE
  5
9E
330
1F
100
AcDbEntity
  8
A-2_蓋
  6
Continuous
 62
     3
370
    13
100
AcDbLine
 10
-4495.513916015625
 20
3774.733837230787
 30
0.0
 11
-4495.513916015625
 21
3239.730587521116
 31
0.0
  0
LINE
  5
9F
330
1F
100
AcDbEntity
  8
A-2_蓋
  6
Continuous
 62
     3
370
    13
100
AcDbLine
 10
-4525.515994510135
 20
3189.735371357686
 30
0.0
 11
-4525.515994510135
 21
2239.730999920821
 31
0.0
  0
LINE
  5
A0
330
1F
100
AcDbEntity
  8
A-2_蓋
  6
Continuous
 62
     3
370
    13
100
AcDbLine
 10
-4495.513916015625
 20
3189.735371357686
 30
0.0
 11
-4495.513916015625
 21
2239.730999920821
 31
0.0
  0
LINE
  5
A1
330
1F
100
AcDbEntity
  8
A-2_蓋
  6
Continuous
 62
     3
370
    13
100
AcDbLine
 10
-4525.515994510135
 20
2189.728360562712
 30
0.0
 11
-4525.515994510135
 21
1239.732030920081
 31
0.0
  0
LINE
  5
A2
330
1F
100
AcDbEntity
  8
A-2_蓋
  6
Continuous
 62
     3
370
    13
100
AcDbLine
 10
-4495.513916015625
 20
2189.728360562712
 30
0.0
 11
-4495.513916015625
 21
1239.732030920081
 31
0.0
  0
LINE
  5
A3
330
1F
100
AcDbEntity
  8
A-2_蓋
  6
Continuous
 62
     3
370
    13
100
AcDbLine
 10
-4525.515994510135
 20
-810.2660720412786
 30
0.0
 11
-4525.515994510135
 21
-1345.268703151393
 31
0.0
  0
LINE
  5
A4
330
1F
100
AcDbEntity
  8
A-2_蓋
  6
Continuous
 62
     3
370
    13
100
AcDbLine
 10
-4495.513916015625
 20
-810.2660720412786
 30
0.0
 11
-4495.513916015625
 21
-1345.268703151393
 31
0.0
  0
LINE
  5
A5
330
1F
100
AcDbEntity
  8
A-2_蓋
  6
Continuous
 62
     3
370
    13
100
AcDbLine
 10
-4651.31934913429
 20
3774.733837230787
 30
0.0
 11
-4651.31934913429
 21
3239.730587521116
 31
0.0
  0
LINE
  5
A6
330
1F
100
AcDbEntity
  8
A-2_蓋
  6
Continuous
 62
     3
370
    13
100
AcDbLine
 10
-4621.319745038007
 20
3774.733837230787
 30
0.0
 11
-4621.319745038007
 21
3239.730587521116
 31
0.0
  0
LINE
  5
A7
330
1F
100
AcDbEntity
  8
A-2_蓋
  6
Continuous
 62
     3
370
    13
100
AcDbLine
 10
-4651.31934913429
 20
3189.735371357686
 30
0.0
 11
-4651.31934913429
 21
2239.730999920821
 31
0.0
  0
LINE
  5
A8
330
1F
100
AcDbEntity
  8
A-2_蓋
  6
Continuous
 62
     3
370
    13
100
AcDbLine
 10
-4621.319745038007
 20
3189.735371357686
 30
0.0
 11
-4621.319745038007
 21
2239.730999920821
 31
0.0
  0
LINE
  5
A9
330
1F
100
AcDbEntity
  8
A-2_蓋
  6
Continuous
 62
     3
370
    13
100
AcDbLine
 10
-4651.31934913429
 20
2189.728360562712
 30
0.0
 11
-4651.31934913429
 21
1239.732030920081
 31
0.0
  0
LINE
  5
AA
330
1F
100
AcDbEntity
  8
A-2_蓋
  6
Continuous
 62
     3
370
    13
100
AcDbLine
 10
-4621.319745038007
 20
2189.728360562712
 30
0.0
 11
-4621.319745038007
 21
1239.732030920081
 31
0.0
  0
LINE
  5
AB
330
1F
100
AcDbEntity
  8
A-2_蓋
  6
Continuous
 62
     3
370
    13
100
AcDbLine
 10
-4651.31934913429
 20
-810.2660720412786
 30
0.0
 11
-4651.31934913429
 21
-1345.268703151393
 31
0.0
  0
LINE
  5
AC
330
1F
100
AcDbEntity
  8
A-2_蓋
  6
Continuous
 62
     3
370
    13
100
AcDbLine
 10
-4621.319745038007
 20
-810.2660720412786
 30
0.0
 11
-4621.319745038007
 21
-1345.268703151393
 31
0.0
  0
LINE
  5
AD
330
1F
100
AcDbEntity
  8
A-2_蓋
  6
Continuous
 62
     3
370
    13
100
AcDbLine
 10
-4777.120229360219
 20
3774.733837230787
 30
0.0
 11
-4777.120229360219
 21
3239.730587521116
 31
0.0
  0
LINE
  5
AE
330
1F
100
AcDbEntity
  8
A-2_蓋
  6
Continuous
 62
     3
370
    13
100
AcDbLine
 10
-4747.118150865709
 20
3774.733837230787
 30
0.0
 11
-4747.118150865709
 21
3239.730587521116
 31
0.0
  0
LINE
  5
AF
330
1F
100
AcDbEntity
  8
A-2_蓋
  6
Continuous
 62
     3
370
    13
100
AcDbLine
 10
-4777.120229360219
 20
3189.735371357686
 30
0.0
 11
-4777.120229360219
 21
2239.730999920821
 31
0.0
  0
LINE
  5
B0
330
1F
100
AcDbEntity
  8
A-2_蓋
  6
Continuous
 62
     3
370
    13
100
AcDbLine
 10
-4747.118150865709
 20
3189.735371357686
 30
0.0
 11
-4747.118150865709
 21
2239.730999920821
 31
0.0
  0
LINE
  5
B1
330
1F
100
AcDbEntity
  8
A-2_蓋
  6
Continuous
 62
     3
370
    13
100
AcDbLine
 10
-4777.120229360219
 20
2189.728360562712
 30
0.0
 11
-4777.120229360219
 21
1239.732030920081
 31
0.0
  0
LINE
  5
B2
330
1F
100
AcDbEntity
  8
A-2_蓋
  6
Continuous
 62
     3
370
    13
100
AcDbLine
 10
-4747.118150865709
 20
2189.728360562712
 30
0.0
 11
-4747.118150865709
 21
1239.732030920081
 31
0.0
  0
LINE
  5
B3
330
1F
100
AcDbEntity
  8
A-2_蓋
  6
Continuous
 62
     3
370
    13
100
AcDbLine
 10
-4777.120229360219
 20
-810.2660720412786
 30
0.0
 11
-4777.120229360219
 21
-1345.268703151393
 31
0.0
  0
LINE
  5
B4
330
1F
100
AcDbEntity
  8
A-2_蓋
  6
Continuous
 62
     3
370
    13
100
AcDbLine
 10
-4747.118150865709
 20
-810.2660720412786
 30
0.0
 11
-4747.118150865709
 21
-1345.268703151393
 31
0.0
  0
LINE
  5
B5
330
1F
100
AcDbEntity
  8
A-2_蓋
  6
Continuous
 62
     3
370
    13
100
AcDbLine
 10
-4902.913686391469
 20
3774.733837230787
 30
0.0
 11
-4902.913686391469
 21
3239.730587521116
 31
0.0
  0
LINE
  5
B6
330
1F
100
AcDbEntity
  8
A-2_蓋
  6
Continuous
 62
     3
370
    13
100
AcDbLine
 10
-4872.919031091638
 20
3774.733837230787
 30
0.0
 11
-4872.919031091638
 21
3239.730587521116
 31
0.0
  0
LINE
  5
B7
330
1F
100
AcDbEntity
  8
A-2_蓋
  6
Continuous
 62
     3
370
    13
100
AcDbLine
 10
-4902.913686391469
 20
3189.735371357686
 30
0.0
 11
-4902.913686391469
 21
2239.730999920821
 31
0.0
  0
LINE
  5
B8
330
1F
100
AcDbEntity
  8
A-2_蓋
  6
Continuous
 62
     3
370
    13
100
AcDbLine
 10
-4872.919031091638
 20
3189.735371357686
 30
0.0
 11
-4872.919031091638
 21
2239.730999920821
 31
0.0
  0
LINE
  5
B9
330
1F
100
AcDbEntity
  8
A-2_蓋
  6
Continuous
 62
     3
370
    13
100
AcDbLine
 10
-4902.913686391469
 20
2189.728360562712
 30
0.0
 11
-4902.913686391469
 21
1239.732030920081
 31
0.0
  0
LINE
  5
BA
330
1F
100
AcDbEntity
  8
A-2_蓋
  6
Continuous
 62
     3
370
    13
100
AcDbLine
 10
-4872.919031091638
 20
2189.728360562712
 30
0.0
 11
-4872.919031091638
 21
1239.732030920081
 31
0.0
  0
LINE
  5
BB
330
1F
100
AcDbEntity
  8
A-2_蓋
  6
Continuous
 62
     3
370
    13
100
AcDbLine
 10
-4902.913686391469
 20
-810.2660720412786
 30
0.0
 11
-4902.913686391469
 21
-1345.268703151393
 31
0.0
  0
LINE
  5
BC
330
1F
100
AcDbEntity
  8
A-2_蓋
  6
Continuous
 62
     3
370
    13
100
AcDbLine
 10
-4872.919031091638
 20
-810.2660720412786
 30
0.0
 11
-4872.919031091638
 21
-1345.268703151393
 31
0.0
  0
LINE
  5
BD
330
1F
100
AcDbEntity
  8
A-2_蓋
  6
Continuous
 62
     3
370
    13
100
AcDbLine
 10
-5028.720752612964
 20
3774.733837230787
 30
0.0
 11
-5028.720752612964
 21
3239.730587521116
 31
0.0
  0
LINE
  5
BE
330
1F
100
AcDbEntity
  8
A-2_蓋
  6
Continuous
 62
     3
370
    13
100
AcDbLine
 10
-4998.717436919341
 20
3774.733837230787
 30
0.0
 11
-4998.717436919341
 21
3239.730587521116
 31
0.0
  0
LINE
  5
BF
330
1F
100
AcDbEntity
  8
A-2_蓋
  6
Continuous
 62
     3
370
    13
100
AcDbLine
 10
-5028.720752612964
 20
3189.735371357686
 30
0.0
 11
-5028.720752612964
 21
2239.730999920821
 31
0.0
  0
LINE
  5
C0
330
1F
100
AcDbEntity
  8
A-2_蓋
  6
Continuous
 62
     3
370
    13
100
AcDbLine
 10
-4998.717436919341
 20
3189.735371357686
 30
0.0
 11
-4998.717436919341
 21
2239.730999920821
 31
0.0
  0
LINE
  5
C1
330
1F
100
AcDbEntity
  8
A-2_蓋
  6
Continuous
 62
     3
370
    13
100
AcDbLine
 10
-5028.720752612964
 20
2189.728360562712
 30
0.0
 11
-5028.720752612964
 21
1239.732030920081
 31
0.0
  0
LINE
  5
C2
330
1F
100
AcDbEntity
  8
A-2_蓋
  6
Continuous
 62
     3
370
    13
100
AcDbLine
 10
-4998.717436919341
 20
2189.728360562712
 30
0.0
 11
-4998.717436919341
 21
1239.732030920081
 31
0.0
  0
LINE
  5
C3
330
1F
100
AcDbEntity
  8
A-2_蓋
  6
Continuous
 62
     3
370
    13
100
AcDbLine
 10
-5028.720752612964
 20
-810.2660720412786
 30
0.0
 11
-5028.720752612964
 21
-1345.268703151393
 31
0.0
  0
LINE
  5
C4
330
1F
100
AcDbEntity
  8
A-2_蓋
  6
Continuous
 62
     3
370
    13
100
AcDbLine
 10
-4998.717436919341
 20
-810.2660720412786
 30
0.0
 11
-4998.717436919341
 21
-1345.268703151393
 31
0.0
  0
LINE
  5
C5
330
1F
100
AcDbEntity
  8
A-2_蓋
  6
Continuous
 62
     3
370
    13
100
AcDbLine
 10
-5154.517921241554
 20
3774.733837230787
 30
0.0
 11
-5154.517921241554
 21
3239.730587521116
 31
0.0
  0
LINE
  5
C6
330
1F
100
AcDbEntity
  8
A-2_蓋
  6
Continuous
 62
     3
370
    13
100
AcDbLine
 10
-5124.51831714527
 20
3774.733837230787
 30
0.0
 11
-5124.51831714527
 21
3239.730587521116
 31
0.0
  0
LINE
  5
C7
330
1F
100
AcDbEntity
  8
A-2_蓋
  6
Continuous
 62
     3
370
    13
100
AcDbLine
 10
-5154.517921241554
 20
3189.735371357686
 30
0.0
 11
-5154.517921241554
 21
2239.730999920821
 31
0.0
  0
LINE
  5
C8
330
1F
100
AcDbEntity
  8
A-2_蓋
  6
Continuous
 62
     3
370
    13
100
AcDbLine
 10
-5124.51831714527
 20
3189.735371357686
 30
0.0
 11
-5124.51831714527
 21
2239.730999920821
 31
0.0
  0
LINE
  5
C9
330
1F
100
AcDbEntity
  8
A-2_蓋
  6
Continuous
 62
     3
370
    13
100
AcDbLine
 10
-5154.517921241554
 20
2189.728360562712
 30
0.0
 11
-5154.517921241554
 21
1239.732030920081
 31
0.0
  0
LINE
  5
CA
330
1F
100
AcDbEntity
  8
A-2_蓋
  6
Continuous
 62
     3
370
    13
100
AcDbLine
 10
-5124.51831714527
 20
2189.728360562712
 30
0.0
 11
-5124.51831714527
 21
1239.732030920081
 31
0.0
  0
LINE
  5
CB
330
1F
100
AcDbEntity
  8
A-2_蓋
  6
Continuous
 62
     3
370
    13
100
AcDbLine
 10
-5154.517921241554
 20
-810.2660720412786
 30
0.0
 11
-5154.517921241554
 21
-1345.268703151393
 31
0.0
  0
LINE
  5
CC
330
1F
100
AcDbEntity
  8
A-2_蓋
  6
Continuous
 62
     3
370
    13
100
AcDbLine
 10
-5124.51831714527
 20
-810.2660720412786
 30
0.0
 11
-5124.51831714527
 21
-1345.268703151393
 31
0.0
  0
LINE
  5
CD
330
1F
100
AcDbEntity
  8
A-2_蓋
  6
Continuous
 62
     3
370
    13
100
AcDbLine
 10
-5280.318801467483
 20
3774.733837230787
 30
0.0
 11
-5280.318801467483
 21
3239.730587521116
 31
0.0
  0
LINE
  5
CE
330
1F
100
AcDbEntity
  8
A-2_蓋
  6
Continuous
 62
     3
370
    13
100
AcDbLine
 10
-5250.316722972972
 20
3774.733837230787
 30
0.0
 11
-5250.316722972972
 21
3239.730587521116
 31
0.0
  0
LINE
  5
CF
330
1F
100
AcDbEntity
  8
A-2_蓋
  6
Continuous
 62
     3
370
    13
100
AcDbLine
 10
-5280.318801467483
 20
3189.735371357686
 30
0.0
 11
-5280.318801467483
 21
2239.730999920821
 31
0.0
  0
LINE
  5
D0
330
1F
100
AcDbEntity
  8
A-2_蓋
  6
Continuous
 62
     3
370
    13
100
AcDbLine
 10
-5250.316722972972
 20
3189.735371357686
 30
0.0
 11
-5250.316722972972
 21
2239.730999920821
 31
0.0
  0
LINE
  5
D1
330
1F
100
AcDbEntity
  8
A-2_蓋
  6
Continuous
 62
     3
370
    13
100
AcDbLine
 10
-5280.318801467483
 20
2189.728360562712
 30
0.0
 11
-5280.318801467483
 21
1239.732030920081
 31
0.0
  0
LINE
  5
D2
330
1F
100
AcDbEntity
  8
A-2_蓋
  6
Continuous
 62
     3
370
    13
100
AcDbLine
 10
-5250.316722972972
 20
2189.728360562712
 30
0.0
 11
-5250.316722972972
 21
1239.732030920081
 31
0.0
  0
LINE
  5
D3
330
1F
100
AcDbEntity
  8
A-2_蓋
  6
Continuous
 62
     3
370
    13
100
AcDbLine
 10
-5280.318801467483
 20
-810.2660720412786
 30
0.0
 11
-5280.318801467483
 21
-1345.268703151393
 31
0.0
  0
LINE
  5
D4
330
1F
100
AcDbEntity
  8
A-2_蓋
  6
Continuous
 62
     3
370
    13
100
AcDbLine
 10
-5250.316722972972
 20
-810.2660720412786
 30
0.0
 11
-5250.316722972972
 21
-1345.268703151393
 31
0.0
  0
LINE
  5
D5
330
1F
100
AcDbEntity
  8
A-2_蓋
  6
Continuous
 62
     3
370
    13
100
AcDbLine
 10
-5406.116897995407
 20
3774.733837230787
 30
0.0
 11
-5406.116897995407
 21
3239.730587521116
 31
0.0
  0
LINE
  5
D6
330
1F
100
AcDbEntity
  8
A-2_蓋
  6
Continuous
 62
     3
370
    13
100
AcDbLine
 10
-5376.117293899124
 20
3774.733837230787
 30
0.0
 11
-5376.117293899124
 21
3239.730587521116
 31
0.0
  0
LINE
  5
D7
330
1F
100
AcDbEntity
  8
A-2_蓋
  6
Continuous
 62
     3
370
    13
100
AcDbLine
 10
-5406.116897995407
 20
3189.735371357686
 30
0.0
 11
-5406.116897995407
 21
2239.730999920821
 31
0.0
  0
LINE
  5
D8
330
1F
100
AcDbEntity
  8
A-2_蓋
  6
Continuous
 62
     3
370
    13
100
AcDbLine
 10
-5376.117293899124
 20
3189.735371357686
 30
0.0
 11
-5376.117293899124
 21
2239.730999920821
 31
0.0
  0
LINE
  5
D9
330
1F
100
AcDbEntity
  8
A-2_蓋
  6
Continuous
 62
     3
370
    13
100
AcDbLine
 10
-5406.116897995407
 20
2189.728360562712
 30
0.0
 11
-5406.116897995407
 21
1239.732030920081
 31
0.0
  0
LINE
  5
DA
330
1F
100
AcDbEntity
  8
A-2_蓋
  6
Continuous
 62
     3
370
    13
100
AcDbLine
 10
-5376.117293899124
 20
2189.728360562712
 30
0.0
 11
-5376.117293899124
 21
1239.732030920081
 31
0.0
  0
LINE
  5
DB
330
1F
100
AcDbEntity
  8
A-2_蓋
  6
Continuous
 62
     3
370
    13
100
AcDbLine
 10
-5406.116897995407
 20
-810.2660720412786
 30
0.0
 11
-5406.116897995407
 21
-1345.268703151393
 31
0.0
  0
LINE
  5
DC
330
1F
100
AcDbEntity
  8
A-2_蓋
  6
Continuous
 62
     3
370
    13
100
AcDbLine
 10
-5376.117293899124
 20
-810.2660720412786
 30
0.0
 11
-5376.117293899124
 21
-1345.268703151393
 31
0.0
  0
LINE
  5
DD
330
1F
100
AcDbEntity
  8
A-2_蓋
  6
Continuous
 62
     3
370
    13
100
AcDbLine
 10
-5531.91530382311
 20
3774.733837230787
 30
0.0
 11
-5531.91530382311
 21
3239.730587521116
 31
0.0
  0
LINE
  5
DE
330
1F
100
AcDbEntity
  8
A-2_蓋
  6
Continuous
 62
     3
370
    13
100
AcDbLine
 10
-5501.915699726826
 20
3774.733837230787
 30
0.0
 11
-5501.915699726826
 21
3239.730587521116
 31
0.0
  0
LINE
  5
DF
330
1F
100
AcDbEntity
  8
A-2_蓋
  6
Continuous
 62
     3
370
    13
100
AcDbLine
 10
-5531.91530382311
 20
3189.735371357686
 30
0.0
 11
-5531.91530382311
 21
2239.730999920821
 31
0.0
  0
LINE
  5
E0
330
1F
100
AcDbEntity
  8
A-2_蓋
  6
Continuous
 62
     3
370
    13
100
AcDbLine
 10
-5501.915699726826
 20
3189.735371357686
 30
0.0
 11
-5501.915699726826
 21
2239.730999920821
 31
0.0
  0
LINE
  5
E1
330
1F
100
AcDbEntity
  8
A-2_蓋
  6
Continuous
 62
     3
370
    13
100
AcDbLine
 10
-5531.91530382311
 20
2189.728360562712
 30
0.0
 11
-5531.91530382311
 21
1239.732030920081
 31
0.0
  0
LINE
  5
E2
330
1F
100
AcDbEntity
  8
A-2_蓋
  6
Continuous
 62
     3
370
    13
100
AcDbLine
 10
-5501.915699726826
 20
2189.728360562712
 30
0.0
 11
-5501.915699726826
 21
1239.732030920081
 31
0.0
  0
LINE
  5
E3
330
1F
100
AcDbEntity
  8
A-2_蓋
  6
Continuous
 62
     3
370
    13
100
AcDbLine
 10
-5531.91530382311
 20
-810.2660720412786
 30
0.0
 11
-5531.91530382311
 21
-1345.268703151393
 31
0.0
  0
LINE
  5
E4
330
1F
100
AcDbEntity
  8
A-2_蓋
  6
Continuous
 62
     3
370
    13
100
AcDbLine
 10
-5501.915699726826
 20
-810.2660720412786
 30
0.0
 11
-5501.915699726826
 21
-1345.268703151393
 31
0.0
  0
LINE
  5
E5
330
1F
100
AcDbEntity
  8
A-2_蓋
  6
Continuous
 62
     3
370
    13
100
AcDbLine
 10
-5657.721132845491
 20
3774.733837230787
 30
0.0
 11
-5657.721132845491
 21
3239.730587521116
 31
0.0
  0
LINE
  5
E6
330
1F
100
AcDbEntity
  8
A-2_蓋
  6
Continuous
 62
     3
370
    13
100
AcDbLine
 10
-5627.714105554529
 20
3774.733837230787
 30
0.0
 11
-5627.714105554529
 21
3239.730587521116
 31
0.0
  0
LINE
  5
E7
330
1F
100
AcDbEntity
  8
A-2_蓋
  6
Continuous
 62
     3
370
    13
100
AcDbLine
 10
-5657.721132845491
 20
3189.735371357686
 30
0.0
 11
-5657.721132845491
 21
2239.730999920821
 31
0.0
  0
LINE
  5
E8
330
1F
100
AcDbEntity
  8
A-2_蓋
  6
Continuous
 62
     3
370
    13
100
AcDbLine
 10
-5627.714105554529
 20
3189.735371357686
 30
0.0
 11
-5627.714105554529
 21
2239.730999920821
 31
0.0
  0
LINE
  5
E9
330
1F
100
AcDbEntity
  8
A-2_蓋
  6
Continuous
 62
     3
370
    13
100
AcDbLine
 10
-5657.721132845491
 20
2189.728360562712
 30
0.0
 11
-5657.721132845491
 21
1239.732030920081
 31
0.0
  0
LINE
  5
EA
330
1F
100
AcDbEntity
  8
A-2_蓋
  6
Continuous
 62
     3
370
    13
100
AcDbLine
 10
-5627.714105554529
 20
2189.728360562712
 30
0.0
 11
-5627.714105554529
 21
1239.732030920081
 31
0.0
  0
LINE
  5
EB
330
1F
100
AcDbEntity
  8
A-2_蓋
  6
Continuous
 62
     3
370
    13
100
AcDbLine
 10
-5657.721132845491
 20
-810.2660720412786
 30
0.0
 11
-5657.721132845491
 21
-1345.268703151393
 31
0.0
  0
LINE
  5
EC
330
1F
100
AcDbEntity
  8
A-2_蓋
  6
Continuous
 62
     3
370
    13
100
AcDbLine
 10
-5627.714105554529
 20
-810.2660720412786
 30
0.0
 11
-5627.714105554529
 21
-1345.268703151393
 31
0.0
  0
LINE
  5
ED
330
1F
100
AcDbEntity
  8
A-2_蓋
  6
Continuous
 62
     3
370
    13
100
AcDbLine
 10
-5783.519538673195
 20
3774.733837230787
 30
0.0
 11
-5783.519538673195
 21
3239.730587521116
 31
0.0
  0
LINE
  5
EE
330
1F
100
AcDbEntity
  8
A-2_蓋
  6
Continuous
 62
     3
370
    13
100
AcDbLine
 10
-5753.514985780457
 20
3774.733837230787
 30
0.0
 11
-5753.514985780457
 21
3239.730587521116
 31
0.0
  0
LINE
  5
EF
330
1F
100
AcDbEntity
  8
A-2_蓋
  6
Continuous
 62
     3
370
    13
100
AcDbLine
 10
-5783.519538673195
 20
3189.735371357686
 30
0.0
 11
-5783.519538673195
 21
2239.730999920821
 31
0.0
  0
LINE
  5
F0
330
1F
100
AcDbEntity
  8
A-2_蓋
  6
Continuous
 62
     3
370
    13
100
AcDbLine
 10
-5753.514985780457
 20
3189.735371357686
 30
0.0
 11
-5753.514985780457
 21
2239.730999920821
 31
0.0
  0
LINE
  5
F1
330
1F
100
AcDbEntity
  8
A-2_蓋
  6
Continuous
 62
     3
370
    13
100
AcDbLine
 10
-5783.519538673195
 20
2189.728360562712
 30
0.0
 11
-5783.519538673195
 21
1239.732030920081
 31
0.0
  0
LINE
  5
F2
330
1F
100
AcDbEntity
  8
A-2_蓋
  6
Continuous
 62
     3
370
    13
100
AcDbLine
 10
-5753.514985780457
 20
2189.728360562712
 30
0.0
 11
-5753.514985780457
 21
1239.732030920081
 31
0.0
  0
LINE
  5
F3
330
1F
100
AcDbEntity
  8
A-2_蓋
  6
Continuous
 62
     3
370
    13
100
AcDbLine
 10
-5783.519538673195
 20
-810.2660720412786
 30
0.0
 11
-5783.519538673195
 21
-1345.268703151393
 31
0.0
  0
LINE
  5
F4
330
1F
100
AcDbEntity
  8
A-2_蓋
  6
Continuous
 62
     3
370
    13
100
AcDbLine
 10
-5753.514985780457
 20
-810.2660720412786
 30
0.0
 11
-5753.514985780457
 21
-1345.268703151393
 31
0.0
  0
LINE
  5
F5
330
1F
100
AcDbEntity
  8
A-2_蓋
  6
Continuous
 62
     3
370
    13
100
AcDbLine
 10
-5909.319181700011
 20
3774.733837230787
 30
0.0
 11
-5909.319181700011
 21
3239.730587521116
 31
0.0
  0
LINE
  5
F6
330
1F
100
AcDbEntity
  8
A-2_蓋
  6
Continuous
 62
     3
370
    13
100
AcDbLine
 10
-5879.313391608161
 20
3774.733837230787
 30
0.0
 11
-5879.313391608161
 21
3239.730587521116
 31
0.0
  0
LINE
  5
F7
330
1F
100
AcDbEntity
  8
A-2_蓋
  6
Continuous
 62
     3
370
    13
100
AcDbLine
 10
-5909.319181700011
 20
3189.735371357686
 30
0.0
 11
-5909.319181700011
 21
2239.730999920821
 31
0.0
  0
LINE
  5
F8
330
1F
100
AcDbEntity
  8
A-2_蓋
  6
Continuous
 62
     3
370
    13
100
AcDbLine
 10
-5879.313391608161
 20
3189.735371357686
 30
0.0
 11
-5879.313391608161
 21
2239.730999920821
 31
0.0
  0
LINE
  5
F9
330
1F
100
AcDbEntity
  8
A-2_蓋
  6
Continuous
 62
     3
370
    13
100
AcDbLine
 10
-5909.319181700011
 20
2189.728360562712
 30
0.0
 11
-5909.319181700011
 21
1239.732030920081
 31
0.0
  0
LINE
  5
FA
330
1F
100
AcDbEntity
  8
A-2_蓋
  6
Continuous
 62
     3
370
    13
100
AcDbLine
 10
-5879.313391608161
 20
2189.728360562712
 30
0.0
 11
-5879.313391608161
 21
1239.732030920081
 31
0.0
  0
LINE
  5
FB
330
1F
100
AcDbEntity
  8
A-2_蓋
  6
Continuous
 62
     3
370
    13
100
AcDbLine
 10
-5909.319181700011
 20
-810.2660720412786
 30
0.0
 11
-5909.319181700011
 21
-1345.268703151393
 31
0.0
  0
LINE
  5
FC
330
1F
100
AcDbEntity
  8
A-2_蓋
  6
Continuous
 62
     3
370
    13
100
AcDbLine
 10
-5879.313391608161
 20
-810.2660720412786
 30
0.0
 11
-5879.313391608161
 21
-1345.268703151393
 31
0.0
  0
LINE
  5
FD
330
1F
100
AcDbEntity
  8
A-2_蓋
  6
Continuous
 62
     3
370
    13
100
AcDbLine
 10
-6035.118824726826
 20
3774.733837230787
 30
0.0
 11
-6035.118824726826
 21
3239.730587521116
 31
0.0
  0
LINE
  5
FE
330
1F
100
AcDbEntity
  8
A-2_蓋
  6
Continuous
 62
     3
370
    13
100
AcDbLine
 10
-6005.117983431429
 20
3774.733837230787
 30
0.0
 11
-6005.117983431429
 21
3239.730587521116
 31
0.0
  0
LINE
  5
FF
330
1F
100
AcDbEntity
  8
A-2_蓋
  6
Continuous
 62
     3
370
    13
100
AcDbLine
 10
-6035.118824726826
 20
3189.735371357686
 30
0.0
 11
-6035.118824726826
 21
2239.730999920821
 31
0.0
  0
LINE
  5
100
330
1F
100
AcDbEntity
  8
A-2_蓋
  6
Continuous
 62
     3
370
    13
100
AcDbLine
 10
-6005.117983431429
 20
3189.735371357686
 30
0.0
 11
-6005.117983431429
 21
2239.730999920821
 31
0.0
  0
LINE
  5
101
330
1F
100
AcDbEntity
  8
A-2_蓋
  6
Continuous
 62
     3
370
    13
100
AcDbLine
 10
-6035.118824726826
 20
2189.728360562712
 30
0.0
 11
-6035.118824726826
 21
1239.732030920081
 31
0.0
  0
LINE
  5
102
330
1F
100
AcDbEntity
  8
A-2_蓋
  6
Continuous
 62
     3
370
    13
100
AcDbLine
 10
-6005.117983431429
 20
2189.728360562712
 30
0.0
 11
-6005.117983431429
 21
1239.732030920081
 31
0.0
  0
LINE
  5
103
330
1F
100
AcDbEntity
  8
A-2_蓋
  6
Continuous
 62
     3
370
    13
100
AcDbLine
 10
-6035.118824726826
 20
-810.2660720412786
 30
0.0
 11
-6035.118824726826
 21
-1345.268703151393
 31
0.0
  0
LINE
  5
104
330
1F
100
AcDbEntity
  8
A-2_蓋
  6
Continuous
 62
     3
370
    13
100
AcDbLine
 10
-6005.117983431429
 20
-810.2660720412786
 30
0.0
 11
-6005.117983431429
 21
-1345.268703151393
 31
0.0
  0
LINE
  5
105
330
1F
100
AcDbEntity
  8
A-2_蓋
  6
Continuous
 62
     3
370
    13
100
AcDbLine
 10
-6160.918467753642
 20
3774.733837230787
 30
0.0
 11
-6160.918467753642
 21
3239.730587521116
 31
0.0
  0
LINE
  5
106
330
1F
100
AcDbEntity
  8
A-2_蓋
  6
Continuous
 62
     3
370
    13
100
AcDbLine
 10
-6130.918863657358
 20
3774.733837230787
 30
0.0
 11
-6130.918863657358
 21
3239.730587521116
 31
0.0
  0
LINE
  5
107
330
1F
100
AcDbEntity
  8
A-2_蓋
  6
Continuous
 62
     3
370
    13
100
AcDbLine
 10
-6160.918467753642
 20
3189.735371357686
 30
0.0
 11
-6160.918467753642
 21
2239.730999920821
 31
0.0
  0
LINE
  5
108
330
1F
100
AcDbEntity
  8
A-2_蓋
  6
Continuous
 62
     3
370
    13
100
AcDbLine
 10
-6130.918863657358
 20
3189.735371357686
 30
0.0
 11
-6130.918863657358
 21
2239.730999920821
 31
0.0
  0
LINE
  5
109
330
1F
100
AcDbEntity
  8
A-2_蓋
  6
Continuous
 62
     3
370
    13
100
AcDbLine
 10
-6160.918467753642
 20
2189.728360562712
 30
0.0
 11
-6160.918467753642
 21
1239.732030920081
 31
0.0
  0
LINE
  5
10A
330
1F
100
AcDbEntity
  8
A-2_蓋
  6
Continuous
 62
     3
370
    13
100
AcDbLine
 10
-6130.918863657358
 20
2189.728360562712
 30
0.0
 11
-6130.918863657358
 21
1239.732030920081
 31
0.0
  0
LINE
  5
10B
330
1F
100
AcDbEntity
  8
A-2_蓋
  6
Continuous
 62
     3
370
    13
100
AcDbLine
 10
-6160.918467753642
 20
-810.2660720412786
 30
0.0
 11
-6160.918467753642
 21
-1345.268703151393
 31
0.0
  0
LINE
  5
10C
330
1F
100
AcDbEntity
  8
A-2_蓋
  6
Continuous
 62
     3
370
    13
100
AcDbLine
 10
-6130.918863657358
 20
-810.2660720412786
 30
0.0
 11
-6130.918863657358
 21
-1345.268703151393
 31
0.0
  0
LINE
  5
10D
330
1F
100
AcDbEntity
  8
A-2_蓋
  6
Continuous
 62
     3
370
    13
100
AcDbLine
 10
-6286.718110780457
 20
3774.733837230787
 30
0.0
 11
-6286.718110780457
 21
3239.730587521116
 31
0.0
  0
LINE
  5
10E
330
1F
100
AcDbEntity
  8
A-2_蓋
  6
Continuous
 62
     3
370
    13
100
AcDbLine
 10
-6256.717269485061
 20
3774.733837230787
 30
0.0
 11
-6256.717269485061
 21
3239.730587521116
 31
0.0
  0
LINE
  5
10F
330
1F
100
AcDbEntity
  8
A-2_蓋
  6
Continuous
 62
     3
370
    13
100
AcDbLine
 10
-6286.718110780457
 20
3189.735371357686
 30
0.0
 11
-6286.718110780457
 21
2239.730999920821
 31
0.0
  0
LINE
  5
110
330
1F
100
AcDbEntity
  8
A-2_蓋
  6
Continuous
 62
     3
370
    13
100
AcDbLine
 10
-6256.717269485061
 20
3189.735371357686
 30
0.0
 11
-6256.717269485061
 21
2239.730999920821
 31
0.0
  0
LINE
  5
111
330
1F
100
AcDbEntity
  8
A-2_蓋
  6
Continuous
 62
     3
370
    13
100
AcDbLine
 10
-6286.718110780457
 20
2189.728360562712
 30
0.0
 11
-6286.718110780457
 21
1239.732030920081
 31
0.0
  0
LINE
  5
112
330
1F
100
AcDbEntity
  8
A-2_蓋
  6
Continuous
 62
     3
370
    13
100
AcDbLine
 10
-6256.717269485061
 20
2189.728360562712
 30
0.0
 11
-6256.717269485061
 21
1239.732030920081
 31
0.0
  0
LINE
  5
113
330
1F
100
AcDbEntity
  8
A-2_蓋
  6
Continuous
 62
     3
370
    13
100
AcDbLine
 10
-6286.718110780457
 20
-810.2660720412786
 30
0.0
 11
-6286.718110780457
 21
-1345.268703151393
 31
0.0
  0
LINE
  5
114
330
1F
100
AcDbEntity
  8
A-2_蓋
  6
Continuous
 62
     3
370
    13
100
AcDbLine
 10
-6256.717269485061
 20
-810.2660720412786
 30
0.0
 11
-6256.717269485061
 21
-1345.268703151393
 31
0.0
  0
LINE
  5
115
330
1F
100
AcDbEntity
  8
A-2_蓋
  6
Continuous
 62
     3
370
    13
100
AcDbLine
 10
-6412.517753807273
 20
3774.733837230787
 30
0.0
 11
-6412.517753807273
 21
3239.730587521116
 31
0.0
  0
LINE
  5
116
330
1F
100
AcDbEntity
  8
A-2_蓋
  6
Continuous
 62
     3
370
    13
100
AcDbLine
 10
-6382.516912511877
 20
3774.733837230787
 30
0.0
 11
-6382.516912511877
 21
3239.730587521116
 31
0.0
  0
LINE
  5
117
330
1F
100
AcDbEntity
  8
A-2_蓋
  6
Continuous
 62
     3
370
    13
100
AcDbLine
 10
-6412.517753807273
 20
3189.735371357686
 30
0.0
 11
-6412.517753807273
 21
2239.730999920821
 31
0.0
  0
LINE
  5
118
330
1F
100
AcDbEntity
  8
A-2_蓋
  6
Continuous
 62
     3
370
    13
100
AcDbLine
 10
-6382.516912511877
 20
3189.735371357686
 30
0.0
 11
-6382.516912511877
 21
2239.730999920821
 31
0.0
  0
LINE
  5
119
330
1F
100
AcDbEntity
  8
A-2_蓋
  6
Continuous
 62
     3
370
    13
100
AcDbLine
 10
-6412.517753807273
 20
2189.728360562712
 30
0.0
 11
-6412.517753807273
 21
1239.732030920081
 31
0.0
  0
LINE
  5
11A
330
1F
100
AcDbEntity
  8
A-2_蓋
  6
Continuous
 62
     3
370
    13
100
AcDbLine
 10
-6382.516912511877
 20
2189.728360562712
 30
0.0
 11
-6382.516912511877
 21
1239.732030920081
 31
0.0
  0
LINE
  5
11B
330
1F
100
AcDbEntity
  8
A-2_蓋
  6
Continuous
 62
     3
370
    13
100
AcDbLine
 10
-6412.517753807273
 20
-810.2660720412786
 30
0.0
 11
-6412.517753807273
 21
-1345.268703151393
 31
0.0
  0
LINE
  5
11C
330
1F
100
AcDbEntity
  8
A-2_蓋
  6
Continuous
 62
     3
370
    13
100
AcDbLine
 10
-6382.516912511877
 20
-810.2660720412786
 30
0.0
 11
-6382.516912511877
 21
-1345.268703151393
 31
0.0
  0
LINE
  5
11D
330
1F
100
AcDbEntity
  8
A-2_蓋
  6
Continuous
 62
     3
370
    13
100
AcDbLine
 10
-6538.316159634976
 20
3774.733837230787
 30
0.0
 11
-6538.316159634976
 21
3239.730587521116
 31
0.0
  0
LINE
  5
11E
330
1F
100
AcDbEntity
  8
A-2_蓋
  6
Continuous
 62
     3
370
    13
100
AcDbLine
 10
-6508.316555538693
 20
3774.733837230787
 30
0.0
 11
-6508.316555538693
 21
3239.730587521116
 31
0.0
  0
LINE
  5
11F
330
1F
100
AcDbEntity
  8
A-2_蓋
  6
Continuous
 62
     3
370
    13
100
AcDbLine
 10
-6538.316159634976
 20
3189.735371357686
 30
0.0
 11
-6538.316159634976
 21
2239.730999920821
 31
0.0
  0
LINE
  5
120
330
1F
100
AcDbEntity
  8
A-2_蓋
  6
Continuous
 62
     3
370
    13
100
AcDbLine
 10
-6508.316555538693
 20
3189.735371357686
 30
0.0
 11
-6508.316555538693
 21
2239.730999920821
 31
0.0
  0
LINE
  5
121
330
1F
100
AcDbEntity
  8
A-2_蓋
  6
Continuous
 62
     3
370
    13
100
AcDbLine
 10
-6538.316159634976
 20
2189.728360562712
 30
0.0
 11
-6538.316159634976
 21
1239.732030920081
 31
0.0
  0
LINE
  5
122
330
1F
100
AcDbEntity
  8
A-2_蓋
  6
Continuous
 62
     3
370
    13
100
AcDbLine
 10
-6508.316555538693
 20
2189.728360562712
 30
0.0
 11
-6508.316555538693
 21
1239.732030920081
 31
0.0
  0
LINE
  5
123
330
1F
100
AcDbEntity
  8
A-2_蓋
  6
Continuous
 62
     3
370
    13
100
AcDbLine
 10
-6538.316159634976
 20
-810.2660720412786
 30
0.0
 11
-6538.316159634976
 21
-1345.268703151393
 31
0.0
  0
LINE
  5
124
330
1F
100
AcDbEntity
  8
A-2_蓋
  6
Continuous
 62
     3
370
    13
100
AcDbLine
 10
-6508.316555538693
 20
-810.2660720412786
 30
0.0
 11
-6508.316555538693
 21
-1345.268703151393
 31
0.0
  0
LINE
  5
125
330
1F
100
AcDbEntity
  8
A-2_蓋
  6
Continuous
 62
     3
370
    13
100
AcDbLine
 10
-6664.121988657358
 20
3774.733837230787
 30
0.0
 11
-6664.121988657358
 21
3239.730587521116
 31
0.0
  0
LINE
  5
126
330
1F
100
AcDbEntity
  8
A-2_蓋
  6
Continuous
 62
     3
370
    13
100
AcDbLine
 10
-6634.121147361961
 20
3774.733837230787
 30
0.0
 11
-6634.121147361961
 21
3239.730587521116
 31
0.0
  0
LINE
  5
127
330
1F
100
AcDbEntity
  8
A-2_蓋
  6
Continuous
 62
     3
370
    13
100
AcDbLine
 10
-6664.121988657358
 20
3189.735371357686
 30
0.0
 11
-6664.121988657358
 21
2239.730999920821
 31
0.0
  0
LINE
  5
128
330
1F
100
AcDbEntity
  8
A-2_蓋
  6
Continuous
 62
     3
370
    13
100
AcDbLine
 10
-6634.121147361961
 20
3189.735371357686
 30
0.0
 11
-6634.121147361961
 21
2239.730999920821
 31
0.0
  0
LINE
  5
129
330
1F
100
AcDbEntity
  8
A-2_蓋
  6
Continuous
 62
     3
370
    13
100
AcDbLine
 10
-6664.121988657358
 20
2189.728360562712
 30
0.0
 11
-6664.121988657358
 21
1239.732030920081
 31
0.0
  0
LINE
  5
12A
330
1F
100
AcDbEntity
  8
A-2_蓋
  6
Continuous
 62
     3
370
    13
100
AcDbLine
 10
-6634.121147361961
 20
2189.728360562712
 30
0.0
 11
-6634.121147361961
 21
1239.732030920081
 31
0.0
  0
LINE
  5
12B
330
1F
100
AcDbEntity
  8
A-2_蓋
  6
Continuous
 62
     3
370
    13
100
AcDbLine
 10
-6664.121988657358
 20
-810.2660720412786
 30
0.0
 11
-6664.121988657358
 21
-1345.268703151393
 31
0.0
  0
LINE
  5
12C
330
1F
100
AcDbEntity
  8
A-2_蓋
  6
Continuous
 62
     3
370
    13
100
AcDbLine
 10
-6634.121147361961
 20
-810.2660720412786
 30
0.0
 11
-6634.121147361961
 21
-1345.268703151393
 31
0.0
  0
LINE
  5
12D
330
1F
100
AcDbEntity
  8
A-2_蓋
  6
Continuous
 62
     3
370
    13
100
AcDbLine
 10
-6789.915445688608
 20
3774.733837230787
 30
0.0
 11
-6789.915445688608
 21
3239.730587521116
 31
0.0
  0
LINE
  5
12E
330
1F
100
AcDbEntity
  8
A-2_蓋
  6
Continuous
 62
     3
370
    13
100
AcDbLine
 10
-6759.920790388777
 20
3774.733837230787
 30
0.0
 11
-6759.920790388777
 21
3239.730587521116
 31
0.0
  0
LINE
  5
12F
330
1F
100
AcDbEntity
  8
A-2_蓋
  6
Continuous
 62
     3
370
    13
100
AcDbLine
 10
-6789.915445688608
 20
3189.735371357686
 30
0.0
 11
-6789.915445688608
 21
2239.730999920821
 31
0.0
  0
LINE
  5
130
330
1F
100
AcDbEntity
  8
A-2_蓋
  6
Continuous
 62
     3
370
    13
100
AcDbLine
 10
-6759.920790388777
 20
3189.735371357686
 30
0.0
 11
-6759.920790388777
 21
2239.730999920821
 31
0.0
  0
LINE
  5
131
330
1F
100
AcDbEntity
  8
A-2_蓋
  6
Continuous
 62
     3
370
    13
100
AcDbLine
 10
-6789.915445688608
 20
2189.728360562712
 30
0.0
 11
-6789.915445688608
 21
1239.732030920081
 31
0.0
  0
LINE
  5
132
330
1F
100
AcDbEntity
  8
A-2_蓋
  6
Continuous
 62
     3
370
    13
100
AcDbLine
 10
-6759.920790388777
 20
2189.728360562712
 30
0.0
 11
-6759.920790388777
 21
1239.732030920081
 31
0.0
  0
LINE
  5
133
330
1F
100
AcDbEntity
  8
A-2_蓋
  6
Continuous
 62
     3
370
    13
100
AcDbLine
 10
-6789.915445688608
 20
-810.2660720412786
 30
0.0
 11
-6789.915445688608
 21
-1345.268703151393
 31
0.0
  0
LINE
  5
134
330
1F
100
AcDbEntity
  8
A-2_蓋
  6
Continuous
 62
     3
370
    13
100
AcDbLine
 10
-6759.920790388777
 20
-810.2660720412786
 30
0.0
 11
-6759.920790388777
 21
-1345.268703151393
 31
0.0
  0
LINE
  5
135
330
1F
100
AcDbEntity
  8
A-2_蓋
  6
Continuous
 62
     3
370
    13
100
AcDbLine
 10
-6915.715088715425
 20
3774.733837230787
 30
0.0
 11
-6915.715088715425
 21
3239.730587521116
 31
0.0
  0
LINE
  5
136
330
1F
100
AcDbEntity
  8
A-2_蓋
  6
Continuous
 62
     3
370
    13
100
AcDbLine
 10
-6885.719196216479
 20
3774.733837230787
 30
0.0
 11
-6885.719196216479
 21
3239.730587521116
 31
0.0
  0
LINE
  5
137
330
1F
100
AcDbEntity
  8
A-2_蓋
  6
Continuous
 62
     3
370
    13
100
AcDbLine
 10
-6915.715088715425
 20
3189.735371357686
 30
0.0
 11
-6915.715088715425
 21
2239.730999920821
 31
0.0
  0
LINE
  5
138
330
1F
100
AcDbEntity
  8
A-2_蓋
  6
Continuous
 62
     3
370
    13
100
AcDbLine
 10
-6885.719196216479
 20
3189.735371357686
 30
0.0
 11
-6885.719196216479
 21
2239.730999920821
 31
0.0
  0
LINE
  5
139
330
1F
100
AcDbEntity
  8
A-2_蓋
  6
Continuous
 62
     3
370
    13
100
AcDbLine
 10
-6915.715088715425
 20
2189.728360562712
 30
0.0
 11
-6915.715088715425
 21
1239.732030920081
 31
0.0
  0
LINE
  5
13A
330
1F
100
AcDbEntity
  8
A-2_蓋
  6
Continuous
 62
     3
370
    13
100
AcDbLine
 10
-6885.719196216479
 20
2189.728360562712
 30
0.0
 11
-6885.719196216479
 21
1239.732030920081
 31
0.0
  0
LINE
  5
13B
330
1F
100
AcDbEntity
  8
A-2_蓋
  6
Continuous
 62
     3
370
    13
100
AcDbLine
 10
-6915.715088715425
 20
-810.2660720412786
 30
0.0
 11
-6915.715088715425
 21
-1345.268703151393
 31
0.0
  0
LINE
  5
13C
330
1F
100
AcDbEntity
  8
A-2_蓋
  6
Continuous
 62
     3
370
    13
100
AcDbLine
 10
-6885.719196216479
 20
-810.2660720412786
 30
0.0
 11
-6885.719196216479
 21
-1345.268703151393
 31
0.0
  0
LINE
  5
13D
330
1F
100
AcDbEntity
  8
A-2_蓋
  6
Continuous
 62
     3
370
    13
100
AcDbLine
 10
-7041.519680538693
 20
3774.733837230787
 30
0.0
 11
-7041.519680538693
 21
3239.730587521116
 31
0.0
  0
LINE
  5
13E
330
1F
100
AcDbEntity
  8
A-2_蓋
  6
Continuous
 62
     3
370
    13
100
AcDbLine
 10
-7011.518839243296
 20
3774.733837230787
 30
0.0
 11
-7011.518839243296
 21
3239.730587521116
 31
0.0
  0
LINE
  5
13F
330
1F
100
AcDbEntity
  8
A-2_蓋
  6
Continuous
 62
     3
370
    13
100
AcDbLine
 10
-7041.519680538693
 20
3189.735371357686
 30
0.0
 11
-7041.519680538693
 21
2239.730999920821
 31
0.0
  0
LINE
  5
140
330
1F
100
AcDbEntity
  8
A-2_蓋
  6
Continuous
 62
     3
370
    13
100
AcDbLine
 10
-7011.518839243296
 20
3189.735371357686
 30
0.0
 11
-7011.518839243296
 21
2239.730999920821
 31
0.0
  0
LINE
  5
141
330
1F
100
AcDbEntity
  8
A-2_蓋
  6
Continuous
 62
     3
370
    13
100
AcDbLine
 10
-7041.519680538693
 20
2189.728360562712
 30
0.0
 11
-7041.519680538693
 21
1239.732030920081
 31
0.0
  0
LINE
  5
142
330
1F
100
AcDbEntity
  8
A-2_蓋
  6
Continuous
 62
     3
370
    13
100
AcDbLine
 10
-7011.518839243296
 20
2189.728360562712
 30
0.0
 11
-7011.518839243296
 21
1239.732030920081
 31
0.0
  0
LINE
  5
143
330
1F
100
AcDbEntity
  8
A-2_蓋
  6
Continuous
 62
     3
370
    13
100
AcDbLine
 10
-7041.519680538693
 20
-810.2660720412786
 30
0.0
 11
-7041.519680538693
 21
-1345.268703151393
 31
0.0
  0
LINE
  5
144
330
1F
100
AcDbEntity
  8
A-2_蓋
  6
Continuous
 62
     3
370
    13
100
AcDbLine
 10
-7011.518839243296
 20
-810.2660720412786
 30
0.0
 11
-7011.518839243296
 21
-1345.268703151393
 31
0.0
  0
LINE
  5
145
330
1F
100
AcDbEntity
  8
A-2_蓋
  6
Continuous
 62
     3
370
    13
100
AcDbLine
 10
-7167.319323565508
 20
3774.733837230787
 30
0.0
 11
-7167.319323565508
 21
3239.730587521116
 31
0.0
  0
LINE
  5
146
330
1F
100
AcDbEntity
  8
A-2_蓋
  6
Continuous
 62
     3
370
    13
100
AcDbLine
 10
-7137.319719469224
 20
3774.733837230787
 30
0.0
 11
-7137.319719469224
 21
3239.730587521116
 31
0.0
  0
LINE
  5
147
330
1F
100
AcDbEntity
  8
A-2_蓋
  6
Continuous
 62
     3
370
    13
100
AcDbLine
 10
-7167.319323565508
 20
3189.735371357686
 30
0.0
 11
-7167.319323565508
 21
2239.730999920821
 31
0.0
  0
LINE
  5
148
330
1F
100
AcDbEntity
  8
A-2_蓋
  6
Continuous
 62
     3
370
    13
100
AcDbLine
 10
-7137.319719469224
 20
3189.735371357686
 30
0.0
 11
-7137.319719469224
 21
2239.730999920821
 31
0.0
  0
LINE
  5
149
330
1F
100
AcDbEntity
  8
A-2_蓋
  6
Continuous
 62
     3
370
    13
100
AcDbLine
 10
-7167.319323565508
 20
2189.728360562712
 30
0.0
 11
-7167.319323565508
 21
1239.732030920081
 31
0.0
  0
LINE
  5
14A
330
1F
100
AcDbEntity
  8
A-2_蓋
  6
Continuous
 62
     3
370
    13
100
AcDbLine
 10
-7137.319719469224
 20
2189.728360562712
 30
0.0
 11
-7137.319719469224
 21
1239.732030920081
 31
0.0
  0
LINE
  5
14B
330
1F
100
AcDbEntity
  8
A-2_蓋
  6
Continuous
 62
     3
370
    13
100
AcDbLine
 10
-7167.319323565508
 20
-810.2660720412786
 30
0.0
 11
-7167.319323565508
 21
-1345.268703151393
 31
0.0
  0
LINE
  5
14C
330
1F
100
AcDbEntity
  8
A-2_蓋
  6
Continuous
 62
     3
370
    13
100
AcDbLine
 10
-7137.319719469224
 20
-810.2660720412786
 30
0.0
 11
-7137.319719469224
 21
-1345.268703151393
 31
0.0
  0
LINE
  5
14D
330
1F
100
AcDbEntity
  8
A-2_蓋
  6
Continuous
 62
     3
370
    13
100
AcDbLine
 10
-7293.118966592326
 20
3774.733837230787
 30
0.0
 11
-7293.118966592326
 21
3239.730587521116
 31
0.0
  0
LINE
  5
14E
330
1F
100
AcDbEntity
  8
A-2_蓋
  6
Continuous
 62
     3
370
    13
100
AcDbLine
 10
-7263.118125296927
 20
3774.733837230787
 30
0.0
 11
-7263.118125296927
 21
3239.730587521116
 31
0.0
  0
LINE
  5
14F
330
1F
100
AcDbEntity
  8
A-2_蓋
  6
Continuous
 62
     3
370
    13
100
AcDbLine
 10
-7293.118966592326
 20
3189.735371357686
 30
0.0
 11
-7293.118966592326
 21
2239.730999920821
 31
0.0
  0
LINE
  5
150
330
1F
100
AcDbEntity
  8
A-2_蓋
  6
Continuous
 62
     3
370
    13
100
AcDbLine
 10
-7263.118125296927
 20
3189.735371357686
 30
0.0
 11
-7263.118125296927
 21
2239.730999920821
 31
0.0
  0
LINE
  5
151
330
1F
100
AcDbEntity
  8
A-2_蓋
  6
Continuous
 62
     3
370
    13
100
AcDbLine
 10
-7293.118966592326
 20
2189.728360562712
 30
0.0
 11
-7293.118966592326
 21
1239.732030920081
 31
0.0
  0
LINE
  5
152
330
1F
100
AcDbEntity
  8
A-2_蓋
  6
Continuous
 62
     3
370
    13
100
AcDbLine
 10
-7263.118125296927
 20
2189.728360562712
 30
0.0
 11
-7263.118125296927
 21
1239.732030920081
 31
0.0
  0
LINE
  5
153
330
1F
100
AcDbEntity
  8
A-2_蓋
  6
Continuous
 62
     3
370
    13
100
AcDbLine
 10
-7293.118966592326
 20
-810.2660720412786
 30
0.0
 11
-7293.118966592326
 21
-1345.268703151393
 31
0.0
  0
LINE
  5
154
330
1F
100
AcDbEntity
  8
A-2_蓋
  6
Continuous
 62
     3
370
    13
100
AcDbLine
 10
-7263.118125296927
 20
-810.2660720412786
 30
0.0
 11
-7263.118125296927
 21
-1345.268703151393
 31
0.0
  0
LINE
  5
155
330
1F
100
AcDbEntity
  8
A-2_蓋
  6
Continuous
 62
     3
370
    13
100
AcDbLine
 10
-7418.918918918919
 20
189.7285667625638
 30
0.0
 11
-2358.919298326647
 21
189.7285667625638
 31
0.0
  0
LINE
  5
156
330
1F
100
AcDbEntity
  8
A-2_蓋
  6
Continuous
 62
     3
370
    13
100
AcDbLine
 10
-7418.918918918919
 20
-760.2683814796237
 30
0.0
 11
-2358.919298326647
 21
-760.2683814796237
 31
0.0
  0
LINE
  5
157
330
1F
100
AcDbEntity
  8
A-2_蓋
  6
Continuous
 62
     3
370
    13
100
AcDbLine
 10
-7388.914366026183
 20
-760.2683814796237
 30
0.0
 11
-7388.914366026183
 21
189.7285667625638
 31
0.0
  0
LINE
  5
158
330
1F
100
AcDbEntity
  8
A-2_蓋
  6
Continuous
 62
     3
370
    13
100
AcDbLine
 10
-2388.914572226034
 20
189.7285667625638
 30
0.0
 11
-2388.914572226034
 21
-760.2683814796237
 31
0.0
  0
LINE
  5
159
330
1F
100
AcDbEntity
  8
A-2_蓋
  6
Continuous
 62
     3
370
    13
100
AcDbLine
 10
-3393.314258472338
 20
189.7285667625638
 30
0.0
 11
-3393.314258472338
 21
-760.2683814796237
 31
0.0
  0
LINE
  5
15A
330
1F
100
AcDbEntity
  8
A-2_蓋
  6
Continuous
 62
     3
370
    13
100
AcDbLine
 10
-3363.313417176942
 20
189.7285667625638
 30
0.0
 11
-3363.313417176942
 21
-760.2683814796237
 31
0.0
  0
LINE
  5
15B
330
1F
100
AcDbEntity
  8
A-2_蓋
  6
Continuous
 62
     3
370
    13
100
AcDbLine
 10
-3519.113901499155
 20
189.7285667625638
 30
0.0
 11
-3519.113901499155
 21
-760.2683814796237
 31
0.0
  0
LINE
  5
15C
330
1F
100
AcDbEntity
  8
A-2_蓋
  6
Continuous
 62
     3
370
    13
100
AcDbLine
 10
-3489.113060203758
 20
189.7285667625638
 30
0.0
 11
-3489.113060203758
 21
-760.2683814796237
 31
0.0
  0
LINE
  5
15D
330
1F
100
AcDbEntity
  8
A-2_蓋
  6
Continuous
 62
     3
370
    13
100
AcDbLine
 10
-3644.918493322423
 20
189.7285667625638
 30
0.0
 11
-3644.918493322423
 21
-760.2683814796237
 31
0.0
  0
LINE
  5
15E
330
1F
100
AcDbEntity
  8
A-2_蓋
  6
Continuous
 62
     3
370
    13
100
AcDbLine
 10
-3614.912703230574
 20
189.7285667625638
 30
0.0
 11
-3614.912703230574
 21
-760.2683814796237
 31
0.0
  0
LINE
  5
15F
330
1F
100
AcDbEntity
  8
A-2_蓋
  6
Continuous
 62
     3
370
    13
100
AcDbLine
 10
-3770.71813634924
 20
189.7285667625638
 30
0.0
 11
-3770.71813634924
 21
-760.2683814796237
 31
0.0
  0
LINE
  5
160
330
1F
100
AcDbEntity
  8
A-2_蓋
  6
Continuous
 62
     3
370
    13
100
AcDbLine
 10
-3740.712346257389
 20
189.7285667625638
 30
0.0
 11
-3740.712346257389
 21
-760.2683814796237
 31
0.0
  0
LINE
  5
161
330
1F
100
AcDbEntity
  8
A-2_蓋
  6
Continuous
 62
     3
370
    13
100
AcDbLine
 10
-3896.517779376056
 20
189.7285667625638
 30
0.0
 11
-3896.517779376056
 21
-760.2683814796237
 31
0.0
  0
LINE
  5
162
330
1F
100
AcDbEntity
  8
A-2_蓋
  6
Continuous
 62
     3
370
    13
100
AcDbLine
 10
-3866.516938080659
 20
189.7285667625638
 30
0.0
 11
-3866.516938080659
 21
-760.2683814796237
 31
0.0
  0
LINE
  5
163
330
1F
100
AcDbEntity
  8
A-2_蓋
  6
Continuous
 62
     3
370
    13
100
AcDbLine
 10
-4022.316185203758
 20
189.7285667625638
 30
0.0
 11
-4022.316185203758
 21
-760.2683814796237
 31
0.0
  0
LINE
  5
164
330
1F
100
AcDbEntity
  8
A-2_蓋
  6
Continuous
 62
     3
370
    13
100
AcDbLine
 10
-3992.316581107474
 20
189.7285667625638
 30
0.0
 11
-3992.316581107474
 21
-760.2683814796237
 31
0.0
  0
LINE
  5
165
330
1F
100
AcDbEntity
  8
A-2_蓋
  6
Continuous
 62
     3
370
    13
100
AcDbLine
 10
-4148.115828230574
 20
189.7285667625638
 30
0.0
 11
-4148.115828230574
 21
-760.2683814796237
 31
0.0
  0
LINE
  5
166
330
1F
100
AcDbEntity
  8
A-2_蓋
  6
Continuous
 62
     3
370
    13
100
AcDbLine
 10
-4118.117461333403
 20
189.7285667625638
 30
0.0
 11
-4118.117461333403
 21
-760.2683814796237
 31
0.0
  0
LINE
  5
167
330
1F
100
AcDbEntity
  8
A-2_蓋
  6
Continuous
 62
     3
370
    13
100
AcDbLine
 10
-4273.91547125739
 20
189.7285667625638
 30
0.0
 11
-4273.91547125739
 21
-760.2683814796237
 31
0.0
  0
LINE
  5
168
330
1F
100
AcDbEntity
  8
A-2_蓋
  6
Continuous
 62
     3
370
    13
100
AcDbLine
 10
-4243.914629961992
 20
189.7285667625638
 30
0.0
 11
-4243.914629961992
 21
-760.2683814796237
 31
0.0
  0
LINE
  5
169
330
1F
100
AcDbEntity
  8
A-2_蓋
  6
Continuous
 62
     3
370
    13
100
AcDbLine
 10
-4399.716351483319
 20
189.7285667625638
 30
0.0
 11
-4399.716351483319
 21
-760.2683814796237
 31
0.0
  0
LINE
  5
16A
330
1F
100
AcDbEntity
  8
A-2_蓋
  6
Continuous
 62
     3
370
    13
100
AcDbLine
 10
-4369.714272988808
 20
189.7285667625638
 30
0.0
 11
-4369.714272988808
 21
-760.2683814796237
 31
0.0
  0
LINE
  5
16B
330
1F
100
AcDbEntity
  8
A-2_蓋
  6
Continuous
 62
     3
370
    13
100
AcDbLine
 10
-4525.515994510135
 20
189.7285667625638
 30
0.0
 11
-4525.515994510135
 21
-760.2683814796237
 31
0.0
  0
LINE
  5
16C
330
1F
100
AcDbEntity
  8
A-2_蓋
  6
Continuous
 62
     3
370
    13
100
AcDbLine
 10
-4495.513916015625
 20
189.7285667625638
 30
0.0
 11
-4495.513916015625
 21
-760.2683814796237
 31
0.0
  0
LINE
  5
16D
330
1F
100
AcDbEntity
  8
A-2_蓋
  6
Continuous
 62
     3
370
    13
100
AcDbLine
 10
-4651.31934913429
 20
189.7285667625638
 30
0.0
 11
-4651.31934913429
 21
-760.2683814796237
 31
0.0
  0
LINE
  5
16E
330
1F
100
AcDbEntity
  8
A-2_蓋
  6
Continuous
 62
     3
370
    13
100
AcDbLine
 10
-4621.319745038007
 20
189.7285667625638
 30
0.0
 11
-4621.319745038007
 21
-760.2683814796237
 31
0.0
  0
LINE
  5
16F
330
1F
100
AcDbEntity
  8
A-2_蓋
  6
Continuous
 62
     3
370
    13
100
AcDbLine
 10
-4777.120229360219
 20
189.7285667625638
 30
0.0
 11
-4777.120229360219
 21
-760.2683814796237
 31
0.0
  0
LINE
  5
170
330
1F
100
AcDbEntity
  8
A-2_蓋
  6
Continuous
 62
     3
370
    13
100
AcDbLine
 10
-4747.118150865709
 20
189.7285667625638
 30
0.0
 11
-4747.118150865709
 21
-760.2683814796237
 31
0.0
  0
LINE
  5
171
330
1F
100
AcDbEntity
  8
A-2_蓋
  6
Continuous
 62
     3
370
    13
100
AcDbLine
 10
-4902.913686391469
 20
189.7285667625638
 30
0.0
 11
-4902.913686391469
 21
-760.2683814796237
 31
0.0
  0
LINE
  5
172
330
1F
100
AcDbEntity
  8
A-2_蓋
  6
Continuous
 62
     3
370
    13
100
AcDbLine
 10
-4872.919031091638
 20
189.7285667625638
 30
0.0
 11
-4872.919031091638
 21
-760.2683814796237
 31
0.0
  0
LINE
  5
173
330
1F
100
AcDbEntity
  8
A-2_蓋
  6
Continuous
 62
     3
370
    13
100
AcDbLine
 10
-5028.720752612964
 20
189.7285667625638
 30
0.0
 11
-5028.720752612964
 21
-760.2683814796237
 31
0.0
  0
LINE
  5
174
330
1F
100
AcDbEntity
  8
A-2_蓋
  6
Continuous
 62
     3
370
    13
100
AcDbLine
 10
-4998.717436919341
 20
189.7285667625638
 30
0.0
 11
-4998.717436919341
 21
-760.2683814796237
 31
0.0
  0
LINE
  5
175
330
1F
100
AcDbEntity
  8
A-2_蓋
  6
Continuous
 62
     3
370
    13
100
AcDbLine
 10
-5154.517921241554
 20
189.7285667625638
 30
0.0
 11
-5154.517921241554
 21
-760.2683814796237
 31
0.0
  0
LINE
  5
176
330
1F
100
AcDbEntity
  8
A-2_蓋
  6
Continuous
 62
     3
370
    13
100
AcDbLine
 10
-5124.51831714527
 20
189.7285667625638
 30
0.0
 11
-5124.51831714527
 21
-760.2683814796237
 31
0.0
  0
LINE
  5
177
330
1F
100
AcDbEntity
  8
A-2_蓋
  6
Continuous
 62
     3
370
    13
100
AcDbLine
 10
-5280.318801467483
 20
189.7285667625638
 30
0.0
 11
-5280.318801467483
 21
-760.2683814796237
 31
0.0
  0
LINE
  5
178
330
1F
100
AcDbEntity
  8
A-2_蓋
  6
Continuous
 62
     3
370
    13
100
AcDbLine
 10
-5250.316722972972
 20
189.7285667625638
 30
0.0
 11
-5250.316722972972
 21
-760.2683814796237
 31
0.0
  0
LINE
  5
179
330
1F
100
AcDbEntity
  8
A-2_蓋
  6
Continuous
 62
     3
370
    13
100
AcDbLine
 10
-5406.116897995407
 20
189.7285667625638
 30
0.0
 11
-5406.116897995407
 21
-760.2683814796237
 31
0.0
  0
LINE
  5
17A
330
1F
100
AcDbEntity
  8
A-2_蓋
  6
Continuous
 62
     3
370
    13
100
AcDbLine
 10
-5376.117293899124
 20
189.7285667625638
 30
0.0
 11
-5376.117293899124
 21
-760.2683814796237
 31
0.0
  0
LINE
  5
17B
330
1F
100
AcDbEntity
  8
A-2_蓋
  6
Continuous
 62
     3
370
    13
100
AcDbLine
 10
-5531.91530382311
 20
189.7285667625638
 30
0.0
 11
-5531.91530382311
 21
-760.2683814796237
 31
0.0
  0
LINE
  5
17C
330
1F
100
AcDbEntity
  8
A-2_蓋
  6
Continuous
 62
     3
370
    13
100
AcDbLine
 10
-5501.915699726826
 20
189.7285667625638
 30
0.0
 11
-5501.915699726826
 21
-760.2683814796237
 31
0.0
  0
LINE
  5
17D
330
1F
100
AcDbEntity
  8
A-2_蓋
  6
Continuous
 62
     3
370
    13
100
AcDbLine
 10
-5657.721132845491
 20
189.7285667625638
 30
0.0
 11
-5657.721132845491
 21
-760.2683814796237
 31
0.0
  0
LINE
  5
17E
330
1F
100
AcDbEntity
  8
A-2_蓋
  6
Continuous
 62
     3
370
    13
100
AcDbLine
 10
-5627.714105554529
 20
189.7285667625638
 30
0.0
 11
-5627.714105554529
 21
-760.2683814796237
 31
0.0
  0
LINE
  5
17F
330
1F
100
AcDbEntity
  8
A-2_蓋
  6
Continuous
 62
     3
370
    13
100
AcDbLine
 10
-5783.519538673195
 20
189.7285667625638
 30
0.0
 11
-5783.519538673195
 21
-760.2683814796237
 31
0.0
  0
LINE
  5
180
330
1F
100
AcDbEntity
  8
A-2_蓋
  6
Continuous
 62
     3
370
    13
100
AcDbLine
 10
-5753.514985780457
 20
189.7285667625638
 30
0.0
 11
-5753.514985780457
 21
-760.2683814796237
 31
0.0
  0
LINE
  5
181
330
1F
100
AcDbEntity
  8
A-2_蓋
  6
Continuous
 62
     3
370
    13
100
AcDbLine
 10
-5909.319181700011
 20
189.7285667625638
 30
0.0
 11
-5909.319181700011
 21
-760.2683814796237
 31
0.0
  0
LINE
  5
182
330
1F
100
AcDbEntity
  8
A-2_蓋
  6
Continuous
 62
     3
370
    13
100
AcDbLine
 10
-5879.313391608161
 20
189.7285667625638
 30
0.0
 11
-5879.313391608161
 21
-760.2683814796237
 31
0.0
  0
LINE
  5
183
330
1F
100
AcDbEntity
  8
A-2_蓋
  6
Continuous
 62
     3
370
    13
100
AcDbLine
 10
-6035.118824726826
 20
189.7285667625638
 30
0.0
 11
-6035.118824726826
 21
-760.2683814796237
 31
0.0
  0
LINE
  5
184
330
1F
100
AcDbEntity
  8
A-2_蓋
  6
Continuous
 62
     3
370
    13
100
AcDbLine
 10
-6005.117983431429
 20
189.7285667625638
 30
0.0
 11
-6005.117983431429
 21
-760.2683814796237
 31
0.0
  0
LINE
  5
185
330
1F
100
AcDbEntity
  8
A-2_蓋
  6
Continuous
 62
     3
370
    13
100
AcDbLine
 10
-6160.918467753642
 20
189.7285667625638
 30
0.0
 11
-6160.918467753642
 21
-760.2683814796237
 31
0.0
  0
LINE
  5
186
330
1F
100
AcDbEntity
  8
A-2_蓋
  6
Continuous
 62
     3
370
    13
100
AcDbLine
 10
-6130.918863657358
 20
189.7285667625638
 30
0.0
 11
-6130.918863657358
 21
-760.2683814796237
 31
0.0
  0
LINE
  5
187
330
1F
100
AcDbEntity
  8
A-2_蓋
  6
Continuous
 62
     3
370
    13
100
AcDbLine
 10
-6286.718110780457
 20
189.7285667625638
 30
0.0
 11
-6286.718110780457
 21
-760.2683814796237
 31
0.0
  0
LINE
  5
188
330
1F
100
AcDbEntity
  8
A-2_蓋
  6
Continuous
 62
     3
370
    13
100
AcDbLine
 10
-6256.717269485061
 20
189.7285667625638
 30
0.0
 11
-6256.717269485061
 21
-760.2683814796237
 31
0.0
  0
LINE
  5
189
330
1F
100
AcDbEntity
  8
A-2_蓋
  6
Continuous
 62
     3
370
    13
100
AcDbLine
 10
-6412.517753807273
 20
189.7285667625638
 30
0.0
 11
-6412.517753807273
 21
-760.2683814796237
 31
0.0
  0
LINE
  5
18A
330
1F
100
AcDbEntity
  8
A-2_蓋
  6
Continuous
 62
     3
370
    13
100
AcDbLine
 10
-6382.516912511877
 20
189.7285667625638
 30
0.0
 11
-6382.516912511877
 21
-760.2683814796237
 31
0.0
  0
LINE
  5
18B
330
1F
100
AcDbEntity
  8
A-2_蓋
  6
Continuous
 62
     3
370
    13
100
AcDbLine
 10
-6538.316159634976
 20
189.7285667625638
 30
0.0
 11
-6538.316159634976
 21
-760.2683814796237
 31
0.0
  0
LINE
  5
18C
330
1F
100
AcDbEntity
  8
A-2_蓋
  6
Continuous
 62
     3
370
    13
100
AcDbLine
 10
-6508.316555538693
 20
189.7285667625638
 30
0.0
 11
-6508.316555538693
 21
-760.2683814796237
 31
0.0
  0
LINE
  5
18D
330
1F
100
AcDbEntity
  8
A-2_蓋
  6
Continuous
 62
     3
370
    13
100
AcDbLine
 10
-6664.121988657358
 20
189.7285667625638
 30
0.0
 11
-6664.121988657358
 21
-760.2683814796237
 31
0.0
  0
LINE
  5
18E
330
1F
100
AcDbEntity
  8
A-2_蓋
  6
Continuous
 62
     3
370
    13
100
AcDbLine
 10
-6634.121147361961
 20
189.7285667625638
 30
0.0
 11
-6634.121147361961
 21
-760.2683814796237
 31
0.0
  0
LINE
  5
18F
330
1F
100
AcDbEntity
  8
A-2_蓋
  6
Continuous
 62
     3
370
    13
100
AcDbLine
 10
-6789.915445688608
 20
189.7285667625638
 30
0.0
 11
-6789.915445688608
 21
-760.2683814796237
 31
0.0
  0
LINE
  5
190
330
1F
100
AcDbEntity
  8
A-2_蓋
  6
Continuous
 62
     3
370
    13
100
AcDbLine
 10
-6759.920790388777
 20
189.7285667625638
 30
0.0
 11
-6759.920790388777
 21
-760.2683814796237
 31
0.0
  0
LINE
  5
191
330
1F
100
AcDbEntity
  8
A-2_蓋
  6
Continuous
 62
     3
370
    13
100
AcDbLine
 10
-6915.715088715425
 20
189.7285667625638
 30
0.0
 11
-6915.715088715425
 21
-760.2683814796237
 31
0.0
  0
LINE
  5
192
330
1F
100
AcDbEntity
  8
A-2_蓋
  6
Continuous
 62
     3
370
    13
100
AcDbLine
 10
-6885.719196216479
 20
189.7285667625638
 30
0.0
 11
-6885.719196216479
 21
-760.2683814796237
 31
0.0
  0
LINE
  5
193
330
1F
100
AcDbEntity
  8
A-2_蓋
  6
Continuous
 62
     3
370
    13
100
AcDbLine
 10
-7041.519680538693
 20
189.7285667625638
 30
0.0
 11
-7041.519680538693
 21
-760.2683814796237
 31
0.0
  0
LINE
  5
194
330
1F
100
AcDbEntity
  8
A-2_蓋
  6
Continuous
 62
     3
370
    13
100
AcDbLine
 10
-7011.518839243296
 20
189.7285667625638
 30
0.0
 11
-7011.518839243296
 21
-760.2683814796237
 31
0.0
  0
LINE
  5
195
330
1F
100
AcDbEntity
  8
A-2_蓋
  6
Continuous
 62
     3
370
    13
100
AcDbLine
 10
-7167.319323565508
 20
189.7285667625638
 30
0.0
 11
-7167.319323565508
 21
-760.2683814796237
 31
0.0
  0
LINE
  5
196
330
1F
100
AcDbEntity
  8
A-2_蓋
  6
Continuous
 62
     3
370
    13
100
AcDbLine
 10
-7137.319719469224
 20
189.7285667625638
 30
0.0
 11
-7137.319719469224
 21
-760.2683814796237
 31
0.0
  0
LINE
  5
197
330
1F
100
AcDbEntity
  8
A-2_蓋
  6
Continuous
 62
     3
370
    13
100
AcDbLine
 10
-7293.118966592326
 20
189.7285667625638
 30
0.0
 11
-7293.118966592326
 21
-760.2683814796237
 31
0.0
  0
LINE
  5
198
330
1F
100
AcDbEntity
  8
A-2_蓋
  6
Continuous
 62
     3
370
    13
100
AcDbLine
 10
-7263.118125296927
 20
189.7285667625638
 30
0.0
 11
-7263.118125296927
 21
-760.2683814796237
 31
0.0
  0
LINE
  5
199
330
1F
100
AcDbEntity
  8
A-3_受枠
  6
Continuous
 62
     4
370
    13
100
AcDbLine
 10
-3312.711973448058
 20
2652.134622109904
 30
0.0
 11
-3312.711973448058
 21
2777.331749168603
 31
0.0
  0
LINE
  5
19A
330
1F
100
AcDbEntity
  8
A-3_受枠
  6
Continuous
 62
     4
370
    13
100
AcDbLine
 10
-3359.986588761613
 20
2714.733185639252
 30
0.0
 11
-3227.309355864654
 21
2714.733185639252
 31
0.0
  0
LINE
  5
19B
330
1F
100
AcDbEntity
  8
A-3_受枠
  6
JWW_DASHED1
 62
     4
370
    13
100
AcDbLine
 10
-7368.91999115815
 20
3334.730158625423
 30
0.0
 11
-7368.91999115815
 21
3734.730241105363
 31
0.0
  0
LINE
  5
19C
330
1F
100
AcDbEntity
  8
A-3_受枠
  6
JWW_DASHED1
 62
     4
370
    13
100
AcDbLine
 10
-7368.91999115815
 20
3734.730241105363
 30
0.0
 11
-2408.918844686971
 21
3734.730241105363
 31
0.0
  0
LINE
  5
19D
330
1F
100
AcDbEntity
  8
A-3_受枠
  6
JWW_DASHED1
 62
     4
370
    13
100
AcDbLine
 10
-2408.918844686971
 20
3734.730241105363
 30
0.0
 11
-2408.918844686971
 21
3334.730158625423
 31
0.0
  0
LINE
  5
19E
330
1F
100
AcDbEntity
  8
A-3_受枠
  6
JWW_DASHED1
 62
     4
370
    13
100
AcDbLine
 10
-7368.91999115815
 20
3334.730158625423
 30
0.0
 11
-2408.918844686971
 21
3334.730158625423
 31
0.0
  0
LINE
  5
19F
330
1F
100
AcDbEntity
  8
A-3_受枠
  6
JWW_DASHED1
 62
     4
370
    13
100
AcDbLine
 10
-7368.91999115815
 20
-905.270591942039
 30
0.0
 11
-7368.91999115815
 21
-1305.27067442198
 31
0.0
  0
LINE
  5
1A0
330
1F
100
AcDbEntity
  8
A-3_受枠
  6
JWW_DASHED1
 62
     4
370
    13
100
AcDbLine
 10
-7368.91999115815
 20
-1305.27067442198
 30
0.0
 11
-2408.918844686971
 21
-1305.27067442198
 31
0.0
  0
LINE
  5
1A1
330
1F
100
AcDbEntity
  8
A-3_受枠
  6
JWW_DASHED1
 62
     4
370
    13
100
AcDbLine
 10
-2408.918844686971
 20
-1305.27067442198
 30
0.0
 11
-2408.918844686971
 21
-905.270591942039
 31
0.0
  0
LINE
  5
1A2
330
1F
100
AcDbEntity
  8
A-3_受枠
  6
JWW_DASHED1
 62
     4
370
    13
100
AcDbLine
 10
-7368.91999115815
 20
-905.270591942039
 30
0.0
 11
-2408.918844686971
 21
-905.270591942039
 31
0.0
  0
LINE
  5
1A3
330
1F
100
AcDbEntity
  8
A-2_蓋
  6
Continuous
 62
     3
370
    13
100
AcDbLine
 10
-3267.514615445523
 20
3774.733837230787
 30
0.0
 11
-3267.514615445523
 21
3239.730587521116
 31
0.0
  0
LINE
  5
1A4
330
1F
100
AcDbEntity
  8
A-2_蓋
  6
Continuous
 62
     3
370
    13
100
AcDbLine
 10
-3237.513774150126
 20
3774.733837230787
 30
0.0
 11
-3237.513774150126
 21
3239.730587521116
 31
0.0
  0
LINE
  5
1A5
330
1F
100
AcDbEntity
  8
A-2_蓋
  6
Continuous
 62
     3
370
    13
100
AcDbLine
 10
-3267.514615445523
 20
3189.735371357686
 30
0.0
 11
-3267.514615445523
 21
2239.730999920821
 31
0.0
  0
LINE
  5
1A6
330
1F
100
AcDbEntity
  8
A-2_蓋
  6
Continuous
 62
     3
370
    13
100
AcDbLine
 10
-3237.513774150126
 20
3189.735371357686
 30
0.0
 11
-3237.513774150126
 21
2239.730999920821
 31
0.0
  0
LINE
  5
1A7
330
1F
100
AcDbEntity
  8
A-2_蓋
  6
Continuous
 62
     3
370
    13
100
AcDbLine
 10
-3267.514615445523
 20
2189.728360562712
 30
0.0
 11
-3267.514615445523
 21
1239.732030920081
 31
0.0
  0
LINE
  5
1A8
330
1F
100
AcDbEntity
  8
A-2_蓋
  6
Continuous
 62
     3
370
    13
100
AcDbLine
 10
-3237.513774150126
 20
2189.728360562712
 30
0.0
 11
-3237.513774150126
 21
1239.732030920081
 31
0.0
  0
LINE
  5
1A9
330
1F
100
AcDbEntity
  8
A-2_蓋
  6
Continuous
 62
     3
370
    13
100
AcDbLine
 10
-3267.514615445523
 20
-810.2660720412786
 30
0.0
 11
-3267.514615445523
 21
-1345.268703151393
 31
0.0
  0
LINE
  5
1AA
330
1F
100
AcDbEntity
  8
A-2_蓋
  6
Continuous
 62
     3
370
    13
100
AcDbLine
 10
-3237.513774150126
 20
-810.2660720412786
 30
0.0
 11
-3237.513774150126
 21
-1345.268703151393
 31
0.0
  0
LINE
  5
1AB
330
1F
100
AcDbEntity
  8
A-2_蓋
  6
Continuous
 62
     3
370
    13
100
AcDbLine
 10
-3267.514615445523
 20
189.7285667625638
 30
0.0
 11
-3267.514615445523
 21
-760.2683814796237
 31
0.0
  0
LINE
  5
1AC
330
1F
100
AcDbEntity
  8
A-2_蓋
  6
Continuous
 62
     3
370
    13
100
AcDbLine
 10
-3237.513774150126
 20
189.7285667625638
 30
0.0
 11
-3237.513774150126
 21
-760.2683814796237
 31
0.0
  0
LINE
  5
1AD
330
1F
100
AcDbEntity
  8
A-2_蓋
  6
Continuous
 62
     3
370
    13
100
AcDbLine
 10
-3141.714972418707
 20
3774.733837230787
 30
0.0
 11
-3141.714972418707
 21
3239.730587521116
 31
0.0
  0
LINE
  5
1AE
330
1F
100
AcDbEntity
  8
A-2_蓋
  6
Continuous
 62
     3
370
    13
100
AcDbLine
 10
-3111.71413112331
 20
3774.733837230787
 30
0.0
 11
-3111.71413112331
 21
3239.730587521116
 31
0.0
  0
LINE
  5
1AF
330
1F
100
AcDbEntity
  8
A-2_蓋
  6
Continuous
 62
     3
370
    13
100
AcDbLine
 10
-3141.714972418707
 20
3189.735371357686
 30
0.0
 11
-3141.714972418707
 21
2239.730999920821
 31
0.0
  0
LINE
  5
1B0
330
1F
100
AcDbEntity
  8
A-2_蓋
  6
Continuous
 62
     3
370
    13
100
AcDbLine
 10
-3111.71413112331
 20
3189.735371357686
 30
0.0
 11
-3111.71413112331
 21
2239.730999920821
 31
0.0
  0
LINE
  5
1B1
330
1F
100
AcDbEntity
  8
A-2_蓋
  6
Continuous
 62
     3
370
    13
100
AcDbLine
 10
-3141.714972418707
 20
2189.728360562712
 30
0.0
 11
-3141.714972418707
 21
1239.732030920081
 31
0.0
  0
LINE
  5
1B2
330
1F
100
AcDbEntity
  8
A-2_蓋
  6
Continuous
 62
     3
370
    13
100
AcDbLine
 10
-3111.71413112331
 20
2189.728360562712
 30
0.0
 11
-3111.71413112331
 21
1239.732030920081
 31
0.0
  0
LINE
  5
1B3
330
1F
100
AcDbEntity
  8
A-2_蓋
  6
Continuous
 62
     3
370
    13
100
AcDbLine
 10
-3141.714972418707
 20
-810.2660720412786
 30
0.0
 11
-3141.714972418707
 21
-1345.268703151393
 31
0.0
  0
LINE
  5
1B4
330
1F
100
AcDbEntity
  8
A-2_蓋
  6
Continuous
 62
     3
370
    13
100
AcDbLine
 10
-3111.71413112331
 20
-810.2660720412786
 30
0.0
 11
-3111.71413112331
 21
-1345.268703151393
 31
0.0
  0
LINE
  5
1B5
330
1F
100
AcDbEntity
  8
A-2_蓋
  6
Continuous
 62
     3
370
    13
100
AcDbLine
 10
-3141.714972418707
 20
189.7285667625638
 30
0.0
 11
-3141.714972418707
 21
-760.2683814796237
 31
0.0
  0
LINE
  5
1B6
330
1F
100
AcDbEntity
  8
A-2_蓋
  6
Continuous
 62
     3
370
    13
100
AcDbLine
 10
-3111.71413112331
 20
189.7285667625638
 30
0.0
 11
-3111.71413112331
 21
-760.2683814796237
 31
0.0
  0
LINE
  5
1B7
330
1F
100
AcDbEntity
  8
A-2_蓋
  6
Continuous
 62
     3
370
    13
100
AcDbLine
 10
-3015.915329391892
 20
3774.733837230787
 30
0.0
 11
-3015.915329391892
 21
3239.730587521116
 31
0.0
  0
LINE
  5
1B8
330
1F
100
AcDbEntity
  8
A-2_蓋
  6
Continuous
 62
     3
370
    13
100
AcDbLine
 10
-2985.914488096495
 20
3774.733837230787
 30
0.0
 11
-2985.914488096495
 21
3239.730587521116
 31
0.0
  0
LINE
  5
1B9
330
1F
100
AcDbEntity
  8
A-2_蓋
  6
Continuous
 62
     3
370
    13
100
AcDbLine
 10
-3015.915329391892
 20
3189.735371357686
 30
0.0
 11
-3015.915329391892
 21
2239.730999920821
 31
0.0
  0
LINE
  5
1BA
330
1F
100
AcDbEntity
  8
A-2_蓋
  6
Continuous
 62
     3
370
    13
100
AcDbLine
 10
-2985.914488096495
 20
3189.735371357686
 30
0.0
 11
-2985.914488096495
 21
2239.730999920821
 31
0.0
  0
LINE
  5
1BB
330
1F
100
AcDbEntity
  8
A-2_蓋
  6
Continuous
 62
     3
370
    13
100
AcDbLine
 10
-3015.915329391892
 20
2189.728360562712
 30
0.0
 11
-3015.915329391892
 21
1239.732030920081
 31
0.0
  0
LINE
  5
1BC
330
1F
100
AcDbEntity
  8
A-2_蓋
  6
Continuous
 62
     3
370
    13
100
AcDbLine
 10
-2985.914488096495
 20
2189.728360562712
 30
0.0
 11
-2985.914488096495
 21
1239.732030920081
 31
0.0
  0
LINE
  5
1BD
330
1F
100
AcDbEntity
  8
A-2_蓋
  6
Continuous
 62
     3
370
    13
100
AcDbLine
 10
-3015.915329391892
 20
-810.2660720412786
 30
0.0
 11
-3015.915329391892
 21
-1345.268703151393
 31
0.0
  0
LINE
  5
1BE
330
1F
100
AcDbEntity
  8
A-2_蓋
  6
Continuous
 62
     3
370
    13
100
AcDbLine
 10
-2985.914488096495
 20
-810.2660720412786
 30
0.0
 11
-2985.914488096495
 21
-1345.268703151393
 31
0.0
  0
LINE
  5
1BF
330
1F
100
AcDbEntity
  8
A-2_蓋
  6
Continuous
 62
     3
370
    13
100
AcDbLine
 10
-3015.915329391892
 20
189.7285667625638
 30
0.0
 11
-3015.915329391892
 21
-760.2683814796237
 31
0.0
  0
LINE
  5
1C0
330
1F
100
AcDbEntity
  8
A-2_蓋
  6
Continuous
 62
     3
370
    13
100
AcDbLine
 10
-2985.914488096495
 20
189.7285667625638
 30
0.0
 11
-2985.914488096495
 21
-760.2683814796237
 31
0.0
  0
LINE
  5
1C1
330
1F
100
AcDbEntity
  8
A-2_蓋
  6
Continuous
 62
     3
370
    13
100
AcDbLine
 10
-2890.115686365075
 20
3774.733837230787
 30
0.0
 11
-2890.115686365075
 21
3239.730587521116
 31
0.0
  0
LINE
  5
1C2
330
1F
100
AcDbEntity
  8
A-2_蓋
  6
Continuous
 62
     3
370
    13
100
AcDbLine
 10
-2860.114845069678
 20
3774.733837230787
 30
0.0
 11
-2860.114845069678
 21
3239.730587521116
 31
0.0
  0
LINE
  5
1C3
330
1F
100
AcDbEntity
  8
A-2_蓋
  6
Continuous
 62
     3
370
    13
100
AcDbLine
 10
-2890.115686365075
 20
3189.735371357686
 30
0.0
 11
-2890.115686365075
 21
2239.730999920821
 31
0.0
  0
LINE
  5
1C4
330
1F
100
AcDbEntity
  8
A-2_蓋
  6
Continuous
 62
     3
370
    13
100
AcDbLine
 10
-2860.114845069678
 20
3189.735371357686
 30
0.0
 11
-2860.114845069678
 21
2239.730999920821
 31
0.0
  0
LINE
  5
1C5
330
1F
100
AcDbEntity
  8
A-2_蓋
  6
Continuous
 62
     3
370
    13
100
AcDbLine
 10
-2890.115686365075
 20
2189.728360562712
 30
0.0
 11
-2890.115686365075
 21
1239.732030920081
 31
0.0
  0
LINE
  5
1C6
330
1F
100
AcDbEntity
  8
A-2_蓋
  6
Continuous
 62
     3
370
    13
100
AcDbLine
 10
-2860.114845069678
 20
2189.728360562712
 30
0.0
 11
-2860.114845069678
 21
1239.732030920081
 31
0.0
  0
LINE
  5
1C7
330
1F
100
AcDbEntity
  8
A-2_蓋
  6
Continuous
 62
     3
370
    13
100
AcDbLine
 10
-2890.115686365075
 20
-810.2660720412786
 30
0.0
 11
-2890.115686365075
 21
-1345.268703151393
 31
0.0
  0
LINE
  5
1C8
330
1F
100
AcDbEntity
  8
A-2_蓋
  6
Continuous
 62
     3
370
    13
100
AcDbLine
 10
-2860.114845069678
 20
-810.2660720412786
 30
0.0
 11
-2860.114845069678
 21
-1345.268703151393
 31
0.0
  0
LINE
  5
1C9
330
1F
100
AcDbEntity
  8
A-2_蓋
  6
Continuous
 62
     3
370
    13
100
AcDbLine
 10
-2890.115686365075
 20
189.7285667625638
 30
0.0
 11
-2890.115686365075
 21
-760.2683814796237
 31
0.0
  0
LINE
  5
1CA
330
1F
100
AcDbEntity
  8
A-2_蓋
  6
Continuous
 62
     3
370
    13
100
AcDbLine
 10
-2860.114845069678
 20
189.7285667625638
 30
0.0
 11
-2860.114845069678
 21
-760.2683814796237
 31
0.0
  0
LINE
  5
1CB
330
1F
100
AcDbEntity
  8
A-2_蓋
  6
Continuous
 62
     3
370
    13
100
AcDbLine
 10
-2764.316043338259
 20
3774.733837230787
 30
0.0
 11
-2764.316043338259
 21
3239.730587521116
 31
0.0
  0
LINE
  5
1CC
330
1F
100
AcDbEntity
  8
A-2_蓋
  6
Continuous
 62
     3
370
    13
100
AcDbLine
 10
-2734.315202042863
 20
3774.733837230787
 30
0.0
 11
-2734.315202042863
 21
3239.730587521116
 31
0.0
  0
LINE
  5
1CD
330
1F
100
AcDbEntity
  8
A-2_蓋
  6
Continuous
 62
     3
370
    13
100
AcDbLine
 10
-2764.316043338259
 20
3189.735371357686
 30
0.0
 11
-2764.316043338259
 21
2239.730999920821
 31
0.0
  0
LINE
  5
1CE
330
1F
100
AcDbEntity
  8
A-2_蓋
  6
Continuous
 62
     3
370
    13
100
AcDbLine
 10
-2734.315202042863
 20
3189.735371357686
 30
0.0
 11
-2734.315202042863
 21
2239.730999920821
 31
0.0
  0
LINE
  5
1CF
330
1F
100
AcDbEntity
  8
A-2_蓋
  6
Continuous
 62
     3
370
    13
100
AcDbLine
 10
-2764.316043338259
 20
2189.728360562712
 30
0.0
 11
-2764.316043338259
 21
1239.732030920081
 31
0.0
  0
LINE
  5
1D0
330
1F
100
AcDbEntity
  8
A-2_蓋
  6
Continuous
 62
     3
370
    13
100
AcDbLine
 10
-2734.315202042863
 20
2189.728360562712
 30
0.0
 11
-2734.315202042863
 21
1239.732030920081
 31
0.0
  0
LINE
  5
1D1
330
1F
100
AcDbEntity
  8
A-2_蓋
  6
Continuous
 62
     3
370
    13
100
AcDbLine
 10
-2764.316043338259
 20
-810.2660720412786
 30
0.0
 11
-2764.316043338259
 21
-1345.268703151393
 31
0.0
  0
LINE
  5
1D2
330
1F
100
AcDbEntity
  8
A-2_蓋
  6
Continuous
 62
     3
370
    13
100
AcDbLine
 10
-2734.315202042863
 20
-810.2660720412786
 30
0.0
 11
-2734.315202042863
 21
-1345.268703151393
 31
0.0
  0
LINE
  5
1D3
330
1F
100
AcDbEntity
  8
A-2_蓋
  6
Continuous
 62
     3
370
    13
100
AcDbLine
 10
-2764.316043338259
 20
189.7285667625638
 30
0.0
 11
-2764.316043338259
 21
-760.2683814796237
 31
0.0
  0
LINE
  5
1D4
330
1F
100
AcDbEntity
  8
A-2_蓋
  6
Continuous
 62
     3
370
    13
100
AcDbLine
 10
-2734.315202042863
 20
189.7285667625638
 30
0.0
 11
-2734.315202042863
 21
-760.2683814796237
 31
0.0
  0
LINE
  5
1D5
330
1F
100
AcDbEntity
  8
A-2_蓋
  6
Continuous
 62
     3
370
    13
100
AcDbLine
 10
-2638.516400311444
 20
3774.733837230787
 30
0.0
 11
-2638.516400311444
 21
3239.730587521116
 31
0.0
  0
LINE
  5
1D6
330
1F
100
AcDbEntity
  8
A-2_蓋
  6
Continuous
 62
     3
370
    13
100
AcDbLine
 10
-2608.515559016047
 20
3774.733837230787
 30
0.0
 11
-2608.515559016047
 21
3239.730587521116
 31
0.0
  0
LINE
  5
1D7
330
1F
100
AcDbEntity
  8
A-2_蓋
  6
Continuous
 62
     3
370
    13
100
AcDbLine
 10
-2638.516400311444
 20
3189.735371357686
 30
0.0
 11
-2638.516400311444
 21
2239.730999920821
 31
0.0
  0
LINE
  5
1D8
330
1F
100
AcDbEntity
  8
A-2_蓋
  6
Continuous
 62
     3
370
    13
100
AcDbLine
 10
-2608.515559016047
 20
3189.735371357686
 30
0.0
 11
-2608.515559016047
 21
2239.730999920821
 31
0.0
  0
LINE
  5
1D9
330
1F
100
AcDbEntity
  8
A-2_蓋
  6
Continuous
 62
     3
370
    13
100
AcDbLine
 10
-2638.516400311444
 20
2189.728360562712
 30
0.0
 11
-2638.516400311444
 21
1239.732030920081
 31
0.0
  0
LINE
  5
1DA
330
1F
100
AcDbEntity
  8
A-2_蓋
  6
Continuous
 62
     3
370
    13
100
AcDbLine
 10
-2608.515559016047
 20
2189.728360562712
 30
0.0
 11
-2608.515559016047
 21
1239.732030920081
 31
0.0
  0
LINE
  5
1DB
330
1F
100
AcDbEntity
  8
A-2_蓋
  6
Continuous
 62
     3
370
    13
100
AcDbLine
 10
-2638.516400311444
 20
-810.2660720412786
 30
0.0
 11
-2638.516400311444
 21
-1345.268703151393
 31
0.0
  0
LINE
  5
1DC
330
1F
100
AcDbEntity
  8
A-2_蓋
  6
Continuous
 62
     3
370
    13
100
AcDbLine
 10
-2608.515559016047
 20
-810.2660720412786
 30
0.0
 11
-2608.515559016047
 21
-1345.268703151393
 31
0.0
  0
LINE
  5
1DD
330
1F
100
AcDbEntity
  8
A-2_蓋
  6
Continuous
 62
     3
370
    13
100
AcDbLine
 10
-2638.516400311444
 20
189.7285667625638
 30
0.0
 11
-2638.516400311444
 21
-760.2683814796237
 31
0.0
  0
LINE
  5
1DE
330
1F
100
AcDbEntity
  8
A-2_蓋
  6
Continuous
 62
     3
370
    13
100
AcDbLine
 10
-2608.515559016047
 20
189.7285667625638
 30
0.0
 11
-2608.515559016047
 21
-760.2683814796237
 31
0.0
  0
LINE
  5
1DF
330
1F
100
AcDbEntity
  8
A-2_蓋
  6
Continuous
 62
     3
370
    13
100
AcDbLine
 10
-2512.716757284627
 20
3774.733837230787
 30
0.0
 11
-2512.716757284627
 21
3239.730587521116
 31
0.0
  0
LINE
  5
1E0
330
1F
100
AcDbEntity
  8
A-2_蓋
  6
Continuous
 62
     3
370
    13
100
AcDbLine
 10
-2482.717153188344
 20
3774.733837230787
 30
0.0
 11
-2482.717153188344
 21
3239.730587521116
 31
0.0
  0
LINE
  5
1E1
330
1F
100
AcDbEntity
  8
A-2_蓋
  6
Continuous
 62
     3
370
    13
100
AcDbLine
 10
-2512.716757284627
 20
3189.735371357686
 30
0.0
 11
-2512.716757284627
 21
2239.730999920821
 31
0.0
  0
LINE
  5
1E2
330
1F
100
AcDbEntity
  8
A-2_蓋
  6
Continuous
 62
     3
370
    13
100
AcDbLine
 10
-2482.717153188344
 20
3189.735371357686
 30
0.0
 11
-2482.717153188344
 21
2239.730999920821
 31
0.0
  0
LINE
  5
1E3
330
1F
100
AcDbEntity
  8
A-2_蓋
  6
Continuous
 62
     3
370
    13
100
AcDbLine
 10
-2512.716757284627
 20
2189.728360562712
 30
0.0
 11
-2512.716757284627
 21
1239.732030920081
 31
0.0
  0
LINE
  5
1E4
330
1F
100
AcDbEntity
  8
A-2_蓋
  6
Continuous
 62
     3
370
    13
100
AcDbLine
 10
-2482.717153188344
 20
2189.728360562712
 30
0.0
 11
-2482.717153188344
 21
1239.732030920081
 31
0.0
  0
LINE
  5
1E5
330
1F
100
AcDbEntity
  8
A-2_蓋
  6
Continuous
 62
     3
370
    13
100
AcDbLine
 10
-2512.716757284627
 20
-810.2660720412786
 30
0.0
 11
-2512.716757284627
 21
-1345.268703151393
 31
0.0
  0
LINE
  5
1E6
330
1F
100
AcDbEntity
  8
A-2_蓋
  6
Continuous
 62
     3
370
    13
100
AcDbLine
 10
-2482.717153188344
 20
-810.2660720412786
 30
0.0
 11
-2482.717153188344
 21
-1345.268703151393
 31
0.0
  0
LINE
  5
1E7
330
1F
100
AcDbEntity
  8
A-2_蓋
  6
Continuous
 62
     3
370
    13
100
AcDbLine
 10
-2512.716757284627
 20
189.7285667625638
 30
0.0
 11
-2512.716757284627
 21
-760.2683814796237
 31
0.0
  0
LINE
  5
1E8
330
1F
100
AcDbEntity
  8
A-2_蓋
  6
Continuous
 62
     3
370
    13
100
AcDbLine
 10
-2482.717153188344
 20
189.7285667625638
 30
0.0
 11
-2482.717153188344
 21
-760.2683814796237
 31
0.0
  0
LINE
  5
1E9
330
1F
100
AcDbEntity
  8
A-2_蓋
  6
Continuous
 62
     3
370
    13
100
AcDbLine
 10
-7418.918918918919
 20
1189.728154362859
 30
0.0
 11
-2358.919298326647
 21
1189.728154362859
 31
0.0
  0
LINE
  5
1EA
330
1F
100
AcDbEntity
  8
A-2_蓋
  6
Continuous
 62
     3
370
    13
100
AcDbLine
 10
-7418.918918918919
 20
239.7318247202278
 30
0.0
 11
-2358.919298326647
 21
239.7318247202278
 31
0.0
  0
LINE
  5
1EB
330
1F
100
AcDbEntity
  8
A-2_蓋
  6
Continuous
 62
     3
370
    13
100
AcDbLine
 10
-7388.914366026183
 20
239.7318247202278
 30
0.0
 11
-7388.914366026183
 21
1189.728154362859
 31
0.0
  0
LINE
  5
1EC
330
1F
100
AcDbEntity
  8
A-2_蓋
  6
Continuous
 62
     3
370
    13
100
AcDbLine
 10
-2388.914572226034
 20
1189.728154362859
 30
0.0
 11
-2388.914572226034
 21
239.7318247202278
 31
0.0
  0
LINE
  5
1ED
330
1F
100
AcDbEntity
  8
A-2_蓋
  6
Continuous
 62
     3
370
    13
100
AcDbLine
 10
-3393.314258472338
 20
1189.728154362859
 30
0.0
 11
-3393.314258472338
 21
239.7318247202278
 31
0.0
  0
LINE
  5
1EE
330
1F
100
AcDbEntity
  8
A-2_蓋
  6
Continuous
 62
     3
370
    13
100
AcDbLine
 10
-3363.313417176942
 20
1189.728154362859
 30
0.0
 11
-3363.313417176942
 21
239.7318247202278
 31
0.0
  0
LINE
  5
1EF
330
1F
100
AcDbEntity
  8
A-2_蓋
  6
Continuous
 62
     3
370
    13
100
AcDbLine
 10
-3519.113901499155
 20
1189.728154362859
 30
0.0
 11
-3519.113901499155
 21
239.7318247202278
 31
0.0
  0
LINE
  5
1F0
330
1F
100
AcDbEntity
  8
A-2_蓋
  6
Continuous
 62
     3
370
    13
100
AcDbLine
 10
-3489.113060203758
 20
1189.728154362859
 30
0.0
 11
-3489.113060203758
 21
239.7318247202278
 31
0.0
  0
LINE
  5
1F1
330
1F
100
AcDbEntity
  8
A-2_蓋
  6
Continuous
 62
     3
370
    13
100
AcDbLine
 10
-3644.918493322423
 20
1189.728154362859
 30
0.0
 11
-3644.918493322423
 21
239.7318247202278
 31
0.0
  0
LINE
  5
1F2
330
1F
100
AcDbEntity
  8
A-2_蓋
  6
Continuous
 62
     3
370
    13
100
AcDbLine
 10
-3614.912703230574
 20
1189.728154362859
 30
0.0
 11
-3614.912703230574
 21
239.7318247202278
 31
0.0
  0
LINE
  5
1F3
330
1F
100
AcDbEntity
  8
A-2_蓋
  6
Continuous
 62
     3
370
    13
100
AcDbLine
 10
-3770.71813634924
 20
1189.728154362859
 30
0.0
 11
-3770.71813634924
 21
239.7318247202278
 31
0.0
  0
LINE
  5
1F4
330
1F
100
AcDbEntity
  8
A-2_蓋
  6
Continuous
 62
     3
370
    13
100
AcDbLine
 10
-3740.712346257389
 20
1189.728154362859
 30
0.0
 11
-3740.712346257389
 21
239.7318247202278
 31
0.0
  0
LINE
  5
1F5
330
1F
100
AcDbEntity
  8
A-2_蓋
  6
Continuous
 62
     3
370
    13
100
AcDbLine
 10
-3896.517779376056
 20
1189.728154362859
 30
0.0
 11
-3896.517779376056
 21
239.7318247202278
 31
0.0
  0
LINE
  5
1F6
330
1F
100
AcDbEntity
  8
A-2_蓋
  6
Continuous
 62
     3
370
    13
100
AcDbLine
 10
-3866.516938080659
 20
1189.728154362859
 30
0.0
 11
-3866.516938080659
 21
239.7318247202278
 31
0.0
  0
LINE
  5
1F7
330
1F
100
AcDbEntity
  8
A-2_蓋
  6
Continuous
 62
     3
370
    13
100
AcDbLine
 10
-4022.316185203758
 20
1189.728154362859
 30
0.0
 11
-4022.316185203758
 21
239.7318247202278
 31
0.0
  0
LINE
  5
1F8
330
1F
100
AcDbEntity
  8
A-2_蓋
  6
Continuous
 62
     3
370
    13
100
AcDbLine
 10
-3992.316581107474
 20
1189.728154362859
 30
0.0
 11
-3992.316581107474
 21
239.7318247202278
 31
0.0
  0
LINE
  5
1F9
330
1F
100
AcDbEntity
  8
A-2_蓋
  6
Continuous
 62
     3
370
    13
100
AcDbLine
 10
-4148.115828230574
 20
1189.728154362859
 30
0.0
 11
-4148.115828230574
 21
239.7318247202278
 31
0.0
  0
LINE
  5
1FA
330
1F
100
AcDbEntity
  8
A-2_蓋
  6
Continuous
 62
     3
370
    13
100
AcDbLine
 10
-4118.117461333403
 20
1189.728154362859
 30
0.0
 11
-4118.117461333403
 21
239.7318247202278
 31
0.0
  0
LINE
  5
1FB
330
1F
100
AcDbEntity
  8
A-2_蓋
  6
Continuous
 62
     3
370
    13
100
AcDbLine
 10
-4273.91547125739
 20
1189.728154362859
 30
0.0
 11
-4273.91547125739
 21
239.7318247202278
 31
0.0
  0
LINE
  5
1FC
330
1F
100
AcDbEntity
  8
A-2_蓋
  6
Continuous
 62
     3
370
    13
100
AcDbLine
 10
-4243.914629961992
 20
1189.728154362859
 30
0.0
 11
-4243.914629961992
 21
239.7318247202278
 31
0.0
  0
LINE
  5
1FD
330
1F
100
AcDbEntity
  8
A-2_蓋
  6
Continuous
 62
     3
370
    13
100
AcDbLine
 10
-4399.716351483319
 20
1189.728154362859
 30
0.0
 11
-4399.716351483319
 21
239.7318247202278
 31
0.0
  0
LINE
  5
1FE
330
1F
100
AcDbEntity
  8
A-2_蓋
  6
Continuous
 62
     3
370
    13
100
AcDbLine
 10
-4369.714272988808
 20
1189.728154362859
 30
0.0
 11
-4369.714272988808
 21
239.7318247202278
 31
0.0
  0
LINE
  5
1FF
330
1F
100
AcDbEntity
  8
A-2_蓋
  6
Continuous
 62
     3
370
    13
100
AcDbLine
 10
-4525.515994510135
 20
1189.728154362859
 30
0.0
 11
-4525.515994510135
 21
239.7318247202278
 31
0.0
  0
LINE
  5
200
330
1F
100
AcDbEntity
  8
A-2_蓋
  6
Continuous
 62
     3
370
    13
100
AcDbLine
 10
-4495.513916015625
 20
1189.728154362859
 30
0.0
 11
-4495.513916015625
 21
239.7318247202278
 31
0.0
  0
LINE
  5
201
330
1F
100
AcDbEntity
  8
A-2_蓋
  6
Continuous
 62
     3
370
    13
100
AcDbLine
 10
-4651.31934913429
 20
1189.728154362859
 30
0.0
 11
-4651.31934913429
 21
239.7318247202278
 31
0.0
  0
LINE
  5
202
330
1F
100
AcDbEntity
  8
A-2_蓋
  6
Continuous
 62
     3
370
    13
100
AcDbLine
 10
-4621.319745038007
 20
1189.728154362859
 30
0.0
 11
-4621.319745038007
 21
239.7318247202278
 31
0.0
  0
LINE
  5
203
330
1F
100
AcDbEntity
  8
A-2_蓋
  6
Continuous
 62
     3
370
    13
100
AcDbLine
 10
-4777.120229360219
 20
1189.728154362859
 30
0.0
 11
-4777.120229360219
 21
239.7318247202278
 31
0.0
  0
LINE
  5
204
330
1F
100
AcDbEntity
  8
A-2_蓋
  6
Continuous
 62
     3
370
    13
100
AcDbLine
 10
-4747.118150865709
 20
1189.728154362859
 30
0.0
 11
-4747.118150865709
 21
239.7318247202278
 31
0.0
  0
LINE
  5
205
330
1F
100
AcDbEntity
  8
A-2_蓋
  6
Continuous
 62
     3
370
    13
100
AcDbLine
 10
-4902.913686391469
 20
1189.728154362859
 30
0.0
 11
-4902.913686391469
 21
239.7318247202278
 31
0.0
  0
LINE
  5
206
330
1F
100
AcDbEntity
  8
A-2_蓋
  6
Continuous
 62
     3
370
    13
100
AcDbLine
 10
-4872.919031091638
 20
1189.728154362859
 30
0.0
 11
-4872.919031091638
 21
239.7318247202278
 31
0.0
  0
LINE
  5
207
330
1F
100
AcDbEntity
  8
A-2_蓋
  6
Continuous
 62
     3
370
    13
100
AcDbLine
 10
-5028.720752612964
 20
1189.728154362859
 30
0.0
 11
-5028.720752612964
 21
239.7318247202278
 31
0.0
  0
LINE
  5
208
330
1F
100
AcDbEntity
  8
A-2_蓋
  6
Continuous
 62
     3
370
    13
100
AcDbLine
 10
-4998.717436919341
 20
1189.728154362859
 30
0.0
 11
-4998.717436919341
 21
239.7318247202278
 31
0.0
  0
LINE
  5
209
330
1F
100
AcDbEntity
  8
A-2_蓋
  6
Continuous
 62
     3
370
    13
100
AcDbLine
 10
-5154.517921241554
 20
1189.728154362859
 30
0.0
 11
-5154.517921241554
 21
239.7318247202278
 31
0.0
  0
LINE
  5
20A
330
1F
100
AcDbEntity
  8
A-2_蓋
  6
Continuous
 62
     3
370
    13
100
AcDbLine
 10
-5124.51831714527
 20
1189.728154362859
 30
0.0
 11
-5124.51831714527
 21
239.7318247202278
 31
0.0
  0
LINE
  5
20B
330
1F
100
AcDbEntity
  8
A-2_蓋
  6
Continuous
 62
     3
370
    13
100
AcDbLine
 10
-5280.318801467483
 20
1189.728154362859
 30
0.0
 11
-5280.318801467483
 21
239.7318247202278
 31
0.0
  0
LINE
  5
20C
330
1F
100
AcDbEntity
  8
A-2_蓋
  6
Continuous
 62
     3
370
    13
100
AcDbLine
 10
-5250.316722972972
 20
1189.728154362859
 30
0.0
 11
-5250.316722972972
 21
239.7318247202278
 31
0.0
  0
LINE
  5
20D
330
1F
100
AcDbEntity
  8
A-2_蓋
  6
Continuous
 62
     3
370
    13
100
AcDbLine
 10
-5406.116897995407
 20
1189.728154362859
 30
0.0
 11
-5406.116897995407
 21
239.7318247202278
 31
0.0
  0
LINE
  5
20E
330
1F
100
AcDbEntity
  8
A-2_蓋
  6
Continuous
 62
     3
370
    13
100
AcDbLine
 10
-5376.117293899124
 20
1189.728154362859
 30
0.0
 11
-5376.117293899124
 21
239.7318247202278
 31
0.0
  0
LINE
  5
20F
330
1F
100
AcDbEntity
  8
A-2_蓋
  6
Continuous
 62
     3
370
    13
100
AcDbLine
 10
-5531.91530382311
 20
1189.728154362859
 30
0.0
 11
-5531.91530382311
 21
239.7318247202278
 31
0.0
  0
LINE
  5
210
330
1F
100
AcDbEntity
  8
A-2_蓋
  6
Continuous
 62
     3
370
    13
100
AcDbLine
 10
-5501.915699726826
 20
1189.728154362859
 30
0.0
 11
-5501.915699726826
 21
239.7318247202278
 31
0.0
  0
LINE
  5
211
330
1F
100
AcDbEntity
  8
A-2_蓋
  6
Continuous
 62
     3
370
    13
100
AcDbLine
 10
-5657.721132845491
 20
1189.728154362859
 30
0.0
 11
-5657.721132845491
 21
239.7318247202278
 31
0.0
  0
LINE
  5
212
330
1F
100
AcDbEntity
  8
A-2_蓋
  6
Continuous
 62
     3
370
    13
100
AcDbLine
 10
-5627.714105554529
 20
1189.728154362859
 30
0.0
 11
-5627.714105554529
 21
239.7318247202278
 31
0.0
  0
LINE
  5
213
330
1F
100
AcDbEntity
  8
A-2_蓋
  6
Continuous
 62
     3
370
    13
100
AcDbLine
 10
-5783.519538673195
 20
1189.728154362859
 30
0.0
 11
-5783.519538673195
 21
239.7318247202278
 31
0.0
  0
LINE
  5
214
330
1F
100
AcDbEntity
  8
A-2_蓋
  6
Continuous
 62
     3
370
    13
100
AcDbLine
 10
-5753.514985780457
 20
1189.728154362859
 30
0.0
 11
-5753.514985780457
 21
239.7318247202278
 31
0.0
  0
LINE
  5
215
330
1F
100
AcDbEntity
  8
A-2_蓋
  6
Continuous
 62
     3
370
    13
100
AcDbLine
 10
-5909.319181700011
 20
1189.728154362859
 30
0.0
 11
-5909.319181700011
 21
239.7318247202278
 31
0.0
  0
LINE
  5
216
330
1F
100
AcDbEntity
  8
A-2_蓋
  6
Continuous
 62
     3
370
    13
100
AcDbLine
 10
-5879.313391608161
 20
1189.728154362859
 30
0.0
 11
-5879.313391608161
 21
239.7318247202278
 31
0.0
  0
LINE
  5
217
330
1F
100
AcDbEntity
  8
A-2_蓋
  6
Continuous
 62
     3
370
    13
100
AcDbLine
 10
-6035.118824726826
 20
1189.728154362859
 30
0.0
 11
-6035.118824726826
 21
239.7318247202278
 31
0.0
  0
LINE
  5
218
330
1F
100
AcDbEntity
  8
A-2_蓋
  6
Continuous
 62
     3
370
    13
100
AcDbLine
 10
-6005.117983431429
 20
1189.728154362859
 30
0.0
 11
-6005.117983431429
 21
239.7318247202278
 31
0.0
  0
LINE
  5
219
330
1F
100
AcDbEntity
  8
A-2_蓋
  6
Continuous
 62
     3
370
    13
100
AcDbLine
 10
-6160.918467753642
 20
1189.728154362859
 30
0.0
 11
-6160.918467753642
 21
239.7318247202278
 31
0.0
  0
LINE
  5
21A
330
1F
100
AcDbEntity
  8
A-2_蓋
  6
Continuous
 62
     3
370
    13
100
AcDbLine
 10
-6130.918863657358
 20
1189.728154362859
 30
0.0
 11
-6130.918863657358
 21
239.7318247202278
 31
0.0
  0
LINE
  5
21B
330
1F
100
AcDbEntity
  8
A-2_蓋
  6
Continuous
 62
     3
370
    13
100
AcDbLine
 10
-6286.718110780457
 20
1189.728154362859
 30
0.0
 11
-6286.718110780457
 21
239.7318247202278
 31
0.0
  0
LINE
  5
21C
330
1F
100
AcDbEntity
  8
A-2_蓋
  6
Continuous
 62
     3
370
    13
100
AcDbLine
 10
-6256.717269485061
 20
1189.728154362859
 30
0.0
 11
-6256.717269485061
 21
239.7318247202278
 31
0.0
  0
LINE
  5
21D
330
1F
100
AcDbEntity
  8
A-2_蓋
  6
Continuous
 62
     3
370
    13
100
AcDbLine
 10
-6412.517753807273
 20
1189.728154362859
 30
0.0
 11
-6412.517753807273
 21
239.7318247202278
 31
0.0
  0
LINE
  5
21E
330
1F
100
AcDbEntity
  8
A-2_蓋
  6
Continuous
 62
     3
370
    13
100
AcDbLine
 10
-6382.516912511877
 20
1189.728154362859
 30
0.0
 11
-6382.516912511877
 21
239.7318247202278
 31
0.0
  0
LINE
  5
21F
330
1F
100
AcDbEntity
  8
A-2_蓋
  6
Continuous
 62
     3
370
    13
100
AcDbLine
 10
-6538.316159634976
 20
1189.728154362859
 30
0.0
 11
-6538.316159634976
 21
239.7318247202278
 31
0.0
  0
LINE
  5
220
330
1F
100
AcDbEntity
  8
A-2_蓋
  6
Continuous
 62
     3
370
    13
100
AcDbLine
 10
-6508.316555538693
 20
1189.728154362859
 30
0.0
 11
-6508.316555538693
 21
239.7318247202278
 31
0.0
  0
LINE
  5
221
330
1F
100
AcDbEntity
  8
A-2_蓋
  6
Continuous
 62
     3
370
    13
100
AcDbLine
 10
-6664.121988657358
 20
1189.728154362859
 30
0.0
 11
-6664.121988657358
 21
239.7318247202278
 31
0.0
  0
LINE
  5
222
330
1F
100
AcDbEntity
  8
A-2_蓋
  6
Continuous
 62
     3
370
    13
100
AcDbLine
 10
-6634.121147361961
 20
1189.728154362859
 30
0.0
 11
-6634.121147361961
 21
239.7318247202278
 31
0.0
  0
LINE
  5
223
330
1F
100
AcDbEntity
  8
A-2_蓋
  6
Continuous
 62
     3
370
    13
100
AcDbLine
 10
-6789.915445688608
 20
1189.728154362859
 30
0.0
 11
-6789.915445688608
 21
239.7318247202278
 31
0.0
  0
LINE
  5
224
330
1F
100
AcDbEntity
  8
A-2_蓋
  6
Continuous
 62
     3
370
    13
100
AcDbLine
 10
-6759.920790388777
 20
1189.728154362859
 30
0.0
 11
-6759.920790388777
 21
239.7318247202278
 31
0.0
  0
LINE
  5
225
330
1F
100
AcDbEntity
  8
A-2_蓋
  6
Continuous
 62
     3
370
    13
100
AcDbLine
 10
-6915.715088715425
 20
1189.728154362859
 30
0.0
 11
-6915.715088715425
 21
239.7318247202278
 31
0.0
  0
LINE
  5
226
330
1F
100
AcDbEntity
  8
A-2_蓋
  6
Continuous
 62
     3
370
    13
100
AcDbLine
 10
-6885.719196216479
 20
1189.728154362859
 30
0.0
 11
-6885.719196216479
 21
239.7318247202278
 31
0.0
  0
LINE
  5
227
330
1F
100
AcDbEntity
  8
A-2_蓋
  6
Continuous
 62
     3
370
    13
100
AcDbLine
 10
-7041.519680538693
 20
1189.728154362859
 30
0.0
 11
-7041.519680538693
 21
239.7318247202278
 31
0.0
  0
LINE
  5
228
330
1F
100
AcDbEntity
  8
A-2_蓋
  6
Continuous
 62
     3
370
    13
100
AcDbLine
 10
-7011.518839243296
 20
1189.728154362859
 30
0.0
 11
-7011.518839243296
 21
239.7318247202278
 31
0.0
  0
LINE
  5
229
330
1F
100
AcDbEntity
  8
A-2_蓋
  6
Continuous
 62
     3
370
    13
100
AcDbLine
 10
-7167.319323565508
 20
1189.728154362859
 30
0.0
 11
-7167.319323565508
 21
239.7318247202278
 31
0.0
  0
LINE
  5
22A
330
1F
100
AcDbEntity
  8
A-2_蓋
  6
Continuous
 62
     3
370
    13
100
AcDbLine
 10
-7137.319719469224
 20
1189.728154362859
 30
0.0
 11
-7137.319719469224
 21
239.7318247202278
 31
0.0
  0
LINE
  5
22B
330
1F
100
AcDbEntity
  8
A-2_蓋
  6
Continuous
 62
     3
370
    13
100
AcDbLine
 10
-7293.118966592326
 20
1189.728154362859
 30
0.0
 11
-7293.118966592326
 21
239.7318247202278
 31
0.0
  0
LINE
  5
22C
330
1F
100
AcDbEntity
  8
A-2_蓋
  6
Continuous
 62
     3
370
    13
100
AcDbLine
 10
-7263.118125296927
 20
1189.728154362859
 30
0.0
 11
-7263.118125296927
 21
239.7318247202278
 31
0.0
  0
LINE
  5
22D
330
1F
100
AcDbEntity
  8
A-2_蓋
  6
Continuous
 62
     3
370
    13
100
AcDbLine
 10
-3267.514615445523
 20
1189.728154362859
 30
0.0
 11
-3267.514615445523
 21
239.7318247202278
 31
0.0
  0
LINE
  5
22E
330
1F
100
AcDbEntity
  8
A-2_蓋
  6
Continuous
 62
     3
370
    13
100
AcDbLine
 10
-3237.513774150126
 20
1189.728154362859
 30
0.0
 11
-3237.513774150126
 21
239.7318247202278
 31
0.0
  0
LINE
  5
22F
330
1F
100
AcDbEntity
  8
A-2_蓋
  6
Continuous
 62
     3
370
    13
100
AcDbLine
 10
-3141.714972418707
 20
1189.728154362859
 30
0.0
 11
-3141.714972418707
 21
239.7318247202278
 31
0.0
  0
LINE
  5
230
330
1F
100
AcDbEntity
  8
A-2_蓋
  6
Continuous
 62
     3
370
    13
100
AcDbLine
 10
-3111.71413112331
 20
1189.728154362859
 30
0.0
 11
-3111.71413112331
 21
239.7318247202278
 31
0.0
  0
LINE
  5
231
330
1F
100
AcDbEntity
  8
A-2_蓋
  6
Continuous
 62
     3
370
    13
100
AcDbLine
 10
-3015.915329391892
 20
1189.728154362859
 30
0.0
 11
-3015.915329391892
 21
239.7318247202278
 31
0.0
  0
LINE
  5
232
330
1F
100
AcDbEntity
  8
A-2_蓋
  6
Continuous
 62
     3
370
    13
100
AcDbLine
 10
-2985.914488096495
 20
1189.728154362859
 30
0.0
 11
-2985.914488096495
 21
239.7318247202278
 31
0.0
  0
LINE
  5
233
330
1F
100
AcDbEntity
  8
A-2_蓋
  6
Continuous
 62
     3
370
    13
100
AcDbLine
 10
-2890.115686365075
 20
1189.728154362859
 30
0.0
 11
-2890.115686365075
 21
239.7318247202278
 31
0.0
  0
LINE
  5
234
330
1F
100
AcDbEntity
  8
A-2_蓋
  6
Continuous
 62
     3
370
    13
100
AcDbLine
 10
-2860.114845069678
 20
1189.728154362859
 30
0.0
 11
-2860.114845069678
 21
239.7318247202278
 31
0.0
  0
LINE
  5
235
330
1F
100
AcDbEntity
  8
A-2_蓋
  6
Continuous
 62
     3
370
    13
100
AcDbLine
 10
-2764.316043338259
 20
1189.728154362859
 30
0.0
 11
-2764.316043338259
 21
239.7318247202278
 31
0.0
  0
LINE
  5
236
330
1F
100
AcDbEntity
  8
A-2_蓋
  6
Continuous
 62
     3
370
    13
100
AcDbLine
 10
-2734.315202042863
 20
1189.728154362859
 30
0.0
 11
-2734.315202042863
 21
239.7318247202278
 31
0.0
  0
LINE
  5
237
330
1F
100
AcDbEntity
  8
A-2_蓋
  6
Continuous
 62
     3
370
    13
100
AcDbLine
 10
-2638.516400311444
 20
1189.728154362859
 30
0.0
 11
-2638.516400311444
 21
239.7318247202278
 31
0.0
  0
LINE
  5
238
330
1F
100
AcDbEntity
  8
A-2_蓋
  6
Continuous
 62
     3
370
    13
100
AcDbLine
 10
-2608.515559016047
 20
1189.728154362859
 30
0.0
 11
-2608.515559016047
 21
239.7318247202278
 31
0.0
  0
LINE
  5
239
330
1F
100
AcDbEntity
  8
A-2_蓋
  6
Continuous
 62
     3
370
    13
100
AcDbLine
 10
-2512.716757284627
 20
1189.728154362859
 30
0.0
 11
-2512.716757284627
 21
239.7318247202278
 31
0.0
  0
LINE
  5
23A
330
1F
100
AcDbEntity
  8
A-2_蓋
  6
Continuous
 62
     3
370
    13
100
AcDbLine
 10
-2482.717153188344
 20
1189.728154362859
 30
0.0
 11
-2482.717153188344
 21
239.7318247202278
 31
0.0
  0
LINE
  5
23B
330
1F
100
AcDbEntity
  8
A-3_受枠
  6
Continuous
 62
     4
370
    13
100
AcDbLine
 10
2259.530144768793
 20
3334.730158625423
 30
0.0
 11
2137.531177417653
 21
3334.730158625423
 31
0.0
  0
LINE
  5
23C
330
1F
100
AcDbEntity
  8
A-3_受枠
  6
Continuous
 62
     4
370
    13
100
AcDbLine
 10
2259.52890756968
 20
3702.730086043076
 30
0.0
 11
2137.529940218539
 21
3702.730086043076
 31
0.0
  0
LINE
  5
23D
330
1F
100
AcDbEntity
  8
A-3_受枠
  6
Continuous
 62
     4
370
    13
100
AcDbLine
 10
2291.530299831082
 20
3398.73046875
 30
0.0
 11
2291.530299831082
 21
3670.728693781673
 31
0.0
  0
LINE
  5
23E
330
1F
100
AcDbEntity
  8
A-3_受枠
  6
Continuous
 62
     4
370
    13
100
AcDbLine
 10
2259.530144768793
 20
3734.730241105363
 30
0.0
 11
2137.531177417653
 21
3734.730241105363
 31
0.0
  0
LINE
  5
23F
330
1F
100
AcDbEntity
  8
A-3_受枠
  6
Continuous
 62
     4
370
    13
100
AcDbLine
 10
2323.529217694258
 20
3398.729231550888
 30
0.0
 11
2323.529217694258
 21
3670.729930980787
 31
0.0
  0
LINE
  5
240
330
1F
100
AcDbEntity
  8
A-3_受枠
  6
Continuous
 62
     4
370
    13
100
AcDbLine
 10
2137.531177417653
 20
3366.730313687712
 30
0.0
 11
2259.52890756968
 21
3366.730313687712
 31
0.0
  0
LINE
  5
241
330
1F
100
AcDbEntity
  8
A-3_受枠
  6
Continuous
 62
     4
370
    13
100
AcDbLine
 10
2105.52978515625
 20
3398.73046875
 30
0.0
 11
2105.52978515625
 21
3670.728693781673
 31
0.0
  0
LINE
  5
242
330
1F
100
AcDbEntity
  8
A-2_蓋
  6
Continuous
 62
     3
370
    13
100
AcDbLine
 10
1823.53127969278
 20
3804.72972972973
 30
0.0
 11
1823.53127969278
 21
-1375.26954444679
 31
0.0
  0
LINE
  5
243
330
1F
100
AcDbEntity
  8
A-3_受枠
  6
Continuous
 62
     4
370
    13
100
AcDbLine
 10
2259.530144768793
 20
-905.2699733424831
 30
0.0
 11
2137.531177417653
 21
-905.2699733424831
 31
0.0
  0
LINE
  5
244
330
1F
100
AcDbEntity
  8
A-3_受枠
  6
Continuous
 62
     4
370
    13
100
AcDbLine
 10
2259.52890756968
 20
-1273.269900760135
 30
0.0
 11
2137.529940218539
 21
-1273.269900760135
 31
0.0
  0
LINE
  5
245
330
1F
100
AcDbEntity
  8
A-3_受枠
  6
Continuous
 62
     4
370
    13
100
AcDbLine
 10
2291.530299831082
 20
-969.2702834670598
 30
0.0
 11
2291.530299831082
 21
-1241.268508498733
 31
0.0
  0
LINE
  5
246
330
1F
100
AcDbEntity
  8
A-3_受枠
  6
Continuous
 62
     4
370
    13
100
AcDbLine
 10
2259.530144768793
 20
-1305.270055822424
 30
0.0
 11
2137.531177417653
 21
-1305.270055822424
 31
0.0
  0
LINE
  5
247
330
1F
100
AcDbEntity
  8
A-3_受枠
  6
Continuous
 62
     4
370
    13
100
AcDbLine
 10
2137.531177417653
 20
-937.2701284047721
 30
0.0
 11
2259.52890756968
 21
-937.2701284047721
 31
0.0
  0
LINE
  5
248
330
1F
100
AcDbEntity
  8
A-3_受枠
  6
Continuous
 62
     4
370
    13
100
AcDbLine
 10
2105.52978515625
 20
-969.2702834670598
 30
0.0
 11
2105.52978515625
 21
-1241.268508498733
 31
0.0
  0
LINE
  5
249
330
1F
100
AcDbEntity
  8
A-2_蓋
  6
JWW_CENTER1
 62
     3
370
    13
100
AcDbLine
 10
1605.055525496201
 20
1214.73009264147
 30
0.0
 11
2283.601090714738
 21
1214.73009264147
 31
0.0
  0
LINE
  5
24A
330
1F
100
AcDbEntity
  8
A-4_寸法
  6
Continuous
 62
     7
370
    13
100
AcDbLine
 10
-5945.705207618507
 20
5460.371852565456
 30
0.0
 11
-3816.447489970439
 21
5460.371852565456
 31
0.0
  0
LINE
  5
24B
330
1F
100
AcDbEntity
  8
A-4_寸法
  6
Continuous
 62
     7
370
    13
100
AcDbLine
 10
-5780.802030821104
 20
5060.371770085516
 30
0.0
 11
-3883.597709037162
 21
5060.371770085516
 31
0.0
  0
LINE
  5
24C
330
1F
100
AcDbEntity
  8
A-4_寸法
  6
Continuous
 62
     2
370
    13
100
AcDbLine
 10
2716.216216216216
 20
-4147.977509369722
 30
0.0
 11
2716.216216216216
 21
-3897.972972972972
 31
0.0
  0
LINE
  5
24D
330
1F
100
AcDbEntity
  8
A-4_寸法
  6
Continuous
 62
     2
370
    13
100
AcDbLine
 10
2716.216216216216
 20
-3897.972972972972
 30
0.0
 11
3841.216216216216
 21
-3897.972972972972
 31
0.0
  0
LINE
  5
24E
330
1F
100
AcDbEntity
  8
A-4_寸法
  6
Continuous
 62
     2
370
    13
100
AcDbLine
 10
3841.216216216216
 20
-3897.972972972972
 30
0.0
 11
3841.216216216216
 21
-4147.977509369722
 31
0.0
  0
LINE
  5
24F
330
1F
100
AcDbEntity
  8
A-4_寸法
  6
Continuous
 62
     2
370
    13
100
AcDbLine
 10
3841.216216216216
 20
-4147.977509369722
 30
0.0
 11
2716.216216216216
 21
-4147.977509369722
 31
0.0
  0
LINE
  5
250
330
1F
100
AcDbEntity
  8
A-3_受枠
  6
JWW_CENTER1
 62
     4
370
    13
100
AcDbLine
 10
6628.534265466641
 20
4614.731412320525
 30
0.0
 11
6393.082902238177
 21
4614.731412320525
 31
0.0
  0
LINE
  5
251
330
1F
100
AcDbEntity
  8
A-3_受枠
  6
Continuous
 62
     4
370
    13
100
AcDbLine
 10
6728.534595386403
 20
4549.733919710727
 30
0.0
 11
6728.534595386403
 21
3421.816604201858
 31
0.0
  0
LINE
  5
252
330
1F
100
AcDbEntity
  8
A-3_受枠
  6
Continuous
 62
     4
370
    13
100
AcDbLine
 10
6658.533869562922
 20
4549.7314453125
 30
0.0
 11
6658.533869562922
 21
3421.816604201858
 31
0.0
  0
LINE
  5
253
330
1F
100
AcDbEntity
  8
A-3_受枠
  6
JWW_CENTER1
 62
     4
370
    13
100
AcDbLine
 10
6899.849556587838
 20
3264.731907200169
 30
0.0
 11
6506.972029402451
 21
3264.731907200169
 31
0.0
  0
LINE
  5
254
330
1F
100
AcDbEntity
  8
A-3_受枠
  6
Continuous
 62
     4
370
    13
100
AcDbLine
 10
6674.219079919766
 20
3332.015743771116
 30
0.0
 11
6634.378794077282
 21
3391.621522645692
 31
0.0
  0
LINE
  5
255
330
1F
100
AcDbEntity
  8
A-3_受枠
  6
Continuous
 62
     4
370
    13
100
AcDbLine
 10
6628.534265466641
 20
4649.734249630491
 30
0.0
 11
6408.533044763516
 21
4649.734249630491
 31
0.0
  0
LINE
  5
256
330
1F
100
AcDbEntity
  8
A-3_受枠
  6
Continuous
 62
     4
370
    13
100
AcDbLine
 10
6408.533044763516
 20
4579.731049408784
 30
0.0
 11
6408.533044763516
 21
4649.734249630491
 31
0.0
  0
LINE
  5
257
330
1F
100
AcDbEntity
  8
A-3_受枠
  6
Continuous
 62
     4
370
    13
100
AcDbLine
 10
6628.534265466641
 20
4579.731049408784
 30
0.0
 11
6408.533044763516
 21
4579.731049408784
 31
0.0
  0
LINE
  5
258
330
1F
100
AcDbEntity
  8
A-3_受枠
  6
Continuous
 62
     2
370
    13
100
AcDbLine
 10
2243.535634633658
 20
2684.733581542969
 30
0.0
 11
2438.035707216005
 21
2684.733581542969
 31
0.0
  0
LINE
  5
259
330
1F
100
AcDbEntity
  8
A-3_受枠
  6
Continuous
 62
     2
370
    13
100
AcDbLine
 10
2243.535634633658
 20
2744.732789735536
 30
0.0
 11
2438.035707216005
 21
2744.732789735536
 31
0.0
  0
LINE
  5
25A
330
1F
100
AcDbEntity
  8
A-3_受枠
  6
Continuous
 62
     4
370
    13
100
AcDbLine
 10
2523.536063529352
 20
2624.733136151289
 30
0.0
 11
2763.535370697846
 21
2624.733136151289
 31
0.0
  0
LINE
  5
25B
330
1F
100
AcDbEntity
  8
A-3_受枠
  6
Continuous
 62
     4
370
    13
100
AcDbLine
 10
2523.536063529352
 20
2804.731997928104
 30
0.0
 11
2763.535370697846
 21
2804.731997928104
 31
0.0
  0
LINE
  5
25C
330
1F
100
AcDbEntity
  8
A-3_受枠
  6
Continuous
 62
     4
370
    13
100
AcDbLine
 10
2558.256819441513
 20
2754.733070167336
 30
0.0
 11
2763.535370697846
 21
2754.733070167336
 31
0.0
  0
LINE
  5
25D
330
1F
100
AcDbEntity
  8
A-3_受枠
  6
Continuous
 62
     4
370
    13
100
AcDbLine
 10
2558.255582242398
 20
2674.732063912057
 30
0.0
 11
2763.535370697846
 21
2674.732063912057
 31
0.0
  0
LINE
  5
25E
330
1F
100
AcDbEntity
  8
A-3_受枠
  6
Continuous
 62
     4
370
    13
100
AcDbLine
 10
3321.046983873523
 20
2574.732971191406
 30
0.0
 11
3246.02322965055
 21
2854.732162887986
 31
0.0
  0
LINE
  5
25F
330
1F
100
AcDbEntity
  8
A-3_受枠
  6
Continuous
 62
     4
370
    13
100
AcDbLine
 10
3163.534215978675
 20
2804.731997928104
 30
0.0
 11
3259.419621648016
 21
2804.731997928104
 31
0.0
  0
LINE
  5
260
330
1F
100
AcDbEntity
  8
A-3_受枠
  6
Continuous
 62
     4
370
    13
100
AcDbLine
 10
3163.534215978675
 20
2754.733070167336
 30
0.0
 11
3272.816013645482
 21
2754.733070167336
 31
0.0
  0
LINE
  5
261
330
1F
100
AcDbEntity
  8
A-3_受枠
  6
Continuous
 62
     4
370
    13
100
AcDbLine
 10
3163.534215978675
 20
2674.732063912057
 30
0.0
 11
3294.251725480365
 21
2674.732063912057
 31
0.0
  0
LINE
  5
262
330
1F
100
AcDbEntity
  8
A-3_受枠
  6
Continuous
 62
     4
370
    13
100
AcDbLine
 10
3163.534215978675
 20
2624.733136151289
 30
0.0
 11
3307.648117477831
 21
2624.733136151289
 31
0.0
  0
LINE
  5
263
330
1F
100
AcDbEntity
  8
A-3_受枠
  6
Continuous
 62
     4
370
    13
100
AcDbLine
 10
3148.534413930534
 20
2739.732030920081
 30
0.0
 11
2778.53517274599
 21
2739.732030920081
 31
0.0
  0
LINE
  5
264
330
1F
100
AcDbEntity
  8
A-3_受枠
  6
Continuous
 62
     4
370
    13
100
AcDbLine
 10
3148.534413930534
 20
2689.733103159313
 30
0.0
 11
2778.53517274599
 21
2689.733103159313
 31
0.0
  0
LINE
  5
265
330
1F
100
AcDbEntity
  8
A-3_受枠
  6
Continuous
 62
     4
370
    13
100
AcDbLine
 10
1993.536047033362
 20
2754.733070167336
 30
0.0
 11
2233.535354201859
 21
2754.733070167336
 31
0.0
  0
LINE
  5
266
330
1F
100
AcDbEntity
  8
A-3_受枠
  6
Continuous
 62
     4
370
    13
100
AcDbLine
 10
1993.536047033362
 20
2754.733070167336
 30
0.0
 11
1993.536047033362
 21
2804.731997928104
 31
0.0
  0
LINE
  5
267
330
1F
100
AcDbEntity
  8
A-3_受枠
  6
Continuous
 62
     4
370
    13
100
AcDbLine
 10
1993.536047033362
 20
2804.731997928104
 30
0.0
 11
2233.535354201859
 21
2804.731997928104
 31
0.0
  0
LINE
  5
268
330
1F
100
AcDbEntity
  8
A-3_受枠
  6
Continuous
 62
     4
370
    13
100
AcDbLine
 10
1993.536047033362
 20
2674.732063912057
 30
0.0
 11
2233.535354201859
 21
2674.732063912057
 31
0.0
  0
LINE
  5
269
330
1F
100
AcDbEntity
  8
A-3_受枠
  6
Continuous
 62
     4
370
    13
100
AcDbLine
 10
1993.536047033362
 20
2624.733136151289
 30
0.0
 11
1993.536047033362
 21
2674.732063912057
 31
0.0
  0
LINE
  5
26A
330
1F
100
AcDbEntity
  8
A-3_受枠
  6
Continuous
 62
     4
370
    13
100
AcDbLine
 10
1993.536047033362
 20
2624.733136151289
 30
0.0
 11
2233.535354201859
 21
2624.733136151289
 31
0.0
  0
LINE
  5
26B
330
1F
100
AcDbEntity
  8
A-3_受枠
  6
JWW_CENTER1
 62
     4
370
    13
100
AcDbLine
 10
6693.534232474664
 20
2814.733515559017
 30
0.0
 11
6693.534232474664
 21
4549.733919710727
 31
0.0
  0
LINE
  5
26C
330
1F
100
AcDbEntity
  8
A-3_受枠
  6
JWW_CENTER1
 62
     4
370
    13
100
AcDbLine
 10
6593.533902554898
 20
2714.733185639252
 30
0.0
 11
1881.184758366766
 21
2714.733185639252
 31
0.0
  0
LINE
  5
26D
330
1F
100
AcDbEntity
  8
A-2_蓋
  6
Continuous
 62
     3
370
    13
100
AcDbLine
 10
2073.530867293076
 20
2754.733070167336
 30
0.0
 11
2073.530867293076
 21
2674.732063912057
 31
0.0
  0
LINE
  5
26E
330
1F
100
AcDbEntity
  8
A-4_寸法
  6
Continuous
 62
     7
370
    13
100
AcDbLine
 10
2963.53479333826
 20
2739.732030920081
 30
0.0
 11
3011.369859850086
 21
2855.217144940352
 31
0.0
  0
LINE
  5
26F
330
1F
100
AcDbEntity
  8
A-4_寸法
  6
Continuous
 62
     7
370
    13
100
AcDbLine
 10
2963.53479333826
 20
2739.732030920081
 30
0.0
 11
3039.629961993245
 21
2838.902200234904
 31
0.0
  0
LINE
  5
270
330
1F
100
AcDbEntity
  8
A-4_寸法
  6
Continuous
 62
     7
370
    13
100
AcDbLine
 10
2340.785670924831
 20
2684.733581542969
 30
0.0
 11
2456.270784945102
 21
2636.897277832031
 31
0.0
  0
LINE
  5
271
330
1F
100
AcDbEntity
  8
A-4_寸法
  6
Continuous
 62
     7
370
    13
100
AcDbLine
 10
2340.785670924831
 20
2684.733581542969
 30
0.0
 11
2439.954603040542
 21
2608.638412887986
 31
0.0
  0
LINE
  5
272
330
1F
100
AcDbEntity
  8
A-4_寸法
  6
Continuous
 62
     7
370
    13
100
AcDbLine
 10
2233.535354201859
 20
2624.734373350403
 30
0.0
 11
2332.704286317567
 21
2548.639204695418
 31
0.0
  0
LINE
  5
273
330
1F
100
AcDbEntity
  8
A-4_寸法
  6
Continuous
 62
     7
370
    13
100
AcDbLine
 10
2233.535354201859
 20
2624.734373350403
 30
0.0
 11
2309.630522856841
 21
2525.565441234693
 31
0.0
  0
LINE
  5
274
330
1F
100
AcDbEntity
  8
A-4_寸法
  6
Continuous
 62
     7
370
    13
100
AcDbLine
 10
2340.785670924831
 20
2684.733581542969
 30
0.0
 11
3483.530817805109
 21
2024.968698862438
 31
0.0
  0
LINE
  5
275
330
1F
100
AcDbEntity
  8
A-4_寸法
  6
Continuous
 62
     7
370
    13
100
AcDbLine
 10
2233.535354201859
 20
2624.734373350403
 30
0.0
 11
3583.301028689823
 21
1274.968698862438
 31
0.0
  0
LINE
  5
276
330
1F
100
AcDbEntity
  8
A-4_寸法
  6
Continuous
 62
     7
370
    13
100
AcDbLine
 10
2963.53479333826
 20
2739.732030920081
 30
0.0
 11
3483.530817805109
 21
3640.392571526605
 31
0.0
  0
LINE
  5
277
330
1F
100
AcDbEntity
  8
A-4_寸法
  6
Continuous
 62
     7
370
    13
100
AcDbLine
 10
3483.530817805109
 20
2024.968698862438
 30
0.0
 11
6345.620232659419
 21
2024.968698862438
 31
0.0
  0
LINE
  5
278
330
1F
100
AcDbEntity
  8
A-4_寸法
  6
Continuous
 62
     7
370
    13
100
AcDbLine
 10
3483.530817805109
 20
3640.392571526605
 30
0.0
 11
6311.15433976457
 21
3640.392571526605
 31
0.0
  0
LINE
  5
279
330
1F
100
AcDbEntity
  8
A-5_仕様文
  6
Continuous
 62
     7
370
    13
100
AcDbLine
 10
-5945.705207618507
 20
5460.371852565456
 30
0.0
 11
-6340.163875270534
 21
3804.72972972973
 31
0.0
  0
LINE
  5
27A
330
1F
100
AcDbEntity
  8
A-5_仕様文
  6
Continuous
 62
     7
370
    13
100
AcDbLine
 10
-5780.802030821104
 20
5060.371770085516
 30
0.0
 11
-6214.572700294289
 21
3239.730587521116
 31
0.0
  0
LINE
  5
27B
330
1F
100
AcDbEntity
  8
A-4_寸法
  6
Continuous
 62
     7
370
    13
100
AcDbLine
 10
-6340.163875270534
 20
3804.72972972973
 30
0.0
 11
-6327.312469482422
 21
3929.067003404772
 31
0.0
  0
LINE
  5
27C
330
1F
100
AcDbEntity
  8
A-4_寸法
  6
Continuous
 62
     7
370
    13
100
AcDbLine
 10
-6340.163875270534
 20
3804.72972972973
 30
0.0
 11
-6295.569651835674
 21
3921.50400522593
 31
0.0
  0
LINE
  5
27D
330
1F
100
AcDbEntity
  8
A-4_寸法
  6
Continuous
 62
     7
370
    13
100
AcDbLine
 10
-5879.313391608161
 20
3435.77221019848
 30
0.0
 11
-5866.461985820049
 21
3560.109483873522
 31
0.0
  0
LINE
  5
27E
330
1F
100
AcDbEntity
  8
A-4_寸法
  6
Continuous
 62
     7
370
    13
100
AcDbLine
 10
-5879.313391608161
 20
3435.77221019848
 30
0.0
 11
-5834.7191681733
 21
3552.54648569468
 31
0.0
  0
LINE
  5
27F
330
1F
100
AcDbEntity
  8
A-2_蓋
  6
Continuous
 62
     3
370
    13
100
AcDbLine
 10
1823.53127969278
 20
3804.72972972973
 30
0.0
 11
2013.531659100508
 21
3804.72972972973
 31
0.0
  0
LINE
  5
280
330
1F
100
AcDbEntity
  8
A-2_蓋
  6
Continuous
 62
     3
370
    13
100
AcDbLine
 10
2013.531659100508
 20
3804.72972972973
 30
0.0
 11
2013.531659100508
 21
3774.730125633447
 31
0.0
  0
LINE
  5
281
330
1F
100
AcDbEntity
  8
A-2_蓋
  6
Continuous
 62
     3
370
    13
100
AcDbLine
 10
1823.53127969278
 20
3774.730125633447
 30
0.0
 11
2073.530867293076
 21
3774.730125633447
 31
0.0
  0
LINE
  5
282
330
1F
100
AcDbEntity
  8
A-2_蓋
  6
Continuous
 62
     3
370
    13
100
AcDbLine
 10
1823.53127969278
 20
-1375.26954444679
 30
0.0
 11
2013.531659100508
 21
-1375.26954444679
 31
0.0
  0
LINE
  5
283
330
1F
100
AcDbEntity
  8
A-2_蓋
  6
Continuous
 62
     3
370
    13
100
AcDbLine
 10
2013.531659100508
 20
-1345.269940350506
 30
0.0
 11
2013.531659100508
 21
-1375.26954444679
 31
0.0
  0
LINE
  5
284
330
1F
100
AcDbEntity
  8
A-2_蓋
  6
Continuous
 62
     3
370
    13
100
AcDbLine
 10
1823.53127969278
 20
-1345.269940350506
 30
0.0
 11
2073.530867293076
 21
-1345.269940350506
 31
0.0
  0
LINE
  5
285
330
1F
100
AcDbEntity
  8
A-3_受枠
  6
Continuous
 62
     4
370
    13
100
AcDbLine
 10
2323.529217694258
 20
-1226.283552839949
 30
0.0
 11
2323.529217694258
 21
-1241.269745697846
 31
0.0
  0
LINE
  5
286
330
1F
100
AcDbEntity
  8
A-3_受枠
  6
Continuous
 62
     4
370
    13
100
AcDbLine
 10
2323.53045489337
 20
-969.2690462679479
 30
0.0
 11
2323.53045489337
 21
-1226.283552839949
 31
0.0
  0
LINE
  5
287
330
1F
100
AcDbEntity
  8
A-4_寸法
  6
Continuous
 62
     7
370
    13
100
AcDbLine
 10
-7418.918918918919
 20
-1934.118569863808
 30
0.0
 11
-2358.919298326647
 21
-1934.118569863808
 31
0.0
  0
LINE
  5
288
330
1F
100
AcDbEntity
  8
A-4_寸法
  6
Continuous
 62
     7
370
    13
100
AcDbLine
 10
-7418.918918918919
 20
-1450.269791886613
 30
0.0
 11
-7418.918918918919
 21
-1949.11837191195
 31
0.0
  0
LINE
  5
289
330
1F
100
AcDbEntity
  8
A-4_寸法
  6
Continuous
 62
     7
370
    13
100
AcDbLine
 10
-2358.919298326647
 20
-1450.269791886613
 30
0.0
 11
-2358.919298326647
 21
-1949.11837191195
 31
0.0
  0
LINE
  5
28A
330
1F
100
AcDbEntity
  8
A-4_寸法
  6
Continuous
 62
     7
370
    13
100
AcDbLine
 10
1289.728113122889
 20
-1375.26954444679
 30
0.0
 11
1289.728113122889
 21
3804.72972972973
 31
0.0
  0
LINE
  5
28B
330
1F
100
AcDbEntity
  8
A-4_寸法
  6
Continuous
 62
     7
370
    13
100
AcDbLine
 10
1748.531032252957
 20
-1375.26954444679
 30
0.0
 11
1274.728311074748
 21
-1375.26954444679
 31
0.0
  0
LINE
  5
28C
330
1F
100
AcDbEntity
  8
A-4_寸法
  6
Continuous
 62
     7
370
    13
100
AcDbLine
 10
1748.531032252957
 20
3804.72972972973
 30
0.0
 11
1274.728311074748
 21
3804.72972972973
 31
0.0
  0
LINE
  5
28D
330
1F
100
AcDbEntity
  8
A-4_寸法
  6
Continuous
 62
     7
370
    13
100
AcDbLine
 10
1823.53127969278
 20
-1934.117951264252
 30
0.0
 11
2073.530867293076
 21
-1934.117951264252
 31
0.0
  0
LINE
  5
28E
330
1F
100
AcDbEntity
  8
A-4_寸法
  6
Continuous
 62
     7
370
    13
100
AcDbLine
 10
2073.530867293076
 20
-1420.270187790329
 30
0.0
 11
2073.530867293076
 21
-1949.117753312394
 31
0.0
  0
LINE
  5
28F
330
1F
100
AcDbEntity
  8
A-4_寸法
  6
Continuous
 62
     7
370
    13
100
AcDbLine
 10
2073.530867293076
 20
-1934.117951264252
 30
0.0
 11
2323.53045489337
 21
-1934.117951264252
 31
0.0
  0
LINE
  5
290
330
1F
100
AcDbEntity
  8
A-4_寸法
  6
Continuous
 62
     7
370
    13
100
AcDbLine
 10
1823.53127969278
 20
-2232.145608438027
 30
0.0
 11
2323.53045489337
 21
-2232.145608438027
 31
0.0
  0
LINE
  5
291
330
1F
100
AcDbEntity
  8
A-4_寸法
  6
Continuous
 62
     7
370
    13
100
AcDbLine
 10
1823.53127969278
 20
-1450.269791886613
 30
0.0
 11
1823.53127969278
 21
-2247.145410486169
 31
0.0
  0
LINE
  5
292
330
1F
100
AcDbEntity
  8
A-4_寸法
  6
Continuous
 62
     7
370
    13
100
AcDbLine
 10
2323.53045489337
 20
-1316.271230336782
 30
0.0
 11
2323.53045489337
 21
-2247.145410486169
 31
0.0
  0
LINE
  5
293
330
1F
100
AcDbEntity
  8
A-4_寸法
  6
Continuous
 62
     7
370
    13
100
AcDbLine
 10
2088.53190654033
 20
3804.72972972973
 30
0.0
 11
2719.107550543708
 21
3804.72972972973
 31
0.0
  0
LINE
  5
294
330
1F
100
AcDbEntity
  8
A-4_寸法
  6
Continuous
 62
     7
370
    13
100
AcDbLine
 10
2334.530392208615
 20
3734.730241105363
 30
0.0
 11
2719.107550543708
 21
3734.730241105363
 31
0.0
  0
LINE
  5
295
330
1F
100
AcDbEntity
  8
A-4_寸法
  6
Continuous
 62
     7
370
    13
100
AcDbLine
 10
2334.530392208615
 20
3334.730158625423
 30
0.0
 11
2719.107550543708
 21
3334.730158625423
 31
0.0
  0
LINE
  5
296
330
1F
100
AcDbEntity
  8
A-4_寸法
  6
Continuous
 62
     7
370
    13
100
AcDbLine
 10
2704.107748495568
 20
3334.730158625423
 30
0.0
 11
2704.107748495568
 21
-905.2693547429258
 31
0.0
  0
LINE
  5
297
330
1F
100
AcDbEntity
  8
A-4_寸法
  6
Continuous
 62
     7
370
    13
100
AcDbLine
 10
2334.530392208615
 20
-905.2693547429258
 30
0.0
 11
2719.107550543708
 21
-905.2693547429258
 31
0.0
  0
LINE
  5
298
330
1F
100
AcDbEntity
  8
A-4_寸法
  6
Continuous
 62
     7
370
    13
100
AcDbLine
 10
2704.107748495568
 20
-905.2693547429258
 30
0.0
 11
2704.107748495568
 21
-1617.307137154243
 31
0.0
  0
LINE
  5
299
330
1F
100
AcDbEntity
  8
A-4_寸法
  6
Continuous
 62
     7
370
    13
100
AcDbLine
 10
2334.530392208615
 20
-1305.270055822424
 30
0.0
 11
2719.107550543708
 21
-1305.270055822424
 31
0.0
  0
LINE
  5
29A
330
1F
100
AcDbEntity
  8
A-4_寸法
  6
Continuous
 62
     7
370
    13
100
AcDbLine
 10
2704.107748495568
 20
4104.86681139147
 30
0.0
 11
2704.107748495568
 21
3334.730158625423
 31
0.0
  0
LINE
  5
29B
330
1F
100
AcDbEntity
  8
A-4_寸法
  6
Continuous
 62
     7
370
    13
100
AcDbLine
 10
2704.107748495568
 20
-1305.270055822424
 30
0.0
 11
2704.107748495568
 21
-1375.26954444679
 31
0.0
  0
LINE
  5
29C
330
1F
100
AcDbEntity
  8
A-4_寸法
  6
Continuous
 62
     7
370
    13
100
AcDbLine
 10
2088.53190654033
 20
-1375.26954444679
 30
0.0
 11
2719.107550543708
 21
-1375.26954444679
 31
0.0
  0
LINE
  5
29D
330
1F
100
AcDbEntity
  8
A-2_蓋
  6
Continuous
 62
     3
370
    13
100
AcDbLine
 10
2073.530867293076
 20
2624.734991949958
 30
0.0
 11
2073.530867293076
 21
-1345.269940350506
 31
0.0
  0
LINE
  5
29E
330
1F
100
AcDbEntity
  8
A-2_蓋
  6
Continuous
 62
     3
370
    13
100
AcDbLine
 10
2073.530867293076
 20
3774.730125633447
 30
0.0
 11
2073.530867293076
 21
2804.733853726775
 31
0.0
  0
LINE
  5
29F
330
1F
100
AcDbEntity
  8
A-2_蓋
  6
Continuous
 62
     3
370
    13
100
AcDbLine
 10
2073.530867293076
 20
2754.733070167336
 30
0.0
 11
2073.530867293076
 21
2674.732063912057
 31
0.0
  0
LINE
  5
2A0
330
1F
100
AcDbEntity
  8
A-4_寸法
  6
Continuous
 62
     7
370
    13
100
AcDbLine
 10
2907.883102829393
 20
5157.554997624578
 30
0.0
 11
5738.426414695949
 21
5157.554997624578
 31
0.0
  0
LINE
  5
2A1
330
1F
100
AcDbEntity
  8
A-2_蓋
  6
Continuous
 62
     3
370
    13
100
AcDbLine
 10
-2358.919298326647
 20
3804.72972972973
 30
0.0
 11
-2358.919298326647
 21
-1375.26954444679
 31
0.0
  0
LINE
  5
2A2
330
1F
100
AcDbEntity
  8
A-5_仕様文
  6
Continuous
 62
     7
370
    13
100
AcDbLine
 10
-5587.550910743507
 20
4660.371687605576
 30
0.0
 11
-5879.313391608161
 21
3435.77221019848
 31
0.0
  0
LINE
  5
2A3
330
1F
100
AcDbEntity
  8
A-4_寸法
  6
Continuous
 62
     7
370
    13
100
AcDbLine
 10
-5587.550910743507
 20
4660.371687605576
 30
0.0
 11
-3200.905052391258
 21
4660.371687605576
 31
0.0
  0
LINE
  5
2A4
330
1F
100
AcDbEntity
  8
A-4_寸法
  6
Continuous
 62
     7
370
    13
100
AcDbLine
 10
-3629.916216876056
 20
4113.323067330026
 30
0.0
 11
-3504.114099451013
 21
4113.323067330026
 31
0.0
  0
LINE
  5
2A5
330
1F
100
AcDbEntity
  8
A-4_寸法
  6
Continuous
 62
     7
370
    13
100
AcDbLine
 10
-3629.916216876056
 20
3627.320325696792
 30
0.0
 11
-3629.916216876056
 21
4128.322869378168
 31
0.0
  0
LINE
  5
2A6
330
1F
100
AcDbEntity
  8
A-4_寸法
  6
Continuous
 62
     7
370
    13
100
AcDbLine
 10
-3504.114099451013
 20
3627.320325696792
 30
0.0
 11
-3504.114099451013
 21
4128.322869378168
 31
0.0
  0
LINE
  5
2A7
330
1F
100
AcDbEntity
  8
A-4_寸法
  6
Continuous
 62
     7
370
    13
100
AcDbLine
 10
-6214.572700294289
 20
3239.730587521116
 30
0.0
 11
-6201.721603805954
 21
3364.067861196158
 31
0.0
  0
LINE
  5
2A8
330
1F
100
AcDbEntity
  8
A-4_寸法
  6
Continuous
 62
     7
370
    13
100
AcDbLine
 10
-6214.572700294289
 20
3239.730587521116
 30
0.0
 11
-6169.978476859428
 21
3356.504863017315
 31
0.0
  0
LINE
  5
2A9
330
1F
100
AcDbEntity
  8
A-5_仕様文
  6
Continuous
 62
     7
370
    13
100
AcDbLine
 10
2907.883102829393
 20
5157.554997624578
 30
0.0
 11
2240.526766390414
 21
3734.730241105363
 31
0.0
  0
LINE
  5
2AA
330
1F
100
AcDbEntity
  8
A-4_寸法
  6
Continuous
 62
     7
370
    13
100
AcDbLine
 10
2240.526766390414
 20
3734.730241105363
 30
0.0
 11
2278.38134765625
 21
3853.86014371305
 31
0.0
  0
LINE
  5
2AB
330
1F
100
AcDbEntity
  8
A-4_寸法
  6
Continuous
 62
     7
370
    13
100
AcDbLine
 10
2240.526766390414
 20
3734.730241105363
 30
0.0
 11
2307.925662478885
 21
3840.003513645482
 31
0.0
  0
CIRCLE
  5
2AC
330
1F
100
AcDbEntity
  8
A-3_受枠
  6
Continuous
 62
     4
370
    13
100
AcDbCircle
 10
-3290.11329444679
 20
2777.331749168603
 30
0.0
 40
22.59867658486237
  0
CIRCLE
  5
2AD
330
1F
100
AcDbEntity
  8
A-3_受枠
  6
Continuous
 62
     4
370
    13
100
AcDbCircle
 10
-3290.11329444679
 20
2652.134622109904
 30
0.0
 40
22.59867658486237
  0
CIRCLE
  5
2AE
330
1F
100
AcDbEntity
  8
A-2_蓋
  6
Continuous
 62
     3
370
    13
100
AcDbCircle
 10
1848.53136217272
 20
3214.732979439401
 30
0.0
 40
24.99999790578275
  0
ARC
  5
2AF
330
1F
100
AcDbEntity
  8
A-3_受枠
  6
Continuous
 62
     4
370
    13
100
AcDbCircle
 10
2137.531177417653
 20
3398.729231550888
 30
0.0
 40
63.99999599199037
100
AcDbArc
 50
180.0
 51
270.0
  0
ARC
  5
2B0
330
1F
100
AcDbEntity
  8
A-3_受枠
  6
Continuous
 62
     4
370
    13
100
AcDbCircle
 10
2259.530144768793
 20
3398.729231550888
 30
0.0
 40
63.99999599199037
100
AcDbArc
 50
270.0
 51
0.0
  0
ARC
  5
2B1
330
1F
100
AcDbEntity
  8
A-3_受枠
  6
Continuous
 62
     4
370
    13
100
AcDbCircle
 10
2259.52890756968
 20
3398.73046875
 30
0.0
 40
31.99999799599519
100
AcDbArc
 50
270.0
 51
0.0
  0
ARC
  5
2B2
330
1F
100
AcDbEntity
  8
A-3_受枠
  6
Continuous
 62
     4
370
    13
100
AcDbCircle
 10
2137.531177417653
 20
3670.729930980787
 30
0.0
 40
63.99999599199037
100
AcDbArc
 50
90.0
 51
180.0
  0
ARC
  5
2B3
330
1F
100
AcDbEntity
  8
A-3_受枠
  6
Continuous
 62
     4
370
    13
100
AcDbCircle
 10
2137.529940218539
 20
3670.728693781673
 30
0.0
 40
31.99999799599519
100
AcDbArc
 50
90.0
 51
180.0
  0
ARC
  5
2B4
330
1F
100
AcDbEntity
  8
A-3_受枠
  6
Continuous
 62
     4
370
    13
100
AcDbCircle
 10
2259.52890756968
 20
3670.728693781673
 30
0.0
 40
31.99999799599519
100
AcDbArc
 50
0.0
 51
90.0
  0
ARC
  5
2B5
330
1F
100
AcDbEntity
  8
A-3_受枠
  6
Continuous
 62
     4
370
    13
100
AcDbCircle
 10
2259.530144768793
 20
3670.729930980787
 30
0.0
 40
63.99999599199037
100
AcDbArc
 50
0.0
 51
90.0
  0
ARC
  5
2B6
330
1F
100
AcDbEntity
  8
A-3_受枠
  6
Continuous
 62
     4
370
    13
100
AcDbCircle
 10
2137.531177417653
 20
3398.73046875
 30
0.0
 40
31.99999799599519
100
AcDbArc
 50
180.0
 51
270.0
  0
ARC
  5
2B7
330
1F
100
AcDbEntity
  8
A-3_受枠
  6
Continuous
 62
     4
370
    13
100
AcDbCircle
 10
2137.531177417653
 20
-969.2690462679479
 30
0.0
 40
63.99999599199037
100
AcDbArc
 50
90.0
 51
180.0
  0
ARC
  5
2B8
330
1F
100
AcDbEntity
  8
A-3_受枠
  6
Continuous
 62
     4
370
    13
100
AcDbCircle
 10
2259.530144768793
 20
-969.2690462679479
 30
0.0
 40
63.99999599199037
100
AcDbArc
 50
0.0
 51
90.0
  0
ARC
  5
2B9
330
1F
100
AcDbEntity
  8
A-3_受枠
  6
Continuous
 62
     4
370
    13
100
AcDbCircle
 10
2259.52890756968
 20
-969.2702834670598
 30
0.0
 40
31.99999799599519
100
AcDbArc
 50
0.0
 51
90.0
  0
ARC
  5
2BA
330
1F
100
AcDbEntity
  8
A-3_受枠
  6
Continuous
 62
     4
370
    13
100
AcDbCircle
 10
2137.531177417653
 20
-1241.269745697846
 30
0.0
 40
63.99999599199037
100
AcDbArc
 50
180.0
 51
270.0
  0
ARC
  5
2BB
330
1F
100
AcDbEntity
  8
A-3_受枠
  6
Continuous
 62
     4
370
    13
100
AcDbCircle
 10
2137.529940218539
 20
-1241.268508498733
 30
0.0
 40
31.99999799599519
100
AcDbArc
 50
180.0
 51
270.0
  0
ARC
  5
2BC
330
1F
100
AcDbEntity
  8
A-3_受枠
  6
Continuous
 62
     4
370
    13
100
AcDbCircle
 10
2259.52890756968
 20
-1241.268508498733
 30
0.0
 40
31.99999799599519
100
AcDbArc
 50
270.0
 51
0.0
  0
ARC
  5
2BD
330
1F
100
AcDbEntity
  8
A-3_受枠
  6
Continuous
 62
     4
370
    13
100
AcDbCircle
 10
2137.531177417653
 20
-969.2702834670598
 30
0.0
 40
31.99999799599519
100
AcDbArc
 50
90.0
 51
180.0
  0
ARC
  5
2BE
330
1F
100
AcDbEntity
  8
A-3_受枠
  6
Continuous
 62
     4
370
    13
100
AcDbCircle
 10
6628.534265466641
 20
4549.7314453125
 30
0.0
 40
29.9999979702202
100
AcDbArc
 50
0.0
 51
90.0
  0
ARC
  5
2BF
330
1F
100
AcDbEntity
  8
A-3_受枠
  6
JWW_CENTER1
 62
     4
370
    13
100
AcDbCircle
 10
6628.534265466641
 20
4549.733919710727
 30
0.0
 40
64.99999117206883
100
AcDbArc
 50
0.0
 51
90.0
  0
ARC
  5
2C0
330
1F
100
AcDbEntity
  8
A-3_受枠
  6
Continuous
 62
     4
370
    13
100
AcDbCircle
 10
6628.534265466641
 20
4549.733919710727
 30
0.0
 40
99.99999162313101
100
AcDbArc
 50
0.0
 51
90.0
  0
ARC
  5
2C1
330
1F
100
AcDbEntity
  8
A-3_受枠
  6
Continuous
 62
     4
370
    13
100
AcDbCircle
 10
6758.534199482688
 20
3421.816604201858
 30
0.0
 40
29.9999979702202
100
AcDbArc
 50
180.0
 51
247.5196228027344
  0
ARC
  5
2C2
330
1F
100
AcDbEntity
  8
A-3_受枠
  6
Continuous
 62
     4
370
    13
100
AcDbCircle
 10
6758.534199482688
 20
3421.816604201858
 30
0.0
 40
99.99999162313101
100
AcDbArc
 50
180.0
 51
247.5204620361328
  0
ARC
  5
2C3
330
1F
100
AcDbEntity
  8
A-3_受枠
  6
Continuous
 62
     4
370
    13
100
AcDbCircle
 10
6693.534232474664
 20
3264.731907200169
 30
0.0
 40
69.99999606931532
100
AcDbArc
 50
106.0161743164062
 51
67.5208129882812
  0
ARC
  5
2C4
330
1F
100
AcDbEntity
  8
A-3_受枠
  6
Continuous
 62
     4
370
    13
100
AcDbCircle
 10
6693.534232474664
 20
3264.731907200169
 30
0.0
 40
139.9999921386306
100
AcDbArc
 50
114.9949645996094
 51
67.52053833007812
  0
ARC
  5
2C5
330
1F
100
AcDbEntity
  8
A-3_受枠
  6
Continuous
 62
     4
370
    13
100
AcDbCircle
 10
2003.535090266048
 20
2804.731997928104
 30
0.0
 40
9.999999524773779
100
AcDbArc
 50
0.0
 51
180.0
  0
ARC
  5
2C6
330
1F
100
AcDbEntity
  8
A-3_受枠
  6
Continuous
 62
     4
370
    13
100
AcDbCircle
 10
2023.533176731419
 20
2804.731997928104
 30
0.0
 40
9.999999524773779
100
AcDbArc
 50
0.0
 51
180.0
  0
ARC
  5
2C7
330
1F
100
AcDbEntity
  8
A-3_受枠
  6
Continuous
 62
     4
370
    13
100
AcDbCircle
 10
2043.531263196792
 20
2804.731997928104
 30
0.0
 40
9.999999524773779
100
AcDbArc
 50
0.0
 51
180.0
  0
ARC
  5
2C8
330
1F
100
AcDbEntity
  8
A-3_受枠
  6
Continuous
 62
     4
370
    13
100
AcDbCircle
 10
2063.529349662163
 20
2804.731997928104
 30
0.0
 40
9.999999524773779
100
AcDbArc
 50
0.0
 51
180.0
  0
ARC
  5
2C9
330
1F
100
AcDbEntity
  8
A-3_受枠
  6
Continuous
 62
     2
370
    13
100
AcDbCircle
 10
2513.534545898438
 20
2714.733185639252
 30
0.0
 40
59.99999594044041
100
AcDbArc
 50
226.6585083007813
 51
133.3414916992187
  0
ARC
  5
2CA
330
1F
100
AcDbEntity
  8
A-3_受枠
  6
Continuous
 62
     2
370
    13
100
AcDbCircle
 10
2438.035707216005
 20
2794.732954695418
 30
0.0
 40
49.9999958115655
100
AcDbArc
 50
270.0
 51
313.3416595458985
  0
ARC
  5
2CB
330
1F
100
AcDbEntity
  8
A-3_受枠
  6
Continuous
 62
     2
370
    13
100
AcDbCircle
 10
2438.035707216005
 20
2634.733416583087
 30
0.0
 40
49.9999958115655
100
AcDbArc
 50
46.65834045410156
 51
90.0
  0
CIRCLE
  5
2CC
330
1F
100
AcDbEntity
  8
A-3_受枠
  6
Continuous
 62
     2
370
    13
100
AcDbCircle
 10
2513.534545898438
 20
2714.733185639252
 30
0.0
 40
29.9999979702202
  0
CIRCLE
  5
2CD
330
1F
100
AcDbEntity
  8
A-3_受枠
  6
Continuous
 62
     2
370
    13
100
AcDbCircle
 10
2513.534545898438
 20
2714.733185639252
 30
0.0
 40
24.99999790578275
  0
ARC
  5
2CE
330
1F
100
AcDbEntity
  8
A-3_受枠
  6
Continuous
 62
     4
370
    13
100
AcDbCircle
 10
2523.536063529352
 20
2714.733185639252
 30
0.0
 40
89.99953721020674
100
AcDbArc
 50
90.0
 51
160.6648712158203
  0
ARC
  5
2CF
330
1F
100
AcDbEntity
  8
A-3_受枠
  6
Continuous
 62
     4
370
    13
100
AcDbCircle
 10
2523.536063529352
 20
2714.733185639252
 30
0.0
 40
89.99953721020674
100
AcDbArc
 50
199.3351287841797
 51
270.0
  0
ARC
  5
2D0
330
1F
100
AcDbEntity
  8
A-3_受枠
  6
Continuous
 62
     2
370
    13
100
AcDbCircle
 10
2243.535634633658
 20
2714.733185639252
 30
0.0
 40
30.00022269584037
100
AcDbArc
 50
90.0
 51
270.0
  0
ARC
  5
2D1
330
1F
100
AcDbEntity
  8
A-3_受枠
  6
Continuous
 62
     4
370
    13
100
AcDbCircle
 10
2233.535354201859
 20
2714.733185639252
 30
0.0
 40
89.99953721020674
100
AcDbArc
 50
270.0
 51
340.5284881591797
  0
ARC
  5
2D2
330
1F
100
AcDbEntity
  8
A-3_受枠
  6
Continuous
 62
     4
370
    13
100
AcDbCircle
 10
2233.535354201859
 20
2714.733185639252
 30
0.0
 40
89.99953721020674
100
AcDbArc
 50
19.47151184082031
 51
90.0
  0
ARC
  5
2D3
330
1F
100
AcDbEntity
  8
A-3_受枠
  6
Continuous
 62
     4
370
    13
100
AcDbCircle
 10
2233.535354201859
 20
2714.733185639252
 30
0.0
 40
39.99987969527374
100
AcDbArc
 50
270.0
 51
311.4087371826172
  0
ARC
  5
2D4
330
1F
100
AcDbEntity
  8
A-3_受枠
  6
Continuous
 62
     4
370
    13
100
AcDbCircle
 10
2233.535354201859
 20
2714.733185639252
 30
0.0
 40
39.99987969527374
100
AcDbArc
 50
48.59126281738281
 51
90.0
  0
ARC
  5
2D5
330
1F
100
AcDbEntity
  8
A-3_受枠
  6
Continuous
 62
     4
370
    13
100
AcDbCircle
 10
2778.53517274599
 20
2714.733185639252
 30
0.0
 40
24.99999790578275
100
AcDbArc
 50
90.0
 51
270.0
  0
ARC
  5
2D6
330
1F
100
AcDbEntity
  8
A-3_受枠
  6
Continuous
 62
     4
370
    13
100
AcDbCircle
 10
3148.534413930534
 20
2714.733185639252
 30
0.0
 40
24.99999790578275
100
AcDbArc
 50
270.0
 51
90.0
  0
ARC
  5
2D7
330
1F
100
AcDbEntity
  8
A-3_受枠
  6
Continuous
 62
     4
370
    13
100
AcDbCircle
 10
2763.535370697846
 20
2714.733185639252
 30
0.0
 40
89.99953721020674
100
AcDbArc
 50
270.0
 51
343.8722991943359
  0
ARC
  5
2D8
330
1F
100
AcDbEntity
  8
A-3_受枠
  6
Continuous
 62
     4
370
    13
100
AcDbCircle
 10
2763.535370697846
 20
2714.733185639252
 30
0.0
 40
89.99953721020674
100
AcDbArc
 50
16.1273193359375
 51
90.0
  0
ARC
  5
2D9
330
1F
100
AcDbEntity
  8
A-3_受枠
  6
Continuous
 62
     4
370
    13
100
AcDbCircle
 10
2763.535370697846
 20
2714.733185639252
 30
0.0
 40
39.99987969527374
100
AcDbArc
 50
270.0
 51
321.3172149658203
  0
ARC
  5
2DA
330
1F
100
AcDbEntity
  8
A-3_受枠
  6
Continuous
 62
     4
370
    13
100
AcDbCircle
 10
2763.535370697846
 20
2714.733185639252
 30
0.0
 40
39.99987969527374
100
AcDbArc
 50
38.68098449707031
 51
90.0
  0
ARC
  5
2DB
330
1F
100
AcDbEntity
  8
A-3_受枠
  6
Continuous
 62
     4
370
    13
100
AcDbCircle
 10
3163.534215978675
 20
2714.733185639252
 30
0.0
 40
89.99953721020674
100
AcDbArc
 50
90.0
 51
163.8726806640625
  0
ARC
  5
2DC
330
1F
100
AcDbEntity
  8
A-3_受枠
  6
Continuous
 62
     4
370
    13
100
AcDbCircle
 10
3163.534215978675
 20
2714.733185639252
 30
0.0
 40
89.99953721020674
100
AcDbArc
 50
196.1277008056641
 51
270.0
  0
ARC
  5
2DD
330
1F
100
AcDbEntity
  8
A-3_受枠
  6
Continuous
 62
     4
370
    13
100
AcDbCircle
 10
3163.534215978675
 20
2714.733185639252
 30
0.0
 40
39.99988211167825
100
AcDbArc
 50
90.0
 51
141.3190155029297
  0
ARC
  5
2DE
330
1F
100
AcDbEntity
  8
A-3_受枠
  6
Continuous
 62
     4
370
    13
100
AcDbCircle
 10
3163.534215978675
 20
2714.733185639252
 30
0.0
 40
39.99988211167825
100
AcDbArc
 50
218.6827850341797
 51
270.0
  0
ARC
  5
2DF
330
1F
100
AcDbEntity
  8
A-3_受枠
  6
Continuous
 62
     4
370
    13
100
AcDbCircle
 10
2003.536327465162
 20
2754.735544565563
 30
0.0
 40
9.999999524773779
100
AcDbArc
 50
180.0
 51
0.0
  0
ARC
  5
2E0
330
1F
100
AcDbEntity
  8
A-3_受枠
  6
Continuous
 62
     4
370
    13
100
AcDbCircle
 10
2023.534413930533
 20
2754.735544565563
 30
0.0
 40
9.999999524773779
100
AcDbArc
 50
180.0
 51
0.0
  0
ARC
  5
2E1
330
1F
100
AcDbEntity
  8
A-3_受枠
  6
Continuous
 62
     4
370
    13
100
AcDbCircle
 10
2043.532500395905
 20
2754.735544565563
 30
0.0
 40
9.999999524773779
100
AcDbArc
 50
180.0
 51
0.0
  0
ARC
  5
2E2
330
1F
100
AcDbEntity
  8
A-3_受枠
  6
Continuous
 62
     4
370
    13
100
AcDbCircle
 10
2063.530586861276
 20
2754.735544565563
 30
0.0
 40
9.999999524773779
100
AcDbArc
 50
180.0
 51
0.0
  0
ARC
  5
2E3
330
1F
100
AcDbEntity
  8
A-3_受枠
  6
Continuous
 62
     4
370
    13
100
AcDbCircle
 10
2003.535090266048
 20
2624.734373350403
 30
0.0
 40
9.999999524773779
100
AcDbArc
 50
180.0
 51
0.0
  0
ARC
  5
2E4
330
1F
100
AcDbEntity
  8
A-3_受枠
  6
Continuous
 62
     4
370
    13
100
AcDbCircle
 10
2023.533176731419
 20
2624.734373350403
 30
0.0
 40
9.999999524773779
100
AcDbArc
 50
180.0
 51
0.0
  0
ARC
  5
2E5
330
1F
100
AcDbEntity
  8
A-3_受枠
  6
Continuous
 62
     4
370
    13
100
AcDbCircle
 10
2043.531263196792
 20
2624.734373350403
 30
0.0
 40
9.999999524773779
100
AcDbArc
 50
180.0
 51
0.0
  0
ARC
  5
2E6
330
1F
100
AcDbEntity
  8
A-3_受枠
  6
Continuous
 62
     4
370
    13
100
AcDbCircle
 10
2063.529349662163
 20
2624.734373350403
 30
0.0
 40
9.999999524773779
100
AcDbArc
 50
180.0
 51
0.0
  0
ARC
  5
2E7
330
1F
100
AcDbEntity
  8
A-3_受枠
  6
Continuous
 62
     4
370
    13
100
AcDbCircle
 10
2003.536327465162
 20
2674.730826712944
 30
0.0
 40
9.999999524773779
100
AcDbArc
 50
0.0
 51
180.0
  0
ARC
  5
2E8
330
1F
100
AcDbEntity
  8
A-3_受枠
  6
Continuous
 62
     4
370
    13
100
AcDbCircle
 10
2023.534413930533
 20
2674.730826712944
 30
0.0
 40
9.999999524773779
100
AcDbArc
 50
0.0
 51
180.0
  0
ARC
  5
2E9
330
1F
100
AcDbEntity
  8
A-3_受枠
  6
Continuous
 62
     4
370
    13
100
AcDbCircle
 10
2043.532500395905
 20
2674.730826712944
 30
0.0
 40
9.999999524773779
100
AcDbArc
 50
0.0
 51
180.0
  0
ARC
  5
2EA
330
1F
100
AcDbEntity
  8
A-3_受枠
  6
Continuous
 62
     4
370
    13
100
AcDbCircle
 10
2063.530586861276
 20
2674.730826712944
 30
0.0
 40
9.999999524773779
100
AcDbArc
 50
0.0
 51
180.0
  0
ARC
  5
2EB
330
1F
100
AcDbEntity
  8
A-3_受枠
  6
JWW_CENTER1
 62
     4
370
    13
100
AcDbCircle
 10
6593.533902554898
 20
2814.733515559017
 30
0.0
 40
99.99999162313101
100
AcDbArc
 50
270.0
 51
0.0
  0
ARC
  5
2EC
330
1F
100
AcDbEntity
  8
A-3_受枠
  6
Continuous
 62
     4
370
    13
100
AcDbCircle
 10
2259.530144768793
 20
-1241.270982896959
 30
0.0
 40
63.99999599199037
100
AcDbArc
 50
270.0
 51
0.0
  0
CIRCLE
  5
2ED
330
1F
100
AcDbEntity
  8
A-2_蓋
  6
Continuous
 62
     3
370
    13
100
AcDbCircle
 10
1848.53136217272
 20
2214.732773239548
 30
0.0
 40
24.99999790578275
  0
CIRCLE
  5
2EE
330
1F
100
AcDbEntity
  8
A-2_蓋
  6
Continuous
 62
     3
370
    13
100
AcDbCircle
 10
1848.53136217272
 20
1214.733185639252
 30
0.0
 40
24.99999790578275
  0
CIRCLE
  5
2EF
330
1F
100
AcDbEntity
  8
A-2_蓋
  6
Continuous
 62
     3
370
    13
100
AcDbCircle
 10
1848.53136217272
 20
214.7329794394011
 30
0.0
 40
24.99999790578275
  0
CIRCLE
  5
2F0
330
1F
100
AcDbEntity
  8
A-2_蓋
  6
Continuous
 62
     3
370
    13
100
AcDbCircle
 10
1848.53136217272
 20
-785.2666081608945
 30
0.0
 40
24.99999790578275
  0
TEXT
  5
2F1
330
1F
100
AcDbEntity
  8
A-4_寸法
  6
Continuous
 62
     7
370
    13
100
AcDbText
 10
-5554.868396654467
 20
4751.522413429056
 30
0.0
 40
114.3
  1
メインバー ＦＢ25×3 ＠12.5
 50
359.9999095068656
 41
1.160493827160494
  7
ＭＳ ゴシック
100
AcDbText
  0
TEXT
  5
2F2
330
1F
100
AcDbEntity
  8
A-4_寸法
  6
Continuous
 62
     7
370
    13
100
AcDbText
 10
-5699.495736006539
 20
5151.521258709931
 30
0.0
 40
114.3
  1
クロスバー φ５ ＠100
 50
0.000077683598576
 41
1.158730158730159
  7
ＭＳ ゴシック
100
AcDbText
  0
TEXT
  5
2F3
330
1F
100
AcDbEntity
  8
A-4_寸法
  6
Continuous
 62
     2
370
    13
100
AcDbText
 10
2953.71745341533
 20
-4094.775571091111
 30
0.0
 40
152.4
  1
仕　様
 41
1.083333333333333
  7
ＭＳ ゴシック
100
AcDbText
  0
TEXT
  5
2F4
330
1F
100
AcDbEntity
  8
A-4_寸法
  6
Continuous
 62
     2
370
    13
100
AcDbText
 10
3525.225623878273
 20
-4959.368045951225
 30
0.0
 40
152.4
  1
処理：溶融亜鉛めっき
 41
1.1125
  7
ＭＳ ゴシック
100
AcDbText
  0
TEXT
  5
2F5
330
1F
100
AcDbEntity
  8
A-4_寸法
  6
Continuous
 62
     2
370
    13
100
AcDbText
 10
3525.225995038008
 20
-4684.362189875422
 30
0.0
 40
152.4
  1
材質：ＳＳ４００＋ＳＴＫＲ４００
 41
1.1171875
  7
ＭＳ ゴシック
100
AcDbText
  0
TEXT
  5
2F6
330
1F
100
AcDbEntity
  8
A-4_寸法
  6
Continuous
 62
     7
370
    13
100
AcDbText
 10
3810.741527660474
 20
3726.149109216639
 30
0.0
 40
114.3
  1
鎖　ＳＷＲＭ　φ５×５００
 41
1.153846153846154
  7
ＭＳ ゴシック
100
AcDbText
  0
TEXT
  5
2F7
330
1F
100
AcDbEntity
  8
A-4_寸法
  6
Continuous
 62
     7
370
    13
100
AcDbText
 10
3536.15347372519
 20
3440.328895692568
 30
0.0
 40
114.3
  1
電気亜鉛めっき（光沢クロメート）
 41
1.15625
  7
ＭＳ ゴシック
100
AcDbText
  0
TEXT
  5
2F8
330
1F
100
AcDbEntity
  8
A-4_寸法
  6
Continuous
 62
     7
370
    13
100
AcDbText
 10
3557.740123851881
 20
1824.746042942357
 30
0.0
 40
114.3
  1
電気亜鉛めっき（光沢クロメート）
 41
1.15625
  7
ＭＳ ゴシック
100
AcDbText
  0
TEXT
  5
2F9
330
1F
100
AcDbEntity
  8
A-4_寸法
  6
Continuous
 62
     7
370
    13
100
AcDbText
 10
3722.842530946476
 20
2121.35648853199
 30
0.0
 40
114.3
  1
シャックル　Ｓ２０Ｃ　呼び６
 41
1.154761904761904
  7
ＭＳ ゴシック
100
AcDbText
  0
TEXT
  5
2FA
330
1F
100
AcDbEntity
  8
A-4_寸法
  6
Continuous
 62
     7
370
    13
100
AcDbText
 10
-5878.642943098738
 20
5551.522578388937
 30
0.0
 40
114.3
  1
エンドプレート ＦＢ19×3
 41
1.159722222222222
  7
ＭＳ ゴシック
100
AcDbText
  0
TEXT
  5
2FB
330
1F
100
AcDbEntity
  8
A-4_寸法
  6
Continuous
 62
     2
370
    13
100
AcDbText
 10
3226.663744127428
 20
-4409.378603383657
 30
0.0
 40
152.4
  1
圧接式細目かさ上げグレーチング　ＱＳＣＤ　４５０
 41
1.119791666666667
  7
ＭＳ ゴシック
100
AcDbText
  0
TEXT
  5
2FC
330
1F
100
AcDbEntity
  8
A-4_寸法
  6
Continuous
 62
     2
370
    13
100
AcDbText
 10
1842.281073492927
 20
-1875.917728568412
 30
0.0
 40
152.4
  1
25
 41
1.0625
  7
ＭＳ ゴシック
100
AcDbText
  0
TEXT
  5
2FD
330
1F
100
AcDbEntity
  8
A-4_寸法
  6
Continuous
 62
     2
370
    13
100
AcDbText
 10
2092.280661093223
 20
-1875.917728568412
 30
0.0
 40
152.4
  1
25
 41
1.0625
  7
ＭＳ ゴシック
100
AcDbText
  0
TEXT
  5
2FE
330
1F
100
AcDbEntity
  8
A-4_寸法
  6
Continuous
 62
     2
370
    13
100
AcDbText
 10
1967.281485892632
 20
-2173.945385742188
 30
0.0
 40
152.4
  1
50
 41
1.0625
  7
ＭＳ ゴシック
100
AcDbText
  0
TEXT
  5
2FF
330
1F
100
AcDbEntity
  8
A-4_寸法
  6
Continuous
 62
     2
370
    13
100
AcDbText
 10
2645.908146584854
 20
3941.651956511216
 30
0.0
 40
152.4
  1
7
 50
90.00000250447816
 41
1.000000000000001
  7
ＭＳ ゴシック
100
AcDbText
  0
TEXT
  5
300
330
1F
100
AcDbEntity
  8
A-4_寸法
  6
Continuous
 62
     2
370
    13
100
AcDbText
 10
2645.908149043619
 20
3428.480198632732
 30
0.0
 40
152.4
  1
40
 50
90.00000250447816
 41
1.062500000000001
  7
ＭＳ ゴシック
100
AcDbText
  0
TEXT
  5
301
330
1F
100
AcDbEntity
  8
A-4_寸法
  6
Continuous
 62
     2
370
    13
100
AcDbText
 10
2645.908149043619
 20
-1211.519397215557
 30
0.0
 40
152.4
  1
40
 50
90.00000250447816
 41
1.0625
  7
ＭＳ ゴシック
100
AcDbText
  0
TEXT
  5
302
330
1F
100
AcDbEntity
  8
A-4_寸法
  6
Continuous
 62
     2
370
    13
100
AcDbText
 10
2645.908146584854
 20
-1588.505905971629
 30
0.0
 40
152.4
  1
7
 50
90.00000250447816
 41
0.9999999999999991
  7
ＭＳ ゴシック
100
AcDbText
  0
TEXT
  5
303
330
1F
100
AcDbEntity
  8
A-4_寸法
  6
Continuous
 62
     7
370
    13
100
AcDbText
 10
2963.426785855681
 20
5276.808701303844
 30
0.0
 40
114.3
  1
かさ上げ材：□４０×２５×３．２
 41
1.15625
  7
ＭＳ ゴシック
100
AcDbText
  0
TEXT
  5
304
330
1F
100
AcDbEntity
  8
A-5_仕様文
  6
Continuous
 62
     2
370
    13
100
AcDbText
 10
-3885.318417935759
 20
-6759.126390034444
 30
0.0
 40
152.4
  1
スチール製グレーチング圧接式細目東京都住宅局型ＣＤます用　ＱＳＣＤ　４５０
 41
0.7743243243243242
  7
ＭＳ ゴシック
100
AcDbText
  0
TEXT
  5
305
330
1F
100
AcDbEntity
  8
A-4_寸法
  6
Continuous
 62
     2
370
    13
100
AcDbText
 10
-3785.764848863756
 20
4171.52267142631
 30
0.0
 40
152.4
  1
12.5
 41
1.09375
  7
ＭＳ ゴシック
100
AcDbText
  0
TEXT
  5
306
330
1F
100
AcDbEntity
  8
A-4_寸法
  6
Continuous
 62
     2
370
    13
100
AcDbText
 10
-5051.419108622783
 20
-1875.918347167969
 30
0.0
 40
152.4
  1
506
 41
1.083333333333333
  7
ＭＳ ゴシック
100
AcDbText
  0
TEXT
  5
307
330
1F
100
AcDbEntity
  8
A-4_寸法
  6
Continuous
 62
     7
370
    13
100
AcDbText
 10
3666.859106115393
 20
4958.588717403928
 30
0.0
 40
114.3
  1
（Ｌ＝４９６）
 41
1.142857142857143
  7
ＭＳ ゴシック
100
AcDbText
  0
TEXT
  5
308
330
1F
100
AcDbEntity
  8
A-4_寸法
  6
Continuous
 62
     2
370
    13
100
AcDbText
 10
2645.908151502385
 20
1052.230091408809
 30
0.0
 40
152.4
  1
424
 50
90.00000250447816
 41
1.083333333333333
  7
ＭＳ ゴシック
100
AcDbText
  0
TEXT
  5
309
330
1F
100
AcDbEntity
  8
A-4_寸法
  6
Continuous
 62
     2
370
    13
100
AcDbText
 10
1231.528516129706
 20
1052.230091408809
 30
0.0
 40
152.4
  1
518
 50
90.00000250447816
 41
1.083333333333333
  7
ＭＳ ゴシック
100
AcDbText
  0
LWPOLYLINE
  5
30A
330
1F
100
AcDbEntity
  8
A-4_寸法
  6
Continuous
 62
     7
370
    13
100
AcDbPolyline
 90
        4
 70
     1
 43
5.0
 10
-7416.418918918918
 20
-1934.118569863808
 42
0.4142135623731
 10
-7418.918918918919
 20
-1931.618569863809
 42
0.4142135623731
 10
-7421.41891891892
 20
-1934.118569863808
 42
0.4142135623731
 10
-7418.918918918919
 20
-1936.618569863808
 42
0.4142135623731
  0
LWPOLYLINE
  5
30B
330
1F
100
AcDbEntity
  8
A-4_寸法
  6
Continuous
 62
     7
370
    13
100
AcDbPolyline
 90
        4
 70
     1
 43
5.0
 10
-2356.419298326647
 20
-1934.118569863808
 42
0.4142135623731
 10
-2358.919298326647
 20
-1931.618569863809
 42
0.4142135623731
 10
-2361.419298326647
 20
-1934.118569863808
 42
0.4142135623731
 10
-2358.919298326647
 20
-1936.618569863808
 42
0.4142135623731
  0
LWPOLYLINE
  5
30C
330
1F
100
AcDbEntity
  8
A-4_寸法
  6
Continuous
 62
     7
370
    13
100
AcDbPolyline
 90
        4
 70
     1
 43
5.0
 10
1292.228113122889
 20
-1375.26954444679
 42
0.4142135623731
 10
1289.728113122889
 20
-1372.76954444679
 42
0.4142135623731
 10
1287.228113122889
 20
-1375.26954444679
 42
0.4142135623731
 10
1289.728113122889
 20
-1377.76954444679
 42
0.4142135623731
  0
LWPOLYLINE
  5
30D
330
1F
100
AcDbEntity
  8
A-4_寸法
  6
Continuous
 62
     7
370
    13
100
AcDbPolyline
 90
        4
 70
     1
 43
5.0
 10
1292.228113122889
 20
3804.72972972973
 42
0.4142135623731
 10
1289.728113122889
 20
3807.22972972973
 42
0.4142135623731
 10
1287.228113122889
 20
3804.72972972973
 42
0.4142135623731
 10
1289.728113122889
 20
3802.22972972973
 42
0.4142135623731
  0
LWPOLYLINE
  5
30E
330
1F
100
AcDbEntity
  8
A-4_寸法
  6
Continuous
 62
     7
370
    13
100
AcDbPolyline
 90
        4
 70
     1
 43
5.0
 10
1826.03127969278
 20
-1934.117951264252
 42
0.4142135623731
 10
1823.53127969278
 20
-1931.617951264252
 42
0.4142135623731
 10
1821.03127969278
 20
-1934.117951264252
 42
0.4142135623731
 10
1823.53127969278
 20
-1936.617951264252
 42
0.4142135623731
  0
LWPOLYLINE
  5
30F
330
1F
100
AcDbEntity
  8
A-4_寸法
  6
Continuous
 62
     7
370
    13
100
AcDbPolyline
 90
        4
 70
     1
 43
5.0
 10
2076.030867293076
 20
-1934.117951264252
 42
0.4142135623731
 10
2073.530867293076
 20
-1931.617951264252
 42
0.4142135623731
 10
2071.030867293076
 20
-1934.117951264252
 42
0.4142135623731
 10
2073.530867293076
 20
-1936.617951264252
 42
0.4142135623731
  0
LWPOLYLINE
  5
310
330
1F
100
AcDbEntity
  8
A-4_寸法
  6
Continuous
 62
     7
370
    13
100
AcDbPolyline
 90
        4
 70
     1
 43
5.0
 10
2326.03045489337
 20
-1934.117951264252
 42
0.4142135623731
 10
2323.53045489337
 20
-1931.617951264252
 42
0.4142135623731
 10
2321.03045489337
 20
-1934.117951264252
 42
0.4142135623731
 10
2323.53045489337
 20
-1936.617951264252
 42
0.4142135623731
  0
LWPOLYLINE
  5
311
330
1F
100
AcDbEntity
  8
A-4_寸法
  6
Continuous
 62
     7
370
    13
100
AcDbPolyline
 90
        4
 70
     1
 43
5.0
 10
1826.03127969278
 20
-2232.145608438027
 42
0.4142135623731
 10
1823.53127969278
 20
-2229.645608438027
 42
0.4142135623731
 10
1821.03127969278
 20
-2232.145608438027
 42
0.4142135623731
 10
1823.53127969278
 20
-2234.645608438027
 42
0.4142135623731
  0
LWPOLYLINE
  5
312
330
1F
100
AcDbEntity
  8
A-4_寸法
  6
Continuous
 62
     7
370
    13
100
AcDbPolyline
 90
        4
 70
     1
 43
5.0
 10
2326.03045489337
 20
-2232.145608438027
 42
0.4142135623731
 10
2323.53045489337
 20
-2229.645608438027
 42
0.4142135623731
 10
2321.03045489337
 20
-2232.145608438027
 42
0.4142135623731
 10
2323.53045489337
 20
-2234.645608438027
 42
0.4142135623731
  0
LWPOLYLINE
  5
313
330
1F
100
AcDbEntity
  8
A-4_寸法
  6
Continuous
 62
     7
370
    13
100
AcDbPolyline
 90
        4
 70
     1
 43
5.0
 10
2706.607748495568
 20
3804.72972972973
 42
0.4142135623731
 10
2704.107748495568
 20
3807.22972972973
 42
0.4142135623731
 10
2701.607748495568
 20
3804.72972972973
 42
0.4142135623731
 10
2704.107748495568
 20
3802.22972972973
 42
0.4142135623731
  0
LWPOLYLINE
  5
314
330
1F
100
AcDbEntity
  8
A-4_寸法
  6
Continuous
 62
     7
370
    13
100
AcDbPolyline
 90
        4
 70
     1
 43
5.0
 10
2706.607748495568
 20
3734.730241105363
 42
0.4142135623731
 10
2704.107748495568
 20
3737.230241105363
 42
0.4142135623731
 10
2701.607748495568
 20
3734.730241105363
 42
0.4142135623731
 10
2704.107748495568
 20
3732.230241105363
 42
0.4142135623731
  0
LWPOLYLINE
  5
315
330
1F
100
AcDbEntity
  8
A-4_寸法
  6
Continuous
 62
     7
370
    13
100
AcDbPolyline
 90
        4
 70
     1
 43
5.0
 10
2706.607748495568
 20
3334.730158625423
 42
0.4142135623731
 10
2704.107748495568
 20
3337.230158625423
 42
0.4142135623731
 10
2701.607748495568
 20
3334.730158625423
 42
0.4142135623731
 10
2704.107748495568
 20
3332.230158625423
 42
0.4142135623731
  0
LWPOLYLINE
  5
316
330
1F
100
AcDbEntity
  8
A-4_寸法
  6
Continuous
 62
     7
370
    13
100
AcDbPolyline
 90
        4
 70
     1
 43
5.0
 10
2706.607748495568
 20
-905.2693547429258
 42
0.4142135623731
 10
2704.107748495568
 20
-902.7693547429257
 42
0.4142135623731
 10
2701.607748495568
 20
-905.2693547429258
 42
0.4142135623731
 10
2704.107748495568
 20
-907.7693547429258
 42
0.4142135623731
  0
LWPOLYLINE
  5
317
330
1F
100
AcDbEntity
  8
A-4_寸法
  6
Continuous
 62
     7
370
    13
100
AcDbPolyline
 90
        4
 70
     1
 43
5.0
 10
2706.607748495568
 20
-1305.270055822424
 42
0.4142135623731
 10
2704.107748495568
 20
-1302.770055822424
 42
0.4142135623731
 10
2701.607748495568
 20
-1305.270055822424
 42
0.4142135623731
 10
2704.107748495568
 20
-1307.770055822424
 42
0.4142135623731
  0
LWPOLYLINE
  5
318
330
1F
100
AcDbEntity
  8
A-4_寸法
  6
Continuous
 62
     7
370
    13
100
AcDbPolyline
 90
        4
 70
     1
 43
5.0
 10
2706.607748495568
 20
-1375.26954444679
 42
0.4142135623731
 10
2704.107748495568
 20
-1372.76954444679
 42
0.4142135623731
 10
2701.607748495568
 20
-1375.26954444679
 42
0.4142135623731
 10
2704.107748495568
 20
-1377.76954444679
 42
0.4142135623731
  0
LWPOLYLINE
  5
319
330
1F
100
AcDbEntity
  8
A-4_寸法
  6
Continuous
 62
     7
370
    13
100
AcDbPolyline
 90
        4
 70
     1
 43
5.0
 10
-3627.416216876056
 20
4113.323067330026
 42
0.4142135623731
 10
-3629.916216876056
 20
4115.823067330026
 42
0.4142135623731
 10
-3632.416216876056
 20
4113.323067330026
 42
0.4142135623731
 10
-3629.916216876056
 20
4110.823067330026
 42
0.4142135623731
  0
LWPOLYLINE
  5
31A
330
1F
100
AcDbEntity
  8
A-4_寸法
  6
Continuous
 62
     7
370
    13
100
AcDbPolyline
 90
        4
 70
     1
 43
5.0
 10
-3501.614099451013
 20
4113.323067330026
 42
0.4142135623731
 10
-3504.114099451013
 20
4115.823067330026
 42
0.4142135623731
 10
-3506.614099451013
 20
4113.323067330026
 42
0.4142135623731
 10
-3504.114099451013
 20
4110.823067330026
 42
0.4142135623731
  0
LINE
  5
31B
330
1F
100
AcDbEntity
  8
A-4_寸法
  6
Continuous
 62
     7
370
    13
100
AcDbLine
 10
3583.301028689823
 20
1274.968698862438
 30
0.0
 11
5568.49052055169
 21
1274.968698862438
 31
0.0
  0
TEXT
  5
31C
330
1F
100
AcDbEntity
  8
A-4_寸法
  6
Continuous
 62
     7
370
    13
100
AcDbText
 10
3975.895774620756
 20
1086.111572595547
 30
0.0
 40
114.3
  1
溶融亜鉛めっき
 41
1.142857142857144
  7
ＭＳ ゴシック
100
AcDbText
  0
TEXT
  5
31D
330
1F
100
AcDbEntity
  8
A-4_寸法
  6
Continuous
 62
     7
370
    13
100
AcDbText
 10
3625.895774620757
 20
1347.511950023755
 30
0.0
 40
114.3
  1
鎖ピン　ＳＷＲＭ　φ５
 41
1.151515151515151
  7
ＭＳ ゴシック
100
AcDbText
  0
ENDSEC
  0
SECTION
  2
OBJECTS
  0
DICTIONARY
  5
C
330
0
100
AcDbDictionary
281
     1
  3
ACAD_GROUP
350
D
  3
ACAD_LAYOUT
350
1A
  3
ACAD_MLEADERSTYLE
350
31F
  3
ACAD_MLINESTYLE
350
17
  3
ACAD_PLOTSETTINGS
350
19
  3
ACAD_PLOTSTYLENAME
350
E
  3
ACAD_TABLESTYLE
350
31E
  3
ACAD_VISUALSTYLE
350
2A
  0
DICTIONARY
  5
D
102
{ACAD_REACTORS
330
C
102
}
330
C
100
AcDbDictionary
281
     1
  0
DICTIONARY
  5
1A
102
{ACAD_REACTORS
330
C
102
}
330
C
100
AcDbDictionary
281
     1
  3
Layout1
350
1E
  3
Layout2
350
26
  3
Model
350
22
  0
DICTIONARY
  5
31F
102
{ACAD_REACTORS
330
C
102
}
330
C
100
AcDbDictionary
281
     1
  0
DICTIONARY
  5
17
102
{ACAD_REACTORS
330
C
102
}
330
C
100
AcDbDictionary
281
     1
  3
Standard
350
18
  0
DICTIONARY
  5
19
102
{ACAD_REACTORS
330
C
102
}
330
C
100
AcDbDictionary
281
     1
  0
ACDBDICTIONARYWDFLT
  5
E
102
{ACAD_REACTORS
330
C
102
}
330
C
100
AcDbDictionary
281
     1
  3
Normal
350
F
100
AcDbDictionaryWithDefault
340
F
  0
DICTIONARY
  5
31E
102
{ACAD_REACTORS
330
C
102
}
330
C
100
AcDbDictionary
281
     1
  0
DICTIONARY
  5
2A
102
{ACAD_REACTORS
330
C
102
}
330
C
100
AcDbDictionary
281
     1
  3
2dWireframe
350
2F
  3
3D Hidden
350
31
  3
3dWireframe
350
30
  3
Basic
350
32
  3
Brighten
350
36
  3
ColorChange
350
3A
  3
Conceptual
350
34
  3
Dim
350
35
  3
Facepattern
350
39
  3
Flat
350
2B
  3
FlatWithEdges
350
2C
  3
Gouraud
350
2D
  3
GouraudWithEdges
350
2E
  3
Linepattern
350
38
  3
Realistic
350
33
  3
Thicken
350
37
  0
LAYOUT
  5
1E
102
{ACAD_REACTORS
330
1A
102
}
330
1A
100
AcDbPlotSettings
  1

  2
none_device
  4

  6

 40
0.0
 41
0.0
 42
0.0
 43
0.0
 44
0.0
 45
0.0
 46
0.0
 47
0.0
 48
0.0
 49
0.0
140
0.0
141
0.0
142
1.0
143
1.0
 70
   688
 72
     0
 73
     0
 74
     5
  7

 75
    16
 76
     0
 77
     5
 78
   300
147
1.0
148
0.0
149
0.0
100
AcDbLayout
  1
Layout1
 70
     1
 71
     1
 10
0.0
 20
0.0
 11
420.0
 21
297.0
 12
0.0
 22
0.0
 32
0.0
 14
1.000000000000000E+20
 24
1.000000000000000E+20
 34
1.000000000000000E+20
 15
-1.000000000000000E+20
 25
-1.000000000000000E+20
 35
-1.000000000000000E+20
146
0.0
 13
0.0
 23
0.0
 33
0.0
 16
1.0
 26
0.0
 36
0.0
 17
0.0
 27
1.0
 37
0.0
 76
     0
330
1B
  0
LAYOUT
  5
26
102
{ACAD_REACTORS
330
1A
102
}
330
1A
100
AcDbPlotSettings
  1

  2
none_device
  4

  6

 40
0.0
 41
0.0
 42
0.0
 43
0.0
 44
0.0
 45
0.0
 46
0.0
 47
0.0
 48
0.0
 49
0.0
140
0.0
141
0.0
142
1.0
143
1.0
 70
   688
 72
     0
 73
     0
 74
     5
  7

 75
    16
 76
     0
 77
     5
 78
   300
147
1.0
148
0.0
149
0.0
100
AcDbLayout
  1
Layout2
 70
     1
 71
     2
 10
0.0
 20
0.0
 11
0.0
 21
0.0
 12
0.0
 22
0.0
 32
0.0
 14
0.0
 24
0.0
 34
0.0
 15
0.0
 25
0.0
 35
0.0
146
0.0
 13
0.0
 23
0.0
 33
0.0
 16
1.0
 26
0.0
 36
0.0
 17
0.0
 27
1.0
 37
0.0
 76
     0
330
23
  0
LAYOUT
  5
22
102
{ACAD_REACTORS
330
1A
102
}
330
1A
100
AcDbPlotSettings
  1

  2
none_device
  4

  6

 40
0.0
 41
0.0
 42
0.0
 43
0.0
 44
0.0
 45
0.0
 46
0.0
 47
0.0
 48
0.0
 49
0.0
140
0.0
141
0.0
142
1.0
143
1.0
 70
  1712
 72
     0
 73
     0
 74
     0
  7

 75
     0
 76
     0
 77
     5
 78
   300
147
1.0
148
0.0
149
0.0
100
AcDbLayout
  1
Model
 70
     1
 71
     0
 10
-10500.0
 20
-7425.0
 11
10500.0
 21
7425.0
 12
0.0
 22
0.0
 32
0.0
 14
-10500.0
 24
-7425.0
 34
0.0
 15
10500.0
 25
7425.0
 35
0.0
146
0.0
 13
0.0
 23
0.0
 33
0.0
 16
1.0
 26
0.0
 36
0.0
 17
0.0
 27
1.0
 37
0.0
 76
     0
330
1F
331
29
  0
MLINESTYLE
  5
18
102
{ACAD_REACTORS
330
17
102
}
330
17
100
AcDbMlineStyle
  2
Standard
 70
     0
  3

 62
   256
 51
90.0
 52
90.0
 71
     2
 49
0.5
 62
   256
  6
BYLAYER
 49
-0.5
 62
   256
  6
BYLAYER
  0
ACDBPLACEHOLDER
  5
F
102
{ACAD_REACTORS
330
E
102
}
330
E
  0
VISUALSTYLE
  5
2F
102
{ACAD_REACTORS
330
2A
102
}
330
2A
100
AcDbVisualStyle
  2
2dWireframe
 70
     4
 71
     0
 72
     2
 73
     0
 90
        0
 40
-0.6
 41
-30.0
 62
     5
 63
     7
421
 16777215
 74
     1
 91
        4
 64
     7
 65
   257
 75
     1
175
     1
 42
1.0
 92
        0
 66
   257
 43
1.0
 76
     1
 77
     6
 78
     2
 67
     7
 79
     5
170
     0
171
     0
290
     0
174
     0
 93
        1
 44
0.0
173
     0
291
     0
 45
0.0
1001
ACAD
1000
AcDbSavedByObjectVersion
1070
     0
  0
VISUALSTYLE
  5
31
102
{ACAD_REACTORS
330
2A
102
}
330
2A
100
AcDbVisualStyle
  2
3D Hidden
 70
     6
 71
     1
 72
     2
 73
     2
 90
        0
 40
-0.6
 41
-30.0
 62
     5
 63
     7
421
 16777215
 74
     2
 91
        2
 64
     7
 65
   257
 75
     2
175
     1
 42
40.0
 92
        0
 66
   257
 43
1.0
 76
     1
 77
     6
 78
     2
 67
     7
 79
     3
170
     0
171
     0
290
     0
174
     0
 93
        1
 44
0.0
173
     0
291
     0
 45
0.0
1001
ACAD
1000
AcDbSavedByObjectVersion
1070
     0
  0
VISUALSTYLE
  5
30
102
{ACAD_REACTORS
330
2A
102
}
330
2A
100
AcDbVisualStyle
  2
3dWireframe
 70
     5
 71
     0
 72
     2
 73
     0
 90
        0
 40
-0.6
 41
-30.0
 62
     5
 63
     7
421
 16777215
 74
     1
 91
        4
 64
     7
 65
   257
 75
     1
175
     1
 42
1.0
 92
        0
 66
   257
 43
1.0
 76
     1
 77
     6
 78
     2
 67
     7
 79
     5
170
     0
171
     0
290
     0
174
     0
 93
        1
 44
0.0
173
     0
291
     0
 45
0.0
1001
ACAD
1000
AcDbSavedByObjectVersion
1070
     0
  0
VISUALSTYLE
  5
32
102
{ACAD_REACTORS
330
2A
102
}
330
2A
100
AcDbVisualStyle
  2
Basic
 70
     7
 71
     1
 72
     0
 73
     1
 90
        0
 40
-0.6
 41
-30.0
 62
     5
 63
     7
421
 16777215
 74
     0
 91
        4
 64
     7
 65
   257
 75
     1
175
     1
 42
1.0
 92
        8
 66
     7
 43
1.0
 76
     1
 77
     6
 78
     2
 67
     7
 79
     5
170
     0
171
     0
290
     0
174
     0
 93
        1
 44
0.0
173
     0
291
     1
 45
0.0
1001
ACAD
1000
AcDbSavedByObjectVersion
1070
     0
  0
VISUALSTYLE
  5
36
102
{ACAD_REACTORS
330
2A
102
}
330
2A
100
AcDbVisualStyle
  2
Brighten
 70
    12
 71
     2
 72
     2
 73
     0
 90
        0
 40
-0.6
 41
-30.0
 62
     5
 63
     7
421
 16777215
 74
     1
 91
        4
 64
     7
 65
   257
 75
     1
175
     1
 42
1.0
 92
        8
 66
     7
 43
1.0
 76
     1
 77
     6
 78
     2
 67
     7
 79
     5
170
     0
171
     0
290
     0
174
     0
 93
        1
 44
50.0
173
     0
291
     1
 45
0.0
1001
ACAD
1000
AcDbSavedByObjectVersion
1070
     0
  0
VISUALSTYLE
  5
3A
102
{ACAD_REACTORS
330
2A
102
}
330
2A
100
AcDbVisualStyle
  2
ColorChange
 70
    16
 71
     2
 72
     2
 73
     3
 90
        0
 40
-0.6
 41
-30.0
 62
     5
 63
     8
421
  8421504
 74
     1
 91
        4
 64
     7
 65
   257
 75
     1
175
     1
 42
1.0
 92
        8
 66
     8
424
  8421504
 43
1.0
 76
     1
 77
     6
 78
     2
 67
     7
 79
     5
170
     0
171
     0
290
     0
174
     0
 93
        1
 44
0.0
173
     0
291
     1
 45
0.0
1001
ACAD
1000
AcDbSavedByObjectVersion
1070
     0
  0
VISUALSTYLE
  5
34
102
{ACAD_REACTORS
330
2A
102
}
330
2A
100
AcDbVisualStyle
  2
Conceptual
 70
     9
 71
     3
 72
     2
 73
     0
 90
        0
 40
-0.6
 41
-30.0
 62
     5
 63
     7
421
 16777215
 74
     2
 91
        2
 64
     7
 65
   257
 75
     1
175
     1
 42
40.0
 92
        8
 66
     7
 43
1.0
 76
     1
 77
     6
 78
     2
 67
     7
 79
     3
170
     0
171
     0
290
     0
174
     0
 93
        1
 44
0.0
173
     0
291
     0
 45
0.0
1001
ACAD
1000
AcDbSavedByObjectVersion
1070
     0
  0
VISUALSTYLE
  5
35
102
{ACAD_REACTORS
330
2A
102
}
330
2A
100
AcDbVisualStyle
  2
Dim
 70
    11
 71
     2
 72
     2
 73
     0
 90
        0
 40
-0.6
 41
-30.0
 62
     5
 63
     7
421
 16777215
 74
     1
 91
        4
 64
     7
 65
   257
 75
     1
175
     1
 42
1.0
 92
        8
 66
     7
 43
1.0
 76
     1
 77
     6
 78
     2
 67
     7
 79
     5
170
     0
171
     0
290
     0
174
     0
 93
        1
 44
-50.0
173
     0
291
     1
 45
0.0
1001
ACAD
1000
AcDbSavedByObjectVersion
1070
     0
  0
VISUALSTYLE
  5
39
102
{ACAD_REACTORS
330
2A
102
}
330
2A
100
AcDbVisualStyle
  2
Facepattern
 70
    15
 71
     2
 72
     2
 73
     0
 90
        0
 40
-0.6
 41
-30.0
 62
     5
 63
     7
421
 16777215
 74
     1
 91
        4
 64
     7
 65
   257
 75
     1
175
     1
 42
1.0
 92
        8
 66
     7
 43
1.0
 76
     1
 77
     6
 78
     2
 67
     7
 79
     5
170
     0
171
     0
290
     0
174
     0
 93
        1
 44
0.0
173
     0
291
     1
 45
0.0
1001
ACAD
1000
AcDbSavedByObjectVersion
1070
     0
  0
VISUALSTYLE
  5
2B
102
{ACAD_REACTORS
330
2A
102
}
330
2A
100
AcDbVisualStyle
  2
Flat
 70
     0
 71
     2
 72
     1
 73
     1
 90
        2
 40
-0.6
 41
30.0
 62
     5
 63
     7
421
 16777215
 74
     0
 91
        4
 64
     7
 65
   257
 75
     1
175
     1
 42
1.0
 92
        8
 66
     7
 43
1.0
 76
     1
 77
     6
 78
     2
 67
     7
 79
     5
170
     0
171
     0
290
     0
174
     0
 93
       13
 44
0.0
173
     0
291
     1
 45
0.0
1001
ACAD
1000
AcDbSavedByObjectVersion
1070
     0
  0
VISUALSTYLE
  5
2C
102
{ACAD_REACTORS
330
2A
102
}
330
2A
100
AcDbVisualStyle
  2
FlatWithEdges
 70
     1
 71
     2
 72
     1
 73
     1
 90
        2
 40
-0.6
 41
30.0
 62
     5
 63
     7
421
 16777215
 74
     1
 91
        4
 64
     7
 65
   257
 75
     1
175
     1
 42
1.0
 92
        0
 66
   257
 43
1.0
 76
     1
 77
     6
 78
     2
 67
     7
 79
     5
170
     0
171
     0
290
     0
174
     0
 93
       13
 44
0.0
173
     0
291
     1
 45
0.0
1001
ACAD
1000
AcDbSavedByObjectVersion
1070
     0
  0
VISUALSTYLE
  5
2D
102
{ACAD_REACTORS
330
2A
102
}
330
2A
100
AcDbVisualStyle
  2
Gouraud
 70
     2
 71
     2
 72
     2
 73
     1
 90
        2
 40
-0.6
 41
30.0
 62
     5
 63
     7
421
 16777215
 74
     0
 91
        4
 64
     7
 65
   257
 75
     1
175
     1
 42
1.0
 92
        0
 66
     7
 43
1.0
 76
     1
 77
     6
 78
     2
 67
     7
 79
     5
170
     0
171
     0
290
     0
174
     0
 93
       13
 44
0.0
173
     0
291
     1
 45
0.0
1001
ACAD
1000
AcDbSavedByObjectVersion
1070
     0
  0
VISUALSTYLE
  5
2E
102
{ACAD_REACTORS
330
2A
102
}
330
2A
100
AcDbVisualStyle
  2
GouraudWithEdges
 70
     3
 71
     2
 72
     2
 73
     1
 90
        2
 40
-0.6
 41
30.0
 62
     5
 63
     7
421
 16777215
 74
     1
 91
        4
 64
     7
 65
   257
 75
     1
175
     1
 42
1.0
 92
        0
 66
   257
 43
1.0
 76
     1
 77
     6
 78
     2
 67
     7
 79
     5
170
     0
171
     0
290
     0
174
     0
 93
       13
 44
0.0
173
     0
291
     1
 45
0.0
1001
ACAD
1000
AcDbSavedByObjectVersion
1070
     0
  0
VISUALSTYLE
  5
38
102
{ACAD_REACTORS
330
2A
102
}
330
2A
100
AcDbVisualStyle
  2
Linepattern
 70
    14
 71
     2
 72
     2
 73
     0
 90
        0
 40
-0.6
 41
-30.0
 62
     5
 63
     7
421
 16777215
 74
     1
 91
        4
 64
     7
 65
   257
 75
     7
175
     7
 42
1.0
 92
        8
 66
     7
 43
1.0
 76
     1
 77
     6
 78
     2
 67
     7
 79
     5
170
     0
171
     0
290
     0
174
     0
 93
        1
 44
0.0
173
     0
291
     1
 45
0.0
1001
ACAD
1000
AcDbSavedByObjectVersion
1070
     0
  0
VISUALSTYLE
  5
33
102
{ACAD_REACTORS
330
2A
102
}
330
2A
100
AcDbVisualStyle
  2
Realistic
 70
     8
 71
     2
 72
     2
 73
     0
 90
        0
 40
-0.6
 41
-30.0
 62
     5
 63
     7
421
 16777215
 74
     1
 91
        0
 64
     7
 65
   257
 75
     1
175
     1
 42
1.0
 92
        8
 66
     8
424
  7895160
 43
1.0
 76
     1
 77
     6
 78
     2
 67
     7
 79
     5
170
     0
171
     0
290
     0
174
     0
 93
       13
 44
0.0
173
     0
291
     0
 45
0.0
1001
ACAD
1000
AcDbSavedByObjectVersion
1070
     0
  0
VISUALSTYLE
  5
37
102
{ACAD_REACTORS
330
2A
102
}
330
2A
100
AcDbVisualStyle
  2
Thicken
 70
    13
 71
     2
 72
     2
 73
     0
 90
        0
 40
-0.6
 41
-30.0
 62
     5
 63
     7
421
 16777215
 74
     1
 91
        4
 64
     7
 65
   257
 75
     1
175
     1
 42
1.0
 92
       12
 66
     7
 43
1.0
 76
     1
 77
     6
 78
     2
 67
     7
 79
     5
170
     0
171
     0
290
     0
174
     0
 93
        1
 44
0.0
173
     0
291
     1
 45
0.0
1001
ACAD
1000
AcDbSavedByObjectVersion
1070
     0
  0
ENDSEC
  0
EOF
