  0
SECTION
  2
HEADER
  9
$ACADVER
  1
AC1018
  9
$ACADMAINTVER
 70
     0
  9
$DWGCODEPAGE
  3
ANSI_932
  9
$INSBASE
 10
0.0
 20
0.0
 30
0.0
  9
$EXTMIN
 10
-2100.0
 20
-1485.0
 30
0.0
  9
$EXTMAX
 10
2100.0
 20
1485.0
 30
0.0
  9
$LIMMIN
 10
-2100.0
 20
-1485.0
  9
$LIMMAX
 10
2100.0
 20
1485.0
  9
$ORTHOMODE
 70
     0
  9
$REGENMODE
 70
     1
  9
$FILLMODE
 70
     1
  9
$QTEXTMODE
 70
     0
  9
$MIRRTEXT
 70
     1
  9
$LTSCALE
 40
10.0
  9
$ATTMODE
 70
     1
  9
$TEXTSIZE
 40
2.5
  9
$TRACEWID
 40
1.0
  9
$TEXTSTYLE
  7
Standard
  9
$CLAYER
  8
0
  9
$CELTYPE
  6
ByLayer
  9
$CECOLOR
 62
   256
  9
$CELTSCALE
 40
1.0
  9
$DISPSILH
 70
     0
  9
$DIMSCALE
 40
1.0
  9
$DIMASZ
 40
2.5
  9
$DIMEXO
 40
0.625
  9
$DIMDLI
 40
3.75
  9
$DIMRND
 40
0.0
  9
$DIMDLE
 40
0.0
  9
$DIMEXE
 40
1.25
  9
$DIMTP
 40
0.0
  9
$DIMTM
 40
0.0
  9
$DIMTXT
 40
2.5
  9
$DIMCEN
 40
2.5
  9
$DIMTSZ
 40
0.0
  9
$DIMTOL
 70
     0
  9
$DIMLIM
 70
     0
  9
$DIMTIH
 70
     0
  9
$DIMTOH
 70
     0
  9
$DIMSE1
 70
     0
  9
$DIMSE2
 70
     0
  9
$DIMTAD
 70
     1
  9
$DIMZIN
 70
     8
  9
$DIMBLK
  1

  9
$DIMASO
 70
     1
  9
$DIMSHO
 70
     1
  9
$DIMPOST
  1

  9
$DIMAPOST
  1

  9
$DIMALT
 70
     0
  9
$DIMALTD
 70
     3
  9
$DIMALTF
 40
0.03937007874016
  9
$DIMLFAC
 40
1.0
  9
$DIMTOFL
 70
     1
  9
$DIMTVP
 40
0.0
  9
$DIMTIX
 70
     0
  9
$DIMSOXD
 70
     0
  9
$DIMSAH
 70
     0
  9
$DIMBLK1
  1

  9
$DIMBLK2
  1

  9
$DIMSTYLE
  2
ISO-25
  9
$DIMCLRD
 70
     0
  9
$DIMCLRE
 70
     0
  9
$DIMCLRT
 70
     0
  9
$DIMTFAC
 40
1.0
  9
$DIMGAP
 40
0.625
  9
$DIMJUST
 70
     0
  9
$DIMSD1
 70
     0
  9
$DIMSD2
 70
     0
  9
$DIMTOLJ
 70
     0
  9
$DIMTZIN
 70
     8
  9
$DIMALTZ
 70
     0
  9
$DIMALTTZ
 70
     0
  9
$DIMUPT
 70
     0
  9
$DIMDEC
 70
     2
  9
$DIMTDEC
 70
     2
  9
$DIMALTU
 70
     2
  9
$DIMALTTD
 70
     3
  9
$DIMTXSTY
  7
Standard
  9
$DIMAUNIT
 70
     0
  9
$DIMADEC
 70
     0
  9
$DIMALTRND
 40
0.0
  9
$DIMAZIN
 70
     0
  9
$DIMDSEP
 70
    44
  9
$DIMATFIT
 70
     3
  9
$DIMFRAC
 70
     0
  9
$DIMLDRBLK
  1

  9
$DIMLUNIT
 70
     2
  9
$DIMLWD
 70
    -2
  9
$DIMLWE
 70
    -2
  9
$DIMTMOVE
 70
     0
  9
$LUNITS
 70
     2
  9
$LUPREC
 70
     4
  9
$SKETCHINC
 40
1.0
  9
$FILLETRAD
 40
10.0
  9
$AUNITS
 70
     0
  9
$AUPREC
 70
     0
  9
$MENU
  1
.
  9
$ELEVATION
 40
0.0
  9
$PELEVATION
 40
0.0
  9
$THICKNESS
 40
0.0
  9
$LIMCHECK
 70
     0
  9
$CHAMFERA
 40
10.0
  9
$CHAMFERB
 40
10.0
  9
$CHAMFERC
 40
20.0
  9
$CHAMFERD
 40
0.0
  9
$SKPOLY
 70
     0
  9
$TDCREATE
 40
2456499.582743484
  9
$TDUCREATE
 40
2456499.207743484
  9
$TDUPDATE
 40
2456499.582743495
  9
$TDUUPDATE
 40
2456499.207743495
  9
$TDINDWG
 40
0.0000000116
  9
$TDUSRTIMER
 40
0.0000000116
  9
$USRTIMER
 70
     1
  9
$ANGBASE
 50
0.0
  9
$ANGDIR
 70
     0
  9
$PDMODE
 70
     0
  9
$PDSIZE
 40
0.0
  9
$PLINEWID
 40
0.0
  9
$SPLFRAME
 70
     0
  9
$SPLINETYPE
 70
     6
  9
$SPLINESEGS
 70
     8
  9
$HANDSEED
  5
47D
  9
$SURFTAB1
 70
     6
  9
$SURFTAB2
 70
     6
  9
$SURFTYPE
 70
     6
  9
$SURFU
 70
     6
  9
$SURFV
 70
     6
  9
$UCSBASE
  2

  9
$UCSNAME
  2

  9
$UCSORG
 10
0.0
 20
0.0
 30
0.0
  9
$UCSXDIR
 10
1.0
 20
0.0
 30
0.0
  9
$UCSYDIR
 10
0.0
 20
1.0
 30
0.0
  9
$UCSORTHOREF
  2

  9
$UCSORTHOVIEW
 70
     0
  9
$UCSORGTOP
 10
0.0
 20
0.0
 30
0.0
  9
$UCSORGBOTTOM
 10
0.0
 20
0.0
 30
0.0
  9
$UCSORGLEFT
 10
0.0
 20
0.0
 30
0.0
  9
$UCSORGRIGHT
 10
0.0
 20
0.0
 30
0.0
  9
$UCSORGFRONT
 10
0.0
 20
0.0
 30
0.0
  9
$UCSORGBACK
 10
0.0
 20
0.0
 30
0.0
  9
$PUCSBASE
  2

  9
$PUCSNAME
  2

  9
$PUCSORG
 10
0.0
 20
0.0
 30
0.0
  9
$PUCSXDIR
 10
1.0
 20
0.0
 30
0.0
  9
$PUCSYDIR
 10
0.0
 20
1.0
 30
0.0
  9
$PUCSORTHOREF
  2

  9
$PUCSORTHOVIEW
 70
     0
  9
$PUCSORGTOP
 10
0.0
 20
0.0
 30
0.0
  9
$PUCSORGBOTTOM
 10
0.0
 20
0.0
 30
0.0
  9
$PUCSORGLEFT
 10
0.0
 20
0.0
 30
0.0
  9
$PUCSORGRIGHT
 10
0.0
 20
0.0
 30
0.0
  9
$PUCSORGFRONT
 10
0.0
 20
0.0
 30
0.0
  9
$PUCSORGBACK
 10
0.0
 20
0.0
 30
0.0
  9
$USERI1
 70
     0
  9
$USERI2
 70
     0
  9
$USERI3
 70
     0
  9
$USERI4
 70
     0
  9
$USERI5
 70
     0
  9
$USERR1
 40
0.0
  9
$USERR2
 40
0.0
  9
$USERR3
 40
0.0
  9
$USERR4
 40
0.0
  9
$USERR5
 40
0.0
  9
$WORLDVIEW
 70
     1
  9
$SHADEDGE
 70
     3
  9
$SHADEDIF
 70
    70
  9
$TILEMODE
 70
     1
  9
$MAXACTVP
 70
    64
  9
$PINSBASE
 10
0.0
 20
0.0
 30
0.0
  9
$PLIMCHECK
 70
     0
  9
$PEXTMIN
 10
1.000000000000000E+20
 20
1.000000000000000E+20
 30
1.000000000000000E+20
  9
$PEXTMAX
 10
-1.000000000000000E+20
 20
-1.000000000000000E+20
 30
-1.000000000000000E+20
  9
$PLIMMIN
 10
0.0
 20
0.0
  9
$PLIMMAX
 10
420.0
 20
297.0
  9
$UNITMODE
 70
     0
  9
$VISRETAIN
 70
     1
  9
$PLINEGEN
 70
     0
  9
$PSLTSCALE
 70
     1
  9
$TREEDEPTH
 70
  3020
  9
$CMLSTYLE
  2
Standard
  9
$CMLJUST
 70
     0
  9
$CMLSCALE
 40
20.0
  9
$PROXYGRAPHICS
 70
     1
  9
$MEASUREMENT
 70
     1
  9
$CELWEIGHT
370
    -1
  9
$ENDCAPS
280
     0
  9
$JOINSTYLE
280
     0
  9
$LWDISPLAY
290
     0
  9
$INSUNITS
 70
     4
  9
$HYPERLINKBASE
  1

  9
$STYLESHEET
  1

  9
$XEDIT
290
     1
  9
$CEPSNTYPE
380
     0
  9
$PSTYLEMODE
290
     1
  9
$FINGERPRINTGUID
  2
{7A8EBAEB-AB54-4E29-9EF1-93C5F89F2AE6}
  9
$VERSIONGUID
  2
{FAEB1C32-E019-11D5-929B-00C0DF256EC4}
  9
$EXTNAMES
290
     1
  9
$PSVPSCALE
 40
0.0
  9
$OLESTARTUP
290
     0
  9
$SORTENTS
280
   127
  9
$INDEXCTL
280
     0
  9
$HIDETEXT
280
     1
  9
$XCLIPFRAME
290
     0
  9
$HALOGAP
280
     0
  9
$OBSCOLOR
 70
   257
  9
$OBSLTYPE
280
     0
  9
$INTERSECTIONDISPLAY
280
     0
  9
$INTERSECTIONCOLOR
 70
   257
  9
$DIMASSOC
280
     2
  9
$PROJECTNAME
  1

  0
ENDSEC
  0
SECTION
  2
CLASSES
  0
CLASS
  1
ACDBDICTIONARYWDFLT
  2
AcDbDictionaryWithDefault
  3
ObjectDBX Classes
 90
        0
 91
        4
280
     0
281
     0
  0
CLASS
  1
VISUALSTYLE
  2
AcDbVisualStyle
  3
ObjectDBX Classes
 90
     4095
 91
        4
280
     0
281
     0
  0
ENDSEC
  0
SECTION
  2
TABLES
  0
TABLE
  2
VPORT
  5
8
330
0
100
AcDbSymbolTable
 70
     1
  0
VPORT
  5
29
330
8
100
AcDbSymbolTableRecord
100
AcDbViewportTableRecord
  2
*Active
 70
     0
 10
0.0
 20
0.0
 11
1.0
 21
1.0
 12
0.0
 22
0.0
 13
0.0
 23
0.0
 14
10.0
 24
10.0
 15
10.0
 25
10.0
 16
0.0
 26
0.0
 36
1.0
 17
0.0
 27
0.0
 37
0.0
 40
3267.0
 41
1.414141414141414
 42
50.0
 43
0.0
 44
0.0
 50
0.0
 51
0.0
 71
     0
 72
 10000
 73
     1
 74
     3
 75
     0
 76
     0
 77
     0
 78
     0
281
     0
 65
     1
110
0.0
120
0.0
130
0.0
111
1.0
121
0.0
131
0.0
112
0.0
122
1.0
132
0.0
 79
     0
146
0.0
  0
ENDTAB
  0
TABLE
  2
LTYPE
  5
5
330
0
100
AcDbSymbolTable
 70
     4
  0
LTYPE
  5
14
330
5
100
AcDbSymbolTableRecord
100
AcDbLinetypeTableRecord
  2
ByBlock
 70
     0
  3

 72
    65
 73
     0
 40
0.0
  0
LTYPE
  5
15
330
5
100
AcDbSymbolTableRecord
100
AcDbLinetypeTableRecord
  2
ByLayer
 70
     0
  3

 72
    65
 73
     0
 40
0.0
  0
LTYPE
  5
16
330
5
100
AcDbSymbolTableRecord
100
AcDbLinetypeTableRecord
  2
Continuous
 70
     0
  3
Solid line
 72
    65
 73
     0
 40
0.0
  0
LTYPE
  5
3C
330
5
100
AcDbSymbolTableRecord
100
AcDbLinetypeTableRecord
  2
JWW_CENTER1
 70
     0
  3
-----  --  ----------  --  -----
 72
    65
 73
     4
 40
6.773333333333333
 49
4.233333333333333
 74
     0
 49
-0.8466666666666667
 74
     0
 49
0.8466666666666667
 74
     0
 49
-0.8466666666666667
 74
     0
  0
LTYPE
  5
3D
330
5
100
AcDbSymbolTableRecord
100
AcDbLinetypeTableRecord
  2
JWW_HOJO
 70
     0
  3
  -   -   -   -   -   -   -   - 
 72
    65
 73
     2
 40
1.693333333333333
 49
-1.27
 74
     0
 49
0.4233333333333333
 74
     0
  0
LTYPE
  5
3E
330
5
100
AcDbSymbolTableRecord
100
AcDbLinetypeTableRecord
  2
JWW_DASHED1
 70
     0
  3
-  --  --  --  --  --  --  --  -
 72
    65
 73
     2
 40
1.693333333333333
 49
0.8466666666666667
 74
     0
 49
-0.8466666666666667
 74
     0
  0
ENDTAB
  0
TABLE
  2
LAYER
  5
2
330
0
100
AcDbSymbolTable
 70
     9
  0
LAYER
  5
10
330
2
100
AcDbSymbolTableRecord
100
AcDbLayerTableRecord
  2
0
 70
     0
 62
     7
  6
Continuous
370
    -3
390
F
  0
LAYER
  5
3F
330
2
100
AcDbSymbolTableRecord
100
AcDbLayerTableRecord
  2
1-2
 70
     0
 62
     7
  6
Continuous
370
    -3
390
F
  0
LAYER
  5
40
330
2
100
AcDbSymbolTableRecord
100
AcDbLayerTableRecord
  2
F-4
 70
     0
 62
     7
  6
Continuous
370
    -3
390
F
  0
LAYER
  5
41
330
2
100
AcDbSymbolTableRecord
100
AcDbLayerTableRecord
  2
F-D
 70
     0
 62
     7
  6
Continuous
370
    -3
390
F
  0
LAYER
  5
42
330
2
100
AcDbSymbolTableRecord
100
AcDbLayerTableRecord
  2
1-1
 70
     0
 62
     7
  6
Continuous
370
    -3
390
F
  0
LAYER
  5
43
330
2
100
AcDbSymbolTableRecord
100
AcDbLayerTableRecord
  2
1-5
 70
     0
 62
     7
  6
Continuous
370
    -3
390
F
  0
LAYER
  5
44
330
2
100
AcDbSymbolTableRecord
100
AcDbLayerTableRecord
  2
1-3
 70
     0
 62
     7
  6
Continuous
370
    -3
390
F
  0
LAYER
  5
45
330
2
100
AcDbSymbolTableRecord
100
AcDbLayerTableRecord
  2
1-4
 70
     0
 62
     7
  6
Continuous
370
    -3
390
F
  0
LAYER
  5
46
330
2
100
AcDbSymbolTableRecord
100
AcDbLayerTableRecord
  2
F-5
 70
     0
 62
     7
  6
Continuous
370
    -3
390
F
  0
ENDTAB
  0
TABLE
  2
STYLE
  5
3
330
0
100
AcDbSymbolTable
 70
     2
  0
STYLE
  5
11
330
3
100
AcDbSymbolTableRecord
100
AcDbTextStyleTableRecord
  2
Standard
 70
     0
 40
0.0
 41
1.0
 50
0.0
 71
     0
 42
2.5
  3
txt
  4

1001
ACAD
1000

1071
        0
  0
STYLE
  5
3B
330
3
100
AcDbSymbolTableRecord
100
AcDbTextStyleTableRecord
  2
ＭＳ ゴシック
 70
     0
 40
1.0
 41
1.0
 50
0.0
 71
     0
 42
10.0
  3

  4

1001
ACAD
1000
MS Gothic
1071
    32817
  0
ENDTAB
  0
TABLE
  2
VIEW
  5
6
330
0
100
AcDbSymbolTable
 70
     0
  0
ENDTAB
  0
TABLE
  2
UCS
  5
7
330
0
100
AcDbSymbolTable
 70
     0
  0
ENDTAB
  0
TABLE
  2
APPID
  5
9
330
0
100
AcDbSymbolTable
 70
     1
  0
APPID
  5
12
330
9
100
AcDbSymbolTableRecord
100
AcDbRegAppTableRecord
  2
ACAD
 70
     0
  0
ENDTAB
  0
TABLE
  2
DIMSTYLE
  5
A
330
0
100
AcDbSymbolTable
 70
     1
100
AcDbDimStyleTable
  0
DIMSTYLE
105
27
330
A
100
AcDbSymbolTableRecord
100
AcDbDimStyleTableRecord
  2
ISO-25
 70
     0
 41
2.5
 42
0.625
 43
3.75
 44
1.25
 73
     0
 74
     0
 77
     1
 78
     8
140
2.5
141
2.5
143
0.03937007874016
147
0.625
171
     3
172
     1
271
     2
272
     2
274
     3
278
    44
283
     0
284
     8
340
11
  0
ENDTAB
  0
TABLE
  2
BLOCK_RECORD
  5
1
330
0
100
AcDbSymbolTable
 70
     1
  0
BLOCK_RECORD
  5
1F
330
1
100
AcDbSymbolTableRecord
100
AcDbBlockTableRecord
  2
*Model_Space
340
22
  0
BLOCK_RECORD
  5
1B
330
1
100
AcDbSymbolTableRecord
100
AcDbBlockTableRecord
  2
*Paper_Space
340
1E
  0
BLOCK_RECORD
  5
23
330
1
100
AcDbSymbolTableRecord
100
AcDbBlockTableRecord
  2
*Paper_Space0
340
26
  0
ENDTAB
  0
ENDSEC
  0
SECTION
  2
BLOCKS
  0
BLOCK
  5
20
330
1F
100
AcDbEntity
  8
0
100
AcDbBlockBegin
  2
*Model_Space
 70
     0
 10
0.0
 20
0.0
 30
0.0
  3
*Model_Space
  1

  0
ENDBLK
  5
21
330
1F
100
AcDbEntity
  8
0
100
AcDbBlockEnd
  0
BLOCK
  5
1C
330
1B
100
AcDbEntity
 67
     1
  8
0
100
AcDbBlockBegin
  2
*Paper_Space
 70
     0
 10
0.0
 20
0.0
 30
0.0
  3
*Paper_Space
  1

  0
ENDBLK
  5
1D
330
1B
100
AcDbEntity
 67
     1
  8
0
100
AcDbBlockEnd
  0
BLOCK
  5
24
330
23
100
AcDbEntity
  8
0
100
AcDbBlockBegin
  2
*Paper_Space0
 70
     0
 10
0.0
 20
0.0
 30
0.0
  3
*Paper_Space0
  1

  0
ENDBLK
  5
25
330
23
100
AcDbEntity
  8
0
100
AcDbBlockEnd
  0
ENDSEC
  0
SECTION
  2
ENTITIES
  0
LINE
  5
47
330
1F
100
AcDbEntity
  8
1-2
  6
Continuous
 62
     3
370
    13
100
AcDbLine
 10
272.6757152660474
 20
830.1603080130915
 30
0.0
 11
275.6756756756758
 21
829.137886665963
 31
0.0
  0
LINE
  5
48
330
1F
100
AcDbEntity
  8
1-2
  6
Continuous
 62
     3
370
    13
100
AcDbLine
 10
275.6756756756758
 20
829.137886665963
 30
0.0
 11
275.6756756756758
 21
818.9116936760981
 31
0.0
  0
LINE
  5
49
330
1F
100
AcDbEntity
  8
1-2
  6
Continuous
 62
     3
370
    13
100
AcDbLine
 10
272.6757152660474
 20
817.8887774493245
 30
0.0
 11
275.6756756756758
 21
818.9116936760981
 31
0.0
  0
LINE
  5
4A
330
1F
100
AcDbEntity
  8
1-2
  6
Continuous
 62
     3
370
    13
100
AcDbLine
 10
272.6757152660474
 20
817.8887774493245
 30
0.0
 11
272.6757152660474
 21
804.7937671558279
 31
0.0
  0
LINE
  5
4B
330
1F
100
AcDbEntity
  8
1-2
  6
Continuous
 62
     3
370
    13
100
AcDbLine
 10
272.6757152660474
 20
804.7937671558279
 30
0.0
 11
275.6756756756758
 21
803.7718406883448
 31
0.0
  0
LINE
  5
4C
330
1F
100
AcDbEntity
  8
1-2
  6
Continuous
 62
     3
370
    13
100
AcDbLine
 10
272.6757152660474
 20
792.522236592061
 30
0.0
 11
272.6757152660474
 21
783.7079352301521
 31
0.0
  0
LINE
  5
4D
330
1F
100
AcDbEntity
  8
1-2
  6
Continuous
 62
     3
370
    13
100
AcDbLine
 10
272.6757152660474
 20
783.7079352301521
 30
0.0
 11
275.6756756756758
 21
782.6850190033783
 31
0.0
  0
LINE
  5
4E
330
1F
100
AcDbEntity
  8
1-2
  6
Continuous
 62
     3
370
    13
100
AcDbLine
 10
272.6757152660474
 20
792.522236592061
 30
0.0
 11
275.6756756756758
 21
793.5451528188346
 31
0.0
  0
LINE
  5
4F
330
1F
100
AcDbEntity
  8
1-2
  6
Continuous
 62
     3
370
    13
100
AcDbLine
 10
275.6756756756758
 20
782.6850190033783
 30
0.0
 11
275.6756756756758
 21
772.4588260135135
 31
0.0
  0
LINE
  5
50
330
1F
100
AcDbEntity
  8
1-2
  6
Continuous
 62
     3
370
    13
100
AcDbLine
 10
272.6757152660474
 20
771.4359097867401
 30
0.0
 11
275.6756756756758
 21
772.4588260135135
 31
0.0
  0
LINE
  5
51
330
1F
100
AcDbEntity
  8
1-2
  6
Continuous
 62
     3
370
    13
100
AcDbLine
 10
272.6757152660474
 20
771.4359097867401
 30
0.0
 11
272.6757152660474
 21
758.3413943728885
 31
0.0
  0
LINE
  5
52
330
1F
100
AcDbEntity
  8
1-2
  6
Continuous
 62
     3
370
    13
100
AcDbLine
 10
272.6757152660474
 20
758.3413943728885
 30
0.0
 11
275.6756756756758
 21
757.3184781461151
 31
0.0
  0
LINE
  5
53
330
1F
100
AcDbEntity
  8
1-2
  6
Continuous
 62
     3
370
    13
100
AcDbLine
 10
272.6757152660474
 20
746.0698638091217
 30
0.0
 11
272.6757152660474
 21
737.2545726879224
 31
0.0
  0
LINE
  5
54
330
1F
100
AcDbEntity
  8
1-2
  6
Continuous
 62
     3
370
    13
100
AcDbLine
 10
272.6757152660474
 20
737.2545726879224
 30
0.0
 11
275.6756756756758
 21
736.232151340794
 31
0.0
  0
LINE
  5
55
330
1F
100
AcDbEntity
  8
1-2
  6
Continuous
 62
     3
370
    13
100
AcDbLine
 10
272.6757152660474
 20
746.0698638091217
 30
0.0
 11
275.6756756756758
 21
747.09228515625
 31
0.0
  0
LINE
  5
56
330
1F
100
AcDbEntity
  8
1-2
  6
Continuous
 62
     3
370
    13
100
AcDbLine
 10
275.6756756756758
 20
757.3184781461151
 30
0.0
 11
275.6756756756758
 21
747.09228515625
 31
0.0
  0
LINE
  5
57
330
1F
100
AcDbEntity
  8
1-2
  6
Continuous
 62
     3
370
    13
100
AcDbLine
 10
275.6756756756758
 20
736.232151340794
 30
0.0
 11
275.6756756756758
 21
726.0059583509292
 31
0.0
  0
LINE
  5
58
330
1F
100
AcDbEntity
  8
1-2
  6
Continuous
 62
     3
370
    13
100
AcDbLine
 10
272.6757152660474
 20
724.9830421241554
 30
0.0
 11
275.6756756756758
 21
726.0059583509292
 31
0.0
  0
LINE
  5
59
330
1F
100
AcDbEntity
  8
1-2
  6
Continuous
 62
     3
370
    13
100
AcDbLine
 10
272.6757152660474
 20
724.9830421241554
 30
0.0
 11
272.6757152660474
 21
711.8885267103042
 31
0.0
  0
LINE
  5
5A
330
1F
100
AcDbEntity
  8
1-2
  6
Continuous
 62
     3
370
    13
100
AcDbLine
 10
272.6757152660474
 20
711.8885267103042
 30
0.0
 11
275.6756756756758
 21
710.8661053631758
 31
0.0
  0
LINE
  5
5B
330
1F
100
AcDbEntity
  8
1-2
  6
Continuous
 62
     3
370
    13
100
AcDbLine
 10
272.6757152660474
 20
699.6165012668919
 30
0.0
 11
272.6757152660474
 21
690.8021999049834
 31
0.0
  0
LINE
  5
5C
330
1F
100
AcDbEntity
  8
1-2
  6
Continuous
 62
     3
370
    13
100
AcDbLine
 10
272.6757152660474
 20
690.8021999049834
 30
0.0
 11
275.6756756756758
 21
689.7792836782096
 31
0.0
  0
LINE
  5
5D
330
1F
100
AcDbEntity
  8
1-2
  6
Continuous
 62
     3
370
    13
100
AcDbLine
 10
272.6757152660474
 20
699.6165012668919
 30
0.0
 11
275.6756756756758
 21
700.6394174936656
 31
0.0
  0
LINE
  5
5E
330
1F
100
AcDbEntity
  8
1-2
  6
Continuous
 62
     3
370
    13
100
AcDbLine
 10
275.6756756756758
 20
710.8661053631758
 30
0.0
 11
275.6756756756758
 21
700.6394174936656
 31
0.0
  0
LINE
  5
5F
330
1F
100
AcDbEntity
  8
1-2
  6
Continuous
 62
     3
370
    13
100
AcDbLine
 10
275.6756756756758
 20
689.7792836782096
 30
0.0
 11
275.6756756756758
 21
679.5530906883448
 31
0.0
  0
LINE
  5
60
330
1F
100
AcDbEntity
  8
1-2
  6
Continuous
 62
     3
370
    13
100
AcDbLine
 10
272.6757152660474
 20
678.5296795819258
 30
0.0
 11
275.6756756756758
 21
679.5530906883448
 31
0.0
  0
LINE
  5
61
330
1F
100
AcDbEntity
  8
1-2
  6
Continuous
 62
     3
370
    13
100
AcDbLine
 10
272.6757152660474
 20
678.5296795819258
 30
0.0
 11
272.6757152660474
 21
665.4356590477198
 31
0.0
  0
LINE
  5
62
330
1F
100
AcDbEntity
  8
1-2
  6
Continuous
 62
     3
370
    13
100
AcDbLine
 10
272.6757152660474
 20
665.4356590477198
 30
0.0
 11
275.6756756756758
 21
664.412742820946
 31
0.0
  0
LINE
  5
63
330
1F
100
AcDbEntity
  8
1-2
  6
Continuous
 62
     3
370
    13
100
AcDbLine
 10
272.6757152660474
 20
653.1641284839529
 30
0.0
 11
272.6757152660474
 21
644.3493322423988
 31
0.0
  0
LINE
  5
64
330
1F
100
AcDbEntity
  8
1-2
  6
Continuous
 62
     3
370
    13
100
AcDbLine
 10
272.6757152660474
 20
644.3493322423988
 30
0.0
 11
275.6756756756758
 21
643.326416015625
 31
0.0
  0
LINE
  5
65
330
1F
100
AcDbEntity
  8
1-2
  6
Continuous
 62
     3
370
    13
100
AcDbLine
 10
272.6757152660474
 20
653.1641284839529
 30
0.0
 11
275.6756756756758
 21
654.1865498310813
 31
0.0
  0
LINE
  5
66
330
1F
100
AcDbEntity
  8
1-2
  6
Continuous
 62
     3
370
    13
100
AcDbLine
 10
275.6756756756758
 20
664.412742820946
 30
0.0
 11
275.6756756756758
 21
654.1865498310813
 31
0.0
  0
LINE
  5
67
330
1F
100
AcDbEntity
  8
1-2
  6
Continuous
 62
     3
370
    13
100
AcDbLine
 10
275.6756756756758
 20
643.326416015625
 30
0.0
 11
275.6756756756758
 21
633.0997281461148
 31
0.0
  0
LINE
  5
68
330
1F
100
AcDbEntity
  8
1-2
  6
Continuous
 62
     3
370
    13
100
AcDbLine
 10
272.6757152660474
 20
632.0773067989867
 30
0.0
 11
275.6756756756758
 21
633.0997281461148
 31
0.0
  0
LINE
  5
69
330
1F
100
AcDbEntity
  8
1-2
  6
Continuous
 62
     3
370
    13
100
AcDbLine
 10
272.6757152660474
 20
632.0773067989867
 30
0.0
 11
272.6757152660474
 21
618.9827913851352
 31
0.0
  0
LINE
  5
6A
330
1F
100
AcDbEntity
  8
1-2
  6
Continuous
 62
     3
370
    13
100
AcDbLine
 10
272.6757152660474
 20
618.9827913851352
 30
0.0
 11
275.6756756756758
 21
617.9603700380068
 31
0.0
  0
LINE
  5
6B
330
1F
100
AcDbEntity
  8
1-2
  6
Continuous
 62
     3
370
    13
100
AcDbLine
 10
275.6756756756758
 20
617.9603700380068
 30
0.0
 11
275.6756756756758
 21
607.7336821684967
 31
0.0
  0
LINE
  5
6C
330
1F
100
AcDbEntity
  8
1-2
  6
Continuous
 62
     3
370
    13
100
AcDbLine
 10
272.6757152660474
 20
606.7107659417231
 30
0.0
 11
272.6757152660474
 21
597.8964645798144
 31
0.0
  0
LINE
  5
6D
330
1F
100
AcDbEntity
  8
1-2
  6
Continuous
 62
     3
370
    13
100
AcDbLine
 10
272.6757152660474
 20
597.8964645798144
 30
0.0
 11
275.6756756756758
 21
596.8735483530406
 31
0.0
  0
LINE
  5
6E
330
1F
100
AcDbEntity
  8
1-2
  6
Continuous
 62
     3
370
    13
100
AcDbLine
 10
272.6757152660474
 20
606.7107659417231
 30
0.0
 11
275.6756756756758
 21
607.7336821684967
 31
0.0
  0
LINE
  5
6F
330
1F
100
AcDbEntity
  8
1-2
  6
Continuous
 62
     3
370
    13
100
AcDbLine
 10
275.6756756756758
 20
596.8735483530406
 30
0.0
 11
275.6756756756758
 21
586.6473553631758
 31
0.0
  0
LINE
  5
70
330
1F
100
AcDbEntity
  8
1-2
  6
Continuous
 62
     3
370
    13
100
AcDbLine
 10
272.6757152660474
 20
585.6244391364021
 30
0.0
 11
275.6756756756758
 21
586.6473553631758
 31
0.0
  0
LINE
  5
71
330
1F
100
AcDbEntity
  8
1-2
  6
Continuous
 62
     3
370
    13
100
AcDbLine
 10
272.6757152660474
 20
585.6244391364021
 30
0.0
 11
272.6757152660474
 21
572.5299237225508
 31
0.0
  0
LINE
  5
72
330
1F
100
AcDbEntity
  8
1-2
  6
Continuous
 62
     3
370
    13
100
AcDbLine
 10
272.6757152660474
 20
572.5299237225508
 30
0.0
 11
275.6756756756758
 21
571.5070074957771
 31
0.0
  0
LINE
  5
73
330
1F
100
AcDbEntity
  8
1-2
  6
Continuous
 62
     3
370
    13
100
AcDbLine
 10
275.6756756756758
 20
571.5070074957771
 30
0.0
 11
275.6756756756758
 21
561.2808145059123
 31
0.0
  0
LINE
  5
74
330
1F
100
AcDbEntity
  8
1-2
  6
Continuous
 62
     3
370
    13
100
AcDbLine
 10
272.6757152660474
 20
560.2583931587839
 30
0.0
 11
272.6757152660474
 21
551.44359691723
 31
0.0
  0
LINE
  5
75
330
1F
100
AcDbEntity
  8
1-2
  6
Continuous
 62
     3
370
    13
100
AcDbLine
 10
272.6757152660474
 20
551.44359691723
 30
0.0
 11
275.6756756756758
 21
550.4206806904563
 31
0.0
  0
LINE
  5
76
330
1F
100
AcDbEntity
  8
1-2
  6
Continuous
 62
     3
370
    13
100
AcDbLine
 10
272.6757152660474
 20
560.2583931587839
 30
0.0
 11
275.6756756756758
 21
561.2808145059123
 31
0.0
  0
LINE
  5
77
330
1F
100
AcDbEntity
  8
1-2
  6
Continuous
 62
     3
370
    13
100
AcDbLine
 10
275.6756756756758
 20
550.4206806904563
 30
0.0
 11
275.6756756756758
 21
540.1944877005915
 31
0.0
  0
LINE
  5
78
330
1F
100
AcDbEntity
  8
1-2
  6
Continuous
 62
     3
370
    13
100
AcDbLine
 10
272.6757152660474
 20
539.1715714738177
 30
0.0
 11
275.6756756756758
 21
540.1944877005915
 31
0.0
  0
LINE
  5
79
330
1F
100
AcDbEntity
  8
1-2
  6
Continuous
 62
     3
370
    13
100
AcDbLine
 10
272.6757152660474
 20
539.1715714738177
 30
0.0
 11
272.6757152660474
 21
526.0770560599665
 31
0.0
  0
LINE
  5
7A
330
1F
100
AcDbEntity
  8
1-2
  6
Continuous
 62
     3
370
    13
100
AcDbLine
 10
272.6757152660474
 20
526.0770560599665
 30
0.0
 11
275.6756756756758
 21
525.054634712838
 31
0.0
  0
LINE
  5
7B
330
1F
100
AcDbEntity
  8
1-2
  6
Continuous
 62
     3
370
    13
100
AcDbLine
 10
275.6756756756758
 20
525.054634712838
 30
0.0
 11
275.6756756756758
 21
514.8279468433279
 31
0.0
  0
LINE
  5
7C
330
1F
100
AcDbEntity
  8
1-2
  6
Continuous
 62
     3
370
    13
100
AcDbLine
 10
272.6757152660474
 20
513.8050306165542
 30
0.0
 11
272.6757152660474
 21
504.9907292546453
 31
0.0
  0
LINE
  5
7D
330
1F
100
AcDbEntity
  8
1-2
  6
Continuous
 62
     3
370
    13
100
AcDbLine
 10
272.6757152660474
 20
504.9907292546453
 30
0.0
 11
275.6756756756758
 21
503.9678130278716
 31
0.0
  0
LINE
  5
7E
330
1F
100
AcDbEntity
  8
1-2
  6
Continuous
 62
     3
370
    13
100
AcDbLine
 10
272.6757152660474
 20
513.8050306165542
 30
0.0
 11
275.6756756756758
 21
514.8279468433279
 31
0.0
  0
LINE
  5
7F
330
1F
100
AcDbEntity
  8
1-2
  6
Continuous
 62
     3
370
    13
100
AcDbLine
 10
275.6756756756758
 20
503.9678130278716
 30
0.0
 11
275.6756756756758
 21
493.7417437579182
 31
0.0
  0
LINE
  5
80
330
1F
100
AcDbEntity
  8
1-2
  6
Continuous
 62
     3
370
    13
100
AcDbLine
 10
272.6757152660474
 20
492.7185800913219
 30
0.0
 11
275.6756756756758
 21
493.7417437579182
 31
0.0
  0
LINE
  5
81
330
1F
100
AcDbEntity
  8
1-2
  6
Continuous
 62
     3
370
    13
100
AcDbLine
 10
272.6757152660474
 20
492.7185800913219
 30
0.0
 11
272.6757152660474
 21
479.6240646774706
 31
0.0
  0
LINE
  5
82
330
1F
100
AcDbEntity
  8
1-2
  6
Continuous
 62
     3
370
    13
100
AcDbLine
 10
272.6757152660474
 20
479.6240646774706
 30
0.0
 11
275.6756756756758
 21
478.6013958905195
 31
0.0
  0
LINE
  5
83
330
1F
100
AcDbEntity
  8
1-2
  6
Continuous
 62
     3
370
    13
100
AcDbLine
 10
275.6756756756758
 20
478.6013958905195
 30
0.0
 11
275.6756756756758
 21
468.3752029006547
 31
0.0
  0
LINE
  5
84
330
1F
100
AcDbEntity
  8
1-2
  6
Continuous
 62
     3
370
    13
100
AcDbLine
 10
272.6757152660474
 20
467.3525341137037
 30
0.0
 11
272.6757152660474
 21
458.5379853119721
 31
0.0
  0
LINE
  5
85
330
1F
100
AcDbEntity
  8
1-2
  6
Continuous
 62
     3
370
    13
100
AcDbLine
 10
272.6757152660474
 20
458.5379853119721
 30
0.0
 11
275.6756756756758
 21
457.5148216453761
 31
0.0
  0
LINE
  5
86
330
1F
100
AcDbEntity
  8
1-2
  6
Continuous
 62
     3
370
    13
100
AcDbLine
 10
272.6757152660474
 20
467.3525341137037
 30
0.0
 11
275.6756756756758
 21
468.3752029006547
 31
0.0
  0
LINE
  5
87
330
1F
100
AcDbEntity
  8
1-2
  6
Continuous
 62
     3
370
    13
100
AcDbLine
 10
275.6756756756758
 20
457.5148216453761
 30
0.0
 11
275.6756756756758
 21
447.2886286555112
 31
0.0
  0
LINE
  5
88
330
1F
100
AcDbEntity
  8
1-2
  6
Continuous
 62
     3
370
    13
100
AcDbLine
 10
272.6757152660474
 20
446.2659598685602
 30
0.0
 11
275.6756756756758
 21
447.2886286555112
 31
0.0
  0
LINE
  5
89
330
1F
100
AcDbEntity
  8
1-2
  6
Continuous
 62
     3
370
    13
100
AcDbLine
 10
272.6757152660474
 20
446.2659598685602
 30
0.0
 11
272.6757152660474
 21
433.1714444547086
 31
0.0
  0
LINE
  5
8A
330
1F
100
AcDbEntity
  8
1-2
  6
Continuous
 62
     3
370
    13
100
AcDbLine
 10
272.6757152660474
 20
433.1714444547086
 30
0.0
 11
275.6756756756758
 21
432.1487756677578
 31
0.0
  0
LINE
  5
8B
330
1F
100
AcDbEntity
  8
1-2
  6
Continuous
 62
     3
370
    13
100
AcDbLine
 10
275.6756756756758
 20
432.1487756677578
 30
0.0
 11
275.6756756756758
 21
421.9220877982477
 31
0.0
  0
LINE
  5
8C
330
1F
100
AcDbEntity
  8
1-2
  6
Continuous
 62
     3
370
    13
100
AcDbLine
 10
272.6757152660474
 20
420.8994190112966
 30
0.0
 11
272.6757152660474
 21
412.0848702095651
 31
0.0
  0
LINE
  5
8D
330
1F
100
AcDbEntity
  8
1-2
  6
Continuous
 62
     3
370
    13
100
AcDbLine
 10
272.6757152660474
 20
412.0848702095651
 30
0.0
 11
275.6756756756758
 21
411.0622014226141
 31
0.0
  0
LINE
  5
8E
330
1F
100
AcDbEntity
  8
1-2
  6
Continuous
 62
     3
370
    13
100
AcDbLine
 10
272.6757152660474
 20
420.8994190112966
 30
0.0
 11
275.6756756756758
 21
421.9220877982477
 31
0.0
  0
LINE
  5
8F
330
1F
100
AcDbEntity
  8
1-2
  6
Continuous
 62
     3
370
    13
100
AcDbLine
 10
275.6756756756758
 20
411.0622014226141
 30
0.0
 11
275.6756756756758
 21
400.8360084327492
 31
0.0
  0
LINE
  5
90
330
1F
100
AcDbEntity
  8
1-2
  6
Continuous
 62
     3
370
    13
100
AcDbLine
 10
272.6757152660474
 20
399.8128447661529
 30
0.0
 11
275.6756756756758
 21
400.8360084327492
 31
0.0
  0
LINE
  5
91
330
1F
100
AcDbEntity
  8
1-2
  6
Continuous
 62
     3
370
    13
100
AcDbLine
 10
272.6757152660474
 20
399.8128447661529
 30
0.0
 11
272.6757152660474
 21
386.7183293523016
 31
0.0
  0
LINE
  5
92
330
1F
100
AcDbEntity
  8
1-2
  6
Continuous
 62
     3
370
    13
100
AcDbLine
 10
272.6757152660474
 20
386.7183293523016
 30
0.0
 11
275.6756756756758
 21
385.6956605653505
 31
0.0
  0
LINE
  5
93
330
1F
100
AcDbEntity
  8
1-2
  6
Continuous
 62
     3
370
    13
100
AcDbLine
 10
275.6756756756758
 20
385.6956605653505
 30
0.0
 11
275.6756756756758
 21
375.4694675754857
 31
0.0
  0
LINE
  5
94
330
1F
100
AcDbEntity
  8
1-2
  6
Continuous
 62
     3
370
    13
100
AcDbLine
 10
272.6757152660474
 20
374.4467987885346
 30
0.0
 11
272.6757152660474
 21
365.6322499868034
 31
0.0
  0
LINE
  5
95
330
1F
100
AcDbEntity
  8
1-2
  6
Continuous
 62
     3
370
    13
100
AcDbLine
 10
272.6757152660474
 20
365.6322499868034
 30
0.0
 11
275.6756756756758
 21
364.609086320207
 31
0.0
  0
LINE
  5
96
330
1F
100
AcDbEntity
  8
1-2
  6
Continuous
 62
     3
370
    13
100
AcDbLine
 10
272.6757152660474
 20
374.4467987885346
 30
0.0
 11
275.6756756756758
 21
375.4694675754857
 31
0.0
  0
LINE
  5
97
330
1F
100
AcDbEntity
  8
1-2
  6
Continuous
 62
     3
370
    13
100
AcDbLine
 10
275.6756756756758
 20
364.609086320207
 30
0.0
 11
275.6756756756758
 21
354.3828933303422
 31
0.0
  0
LINE
  5
98
330
1F
100
AcDbEntity
  8
1-2
  6
Continuous
 62
     3
370
    13
100
AcDbLine
 10
272.6757152660474
 20
353.3602245433912
 30
0.0
 11
275.6756756756758
 21
354.3828933303422
 31
0.0
  0
LINE
  5
99
330
1F
100
AcDbEntity
  8
1-2
  6
Continuous
 62
     3
370
    13
100
AcDbLine
 10
272.6757152660474
 20
353.3602245433912
 30
0.0
 11
272.6757152660474
 21
340.2657091295399
 31
0.0
  0
LINE
  5
9A
330
1F
100
AcDbEntity
  8
1-2
  6
Continuous
 62
     3
370
    13
100
AcDbLine
 10
272.6757152660474
 20
340.2657091295399
 30
0.0
 11
275.6756756756758
 21
339.2430403425888
 31
0.0
  0
LINE
  5
9B
330
1F
100
AcDbEntity
  8
1-2
  6
Continuous
 62
     3
370
    13
100
AcDbLine
 10
275.6756756756758
 20
339.2430403425888
 30
0.0
 11
275.6756756756758
 21
329.0163524730787
 31
0.0
  0
LINE
  5
9C
330
1F
100
AcDbEntity
  8
1-2
  6
Continuous
 62
     3
370
    13
100
AcDbLine
 10
272.6757152660474
 20
327.9936836861276
 30
0.0
 11
272.6757152660474
 21
319.1791348843961
 31
0.0
  0
LINE
  5
9D
330
1F
100
AcDbEntity
  8
1-2
  6
Continuous
 62
     3
370
    13
100
AcDbLine
 10
272.6757152660474
 20
319.1791348843961
 30
0.0
 11
275.6756756756758
 21
318.1564660974453
 31
0.0
  0
LINE
  5
9E
330
1F
100
AcDbEntity
  8
1-2
  6
Continuous
 62
     3
370
    13
100
AcDbLine
 10
272.6757152660474
 20
327.9936836861276
 30
0.0
 11
275.6756756756758
 21
329.0163524730787
 31
0.0
  0
LINE
  5
9F
330
1F
100
AcDbEntity
  8
1-2
  6
Continuous
 62
     3
370
    13
100
AcDbLine
 10
275.6756756756758
 20
318.1564660974453
 30
0.0
 11
275.6756756756758
 21
307.9302731075802
 31
0.0
  0
LINE
  5
A0
330
1F
100
AcDbEntity
  8
1-2
  6
Continuous
 62
     3
370
    13
100
AcDbLine
 10
272.6757152660474
 20
306.9071094409841
 30
0.0
 11
275.6756756756758
 21
307.9302731075802
 31
0.0
  0
LINE
  5
A1
330
1F
100
AcDbEntity
  8
1-2
  6
Continuous
 62
     3
370
    13
100
AcDbLine
 10
272.6757152660474
 20
306.9071094409841
 30
0.0
 11
272.6757152660474
 21
293.8125940271328
 31
0.0
  0
LINE
  5
A2
330
1F
100
AcDbEntity
  8
1-2
  6
Continuous
 62
     3
370
    13
100
AcDbLine
 10
272.6757152660474
 20
293.8125940271328
 30
0.0
 11
275.6756756756758
 21
292.7899252401818
 31
0.0
  0
LINE
  5
A3
330
1F
100
AcDbEntity
  8
1-2
  6
Continuous
 62
     3
370
    13
100
AcDbLine
 10
275.6756756756758
 20
292.7899252401818
 30
0.0
 11
275.6756756756758
 21
282.5636085304055
 31
0.0
  0
LINE
  5
A4
330
1F
100
AcDbEntity
  8
1-2
  6
Continuous
 62
     3
370
    13
100
AcDbLine
 10
272.6757152660474
 20
281.5410634633659
 30
0.0
 11
272.6757152660474
 21
272.7263909417232
 31
0.0
  0
LINE
  5
A5
330
1F
100
AcDbEntity
  8
1-2
  6
Continuous
 62
     3
370
    13
100
AcDbLine
 10
272.6757152660474
 20
272.7263909417232
 30
0.0
 11
275.6756756756758
 21
271.7032272751268
 31
0.0
  0
LINE
  5
A6
330
1F
100
AcDbEntity
  8
1-2
  6
Continuous
 62
     3
370
    13
100
AcDbLine
 10
272.6757152660474
 20
281.5410634633659
 30
0.0
 11
275.6756756756758
 21
282.5636085304055
 31
0.0
  0
LINE
  5
A7
330
1F
100
AcDbEntity
  8
1-2
  6
Continuous
 62
     3
370
    13
100
AcDbLine
 10
275.6756756756758
 20
271.7032272751268
 30
0.0
 11
275.6756756756758
 21
261.477034285262
 31
0.0
  0
LINE
  5
A8
330
1F
100
AcDbEntity
  8
F-4
  6
Continuous
 62
     7
370
    13
100
AcDbLine
 10
-609.3363993876687
 20
786.2268726245779
 30
0.0
 11
-606.6172831767312
 21
806.8816643792231
 31
0.0
  0
LINE
  5
A9
330
1F
100
AcDbEntity
  8
F-4
  6
Continuous
 62
     7
370
    13
100
AcDbLine
 10
-609.3363993876687
 20
786.2268726245779
 30
0.0
 11
-601.3636408625422
 21
805.4739792282519
 31
0.0
  0
LINE
  5
AA
330
1F
100
AcDbEntity
  8
F-4
  6
Continuous
 62
     7
370
    13
100
AcDbLine
 10
-699.2911673880911
 20
844.189156197213
 30
0.0
 11
-696.5720511771536
 21
864.8439479518584
 31
0.0
  0
LINE
  5
AB
330
1F
100
AcDbEntity
  8
F-4
  6
Continuous
 62
     7
370
    13
100
AcDbLine
 10
-699.2911673880911
 20
844.189156197213
 30
0.0
 11
-691.3189037426096
 21
863.4365102407096
 31
0.0
  0
LINE
  5
AC
330
1F
100
AcDbEntity
  8
F-4
  6
Continuous
 62
     7
370
    13
100
AcDbLine
 10
-536.5704098263302
 20
1057.791830526816
 30
0.0
 11
-40.69655134871198
 21
1057.791830526816
 31
0.0
  0
LINE
  5
AD
330
1F
100
AcDbEntity
  8
F-4
  6
Continuous
 62
     7
370
    13
100
AcDbLine
 10
-606.5588873785894
 20
1191.125273833404
 30
0.0
 11
-55.26506578600078
 21
1191.125273833404
 31
0.0
  0
LINE
  5
AE
330
1F
100
AcDbEntity
  8
F-4
  6
Continuous
 62
     7
370
    13
100
AcDbLine
 10
-570.1633350269213
 20
1124.45855218011
 30
0.0
 11
-148.8881291569888
 21
1124.45855218011
 31
0.0
  0
LINE
  5
AF
330
1F
100
AcDbEntity
  8
1-2
  6
Continuous
 62
     3
370
    13
100
AcDbLine
 10
272.6757152660474
 20
260.4543654983109
 30
0.0
 11
275.6756756756758
 21
261.477034285262
 31
0.0
  0
LINE
  5
B0
330
1F
100
AcDbEntity
  8
1-2
  6
Continuous
 62
     3
370
    13
100
AcDbLine
 10
272.6757152660474
 20
260.4543654983109
 30
0.0
 11
272.6757152660474
 21
247.3598500844597
 31
0.0
  0
LINE
  5
B1
330
1F
100
AcDbEntity
  8
1-2
  6
Continuous
 62
     3
370
    13
100
AcDbLine
 10
272.6757152660474
 20
247.3598500844597
 30
0.0
 11
275.6756756756758
 21
246.3373050174198
 31
0.0
  0
LINE
  5
B2
330
1F
100
AcDbEntity
  8
1-2
  6
Continuous
 62
     3
370
    13
100
AcDbLine
 10
275.6756756756758
 20
246.3373050174198
 30
0.0
 11
275.6756756756758
 21
236.1104934279984
 31
0.0
  0
LINE
  5
B3
330
1F
100
AcDbEntity
  8
1-2
  6
Continuous
 62
     3
370
    13
100
AcDbLine
 10
272.6757152660474
 20
235.0878246410474
 30
0.0
 11
272.6757152660474
 21
226.2732758393159
 31
0.0
  0
LINE
  5
B4
330
1F
100
AcDbEntity
  8
1-2
  6
Continuous
 62
     3
370
    13
100
AcDbLine
 10
272.6757152660474
 20
226.2732758393159
 30
0.0
 11
275.6756756756758
 21
225.2506070523648
 31
0.0
  0
LINE
  5
B5
330
1F
100
AcDbEntity
  8
1-2
  6
Continuous
 62
     3
370
    13
100
AcDbLine
 10
272.6757152660474
 20
235.0878246410474
 30
0.0
 11
275.6756756756758
 21
236.1104934279984
 31
0.0
  0
LINE
  5
B6
330
1F
100
AcDbEntity
  8
1-2
  6
Continuous
 62
     3
370
    13
100
AcDbLine
 10
275.6756756756758
 20
225.2506070523648
 30
0.0
 11
275.6756756756758
 21
215.0244140625
 31
0.0
  0
LINE
  5
B7
330
1F
100
AcDbEntity
  8
1-2
  6
Continuous
 62
     3
370
    13
100
AcDbLine
 10
272.6757152660474
 20
214.0012503959039
 30
0.0
 11
275.6756756756758
 21
215.0244140625
 31
0.0
  0
LINE
  5
B8
330
1F
100
AcDbEntity
  8
1-2
  6
Continuous
 62
     3
370
    13
100
AcDbLine
 10
272.6757152660474
 20
214.0012503959039
 30
0.0
 11
272.6757152660474
 21
200.9067349820523
 31
0.0
  0
LINE
  5
B9
330
1F
100
AcDbEntity
  8
1-2
  6
Continuous
 62
     3
370
    13
100
AcDbLine
 10
272.6757152660474
 20
200.9067349820523
 30
0.0
 11
275.6756756756758
 21
199.8840661951016
 31
0.0
  0
LINE
  5
BA
330
1F
100
AcDbEntity
  8
1-2
  6
Continuous
 62
     3
370
    13
100
AcDbLine
 10
275.6756756756758
 20
199.8840661951016
 30
0.0
 11
275.6756756756758
 21
189.6578732052365
 31
0.0
  0
LINE
  5
BB
330
1F
100
AcDbEntity
  8
1-2
  6
Continuous
 62
     3
370
    13
100
AcDbLine
 10
272.6757152660474
 20
188.6353281381969
 30
0.0
 11
272.6757152660474
 21
179.8206556165542
 31
0.0
  0
LINE
  5
BC
330
1F
100
AcDbEntity
  8
1-2
  6
Continuous
 62
     3
370
    13
100
AcDbLine
 10
272.6757152660474
 20
179.8206556165542
 30
0.0
 11
275.6756756756758
 21
178.7974919499578
 31
0.0
  0
LINE
  5
BD
330
1F
100
AcDbEntity
  8
1-2
  6
Continuous
 62
     3
370
    13
100
AcDbLine
 10
272.6757152660474
 20
188.6353281381969
 30
0.0
 11
275.6756756756758
 21
189.6578732052365
 31
0.0
  0
LINE
  5
BE
330
1F
100
AcDbEntity
  8
1-2
  6
Continuous
 62
     3
370
    13
100
AcDbLine
 10
275.6756756756758
 20
178.7974919499578
 30
0.0
 11
275.6756756756758
 21
168.571298960093
 31
0.0
  0
LINE
  5
BF
330
1F
100
AcDbEntity
  8
1-2
  6
Continuous
 62
     3
370
    13
100
AcDbLine
 10
272.6757152660474
 20
167.5486301731419
 30
0.0
 11
275.6756756756758
 21
168.571298960093
 31
0.0
  0
LINE
  5
C0
330
1F
100
AcDbEntity
  8
1-2
  6
Continuous
 62
     3
370
    13
100
AcDbLine
 10
272.6757152660474
 20
167.5486301731419
 30
0.0
 11
272.6757152660474
 21
154.4541147592906
 31
0.0
  0
LINE
  5
C1
330
1F
100
AcDbEntity
  8
1-2
  6
Continuous
 62
     3
370
    13
100
AcDbLine
 10
272.6757152660474
 20
154.4541147592906
 30
0.0
 11
275.6756756756758
 21
153.4315696922511
 31
0.0
  0
LINE
  5
C2
330
1F
100
AcDbEntity
  8
1-2
  6
Continuous
 62
     3
370
    13
100
AcDbLine
 10
275.6756756756758
 20
153.4315696922511
 30
0.0
 11
275.6756756756758
 21
143.2047581028294
 31
0.0
  0
LINE
  5
C3
330
1F
100
AcDbEntity
  8
1-2
  6
Continuous
 62
     3
370
    13
100
AcDbLine
 10
272.6757152660474
 20
142.1820893158784
 30
0.0
 11
272.6757152660474
 21
133.3675405141472
 31
0.0
  0
LINE
  5
C4
330
1F
100
AcDbEntity
  8
1-2
  6
Continuous
 62
     3
370
    13
100
AcDbLine
 10
272.6757152660474
 20
133.3675405141472
 30
0.0
 11
275.6756756756758
 21
132.3448717271961
 31
0.0
  0
LINE
  5
C5
330
1F
100
AcDbEntity
  8
1-2
  6
Continuous
 62
     3
370
    13
100
AcDbLine
 10
272.6757152660474
 20
142.1820893158784
 30
0.0
 11
275.6756756756758
 21
143.2047581028294
 31
0.0
  0
LINE
  5
C6
330
1F
100
AcDbEntity
  8
1-2
  6
Continuous
 62
     3
370
    13
100
AcDbLine
 10
275.6756756756758
 20
132.3448717271961
 30
0.0
 11
275.6756756756758
 21
122.1186787373313
 31
0.0
  0
LINE
  5
C7
330
1F
100
AcDbEntity
  8
1-2
  6
JWW_CENTER1
 62
     3
370
    13
100
AcDbLine
 10
242.6234064875425
 20
324.189172693201
 30
0.0
 11
353.1186490445526
 21
324.189172693201
 31
0.0
  0
LINE
  5
C8
330
1F
100
AcDbEntity
  8
F-D
  6
Continuous
 62
     3
370
    13
100
AcDbLine
 10
-1089.544347814611
 20
-558.2059788059543
 30
0.0
 11
-1064.544265334671
 21
-552.85608240076
 31
0.0
  0
LINE
  5
C9
330
1F
100
AcDbEntity
  8
F-D
  6
Continuous
 62
     3
370
    13
100
AcDbLine
 10
-1089.544347814611
 20
-560.7625270534206
 30
0.0
 11
-1064.544265334671
 21
-555.4126306482262
 31
0.0
  0
LINE
  5
CA
330
1F
100
AcDbEntity
  8
F-D
  6
Continuous
 62
     3
370
    13
100
AcDbLine
 10
-1089.544347814611
 20
-586.3284425477724
 30
0.0
 11
-1064.544265334671
 21
-580.9785461425781
 31
0.0
  0
LINE
  5
CB
330
1F
100
AcDbEntity
  8
F-D
  6
Continuous
 62
     3
370
    13
100
AcDbLine
 10
-1089.544347814611
 20
-588.8852382350613
 30
0.0
 11
-1064.544265334671
 21
-583.5353418298669
 31
0.0
  0
LINE
  5
CC
330
1F
100
AcDbEntity
  8
F-D
  6
Continuous
 62
     3
370
    13
100
AcDbLine
 10
-1064.544265334671
 20
-616.2720015242293
 30
0.0
 11
-1089.544347814611
 21
-610.9219813991238
 31
0.0
  0
LINE
  5
CD
330
1F
100
AcDbEntity
  8
F-D
  6
Continuous
 62
     3
370
    13
100
AcDbLine
 10
-1064.544265334671
 20
-618.8283023318728
 30
0.0
 11
-1089.544347814611
 21
-613.4784677866343
 31
0.0
  0
LINE
  5
CE
330
1F
100
AcDbEntity
  8
F-D
  6
Continuous
 62
     3
370
    13
100
AcDbLine
 10
-575.0160011085302
 20
-578.1354625805004
 30
0.0
 11
-572.459452861064
 21
-585.635611044394
 31
0.0
  0
LINE
  5
CF
330
1F
100
AcDbEntity
  8
F-D
  6
Continuous
 62
     3
370
    13
100
AcDbLine
 10
-566.7433455183698
 20
-585.635611044394
 30
0.0
 11
-572.459452861064
 21
-585.635611044394
 31
0.0
  0
LINE
  5
D0
330
1F
100
AcDbEntity
  8
F-D
  6
Continuous
 62
     3
370
    13
100
AcDbLine
 10
-575.0160011085302
 20
-578.1354625805004
 30
0.0
 11
-597.0529917124154
 21
-578.1354625805004
 31
0.0
  0
LINE
  5
D1
330
1F
100
AcDbEntity
  8
F-D
  6
Continuous
 62
     3
370
    13
100
AcDbLine
 10
-597.0529917124154
 20
-578.1354625805004
 30
0.0
 11
-599.6095399598818
 21
-585.635611044394
 31
0.0
  0
LINE
  5
D2
330
1F
100
AcDbEntity
  8
F-D
  6
Continuous
 62
     3
370
    13
100
AcDbLine
 10
-599.6095399598818
 20
-585.635611044394
 30
0.0
 11
-625.175517314189
 21
-585.635611044394
 31
0.0
  0
LINE
  5
D3
330
1F
100
AcDbEntity
  8
F-D
  6
Continuous
 62
     3
370
    13
100
AcDbLine
 10
-627.7325604413005
 20
-578.1354625805004
 30
0.0
 11
-625.175517314189
 21
-585.635611044394
 31
0.0
  0
LINE
  5
D4
330
1F
100
AcDbEntity
  8
F-D
  6
Continuous
 62
     3
370
    13
100
AcDbLine
 10
-627.7325604413005
 20
-578.1354625805004
 30
0.0
 11
-660.468848975929
 21
-578.1354625805004
 31
0.0
  0
LINE
  5
D5
330
1F
100
AcDbEntity
  8
F-D
  6
Continuous
 62
     3
370
    13
100
AcDbLine
 10
-660.468848975929
 20
-578.1354625805004
 30
0.0
 11
-663.0253972233953
 21
-585.635611044394
 31
0.0
  0
LINE
  5
D6
330
1F
100
AcDbEntity
  8
F-D
  6
JWW_HOJO
 62
     3
370
    13
100
AcDbLine
 10
-1069.775885504645
 20
-643.2749856484902
 30
0.0
 11
-1094.775720544763
 21
-637.9249655233846
 31
0.0
  0
LINE
  5
D7
330
1F
100
AcDbEntity
  8
F-D
  6
Continuous
 62
     3
370
    13
100
AcDbLine
 10
-1089.544347814611
 20
-674.3378386626373
 30
0.0
 11
-1064.544265334671
 21
-668.9879422574429
 31
0.0
  0
LINE
  5
D8
330
1F
100
AcDbEntity
  8
F-D
  6
Continuous
 62
     3
370
    13
100
AcDbLine
 10
-1089.544347814611
 20
-641.6010552483635
 30
0.0
 11
-1064.544265334671
 21
-646.9509516535578
 31
0.0
  0
LINE
  5
D9
330
1F
100
AcDbEntity
  8
F-D
  6
Continuous
 62
     3
370
    13
100
AcDbLine
 10
-1089.544347814611
 20
-639.044383280986
 30
0.0
 11
-1064.544265334671
 21
-644.3944034060916
 31
0.0
  0
LINE
  5
DA
330
1F
100
AcDbEntity
  8
F-D
  6
Continuous
 62
     3
370
    13
100
AcDbLine
 10
-1089.544347814611
 20
-676.8943869101033
 30
0.0
 11
-1064.544265334671
 21
-671.5444905049092
 31
0.0
  0
LINE
  5
DB
330
1F
100
AcDbEntity
  8
F-D
  6
Continuous
 62
     3
370
    13
100
AcDbLine
 10
-1089.544347814611
 20
-702.4603642644108
 30
0.0
 11
-1064.544265334671
 21
-697.1104678592166
 31
0.0
  0
LINE
  5
DC
330
1F
100
AcDbEntity
  8
F-D
  6
Continuous
 62
     3
370
    13
100
AcDbLine
 10
-1089.544347814611
 20
-705.0171599516998
 30
0.0
 11
-1064.544265334671
 21
-699.6672635465054
 31
0.0
  0
LINE
  5
DD
330
1F
100
AcDbEntity
  8
F-D
  6
Continuous
 62
     3
370
    13
100
AcDbLine
 10
-1064.544265334671
 20
-732.4036758010452
 30
0.0
 11
-1089.544347814611
 21
-727.0539031157623
 31
0.0
  0
LINE
  5
DE
330
1F
100
AcDbEntity
  8
F-D
  6
Continuous
 62
     3
370
    13
100
AcDbLine
 10
-1064.544265334671
 20
-734.9602240485113
 30
0.0
 11
-1089.544347814611
 21
-729.6104513632283
 31
0.0
  0
LINE
  5
DF
330
1F
100
AcDbEntity
  8
F-D
  6
Continuous
 62
     3
370
    13
100
AcDbLine
 10
-691.1479228251687
 20
-578.1354625805004
 30
0.0
 11
-713.184913429054
 21
-578.1354625805004
 31
0.0
  0
LINE
  5
E0
330
1F
100
AcDbEntity
  8
F-D
  6
Continuous
 62
     3
370
    13
100
AcDbLine
 10
-713.184913429054
 20
-578.1354625805004
 30
0.0
 11
-715.7414616765203
 21
-585.635611044394
 31
0.0
  0
LINE
  5
E1
330
1F
100
AcDbEntity
  8
F-D
  6
Continuous
 62
     3
370
    13
100
AcDbLine
 10
-715.7414616765203
 20
-585.635611044394
 30
0.0
 11
-741.3074390308276
 21
-585.635611044394
 31
0.0
  0
LINE
  5
E2
330
1F
100
AcDbEntity
  8
F-D
  6
Continuous
 62
     3
370
    13
100
AcDbLine
 10
-743.8642347181164
 20
-578.1354625805004
 30
0.0
 11
-741.3074390308276
 21
-585.635611044394
 31
0.0
  0
LINE
  5
E3
330
1F
100
AcDbEntity
  8
F-D
  6
Continuous
 62
     3
370
    13
100
AcDbLine
 10
-743.8642347181164
 20
-578.1354625805004
 30
0.0
 11
-776.6007706925675
 21
-578.1354625805004
 31
0.0
  0
LINE
  5
E4
330
1F
100
AcDbEntity
  8
F-D
  6
Continuous
 62
     3
370
    13
100
AcDbLine
 10
-776.6007706925675
 20
-578.1354625805004
 30
0.0
 11
-779.1573189400335
 21
-585.635611044394
 31
0.0
  0
LINE
  5
E5
330
1F
100
AcDbEntity
  8
F-D
  6
Continuous
 62
     3
370
    13
100
AcDbLine
 10
-691.1479228251687
 20
-578.1354625805004
 30
0.0
 11
-688.5913745777026
 21
-585.635611044394
 31
0.0
  0
LINE
  5
E6
330
1F
100
AcDbEntity
  8
F-D
  6
Continuous
 62
     3
370
    13
100
AcDbLine
 10
-663.0253972233953
 20
-585.635611044394
 30
0.0
 11
-688.5913745777026
 21
-585.635611044394
 31
0.0
  0
LINE
  5
E7
330
1F
100
AcDbEntity
  8
F-D
  6
Continuous
 62
     3
370
    13
100
AcDbLine
 10
-807.2798445418073
 20
-578.1354625805004
 30
0.0
 11
-829.3168351456925
 21
-578.1354625805004
 31
0.0
  0
LINE
  5
E8
330
1F
100
AcDbEntity
  8
F-D
  6
Continuous
 62
     3
370
    13
100
AcDbLine
 10
-829.3168351456925
 20
-578.1354625805004
 30
0.0
 11
-831.8733833931587
 21
-585.635611044394
 31
0.0
  0
LINE
  5
E9
330
1F
100
AcDbEntity
  8
F-D
  6
Continuous
 62
     3
370
    13
100
AcDbLine
 10
-831.8733833931587
 20
-585.635611044394
 30
0.0
 11
-857.4393607474661
 21
-585.635611044394
 31
0.0
  0
LINE
  5
EA
330
1F
100
AcDbEntity
  8
F-D
  6
Continuous
 62
     3
370
    13
100
AcDbLine
 10
-859.996156434755
 20
-578.1354625805004
 30
0.0
 11
-857.4393607474661
 21
-585.635611044394
 31
0.0
  0
LINE
  5
EB
330
1F
100
AcDbEntity
  8
F-D
  6
Continuous
 62
     3
370
    13
100
AcDbLine
 10
-859.996156434755
 20
-578.1354625805004
 30
0.0
 11
-892.732692409206
 21
-578.1354625805004
 31
0.0
  0
LINE
  5
EC
330
1F
100
AcDbEntity
  8
F-D
  6
Continuous
 62
     3
370
    13
100
AcDbLine
 10
-892.732692409206
 20
-578.1354625805004
 30
0.0
 11
-895.2892406566723
 21
-585.635611044394
 31
0.0
  0
LINE
  5
ED
330
1F
100
AcDbEntity
  8
F-D
  6
Continuous
 62
     3
370
    13
100
AcDbLine
 10
-807.2798445418073
 20
-578.1354625805004
 30
0.0
 11
-804.7232962943411
 21
-585.635611044394
 31
0.0
  0
LINE
  5
EE
330
1F
100
AcDbEntity
  8
F-D
  6
Continuous
 62
     3
370
    13
100
AcDbLine
 10
-779.1573189400335
 20
-585.635611044394
 30
0.0
 11
-804.7232962943411
 21
-585.635611044394
 31
0.0
  0
LINE
  5
EF
330
1F
100
AcDbEntity
  8
F-D
  6
Continuous
 62
     3
370
    13
100
AcDbLine
 10
-923.4117662584458
 20
-578.1354625805004
 30
0.0
 11
-945.448756862331
 21
-578.1354625805004
 31
0.0
  0
LINE
  5
F0
330
1F
100
AcDbEntity
  8
F-D
  6
Continuous
 62
     3
370
    13
100
AcDbLine
 10
-945.448756862331
 20
-578.1354625805004
 30
0.0
 11
-948.0053051097973
 21
-585.635611044394
 31
0.0
  0
LINE
  5
F1
330
1F
100
AcDbEntity
  8
F-D
  6
Continuous
 62
     3
370
    13
100
AcDbLine
 10
-923.4117662584458
 20
-578.1354625805004
 30
0.0
 11
-920.8552180109797
 21
-585.635611044394
 31
0.0
  0
LINE
  5
F2
330
1F
100
AcDbEntity
  8
F-D
  6
Continuous
 62
     3
370
    13
100
AcDbLine
 10
-895.2892406566723
 20
-585.635611044394
 30
0.0
 11
-920.8552180109797
 21
-585.635611044394
 31
0.0
  0
LINE
  5
F3
330
1F
100
AcDbEntity
  8
F-D
  6
Continuous
 62
     3
370
    13
100
AcDbLine
 10
-948.0053051097973
 20
-585.635611044394
 30
0.0
 11
-963.257495777027
 21
-585.635611044394
 31
0.0
  0
LINE
  5
F4
330
1F
100
AcDbEntity
  8
F-D
  6
Continuous
 62
     3
370
    13
100
AcDbLine
 10
-566.7433455183698
 20
-710.6355285644531
 30
0.0
 11
-963.257495777027
 21
-710.6355285644531
 31
0.0
  0
LINE
  5
F5
330
1F
100
AcDbEntity
  8
F-D
  6
Continuous
 62
     3
370
    13
100
AcDbLine
 10
-566.7433455183698
 20
-688.1355780524176
 30
0.0
 11
-963.257495777027
 21
-688.1355780524176
 31
0.0
  0
LINE
  5
F6
330
1F
100
AcDbEntity
  8
F-D
  6
Continuous
 62
     3
370
    13
100
AcDbLine
 10
-566.7433455183698
 20
-683.1355615564294
 30
0.0
 11
-963.257495777027
 21
-683.1355615564294
 31
0.0
  0
LINE
  5
F7
330
1F
100
AcDbEntity
  8
F-D
  6
Continuous
 62
     3
370
    13
100
AcDbLine
 10
-566.7433455183698
 20
-608.1355615564294
 30
0.0
 11
-963.257495777027
 21
-608.1355615564294
 31
0.0
  0
LINE
  5
F8
330
1F
100
AcDbEntity
  8
F-D
  6
Continuous
 62
     3
370
    13
100
AcDbLine
 10
-566.7433455183698
 20
-613.1355780524176
 30
0.0
 11
-963.257495777027
 21
-613.1355780524176
 31
0.0
  0
LINE
  5
F9
330
1F
100
AcDbEntity
  8
F-D
  6
Continuous
 62
     3
370
    13
100
AcDbLine
 10
-430.9651967641469
 20
-585.635611044394
 30
0.0
 11
-405.9653617240286
 21
-585.635611044394
 31
0.0
  0
LINE
  5
FA
330
1F
100
AcDbEntity
  8
F-D
  6
Continuous
 62
     3
370
    13
100
AcDbLine
 10
-405.9653617240286
 20
-710.6355285644531
 30
0.0
 11
-430.9651967641469
 21
-710.6355285644531
 31
0.0
  0
LINE
  5
FB
330
1F
100
AcDbEntity
  8
F-D
  6
Continuous
 62
     3
370
    13
100
AcDbLine
 10
-405.9653617240286
 20
-688.1355780524176
 30
0.0
 11
-405.9653617240286
 21
-710.6355285644531
 31
0.0
  0
LINE
  5
FC
330
1F
100
AcDbEntity
  8
F-D
  6
Continuous
 62
     3
370
    13
100
AcDbLine
 10
-410.9653782200169
 20
-683.1353141166068
 30
0.0
 11
-405.9653617240286
 21
-688.1355780524176
 31
0.0
  0
LINE
  5
FD
330
1F
100
AcDbEntity
  8
F-D
  6
Continuous
 62
     3
370
    13
100
AcDbLine
 10
-430.9651967641469
 20
-710.6355285644531
 30
0.0
 11
-430.9651967641469
 21
-688.1355780524176
 31
0.0
  0
LINE
  5
FE
330
1F
100
AcDbEntity
  8
F-D
  6
Continuous
 62
     3
370
    13
100
AcDbLine
 10
-430.9651967641469
 20
-688.1355780524176
 30
0.0
 11
-425.9651802681586
 21
-683.1353141166068
 31
0.0
  0
LINE
  5
FF
330
1F
100
AcDbEntity
  8
F-D
  6
Continuous
 62
     3
370
    13
100
AcDbLine
 10
-430.9651967641469
 20
-608.1358089962521
 30
0.0
 11
-430.9651967641469
 21
-585.635611044394
 31
0.0
  0
LINE
  5
100
330
1F
100
AcDbEntity
  8
F-D
  6
Continuous
 62
     3
370
    13
100
AcDbLine
 10
-430.9651967641469
 20
-608.1358089962521
 30
0.0
 11
-425.9651802681586
 21
-613.1355780524176
 31
0.0
  0
LINE
  5
101
330
1F
100
AcDbEntity
  8
F-D
  6
Continuous
 62
     3
370
    13
100
AcDbLine
 10
-425.9651802681586
 20
-683.1353141166068
 30
0.0
 11
-425.9651802681586
 21
-613.1355780524176
 31
0.0
  0
LINE
  5
102
330
1F
100
AcDbEntity
  8
F-D
  6
Continuous
 62
     3
370
    13
100
AcDbLine
 10
-410.9653782200169
 20
-613.1355780524176
 30
0.0
 11
-410.9653782200169
 21
-683.1353141166068
 31
0.0
  0
LINE
  5
103
330
1F
100
AcDbEntity
  8
F-D
  6
Continuous
 62
     3
370
    13
100
AcDbLine
 10
-410.9653782200169
 20
-613.1355780524176
 30
0.0
 11
-405.9653617240286
 21
-608.1358089962521
 31
0.0
  0
LINE
  5
104
330
1F
100
AcDbEntity
  8
F-D
  6
Continuous
 62
     3
370
    13
100
AcDbLine
 10
-405.9653617240286
 20
-585.635611044394
 30
0.0
 11
-405.9653617240286
 21
-608.1358089962521
 31
0.0
  0
LINE
  5
105
330
1F
100
AcDbEntity
  8
F-D
  6
Continuous
 62
     3
370
    13
100
AcDbLine
 10
-430.9651967641469
 20
-585.635611044394
 30
0.0
 11
-405.9653617240286
 21
-585.635611044394
 31
0.0
  0
LINE
  5
106
330
1F
100
AcDbEntity
  8
F-D
  6
Continuous
 62
     3
370
    13
100
AcDbLine
 10
-430.9651967641469
 20
-578.135710020323
 30
0.0
 11
-405.9653617240286
 21
-578.135710020323
 31
0.0
  0
LINE
  5
107
330
1F
100
AcDbEntity
  8
F-D
  6
Continuous
 62
     3
370
    13
100
AcDbLine
 10
-430.9651967641469
 20
-578.135710020323
 30
0.0
 11
-430.9651967641469
 21
-585.635611044394
 31
0.0
  0
LINE
  5
108
330
1F
100
AcDbEntity
  8
F-D
  6
Continuous
 62
     3
370
    13
100
AcDbLine
 10
-405.9653617240286
 20
-578.135710020323
 30
0.0
 11
-405.9653617240286
 21
-585.635611044394
 31
0.0
  0
LINE
  5
109
330
1F
100
AcDbEntity
  8
F-D
  6
Continuous
 62
     7
370
    13
100
AcDbLine
 10
-283.5190231735641
 20
-710.6355285644531
 30
0.0
 11
-283.5190231735641
 21
-585.635611044394
 31
0.0
  0
LINE
  5
10A
330
1F
100
AcDbEntity
  8
F-D
  6
Continuous
 62
     7
370
    13
100
AcDbLine
 10
-387.1906177417651
 20
-710.6355285644531
 30
0.0
 11
-280.5190627639357
 21
-710.6355285644531
 31
0.0
  0
LINE
  5
10B
330
1F
100
AcDbEntity
  8
F-D
  6
Continuous
 62
     7
370
    13
100
AcDbLine
 10
-387.1906177417651
 20
-585.635611044394
 30
0.0
 11
-280.5190627639357
 21
-585.635611044394
 31
0.0
  0
LINE
  5
10C
330
1F
100
AcDbEntity
  8
F-D
  6
Continuous
 62
     7
370
    13
100
AcDbLine
 10
-283.5190231735641
 20
-710.6355285644531
 30
0.0
 11
-286.7822595544763
 21
-685.8494815310916
 31
0.0
  0
LINE
  5
10D
330
1F
100
AcDbEntity
  8
F-D
  6
Continuous
 62
     7
370
    13
100
AcDbLine
 10
-283.5190231735641
 20
-710.6355285644531
 30
0.0
 11
-280.2560342324745
 21
-685.8494815310916
 31
0.0
  0
LINE
  5
10E
330
1F
100
AcDbEntity
  8
F-D
  6
Continuous
 62
     7
370
    13
100
AcDbLine
 10
-283.5190231735641
 20
-585.635611044394
 30
0.0
 11
-286.7822595544763
 21
-610.4215962177998
 31
0.0
  0
LINE
  5
10F
330
1F
100
AcDbEntity
  8
F-D
  6
Continuous
 62
     7
370
    13
100
AcDbLine
 10
-283.5190231735641
 20
-585.635611044394
 30
0.0
 11
-280.2560342324745
 21
-610.4215962177998
 31
0.0
  0
LINE
  5
110
330
1F
100
AcDbEntity
  8
F-D
  6
JWW_HOJO
 62
     3
370
    13
100
AcDbLine
 10
-1069.775885504645
 20
-759.4067836452175
 30
0.0
 11
-1094.775720544763
 21
-754.0571965398015
 31
0.0
  0
LINE
  5
111
330
1F
100
AcDbEntity
  8
F-D
  6
Continuous
 62
     3
370
    13
100
AcDbLine
 10
-1089.544347814611
 20
-757.7331006849134
 30
0.0
 11
-1064.544265334671
 21
-763.0826877903293
 31
0.0
  0
LINE
  5
112
330
1F
100
AcDbEntity
  8
F-D
  6
Continuous
 62
     3
370
    13
100
AcDbLine
 10
-1089.544347814611
 20
-755.1765524374471
 30
0.0
 11
-1064.544265334671
 21
-760.5262632627745
 31
0.0
  0
LINE
  5
113
330
1F
100
AcDbEntity
  8
F-D
  6
Continuous
 62
     3
370
    13
100
AcDbLine
 10
-1080.807495117188
 20
-558.8928717535895
 30
0.0
 11
-1064.544265334671
 21
-575.1557922363281
 31
0.0
  0
LINE
  5
114
330
1F
100
AcDbEntity
  8
F-D
  6
Continuous
 62
     3
370
    13
100
AcDbLine
 10
-1072.070394979941
 20
-557.0232164537584
 30
0.0
 11
-1064.544265334671
 21
-564.5490367992504
 31
0.0
  0
LINE
  5
115
330
1F
100
AcDbEntity
  8
F-D
  6
Continuous
 62
     3
370
    13
100
AcDbLine
 10
-1089.544347814611
 20
-560.7625270534206
 30
0.0
 11
-1068.484991949958
 21
-581.8218210581186
 31
0.0
  0
LINE
  5
116
330
1F
100
AcDbEntity
  8
F-D
  6
Continuous
 62
     3
370
    13
100
AcDbLine
 10
-1089.544347814611
 20
-571.3692206305426
 30
0.0
 11
-1077.221844647382
 21
-583.6914763579498
 31
0.0
  0
LINE
  5
117
330
1F
100
AcDbEntity
  8
F-D
  6
Continuous
 62
     3
370
    13
100
AcDbLine
 10
-1089.544347814611
 20
-581.9756667678421
 30
0.0
 11
-1085.958944784628
 21
-585.5611316577807
 31
0.0
  0
LINE
  5
118
330
1F
100
AcDbEntity
  8
F-D
  6
Continuous
 62
     3
370
    13
100
AcDbLine
 10
-1089.544347814611
 20
-634.691916800834
 30
0.0
 11
-1084.006644584037
 21
-640.229496311497
 31
0.0
  0
LINE
  5
119
330
1F
100
AcDbEntity
  8
F-D
  6
Continuous
 62
     3
370
    13
100
AcDbLine
 10
-1089.544347814611
 20
-624.0851613637562
 30
0.0
 11
-1070.512266416808
 21
-643.1173664814717
 31
0.0
  0
LINE
  5
11A
330
1F
100
AcDbEntity
  8
F-D
  6
Continuous
 62
     3
370
    13
100
AcDbLine
 10
-1089.544347814611
 20
-613.4784677866343
 30
0.0
 11
-1064.544265334671
 21
-638.4784884066196
 31
0.0
  0
LINE
  5
11B
330
1F
100
AcDbEntity
  8
F-D
  6
Continuous
 62
     3
370
    13
100
AcDbLine
 10
-1076.049969647382
 20
-616.3663998165646
 30
0.0
 11
-1064.544265334671
 21
-627.8718566894531
 31
0.0
  0
LINE
  5
11C
330
1F
100
AcDbEntity
  8
F-D
  6
Continuous
 62
     3
370
    13
100
AcDbLine
 10
-1080.807495117188
 20
-675.0247316102724
 30
0.0
 11
-1064.544265334671
 21
-691.2877139529666
 31
0.0
  0
LINE
  5
11D
330
1F
100
AcDbEntity
  8
F-D
  6
Continuous
 62
     3
370
    13
100
AcDbLine
 10
-1072.070394979941
 20
-673.1550763104412
 30
0.0
 11
-1064.544265334671
 21
-680.680958515889
 31
0.0
  0
LINE
  5
11E
330
1F
100
AcDbEntity
  8
F-D
  6
Continuous
 62
     3
370
    13
100
AcDbLine
 10
-1089.544347814611
 20
-676.8943869101033
 30
0.0
 11
-1068.484991949958
 21
-697.9537427747572
 31
0.0
  0
LINE
  5
11F
330
1F
100
AcDbEntity
  8
F-D
  6
Continuous
 62
     3
370
    13
100
AcDbLine
 10
-1089.544347814611
 20
-687.5011423471811
 30
0.0
 11
-1077.221844647382
 21
-699.8233980745883
 31
0.0
  0
LINE
  5
120
330
1F
100
AcDbEntity
  8
F-D
  6
Continuous
 62
     3
370
    13
100
AcDbLine
 10
-1089.544347814611
 20
-698.1076503444363
 30
0.0
 11
-1085.958944784628
 21
-701.6930533744193
 31
0.0
  0
LINE
  5
121
330
1F
100
AcDbEntity
  8
F-D
  6
Continuous
 62
     3
370
    13
100
AcDbLine
 10
-1089.544347814611
 20
-750.8236529376056
 30
0.0
 11
-1084.006644584037
 21
-756.3612943082242
 31
0.0
  0
LINE
  5
122
330
1F
100
AcDbEntity
  8
F-D
  6
Continuous
 62
     3
370
    13
100
AcDbLine
 10
-1089.544347814611
 20
-740.2173305202175
 30
0.0
 11
-1070.512266416808
 21
-759.2494119180215
 31
0.0
  0
LINE
  5
123
330
1F
100
AcDbEntity
  8
F-D
  6
Continuous
 62
     3
370
    13
100
AcDbLine
 10
-1089.544347814611
 20
-729.6104513632283
 30
0.0
 11
-1064.544265334671
 21
-754.6103482633023
 31
0.0
  0
LINE
  5
124
330
1F
100
AcDbEntity
  8
F-D
  6
Continuous
 62
     3
370
    13
100
AcDbLine
 10
-1076.049969647382
 20
-732.4981978132918
 30
0.0
 11
-1064.544265334671
 21
-744.0036546861803
 31
0.0
  0
LINE
  5
125
330
1F
100
AcDbEntity
  8
F-D
  6
Continuous
 62
     3
370
    13
100
AcDbLine
 10
-1064.544265334671
 20
-500.140017947635
 30
0.0
 11
-1089.544347814611
 21
-494.7899978225296
 31
0.0
  0
LINE
  5
126
330
1F
100
AcDbEntity
  8
F-D
  6
Continuous
 62
     3
370
    13
100
AcDbLine
 10
-1064.544265334671
 20
-502.6965661951013
 30
0.0
 11
-1089.544347814611
 21
-497.346669789907
 31
0.0
  0
LINE
  5
127
330
1F
100
AcDbEntity
  8
F-D
  6
JWW_HOJO
 62
     3
370
    13
100
AcDbLine
 10
-1069.775885504645
 20
-527.1431257918074
 30
0.0
 11
-1094.775720544763
 21
-521.7932293866131
 31
0.0
  0
LINE
  5
128
330
1F
100
AcDbEntity
  8
F-D
  6
Continuous
 62
     3
370
    13
100
AcDbLine
 10
-1089.544347814611
 20
-525.4691953916807
 30
0.0
 11
-1064.544265334671
 21
-530.819091796875
 31
0.0
  0
LINE
  5
129
330
1F
100
AcDbEntity
  8
F-D
  6
Continuous
 62
     3
370
    13
100
AcDbLine
 10
-1089.544347814611
 20
-522.9126471442145
 30
0.0
 11
-1064.544265334671
 21
-528.2625435494087
 31
0.0
  0
LINE
  5
12A
330
1F
100
AcDbEntity
  8
F-D
  6
Continuous
 62
     3
370
    13
100
AcDbLine
 10
-1089.544347814611
 20
-518.5599332242398
 30
0.0
 11
-1084.006644584037
 21
-524.0976364548142
 31
0.0
  0
LINE
  5
12B
330
1F
100
AcDbEntity
  8
F-D
  6
Continuous
 62
     3
370
    13
100
AcDbLine
 10
-1089.544347814611
 20
-507.9534252269848
 30
0.0
 11
-1070.512266416808
 21
-526.9855066247887
 31
0.0
  0
LINE
  5
12C
330
1F
100
AcDbEntity
  8
F-D
  6
Continuous
 62
     3
370
    13
100
AcDbLine
 10
-1089.544347814611
 20
-497.346669789907
 30
0.0
 11
-1064.544265334671
 21
-522.3465048300252
 31
0.0
  0
LINE
  5
12D
330
1F
100
AcDbEntity
  8
F-D
  6
Continuous
 62
     3
370
    13
100
AcDbLine
 10
-1076.049969647382
 20
-500.2345399598818
 30
0.0
 11
-1064.544265334671
 21
-511.7399968327702
 31
0.0
  0
LINE
  5
12E
330
1F
100
AcDbEntity
  8
F-D
  6
Continuous
 62
     3
370
    13
100
AcDbLine
 10
-1064.544265334671
 20
-483.0119859850083
 30
0.0
 11
-1064.544265334671
 21
-774.4866943359375
 31
0.0
  0
LINE
  5
12F
330
1F
100
AcDbEntity
  8
F-D
  6
Continuous
 62
     3
370
    13
100
AcDbLine
 10
-1089.544347814611
 20
-483.0119859850083
 30
0.0
 11
-1089.544347814611
 21
-774.4866943359375
 31
0.0
  0
LINE
  5
130
330
1F
100
AcDbEntity
  8
F-D
  6
Continuous
 62
     7
370
    13
100
AcDbLine
 10
-1106.481108794341
 20
-702.4603642644108
 30
0.0
 11
-1160.175797745988
 21
-702.4603642644108
 31
0.0
  0
LINE
  5
131
330
1F
100
AcDbEntity
  8
F-D
  6
Continuous
 62
     7
370
    13
100
AcDbLine
 10
-1106.481108794341
 20
-729.6104513632283
 30
0.0
 11
-1160.175797745988
 21
-729.6104513632283
 31
0.0
  0
LINE
  5
132
330
1F
100
AcDbEntity
  8
F-D
  6
Continuous
 62
     7
370
    13
100
AcDbLine
 10
-1157.17583733636
 20
-702.4603642644108
 30
0.0
 11
-1160.439321157095
 21
-677.6743172310494
 31
0.0
  0
LINE
  5
133
330
1F
100
AcDbEntity
  8
F-D
  6
Continuous
 62
     7
370
    13
100
AcDbLine
 10
-1157.17583733636
 20
-702.4603642644108
 30
0.0
 11
-1153.912600955447
 21
-677.6743172310494
 31
0.0
  0
LINE
  5
134
330
1F
100
AcDbEntity
  8
F-D
  6
Continuous
 62
     7
370
    13
100
AcDbLine
 10
-1157.17583733636
 20
-729.6104513632283
 30
0.0
 11
-1160.439321157095
 21
-754.3966221165011
 31
0.0
  0
LINE
  5
135
330
1F
100
AcDbEntity
  8
F-D
  6
Continuous
 62
     7
370
    13
100
AcDbLine
 10
-1157.17583733636
 20
-729.6104513632283
 30
0.0
 11
-1153.912600955447
 21
-754.3966221165011
 31
0.0
  0
LINE
  5
136
330
1F
100
AcDbEntity
  8
F-D
  6
Continuous
 62
     7
370
    13
100
AcDbLine
 10
-1106.481108794341
 20
-522.9126471442145
 30
0.0
 11
-1160.175797745988
 21
-522.9126471442145
 31
0.0
  0
LINE
  5
137
330
1F
100
AcDbEntity
  8
F-D
  6
Continuous
 62
     7
370
    13
100
AcDbLine
 10
-1106.481108794341
 20
-560.7625270534206
 30
0.0
 11
-1160.175797745988
 21
-560.7625270534206
 31
0.0
  0
LINE
  5
138
330
1F
100
AcDbEntity
  8
F-D
  6
Continuous
 62
     7
370
    13
100
AcDbLine
 10
-1157.17583733636
 20
-522.9126471442145
 30
0.0
 11
-1160.439321157095
 21
-498.126600110853
 31
0.0
  0
LINE
  5
139
330
1F
100
AcDbEntity
  8
F-D
  6
Continuous
 62
     7
370
    13
100
AcDbLine
 10
-1157.17583733636
 20
-522.9126471442145
 30
0.0
 11
-1153.912600955447
 21
-498.126600110853
 31
0.0
  0
LINE
  5
13A
330
1F
100
AcDbEntity
  8
F-D
  6
Continuous
 62
     7
370
    13
100
AcDbLine
 10
-1157.17583733636
 20
-560.7625270534206
 30
0.0
 11
-1160.439321157095
 21
-585.5485122268265
 31
0.0
  0
LINE
  5
13B
330
1F
100
AcDbEntity
  8
F-D
  6
Continuous
 62
     7
370
    13
100
AcDbLine
 10
-1157.17583733636
 20
-560.7625270534206
 30
0.0
 11
-1153.912600955447
 21
-585.5485122268265
 31
0.0
  0
LINE
  5
13C
330
1F
100
AcDbEntity
  8
F-D
  6
Continuous
 62
     7
370
    13
100
AcDbLine
 10
-1157.17583733636
 20
-670.9607799633129
 30
0.0
 11
-1157.17583733636
 21
-768.8708001214104
 31
0.0
  0
LINE
  5
13D
330
1F
100
AcDbEntity
  8
F-D
  6
Continuous
 62
     7
370
    13
100
AcDbLine
 10
-1157.17583733636
 20
-488.5031705289273
 30
0.0
 11
-1157.17583733636
 21
-594.7209827319995
 31
0.0
  0
LINE
  5
13E
330
1F
100
AcDbEntity
  8
F-D
  6
Continuous
 62
     7
370
    13
100
AcDbLine
 10
-1052.653049778294
 20
-578.4339987265096
 30
0.0
 11
-1020.637306007179
 21
-571.5827611974767
 31
0.0
  0
LINE
  5
13F
330
1F
100
AcDbEntity
  8
F-D
  6
Continuous
 62
     7
370
    13
100
AcDbLine
 10
-1057.884422508446
 20
-553.9876247096706
 30
0.0
 11
-1025.868926177154
 21
-547.1362634607262
 31
0.0
  0
LINE
  5
140
330
1F
100
AcDbEntity
  8
F-D
  6
Continuous
 62
     7
370
    13
100
AcDbLine
 10
-1023.570952544341
 20
-572.2105160275021
 30
0.0
 11
-1015.193382469383
 21
-595.7649932036529
 31
0.0
  0
LINE
  5
141
330
1F
100
AcDbEntity
  8
F-D
  6
Continuous
 62
     7
370
    13
100
AcDbLine
 10
-1023.570952544341
 20
-572.2105160275021
 30
0.0
 11
-1021.575102934966
 21
-597.1306754447318
 31
0.0
  0
LINE
  5
142
330
1F
100
AcDbEntity
  8
F-D
  6
Continuous
 62
     7
370
    13
100
AcDbLine
 10
-1028.802325274493
 20
-547.7638945708404
 30
0.0
 11
-1030.798174883868
 21
-522.8437351536105
 31
0.0
  0
LINE
  5
143
330
1F
100
AcDbEntity
  8
F-D
  6
Continuous
 62
     7
370
    13
100
AcDbLine
 10
-1028.802325274493
 20
-547.7638945708404
 30
0.0
 11
-1037.180142789274
 21
-524.2094792546452
 31
0.0
  0
LINE
  5
144
330
1F
100
AcDbEntity
  8
F-D
  6
Continuous
 62
     7
370
    13
100
AcDbLine
 10
-1017.296868401605
 20
-601.5294131717166
 30
0.0
 11
-1035.65294420397
 21
-515.7512437975083
 31
0.0
  0
LINE
  5
145
330
1F
100
AcDbEntity
  8
F-D
  6
Continuous
 62
     7
370
    13
100
AcDbLine
 10
-405.9653617240286
 20
-566.5515672838366
 30
0.0
 11
-405.9653617240286
 21
-530.381618190456
 31
0.0
  0
LINE
  5
146
330
1F
100
AcDbEntity
  8
F-D
  6
Continuous
 62
     7
370
    13
100
AcDbLine
 10
-430.9651967641469
 20
-566.5515672838366
 30
0.0
 11
-430.9651967641469
 21
-530.381618190456
 31
0.0
  0
LINE
  5
147
330
1F
100
AcDbEntity
  8
F-D
  6
Continuous
 62
     7
370
    13
100
AcDbLine
 10
-405.9653617240286
 20
-533.381454880173
 30
0.0
 11
-381.1790672508445
 21
-530.1183422191723
 31
0.0
  0
LINE
  5
148
330
1F
100
AcDbEntity
  8
F-D
  6
Continuous
 62
     7
370
    13
100
AcDbLine
 10
-405.9653617240286
 20
-533.381454880173
 30
0.0
 11
-381.1790672508445
 21
-536.6448149809967
 31
0.0
  0
LINE
  5
149
330
1F
100
AcDbEntity
  8
F-D
  6
Continuous
 62
     7
370
    13
100
AcDbLine
 10
-430.9651967641469
 20
-533.381454880173
 30
0.0
 11
-455.751491237331
 21
-530.1183422191723
 31
0.0
  0
LINE
  5
14A
330
1F
100
AcDbEntity
  8
F-D
  6
Continuous
 62
     7
370
    13
100
AcDbLine
 10
-430.9651967641469
 20
-533.381454880173
 30
0.0
 11
-455.751491237331
 21
-536.6448149809967
 31
0.0
  0
LINE
  5
14B
330
1F
100
AcDbEntity
  8
F-D
  6
Continuous
 62
     7
370
    13
100
AcDbLine
 10
-378.0925029032937
 20
-533.381454880173
 30
0.0
 11
-458.6485166807432
 21
-533.381454880173
 31
0.0
  0
LINE
  5
14C
330
1F
100
AcDbEntity
  8
F-D
  6
Continuous
 62
     7
370
    13
100
AcDbLine
 10
-410.9653782200169
 20
-670.8009338378906
 30
0.0
 11
-410.9653782200169
 21
-673.800894247519
 31
0.0
  0
LINE
  5
14D
330
1F
100
AcDbEntity
  8
F-D
  6
Continuous
 62
     7
370
    13
100
AcDbLine
 10
-425.9651802681586
 20
-670.8009338378906
 30
0.0
 11
-425.9651802681586
 21
-673.800894247519
 31
0.0
  0
LINE
  5
14E
330
1F
100
AcDbEntity
  8
F-D
  6
Continuous
 62
     7
370
    13
100
AcDbLine
 10
-410.9653782200169
 20
-670.8009338378906
 30
0.0
 11
-386.1793311866552
 21
-667.5376974569783
 31
0.0
  0
LINE
  5
14F
330
1F
100
AcDbEntity
  8
F-D
  6
Continuous
 62
     7
370
    13
100
AcDbLine
 10
-410.9653782200169
 20
-670.8009338378906
 30
0.0
 11
-386.1793311866552
 21
-674.0641702188027
 31
0.0
  0
LINE
  5
150
330
1F
100
AcDbEntity
  8
F-D
  6
Continuous
 62
     7
370
    13
100
AcDbLine
 10
-425.9651802681586
 20
-670.8009338378906
 30
0.0
 11
-450.7512273015203
 21
-667.5376974569783
 31
0.0
  0
LINE
  5
151
330
1F
100
AcDbEntity
  8
F-D
  6
Continuous
 62
     7
370
    13
100
AcDbLine
 10
-425.9651802681586
 20
-670.8009338378906
 30
0.0
 11
-450.7512273015203
 21
-674.0641702188027
 31
0.0
  0
LINE
  5
152
330
1F
100
AcDbEntity
  8
F-D
  6
Continuous
 62
     7
370
    13
100
AcDbLine
 10
-375.2080968908359
 20
-670.8009338378906
 30
0.0
 11
-455.6784964896536
 21
-670.8009338378906
 31
0.0
  0
LINE
  5
153
330
1F
100
AcDbEntity
  8
F-D
  6
Continuous
 62
     7
370
    13
100
AcDbLine
 10
-1155.466770481419
 20
-846.7238431363492
 30
0.0
 11
-1155.466770481419
 21
-913.1747972643052
 31
0.0
  0
LINE
  5
154
330
1F
100
AcDbEntity
  8
F-D
  6
Continuous
 62
     7
370
    13
100
AcDbLine
 10
-1155.466770481419
 20
-913.1747972643052
 30
0.0
 11
-317.158961940456
 21
-913.1747972643052
 31
0.0
  0
LINE
  5
155
330
1F
100
AcDbEntity
  8
F-D
  6
Continuous
 62
     7
370
    13
100
AcDbLine
 10
-317.158961940456
 20
-913.1747972643052
 30
0.0
 11
-317.158961940456
 21
-846.7238431363492
 31
0.0
  0
LINE
  5
156
330
1F
100
AcDbEntity
  8
F-D
  6
Continuous
 62
     7
370
    13
100
AcDbLine
 10
-317.158961940456
 20
-846.7238431363492
 30
0.0
 11
-1155.466770481419
 21
-846.7238431363492
 31
0.0
  0
LINE
  5
157
330
1F
100
AcDbEntity
  8
F-D
  6
Continuous
 62
     7
370
    13
100
AcDbLine
 10
-1064.544265334671
 20
-479.038844752956
 30
0.0
 11
-1064.544265334671
 21
-443.077673009924
 31
0.0
  0
LINE
  5
158
330
1F
100
AcDbEntity
  8
F-D
  6
Continuous
 62
     7
370
    13
100
AcDbLine
 10
-1089.544347814611
 20
-479.038844752956
 30
0.0
 11
-1089.544347814611
 21
-443.077673009924
 31
0.0
  0
LINE
  5
159
330
1F
100
AcDbEntity
  8
F-D
  6
Continuous
 62
     7
370
    13
100
AcDbLine
 10
-1064.544265334671
 20
-446.0776334195523
 30
0.0
 11
-1039.758218301309
 21
-442.8143970386401
 31
0.0
  0
LINE
  5
15A
330
1F
100
AcDbEntity
  8
F-D
  6
Continuous
 62
     7
370
    13
100
AcDbLine
 10
-1064.544265334671
 20
-446.0776334195523
 30
0.0
 11
-1039.758218301309
 21
-449.3408698004645
 31
0.0
  0
LINE
  5
15B
330
1F
100
AcDbEntity
  8
F-D
  6
Continuous
 62
     7
370
    13
100
AcDbLine
 10
-1089.544347814611
 20
-446.0776334195523
 30
0.0
 11
-1114.330394847973
 21
-442.8143970386401
 31
0.0
  0
LINE
  5
15C
330
1F
100
AcDbEntity
  8
F-D
  6
Continuous
 62
     7
370
    13
100
AcDbLine
 10
-1089.544347814611
 20
-446.0776334195523
 30
0.0
 11
-1114.330394847973
 21
-449.3408698004645
 31
0.0
  0
LINE
  5
15D
330
1F
100
AcDbEntity
  8
F-D
  6
Continuous
 62
     7
370
    13
100
AcDbLine
 10
-1027.543846336571
 20
-446.0776334195523
 30
0.0
 11
-1121.932983398438
 21
-446.0776334195523
 31
0.0
  0
LINE
  5
15E
330
1F
100
AcDbEntity
  8
1-2
  6
Continuous
 62
     3
370
    13
100
AcDbLine
 10
313.6755041173987
 20
-186.8109295819255
 30
0.0
 11
313.6755041173987
 21
-195.8108108108107
 31
0.0
  0
LINE
  5
15F
330
1F
100
AcDbEntity
  8
1-2
  6
Continuous
 62
     3
370
    13
100
AcDbLine
 10
313.6755041173987
 20
844.189156197213
 30
0.0
 11
313.6755041173987
 21
835.1887800886825
 31
0.0
  0
LINE
  5
160
330
1F
100
AcDbEntity
  8
1-2
  6
Continuous
 62
     3
370
    13
100
AcDbLine
 10
325.6758406355576
 20
835.1887800886825
 30
0.0
 11
275.6756756756758
 21
835.1887800886825
 31
0.0
  0
LINE
  5
161
330
1F
100
AcDbEntity
  8
1-2
  6
Continuous
 62
     3
370
    13
100
AcDbLine
 10
275.6756756756758
 20
803.7718406883448
 30
0.0
 11
275.6756756756758
 21
793.5451528188346
 31
0.0
  0
LINE
  5
162
330
1F
100
AcDbEntity
  8
1-2
  6
Continuous
 62
     3
370
    13
100
AcDbLine
 10
284.6755569045609
 20
-150.6146900073901
 30
0.0
 11
284.6755569045609
 21
-151.5070817277237
 31
0.0
  0
LINE
  5
163
330
1F
100
AcDbEntity
  8
1-2
  6
Continuous
 62
     3
370
    13
100
AcDbLine
 10
-1127.297231313345
 20
844.189156197213
 30
0.0
 11
-97.29729729729712
 21
844.189156197213
 31
0.0
  0
LINE
  5
164
330
1F
100
AcDbEntity
  8
1-2
  6
Continuous
 62
     3
370
    13
100
AcDbLine
 10
-1127.297231313345
 20
835.1877903293919
 30
0.0
 11
-97.29729729729712
 21
835.1877903293919
 31
0.0
  0
LINE
  5
165
330
1F
100
AcDbEntity
  8
1-2
  6
Continuous
 62
     3
370
    13
100
AcDbLine
 10
-97.29729729729712
 20
718.1890869140625
 30
0.0
 11
-1127.297231313345
 21
718.1890869140625
 31
0.0
  0
LINE
  5
166
330
1F
100
AcDbEntity
  8
1-2
  6
Continuous
 62
     3
370
    13
100
AcDbLine
 10
-97.29729729729712
 20
730.1894234322214
 30
0.0
 11
-1127.297231313345
 21
730.1894234322214
 31
0.0
  0
LINE
  5
167
330
1F
100
AcDbEntity
  8
1-2
  6
Continuous
 62
     3
370
    13
100
AcDbLine
 10
-97.29729729729712
 20
530.1895059121623
 30
0.0
 11
-1127.297231313345
 21
530.1895059121623
 31
0.0
  0
LINE
  5
168
330
1F
100
AcDbEntity
  8
1-2
  6
Continuous
 62
     3
370
    13
100
AcDbLine
 10
-1117.296950881546
 20
530.1895059121623
 30
0.0
 11
-1117.296950881546
 21
718.1890869140625
 31
0.0
  0
LINE
  5
169
330
1F
100
AcDbEntity
  8
1-2
  6
Continuous
 62
     3
370
    13
100
AcDbLine
 10
-1097.297256057327
 20
530.1895059121623
 30
0.0
 11
-1097.297256057327
 21
718.1890869140625
 31
0.0
  0
LINE
  5
16A
330
1F
100
AcDbEntity
  8
1-2
  6
Continuous
 62
     3
370
    13
100
AcDbLine
 10
-1087.297965384818
 20
530.1895059121623
 30
0.0
 11
-1087.297965384818
 21
718.1890869140625
 31
0.0
  0
LINE
  5
16B
330
1F
100
AcDbEntity
  8
1-2
  6
Continuous
 62
     3
370
    13
100
AcDbLine
 10
-107.2967116897169
 20
530.1895059121623
 30
0.0
 11
-107.2967116897169
 21
718.1890869140625
 31
0.0
  0
LINE
  5
16C
330
1F
100
AcDbEntity
  8
1-2
  6
Continuous
 62
     3
370
    13
100
AcDbLine
 10
-1117.296950881546
 20
730.1894234322214
 30
0.0
 11
-1117.296950881546
 21
835.1877903293919
 31
0.0
  0
LINE
  5
16D
330
1F
100
AcDbEntity
  8
1-2
  6
Continuous
 62
     3
370
    13
100
AcDbLine
 10
-1097.297256057327
 20
730.1894234322214
 30
0.0
 11
-1097.297256057327
 21
835.1877903293919
 31
0.0
  0
LINE
  5
16E
330
1F
100
AcDbEntity
  8
1-2
  6
Continuous
 62
     3
370
    13
100
AcDbLine
 10
-1087.297965384818
 20
730.1894234322214
 30
0.0
 11
-1087.297965384818
 21
835.1877903293919
 31
0.0
  0
LINE
  5
16F
330
1F
100
AcDbEntity
  8
1-2
  6
Continuous
 62
     3
370
    13
100
AcDbLine
 10
-1117.296950881546
 20
730.1894234322214
 30
0.0
 11
-1117.296950881546
 21
835.1877903293919
 31
0.0
  0
LINE
  5
170
330
1F
100
AcDbEntity
  8
1-2
  6
Continuous
 62
     3
370
    13
100
AcDbLine
 10
-107.2967116897169
 20
730.1894234322214
 30
0.0
 11
-107.2967116897169
 21
835.1877903293919
 31
0.0
  0
LINE
  5
171
330
1F
100
AcDbEntity
  8
1-2
  6
Continuous
 62
     3
370
    13
100
AcDbLine
 10
-1117.296950881546
 20
530.1895059121623
 30
0.0
 11
-1117.296950881546
 21
718.1890869140625
 31
0.0
  0
LINE
  5
172
330
1F
100
AcDbEntity
  8
1-2
  6
Continuous
 62
     3
370
    13
100
AcDbLine
 10
-97.29729729729712
 20
518.1891693940033
 30
0.0
 11
-1127.297231313345
 21
518.1891693940033
 31
0.0
  0
LINE
  5
173
330
1F
100
AcDbEntity
  8
1-2
  6
Continuous
 62
     3
370
    13
100
AcDbLine
 10
-97.29729729729712
 20
-195.8108108108107
 30
0.0
 11
-1127.297231313345
 21
-195.8108108108107
 31
0.0
  0
LINE
  5
174
330
1F
100
AcDbEntity
  8
1-2
  6
Continuous
 62
     3
370
    13
100
AcDbLine
 10
-97.29729729729712
 20
-183.8107217324745
 30
0.0
 11
-1127.297231313345
 21
-183.8107217324745
 31
0.0
  0
LINE
  5
175
330
1F
100
AcDbEntity
  8
1-2
  6
Continuous
 62
     3
370
    13
100
AcDbLine
 10
275.6756756756758
 20
844.189156197213
 30
0.0
 11
275.6756756756758
 21
835.1887800886825
 31
0.0
  0
LINE
  5
176
330
1F
100
AcDbEntity
  8
1-2
  6
Continuous
 62
     3
370
    13
100
AcDbLine
 10
275.6756756756758
 20
844.189156197213
 30
0.0
 11
313.6755041173987
 21
844.189156197213
 31
0.0
  0
LINE
  5
177
330
1F
100
AcDbEntity
  8
1-2
  6
Continuous
 62
     3
370
    13
100
AcDbLine
 10
272.6757152660474
 20
835.1887800886825
 30
0.0
 11
272.6757152660474
 21
830.1603080130915
 31
0.0
  0
LINE
  5
178
330
1F
100
AcDbEntity
  8
1-2
  6
Continuous
 62
     3
370
    13
100
AcDbLine
 10
275.6756756756758
 20
835.1887800886825
 30
0.0
 11
272.6757152660474
 21
835.1887800886825
 31
0.0
  0
LINE
  5
179
330
1F
100
AcDbEntity
  8
F-D
  6
Continuous
 62
     7
370
    13
100
AcDbLine
 10
-1014.134587468328
 20
-459.6059108424831
 30
0.0
 11
-764.4409592087203
 21
-459.6059108424831
 31
0.0
  0
LINE
  5
17A
330
1F
100
AcDbEntity
  8
F-D
  6
Continuous
 62
     7
370
    13
100
AcDbLine
 10
-1014.134587468328
 20
-459.6059108424831
 30
0.0
 11
-1074.092225770692
 21
-542.019702808277
 31
0.0
  0
LINE
  5
17B
330
1F
100
AcDbEntity
  8
F-D
  6
Continuous
 62
     7
370
    13
100
AcDbLine
 10
-1074.092225770692
 20
-542.019702808277
 30
0.0
 11
-1062.149295291385
 21
-520.0564492715371
 31
0.0
  0
LINE
  5
17C
330
1F
100
AcDbEntity
  8
F-D
  6
Continuous
 62
     7
370
    13
100
AcDbLine
 10
-1074.092225770692
 20
-542.019702808277
 30
0.0
 11
-1056.871898754223
 21
-523.8962204391892
 31
0.0
  0
LINE
  5
17D
330
1F
100
AcDbEntity
  8
1-1
  6
Continuous
 62
     2
370
    13
100
AcDbLine
 10
362.875696130701
 20
750.1892419763516
 30
0.0
 11
338.4759026604732
 21
750.1892419763516
 31
0.0
  0
LINE
  5
17E
330
1F
100
AcDbEntity
  8
1-1
  6
Continuous
 62
     2
370
    13
100
AcDbLine
 10
325.6758406355576
 20
762.9888091216217
 30
0.0
 11
325.6758406355576
 21
817.3889490076016
 31
0.0
  0
LINE
  5
17F
330
1F
100
AcDbEntity
  8
1-1
  6
Continuous
 62
     2
370
    13
100
AcDbLine
 10
362.875696130701
 20
823.7892274598818
 30
0.0
 11
338.4756552206505
 21
823.7892274598818
 31
0.0
  0
LINE
  5
180
330
1F
100
AcDbEntity
  8
1-1
  6
Continuous
 62
     2
370
    13
100
AcDbLine
 10
369.2759745829815
 20
762.9893040012669
 30
0.0
 11
369.2759745829815
 21
817.3889490076016
 31
0.0
  0
LINE
  5
181
330
1F
100
AcDbEntity
  8
1-1
  6
Continuous
 62
     2
370
    13
100
AcDbLine
 10
362.875696130701
 20
830.1890110325169
 30
0.0
 11
338.4759026604732
 21
830.1890110325169
 31
0.0
  0
LINE
  5
182
330
1F
100
AcDbEntity
  8
1-1
  6
Continuous
 62
     2
370
    13
100
AcDbLine
 10
375.675510715794
 20
762.9888091216217
 30
0.0
 11
375.675510715794
 21
817.3889490076016
 31
0.0
  0
LINE
  5
183
330
1F
100
AcDbEntity
  8
1-1
  6
JWW_HOJO
 62
     2
370
    13
100
AcDbLine
 10
325.6758406355576
 20
817.3889490076016
 30
0.0
 11
325.6758406355576
 21
866.7081595755915
 31
0.0
  0
LINE
  5
184
330
1F
100
AcDbEntity
  8
1-1
  6
JWW_HOJO
 62
     2
370
    13
100
AcDbLine
 10
336.2791319151185
 20
844.189156197213
 30
0.0
 11
307.0698506123313
 21
844.189156197213
 31
0.0
  0
LINE
  5
185
330
1F
100
AcDbEntity
  8
1-1
  6
JWW_HOJO
 62
     2
370
    13
100
AcDbLine
 10
312.7782873205237
 20
790.1888790646117
 30
0.0
 11
394.6195035367401
 21
790.1888790646117
 31
0.0
  0
LINE
  5
186
330
1F
100
AcDbEntity
  8
1-1
  6
Continuous
 62
     2
370
    13
100
AcDbLine
 10
338.4759026604732
 20
756.5895204286318
 30
0.0
 11
362.875696130701
 21
756.5895204286318
 31
0.0
  0
LINE
  5
187
330
1F
100
AcDbEntity
  8
1-1
  6
Continuous
 62
     2
370
    13
100
AcDbLine
 10
332.0758716480154
 20
762.9893040012669
 30
0.0
 11
332.0758716480154
 21
817.3889490076016
 31
0.0
  0
LINE
  5
188
330
1F
100
AcDbEntity
  8
1-2
  6
Continuous
 62
     3
370
    13
100
AcDbLine
 10
272.6757152660474
 20
121.0955150707349
 30
0.0
 11
275.6756756756758
 21
122.1186787373313
 31
0.0
  0
LINE
  5
189
330
1F
100
AcDbEntity
  8
1-2
  6
Continuous
 62
     3
370
    13
100
AcDbLine
 10
272.6757152660474
 20
121.0955150707349
 30
0.0
 11
272.6757152660474
 21
113.1890704180745
 31
0.0
  0
LINE
  5
18A
330
1F
100
AcDbEntity
  8
1-2
  6
Continuous
 62
     3
370
    13
100
AcDbLine
 10
272.6757152660474
 20
-186.8109295819255
 30
0.0
 11
325.6758406355576
 21
-186.8109295819255
 31
0.0
  0
LINE
  5
18B
330
1F
100
AcDbEntity
  8
1-1
  6
Continuous
 62
     2
370
    13
100
AcDbLine
 10
362.875696130701
 20
-101.8113914695945
 30
0.0
 11
338.4759026604732
 21
-101.8113914695945
 31
0.0
  0
LINE
  5
18C
330
1F
100
AcDbEntity
  8
1-1
  6
Continuous
 62
     2
370
    13
100
AcDbLine
 10
325.6758406355576
 20
-114.6109586148648
 30
0.0
 11
325.6758406355576
 21
-169.0110985008445
 31
0.0
  0
LINE
  5
18D
330
1F
100
AcDbEntity
  8
1-1
  6
Continuous
 62
     2
370
    13
100
AcDbLine
 10
362.875696130701
 20
-175.4111295133023
 30
0.0
 11
338.4756552206505
 21
-175.4111295133023
 31
0.0
  0
LINE
  5
18E
330
1F
100
AcDbEntity
  8
1-1
  6
Continuous
 62
     2
370
    13
100
AcDbLine
 10
369.2759745829815
 20
-114.6113297745987
 30
0.0
 11
369.2759745829815
 21
-169.0110985008445
 31
0.0
  0
LINE
  5
18F
330
1F
100
AcDbEntity
  8
1-1
  6
Continuous
 62
     2
370
    13
100
AcDbLine
 10
362.875696130701
 20
-181.8111605257602
 30
0.0
 11
338.4759026604732
 21
-181.8111605257602
 31
0.0
  0
LINE
  5
190
330
1F
100
AcDbEntity
  8
1-1
  6
Continuous
 62
     2
370
    13
100
AcDbLine
 10
375.675510715794
 20
-114.6109586148648
 30
0.0
 11
375.675510715794
 21
-169.0110985008445
 31
0.0
  0
LINE
  5
191
330
1F
100
AcDbEntity
  8
1-1
  6
JWW_HOJO
 62
     2
370
    13
100
AcDbLine
 10
312.7782873205237
 20
-141.8110285578547
 30
0.0
 11
394.6195035367401
 21
-141.8110285578547
 31
0.0
  0
LINE
  5
192
330
1F
100
AcDbEntity
  8
1-1
  6
Continuous
 62
     2
370
    13
100
AcDbLine
 10
338.4759026604732
 20
-108.2112987621409
 30
0.0
 11
362.875696130701
 21
-108.2112987621409
 31
0.0
  0
LINE
  5
193
330
1F
100
AcDbEntity
  8
1-1
  6
Continuous
 62
     2
370
    13
100
AcDbLine
 10
332.0758716480154
 20
-114.6113297745987
 30
0.0
 11
332.0758716480154
 21
-169.0110985008445
 31
0.0
  0
LINE
  5
194
330
1F
100
AcDbEntity
  8
F-4
  6
Continuous
 62
     7
370
    13
100
AcDbLine
 10
520.4372096706084
 20
1046.725579339105
 30
0.0
 11
1089.476301863387
 21
1046.725579339105
 31
0.0
  0
LINE
  5
195
330
1F
100
AcDbEntity
  8
1-5
  6
Continuous
 62
     7
370
    13
100
AcDbLine
 10
520.4372096706084
 20
1046.725579339105
 30
0.0
 11
356.5842912003802
 21
827.5542718010981
 31
0.0
  0
LINE
  5
196
330
1F
100
AcDbEntity
  8
1-5
  6
Continuous
 62
     7
370
    13
100
AcDbLine
 10
356.5842912003802
 20
827.5542718010981
 30
0.0
 11
371.2131809543919
 21
853.7457770270271
 31
0.0
  0
LINE
  5
197
330
1F
100
AcDbEntity
  8
1-5
  6
Continuous
 62
     7
370
    13
100
AcDbLine
 10
356.5842912003802
 20
827.5542718010981
 30
0.0
 11
377.4934510926943
 21
849.0671848606419
 31
0.0
  0
LINE
  5
198
330
1F
100
AcDbEntity
  8
1-1
  6
JWW_DASHED1
 62
     2
370
    13
100
AcDbLine
 10
-1117.297198321368
 20
830.1890110325169
 30
0.0
 11
-1117.297198321368
 21
750.1892419763516
 31
0.0
  0
LINE
  5
199
330
1F
100
AcDbEntity
  8
1-1
  6
JWW_DASHED1
 62
     2
370
    13
100
AcDbLine
 10
-107.2973302892734
 20
830.1890110325169
 30
0.0
 11
-1117.297198321368
 21
830.1890110325169
 31
0.0
  0
LINE
  5
19A
330
1F
100
AcDbEntity
  8
1-1
  6
JWW_DASHED1
 62
     2
370
    13
100
AcDbLine
 10
-107.2973302892734
 20
830.1890110325169
 30
0.0
 11
-107.2973302892734
 21
750.1892419763516
 31
0.0
  0
LINE
  5
19B
330
1F
100
AcDbEntity
  8
1-1
  6
JWW_DASHED1
 62
     2
370
    13
100
AcDbLine
 10
-107.2973302892734
 20
750.1892419763516
 30
0.0
 11
-1117.297198321368
 21
750.1892419763516
 31
0.0
  0
LINE
  5
19C
330
1F
100
AcDbEntity
  8
1-1
  6
JWW_DASHED1
 62
     2
370
    13
100
AcDbLine
 10
-107.2973302892734
 20
-181.8111605257602
 30
0.0
 11
-1117.297198321368
 21
-181.8111605257602
 31
0.0
  0
LINE
  5
19D
330
1F
100
AcDbEntity
  8
1-3
  6
JWW_CENTER1
 62
     4
370
    13
100
AcDbLine
 10
1328.62169420397
 20
1181.696826831715
 30
0.0
 11
1281.531421558277
 21
1181.696826831715
 31
0.0
  0
LINE
  5
19E
330
1F
100
AcDbEntity
  8
1-3
  6
Continuous
 62
     4
370
    13
100
AcDbLine
 10
1348.621760187923
 20
1168.697328309755
 30
0.0
 11
1348.621760187923
 21
943.1138652079815
 31
0.0
  0
LINE
  5
19F
330
1F
100
AcDbEntity
  8
1-3
  6
Continuous
 62
     4
370
    13
100
AcDbLine
 10
1334.621615023227
 20
1168.69683343011
 30
0.0
 11
1334.621615023227
 21
943.1138652079815
 31
0.0
  0
LINE
  5
1A0
330
1F
100
AcDbEntity
  8
1-3
  6
JWW_CENTER1
 62
     4
370
    13
100
AcDbLine
 10
1382.88475242821
 20
911.6969258076438
 30
0.0
 11
1304.309494430955
 21
911.6969258076438
 31
0.0
  0
LINE
  5
1A1
330
1F
100
AcDbEntity
  8
1-3
  6
Continuous
 62
     4
370
    13
100
AcDbLine
 10
1337.758904534417
 20
925.1536931218328
 30
0.0
 11
1329.790599926098
 21
937.0748488967484
 31
0.0
  0
LINE
  5
1A2
330
1F
100
AcDbEntity
  8
1-3
  6
Continuous
 62
     4
370
    13
100
AcDbLine
 10
1328.62169420397
 20
1188.696899414062
 30
0.0
 11
1284.621697503167
 21
1188.696899414062
 31
0.0
  0
LINE
  5
1A3
330
1F
100
AcDbEntity
  8
1-3
  6
Continuous
 62
     4
370
    13
100
AcDbLine
 10
1284.621697503167
 20
1174.696754249367
 30
0.0
 11
1284.621697503167
 21
1188.696899414062
 31
0.0
  0
LINE
  5
1A4
330
1F
100
AcDbEntity
  8
1-3
  6
Continuous
 62
     4
370
    13
100
AcDbLine
 10
1328.62169420397
 20
1174.696754249367
 30
0.0
 11
1284.621697503167
 21
1174.696754249367
 31
0.0
  0
LINE
  5
1A5
330
1F
100
AcDbEntity
  8
1-3
  6
Continuous
 62
     2
370
    13
100
AcDbLine
 10
359.6765466638516
 20
618.1892518739443
 30
0.0
 11
398.5768086201438
 21
618.1892518739443
 31
0.0
  0
LINE
  5
1A6
330
1F
100
AcDbEntity
  8
1-3
  6
Continuous
 62
     2
370
    13
100
AcDbLine
 10
359.6765466638516
 20
630.1893409522804
 30
0.0
 11
398.5768086201438
 21
630.1893409522804
 31
0.0
  0
LINE
  5
1A7
330
1F
100
AcDbEntity
  8
1-3
  6
Continuous
 62
     4
370
    13
100
AcDbLine
 10
415.6766324429901
 20
606.1891627956084
 30
0.0
 11
463.6764938766891
 21
606.1891627956084
 31
0.0
  0
LINE
  5
1A8
330
1F
100
AcDbEntity
  8
1-3
  6
Continuous
 62
     4
370
    13
100
AcDbLine
 10
415.6766324429901
 20
642.189182590794
 30
0.0
 11
463.6764938766891
 21
642.189182590794
 31
0.0
  0
LINE
  5
1A9
330
1F
100
AcDbEntity
  8
1-3
  6
Continuous
 62
     4
370
    13
100
AcDbLine
 10
422.6207836254224
 20
632.1891495988177
 30
0.0
 11
463.6764938766891
 21
632.1891495988177
 31
0.0
  0
LINE
  5
1AA
330
1F
100
AcDbEntity
  8
1-3
  6
Continuous
 62
     4
370
    13
100
AcDbLine
 10
422.6207836254224
 20
616.1891957875846
 30
0.0
 11
463.6764938766891
 21
616.1891957875846
 31
0.0
  0
LINE
  5
1AB
330
1F
100
AcDbEntity
  8
1-3
  6
Continuous
 62
     4
370
    13
100
AcDbLine
 10
575.1788165118245
 20
596.1891298036318
 30
0.0
 11
560.1740656672297
 21
652.1892155827703
 31
0.0
  0
LINE
  5
1AC
330
1F
100
AcDbEntity
  8
1-3
  6
Continuous
 62
     4
370
    13
100
AcDbLine
 10
543.6765103726776
 20
642.189182590794
 30
0.0
 11
562.8535915065459
 21
642.189182590794
 31
0.0
  0
LINE
  5
1AD
330
1F
100
AcDbEntity
  8
1-3
  6
Continuous
 62
     4
370
    13
100
AcDbLine
 10
543.6765103726776
 20
632.1891495988177
 30
0.0
 11
565.5328699060391
 21
632.1891495988177
 31
0.0
  0
LINE
  5
1AE
330
1F
100
AcDbEntity
  8
1-3
  6
Continuous
 62
     4
370
    13
100
AcDbLine
 10
543.6765103726776
 20
616.1891957875846
 30
0.0
 11
569.8200122730151
 21
616.1891957875846
 31
0.0
  0
LINE
  5
1AF
330
1F
100
AcDbEntity
  8
1-3
  6
Continuous
 62
     4
370
    13
100
AcDbLine
 10
543.6765103726776
 20
606.1891627956084
 30
0.0
 11
572.4992906725083
 21
606.1891627956084
 31
0.0
  0
LINE
  5
1B0
330
1F
100
AcDbEntity
  8
1-3
  6
Continuous
 62
     4
370
    13
100
AcDbLine
 10
540.676549963049
 20
629.1891891891894
 30
0.0
 11
466.6764542863177
 21
629.1891891891894
 31
0.0
  0
LINE
  5
1B1
330
1F
100
AcDbEntity
  8
1-3
  6
Continuous
 62
     4
370
    13
100
AcDbLine
 10
540.676549963049
 20
619.189156197213
 30
0.0
 11
466.6764542863177
 21
619.189156197213
 31
0.0
  0
LINE
  5
1B2
330
1F
100
AcDbEntity
  8
1-3
  6
Continuous
 62
     4
370
    13
100
AcDbLine
 10
309.6768765836151
 20
632.1891495988177
 30
0.0
 11
357.6767380173143
 21
632.1891495988177
 31
0.0
  0
LINE
  5
1B3
330
1F
100
AcDbEntity
  8
1-3
  6
Continuous
 62
     4
370
    13
100
AcDbLine
 10
309.6768765836151
 20
632.1891495988177
 30
0.0
 11
309.6768765836151
 21
642.189182590794
 31
0.0
  0
LINE
  5
1B4
330
1F
100
AcDbEntity
  8
1-3
  6
Continuous
 62
     4
370
    13
100
AcDbLine
 10
309.6768765836151
 20
642.189182590794
 30
0.0
 11
357.6767380173143
 21
642.189182590794
 31
0.0
  0
LINE
  5
1B5
330
1F
100
AcDbEntity
  8
1-3
  6
Continuous
 62
     4
370
    13
100
AcDbLine
 10
309.6768765836151
 20
616.1891957875846
 30
0.0
 11
357.6767380173143
 21
616.1891957875846
 31
0.0
  0
LINE
  5
1B6
330
1F
100
AcDbEntity
  8
1-3
  6
Continuous
 62
     4
370
    13
100
AcDbLine
 10
309.6768765836151
 20
606.1891627956084
 30
0.0
 11
309.6768765836151
 21
616.1891957875846
 31
0.0
  0
LINE
  5
1B7
330
1F
100
AcDbEntity
  8
1-3
  6
Continuous
 62
     4
370
    13
100
AcDbLine
 10
309.6768765836151
 20
606.1891627956084
 30
0.0
 11
357.6767380173143
 21
606.1891627956084
 31
0.0
  0
LINE
  5
1B8
330
1F
100
AcDbEntity
  8
1-3
  6
JWW_CENTER1
 62
     4
370
    13
100
AcDbLine
 10
1341.621687605575
 20
644.1894861169766
 30
0.0
 11
1341.621687605575
 21
1168.697328309755
 31
0.0
  0
LINE
  5
1B9
330
1F
100
AcDbEntity
  8
1-3
  6
JWW_CENTER1
 62
     4
370
    13
100
AcDbLine
 10
1321.621621621622
 20
624.1894201330238
 30
0.0
 11
287.2063714104732
 21
624.1894201330238
 31
0.0
  0
LINE
  5
1BA
330
1F
100
AcDbEntity
  8
1-3
  6
JWW_HOJO
 62
     4
370
    13
100
AcDbLine
 10
325.6758406355576
 20
606.1891627956084
 30
0.0
 11
325.6758406355576
 21
577.8008868243245
 31
0.0
  0
LINE
  5
1BB
330
1F
100
AcDbEntity
  8
1-2
  6
Continuous
 62
     3
370
    13
100
AcDbLine
 10
316.6759594066724
 20
617.9207796663852
 30
0.0
 11
316.6759594066724
 21
630.4575657200169
 31
0.0
  0
LINE
  5
1BC
330
1F
100
AcDbEntity
  8
1-2
  6
Continuous
 62
     3
370
    13
100
AcDbLine
 10
314.6756558804901
 20
617.9202847867398
 30
0.0
 11
314.6756558804901
 21
630.4580605996623
 31
0.0
  0
LINE
  5
1BD
330
1F
100
AcDbEntity
  8
1-2
  6
Continuous
 62
     3
370
    13
100
AcDbLine
 10
325.6758406355576
 20
616.1891957875846
 30
0.0
 11
325.6758406355576
 21
632.1891495988177
 31
0.0
  0
LINE
  5
1BE
330
1F
100
AcDbEntity
  8
1-1
  6
JWW_DASHED1
 62
     2
370
    13
100
AcDbLine
 10
287.2063714104732
 20
583.4954669024495
 30
0.0
 11
284.3786291173987
 21
583.4954669024495
 31
0.0
  0
LINE
  5
1BF
330
1F
100
AcDbEntity
  8
1-4
  6
Continuous
 62
     7
370
    13
100
AcDbLine
 10
663.6405326224661
 20
910.950647302576
 30
0.0
 11
1223.330853436444
 21
910.950647302576
 31
0.0
  0
LINE
  5
1C0
330
1F
100
AcDbEntity
  8
1-5
  6
Continuous
 62
     7
370
    13
100
AcDbLine
 10
575.2132106471709
 20
185.8463101773648
 30
0.0
 11
336.0356511296453
 21
608.6959756387248
 31
0.0
  0
LINE
  5
1C1
330
1F
100
AcDbEntity
  8
1-4
  6
Continuous
 62
     7
370
    13
100
AcDbLine
 10
591.5796228357266
 20
344.5962771853885
 30
0.0
 11
1153.580289273649
 21
344.5962771853885
 31
0.0
  0
LINE
  5
1C2
330
1F
100
AcDbEntity
  8
1-5
  6
Continuous
 62
     7
370
    13
100
AcDbLine
 10
663.6405326224661
 20
910.950647302576
 30
0.0
 11
491.2450017155828
 21
629.137226826436
 31
0.0
  0
LINE
  5
1C3
330
1F
100
AcDbEntity
  8
1-4
  6
Continuous
 62
     7
370
    13
100
AcDbLine
 10
-687.0269362990919
 20
719.9464045344175
 30
0.0
 11
-683.7638236380911
 21
744.732451567779
 31
0.0
  0
LINE
  5
1C4
330
1F
100
AcDbEntity
  8
1-4
  6
Continuous
 62
     7
370
    13
100
AcDbLine
 10
-687.0269362990919
 20
719.9464045344175
 30
0.0
 11
-677.4597992768158
 21
743.0434273384714
 31
0.0
  0
LINE
  5
1C5
330
1F
100
AcDbEntity
  8
F-4
  6
Continuous
 62
     7
370
    13
100
AcDbLine
 10
-609.3362756677575
 20
786.2271200644005
 30
0.0
 11
-536.5704098263302
 21
1057.791830526816
 31
0.0
  0
LINE
  5
1C6
330
1F
100
AcDbEntity
  8
F-4
  6
Continuous
 62
     7
370
    13
100
AcDbLine
 10
-699.5199255041175
 20
844.189156197213
 30
0.0
 11
-606.5588873785894
 21
1191.125273833404
 31
0.0
  0
LINE
  5
1C7
330
1F
100
AcDbEntity
  8
1-4
  6
Continuous
 62
     7
370
    13
100
AcDbLine
 10
490.3227934966219
 20
-227.4269392683699
 30
0.0
 11
490.3227934966219
 21
-181.8111605257602
 31
0.0
  0
LINE
  5
1C8
330
1F
100
AcDbEntity
  8
1-4
  6
Continuous
 62
     7
370
    13
100
AcDbLine
 10
328.6755536053633
 20
-195.8108108108107
 30
0.0
 11
493.32275390625
 21
-195.8108108108107
 31
0.0
  0
LINE
  5
1C9
330
1F
100
AcDbEntity
  8
1-4
  6
Continuous
 62
     7
370
    13
100
AcDbLine
 10
377.8757456186656
 20
-181.8111605257602
 30
0.0
 11
493.32275390625
 21
-181.8111605257602
 31
0.0
  0
LINE
  5
1CA
330
1F
100
AcDbEntity
  8
1-4
  6
Continuous
 62
     7
370
    13
100
AcDbLine
 10
490.3227934966219
 20
-181.8111605257602
 30
0.0
 11
490.3227934966219
 21
-101.8108965899492
 31
0.0
  0
LINE
  5
1CB
330
1F
100
AcDbEntity
  8
1-4
  6
Continuous
 62
     7
370
    13
100
AcDbLine
 10
377.8757456186656
 20
-101.8108965899492
 30
0.0
 11
493.32275390625
 21
-101.8108965899492
 31
0.0
  0
LINE
  5
1CC
330
1F
100
AcDbEntity
  8
1-4
  6
Continuous
 62
     7
370
    13
100
AcDbLine
 10
490.3227934966219
 20
-101.8108965899492
 30
0.0
 11
490.3227934966219
 21
750.1892419763516
 31
0.0
  0
LINE
  5
1CD
330
1F
100
AcDbEntity
  8
1-4
  6
Continuous
 62
     7
370
    13
100
AcDbLine
 10
377.8757456186656
 20
750.1892419763516
 30
0.0
 11
493.32275390625
 21
750.1892419763516
 31
0.0
  0
LINE
  5
1CE
330
1F
100
AcDbEntity
  8
1-4
  6
Continuous
 62
     7
370
    13
100
AcDbLine
 10
490.3227934966219
 20
750.1892419763516
 30
0.0
 11
490.3227934966219
 21
830.1890110325169
 31
0.0
  0
LINE
  5
1CF
330
1F
100
AcDbEntity
  8
1-4
  6
Continuous
 62
     7
370
    13
100
AcDbLine
 10
377.8757456186656
 20
830.1890110325169
 30
0.0
 11
493.32275390625
 21
830.1890110325169
 31
0.0
  0
LINE
  5
1D0
330
1F
100
AcDbEntity
  8
1-4
  6
Continuous
 62
     7
370
    13
100
AcDbLine
 10
490.3227934966219
 20
830.1890110325169
 30
0.0
 11
490.3227934966219
 21
872.1013579497467
 31
0.0
  0
LINE
  5
1D1
330
1F
100
AcDbEntity
  8
1-4
  6
Continuous
 62
     7
370
    13
100
AcDbLine
 10
322.0699001002959
 20
844.189156197213
 30
0.0
 11
493.32275390625
 21
844.189156197213
 31
0.0
  0
LINE
  5
1D2
330
1F
100
AcDbEntity
  8
1-5
  6
Continuous
 62
     7
370
    13
100
AcDbLine
 10
591.5796228357266
 20
344.5962771853885
 30
0.0
 11
419.5795007654141
 21
619.4999406144427
 31
0.0
  0
LINE
  5
1D3
330
1F
100
AcDbEntity
  8
1-4
  6
Continuous
 62
     7
370
    13
100
AcDbLine
 10
275.6756756756758
 20
-304.659712507918
 30
0.0
 11
325.6758406355576
 21
-304.659712507918
 31
0.0
  0
LINE
  5
1D4
330
1F
100
AcDbEntity
  8
1-4
  6
Continuous
 62
     7
370
    13
100
AcDbLine
 10
275.6756756756758
 20
-210.8108602987753
 30
0.0
 11
275.6756756756758
 21
-307.6596729175463
 31
0.0
  0
LINE
  5
1D5
330
1F
100
AcDbEntity
  8
1-4
  6
Continuous
 62
     7
370
    13
100
AcDbLine
 10
325.6758406355576
 20
-201.8109790698901
 30
0.0
 11
325.6758406355576
 21
-307.6596729175463
 31
0.0
  0
LINE
  5
1D6
330
1F
100
AcDbEntity
  8
1-4
  6
Continuous
 62
     7
370
    13
100
AcDbLine
 10
325.6758406355576
 20
-304.659712507918
 30
0.0
 11
375.675510715794
 21
-304.659712507918
 31
0.0
  0
LINE
  5
1D7
330
1F
100
AcDbEntity
  8
1-4
  6
Continuous
 62
     7
370
    13
100
AcDbLine
 10
375.675510715794
 20
-184.0111479888091
 30
0.0
 11
375.675510715794
 21
-307.6596729175463
 31
0.0
  0
LINE
  5
1D8
330
1F
100
AcDbEntity
  8
1-4
  6
Continuous
 62
     7
370
    13
100
AcDbLine
 10
275.6756756756758
 20
-384.0346960119298
 30
0.0
 11
375.6757581556167
 21
-384.0346960119298
 31
0.0
  0
LINE
  5
1D9
330
1F
100
AcDbEntity
  8
1-4
  6
Continuous
 62
     7
370
    13
100
AcDbLine
 10
275.6756756756758
 20
-210.8108602987753
 30
0.0
 11
275.6756756756758
 21
-387.0346564215582
 31
0.0
  0
LINE
  5
1DA
330
1F
100
AcDbEntity
  8
1-4
  6
Continuous
 62
     7
370
    13
100
AcDbLine
 10
375.6757581556167
 20
-184.0111479888091
 30
0.0
 11
375.6757581556167
 21
-387.0346564215582
 31
0.0
  0
LINE
  5
1DB
330
1F
100
AcDbEntity
  8
1-4
  6
Continuous
 62
     7
370
    13
100
AcDbLine
 10
173.1450261296453
 20
-195.8108108108107
 30
0.0
 11
173.1450261296453
 21
844.189156197213
 31
0.0
  0
LINE
  5
1DC
330
1F
100
AcDbEntity
  8
1-4
  6
Continuous
 62
     7
370
    13
100
AcDbLine
 10
260.6756261877112
 20
-195.8108108108107
 30
0.0
 11
170.1450657200169
 21
-195.8108108108107
 31
0.0
  0
LINE
  5
1DD
330
1F
100
AcDbEntity
  8
1-4
  6
Continuous
 62
     7
370
    13
100
AcDbLine
 10
260.6756261877112
 20
844.189156197213
 30
0.0
 11
170.1450657200169
 21
844.189156197213
 31
0.0
  0
LINE
  5
1DE
330
1F
100
AcDbEntity
  8
1-4
  6
Continuous
 62
     7
370
    13
100
AcDbLine
 10
-1127.297231313345
 20
-304.659712507918
 30
0.0
 11
-97.29729729729712
 21
-304.659712507918
 31
0.0
  0
LINE
  5
1DF
330
1F
100
AcDbEntity
  8
1-4
  6
Continuous
 62
     7
370
    13
100
AcDbLine
 10
-1127.297231313345
 20
-210.8108602987753
 30
0.0
 11
-1127.297231313345
 21
-307.6596729175463
 31
0.0
  0
LINE
  5
1E0
330
1F
100
AcDbEntity
  8
1-4
  6
Continuous
 62
     7
370
    13
100
AcDbLine
 10
-97.29729729729712
 20
-210.8108602987753
 30
0.0
 11
-97.29729729729712
 21
-307.6596729175463
 31
0.0
  0
LINE
  5
1E1
330
1F
100
AcDbEntity
  8
1-4
  6
Continuous
 62
     7
370
    13
100
AcDbLine
 10
-972.2975859770904
 20
895.3871773384714
 30
0.0
 11
-942.2976107210725
 21
895.3871773384714
 31
0.0
  0
LINE
  5
1E2
330
1F
100
AcDbEntity
  8
1-4
  6
Continuous
 62
     7
370
    13
100
AcDbLine
 10
-972.2975859770904
 20
799.5198347761825
 30
0.0
 11
-972.2975859770904
 21
898.3871377480998
 31
0.0
  0
LINE
  5
1E3
330
1F
100
AcDbEntity
  8
1-4
  6
Continuous
 62
     7
370
    13
100
AcDbLine
 10
-942.2976107210725
 20
799.5198347761825
 30
0.0
 11
-942.2976107210725
 21
898.3871377480998
 31
0.0
  0
LINE
  5
1E4
330
1F
100
AcDbEntity
  8
1-4
  6
Continuous
 62
     7
370
    13
100
AcDbLine
 10
491.2450017155828
 20
629.137226826436
 30
0.0
 11
501.3957255595443
 21
651.9835930901606
 31
0.0
  0
LINE
  5
1E5
330
1F
100
AcDbEntity
  8
1-4
  6
Continuous
 62
     7
370
    13
100
AcDbLine
 10
491.2450017155828
 20
629.137226826436
 30
0.0
 11
506.962874129012
 21
648.5780788112334
 31
0.0
  0
LINE
  5
1E6
330
1F
100
AcDbEntity
  8
1-4
  6
Continuous
 62
     7
370
    13
100
AcDbLine
 10
419.5795007654141
 20
619.4999406144427
 30
0.0
 11
435.4926031989021
 21
600.2184398754224
 31
0.0
  0
LINE
  5
1E7
330
1F
100
AcDbEntity
  8
1-4
  6
Continuous
 62
     7
370
    13
100
AcDbLine
 10
419.5795007654141
 20
619.4999406144427
 30
0.0
 11
429.9600962046031
 21
596.7567567567568
 31
0.0
  0
LINE
  5
1E8
330
1F
100
AcDbEntity
  8
1-4
  6
Continuous
 62
     7
370
    13
100
AcDbLine
 10
336.0356511296453
 20
608.6959756387248
 30
0.0
 11
351.0790025865711
 21
588.7283242715373
 31
0.0
  0
LINE
  5
1E9
330
1F
100
AcDbEntity
  8
1-4
  6
Continuous
 62
     7
370
    13
100
AcDbLine
 10
336.0356511296453
 20
608.6959756387248
 30
0.0
 11
345.3982791385135
 21
585.5155656144427
 31
0.0
  0
LINE
  5
1EA
330
1F
100
AcDbEntity
  8
1-2
  6
Continuous
 62
     3
370
    13
100
AcDbLine
 10
272.6757152660474
 20
121.0955150707349
 30
0.0
 11
272.6757152660474
 21
112.2809662690034
 31
0.0
  0
LINE
  5
1EB
330
1F
100
AcDbEntity
  8
1-2
  6
Continuous
 62
     3
370
    13
100
AcDbLine
 10
272.6757152660474
 20
112.2809662690034
 30
0.0
 11
275.6756756756758
 21
111.2582974820523
 31
0.0
  0
LINE
  5
1EC
330
1F
100
AcDbEntity
  8
1-2
  6
Continuous
 62
     3
370
    13
100
AcDbLine
 10
275.6756756756758
 20
111.2582974820523
 30
0.0
 11
275.6756756756758
 21
101.0321044921875
 31
0.0
  0
LINE
  5
1ED
330
1F
100
AcDbEntity
  8
1-2
  6
Continuous
 62
     3
370
    13
100
AcDbLine
 10
272.6757152660474
 20
100.0089408255914
 30
0.0
 11
275.6756756756758
 21
101.0321044921875
 31
0.0
  0
LINE
  5
1EE
330
1F
100
AcDbEntity
  8
1-2
  6
Continuous
 62
     3
370
    13
100
AcDbLine
 10
272.6757152660474
 20
100.0089408255914
 30
0.0
 11
272.6757152660474
 21
92.10249617293073
 31
0.0
  0
LINE
  5
1EF
330
1F
100
AcDbEntity
  8
1-2
  6
Continuous
 62
     3
370
    13
100
AcDbLine
 10
272.6757152660474
 20
100.0089408255914
 30
0.0
 11
272.6757152660474
 21
91.1943920238599
 31
0.0
  0
LINE
  5
1F0
330
1F
100
AcDbEntity
  8
1-2
  6
Continuous
 62
     3
370
    13
100
AcDbLine
 10
272.6757152660474
 20
91.1943920238599
 30
0.0
 11
275.6756756756758
 21
90.17172323690886
 31
0.0
  0
LINE
  5
1F1
330
1F
100
AcDbEntity
  8
1-2
  6
Continuous
 62
     3
370
    13
100
AcDbLine
 10
275.6756756756758
 20
90.17172323690886
 30
0.0
 11
275.6756756756758
 21
79.94553024704402
 31
0.0
  0
LINE
  5
1F2
330
1F
100
AcDbEntity
  8
1-2
  6
Continuous
 62
     3
370
    13
100
AcDbLine
 10
272.6757152660474
 20
78.92236658044766
 30
0.0
 11
275.6756756756758
 21
79.94553024704402
 31
0.0
  0
LINE
  5
1F3
330
1F
100
AcDbEntity
  8
1-2
  6
Continuous
 62
     3
370
    13
100
AcDbLine
 10
272.6757152660474
 20
78.92236658044766
 30
0.0
 11
272.6757152660474
 21
71.01592192778725
 31
0.0
  0
LINE
  5
1F4
330
1F
100
AcDbEntity
  8
1-2
  6
Continuous
 62
     3
370
    13
100
AcDbLine
 10
272.6757152660474
 20
78.92236658044766
 30
0.0
 11
272.6757152660474
 21
70.10781777871642
 31
0.0
  0
LINE
  5
1F5
330
1F
100
AcDbEntity
  8
1-2
  6
Continuous
 62
     3
370
    13
100
AcDbLine
 10
272.6757152660474
 20
70.10781777871642
 30
0.0
 11
275.6756756756758
 21
69.08514899176538
 31
0.0
  0
LINE
  5
1F6
330
1F
100
AcDbEntity
  8
1-2
  6
Continuous
 62
     3
370
    13
100
AcDbLine
 10
275.6756756756758
 20
69.08514899176538
 30
0.0
 11
275.6756756756758
 21
58.85895600190054
 31
0.0
  0
LINE
  5
1F7
330
1F
100
AcDbEntity
  8
1-2
  6
Continuous
 62
     3
370
    13
100
AcDbLine
 10
272.6757152660474
 20
57.83579233530418
 30
0.0
 11
275.6756756756758
 21
58.85895600190054
 31
0.0
  0
LINE
  5
1F8
330
1F
100
AcDbEntity
  8
1-2
  6
Continuous
 62
     3
370
    13
100
AcDbLine
 10
272.6757152660474
 20
57.83579233530418
 30
0.0
 11
272.6757152660474
 21
49.92934768264377
 31
0.0
  0
LINE
  5
1F9
330
1F
100
AcDbEntity
  8
1-2
  6
Continuous
 62
     3
370
    13
100
AcDbLine
 10
272.6757152660474
 20
57.83579233530418
 30
0.0
 11
272.6757152660474
 21
49.02124353357266
 31
0.0
  0
LINE
  5
1FA
330
1F
100
AcDbEntity
  8
1-2
  6
Continuous
 62
     3
370
    13
100
AcDbLine
 10
272.6757152660474
 20
49.02124353357266
 30
0.0
 11
275.6756756756758
 21
47.99857474662161
 31
0.0
  0
LINE
  5
1FB
330
1F
100
AcDbEntity
  8
1-2
  6
Continuous
 62
     3
370
    13
100
AcDbLine
 10
275.6756756756758
 20
47.99857474662161
 30
0.0
 11
275.6756756756758
 21
37.77238175675677
 31
0.0
  0
LINE
  5
1FC
330
1F
100
AcDbEntity
  8
1-2
  6
Continuous
 62
     3
370
    13
100
AcDbLine
 10
272.6757152660474
 20
36.7492180901607
 30
0.0
 11
275.6756756756758
 21
37.77238175675677
 31
0.0
  0
LINE
  5
1FD
330
1F
100
AcDbEntity
  8
1-2
  6
Continuous
 62
     3
370
    13
100
AcDbLine
 10
272.6757152660474
 20
36.7492180901607
 30
0.0
 11
272.6757152660474
 21
28.8427734375
 31
0.0
  0
LINE
  5
1FE
330
1F
100
AcDbEntity
  8
1-2
  6
Continuous
 62
     3
370
    13
100
AcDbLine
 10
272.6757152660474
 20
36.7492180901607
 30
0.0
 11
272.6757152660474
 21
27.93466928842918
 31
0.0
  0
LINE
  5
1FF
330
1F
100
AcDbEntity
  8
1-2
  6
Continuous
 62
     3
370
    13
100
AcDbLine
 10
272.6757152660474
 20
27.93466928842918
 30
0.0
 11
275.6756756756758
 21
26.91200050147813
 31
0.0
  0
LINE
  5
200
330
1F
100
AcDbEntity
  8
1-2
  6
Continuous
 62
     3
370
    13
100
AcDbLine
 10
275.6756756756758
 20
26.91200050147813
 30
0.0
 11
275.6756756756758
 21
16.68580751161329
 31
0.0
  0
LINE
  5
201
330
1F
100
AcDbEntity
  8
1-2
  6
Continuous
 62
     3
370
    13
100
AcDbLine
 10
272.6757152660474
 20
15.66264384501693
 30
0.0
 11
275.6756756756758
 21
16.68580751161329
 31
0.0
  0
LINE
  5
202
330
1F
100
AcDbEntity
  8
1-2
  6
Continuous
 62
     3
370
    13
100
AcDbLine
 10
272.6757152660474
 20
15.66264384501693
 30
0.0
 11
272.6757152660474
 21
7.756199192356519
 31
0.0
  0
LINE
  5
203
330
1F
100
AcDbEntity
  8
1-2
  6
Continuous
 62
     3
370
    13
100
AcDbLine
 10
272.6757152660474
 20
15.66264384501693
 30
0.0
 11
272.6757152660474
 21
6.848095043285696
 31
0.0
  0
LINE
  5
204
330
1F
100
AcDbEntity
  8
1-2
  6
Continuous
 62
     3
370
    13
100
AcDbLine
 10
272.6757152660474
 20
6.848095043285696
 30
0.0
 11
275.6756756756758
 21
5.825426256334651
 31
0.0
  0
LINE
  5
205
330
1F
100
AcDbEntity
  8
1-2
  6
Continuous
 62
     3
370
    13
100
AcDbLine
 10
275.6756756756758
 20
5.825426256334651
 30
0.0
 11
275.6756756756758
 21
-4.40076673353019
 31
0.0
  0
LINE
  5
206
330
1F
100
AcDbEntity
  8
1-2
  6
Continuous
 62
     3
370
    13
100
AcDbLine
 10
272.6757152660474
 20
-5.423930400126551
 30
0.0
 11
275.6756756756758
 21
-4.40076673353019
 31
0.0
  0
LINE
  5
207
330
1F
100
AcDbEntity
  8
1-2
  6
Continuous
 62
     3
370
    13
100
AcDbLine
 10
272.6757152660474
 20
-5.423930400126551
 30
0.0
 11
272.6757152660474
 21
-14.23847920185807
 31
0.0
  0
LINE
  5
208
330
1F
100
AcDbEntity
  8
1-2
  6
Continuous
 62
     3
370
    13
100
AcDbLine
 10
272.6757152660474
 20
-5.423930400126551
 30
0.0
 11
272.6757152660474
 21
-15.81071183488177
 31
0.0
  0
LINE
  5
209
330
1F
100
AcDbEntity
  8
1-2
  6
Continuous
 62
     3
370
    13
100
AcDbLine
 10
-1127.297231313345
 20
844.189156197213
 30
0.0
 11
-1127.297231313345
 21
-195.8108108108107
 31
0.0
  0
LINE
  5
20A
330
1F
100
AcDbEntity
  8
1-2
  6
Continuous
 62
     3
370
    13
100
AcDbLine
 10
-97.29729729729712
 20
844.189156197213
 30
0.0
 11
-97.29729729729712
 21
-195.8108108108107
 31
0.0
  0
LINE
  5
20B
330
1F
100
AcDbEntity
  8
1-2
  6
Continuous
 62
     3
370
    13
100
AcDbLine
 10
-97.29729729729712
 20
330.1893409522805
 30
0.0
 11
-1127.297231313345
 21
330.1893409522805
 31
0.0
  0
LINE
  5
20C
330
1F
100
AcDbEntity
  8
1-2
  6
Continuous
 62
     3
370
    13
100
AcDbLine
 10
-97.29729729729712
 20
318.1890044341216
 30
0.0
 11
-1127.297231313345
 21
318.1890044341216
 31
0.0
  0
LINE
  5
20D
330
1F
100
AcDbEntity
  8
1-2
  6
Continuous
 62
     3
370
    13
100
AcDbLine
 10
-97.29729729729712
 20
130.1894234322214
 30
0.0
 11
-1127.297231313345
 21
130.1894234322214
 31
0.0
  0
LINE
  5
20E
330
1F
100
AcDbEntity
  8
1-2
  6
Continuous
 62
     3
370
    13
100
AcDbLine
 10
-97.29729729729712
 20
118.1890869140625
 30
0.0
 11
-1127.297231313345
 21
118.1890869140625
 31
0.0
  0
LINE
  5
20F
330
1F
100
AcDbEntity
  8
1-2
  6
Continuous
 62
     3
370
    13
100
AcDbLine
 10
-1117.296950881546
 20
330.1893409522805
 30
0.0
 11
-1117.296950881546
 21
518.1891693940033
 31
0.0
  0
LINE
  5
210
330
1F
100
AcDbEntity
  8
1-2
  6
Continuous
 62
     3
370
    13
100
AcDbLine
 10
-1097.297256057327
 20
330.1893409522805
 30
0.0
 11
-1097.297256057327
 21
518.1891693940033
 31
0.0
  0
LINE
  5
211
330
1F
100
AcDbEntity
  8
1-2
  6
Continuous
 62
     3
370
    13
100
AcDbLine
 10
-1087.297965384818
 20
330.1893409522805
 30
0.0
 11
-1087.297965384818
 21
518.1891693940033
 31
0.0
  0
LINE
  5
212
330
1F
100
AcDbEntity
  8
1-2
  6
Continuous
 62
     3
370
    13
100
AcDbLine
 10
-107.2967116897169
 20
330.1893409522805
 30
0.0
 11
-107.2967116897169
 21
518.1891693940033
 31
0.0
  0
LINE
  5
213
330
1F
100
AcDbEntity
  8
1-2
  6
Continuous
 62
     3
370
    13
100
AcDbLine
 10
-1117.296950881546
 20
130.1894234322214
 30
0.0
 11
-1117.296950881546
 21
318.1890044341216
 31
0.0
  0
LINE
  5
214
330
1F
100
AcDbEntity
  8
1-2
  6
Continuous
 62
     3
370
    13
100
AcDbLine
 10
-1097.297256057327
 20
130.1894234322214
 30
0.0
 11
-1097.297256057327
 21
318.1890044341216
 31
0.0
  0
LINE
  5
215
330
1F
100
AcDbEntity
  8
1-2
  6
Continuous
 62
     3
370
    13
100
AcDbLine
 10
-1087.297965384818
 20
130.1894234322214
 30
0.0
 11
-1087.297965384818
 21
318.1890044341216
 31
0.0
  0
LINE
  5
216
330
1F
100
AcDbEntity
  8
F-4
  6
Continuous
 62
     7
370
    13
100
AcDbLine
 10
-687.0269362990919
 20
719.9464045344175
 30
0.0
 11
-570.1633350269213
 21
1124.45855218011
 31
0.0
  0
LINE
  5
217
330
1F
100
AcDbEntity
  8
1-2
  6
Continuous
 62
     3
370
    13
100
AcDbLine
 10
325.6758406355576
 20
616.1891957875846
 30
0.0
 11
325.6758406355576
 21
632.1891495988177
 31
0.0
  0
LINE
  5
218
330
1F
100
AcDbEntity
  8
1-2
  6
Continuous
 62
     3
370
    13
100
AcDbLine
 10
272.6757152660474
 20
-5.423930400126551
 30
0.0
 11
275.6756756756758
 21
-4.40076673353019
 31
0.0
  0
LINE
  5
219
330
1F
100
AcDbEntity
  8
1-2
  6
Continuous
 62
     3
370
    13
100
AcDbLine
 10
272.6757152660474
 20
-5.423930400126551
 30
0.0
 11
272.6757152660474
 21
-13.33037505278696
 31
0.0
  0
LINE
  5
21A
330
1F
100
AcDbEntity
  8
1-2
  6
Continuous
 62
     3
370
    13
100
AcDbLine
 10
272.6757152660474
 20
-5.423930400126551
 30
0.0
 11
272.6757152660474
 21
-14.23847920185807
 31
0.0
  0
LINE
  5
21B
330
1F
100
AcDbEntity
  8
1-2
  6
Continuous
 62
     3
370
    13
100
AcDbLine
 10
272.6757152660474
 20
-7.798734097867452
 30
0.0
 11
272.6757152660474
 21
-15.70517875052786
 31
0.0
  0
LINE
  5
21C
330
1F
100
AcDbEntity
  8
1-2
  6
Continuous
 62
     3
370
    13
100
AcDbLine
 10
272.6757152660474
 20
-7.798734097867452
 30
0.0
 11
272.6757152660474
 21
-16.61328289959869
 31
0.0
  0
LINE
  5
21D
330
1F
100
AcDbEntity
  8
1-2
  6
Continuous
 62
     3
370
    13
100
AcDbLine
 10
272.6757152660474
 20
-16.61328289959869
 30
0.0
 11
275.6756756756758
 21
-17.63595168654973
 31
0.0
  0
LINE
  5
21E
330
1F
100
AcDbEntity
  8
1-2
  6
Continuous
 62
     3
370
    13
100
AcDbLine
 10
275.6756756756758
 20
-17.63595168654973
 30
0.0
 11
275.6756756756758
 21
-27.86214467641457
 31
0.0
  0
LINE
  5
21F
330
1F
100
AcDbEntity
  8
1-2
  6
Continuous
 62
     3
370
    13
100
AcDbLine
 10
272.6757152660474
 20
-28.88530834301093
 30
0.0
 11
275.6756756756758
 21
-27.86214467641457
 31
0.0
  0
LINE
  5
220
330
1F
100
AcDbEntity
  8
1-2
  6
Continuous
 62
     3
370
    13
100
AcDbLine
 10
272.6757152660474
 20
-28.88530834301093
 30
0.0
 11
272.6757152660474
 21
-36.79175299567135
 31
0.0
  0
LINE
  5
221
330
1F
100
AcDbEntity
  8
1-2
  6
Continuous
 62
     3
370
    13
100
AcDbLine
 10
272.6757152660474
 20
-28.88530834301093
 30
0.0
 11
272.6757152660474
 21
-37.69985714474245
 31
0.0
  0
LINE
  5
222
330
1F
100
AcDbEntity
  8
1-2
  6
Continuous
 62
     3
370
    13
100
AcDbLine
 10
272.6757152660474
 20
-37.69985714474245
 30
0.0
 11
275.6756756756758
 21
-38.72252593169321
 31
0.0
  0
LINE
  5
223
330
1F
100
AcDbEntity
  8
1-2
  6
Continuous
 62
     3
370
    13
100
AcDbLine
 10
275.6756756756758
 20
-38.72252593169321
 30
0.0
 11
275.6756756756758
 21
-48.94871892155834
 31
0.0
  0
LINE
  5
224
330
1F
100
AcDbEntity
  8
1-2
  6
Continuous
 62
     3
370
    13
100
AcDbLine
 10
272.6757152660474
 20
-49.97188258815441
 30
0.0
 11
275.6756756756758
 21
-48.94871892155834
 31
0.0
  0
LINE
  5
225
330
1F
100
AcDbEntity
  8
1-2
  6
Continuous
 62
     3
370
    13
100
AcDbLine
 10
272.6757152660474
 20
-49.97188258815441
 30
0.0
 11
272.6757152660474
 21
-58.78643138988593
 31
0.0
  0
LINE
  5
226
330
1F
100
AcDbEntity
  8
1-2
  6
Continuous
 62
     3
370
    13
100
AcDbLine
 10
272.6757152660474
 20
-49.97188258815441
 30
0.0
 11
272.6757152660474
 21
-60.35866402290964
 31
0.0
  0
LINE
  5
227
330
1F
100
AcDbEntity
  8
1-2
  6
Continuous
 62
     3
370
    13
100
AcDbLine
 10
272.6757152660474
 20
-49.97188258815441
 30
0.0
 11
275.6756756756758
 21
-48.94871892155834
 31
0.0
  0
LINE
  5
228
330
1F
100
AcDbEntity
  8
1-2
  6
Continuous
 62
     3
370
    13
100
AcDbLine
 10
272.6757152660474
 20
-49.97188258815441
 30
0.0
 11
272.6757152660474
 21
-57.87832724081483
 31
0.0
  0
LINE
  5
229
330
1F
100
AcDbEntity
  8
1-2
  6
Continuous
 62
     3
370
    13
100
AcDbLine
 10
272.6757152660474
 20
-49.97188258815441
 30
0.0
 11
272.6757152660474
 21
-58.78643138988593
 31
0.0
  0
LINE
  5
22A
330
1F
100
AcDbEntity
  8
1-2
  6
Continuous
 62
     3
370
    13
100
AcDbLine
 10
272.6757152660474
 20
-52.34668628589532
 30
0.0
 11
272.6757152660474
 21
-60.25313093855573
 31
0.0
  0
LINE
  5
22B
330
1F
100
AcDbEntity
  8
1-2
  6
Continuous
 62
     3
370
    13
100
AcDbLine
 10
272.6757152660474
 20
-52.34668628589532
 30
0.0
 11
272.6757152660474
 21
-61.16123508762655
 31
0.0
  0
LINE
  5
22C
330
1F
100
AcDbEntity
  8
1-2
  6
Continuous
 62
     3
370
    13
100
AcDbLine
 10
272.6757152660474
 20
-61.16123508762655
 30
0.0
 11
275.6756756756758
 21
-62.1839038745776
 31
0.0
  0
LINE
  5
22D
330
1F
100
AcDbEntity
  8
1-2
  6
Continuous
 62
     3
370
    13
100
AcDbLine
 10
275.6756756756758
 20
-62.1839038745776
 30
0.0
 11
275.6756756756758
 21
-72.41009686444244
 31
0.0
  0
LINE
  5
22E
330
1F
100
AcDbEntity
  8
1-2
  6
Continuous
 62
     3
370
    13
100
AcDbLine
 10
272.6757152660474
 20
-73.4332605310388
 30
0.0
 11
275.6756756756758
 21
-72.41009686444244
 31
0.0
  0
LINE
  5
22F
330
1F
100
AcDbEntity
  8
1-2
  6
Continuous
 62
     3
370
    13
100
AcDbLine
 10
272.6757152660474
 20
-73.4332605310388
 30
0.0
 11
272.6757152660474
 21
-81.33970518369921
 31
0.0
  0
LINE
  5
230
330
1F
100
AcDbEntity
  8
1-2
  6
Continuous
 62
     3
370
    13
100
AcDbLine
 10
272.6757152660474
 20
-73.4332605310388
 30
0.0
 11
272.6757152660474
 21
-82.24780933277032
 31
0.0
  0
LINE
  5
231
330
1F
100
AcDbEntity
  8
1-2
  6
Continuous
 62
     3
370
    13
100
AcDbLine
 10
272.6757152660474
 20
-82.24780933277032
 30
0.0
 11
275.6756756756758
 21
-83.27047811972108
 31
0.0
  0
LINE
  5
232
330
1F
100
AcDbEntity
  8
1-2
  6
Continuous
 62
     3
370
    13
100
AcDbLine
 10
275.6756756756758
 20
-83.27047811972108
 30
0.0
 11
275.6756756756758
 21
-93.4966711095862
 31
0.0
  0
LINE
  5
233
330
1F
100
AcDbEntity
  8
1-2
  6
Continuous
 62
     3
370
    13
100
AcDbLine
 10
272.6757152660474
 20
-94.51983477618228
 30
0.0
 11
275.6756756756758
 21
-93.4966711095862
 31
0.0
  0
LINE
  5
234
330
1F
100
AcDbEntity
  8
1-2
  6
Continuous
 62
     3
370
    13
100
AcDbLine
 10
272.6757152660474
 20
-94.51983477618228
 30
0.0
 11
272.6757152660474
 21
-103.3343835779138
 31
0.0
  0
LINE
  5
235
330
1F
100
AcDbEntity
  8
1-2
  6
Continuous
 62
     3
370
    13
100
AcDbLine
 10
272.6757152660474
 20
-94.51983477618228
 30
0.0
 11
272.6757152660474
 21
-104.9066162109375
 31
0.0
  0
LINE
  5
236
330
1F
100
AcDbEntity
  8
1-2
  6
Continuous
 62
     3
370
    13
100
AcDbLine
 10
272.6757152660474
 20
-94.51983477618228
 30
0.0
 11
275.6756756756758
 21
-93.4966711095862
 31
0.0
  0
LINE
  5
237
330
1F
100
AcDbEntity
  8
1-2
  6
Continuous
 62
     3
370
    13
100
AcDbLine
 10
272.6757152660474
 20
-94.51983477618228
 30
0.0
 11
272.6757152660474
 21
-102.4262794288427
 31
0.0
  0
LINE
  5
238
330
1F
100
AcDbEntity
  8
1-2
  6
Continuous
 62
     3
370
    13
100
AcDbLine
 10
272.6757152660474
 20
-94.51983477618228
 30
0.0
 11
272.6757152660474
 21
-103.3343835779138
 31
0.0
  0
LINE
  5
239
330
1F
100
AcDbEntity
  8
1-2
  6
Continuous
 62
     3
370
    13
100
AcDbLine
 10
272.6757152660474
 20
-96.89463847392318
 30
0.0
 11
272.6757152660474
 21
-104.8010831265836
 31
0.0
  0
LINE
  5
23A
330
1F
100
AcDbEntity
  8
1-2
  6
Continuous
 62
     3
370
    13
100
AcDbLine
 10
272.6757152660474
 20
-96.89463847392318
 30
0.0
 11
272.6757152660474
 21
-105.7091872756544
 31
0.0
  0
LINE
  5
23B
330
1F
100
AcDbEntity
  8
1-2
  6
Continuous
 62
     3
370
    13
100
AcDbLine
 10
272.6757152660474
 20
-105.7091872756544
 30
0.0
 11
275.6756756756758
 21
-106.7318560626055
 31
0.0
  0
LINE
  5
23C
330
1F
100
AcDbEntity
  8
1-2
  6
Continuous
 62
     3
370
    13
100
AcDbLine
 10
275.6756756756758
 20
-106.7318560626055
 30
0.0
 11
275.6756756756758
 21
-116.9580490524703
 31
0.0
  0
LINE
  5
23D
330
1F
100
AcDbEntity
  8
1-2
  6
Continuous
 62
     3
370
    13
100
AcDbLine
 10
272.6757152660474
 20
-117.9812127190667
 30
0.0
 11
275.6756756756758
 21
-116.9580490524703
 31
0.0
  0
LINE
  5
23E
330
1F
100
AcDbEntity
  8
1-2
  6
Continuous
 62
     3
370
    13
100
AcDbLine
 10
272.6757152660474
 20
-117.9812127190667
 30
0.0
 11
272.6757152660474
 21
-125.8876573717271
 31
0.0
  0
LINE
  5
23F
330
1F
100
AcDbEntity
  8
1-2
  6
Continuous
 62
     3
370
    13
100
AcDbLine
 10
272.6757152660474
 20
-117.9812127190667
 30
0.0
 11
272.6757152660474
 21
-126.7957615207982
 31
0.0
  0
LINE
  5
240
330
1F
100
AcDbEntity
  8
1-2
  6
Continuous
 62
     3
370
    13
100
AcDbLine
 10
272.6757152660474
 20
-126.7957615207982
 30
0.0
 11
275.6756756756758
 21
-127.8184303077489
 31
0.0
  0
LINE
  5
241
330
1F
100
AcDbEntity
  8
1-2
  6
Continuous
 62
     3
370
    13
100
AcDbLine
 10
275.6756756756758
 20
-127.8184303077489
 30
0.0
 11
275.6756756756758
 21
-138.0446232976141
 31
0.0
  0
LINE
  5
242
330
1F
100
AcDbEntity
  8
1-2
  6
Continuous
 62
     3
370
    13
100
AcDbLine
 10
272.6757152660474
 20
-139.0677869642101
 30
0.0
 11
275.6756756756758
 21
-138.0446232976141
 31
0.0
  0
LINE
  5
243
330
1F
100
AcDbEntity
  8
1-2
  6
Continuous
 62
     3
370
    13
100
AcDbLine
 10
272.6757152660474
 20
-139.0677869642101
 30
0.0
 11
272.6757152660474
 21
-147.8823357659417
 31
0.0
  0
LINE
  5
244
330
1F
100
AcDbEntity
  8
1-2
  6
Continuous
 62
     3
370
    13
100
AcDbLine
 10
272.6757152660474
 20
-139.0677869642101
 30
0.0
 11
272.6757152660474
 21
-149.4545683989654
 31
0.0
  0
LINE
  5
245
330
1F
100
AcDbEntity
  8
1-2
  6
Continuous
 62
     3
370
    13
100
AcDbLine
 10
272.6757152660474
 20
-139.0677869642101
 30
0.0
 11
275.6756756756758
 21
-138.0446232976141
 31
0.0
  0
LINE
  5
246
330
1F
100
AcDbEntity
  8
1-2
  6
Continuous
 62
     3
370
    13
100
AcDbLine
 10
272.6757152660474
 20
-139.0677869642101
 30
0.0
 11
272.6757152660474
 21
-146.9742316168708
 31
0.0
  0
LINE
  5
247
330
1F
100
AcDbEntity
  8
1-2
  6
Continuous
 62
     3
370
    13
100
AcDbLine
 10
272.6757152660474
 20
-139.0677869642101
 30
0.0
 11
272.6757152660474
 21
-147.8823357659417
 31
0.0
  0
LINE
  5
248
330
1F
100
AcDbEntity
  8
1-2
  6
Continuous
 62
     3
370
    13
100
AcDbLine
 10
272.6757152660474
 20
-141.442590661951
 30
0.0
 11
272.6757152660474
 21
-149.3490353146115
 31
0.0
  0
LINE
  5
249
330
1F
100
AcDbEntity
  8
1-2
  6
Continuous
 62
     3
370
    13
100
AcDbLine
 10
272.6757152660474
 20
-141.442590661951
 30
0.0
 11
272.6757152660474
 21
-150.2571394636823
 31
0.0
  0
LINE
  5
24A
330
1F
100
AcDbEntity
  8
1-2
  6
Continuous
 62
     3
370
    13
100
AcDbLine
 10
272.6757152660474
 20
-150.2571394636823
 30
0.0
 11
275.6756756756758
 21
-151.2798082506333
 31
0.0
  0
LINE
  5
24B
330
1F
100
AcDbEntity
  8
1-2
  6
Continuous
 62
     3
370
    13
100
AcDbLine
 10
275.6756756756758
 20
-151.2798082506333
 30
0.0
 11
275.6756756756758
 21
-161.5060012404982
 31
0.0
  0
LINE
  5
24C
330
1F
100
AcDbEntity
  8
1-2
  6
Continuous
 62
     3
370
    13
100
AcDbLine
 10
272.6757152660474
 20
-162.5291649070945
 30
0.0
 11
275.6756756756758
 21
-161.5060012404982
 31
0.0
  0
LINE
  5
24D
330
1F
100
AcDbEntity
  8
1-2
  6
Continuous
 62
     3
370
    13
100
AcDbLine
 10
272.6757152660474
 20
-162.5291649070945
 30
0.0
 11
272.6757152660474
 21
-170.4356095597549
 31
0.0
  0
LINE
  5
24E
330
1F
100
AcDbEntity
  8
1-2
  6
Continuous
 62
     3
370
    13
100
AcDbLine
 10
272.6757152660474
 20
-162.5291649070945
 30
0.0
 11
272.6757152660474
 21
-171.343713708826
 31
0.0
  0
LINE
  5
24F
330
1F
100
AcDbEntity
  8
1-2
  6
Continuous
 62
     3
370
    13
100
AcDbLine
 10
272.6757152660474
 20
-171.343713708826
 30
0.0
 11
275.6756756756758
 21
-172.3663824957771
 31
0.0
  0
LINE
  5
250
330
1F
100
AcDbEntity
  8
1-2
  6
Continuous
 62
     3
370
    13
100
AcDbLine
 10
275.6756756756758
 20
-172.3663824957771
 30
0.0
 11
275.6756756756758
 21
-182.5925754856419
 31
0.0
  0
LINE
  5
251
330
1F
100
AcDbEntity
  8
1-2
  6
Continuous
 62
     3
370
    13
100
AcDbLine
 10
272.6757152660474
 20
-183.615739152238
 30
0.0
 11
275.6756756756758
 21
-182.5925754856419
 31
0.0
  0
LINE
  5
252
330
1F
100
AcDbEntity
  8
1-2
  6
Continuous
 62
     3
370
    13
100
AcDbLine
 10
272.6757152660474
 20
-183.615739152238
 30
0.0
 11
272.6757152660474
 21
-194.0025205869932
 31
0.0
  0
LINE
  5
253
330
1F
100
AcDbEntity
  8
1-2
  6
Continuous
 62
     3
370
    13
100
AcDbLine
 10
272.6757152660474
 20
-183.615739152238
 30
0.0
 11
275.6756756756758
 21
-182.5925754856419
 31
0.0
  0
LINE
  5
254
330
1F
100
AcDbEntity
  8
1-2
  6
Continuous
 62
     3
370
    13
100
AcDbLine
 10
272.6757152660474
 20
-183.615739152238
 30
0.0
 11
272.6757152660474
 21
-191.5221838048987
 31
0.0
  0
LINE
  5
255
330
1F
100
AcDbEntity
  8
1-2
  6
Continuous
 62
     3
370
    13
100
AcDbLine
 10
272.6757152660474
 20
-183.615739152238
 30
0.0
 11
272.6757152660474
 21
-192.4302879539695
 31
0.0
  0
LINE
  5
256
330
1F
100
AcDbEntity
  8
1-2
  6
Continuous
 62
     3
370
    13
100
AcDbLine
 10
272.6757152660474
 20
-183.615739152238
 30
0.0
 11
272.6757152660474
 21
-195.8108108108107
 31
0.0
  0
LINE
  5
257
330
1F
100
AcDbEntity
  8
1-2
  6
Continuous
 62
     3
370
    13
100
AcDbLine
 10
272.6757152660474
 20
-195.8108108108107
 30
0.0
 11
313.6755041173987
 21
-195.8108108108107
 31
0.0
  0
LINE
  5
258
330
1F
100
AcDbEntity
  8
1-2
  6
Continuous
 62
     3
370
    13
100
AcDbLine
 10
-97.29729729729712
 20
-69.81061780774894
 30
0.0
 11
-1127.297231313345
 21
-69.81061780774894
 31
0.0
  0
LINE
  5
259
330
1F
100
AcDbEntity
  8
1-2
  6
Continuous
 62
     3
370
    13
100
AcDbLine
 10
-97.29729729729712
 20
-81.8109543259078
 30
0.0
 11
-1127.297231313345
 21
-81.8109543259078
 31
0.0
  0
LINE
  5
25A
330
1F
100
AcDbEntity
  8
1-2
  6
Continuous
 62
     3
370
    13
100
AcDbLine
 10
-107.2967116897169
 20
-183.8107217324745
 30
0.0
 11
-107.2967116897169
 21
-81.8109543259078
 31
0.0
  0
LINE
  5
25B
330
1F
100
AcDbEntity
  8
1-2
  6
Continuous
 62
     3
370
    13
100
AcDbLine
 10
-107.2967116897169
 20
-69.81061780774894
 30
0.0
 11
-107.2967116897169
 21
318.1890044341216
 31
0.0
  0
LINE
  5
25C
330
1F
100
AcDbEntity
  8
1-2
  6
Continuous
 62
     3
370
    13
100
AcDbLine
 10
-1117.296950881546
 20
-183.8107217324745
 30
0.0
 11
-1117.296950881546
 21
-81.8109543259078
 31
0.0
  0
LINE
  5
25D
330
1F
100
AcDbEntity
  8
1-2
  6
Continuous
 62
     3
370
    13
100
AcDbLine
 10
-1117.296950881546
 20
-69.81061780774894
 30
0.0
 11
-1117.296950881546
 21
118.1890869140625
 31
0.0
  0
LINE
  5
25E
330
1F
100
AcDbEntity
  8
1-2
  6
Continuous
 62
     3
370
    13
100
AcDbLine
 10
-1097.297256057327
 20
-183.8107217324745
 30
0.0
 11
-1097.297256057327
 21
-81.8109543259078
 31
0.0
  0
LINE
  5
25F
330
1F
100
AcDbEntity
  8
1-2
  6
Continuous
 62
     3
370
    13
100
AcDbLine
 10
-1097.297256057327
 20
-69.81061780774894
 30
0.0
 11
-1097.297256057327
 21
118.1890869140625
 31
0.0
  0
LINE
  5
260
330
1F
100
AcDbEntity
  8
1-2
  6
Continuous
 62
     3
370
    13
100
AcDbLine
 10
-1087.297965384818
 20
-183.8107217324745
 30
0.0
 11
-1087.297965384818
 21
-81.8109543259078
 31
0.0
  0
LINE
  5
261
330
1F
100
AcDbEntity
  8
1-2
  6
Continuous
 62
     3
370
    13
100
AcDbLine
 10
-1087.297965384818
 20
-69.81061780774894
 30
0.0
 11
-1087.297965384818
 21
118.1890869140625
 31
0.0
  0
LINE
  5
262
330
1F
100
AcDbEntity
  8
1-1
  6
JWW_DASHED1
 62
     2
370
    13
100
AcDbLine
 10
-107.2973302892734
 20
-101.8113914695945
 30
0.0
 11
-107.2973302892734
 21
-181.8111605257602
 31
0.0
  0
LINE
  5
263
330
1F
100
AcDbEntity
  8
1-1
  6
JWW_DASHED1
 62
     2
370
    13
100
AcDbLine
 10
-1117.297198321368
 20
-101.8113914695945
 30
0.0
 11
-1117.297198321368
 21
-181.8111605257602
 31
0.0
  0
LINE
  5
264
330
1F
100
AcDbEntity
  8
1-1
  6
JWW_DASHED1
 62
     2
370
    13
100
AcDbLine
 10
-107.2973302892734
 20
-101.8113914695945
 30
0.0
 11
-1117.297198321368
 21
-101.8113914695945
 31
0.0
  0
LINE
  5
265
330
1F
100
AcDbEntity
  8
1-2
  6
Continuous
 62
     3
370
    13
100
AcDbLine
 10
284.6755569045609
 20
835.1887800886825
 30
0.0
 11
284.6755569045609
 21
729.38549144848
 31
0.0
  0
LINE
  5
266
330
1F
100
AcDbEntity
  8
1-2
  6
Continuous
 62
     3
370
    13
100
AcDbLine
 10
286.6758604307435
 20
835.1887800886825
 30
0.0
 11
286.6758604307435
 21
727.5054436760981
 31
0.0
  0
LINE
  5
267
330
1F
100
AcDbEntity
  8
1-2
  6
Continuous
 62
     3
370
    13
100
AcDbLine
 10
284.6755569045609
 20
718.9930188978042
 30
0.0
 11
284.6755569045609
 21
529.3854502085094
 31
0.0
  0
LINE
  5
268
330
1F
100
AcDbEntity
  8
1-2
  6
Continuous
 62
     3
370
    13
100
AcDbLine
 10
286.6758604307435
 20
720.873066670186
 30
0.0
 11
286.6758604307435
 21
527.5054024361276
 31
0.0
  0
LINE
  5
269
330
1F
100
AcDbEntity
  8
1-2
  6
Continuous
 62
     3
370
    13
100
AcDbLine
 10
286.6758604307435
 20
520.8730254302154
 30
0.0
 11
286.6758604307435
 21
327.5053611961573
 31
0.0
  0
LINE
  5
26A
330
1F
100
AcDbEntity
  8
1-2
  6
Continuous
 62
     3
370
    13
100
AcDbLine
 10
284.6755569045609
 20
518.9929776578335
 30
0.0
 11
284.6755569045609
 21
329.3854089685391
 31
0.0
  0
LINE
  5
26B
330
1F
100
AcDbEntity
  8
1-2
  6
Continuous
 62
     3
370
    13
100
AcDbLine
 10
284.6755569045609
 20
318.9929364178633
 30
0.0
 11
284.6755569045609
 21
129.3853677285685
 31
0.0
  0
LINE
  5
26C
330
1F
100
AcDbEntity
  8
1-2
  6
Continuous
 62
     3
370
    13
100
AcDbLine
 10
286.6758604307435
 20
320.8729841902451
 30
0.0
 11
286.6758604307435
 21
127.5053199561867
 31
0.0
  0
LINE
  5
26D
330
1F
100
AcDbEntity
  8
1-2
  6
Continuous
 62
     3
370
    13
100
AcDbLine
 10
284.6755569045609
 20
118.9928951778927
 30
0.0
 11
284.6755569045609
 21
-70.61454979149062
 31
0.0
  0
LINE
  5
26E
330
1F
100
AcDbEntity
  8
1-2
  6
Continuous
 62
     3
370
    13
100
AcDbLine
 10
286.6758604307435
 20
120.8729429502745
 30
0.0
 11
286.6758604307435
 21
-72.49459756387239
 31
0.0
  0
LINE
  5
26F
330
1F
100
AcDbEntity
  8
1-2
  6
Continuous
 62
     3
370
    13
100
AcDbLine
 10
286.6758604307435
 20
-79.12697456978464
 30
0.0
 11
286.6758604307435
 21
-186.8109295819255
 31
0.0
  0
LINE
  5
270
330
1F
100
AcDbEntity
  8
1-2
  6
Continuous
 62
     3
370
    13
100
AcDbLine
 10
284.6755569045609
 20
-81.00702234216641
 30
0.0
 11
284.6755569045609
 21
-186.8109295819255
 31
0.0
  0
LINE
  5
271
330
1F
100
AcDbEntity
  8
1-2
  6
Continuous
 62
     3
370
    13
100
AcDbLine
 10
325.6758406355576
 20
642.189182590794
 30
0.0
 11
325.6758406355576
 21
835.1887800886825
 31
0.0
  0
LINE
  5
272
330
1F
100
AcDbEntity
  8
1-2
  6
Continuous
 62
     3
370
    13
100
AcDbLine
 10
316.6759594066724
 20
835.1887800886825
 30
0.0
 11
316.6759594066724
 21
642.189182590794
 31
0.0
  0
LINE
  5
273
330
1F
100
AcDbEntity
  8
1-2
  6
Continuous
 62
     3
370
    13
100
AcDbLine
 10
314.6756558804901
 20
835.1887800886825
 30
0.0
 11
314.6756558804901
 21
642.189182590794
 31
0.0
  0
LINE
  5
274
330
1F
100
AcDbEntity
  8
1-2
  6
Continuous
 62
     3
370
    13
100
AcDbLine
 10
325.6758406355576
 20
-186.8109295819255
 30
0.0
 11
325.6758406355576
 21
606.1891627956084
 31
0.0
  0
LINE
  5
275
330
1F
100
AcDbEntity
  8
1-2
  6
Continuous
 62
     3
370
    13
100
AcDbLine
 10
316.6759594066724
 20
-186.8109295819255
 30
0.0
 11
316.6759594066724
 21
606.1891627956084
 31
0.0
  0
LINE
  5
276
330
1F
100
AcDbEntity
  8
1-2
  6
Continuous
 62
     3
370
    13
100
AcDbLine
 10
314.6756558804901
 20
-186.8109295819255
 30
0.0
 11
314.6756558804901
 21
606.1891627956084
 31
0.0
  0
LINE
  5
277
330
1F
100
AcDbEntity
  8
1-2
  6
Continuous
 62
     3
370
    13
100
AcDbLine
 10
-1067.297280801309
 20
530.1895059121623
 30
0.0
 11
-1067.297280801309
 21
718.1890869140625
 31
0.0
  0
LINE
  5
278
330
1F
100
AcDbEntity
  8
1-2
  6
Continuous
 62
     3
370
    13
100
AcDbLine
 10
-1057.297990128801
 20
530.1895059121623
 30
0.0
 11
-1057.297990128801
 21
718.1890869140625
 31
0.0
  0
LINE
  5
279
330
1F
100
AcDbEntity
  8
1-2
  6
Continuous
 62
     3
370
    13
100
AcDbLine
 10
-1067.297280801309
 20
730.1894234322214
 30
0.0
 11
-1067.297280801309
 21
835.1877903293919
 31
0.0
  0
LINE
  5
27A
330
1F
100
AcDbEntity
  8
1-2
  6
Continuous
 62
     3
370
    13
100
AcDbLine
 10
-1057.297990128801
 20
730.1894234322214
 30
0.0
 11
-1057.297990128801
 21
835.1877903293919
 31
0.0
  0
LINE
  5
27B
330
1F
100
AcDbEntity
  8
1-2
  6
Continuous
 62
     3
370
    13
100
AcDbLine
 10
-1067.297280801309
 20
330.1893409522805
 30
0.0
 11
-1067.297280801309
 21
518.1891693940033
 31
0.0
  0
LINE
  5
27C
330
1F
100
AcDbEntity
  8
1-2
  6
Continuous
 62
     3
370
    13
100
AcDbLine
 10
-1057.297990128801
 20
330.1893409522805
 30
0.0
 11
-1057.297990128801
 21
518.1891693940033
 31
0.0
  0
LINE
  5
27D
330
1F
100
AcDbEntity
  8
1-2
  6
Continuous
 62
     3
370
    13
100
AcDbLine
 10
-1067.297280801309
 20
130.1894234322214
 30
0.0
 11
-1067.297280801309
 21
318.1890044341216
 31
0.0
  0
LINE
  5
27E
330
1F
100
AcDbEntity
  8
1-2
  6
Continuous
 62
     3
370
    13
100
AcDbLine
 10
-1057.297990128801
 20
130.1894234322214
 30
0.0
 11
-1057.297990128801
 21
318.1890044341216
 31
0.0
  0
LINE
  5
27F
330
1F
100
AcDbEntity
  8
1-2
  6
Continuous
 62
     3
370
    13
100
AcDbLine
 10
-1067.297280801309
 20
-183.8107217324745
 30
0.0
 11
-1067.297280801309
 21
-81.8109543259078
 31
0.0
  0
LINE
  5
280
330
1F
100
AcDbEntity
  8
1-2
  6
Continuous
 62
     3
370
    13
100
AcDbLine
 10
-1067.297280801309
 20
-69.81061780774894
 30
0.0
 11
-1067.297280801309
 21
118.1890869140625
 31
0.0
  0
LINE
  5
281
330
1F
100
AcDbEntity
  8
1-2
  6
Continuous
 62
     3
370
    13
100
AcDbLine
 10
-1057.297990128801
 20
-183.8107217324745
 30
0.0
 11
-1057.297990128801
 21
-81.8109543259078
 31
0.0
  0
LINE
  5
282
330
1F
100
AcDbEntity
  8
1-2
  6
Continuous
 62
     3
370
    13
100
AcDbLine
 10
-1057.297990128801
 20
-69.81061780774894
 30
0.0
 11
-1057.297990128801
 21
118.1890869140625
 31
0.0
  0
LINE
  5
283
330
1F
100
AcDbEntity
  8
1-2
  6
Continuous
 62
     3
370
    13
100
AcDbLine
 10
-1037.297305545291
 20
530.1895059121623
 30
0.0
 11
-1037.297305545291
 21
718.1890869140625
 31
0.0
  0
LINE
  5
284
330
1F
100
AcDbEntity
  8
1-2
  6
Continuous
 62
     3
370
    13
100
AcDbLine
 10
-1027.298014872783
 20
530.1895059121623
 30
0.0
 11
-1027.298014872783
 21
718.1890869140625
 31
0.0
  0
LINE
  5
285
330
1F
100
AcDbEntity
  8
1-2
  6
Continuous
 62
     3
370
    13
100
AcDbLine
 10
-1037.297305545291
 20
730.1894234322214
 30
0.0
 11
-1037.297305545291
 21
835.1877903293919
 31
0.0
  0
LINE
  5
286
330
1F
100
AcDbEntity
  8
1-2
  6
Continuous
 62
     3
370
    13
100
AcDbLine
 10
-1027.298014872783
 20
730.1894234322214
 30
0.0
 11
-1027.298014872783
 21
835.1877903293919
 31
0.0
  0
LINE
  5
287
330
1F
100
AcDbEntity
  8
1-2
  6
Continuous
 62
     3
370
    13
100
AcDbLine
 10
-1037.297305545291
 20
330.1893409522805
 30
0.0
 11
-1037.297305545291
 21
518.1891693940033
 31
0.0
  0
LINE
  5
288
330
1F
100
AcDbEntity
  8
1-2
  6
Continuous
 62
     3
370
    13
100
AcDbLine
 10
-1027.298014872783
 20
330.1893409522805
 30
0.0
 11
-1027.298014872783
 21
518.1891693940033
 31
0.0
  0
LINE
  5
289
330
1F
100
AcDbEntity
  8
1-2
  6
Continuous
 62
     3
370
    13
100
AcDbLine
 10
-1037.297305545291
 20
130.1894234322214
 30
0.0
 11
-1037.297305545291
 21
318.1890044341216
 31
0.0
  0
LINE
  5
28A
330
1F
100
AcDbEntity
  8
1-2
  6
Continuous
 62
     3
370
    13
100
AcDbLine
 10
-1027.298014872783
 20
130.1894234322214
 30
0.0
 11
-1027.298014872783
 21
318.1890044341216
 31
0.0
  0
LINE
  5
28B
330
1F
100
AcDbEntity
  8
1-2
  6
Continuous
 62
     3
370
    13
100
AcDbLine
 10
-1037.297305545291
 20
-183.8107217324745
 30
0.0
 11
-1037.297305545291
 21
-81.8109543259078
 31
0.0
  0
LINE
  5
28C
330
1F
100
AcDbEntity
  8
1-2
  6
Continuous
 62
     3
370
    13
100
AcDbLine
 10
-1037.297305545291
 20
-69.81061780774894
 30
0.0
 11
-1037.297305545291
 21
118.1890869140625
 31
0.0
  0
LINE
  5
28D
330
1F
100
AcDbEntity
  8
1-2
  6
Continuous
 62
     3
370
    13
100
AcDbLine
 10
-1027.298014872783
 20
-183.8107217324745
 30
0.0
 11
-1027.298014872783
 21
-81.8109543259078
 31
0.0
  0
LINE
  5
28E
330
1F
100
AcDbEntity
  8
1-2
  6
Continuous
 62
     3
370
    13
100
AcDbLine
 10
-1027.298014872783
 20
-69.81061780774894
 30
0.0
 11
-1027.298014872783
 21
118.1890869140625
 31
0.0
  0
LINE
  5
28F
330
1F
100
AcDbEntity
  8
1-2
  6
Continuous
 62
     3
370
    13
100
AcDbLine
 10
-1007.297206569362
 20
530.1895059121623
 30
0.0
 11
-1007.297206569362
 21
718.1890869140625
 31
0.0
  0
LINE
  5
290
330
1F
100
AcDbEntity
  8
1-2
  6
Continuous
 62
     3
370
    13
100
AcDbLine
 10
-997.2979158968537
 20
530.1895059121623
 30
0.0
 11
-997.2979158968537
 21
718.1890869140625
 31
0.0
  0
LINE
  5
291
330
1F
100
AcDbEntity
  8
1-2
  6
Continuous
 62
     3
370
    13
100
AcDbLine
 10
-1007.297206569362
 20
730.1894234322214
 30
0.0
 11
-1007.297206569362
 21
835.1877903293919
 31
0.0
  0
LINE
  5
292
330
1F
100
AcDbEntity
  8
1-2
  6
Continuous
 62
     3
370
    13
100
AcDbLine
 10
-997.2979158968537
 20
730.1894234322214
 30
0.0
 11
-997.2979158968537
 21
835.1877903293919
 31
0.0
  0
LINE
  5
293
330
1F
100
AcDbEntity
  8
1-2
  6
Continuous
 62
     3
370
    13
100
AcDbLine
 10
-1007.297206569362
 20
330.1893409522805
 30
0.0
 11
-1007.297206569362
 21
518.1891693940033
 31
0.0
  0
LINE
  5
294
330
1F
100
AcDbEntity
  8
1-2
  6
Continuous
 62
     3
370
    13
100
AcDbLine
 10
-997.2979158968537
 20
330.1893409522805
 30
0.0
 11
-997.2979158968537
 21
518.1891693940033
 31
0.0
  0
LINE
  5
295
330
1F
100
AcDbEntity
  8
1-2
  6
Continuous
 62
     3
370
    13
100
AcDbLine
 10
-1007.297206569362
 20
130.1894234322214
 30
0.0
 11
-1007.297206569362
 21
318.1890044341216
 31
0.0
  0
LINE
  5
296
330
1F
100
AcDbEntity
  8
1-2
  6
Continuous
 62
     3
370
    13
100
AcDbLine
 10
-997.2979158968537
 20
130.1894234322214
 30
0.0
 11
-997.2979158968537
 21
318.1890044341216
 31
0.0
  0
LINE
  5
297
330
1F
100
AcDbEntity
  8
1-2
  6
Continuous
 62
     3
370
    13
100
AcDbLine
 10
-1007.297206569362
 20
-183.8107217324745
 30
0.0
 11
-1007.297206569362
 21
-81.8109543259078
 31
0.0
  0
LINE
  5
298
330
1F
100
AcDbEntity
  8
1-2
  6
Continuous
 62
     3
370
    13
100
AcDbLine
 10
-1007.297206569362
 20
-69.81061780774894
 30
0.0
 11
-1007.297206569362
 21
118.1890869140625
 31
0.0
  0
LINE
  5
299
330
1F
100
AcDbEntity
  8
1-2
  6
Continuous
 62
     3
370
    13
100
AcDbLine
 10
-997.2979158968537
 20
-183.8107217324745
 30
0.0
 11
-997.2979158968537
 21
-81.8109543259078
 31
0.0
  0
LINE
  5
29A
330
1F
100
AcDbEntity
  8
1-2
  6
Continuous
 62
     3
370
    13
100
AcDbLine
 10
-997.2979158968537
 20
-69.81061780774894
 30
0.0
 11
-997.2979158968537
 21
118.1890869140625
 31
0.0
  0
LINE
  5
29B
330
1F
100
AcDbEntity
  8
1-2
  6
Continuous
 62
     3
370
    13
100
AcDbLine
 10
-977.2972313133446
 20
530.1895059121623
 30
0.0
 11
-977.2972313133446
 21
718.1890869140625
 31
0.0
  0
LINE
  5
29C
330
1F
100
AcDbEntity
  8
1-2
  6
Continuous
 62
     3
370
    13
100
AcDbLine
 10
-967.297940640836
 20
530.1895059121623
 30
0.0
 11
-967.297940640836
 21
718.1890869140625
 31
0.0
  0
LINE
  5
29D
330
1F
100
AcDbEntity
  8
1-2
  6
Continuous
 62
     3
370
    13
100
AcDbLine
 10
-977.2972313133446
 20
730.1894234322214
 30
0.0
 11
-977.2972313133446
 21
835.1877903293919
 31
0.0
  0
LINE
  5
29E
330
1F
100
AcDbEntity
  8
1-2
  6
Continuous
 62
     3
370
    13
100
AcDbLine
 10
-967.297940640836
 20
730.1894234322214
 30
0.0
 11
-967.297940640836
 21
835.1877903293919
 31
0.0
  0
LINE
  5
29F
330
1F
100
AcDbEntity
  8
1-2
  6
Continuous
 62
     3
370
    13
100
AcDbLine
 10
-977.2972313133446
 20
330.1893409522805
 30
0.0
 11
-977.2972313133446
 21
518.1891693940033
 31
0.0
  0
LINE
  5
2A0
330
1F
100
AcDbEntity
  8
1-2
  6
Continuous
 62
     3
370
    13
100
AcDbLine
 10
-967.297940640836
 20
330.1893409522805
 30
0.0
 11
-967.297940640836
 21
518.1891693940033
 31
0.0
  0
LINE
  5
2A1
330
1F
100
AcDbEntity
  8
1-2
  6
Continuous
 62
     3
370
    13
100
AcDbLine
 10
-977.2972313133446
 20
130.1894234322214
 30
0.0
 11
-977.2972313133446
 21
318.1890044341216
 31
0.0
  0
LINE
  5
2A2
330
1F
100
AcDbEntity
  8
1-2
  6
Continuous
 62
     3
370
    13
100
AcDbLine
 10
-967.297940640836
 20
130.1894234322214
 30
0.0
 11
-967.297940640836
 21
318.1890044341216
 31
0.0
  0
LINE
  5
2A3
330
1F
100
AcDbEntity
  8
1-2
  6
Continuous
 62
     3
370
    13
100
AcDbLine
 10
-977.2972313133446
 20
-183.8107217324745
 30
0.0
 11
-977.2972313133446
 21
-81.8109543259078
 31
0.0
  0
LINE
  5
2A4
330
1F
100
AcDbEntity
  8
1-2
  6
Continuous
 62
     3
370
    13
100
AcDbLine
 10
-977.2972313133446
 20
-69.81061780774894
 30
0.0
 11
-977.2972313133446
 21
118.1890869140625
 31
0.0
  0
LINE
  5
2A5
330
1F
100
AcDbEntity
  8
1-2
  6
Continuous
 62
     3
370
    13
100
AcDbLine
 10
-967.297940640836
 20
-183.8107217324745
 30
0.0
 11
-967.297940640836
 21
-81.8109543259078
 31
0.0
  0
LINE
  5
2A6
330
1F
100
AcDbEntity
  8
1-2
  6
Continuous
 62
     3
370
    13
100
AcDbLine
 10
-967.297940640836
 20
-69.81061780774894
 30
0.0
 11
-967.297940640836
 21
118.1890869140625
 31
0.0
  0
LINE
  5
2A7
330
1F
100
AcDbEntity
  8
1-2
  6
Continuous
 62
     3
370
    13
100
AcDbLine
 10
-947.2972560573269
 20
530.1895059121623
 30
0.0
 11
-947.2972560573269
 21
718.1890869140625
 31
0.0
  0
LINE
  5
2A8
330
1F
100
AcDbEntity
  8
1-2
  6
Continuous
 62
     3
370
    13
100
AcDbLine
 10
-937.2979653848183
 20
530.1895059121623
 30
0.0
 11
-937.2979653848183
 21
718.1890869140625
 31
0.0
  0
LINE
  5
2A9
330
1F
100
AcDbEntity
  8
1-2
  6
Continuous
 62
     3
370
    13
100
AcDbLine
 10
-947.2972560573269
 20
730.1894234322214
 30
0.0
 11
-947.2972560573269
 21
835.1877903293919
 31
0.0
  0
LINE
  5
2AA
330
1F
100
AcDbEntity
  8
1-2
  6
Continuous
 62
     3
370
    13
100
AcDbLine
 10
-937.2979653848183
 20
730.1894234322214
 30
0.0
 11
-937.2979653848183
 21
835.1877903293919
 31
0.0
  0
LINE
  5
2AB
330
1F
100
AcDbEntity
  8
1-2
  6
Continuous
 62
     3
370
    13
100
AcDbLine
 10
-947.2972560573269
 20
330.1893409522805
 30
0.0
 11
-947.2972560573269
 21
518.1891693940033
 31
0.0
  0
LINE
  5
2AC
330
1F
100
AcDbEntity
  8
1-2
  6
Continuous
 62
     3
370
    13
100
AcDbLine
 10
-937.2979653848183
 20
330.1893409522805
 30
0.0
 11
-937.2979653848183
 21
518.1891693940033
 31
0.0
  0
LINE
  5
2AD
330
1F
100
AcDbEntity
  8
1-2
  6
Continuous
 62
     3
370
    13
100
AcDbLine
 10
-947.2972560573269
 20
130.1894234322214
 30
0.0
 11
-947.2972560573269
 21
318.1890044341216
 31
0.0
  0
LINE
  5
2AE
330
1F
100
AcDbEntity
  8
1-2
  6
Continuous
 62
     3
370
    13
100
AcDbLine
 10
-937.2979653848183
 20
130.1894234322214
 30
0.0
 11
-937.2979653848183
 21
318.1890044341216
 31
0.0
  0
LINE
  5
2AF
330
1F
100
AcDbEntity
  8
1-2
  6
Continuous
 62
     3
370
    13
100
AcDbLine
 10
-947.2972560573269
 20
-183.8107217324745
 30
0.0
 11
-947.2972560573269
 21
-81.8109543259078
 31
0.0
  0
LINE
  5
2B0
330
1F
100
AcDbEntity
  8
1-2
  6
Continuous
 62
     3
370
    13
100
AcDbLine
 10
-947.2972560573269
 20
-69.81061780774894
 30
0.0
 11
-947.2972560573269
 21
118.1890869140625
 31
0.0
  0
LINE
  5
2B1
330
1F
100
AcDbEntity
  8
1-2
  6
Continuous
 62
     3
370
    13
100
AcDbLine
 10
-937.2979653848183
 20
-183.8107217324745
 30
0.0
 11
-937.2979653848183
 21
-81.8109543259078
 31
0.0
  0
LINE
  5
2B2
330
1F
100
AcDbEntity
  8
1-2
  6
Continuous
 62
     3
370
    13
100
AcDbLine
 10
-937.2979653848183
 20
-69.81061780774894
 30
0.0
 11
-937.2979653848183
 21
118.1890869140625
 31
0.0
  0
LINE
  5
2B3
330
1F
100
AcDbEntity
  8
1-2
  6
Continuous
 62
     3
370
    13
100
AcDbLine
 10
-917.2972808013092
 20
530.1895059121623
 30
0.0
 11
-917.2972808013092
 21
718.1890869140625
 31
0.0
  0
LINE
  5
2B4
330
1F
100
AcDbEntity
  8
1-2
  6
Continuous
 62
     3
370
    13
100
AcDbLine
 10
-907.2979901288006
 20
530.1895059121623
 30
0.0
 11
-907.2979901288006
 21
718.1890869140625
 31
0.0
  0
LINE
  5
2B5
330
1F
100
AcDbEntity
  8
1-2
  6
Continuous
 62
     3
370
    13
100
AcDbLine
 10
-917.2972808013092
 20
730.1894234322214
 30
0.0
 11
-917.2972808013092
 21
835.1877903293919
 31
0.0
  0
LINE
  5
2B6
330
1F
100
AcDbEntity
  8
1-2
  6
Continuous
 62
     3
370
    13
100
AcDbLine
 10
-907.2979901288006
 20
730.1894234322214
 30
0.0
 11
-907.2979901288006
 21
835.1877903293919
 31
0.0
  0
LINE
  5
2B7
330
1F
100
AcDbEntity
  8
1-2
  6
Continuous
 62
     3
370
    13
100
AcDbLine
 10
-917.2972808013092
 20
330.1893409522805
 30
0.0
 11
-917.2972808013092
 21
518.1891693940033
 31
0.0
  0
LINE
  5
2B8
330
1F
100
AcDbEntity
  8
1-2
  6
Continuous
 62
     3
370
    13
100
AcDbLine
 10
-907.2979901288006
 20
330.1893409522805
 30
0.0
 11
-907.2979901288006
 21
518.1891693940033
 31
0.0
  0
LINE
  5
2B9
330
1F
100
AcDbEntity
  8
1-2
  6
Continuous
 62
     3
370
    13
100
AcDbLine
 10
-917.2972808013092
 20
130.1894234322214
 30
0.0
 11
-917.2972808013092
 21
318.1890044341216
 31
0.0
  0
LINE
  5
2BA
330
1F
100
AcDbEntity
  8
1-2
  6
Continuous
 62
     3
370
    13
100
AcDbLine
 10
-907.2979901288006
 20
130.1894234322214
 30
0.0
 11
-907.2979901288006
 21
318.1890044341216
 31
0.0
  0
LINE
  5
2BB
330
1F
100
AcDbEntity
  8
1-2
  6
Continuous
 62
     3
370
    13
100
AcDbLine
 10
-917.2972808013092
 20
-183.8107217324745
 30
0.0
 11
-917.2972808013092
 21
-81.8109543259078
 31
0.0
  0
LINE
  5
2BC
330
1F
100
AcDbEntity
  8
1-2
  6
Continuous
 62
     3
370
    13
100
AcDbLine
 10
-917.2972808013092
 20
-69.81061780774894
 30
0.0
 11
-917.2972808013092
 21
118.1890869140625
 31
0.0
  0
LINE
  5
2BD
330
1F
100
AcDbEntity
  8
1-2
  6
Continuous
 62
     3
370
    13
100
AcDbLine
 10
-907.2979901288006
 20
-183.8107217324745
 30
0.0
 11
-907.2979901288006
 21
-81.8109543259078
 31
0.0
  0
LINE
  5
2BE
330
1F
100
AcDbEntity
  8
1-2
  6
Continuous
 62
     3
370
    13
100
AcDbLine
 10
-907.2979901288006
 20
-69.81061780774894
 30
0.0
 11
-907.2979901288006
 21
118.1890869140625
 31
0.0
  0
LINE
  5
2BF
330
1F
100
AcDbEntity
  8
1-2
  6
Continuous
 62
     3
370
    13
100
AcDbLine
 10
-887.29718182538
 20
530.1895059121623
 30
0.0
 11
-887.29718182538
 21
718.1890869140625
 31
0.0
  0
LINE
  5
2C0
330
1F
100
AcDbEntity
  8
1-2
  6
Continuous
 62
     3
370
    13
100
AcDbLine
 10
-877.2978911528717
 20
530.1895059121623
 30
0.0
 11
-877.2978911528717
 21
718.1890869140625
 31
0.0
  0
LINE
  5
2C1
330
1F
100
AcDbEntity
  8
1-2
  6
Continuous
 62
     3
370
    13
100
AcDbLine
 10
-887.29718182538
 20
730.1894234322214
 30
0.0
 11
-887.29718182538
 21
835.1877903293919
 31
0.0
  0
LINE
  5
2C2
330
1F
100
AcDbEntity
  8
1-2
  6
Continuous
 62
     3
370
    13
100
AcDbLine
 10
-877.2978911528717
 20
730.1894234322214
 30
0.0
 11
-877.2978911528717
 21
835.1877903293919
 31
0.0
  0
LINE
  5
2C3
330
1F
100
AcDbEntity
  8
1-2
  6
Continuous
 62
     3
370
    13
100
AcDbLine
 10
-887.29718182538
 20
330.1893409522805
 30
0.0
 11
-887.29718182538
 21
518.1891693940033
 31
0.0
  0
LINE
  5
2C4
330
1F
100
AcDbEntity
  8
1-2
  6
Continuous
 62
     3
370
    13
100
AcDbLine
 10
-877.2978911528717
 20
330.1893409522805
 30
0.0
 11
-877.2978911528717
 21
518.1891693940033
 31
0.0
  0
LINE
  5
2C5
330
1F
100
AcDbEntity
  8
1-2
  6
Continuous
 62
     3
370
    13
100
AcDbLine
 10
-887.29718182538
 20
130.1894234322214
 30
0.0
 11
-887.29718182538
 21
318.1890044341216
 31
0.0
  0
LINE
  5
2C6
330
1F
100
AcDbEntity
  8
1-2
  6
Continuous
 62
     3
370
    13
100
AcDbLine
 10
-877.2978911528717
 20
130.1894234322214
 30
0.0
 11
-877.2978911528717
 21
318.1890044341216
 31
0.0
  0
LINE
  5
2C7
330
1F
100
AcDbEntity
  8
1-2
  6
Continuous
 62
     3
370
    13
100
AcDbLine
 10
-887.29718182538
 20
-183.8107217324745
 30
0.0
 11
-887.29718182538
 21
-81.8109543259078
 31
0.0
  0
LINE
  5
2C8
330
1F
100
AcDbEntity
  8
1-2
  6
Continuous
 62
     3
370
    13
100
AcDbLine
 10
-887.29718182538
 20
-69.81061780774894
 30
0.0
 11
-887.29718182538
 21
118.1890869140625
 31
0.0
  0
LINE
  5
2C9
330
1F
100
AcDbEntity
  8
1-2
  6
Continuous
 62
     3
370
    13
100
AcDbLine
 10
-877.2978911528717
 20
-183.8107217324745
 30
0.0
 11
-877.2978911528717
 21
-81.8109543259078
 31
0.0
  0
LINE
  5
2CA
330
1F
100
AcDbEntity
  8
1-2
  6
Continuous
 62
     3
370
    13
100
AcDbLine
 10
-877.2978911528717
 20
-69.81061780774894
 30
0.0
 11
-877.2978911528717
 21
118.1890869140625
 31
0.0
  0
LINE
  5
2CB
330
1F
100
AcDbEntity
  8
1-2
  6
Continuous
 62
     3
370
    13
100
AcDbLine
 10
-857.2972065693623
 20
530.1895059121623
 30
0.0
 11
-857.2972065693623
 21
718.1890869140625
 31
0.0
  0
LINE
  5
2CC
330
1F
100
AcDbEntity
  8
1-2
  6
Continuous
 62
     3
370
    13
100
AcDbLine
 10
-847.2979158968537
 20
530.1895059121623
 30
0.0
 11
-847.2979158968537
 21
718.1890869140625
 31
0.0
  0
LINE
  5
2CD
330
1F
100
AcDbEntity
  8
1-2
  6
Continuous
 62
     3
370
    13
100
AcDbLine
 10
-857.2972065693623
 20
730.1894234322214
 30
0.0
 11
-857.2972065693623
 21
835.1877903293919
 31
0.0
  0
LINE
  5
2CE
330
1F
100
AcDbEntity
  8
1-2
  6
Continuous
 62
     3
370
    13
100
AcDbLine
 10
-847.2979158968537
 20
730.1894234322214
 30
0.0
 11
-847.2979158968537
 21
835.1877903293919
 31
0.0
  0
LINE
  5
2CF
330
1F
100
AcDbEntity
  8
1-2
  6
Continuous
 62
     3
370
    13
100
AcDbLine
 10
-857.2972065693623
 20
330.1893409522805
 30
0.0
 11
-857.2972065693623
 21
518.1891693940033
 31
0.0
  0
LINE
  5
2D0
330
1F
100
AcDbEntity
  8
1-2
  6
Continuous
 62
     3
370
    13
100
AcDbLine
 10
-847.2979158968537
 20
330.1893409522805
 30
0.0
 11
-847.2979158968537
 21
518.1891693940033
 31
0.0
  0
LINE
  5
2D1
330
1F
100
AcDbEntity
  8
1-2
  6
Continuous
 62
     3
370
    13
100
AcDbLine
 10
-857.2972065693623
 20
130.1894234322214
 30
0.0
 11
-857.2972065693623
 21
318.1890044341216
 31
0.0
  0
LINE
  5
2D2
330
1F
100
AcDbEntity
  8
1-2
  6
Continuous
 62
     3
370
    13
100
AcDbLine
 10
-847.2979158968537
 20
130.1894234322214
 30
0.0
 11
-847.2979158968537
 21
318.1890044341216
 31
0.0
  0
LINE
  5
2D3
330
1F
100
AcDbEntity
  8
1-2
  6
Continuous
 62
     3
370
    13
100
AcDbLine
 10
-857.2972065693623
 20
-183.8107217324745
 30
0.0
 11
-857.2972065693623
 21
-81.8109543259078
 31
0.0
  0
LINE
  5
2D4
330
1F
100
AcDbEntity
  8
1-2
  6
Continuous
 62
     3
370
    13
100
AcDbLine
 10
-857.2972065693623
 20
-69.81061780774894
 30
0.0
 11
-857.2972065693623
 21
118.1890869140625
 31
0.0
  0
LINE
  5
2D5
330
1F
100
AcDbEntity
  8
1-2
  6
Continuous
 62
     3
370
    13
100
AcDbLine
 10
-847.2979158968537
 20
-183.8107217324745
 30
0.0
 11
-847.2979158968537
 21
-81.8109543259078
 31
0.0
  0
LINE
  5
2D6
330
1F
100
AcDbEntity
  8
1-2
  6
Continuous
 62
     3
370
    13
100
AcDbLine
 10
-847.2979158968537
 20
-69.81061780774894
 30
0.0
 11
-847.2979158968537
 21
118.1890869140625
 31
0.0
  0
LINE
  5
2D7
330
1F
100
AcDbEntity
  8
1-2
  6
Continuous
 62
     3
370
    13
100
AcDbLine
 10
-827.2972313133446
 20
530.1895059121623
 30
0.0
 11
-827.2972313133446
 21
718.1890869140625
 31
0.0
  0
LINE
  5
2D8
330
1F
100
AcDbEntity
  8
1-2
  6
Continuous
 62
     3
370
    13
100
AcDbLine
 10
-817.2979406408363
 20
530.1895059121623
 30
0.0
 11
-817.2979406408363
 21
718.1890869140625
 31
0.0
  0
LINE
  5
2D9
330
1F
100
AcDbEntity
  8
1-2
  6
Continuous
 62
     3
370
    13
100
AcDbLine
 10
-827.2972313133446
 20
730.1894234322214
 30
0.0
 11
-827.2972313133446
 21
835.1877903293919
 31
0.0
  0
LINE
  5
2DA
330
1F
100
AcDbEntity
  8
1-2
  6
Continuous
 62
     3
370
    13
100
AcDbLine
 10
-817.2979406408363
 20
730.1894234322214
 30
0.0
 11
-817.2979406408363
 21
835.1877903293919
 31
0.0
  0
LINE
  5
2DB
330
1F
100
AcDbEntity
  8
1-2
  6
Continuous
 62
     3
370
    13
100
AcDbLine
 10
-827.2972313133446
 20
330.1893409522805
 30
0.0
 11
-827.2972313133446
 21
518.1891693940033
 31
0.0
  0
LINE
  5
2DC
330
1F
100
AcDbEntity
  8
1-2
  6
Continuous
 62
     3
370
    13
100
AcDbLine
 10
-817.2979406408363
 20
330.1893409522805
 30
0.0
 11
-817.2979406408363
 21
518.1891693940033
 31
0.0
  0
LINE
  5
2DD
330
1F
100
AcDbEntity
  8
1-2
  6
Continuous
 62
     3
370
    13
100
AcDbLine
 10
-827.2972313133446
 20
130.1894234322214
 30
0.0
 11
-827.2972313133446
 21
318.1890044341216
 31
0.0
  0
LINE
  5
2DE
330
1F
100
AcDbEntity
  8
1-2
  6
Continuous
 62
     3
370
    13
100
AcDbLine
 10
-817.2979406408363
 20
130.1894234322214
 30
0.0
 11
-817.2979406408363
 21
318.1890044341216
 31
0.0
  0
LINE
  5
2DF
330
1F
100
AcDbEntity
  8
1-2
  6
Continuous
 62
     3
370
    13
100
AcDbLine
 10
-827.2972313133446
 20
-183.8107217324745
 30
0.0
 11
-827.2972313133446
 21
-81.8109543259078
 31
0.0
  0
LINE
  5
2E0
330
1F
100
AcDbEntity
  8
1-2
  6
Continuous
 62
     3
370
    13
100
AcDbLine
 10
-827.2972313133446
 20
-69.81061780774894
 30
0.0
 11
-827.2972313133446
 21
118.1890869140625
 31
0.0
  0
LINE
  5
2E1
330
1F
100
AcDbEntity
  8
1-2
  6
Continuous
 62
     3
370
    13
100
AcDbLine
 10
-817.2979406408363
 20
-183.8107217324745
 30
0.0
 11
-817.2979406408363
 21
-81.8109543259078
 31
0.0
  0
LINE
  5
2E2
330
1F
100
AcDbEntity
  8
1-2
  6
Continuous
 62
     3
370
    13
100
AcDbLine
 10
-817.2979406408363
 20
-69.81061780774894
 30
0.0
 11
-817.2979406408363
 21
118.1890869140625
 31
0.0
  0
LINE
  5
2E3
330
1F
100
AcDbEntity
  8
1-2
  6
Continuous
 62
     3
370
    13
100
AcDbLine
 10
-797.2972560573269
 20
530.1895059121623
 30
0.0
 11
-797.2972560573269
 21
718.1890869140625
 31
0.0
  0
LINE
  5
2E4
330
1F
100
AcDbEntity
  8
1-2
  6
Continuous
 62
     3
370
    13
100
AcDbLine
 10
-787.2979653848182
 20
530.1895059121623
 30
0.0
 11
-787.2979653848182
 21
718.1890869140625
 31
0.0
  0
LINE
  5
2E5
330
1F
100
AcDbEntity
  8
1-2
  6
Continuous
 62
     3
370
    13
100
AcDbLine
 10
-797.2972560573269
 20
730.1894234322214
 30
0.0
 11
-797.2972560573269
 21
835.1877903293919
 31
0.0
  0
LINE
  5
2E6
330
1F
100
AcDbEntity
  8
1-2
  6
Continuous
 62
     3
370
    13
100
AcDbLine
 10
-787.2979653848182
 20
730.1894234322214
 30
0.0
 11
-787.2979653848182
 21
835.1877903293919
 31
0.0
  0
LINE
  5
2E7
330
1F
100
AcDbEntity
  8
1-2
  6
Continuous
 62
     3
370
    13
100
AcDbLine
 10
-797.2972560573269
 20
330.1893409522805
 30
0.0
 11
-797.2972560573269
 21
518.1891693940033
 31
0.0
  0
LINE
  5
2E8
330
1F
100
AcDbEntity
  8
1-2
  6
Continuous
 62
     3
370
    13
100
AcDbLine
 10
-787.2979653848182
 20
330.1893409522805
 30
0.0
 11
-787.2979653848182
 21
518.1891693940033
 31
0.0
  0
LINE
  5
2E9
330
1F
100
AcDbEntity
  8
1-2
  6
Continuous
 62
     3
370
    13
100
AcDbLine
 10
-797.2972560573269
 20
130.1894234322214
 30
0.0
 11
-797.2972560573269
 21
318.1890044341216
 31
0.0
  0
LINE
  5
2EA
330
1F
100
AcDbEntity
  8
1-2
  6
Continuous
 62
     3
370
    13
100
AcDbLine
 10
-787.2979653848182
 20
130.1894234322214
 30
0.0
 11
-787.2979653848182
 21
318.1890044341216
 31
0.0
  0
LINE
  5
2EB
330
1F
100
AcDbEntity
  8
1-2
  6
Continuous
 62
     3
370
    13
100
AcDbLine
 10
-797.2972560573269
 20
-183.8107217324745
 30
0.0
 11
-797.2972560573269
 21
-81.8109543259078
 31
0.0
  0
LINE
  5
2EC
330
1F
100
AcDbEntity
  8
1-2
  6
Continuous
 62
     3
370
    13
100
AcDbLine
 10
-797.2972560573269
 20
-69.81061780774894
 30
0.0
 11
-797.2972560573269
 21
118.1890869140625
 31
0.0
  0
LINE
  5
2ED
330
1F
100
AcDbEntity
  8
1-2
  6
Continuous
 62
     3
370
    13
100
AcDbLine
 10
-787.2979653848182
 20
-183.8107217324745
 30
0.0
 11
-787.2979653848182
 21
-81.8109543259078
 31
0.0
  0
LINE
  5
2EE
330
1F
100
AcDbEntity
  8
1-2
  6
Continuous
 62
     3
370
    13
100
AcDbLine
 10
-787.2979653848182
 20
-69.81061780774894
 30
0.0
 11
-787.2979653848182
 21
118.1890869140625
 31
0.0
  0
LINE
  5
2EF
330
1F
100
AcDbEntity
  8
1-2
  6
Continuous
 62
     3
370
    13
100
AcDbLine
 10
-767.2972808013092
 20
530.1895059121623
 30
0.0
 11
-767.2972808013092
 21
718.1890869140625
 31
0.0
  0
LINE
  5
2F0
330
1F
100
AcDbEntity
  8
1-2
  6
Continuous
 62
     3
370
    13
100
AcDbLine
 10
-757.2979901288005
 20
530.1895059121623
 30
0.0
 11
-757.2979901288005
 21
718.1890869140625
 31
0.0
  0
LINE
  5
2F1
330
1F
100
AcDbEntity
  8
1-2
  6
Continuous
 62
     3
370
    13
100
AcDbLine
 10
-767.2972808013092
 20
730.1894234322214
 30
0.0
 11
-767.2972808013092
 21
835.1877903293919
 31
0.0
  0
LINE
  5
2F2
330
1F
100
AcDbEntity
  8
1-2
  6
Continuous
 62
     3
370
    13
100
AcDbLine
 10
-757.2979901288005
 20
730.1894234322214
 30
0.0
 11
-757.2979901288005
 21
835.1877903293919
 31
0.0
  0
LINE
  5
2F3
330
1F
100
AcDbEntity
  8
1-2
  6
Continuous
 62
     3
370
    13
100
AcDbLine
 10
-767.2972808013092
 20
330.1893409522805
 30
0.0
 11
-767.2972808013092
 21
518.1891693940033
 31
0.0
  0
LINE
  5
2F4
330
1F
100
AcDbEntity
  8
1-2
  6
Continuous
 62
     3
370
    13
100
AcDbLine
 10
-757.2979901288005
 20
330.1893409522805
 30
0.0
 11
-757.2979901288005
 21
518.1891693940033
 31
0.0
  0
LINE
  5
2F5
330
1F
100
AcDbEntity
  8
1-2
  6
Continuous
 62
     3
370
    13
100
AcDbLine
 10
-767.2972808013092
 20
130.1894234322214
 30
0.0
 11
-767.2972808013092
 21
318.1890044341216
 31
0.0
  0
LINE
  5
2F6
330
1F
100
AcDbEntity
  8
1-2
  6
Continuous
 62
     3
370
    13
100
AcDbLine
 10
-757.2979901288005
 20
130.1894234322214
 30
0.0
 11
-757.2979901288005
 21
318.1890044341216
 31
0.0
  0
LINE
  5
2F7
330
1F
100
AcDbEntity
  8
1-2
  6
Continuous
 62
     3
370
    13
100
AcDbLine
 10
-767.2972808013092
 20
-183.8107217324745
 30
0.0
 11
-767.2972808013092
 21
-81.8109543259078
 31
0.0
  0
LINE
  5
2F8
330
1F
100
AcDbEntity
  8
1-2
  6
Continuous
 62
     3
370
    13
100
AcDbLine
 10
-767.2972808013092
 20
-69.81061780774894
 30
0.0
 11
-767.2972808013092
 21
118.1890869140625
 31
0.0
  0
LINE
  5
2F9
330
1F
100
AcDbEntity
  8
1-2
  6
Continuous
 62
     3
370
    13
100
AcDbLine
 10
-757.2979901288005
 20
-183.8107217324745
 30
0.0
 11
-757.2979901288005
 21
-81.8109543259078
 31
0.0
  0
LINE
  5
2FA
330
1F
100
AcDbEntity
  8
1-2
  6
Continuous
 62
     3
370
    13
100
AcDbLine
 10
-757.2979901288005
 20
-69.81061780774894
 30
0.0
 11
-757.2979901288005
 21
118.1890869140625
 31
0.0
  0
LINE
  5
2FB
330
1F
100
AcDbEntity
  8
1-2
  6
Continuous
 62
     3
370
    13
100
AcDbLine
 10
-737.29718182538
 20
530.1895059121623
 30
0.0
 11
-737.29718182538
 21
718.1890869140625
 31
0.0
  0
LINE
  5
2FC
330
1F
100
AcDbEntity
  8
1-2
  6
Continuous
 62
     3
370
    13
100
AcDbLine
 10
-727.2978911528717
 20
530.1895059121623
 30
0.0
 11
-727.2978911528717
 21
718.1890869140625
 31
0.0
  0
LINE
  5
2FD
330
1F
100
AcDbEntity
  8
1-2
  6
Continuous
 62
     3
370
    13
100
AcDbLine
 10
-737.29718182538
 20
730.1894234322214
 30
0.0
 11
-737.29718182538
 21
835.1877903293919
 31
0.0
  0
LINE
  5
2FE
330
1F
100
AcDbEntity
  8
1-2
  6
Continuous
 62
     3
370
    13
100
AcDbLine
 10
-727.2978911528717
 20
730.1894234322214
 30
0.0
 11
-727.2978911528717
 21
835.1877903293919
 31
0.0
  0
LINE
  5
2FF
330
1F
100
AcDbEntity
  8
1-2
  6
Continuous
 62
     3
370
    13
100
AcDbLine
 10
-737.29718182538
 20
330.1893409522805
 30
0.0
 11
-737.29718182538
 21
518.1891693940033
 31
0.0
  0
LINE
  5
300
330
1F
100
AcDbEntity
  8
1-2
  6
Continuous
 62
     3
370
    13
100
AcDbLine
 10
-727.2978911528717
 20
330.1893409522805
 30
0.0
 11
-727.2978911528717
 21
518.1891693940033
 31
0.0
  0
LINE
  5
301
330
1F
100
AcDbEntity
  8
1-2
  6
Continuous
 62
     3
370
    13
100
AcDbLine
 10
-737.29718182538
 20
130.1894234322214
 30
0.0
 11
-737.29718182538
 21
318.1890044341216
 31
0.0
  0
LINE
  5
302
330
1F
100
AcDbEntity
  8
1-2
  6
Continuous
 62
     3
370
    13
100
AcDbLine
 10
-727.2978911528717
 20
130.1894234322214
 30
0.0
 11
-727.2978911528717
 21
318.1890044341216
 31
0.0
  0
LINE
  5
303
330
1F
100
AcDbEntity
  8
1-2
  6
Continuous
 62
     3
370
    13
100
AcDbLine
 10
-737.29718182538
 20
-183.8107217324745
 30
0.0
 11
-737.29718182538
 21
-81.8109543259078
 31
0.0
  0
LINE
  5
304
330
1F
100
AcDbEntity
  8
1-2
  6
Continuous
 62
     3
370
    13
100
AcDbLine
 10
-737.29718182538
 20
-69.81061780774894
 30
0.0
 11
-737.29718182538
 21
118.1890869140625
 31
0.0
  0
LINE
  5
305
330
1F
100
AcDbEntity
  8
1-2
  6
Continuous
 62
     3
370
    13
100
AcDbLine
 10
-727.2978911528717
 20
-183.8107217324745
 30
0.0
 11
-727.2978911528717
 21
-81.8109543259078
 31
0.0
  0
LINE
  5
306
330
1F
100
AcDbEntity
  8
1-2
  6
Continuous
 62
     3
370
    13
100
AcDbLine
 10
-727.2978911528717
 20
-69.81061780774894
 30
0.0
 11
-727.2978911528717
 21
118.1890869140625
 31
0.0
  0
LINE
  5
307
330
1F
100
AcDbEntity
  8
1-2
  6
Continuous
 62
     3
370
    13
100
AcDbLine
 10
-707.2972065693623
 20
530.1895059121623
 30
0.0
 11
-707.2972065693623
 21
718.1890869140625
 31
0.0
  0
LINE
  5
308
330
1F
100
AcDbEntity
  8
1-2
  6
Continuous
 62
     3
370
    13
100
AcDbLine
 10
-697.297915896854
 20
530.1895059121623
 30
0.0
 11
-697.297915896854
 21
718.1890869140625
 31
0.0
  0
LINE
  5
309
330
1F
100
AcDbEntity
  8
1-2
  6
Continuous
 62
     3
370
    13
100
AcDbLine
 10
-707.2972065693623
 20
730.1894234322214
 30
0.0
 11
-707.2972065693623
 21
835.1877903293919
 31
0.0
  0
LINE
  5
30A
330
1F
100
AcDbEntity
  8
1-2
  6
Continuous
 62
     3
370
    13
100
AcDbLine
 10
-697.297915896854
 20
730.1894234322214
 30
0.0
 11
-697.297915896854
 21
835.1877903293919
 31
0.0
  0
LINE
  5
30B
330
1F
100
AcDbEntity
  8
1-2
  6
Continuous
 62
     3
370
    13
100
AcDbLine
 10
-707.2972065693623
 20
330.1893409522805
 30
0.0
 11
-707.2972065693623
 21
518.1891693940033
 31
0.0
  0
LINE
  5
30C
330
1F
100
AcDbEntity
  8
1-2
  6
Continuous
 62
     3
370
    13
100
AcDbLine
 10
-697.297915896854
 20
330.1893409522805
 30
0.0
 11
-697.297915896854
 21
518.1891693940033
 31
0.0
  0
LINE
  5
30D
330
1F
100
AcDbEntity
  8
1-2
  6
Continuous
 62
     3
370
    13
100
AcDbLine
 10
-707.2972065693623
 20
130.1894234322214
 30
0.0
 11
-707.2972065693623
 21
318.1890044341216
 31
0.0
  0
LINE
  5
30E
330
1F
100
AcDbEntity
  8
1-2
  6
Continuous
 62
     3
370
    13
100
AcDbLine
 10
-697.297915896854
 20
130.1894234322214
 30
0.0
 11
-697.297915896854
 21
318.1890044341216
 31
0.0
  0
LINE
  5
30F
330
1F
100
AcDbEntity
  8
1-2
  6
Continuous
 62
     3
370
    13
100
AcDbLine
 10
-707.2972065693623
 20
-183.8107217324745
 30
0.0
 11
-707.2972065693623
 21
-81.8109543259078
 31
0.0
  0
LINE
  5
310
330
1F
100
AcDbEntity
  8
1-2
  6
Continuous
 62
     3
370
    13
100
AcDbLine
 10
-707.2972065693623
 20
-69.81061780774894
 30
0.0
 11
-707.2972065693623
 21
118.1890869140625
 31
0.0
  0
LINE
  5
311
330
1F
100
AcDbEntity
  8
1-2
  6
Continuous
 62
     3
370
    13
100
AcDbLine
 10
-697.297915896854
 20
-183.8107217324745
 30
0.0
 11
-697.297915896854
 21
-81.8109543259078
 31
0.0
  0
LINE
  5
312
330
1F
100
AcDbEntity
  8
1-2
  6
Continuous
 62
     3
370
    13
100
AcDbLine
 10
-697.297915896854
 20
-69.81061780774894
 30
0.0
 11
-697.297915896854
 21
118.1890869140625
 31
0.0
  0
LINE
  5
313
330
1F
100
AcDbEntity
  8
1-2
  6
Continuous
 62
     3
370
    13
100
AcDbLine
 10
-677.2972313133446
 20
530.1895059121623
 30
0.0
 11
-677.2972313133446
 21
718.1890869140625
 31
0.0
  0
LINE
  5
314
330
1F
100
AcDbEntity
  8
1-2
  6
Continuous
 62
     3
370
    13
100
AcDbLine
 10
-667.2979406408363
 20
530.1895059121623
 30
0.0
 11
-667.2979406408363
 21
718.1890869140625
 31
0.0
  0
LINE
  5
315
330
1F
100
AcDbEntity
  8
1-2
  6
Continuous
 62
     3
370
    13
100
AcDbLine
 10
-677.2972313133446
 20
730.1894234322214
 30
0.0
 11
-677.2972313133446
 21
835.1877903293919
 31
0.0
  0
LINE
  5
316
330
1F
100
AcDbEntity
  8
1-2
  6
Continuous
 62
     3
370
    13
100
AcDbLine
 10
-667.2979406408363
 20
730.1894234322214
 30
0.0
 11
-667.2979406408363
 21
835.1877903293919
 31
0.0
  0
LINE
  5
317
330
1F
100
AcDbEntity
  8
1-2
  6
Continuous
 62
     3
370
    13
100
AcDbLine
 10
-677.2972313133446
 20
330.1893409522805
 30
0.0
 11
-677.2972313133446
 21
518.1891693940033
 31
0.0
  0
LINE
  5
318
330
1F
100
AcDbEntity
  8
1-2
  6
Continuous
 62
     3
370
    13
100
AcDbLine
 10
-667.2979406408363
 20
330.1893409522805
 30
0.0
 11
-667.2979406408363
 21
518.1891693940033
 31
0.0
  0
LINE
  5
319
330
1F
100
AcDbEntity
  8
1-2
  6
Continuous
 62
     3
370
    13
100
AcDbLine
 10
-677.2972313133446
 20
130.1894234322214
 30
0.0
 11
-677.2972313133446
 21
318.1890044341216
 31
0.0
  0
LINE
  5
31A
330
1F
100
AcDbEntity
  8
1-2
  6
Continuous
 62
     3
370
    13
100
AcDbLine
 10
-667.2979406408363
 20
130.1894234322214
 30
0.0
 11
-667.2979406408363
 21
318.1890044341216
 31
0.0
  0
LINE
  5
31B
330
1F
100
AcDbEntity
  8
1-2
  6
Continuous
 62
     3
370
    13
100
AcDbLine
 10
-677.2972313133446
 20
-183.8107217324745
 30
0.0
 11
-677.2972313133446
 21
-81.8109543259078
 31
0.0
  0
LINE
  5
31C
330
1F
100
AcDbEntity
  8
1-2
  6
Continuous
 62
     3
370
    13
100
AcDbLine
 10
-677.2972313133446
 20
-69.81061780774894
 30
0.0
 11
-677.2972313133446
 21
118.1890869140625
 31
0.0
  0
LINE
  5
31D
330
1F
100
AcDbEntity
  8
1-2
  6
Continuous
 62
     3
370
    13
100
AcDbLine
 10
-667.2979406408363
 20
-183.8107217324745
 30
0.0
 11
-667.2979406408363
 21
-81.8109543259078
 31
0.0
  0
LINE
  5
31E
330
1F
100
AcDbEntity
  8
1-2
  6
Continuous
 62
     3
370
    13
100
AcDbLine
 10
-667.2979406408363
 20
-69.81061780774894
 30
0.0
 11
-667.2979406408363
 21
118.1890869140625
 31
0.0
  0
LINE
  5
31F
330
1F
100
AcDbEntity
  8
1-2
  6
Continuous
 62
     3
370
    13
100
AcDbLine
 10
-647.2971323374154
 20
530.1895059121623
 30
0.0
 11
-647.2971323374154
 21
718.1890869140625
 31
0.0
  0
LINE
  5
320
330
1F
100
AcDbEntity
  8
1-2
  6
Continuous
 62
     3
370
    13
100
AcDbLine
 10
-637.2978416649071
 20
530.1895059121623
 30
0.0
 11
-637.2978416649071
 21
718.1890869140625
 31
0.0
  0
LINE
  5
321
330
1F
100
AcDbEntity
  8
1-2
  6
Continuous
 62
     3
370
    13
100
AcDbLine
 10
-647.2971323374154
 20
730.1894234322214
 30
0.0
 11
-647.2971323374154
 21
835.1877903293919
 31
0.0
  0
LINE
  5
322
330
1F
100
AcDbEntity
  8
1-2
  6
Continuous
 62
     3
370
    13
100
AcDbLine
 10
-637.2978416649071
 20
730.1894234322214
 30
0.0
 11
-637.2978416649071
 21
835.1877903293919
 31
0.0
  0
LINE
  5
323
330
1F
100
AcDbEntity
  8
1-2
  6
Continuous
 62
     3
370
    13
100
AcDbLine
 10
-647.2971323374154
 20
330.1893409522805
 30
0.0
 11
-647.2971323374154
 21
518.1891693940033
 31
0.0
  0
LINE
  5
324
330
1F
100
AcDbEntity
  8
1-2
  6
Continuous
 62
     3
370
    13
100
AcDbLine
 10
-637.2978416649071
 20
330.1893409522805
 30
0.0
 11
-637.2978416649071
 21
518.1891693940033
 31
0.0
  0
LINE
  5
325
330
1F
100
AcDbEntity
  8
1-2
  6
Continuous
 62
     3
370
    13
100
AcDbLine
 10
-647.2971323374154
 20
130.1894234322214
 30
0.0
 11
-647.2971323374154
 21
318.1890044341216
 31
0.0
  0
LINE
  5
326
330
1F
100
AcDbEntity
  8
1-2
  6
Continuous
 62
     3
370
    13
100
AcDbLine
 10
-637.2978416649071
 20
130.1894234322214
 30
0.0
 11
-637.2978416649071
 21
318.1890044341216
 31
0.0
  0
LINE
  5
327
330
1F
100
AcDbEntity
  8
1-2
  6
Continuous
 62
     3
370
    13
100
AcDbLine
 10
-647.2971323374154
 20
-183.8107217324745
 30
0.0
 11
-647.2971323374154
 21
-81.8109543259078
 31
0.0
  0
LINE
  5
328
330
1F
100
AcDbEntity
  8
1-2
  6
Continuous
 62
     3
370
    13
100
AcDbLine
 10
-647.2971323374154
 20
-69.81061780774894
 30
0.0
 11
-647.2971323374154
 21
118.1890869140625
 31
0.0
  0
LINE
  5
329
330
1F
100
AcDbEntity
  8
1-2
  6
Continuous
 62
     3
370
    13
100
AcDbLine
 10
-637.2978416649071
 20
-183.8107217324745
 30
0.0
 11
-637.2978416649071
 21
-81.8109543259078
 31
0.0
  0
LINE
  5
32A
330
1F
100
AcDbEntity
  8
1-2
  6
Continuous
 62
     3
370
    13
100
AcDbLine
 10
-637.2978416649071
 20
-69.81061780774894
 30
0.0
 11
-637.2978416649071
 21
118.1890869140625
 31
0.0
  0
LINE
  5
32B
330
1F
100
AcDbEntity
  8
1-2
  6
Continuous
 62
     3
370
    13
100
AcDbLine
 10
-617.2971570813977
 20
530.1895059121623
 30
0.0
 11
-617.2971570813977
 21
718.1890869140625
 31
0.0
  0
LINE
  5
32C
330
1F
100
AcDbEntity
  8
1-2
  6
Continuous
 62
     3
370
    13
100
AcDbLine
 10
-607.2978664088894
 20
530.1895059121623
 30
0.0
 11
-607.2978664088894
 21
718.1890869140625
 31
0.0
  0
LINE
  5
32D
330
1F
100
AcDbEntity
  8
1-2
  6
Continuous
 62
     3
370
    13
100
AcDbLine
 10
-617.2971570813977
 20
730.1894234322214
 30
0.0
 11
-617.2971570813977
 21
835.1877903293919
 31
0.0
  0
LINE
  5
32E
330
1F
100
AcDbEntity
  8
1-2
  6
Continuous
 62
     3
370
    13
100
AcDbLine
 10
-607.2978664088894
 20
730.1894234322214
 30
0.0
 11
-607.2978664088894
 21
835.1877903293919
 31
0.0
  0
LINE
  5
32F
330
1F
100
AcDbEntity
  8
1-2
  6
Continuous
 62
     3
370
    13
100
AcDbLine
 10
-617.2971570813977
 20
330.1893409522805
 30
0.0
 11
-617.2971570813977
 21
518.1891693940033
 31
0.0
  0
LINE
  5
330
330
1F
100
AcDbEntity
  8
1-2
  6
Continuous
 62
     3
370
    13
100
AcDbLine
 10
-607.2978664088894
 20
330.1893409522805
 30
0.0
 11
-607.2978664088894
 21
518.1891693940033
 31
0.0
  0
LINE
  5
331
330
1F
100
AcDbEntity
  8
1-2
  6
Continuous
 62
     3
370
    13
100
AcDbLine
 10
-617.2971570813977
 20
130.1894234322214
 30
0.0
 11
-617.2971570813977
 21
318.1890044341216
 31
0.0
  0
LINE
  5
332
330
1F
100
AcDbEntity
  8
1-2
  6
Continuous
 62
     3
370
    13
100
AcDbLine
 10
-607.2978664088894
 20
130.1894234322214
 30
0.0
 11
-607.2978664088894
 21
318.1890044341216
 31
0.0
  0
LINE
  5
333
330
1F
100
AcDbEntity
  8
1-2
  6
Continuous
 62
     3
370
    13
100
AcDbLine
 10
-617.2971570813977
 20
-183.8107217324745
 30
0.0
 11
-617.2971570813977
 21
-81.8109543259078
 31
0.0
  0
LINE
  5
334
330
1F
100
AcDbEntity
  8
1-2
  6
Continuous
 62
     3
370
    13
100
AcDbLine
 10
-617.2971570813977
 20
-69.81061780774894
 30
0.0
 11
-617.2971570813977
 21
118.1890869140625
 31
0.0
  0
LINE
  5
335
330
1F
100
AcDbEntity
  8
1-2
  6
Continuous
 62
     3
370
    13
100
AcDbLine
 10
-607.2978664088894
 20
-183.8107217324745
 30
0.0
 11
-607.2978664088894
 21
-81.8109543259078
 31
0.0
  0
LINE
  5
336
330
1F
100
AcDbEntity
  8
1-2
  6
Continuous
 62
     3
370
    13
100
AcDbLine
 10
-607.2978664088894
 20
-69.81061780774894
 30
0.0
 11
-607.2978664088894
 21
118.1890869140625
 31
0.0
  0
LINE
  5
337
330
1F
100
AcDbEntity
  8
1-2
  6
Continuous
 62
     3
370
    13
100
AcDbLine
 10
-587.29718182538
 20
530.1895059121623
 30
0.0
 11
-587.29718182538
 21
718.1890869140625
 31
0.0
  0
LINE
  5
338
330
1F
100
AcDbEntity
  8
1-2
  6
Continuous
 62
     3
370
    13
100
AcDbLine
 10
-577.2978911528717
 20
530.1895059121623
 30
0.0
 11
-577.2978911528717
 21
718.1890869140625
 31
0.0
  0
LINE
  5
339
330
1F
100
AcDbEntity
  8
1-2
  6
Continuous
 62
     3
370
    13
100
AcDbLine
 10
-587.29718182538
 20
730.1894234322214
 30
0.0
 11
-587.29718182538
 21
835.1877903293919
 31
0.0
  0
LINE
  5
33A
330
1F
100
AcDbEntity
  8
1-2
  6
Continuous
 62
     3
370
    13
100
AcDbLine
 10
-577.2978911528717
 20
730.1894234322214
 30
0.0
 11
-577.2978911528717
 21
835.1877903293919
 31
0.0
  0
LINE
  5
33B
330
1F
100
AcDbEntity
  8
1-2
  6
Continuous
 62
     3
370
    13
100
AcDbLine
 10
-587.29718182538
 20
330.1893409522805
 30
0.0
 11
-587.29718182538
 21
518.1891693940033
 31
0.0
  0
LINE
  5
33C
330
1F
100
AcDbEntity
  8
1-2
  6
Continuous
 62
     3
370
    13
100
AcDbLine
 10
-577.2978911528717
 20
330.1893409522805
 30
0.0
 11
-577.2978911528717
 21
518.1891693940033
 31
0.0
  0
LINE
  5
33D
330
1F
100
AcDbEntity
  8
1-2
  6
Continuous
 62
     3
370
    13
100
AcDbLine
 10
-587.29718182538
 20
130.1894234322214
 30
0.0
 11
-587.29718182538
 21
318.1890044341216
 31
0.0
  0
LINE
  5
33E
330
1F
100
AcDbEntity
  8
1-2
  6
Continuous
 62
     3
370
    13
100
AcDbLine
 10
-577.2978911528717
 20
130.1894234322214
 30
0.0
 11
-577.2978911528717
 21
318.1890044341216
 31
0.0
  0
LINE
  5
33F
330
1F
100
AcDbEntity
  8
1-2
  6
Continuous
 62
     3
370
    13
100
AcDbLine
 10
-587.29718182538
 20
-183.8107217324745
 30
0.0
 11
-587.29718182538
 21
-81.8109543259078
 31
0.0
  0
LINE
  5
340
330
1F
100
AcDbEntity
  8
1-2
  6
Continuous
 62
     3
370
    13
100
AcDbLine
 10
-587.29718182538
 20
-69.81061780774894
 30
0.0
 11
-587.29718182538
 21
118.1890869140625
 31
0.0
  0
LINE
  5
341
330
1F
100
AcDbEntity
  8
1-2
  6
Continuous
 62
     3
370
    13
100
AcDbLine
 10
-577.2978911528717
 20
-183.8107217324745
 30
0.0
 11
-577.2978911528717
 21
-81.8109543259078
 31
0.0
  0
LINE
  5
342
330
1F
100
AcDbEntity
  8
1-2
  6
Continuous
 62
     3
370
    13
100
AcDbLine
 10
-577.2978911528717
 20
-69.81061780774894
 30
0.0
 11
-577.2978911528717
 21
118.1890869140625
 31
0.0
  0
LINE
  5
343
330
1F
100
AcDbEntity
  8
1-2
  6
Continuous
 62
     3
370
    13
100
AcDbLine
 10
-557.2972065693623
 20
530.1895059121623
 30
0.0
 11
-557.2972065693623
 21
718.1890869140625
 31
0.0
  0
LINE
  5
344
330
1F
100
AcDbEntity
  8
1-2
  6
Continuous
 62
     3
370
    13
100
AcDbLine
 10
-547.297915896854
 20
530.1895059121623
 30
0.0
 11
-547.297915896854
 21
718.1890869140625
 31
0.0
  0
LINE
  5
345
330
1F
100
AcDbEntity
  8
1-2
  6
Continuous
 62
     3
370
    13
100
AcDbLine
 10
-557.2972065693623
 20
730.1894234322214
 30
0.0
 11
-557.2972065693623
 21
835.1877903293919
 31
0.0
  0
LINE
  5
346
330
1F
100
AcDbEntity
  8
1-2
  6
Continuous
 62
     3
370
    13
100
AcDbLine
 10
-547.297915896854
 20
730.1894234322214
 30
0.0
 11
-547.297915896854
 21
835.1877903293919
 31
0.0
  0
LINE
  5
347
330
1F
100
AcDbEntity
  8
1-2
  6
Continuous
 62
     3
370
    13
100
AcDbLine
 10
-557.2972065693623
 20
330.1893409522805
 30
0.0
 11
-557.2972065693623
 21
518.1891693940033
 31
0.0
  0
LINE
  5
348
330
1F
100
AcDbEntity
  8
1-2
  6
Continuous
 62
     3
370
    13
100
AcDbLine
 10
-547.297915896854
 20
330.1893409522805
 30
0.0
 11
-547.297915896854
 21
518.1891693940033
 31
0.0
  0
LINE
  5
349
330
1F
100
AcDbEntity
  8
1-2
  6
Continuous
 62
     3
370
    13
100
AcDbLine
 10
-557.2972065693623
 20
130.1894234322214
 30
0.0
 11
-557.2972065693623
 21
318.1890044341216
 31
0.0
  0
LINE
  5
34A
330
1F
100
AcDbEntity
  8
1-2
  6
Continuous
 62
     3
370
    13
100
AcDbLine
 10
-547.297915896854
 20
130.1894234322214
 30
0.0
 11
-547.297915896854
 21
318.1890044341216
 31
0.0
  0
LINE
  5
34B
330
1F
100
AcDbEntity
  8
1-2
  6
Continuous
 62
     3
370
    13
100
AcDbLine
 10
-557.2972065693623
 20
-183.8107217324745
 30
0.0
 11
-557.2972065693623
 21
-81.8109543259078
 31
0.0
  0
LINE
  5
34C
330
1F
100
AcDbEntity
  8
1-2
  6
Continuous
 62
     3
370
    13
100
AcDbLine
 10
-557.2972065693623
 20
-69.81061780774894
 30
0.0
 11
-557.2972065693623
 21
118.1890869140625
 31
0.0
  0
LINE
  5
34D
330
1F
100
AcDbEntity
  8
1-2
  6
Continuous
 62
     3
370
    13
100
AcDbLine
 10
-547.297915896854
 20
-183.8107217324745
 30
0.0
 11
-547.297915896854
 21
-81.8109543259078
 31
0.0
  0
LINE
  5
34E
330
1F
100
AcDbEntity
  8
1-2
  6
Continuous
 62
     3
370
    13
100
AcDbLine
 10
-547.297915896854
 20
-69.81061780774894
 30
0.0
 11
-547.297915896854
 21
118.1890869140625
 31
0.0
  0
LINE
  5
34F
330
1F
100
AcDbEntity
  8
1-2
  6
Continuous
 62
     3
370
    13
100
AcDbLine
 10
-527.2972313133446
 20
530.1895059121623
 30
0.0
 11
-527.2972313133446
 21
718.1890869140625
 31
0.0
  0
LINE
  5
350
330
1F
100
AcDbEntity
  8
1-2
  6
Continuous
 62
     3
370
    13
100
AcDbLine
 10
-517.2979406408363
 20
530.1895059121623
 30
0.0
 11
-517.2979406408363
 21
718.1890869140625
 31
0.0
  0
LINE
  5
351
330
1F
100
AcDbEntity
  8
1-2
  6
Continuous
 62
     3
370
    13
100
AcDbLine
 10
-527.2972313133446
 20
730.1894234322214
 30
0.0
 11
-527.2972313133446
 21
835.1877903293919
 31
0.0
  0
LINE
  5
352
330
1F
100
AcDbEntity
  8
1-2
  6
Continuous
 62
     3
370
    13
100
AcDbLine
 10
-517.2979406408363
 20
730.1894234322214
 30
0.0
 11
-517.2979406408363
 21
835.1877903293919
 31
0.0
  0
LINE
  5
353
330
1F
100
AcDbEntity
  8
1-2
  6
Continuous
 62
     3
370
    13
100
AcDbLine
 10
-527.2972313133446
 20
330.1893409522805
 30
0.0
 11
-527.2972313133446
 21
518.1891693940033
 31
0.0
  0
LINE
  5
354
330
1F
100
AcDbEntity
  8
1-2
  6
Continuous
 62
     3
370
    13
100
AcDbLine
 10
-517.2979406408363
 20
330.1893409522805
 30
0.0
 11
-517.2979406408363
 21
518.1891693940033
 31
0.0
  0
LINE
  5
355
330
1F
100
AcDbEntity
  8
1-2
  6
Continuous
 62
     3
370
    13
100
AcDbLine
 10
-527.2972313133446
 20
130.1894234322214
 30
0.0
 11
-527.2972313133446
 21
318.1890044341216
 31
0.0
  0
LINE
  5
356
330
1F
100
AcDbEntity
  8
1-2
  6
Continuous
 62
     3
370
    13
100
AcDbLine
 10
-517.2979406408363
 20
130.1894234322214
 30
0.0
 11
-517.2979406408363
 21
318.1890044341216
 31
0.0
  0
LINE
  5
357
330
1F
100
AcDbEntity
  8
1-2
  6
Continuous
 62
     3
370
    13
100
AcDbLine
 10
-527.2972313133446
 20
-183.8107217324745
 30
0.0
 11
-527.2972313133446
 21
-81.8109543259078
 31
0.0
  0
LINE
  5
358
330
1F
100
AcDbEntity
  8
1-2
  6
Continuous
 62
     3
370
    13
100
AcDbLine
 10
-527.2972313133446
 20
-69.81061780774894
 30
0.0
 11
-527.2972313133446
 21
118.1890869140625
 31
0.0
  0
LINE
  5
359
330
1F
100
AcDbEntity
  8
1-2
  6
Continuous
 62
     3
370
    13
100
AcDbLine
 10
-517.2979406408363
 20
-183.8107217324745
 30
0.0
 11
-517.2979406408363
 21
-81.8109543259078
 31
0.0
  0
LINE
  5
35A
330
1F
100
AcDbEntity
  8
1-2
  6
Continuous
 62
     3
370
    13
100
AcDbLine
 10
-517.2979406408363
 20
-69.81061780774894
 30
0.0
 11
-517.2979406408363
 21
118.1890869140625
 31
0.0
  0
LINE
  5
35B
330
1F
100
AcDbEntity
  8
1-2
  6
Continuous
 62
     3
370
    13
100
AcDbLine
 10
-497.2972560573268
 20
530.1895059121623
 30
0.0
 11
-497.2972560573268
 21
718.1890869140625
 31
0.0
  0
LINE
  5
35C
330
1F
100
AcDbEntity
  8
1-2
  6
Continuous
 62
     3
370
    13
100
AcDbLine
 10
-487.2979653848182
 20
530.1895059121623
 30
0.0
 11
-487.2979653848182
 21
718.1890869140625
 31
0.0
  0
LINE
  5
35D
330
1F
100
AcDbEntity
  8
1-2
  6
Continuous
 62
     3
370
    13
100
AcDbLine
 10
-497.2972560573268
 20
730.1894234322214
 30
0.0
 11
-497.2972560573268
 21
835.1877903293919
 31
0.0
  0
LINE
  5
35E
330
1F
100
AcDbEntity
  8
1-2
  6
Continuous
 62
     3
370
    13
100
AcDbLine
 10
-487.2979653848182
 20
730.1894234322214
 30
0.0
 11
-487.2979653848182
 21
835.1877903293919
 31
0.0
  0
LINE
  5
35F
330
1F
100
AcDbEntity
  8
1-2
  6
Continuous
 62
     3
370
    13
100
AcDbLine
 10
-497.2972560573268
 20
330.1893409522805
 30
0.0
 11
-497.2972560573268
 21
518.1891693940033
 31
0.0
  0
LINE
  5
360
330
1F
100
AcDbEntity
  8
1-2
  6
Continuous
 62
     3
370
    13
100
AcDbLine
 10
-487.2979653848182
 20
330.1893409522805
 30
0.0
 11
-487.2979653848182
 21
518.1891693940033
 31
0.0
  0
LINE
  5
361
330
1F
100
AcDbEntity
  8
1-2
  6
Continuous
 62
     3
370
    13
100
AcDbLine
 10
-497.2972560573268
 20
130.1894234322214
 30
0.0
 11
-497.2972560573268
 21
318.1890044341216
 31
0.0
  0
LINE
  5
362
330
1F
100
AcDbEntity
  8
1-2
  6
Continuous
 62
     3
370
    13
100
AcDbLine
 10
-487.2979653848182
 20
130.1894234322214
 30
0.0
 11
-487.2979653848182
 21
318.1890044341216
 31
0.0
  0
LINE
  5
363
330
1F
100
AcDbEntity
  8
1-2
  6
Continuous
 62
     3
370
    13
100
AcDbLine
 10
-497.2972560573268
 20
-183.8107217324745
 30
0.0
 11
-497.2972560573268
 21
-81.8109543259078
 31
0.0
  0
LINE
  5
364
330
1F
100
AcDbEntity
  8
1-2
  6
Continuous
 62
     3
370
    13
100
AcDbLine
 10
-497.2972560573268
 20
-69.81061780774894
 30
0.0
 11
-497.2972560573268
 21
118.1890869140625
 31
0.0
  0
LINE
  5
365
330
1F
100
AcDbEntity
  8
1-2
  6
Continuous
 62
     3
370
    13
100
AcDbLine
 10
-487.2979653848182
 20
-183.8107217324745
 30
0.0
 11
-487.2979653848182
 21
-81.8109543259078
 31
0.0
  0
LINE
  5
366
330
1F
100
AcDbEntity
  8
1-2
  6
Continuous
 62
     3
370
    13
100
AcDbLine
 10
-487.2979653848182
 20
-69.81061780774894
 30
0.0
 11
-487.2979653848182
 21
118.1890869140625
 31
0.0
  0
LINE
  5
367
330
1F
100
AcDbEntity
  8
1-2
  6
Continuous
 62
     3
370
    13
100
AcDbLine
 10
-467.2972808013091
 20
530.1895059121623
 30
0.0
 11
-467.2972808013091
 21
718.1890869140625
 31
0.0
  0
LINE
  5
368
330
1F
100
AcDbEntity
  8
1-2
  6
Continuous
 62
     3
370
    13
100
AcDbLine
 10
-457.2979901288005
 20
530.1895059121623
 30
0.0
 11
-457.2979901288005
 21
718.1890869140625
 31
0.0
  0
LINE
  5
369
330
1F
100
AcDbEntity
  8
1-2
  6
Continuous
 62
     3
370
    13
100
AcDbLine
 10
-467.2972808013091
 20
730.1894234322214
 30
0.0
 11
-467.2972808013091
 21
835.1877903293919
 31
0.0
  0
LINE
  5
36A
330
1F
100
AcDbEntity
  8
1-2
  6
Continuous
 62
     3
370
    13
100
AcDbLine
 10
-457.2979901288005
 20
730.1894234322214
 30
0.0
 11
-457.2979901288005
 21
835.1877903293919
 31
0.0
  0
LINE
  5
36B
330
1F
100
AcDbEntity
  8
1-2
  6
Continuous
 62
     3
370
    13
100
AcDbLine
 10
-467.2972808013091
 20
330.1893409522805
 30
0.0
 11
-467.2972808013091
 21
518.1891693940033
 31
0.0
  0
LINE
  5
36C
330
1F
100
AcDbEntity
  8
1-2
  6
Continuous
 62
     3
370
    13
100
AcDbLine
 10
-457.2979901288005
 20
330.1893409522805
 30
0.0
 11
-457.2979901288005
 21
518.1891693940033
 31
0.0
  0
LINE
  5
36D
330
1F
100
AcDbEntity
  8
1-2
  6
Continuous
 62
     3
370
    13
100
AcDbLine
 10
-467.2972808013091
 20
130.1894234322214
 30
0.0
 11
-467.2972808013091
 21
318.1890044341216
 31
0.0
  0
LINE
  5
36E
330
1F
100
AcDbEntity
  8
1-2
  6
Continuous
 62
     3
370
    13
100
AcDbLine
 10
-457.2979901288005
 20
130.1894234322214
 30
0.0
 11
-457.2979901288005
 21
318.1890044341216
 31
0.0
  0
LINE
  5
36F
330
1F
100
AcDbEntity
  8
1-2
  6
Continuous
 62
     3
370
    13
100
AcDbLine
 10
-467.2972808013091
 20
-183.8107217324745
 30
0.0
 11
-467.2972808013091
 21
-81.8109543259078
 31
0.0
  0
LINE
  5
370
330
1F
100
AcDbEntity
  8
1-2
  6
Continuous
 62
     3
370
    13
100
AcDbLine
 10
-467.2972808013091
 20
-69.81061780774894
 30
0.0
 11
-467.2972808013091
 21
118.1890869140625
 31
0.0
  0
LINE
  5
371
330
1F
100
AcDbEntity
  8
1-2
  6
Continuous
 62
     3
370
    13
100
AcDbLine
 10
-457.2979901288005
 20
-183.8107217324745
 30
0.0
 11
-457.2979901288005
 21
-81.8109543259078
 31
0.0
  0
LINE
  5
372
330
1F
100
AcDbEntity
  8
1-2
  6
Continuous
 62
     3
370
    13
100
AcDbLine
 10
-457.2979901288005
 20
-69.81061780774894
 30
0.0
 11
-457.2979901288005
 21
118.1890869140625
 31
0.0
  0
LINE
  5
373
330
1F
100
AcDbEntity
  8
1-2
  6
Continuous
 62
     3
370
    13
100
AcDbLine
 10
-437.2973055452914
 20
530.1895059121623
 30
0.0
 11
-437.2973055452914
 21
718.1890869140625
 31
0.0
  0
LINE
  5
374
330
1F
100
AcDbEntity
  8
1-2
  6
Continuous
 62
     3
370
    13
100
AcDbLine
 10
-427.2980148727828
 20
530.1895059121623
 30
0.0
 11
-427.2980148727828
 21
718.1890869140625
 31
0.0
  0
LINE
  5
375
330
1F
100
AcDbEntity
  8
1-2
  6
Continuous
 62
     3
370
    13
100
AcDbLine
 10
-437.2973055452914
 20
730.1894234322214
 30
0.0
 11
-437.2973055452914
 21
835.1877903293919
 31
0.0
  0
LINE
  5
376
330
1F
100
AcDbEntity
  8
1-2
  6
Continuous
 62
     3
370
    13
100
AcDbLine
 10
-427.2980148727828
 20
730.1894234322214
 30
0.0
 11
-427.2980148727828
 21
835.1877903293919
 31
0.0
  0
LINE
  5
377
330
1F
100
AcDbEntity
  8
1-2
  6
Continuous
 62
     3
370
    13
100
AcDbLine
 10
-437.2973055452914
 20
330.1893409522805
 30
0.0
 11
-437.2973055452914
 21
518.1891693940033
 31
0.0
  0
LINE
  5
378
330
1F
100
AcDbEntity
  8
1-2
  6
Continuous
 62
     3
370
    13
100
AcDbLine
 10
-427.2980148727828
 20
330.1893409522805
 30
0.0
 11
-427.2980148727828
 21
518.1891693940033
 31
0.0
  0
LINE
  5
379
330
1F
100
AcDbEntity
  8
1-2
  6
Continuous
 62
     3
370
    13
100
AcDbLine
 10
-437.2973055452914
 20
130.1894234322214
 30
0.0
 11
-437.2973055452914
 21
318.1890044341216
 31
0.0
  0
LINE
  5
37A
330
1F
100
AcDbEntity
  8
1-2
  6
Continuous
 62
     3
370
    13
100
AcDbLine
 10
-427.2980148727828
 20
130.1894234322214
 30
0.0
 11
-427.2980148727828
 21
318.1890044341216
 31
0.0
  0
LINE
  5
37B
330
1F
100
AcDbEntity
  8
1-2
  6
Continuous
 62
     3
370
    13
100
AcDbLine
 10
-437.2973055452914
 20
-183.8107217324745
 30
0.0
 11
-437.2973055452914
 21
-81.8109543259078
 31
0.0
  0
LINE
  5
37C
330
1F
100
AcDbEntity
  8
1-2
  6
Continuous
 62
     3
370
    13
100
AcDbLine
 10
-437.2973055452914
 20
-69.81061780774894
 30
0.0
 11
-437.2973055452914
 21
118.1890869140625
 31
0.0
  0
LINE
  5
37D
330
1F
100
AcDbEntity
  8
1-2
  6
Continuous
 62
     3
370
    13
100
AcDbLine
 10
-427.2980148727828
 20
-183.8107217324745
 30
0.0
 11
-427.2980148727828
 21
-81.8109543259078
 31
0.0
  0
LINE
  5
37E
330
1F
100
AcDbEntity
  8
1-2
  6
Continuous
 62
     3
370
    13
100
AcDbLine
 10
-427.2980148727828
 20
-69.81061780774894
 30
0.0
 11
-427.2980148727828
 21
118.1890869140625
 31
0.0
  0
LINE
  5
37F
330
1F
100
AcDbEntity
  8
1-2
  6
Continuous
 62
     3
370
    13
100
AcDbLine
 10
-407.2973302892734
 20
530.1895059121623
 30
0.0
 11
-407.2973302892734
 21
718.1890869140625
 31
0.0
  0
LINE
  5
380
330
1F
100
AcDbEntity
  8
1-2
  6
Continuous
 62
     3
370
    13
100
AcDbLine
 10
-397.2980396167651
 20
530.1895059121623
 30
0.0
 11
-397.2980396167651
 21
718.1890869140625
 31
0.0
  0
LINE
  5
381
330
1F
100
AcDbEntity
  8
1-2
  6
Continuous
 62
     3
370
    13
100
AcDbLine
 10
-407.2973302892734
 20
730.1894234322214
 30
0.0
 11
-407.2973302892734
 21
835.1877903293919
 31
0.0
  0
LINE
  5
382
330
1F
100
AcDbEntity
  8
1-2
  6
Continuous
 62
     3
370
    13
100
AcDbLine
 10
-397.2980396167651
 20
730.1894234322214
 30
0.0
 11
-397.2980396167651
 21
835.1877903293919
 31
0.0
  0
LINE
  5
383
330
1F
100
AcDbEntity
  8
1-2
  6
Continuous
 62
     3
370
    13
100
AcDbLine
 10
-407.2973302892734
 20
330.1893409522805
 30
0.0
 11
-407.2973302892734
 21
518.1891693940033
 31
0.0
  0
LINE
  5
384
330
1F
100
AcDbEntity
  8
1-2
  6
Continuous
 62
     3
370
    13
100
AcDbLine
 10
-397.2980396167651
 20
330.1893409522805
 30
0.0
 11
-397.2980396167651
 21
518.1891693940033
 31
0.0
  0
LINE
  5
385
330
1F
100
AcDbEntity
  8
1-2
  6
Continuous
 62
     3
370
    13
100
AcDbLine
 10
-407.2973302892734
 20
130.1894234322214
 30
0.0
 11
-407.2973302892734
 21
318.1890044341216
 31
0.0
  0
LINE
  5
386
330
1F
100
AcDbEntity
  8
1-2
  6
Continuous
 62
     3
370
    13
100
AcDbLine
 10
-397.2980396167651
 20
130.1894234322214
 30
0.0
 11
-397.2980396167651
 21
318.1890044341216
 31
0.0
  0
LINE
  5
387
330
1F
100
AcDbEntity
  8
1-2
  6
Continuous
 62
     3
370
    13
100
AcDbLine
 10
-407.2973302892734
 20
-183.8107217324745
 30
0.0
 11
-407.2973302892734
 21
-81.8109543259078
 31
0.0
  0
LINE
  5
388
330
1F
100
AcDbEntity
  8
1-2
  6
Continuous
 62
     3
370
    13
100
AcDbLine
 10
-407.2973302892734
 20
-69.81061780774894
 30
0.0
 11
-407.2973302892734
 21
118.1890869140625
 31
0.0
  0
LINE
  5
389
330
1F
100
AcDbEntity
  8
1-2
  6
Continuous
 62
     3
370
    13
100
AcDbLine
 10
-397.2980396167651
 20
-183.8107217324745
 30
0.0
 11
-397.2980396167651
 21
-81.8109543259078
 31
0.0
  0
LINE
  5
38A
330
1F
100
AcDbEntity
  8
1-2
  6
Continuous
 62
     3
370
    13
100
AcDbLine
 10
-397.2980396167651
 20
-69.81061780774894
 30
0.0
 11
-397.2980396167651
 21
118.1890869140625
 31
0.0
  0
LINE
  5
38B
330
1F
100
AcDbEntity
  8
1-2
  6
Continuous
 62
     3
370
    13
100
AcDbLine
 10
-377.2973550332557
 20
530.1895059121623
 30
0.0
 11
-377.2973550332557
 21
718.1890869140625
 31
0.0
  0
LINE
  5
38C
330
1F
100
AcDbEntity
  8
1-2
  6
Continuous
 62
     3
370
    13
100
AcDbLine
 10
-367.2980643607474
 20
530.1895059121623
 30
0.0
 11
-367.2980643607474
 21
718.1890869140625
 31
0.0
  0
LINE
  5
38D
330
1F
100
AcDbEntity
  8
1-2
  6
Continuous
 62
     3
370
    13
100
AcDbLine
 10
-377.2973550332557
 20
730.1894234322214
 30
0.0
 11
-377.2973550332557
 21
835.1877903293919
 31
0.0
  0
LINE
  5
38E
330
1F
100
AcDbEntity
  8
1-2
  6
Continuous
 62
     3
370
    13
100
AcDbLine
 10
-367.2980643607474
 20
730.1894234322214
 30
0.0
 11
-367.2980643607474
 21
835.1877903293919
 31
0.0
  0
LINE
  5
38F
330
1F
100
AcDbEntity
  8
1-2
  6
Continuous
 62
     3
370
    13
100
AcDbLine
 10
-377.2973550332557
 20
330.1893409522805
 30
0.0
 11
-377.2973550332557
 21
518.1891693940033
 31
0.0
  0
LINE
  5
390
330
1F
100
AcDbEntity
  8
1-2
  6
Continuous
 62
     3
370
    13
100
AcDbLine
 10
-367.2980643607474
 20
330.1893409522805
 30
0.0
 11
-367.2980643607474
 21
518.1891693940033
 31
0.0
  0
LINE
  5
391
330
1F
100
AcDbEntity
  8
1-2
  6
Continuous
 62
     3
370
    13
100
AcDbLine
 10
-377.2973550332557
 20
130.1894234322214
 30
0.0
 11
-377.2973550332557
 21
318.1890044341216
 31
0.0
  0
LINE
  5
392
330
1F
100
AcDbEntity
  8
1-2
  6
Continuous
 62
     3
370
    13
100
AcDbLine
 10
-367.2980643607474
 20
130.1894234322214
 30
0.0
 11
-367.2980643607474
 21
318.1890044341216
 31
0.0
  0
LINE
  5
393
330
1F
100
AcDbEntity
  8
1-2
  6
Continuous
 62
     3
370
    13
100
AcDbLine
 10
-377.2973550332557
 20
-183.8107217324745
 30
0.0
 11
-377.2973550332557
 21
-81.8109543259078
 31
0.0
  0
LINE
  5
394
330
1F
100
AcDbEntity
  8
1-2
  6
Continuous
 62
     3
370
    13
100
AcDbLine
 10
-377.2973550332557
 20
-69.81061780774894
 30
0.0
 11
-377.2973550332557
 21
118.1890869140625
 31
0.0
  0
LINE
  5
395
330
1F
100
AcDbEntity
  8
1-2
  6
Continuous
 62
     3
370
    13
100
AcDbLine
 10
-367.2980643607474
 20
-183.8107217324745
 30
0.0
 11
-367.2980643607474
 21
-81.8109543259078
 31
0.0
  0
LINE
  5
396
330
1F
100
AcDbEntity
  8
1-2
  6
Continuous
 62
     3
370
    13
100
AcDbLine
 10
-367.2980643607474
 20
-69.81061780774894
 30
0.0
 11
-367.2980643607474
 21
118.1890869140625
 31
0.0
  0
LINE
  5
397
330
1F
100
AcDbEntity
  8
1-2
  6
Continuous
 62
     3
370
    13
100
AcDbLine
 10
-347.297379777238
 20
530.1895059121623
 30
0.0
 11
-347.297379777238
 21
718.1890869140625
 31
0.0
  0
LINE
  5
398
330
1F
100
AcDbEntity
  8
1-2
  6
Continuous
 62
     3
370
    13
100
AcDbLine
 10
-337.2980891047297
 20
530.1895059121623
 30
0.0
 11
-337.2980891047297
 21
718.1890869140625
 31
0.0
  0
LINE
  5
399
330
1F
100
AcDbEntity
  8
1-2
  6
Continuous
 62
     3
370
    13
100
AcDbLine
 10
-347.297379777238
 20
730.1894234322214
 30
0.0
 11
-347.297379777238
 21
835.1877903293919
 31
0.0
  0
LINE
  5
39A
330
1F
100
AcDbEntity
  8
1-2
  6
Continuous
 62
     3
370
    13
100
AcDbLine
 10
-337.2980891047297
 20
730.1894234322214
 30
0.0
 11
-337.2980891047297
 21
835.1877903293919
 31
0.0
  0
LINE
  5
39B
330
1F
100
AcDbEntity
  8
1-2
  6
Continuous
 62
     3
370
    13
100
AcDbLine
 10
-347.297379777238
 20
330.1893409522805
 30
0.0
 11
-347.297379777238
 21
518.1891693940033
 31
0.0
  0
LINE
  5
39C
330
1F
100
AcDbEntity
  8
1-2
  6
Continuous
 62
     3
370
    13
100
AcDbLine
 10
-337.2980891047297
 20
330.1893409522805
 30
0.0
 11
-337.2980891047297
 21
518.1891693940033
 31
0.0
  0
LINE
  5
39D
330
1F
100
AcDbEntity
  8
1-2
  6
Continuous
 62
     3
370
    13
100
AcDbLine
 10
-347.297379777238
 20
130.1894234322214
 30
0.0
 11
-347.297379777238
 21
318.1890044341216
 31
0.0
  0
LINE
  5
39E
330
1F
100
AcDbEntity
  8
1-2
  6
Continuous
 62
     3
370
    13
100
AcDbLine
 10
-337.2980891047297
 20
130.1894234322214
 30
0.0
 11
-337.2980891047297
 21
318.1890044341216
 31
0.0
  0
LINE
  5
39F
330
1F
100
AcDbEntity
  8
1-2
  6
Continuous
 62
     3
370
    13
100
AcDbLine
 10
-347.297379777238
 20
-183.8107217324745
 30
0.0
 11
-347.297379777238
 21
-81.8109543259078
 31
0.0
  0
LINE
  5
3A0
330
1F
100
AcDbEntity
  8
1-2
  6
Continuous
 62
     3
370
    13
100
AcDbLine
 10
-347.297379777238
 20
-69.81061780774894
 30
0.0
 11
-347.297379777238
 21
118.1890869140625
 31
0.0
  0
LINE
  5
3A1
330
1F
100
AcDbEntity
  8
1-2
  6
Continuous
 62
     3
370
    13
100
AcDbLine
 10
-337.2980891047297
 20
-183.8107217324745
 30
0.0
 11
-337.2980891047297
 21
-81.8109543259078
 31
0.0
  0
LINE
  5
3A2
330
1F
100
AcDbEntity
  8
1-2
  6
Continuous
 62
     3
370
    13
100
AcDbLine
 10
-337.2980891047297
 20
-69.81061780774894
 30
0.0
 11
-337.2980891047297
 21
118.1890869140625
 31
0.0
  0
LINE
  5
3A3
330
1F
100
AcDbEntity
  8
1-2
  6
Continuous
 62
     3
370
    13
100
AcDbLine
 10
-317.2974045212203
 20
530.1895059121623
 30
0.0
 11
-317.2974045212203
 21
718.1890869140625
 31
0.0
  0
LINE
  5
3A4
330
1F
100
AcDbEntity
  8
1-2
  6
Continuous
 62
     3
370
    13
100
AcDbLine
 10
-307.298113848712
 20
530.1895059121623
 30
0.0
 11
-307.298113848712
 21
718.1890869140625
 31
0.0
  0
LINE
  5
3A5
330
1F
100
AcDbEntity
  8
1-2
  6
Continuous
 62
     3
370
    13
100
AcDbLine
 10
-317.2974045212203
 20
730.1894234322214
 30
0.0
 11
-317.2974045212203
 21
835.1877903293919
 31
0.0
  0
LINE
  5
3A6
330
1F
100
AcDbEntity
  8
1-2
  6
Continuous
 62
     3
370
    13
100
AcDbLine
 10
-307.298113848712
 20
730.1894234322214
 30
0.0
 11
-307.298113848712
 21
835.1877903293919
 31
0.0
  0
LINE
  5
3A7
330
1F
100
AcDbEntity
  8
1-2
  6
Continuous
 62
     3
370
    13
100
AcDbLine
 10
-317.2974045212203
 20
330.1893409522805
 30
0.0
 11
-317.2974045212203
 21
518.1891693940033
 31
0.0
  0
LINE
  5
3A8
330
1F
100
AcDbEntity
  8
1-2
  6
Continuous
 62
     3
370
    13
100
AcDbLine
 10
-307.298113848712
 20
330.1893409522805
 30
0.0
 11
-307.298113848712
 21
518.1891693940033
 31
0.0
  0
LINE
  5
3A9
330
1F
100
AcDbEntity
  8
1-2
  6
Continuous
 62
     3
370
    13
100
AcDbLine
 10
-317.2974045212203
 20
130.1894234322214
 30
0.0
 11
-317.2974045212203
 21
318.1890044341216
 31
0.0
  0
LINE
  5
3AA
330
1F
100
AcDbEntity
  8
1-2
  6
Continuous
 62
     3
370
    13
100
AcDbLine
 10
-307.298113848712
 20
130.1894234322214
 30
0.0
 11
-307.298113848712
 21
318.1890044341216
 31
0.0
  0
LINE
  5
3AB
330
1F
100
AcDbEntity
  8
1-2
  6
Continuous
 62
     3
370
    13
100
AcDbLine
 10
-317.2974045212203
 20
-183.8107217324745
 30
0.0
 11
-317.2974045212203
 21
-81.8109543259078
 31
0.0
  0
LINE
  5
3AC
330
1F
100
AcDbEntity
  8
1-2
  6
Continuous
 62
     3
370
    13
100
AcDbLine
 10
-317.2974045212203
 20
-69.81061780774894
 30
0.0
 11
-317.2974045212203
 21
118.1890869140625
 31
0.0
  0
LINE
  5
3AD
330
1F
100
AcDbEntity
  8
1-2
  6
Continuous
 62
     3
370
    13
100
AcDbLine
 10
-307.298113848712
 20
-183.8107217324745
 30
0.0
 11
-307.298113848712
 21
-81.8109543259078
 31
0.0
  0
LINE
  5
3AE
330
1F
100
AcDbEntity
  8
1-2
  6
Continuous
 62
     3
370
    13
100
AcDbLine
 10
-307.298113848712
 20
-69.81061780774894
 30
0.0
 11
-307.298113848712
 21
118.1890869140625
 31
0.0
  0
LINE
  5
3AF
330
1F
100
AcDbEntity
  8
1-2
  6
Continuous
 62
     3
370
    13
100
AcDbLine
 10
-287.2974292652026
 20
530.1895059121623
 30
0.0
 11
-287.2974292652026
 21
718.1890869140625
 31
0.0
  0
LINE
  5
3B0
330
1F
100
AcDbEntity
  8
1-2
  6
Continuous
 62
     3
370
    13
100
AcDbLine
 10
-277.2981385926943
 20
530.1895059121623
 30
0.0
 11
-277.2981385926943
 21
718.1890869140625
 31
0.0
  0
LINE
  5
3B1
330
1F
100
AcDbEntity
  8
1-2
  6
Continuous
 62
     3
370
    13
100
AcDbLine
 10
-287.2974292652026
 20
730.1894234322214
 30
0.0
 11
-287.2974292652026
 21
835.1877903293919
 31
0.0
  0
LINE
  5
3B2
330
1F
100
AcDbEntity
  8
1-2
  6
Continuous
 62
     3
370
    13
100
AcDbLine
 10
-277.2981385926943
 20
730.1894234322214
 30
0.0
 11
-277.2981385926943
 21
835.1877903293919
 31
0.0
  0
LINE
  5
3B3
330
1F
100
AcDbEntity
  8
1-2
  6
Continuous
 62
     3
370
    13
100
AcDbLine
 10
-287.2974292652026
 20
330.1893409522805
 30
0.0
 11
-287.2974292652026
 21
518.1891693940033
 31
0.0
  0
LINE
  5
3B4
330
1F
100
AcDbEntity
  8
1-2
  6
Continuous
 62
     3
370
    13
100
AcDbLine
 10
-277.2981385926943
 20
330.1893409522805
 30
0.0
 11
-277.2981385926943
 21
518.1891693940033
 31
0.0
  0
LINE
  5
3B5
330
1F
100
AcDbEntity
  8
1-2
  6
Continuous
 62
     3
370
    13
100
AcDbLine
 10
-287.2974292652026
 20
130.1894234322214
 30
0.0
 11
-287.2974292652026
 21
318.1890044341216
 31
0.0
  0
LINE
  5
3B6
330
1F
100
AcDbEntity
  8
1-2
  6
Continuous
 62
     3
370
    13
100
AcDbLine
 10
-277.2981385926943
 20
130.1894234322214
 30
0.0
 11
-277.2981385926943
 21
318.1890044341216
 31
0.0
  0
LINE
  5
3B7
330
1F
100
AcDbEntity
  8
1-2
  6
Continuous
 62
     3
370
    13
100
AcDbLine
 10
-287.2974292652026
 20
-183.8107217324745
 30
0.0
 11
-287.2974292652026
 21
-81.8109543259078
 31
0.0
  0
LINE
  5
3B8
330
1F
100
AcDbEntity
  8
1-2
  6
Continuous
 62
     3
370
    13
100
AcDbLine
 10
-287.2974292652026
 20
-69.81061780774894
 30
0.0
 11
-287.2974292652026
 21
118.1890869140625
 31
0.0
  0
LINE
  5
3B9
330
1F
100
AcDbEntity
  8
1-2
  6
Continuous
 62
     3
370
    13
100
AcDbLine
 10
-277.2981385926943
 20
-183.8107217324745
 30
0.0
 11
-277.2981385926943
 21
-81.8109543259078
 31
0.0
  0
LINE
  5
3BA
330
1F
100
AcDbEntity
  8
1-2
  6
Continuous
 62
     3
370
    13
100
AcDbLine
 10
-277.2981385926943
 20
-69.81061780774894
 30
0.0
 11
-277.2981385926943
 21
118.1890869140625
 31
0.0
  0
LINE
  5
3BB
330
1F
100
AcDbEntity
  8
1-2
  6
Continuous
 62
     3
370
    13
100
AcDbLine
 10
-257.2974540091849
 20
530.1895059121623
 30
0.0
 11
-257.2974540091849
 21
718.1890869140625
 31
0.0
  0
LINE
  5
3BC
330
1F
100
AcDbEntity
  8
1-2
  6
Continuous
 62
     3
370
    13
100
AcDbLine
 10
-247.2981633366763
 20
530.1895059121623
 30
0.0
 11
-247.2981633366763
 21
718.1890869140625
 31
0.0
  0
LINE
  5
3BD
330
1F
100
AcDbEntity
  8
1-2
  6
Continuous
 62
     3
370
    13
100
AcDbLine
 10
-257.2974540091849
 20
730.1894234322214
 30
0.0
 11
-257.2974540091849
 21
835.1877903293919
 31
0.0
  0
LINE
  5
3BE
330
1F
100
AcDbEntity
  8
1-2
  6
Continuous
 62
     3
370
    13
100
AcDbLine
 10
-247.2981633366763
 20
730.1894234322214
 30
0.0
 11
-247.2981633366763
 21
835.1877903293919
 31
0.0
  0
LINE
  5
3BF
330
1F
100
AcDbEntity
  8
1-2
  6
Continuous
 62
     3
370
    13
100
AcDbLine
 10
-257.2974540091849
 20
330.1893409522805
 30
0.0
 11
-257.2974540091849
 21
518.1891693940033
 31
0.0
  0
LINE
  5
3C0
330
1F
100
AcDbEntity
  8
1-2
  6
Continuous
 62
     3
370
    13
100
AcDbLine
 10
-247.2981633366763
 20
330.1893409522805
 30
0.0
 11
-247.2981633366763
 21
518.1891693940033
 31
0.0
  0
LINE
  5
3C1
330
1F
100
AcDbEntity
  8
1-2
  6
Continuous
 62
     3
370
    13
100
AcDbLine
 10
-257.2974540091849
 20
130.1894234322214
 30
0.0
 11
-257.2974540091849
 21
318.1890044341216
 31
0.0
  0
LINE
  5
3C2
330
1F
100
AcDbEntity
  8
1-2
  6
Continuous
 62
     3
370
    13
100
AcDbLine
 10
-247.2981633366763
 20
130.1894234322214
 30
0.0
 11
-247.2981633366763
 21
318.1890044341216
 31
0.0
  0
LINE
  5
3C3
330
1F
100
AcDbEntity
  8
1-2
  6
Continuous
 62
     3
370
    13
100
AcDbLine
 10
-257.2974540091849
 20
-183.8107217324745
 30
0.0
 11
-257.2974540091849
 21
-81.8109543259078
 31
0.0
  0
LINE
  5
3C4
330
1F
100
AcDbEntity
  8
1-2
  6
Continuous
 62
     3
370
    13
100
AcDbLine
 10
-257.2974540091849
 20
-69.81061780774894
 30
0.0
 11
-257.2974540091849
 21
118.1890869140625
 31
0.0
  0
LINE
  5
3C5
330
1F
100
AcDbEntity
  8
1-2
  6
Continuous
 62
     3
370
    13
100
AcDbLine
 10
-247.2981633366763
 20
-183.8107217324745
 30
0.0
 11
-247.2981633366763
 21
-81.8109543259078
 31
0.0
  0
LINE
  5
3C6
330
1F
100
AcDbEntity
  8
1-2
  6
Continuous
 62
     3
370
    13
100
AcDbLine
 10
-247.2981633366763
 20
-69.81061780774894
 30
0.0
 11
-247.2981633366763
 21
118.1890869140625
 31
0.0
  0
LINE
  5
3C7
330
1F
100
AcDbEntity
  8
1-2
  6
Continuous
 62
     3
370
    13
100
AcDbLine
 10
-227.2974787531672
 20
530.1895059121623
 30
0.0
 11
-227.2974787531672
 21
718.1890869140625
 31
0.0
  0
LINE
  5
3C8
330
1F
100
AcDbEntity
  8
1-2
  6
Continuous
 62
     3
370
    13
100
AcDbLine
 10
-217.2981880806586
 20
530.1895059121623
 30
0.0
 11
-217.2981880806586
 21
718.1890869140625
 31
0.0
  0
LINE
  5
3C9
330
1F
100
AcDbEntity
  8
1-2
  6
Continuous
 62
     3
370
    13
100
AcDbLine
 10
-227.2974787531672
 20
730.1894234322214
 30
0.0
 11
-227.2974787531672
 21
835.1877903293919
 31
0.0
  0
LINE
  5
3CA
330
1F
100
AcDbEntity
  8
1-2
  6
Continuous
 62
     3
370
    13
100
AcDbLine
 10
-217.2981880806586
 20
730.1894234322214
 30
0.0
 11
-217.2981880806586
 21
835.1877903293919
 31
0.0
  0
LINE
  5
3CB
330
1F
100
AcDbEntity
  8
1-2
  6
Continuous
 62
     3
370
    13
100
AcDbLine
 10
-227.2974787531672
 20
330.1893409522805
 30
0.0
 11
-227.2974787531672
 21
518.1891693940033
 31
0.0
  0
LINE
  5
3CC
330
1F
100
AcDbEntity
  8
1-2
  6
Continuous
 62
     3
370
    13
100
AcDbLine
 10
-217.2981880806586
 20
330.1893409522805
 30
0.0
 11
-217.2981880806586
 21
518.1891693940033
 31
0.0
  0
LINE
  5
3CD
330
1F
100
AcDbEntity
  8
1-2
  6
Continuous
 62
     3
370
    13
100
AcDbLine
 10
-227.2974787531672
 20
130.1894234322214
 30
0.0
 11
-227.2974787531672
 21
318.1890044341216
 31
0.0
  0
LINE
  5
3CE
330
1F
100
AcDbEntity
  8
1-2
  6
Continuous
 62
     3
370
    13
100
AcDbLine
 10
-217.2981880806586
 20
130.1894234322214
 30
0.0
 11
-217.2981880806586
 21
318.1890044341216
 31
0.0
  0
LINE
  5
3CF
330
1F
100
AcDbEntity
  8
1-2
  6
Continuous
 62
     3
370
    13
100
AcDbLine
 10
-227.2974787531672
 20
-183.8107217324745
 30
0.0
 11
-227.2974787531672
 21
-81.8109543259078
 31
0.0
  0
LINE
  5
3D0
330
1F
100
AcDbEntity
  8
1-2
  6
Continuous
 62
     3
370
    13
100
AcDbLine
 10
-227.2974787531672
 20
-69.81061780774894
 30
0.0
 11
-227.2974787531672
 21
118.1890869140625
 31
0.0
  0
LINE
  5
3D1
330
1F
100
AcDbEntity
  8
1-2
  6
Continuous
 62
     3
370
    13
100
AcDbLine
 10
-217.2981880806586
 20
-183.8107217324745
 30
0.0
 11
-217.2981880806586
 21
-81.8109543259078
 31
0.0
  0
LINE
  5
3D2
330
1F
100
AcDbEntity
  8
1-2
  6
Continuous
 62
     3
370
    13
100
AcDbLine
 10
-217.2981880806586
 20
-69.81061780774894
 30
0.0
 11
-217.2981880806586
 21
118.1890869140625
 31
0.0
  0
LINE
  5
3D3
330
1F
100
AcDbEntity
  8
1-2
  6
Continuous
 62
     3
370
    13
100
AcDbLine
 10
-197.2975034971495
 20
530.1895059121623
 30
0.0
 11
-197.2975034971495
 21
718.1890869140625
 31
0.0
  0
LINE
  5
3D4
330
1F
100
AcDbEntity
  8
1-2
  6
Continuous
 62
     3
370
    13
100
AcDbLine
 10
-187.2982128246409
 20
530.1895059121623
 30
0.0
 11
-187.2982128246409
 21
718.1890869140625
 31
0.0
  0
LINE
  5
3D5
330
1F
100
AcDbEntity
  8
1-2
  6
Continuous
 62
     3
370
    13
100
AcDbLine
 10
-197.2975034971495
 20
730.1894234322214
 30
0.0
 11
-197.2975034971495
 21
835.1877903293919
 31
0.0
  0
LINE
  5
3D6
330
1F
100
AcDbEntity
  8
1-2
  6
Continuous
 62
     3
370
    13
100
AcDbLine
 10
-187.2982128246409
 20
730.1894234322214
 30
0.0
 11
-187.2982128246409
 21
835.1877903293919
 31
0.0
  0
LINE
  5
3D7
330
1F
100
AcDbEntity
  8
1-2
  6
Continuous
 62
     3
370
    13
100
AcDbLine
 10
-197.2975034971495
 20
330.1893409522805
 30
0.0
 11
-197.2975034971495
 21
518.1891693940033
 31
0.0
  0
LINE
  5
3D8
330
1F
100
AcDbEntity
  8
1-2
  6
Continuous
 62
     3
370
    13
100
AcDbLine
 10
-187.2982128246409
 20
330.1893409522805
 30
0.0
 11
-187.2982128246409
 21
518.1891693940033
 31
0.0
  0
LINE
  5
3D9
330
1F
100
AcDbEntity
  8
1-2
  6
Continuous
 62
     3
370
    13
100
AcDbLine
 10
-197.2975034971495
 20
130.1894234322214
 30
0.0
 11
-197.2975034971495
 21
318.1890044341216
 31
0.0
  0
LINE
  5
3DA
330
1F
100
AcDbEntity
  8
1-2
  6
Continuous
 62
     3
370
    13
100
AcDbLine
 10
-187.2982128246409
 20
130.1894234322214
 30
0.0
 11
-187.2982128246409
 21
318.1890044341216
 31
0.0
  0
LINE
  5
3DB
330
1F
100
AcDbEntity
  8
1-2
  6
Continuous
 62
     3
370
    13
100
AcDbLine
 10
-197.2975034971495
 20
-183.8107217324745
 30
0.0
 11
-197.2975034971495
 21
-81.8109543259078
 31
0.0
  0
LINE
  5
3DC
330
1F
100
AcDbEntity
  8
1-2
  6
Continuous
 62
     3
370
    13
100
AcDbLine
 10
-197.2975034971495
 20
-69.81061780774894
 30
0.0
 11
-197.2975034971495
 21
118.1890869140625
 31
0.0
  0
LINE
  5
3DD
330
1F
100
AcDbEntity
  8
1-2
  6
Continuous
 62
     3
370
    13
100
AcDbLine
 10
-187.2982128246409
 20
-183.8107217324745
 30
0.0
 11
-187.2982128246409
 21
-81.8109543259078
 31
0.0
  0
LINE
  5
3DE
330
1F
100
AcDbEntity
  8
1-2
  6
Continuous
 62
     3
370
    13
100
AcDbLine
 10
-187.2982128246409
 20
-69.81061780774894
 30
0.0
 11
-187.2982128246409
 21
118.1890869140625
 31
0.0
  0
LINE
  5
3DF
330
1F
100
AcDbEntity
  8
1-2
  6
Continuous
 62
     3
370
    13
100
AcDbLine
 10
-167.2975282411318
 20
530.1895059121623
 30
0.0
 11
-167.2975282411318
 21
718.1890869140625
 31
0.0
  0
LINE
  5
3E0
330
1F
100
AcDbEntity
  8
1-2
  6
Continuous
 62
     3
370
    13
100
AcDbLine
 10
-157.2982375686232
 20
530.1895059121623
 30
0.0
 11
-157.2982375686232
 21
718.1890869140625
 31
0.0
  0
LINE
  5
3E1
330
1F
100
AcDbEntity
  8
1-2
  6
Continuous
 62
     3
370
    13
100
AcDbLine
 10
-167.2975282411318
 20
730.1894234322214
 30
0.0
 11
-167.2975282411318
 21
835.1877903293919
 31
0.0
  0
LINE
  5
3E2
330
1F
100
AcDbEntity
  8
1-2
  6
Continuous
 62
     3
370
    13
100
AcDbLine
 10
-157.2982375686232
 20
730.1894234322214
 30
0.0
 11
-157.2982375686232
 21
835.1877903293919
 31
0.0
  0
LINE
  5
3E3
330
1F
100
AcDbEntity
  8
1-2
  6
Continuous
 62
     3
370
    13
100
AcDbLine
 10
-167.2975282411318
 20
330.1893409522805
 30
0.0
 11
-167.2975282411318
 21
518.1891693940033
 31
0.0
  0
LINE
  5
3E4
330
1F
100
AcDbEntity
  8
1-2
  6
Continuous
 62
     3
370
    13
100
AcDbLine
 10
-157.2982375686232
 20
330.1893409522805
 30
0.0
 11
-157.2982375686232
 21
518.1891693940033
 31
0.0
  0
LINE
  5
3E5
330
1F
100
AcDbEntity
  8
1-2
  6
Continuous
 62
     3
370
    13
100
AcDbLine
 10
-167.2975282411318
 20
130.1894234322214
 30
0.0
 11
-167.2975282411318
 21
318.1890044341216
 31
0.0
  0
LINE
  5
3E6
330
1F
100
AcDbEntity
  8
1-2
  6
Continuous
 62
     3
370
    13
100
AcDbLine
 10
-157.2982375686232
 20
130.1894234322214
 30
0.0
 11
-157.2982375686232
 21
318.1890044341216
 31
0.0
  0
LINE
  5
3E7
330
1F
100
AcDbEntity
  8
1-2
  6
Continuous
 62
     3
370
    13
100
AcDbLine
 10
-167.2975282411318
 20
-183.8107217324745
 30
0.0
 11
-167.2975282411318
 21
-81.8109543259078
 31
0.0
  0
LINE
  5
3E8
330
1F
100
AcDbEntity
  8
1-2
  6
Continuous
 62
     3
370
    13
100
AcDbLine
 10
-167.2975282411318
 20
-69.81061780774894
 30
0.0
 11
-167.2975282411318
 21
118.1890869140625
 31
0.0
  0
LINE
  5
3E9
330
1F
100
AcDbEntity
  8
1-2
  6
Continuous
 62
     3
370
    13
100
AcDbLine
 10
-157.2982375686232
 20
-183.8107217324745
 30
0.0
 11
-157.2982375686232
 21
-81.8109543259078
 31
0.0
  0
LINE
  5
3EA
330
1F
100
AcDbEntity
  8
1-2
  6
Continuous
 62
     3
370
    13
100
AcDbLine
 10
-157.2982375686232
 20
-69.81061780774894
 30
0.0
 11
-157.2982375686232
 21
118.1890869140625
 31
0.0
  0
LINE
  5
3EB
330
1F
100
AcDbEntity
  8
1-2
  6
Continuous
 62
     3
370
    13
100
AcDbLine
 10
-137.2975529851138
 20
530.1895059121623
 30
0.0
 11
-137.2975529851138
 21
718.1890869140625
 31
0.0
  0
LINE
  5
3EC
330
1F
100
AcDbEntity
  8
1-2
  6
Continuous
 62
     3
370
    13
100
AcDbLine
 10
-127.2982623126055
 20
530.1895059121623
 30
0.0
 11
-127.2982623126055
 21
718.1890869140625
 31
0.0
  0
LINE
  5
3ED
330
1F
100
AcDbEntity
  8
1-2
  6
Continuous
 62
     3
370
    13
100
AcDbLine
 10
-137.2975529851138
 20
730.1894234322214
 30
0.0
 11
-137.2975529851138
 21
835.1877903293919
 31
0.0
  0
LINE
  5
3EE
330
1F
100
AcDbEntity
  8
1-2
  6
Continuous
 62
     3
370
    13
100
AcDbLine
 10
-127.2982623126055
 20
730.1894234322214
 30
0.0
 11
-127.2982623126055
 21
835.1877903293919
 31
0.0
  0
LINE
  5
3EF
330
1F
100
AcDbEntity
  8
1-2
  6
Continuous
 62
     3
370
    13
100
AcDbLine
 10
-137.2975529851138
 20
330.1893409522805
 30
0.0
 11
-137.2975529851138
 21
518.1891693940033
 31
0.0
  0
LINE
  5
3F0
330
1F
100
AcDbEntity
  8
1-2
  6
Continuous
 62
     3
370
    13
100
AcDbLine
 10
-127.2982623126055
 20
330.1893409522805
 30
0.0
 11
-127.2982623126055
 21
518.1891693940033
 31
0.0
  0
LINE
  5
3F1
330
1F
100
AcDbEntity
  8
1-2
  6
Continuous
 62
     3
370
    13
100
AcDbLine
 10
-137.2975529851138
 20
130.1894234322214
 30
0.0
 11
-137.2975529851138
 21
318.1890044341216
 31
0.0
  0
LINE
  5
3F2
330
1F
100
AcDbEntity
  8
1-2
  6
Continuous
 62
     3
370
    13
100
AcDbLine
 10
-127.2982623126055
 20
130.1894234322214
 30
0.0
 11
-127.2982623126055
 21
318.1890044341216
 31
0.0
  0
LINE
  5
3F3
330
1F
100
AcDbEntity
  8
1-2
  6
Continuous
 62
     3
370
    13
100
AcDbLine
 10
-137.2975529851138
 20
-183.8107217324745
 30
0.0
 11
-137.2975529851138
 21
-81.8109543259078
 31
0.0
  0
LINE
  5
3F4
330
1F
100
AcDbEntity
  8
1-2
  6
Continuous
 62
     3
370
    13
100
AcDbLine
 10
-137.2975529851138
 20
-69.81061780774894
 30
0.0
 11
-137.2975529851138
 21
118.1890869140625
 31
0.0
  0
LINE
  5
3F5
330
1F
100
AcDbEntity
  8
1-2
  6
Continuous
 62
     3
370
    13
100
AcDbLine
 10
-127.2982623126055
 20
-183.8107217324745
 30
0.0
 11
-127.2982623126055
 21
-81.8109543259078
 31
0.0
  0
LINE
  5
3F6
330
1F
100
AcDbEntity
  8
1-2
  6
Continuous
 62
     3
370
    13
100
AcDbLine
 10
-127.2982623126055
 20
-69.81061780774894
 30
0.0
 11
-127.2982623126055
 21
118.1890869140625
 31
0.0
  0
LINE
  5
3F7
330
1F
100
AcDbEntity
  8
1-3
  6
Continuous
 62
     4
370
    13
100
AcDbLine
 10
-236.336950353674
 20
611.669707427154
 30
0.0
 11
-236.336950353674
 21
636.7091328388938
 31
0.0
  0
LINE
  5
3F8
330
1F
100
AcDbEntity
  8
1-3
  6
Continuous
 62
     4
370
    13
100
AcDbLine
 10
-245.7918734163852
 20
624.1894201330238
 30
0.0
 11
-219.2561793971706
 21
624.1894201330238
 31
0.0
  0
LINE
  5
3F9
330
1F
100
AcDbEntity
  8
1-4
  6
Continuous
 62
     2
370
    13
100
AcDbLine
 10
206.5588048986487
 20
-717.2375323321369
 30
0.0
 11
206.5588048986487
 21
-667.2366250527871
 31
0.0
  0
LINE
  5
3FA
330
1F
100
AcDbEntity
  8
1-4
  6
Continuous
 62
     2
370
    13
100
AcDbLine
 10
206.5588048986487
 20
-667.2366250527871
 30
0.0
 11
431.5588048986487
 21
-667.2366250527871
 31
0.0
  0
LINE
  5
3FB
330
1F
100
AcDbEntity
  8
1-4
  6
Continuous
 62
     2
370
    13
100
AcDbLine
 10
431.5588048986487
 20
-667.2366250527871
 30
0.0
 11
431.5588048986487
 21
-717.2375323321369
 31
0.0
  0
LINE
  5
3FC
330
1F
100
AcDbEntity
  8
1-4
  6
Continuous
 62
     2
370
    13
100
AcDbLine
 10
431.5588048986487
 20
-717.2375323321369
 30
0.0
 11
206.5588048986487
 21
-717.2375323321369
 31
0.0
  0
ARC
  5
3FD
330
1F
100
AcDbEntity
  8
1-1
  6
Continuous
 62
     2
370
    13
100
AcDbCircle
 10
338.4759026604732
 20
762.9888091216217
 30
0.0
 40
12.80000113152169
100
AcDbArc
 50
180.0
 51
270.0
  0
ARC
  5
3FE
330
1F
100
AcDbEntity
  8
1-1
  6
Continuous
 62
     2
370
    13
100
AcDbCircle
 10
362.875696130701
 20
762.9888091216217
 30
0.0
 40
12.80000113152169
100
AcDbArc
 50
270.0
 51
0.0
  0
ARC
  5
3FF
330
1F
100
AcDbEntity
  8
1-1
  6
Continuous
 62
     2
370
    13
100
AcDbCircle
 10
362.875696130701
 20
762.9893040012669
 30
0.0
 40
6.400000565760845
100
AcDbArc
 50
270.0
 51
0.0
  0
ARC
  5
400
330
1F
100
AcDbEntity
  8
1-1
  6
Continuous
 62
     2
370
    13
100
AcDbCircle
 10
338.4759026604732
 20
817.3889490076016
 30
0.0
 40
12.80000113152169
100
AcDbArc
 50
90.0
 51
180.0
  0
ARC
  5
401
330
1F
100
AcDbEntity
  8
1-1
  6
Continuous
 62
     2
370
    13
100
AcDbCircle
 10
338.4756552206505
 20
817.3889490076016
 30
0.0
 40
6.400000565760845
100
AcDbArc
 50
90.0
 51
180.0
  0
ARC
  5
402
330
1F
100
AcDbEntity
  8
1-1
  6
Continuous
 62
     2
370
    13
100
AcDbCircle
 10
362.875696130701
 20
817.3889490076016
 30
0.0
 40
6.400000565760845
100
AcDbArc
 50
0.0
 51
90.0
  0
ARC
  5
403
330
1F
100
AcDbEntity
  8
1-1
  6
Continuous
 62
     2
370
    13
100
AcDbCircle
 10
362.875696130701
 20
817.3889490076016
 30
0.0
 40
12.80000113152169
100
AcDbArc
 50
0.0
 51
90.0
  0
ARC
  5
404
330
1F
100
AcDbEntity
  8
1-1
  6
Continuous
 62
     2
370
    13
100
AcDbCircle
 10
338.4759026604732
 20
762.9893040012669
 30
0.0
 40
6.400000565760845
100
AcDbArc
 50
180.0
 51
270.0
  0
ARC
  5
405
330
1F
100
AcDbEntity
  8
1-1
  6
Continuous
 62
     2
370
    13
100
AcDbCircle
 10
338.4759026604732
 20
-114.6109586148648
 30
0.0
 40
12.80000113152169
100
AcDbArc
 50
90.0
 51
180.0
  0
ARC
  5
406
330
1F
100
AcDbEntity
  8
1-1
  6
Continuous
 62
     2
370
    13
100
AcDbCircle
 10
362.875696130701
 20
-114.6109586148648
 30
0.0
 40
12.80000113152169
100
AcDbArc
 50
0.0
 51
90.0
  0
ARC
  5
407
330
1F
100
AcDbEntity
  8
1-1
  6
Continuous
 62
     2
370
    13
100
AcDbCircle
 10
362.875696130701
 20
-114.6113297745987
 30
0.0
 40
6.400000565760845
100
AcDbArc
 50
0.0
 51
90.0
  0
ARC
  5
408
330
1F
100
AcDbEntity
  8
1-1
  6
Continuous
 62
     2
370
    13
100
AcDbCircle
 10
338.4759026604732
 20
-169.0110985008445
 30
0.0
 40
12.80000113152169
100
AcDbArc
 50
180.0
 51
270.0
  0
ARC
  5
409
330
1F
100
AcDbEntity
  8
1-1
  6
Continuous
 62
     2
370
    13
100
AcDbCircle
 10
338.4756552206505
 20
-169.0110985008445
 30
0.0
 40
6.400000565760845
100
AcDbArc
 50
180.0
 51
270.0
  0
ARC
  5
40A
330
1F
100
AcDbEntity
  8
1-1
  6
Continuous
 62
     2
370
    13
100
AcDbCircle
 10
362.875696130701
 20
-169.0110985008445
 30
0.0
 40
6.400000565760845
100
AcDbArc
 50
270.0
 51
0.0
  0
ARC
  5
40B
330
1F
100
AcDbEntity
  8
1-1
  6
Continuous
 62
     2
370
    13
100
AcDbCircle
 10
362.875696130701
 20
-169.0110985008445
 30
0.0
 40
12.80000113152169
100
AcDbArc
 50
270.0
 51
0.0
  0
ARC
  5
40C
330
1F
100
AcDbEntity
  8
1-1
  6
Continuous
 62
     2
370
    13
100
AcDbCircle
 10
338.4759026604732
 20
-114.6113297745987
 30
0.0
 40
6.400000565760845
100
AcDbArc
 50
90.0
 51
180.0
  0
ARC
  5
40D
330
1F
100
AcDbEntity
  8
1-3
  6
Continuous
 62
     4
370
    13
100
AcDbCircle
 10
1328.62169420397
 20
1168.69683343011
 30
0.0
 40
5.999999594044041
100
AcDbArc
 50
0.0
 51
90.0
  0
ARC
  5
40E
330
1F
100
AcDbEntity
  8
1-3
  6
JWW_CENTER1
 62
     4
370
    13
100
AcDbCircle
 10
1328.62169420397
 20
1168.697328309755
 30
0.0
 40
12.99999823441377
100
AcDbArc
 50
0.0
 51
90.0
  0
ARC
  5
40F
330
1F
100
AcDbEntity
  8
1-3
  6
Continuous
 62
     4
370
    13
100
AcDbCircle
 10
1328.62169420397
 20
1168.697328309755
 30
0.0
 40
19.9999983246262
100
AcDbArc
 50
0.0
 51
90.0
  0
ARC
  5
410
330
1F
100
AcDbEntity
  8
1-3
  6
Continuous
 62
     4
370
    13
100
AcDbCircle
 10
1354.621681007179
 20
943.1138652079815
 30
0.0
 40
5.999999594044041
100
AcDbArc
 50
180.0
 51
247.5196228027344
  0
ARC
  5
411
330
1F
100
AcDbEntity
  8
1-3
  6
Continuous
 62
     4
370
    13
100
AcDbCircle
 10
1354.621681007179
 20
943.1138652079815
 30
0.0
 40
19.9999983246262
100
AcDbArc
 50
180.0
 51
247.5204620361328
  0
ARC
  5
412
330
1F
100
AcDbEntity
  8
1-3
  6
Continuous
 62
     4
370
    13
100
AcDbCircle
 10
1341.621687605575
 20
911.6969258076438
 30
0.0
 40
13.99999921386306
100
AcDbArc
 50
106.0161743164062
 51
67.5208129882812
  0
ARC
  5
413
330
1F
100
AcDbEntity
  8
1-3
  6
Continuous
 62
     4
370
    13
100
AcDbCircle
 10
1341.621687605575
 20
911.6969258076438
 30
0.0
 40
27.99999842772613
100
AcDbArc
 50
114.9949645996094
 51
67.52053833007812
  0
ARC
  5
414
330
1F
100
AcDbEntity
  8
1-3
  6
Continuous
 62
     4
370
    13
100
AcDbCircle
 10
311.6766852301521
 20
642.189182590794
 30
0.0
 40
1.999999904954756
100
AcDbArc
 50
0.0
 51
180.0
  0
ARC
  5
415
330
1F
100
AcDbEntity
  8
1-3
  6
Continuous
 62
     4
370
    13
100
AcDbCircle
 10
315.6763025232266
 20
642.189182590794
 30
0.0
 40
1.999999904954756
100
AcDbArc
 50
0.0
 51
180.0
  0
ARC
  5
416
330
1F
100
AcDbEntity
  8
1-3
  6
Continuous
 62
     4
370
    13
100
AcDbCircle
 10
319.6759198163008
 20
642.189182590794
 30
0.0
 40
1.999999904954756
100
AcDbArc
 50
0.0
 51
180.0
  0
ARC
  5
417
330
1F
100
AcDbEntity
  8
1-3
  6
Continuous
 62
     4
370
    13
100
AcDbCircle
 10
323.675537109375
 20
642.189182590794
 30
0.0
 40
1.999999904954756
100
AcDbArc
 50
0.0
 51
180.0
  0
ARC
  5
418
330
1F
100
AcDbEntity
  8
1-3
  6
Continuous
 62
     2
370
    13
100
AcDbCircle
 10
413.6763289168076
 20
624.1894201330238
 30
0.0
 40
11.99999918808808
100
AcDbArc
 50
226.6585083007813
 51
133.3414916992187
  0
ARC
  5
419
330
1F
100
AcDbEntity
  8
1-3
  6
Continuous
 62
     2
370
    13
100
AcDbCircle
 10
398.5768086201438
 20
640.1893739442568
 30
0.0
 40
9.9999991623131
100
AcDbArc
 50
270.0
 51
313.3416595458985
  0
ARC
  5
41A
330
1F
100
AcDbEntity
  8
1-3
  6
Continuous
 62
     2
370
    13
100
AcDbCircle
 10
398.5768086201438
 20
608.1892188819679
 30
0.0
 40
9.9999991623131
100
AcDbArc
 50
46.65834045410156
 51
90.0
  0
CIRCLE
  5
41B
330
1F
100
AcDbEntity
  8
1-3
  6
Continuous
 62
     2
370
    13
100
AcDbCircle
 10
413.6763289168076
 20
624.1894201330238
 30
0.0
 40
5.999999594044041
  0
CIRCLE
  5
41C
330
1F
100
AcDbEntity
  8
1-3
  6
Continuous
 62
     2
370
    13
100
AcDbCircle
 10
413.6763289168076
 20
624.1894201330238
 30
0.0
 40
4.99999958115655
  0
ARC
  5
41D
330
1F
100
AcDbEntity
  8
1-3
  6
Continuous
 62
     4
370
    13
100
AcDbCircle
 10
415.6766324429901
 20
624.1894201330238
 30
0.0
 40
17.99990744204135
100
AcDbArc
 50
90.0
 51
160.6648712158203
  0
ARC
  5
41E
330
1F
100
AcDbEntity
  8
1-3
  6
Continuous
 62
     4
370
    13
100
AcDbCircle
 10
415.6766324429901
 20
624.1894201330238
 30
0.0
 40
17.99990744204135
100
AcDbArc
 50
199.3351287841797
 51
270.0
  0
ARC
  5
41F
330
1F
100
AcDbEntity
  8
1-3
  6
Continuous
 62
     2
370
    13
100
AcDbCircle
 10
359.6765466638516
 20
624.1894201330238
 30
0.0
 40
6.000044539168075
100
AcDbArc
 50
90.0
 51
270.0
  0
ARC
  5
420
330
1F
100
AcDbEntity
  8
1-3
  6
Continuous
 62
     4
370
    13
100
AcDbCircle
 10
357.6767380173143
 20
624.1894201330238
 30
0.0
 40
17.99990744204135
100
AcDbArc
 50
270.0
 51
340.5284881591797
  0
ARC
  5
421
330
1F
100
AcDbEntity
  8
1-3
  6
Continuous
 62
     4
370
    13
100
AcDbCircle
 10
357.6767380173143
 20
624.1894201330238
 30
0.0
 40
17.99990744204135
100
AcDbArc
 50
19.47151184082031
 51
90.0
  0
ARC
  5
422
330
1F
100
AcDbEntity
  8
1-3
  6
Continuous
 62
     4
370
    13
100
AcDbCircle
 10
357.6767380173143
 20
624.1894201330238
 30
0.0
 40
7.999975939054748
100
AcDbArc
 50
270.0
 51
311.4087371826172
  0
ARC
  5
423
330
1F
100
AcDbEntity
  8
1-3
  6
Continuous
 62
     4
370
    13
100
AcDbCircle
 10
357.6767380173143
 20
624.1894201330238
 30
0.0
 40
7.999975939054748
100
AcDbArc
 50
48.59126281738281
 51
90.0
  0
ARC
  5
424
330
1F
100
AcDbEntity
  8
1-3
  6
Continuous
 62
     4
370
    13
100
AcDbCircle
 10
466.6764542863177
 20
624.1894201330238
 30
0.0
 40
4.99999958115655
100
AcDbArc
 50
90.0
 51
270.0
  0
ARC
  5
425
330
1F
100
AcDbEntity
  8
1-3
  6
Continuous
 62
     4
370
    13
100
AcDbCircle
 10
540.676549963049
 20
624.1894201330238
 30
0.0
 40
4.99999958115655
100
AcDbArc
 50
270.0
 51
90.0
  0
ARC
  5
426
330
1F
100
AcDbEntity
  8
1-3
  6
Continuous
 62
     4
370
    13
100
AcDbCircle
 10
463.6764938766891
 20
624.1894201330238
 30
0.0
 40
17.99990744204135
100
AcDbArc
 50
270.0
 51
343.8722991943359
  0
ARC
  5
427
330
1F
100
AcDbEntity
  8
1-3
  6
Continuous
 62
     4
370
    13
100
AcDbCircle
 10
463.6764938766891
 20
624.1894201330238
 30
0.0
 40
17.99990744204135
100
AcDbArc
 50
16.1273193359375
 51
90.0
  0
ARC
  5
428
330
1F
100
AcDbEntity
  8
1-3
  6
Continuous
 62
     4
370
    13
100
AcDbCircle
 10
463.6764938766891
 20
624.1894201330238
 30
0.0
 40
7.999975939054748
100
AcDbArc
 50
270.0
 51
321.3172149658203
  0
ARC
  5
429
330
1F
100
AcDbEntity
  8
1-3
  6
Continuous
 62
     4
370
    13
100
AcDbCircle
 10
463.6764938766891
 20
624.1894201330238
 30
0.0
 40
7.999975939054748
100
AcDbArc
 50
38.68098449707031
 51
90.0
  0
ARC
  5
42A
330
1F
100
AcDbEntity
  8
1-3
  6
Continuous
 62
     4
370
    13
100
AcDbCircle
 10
543.6765103726776
 20
624.1894201330238
 30
0.0
 40
17.99990744204135
100
AcDbArc
 50
90.0
 51
163.8726806640625
  0
ARC
  5
42B
330
1F
100
AcDbEntity
  8
1-3
  6
Continuous
 62
     4
370
    13
100
AcDbCircle
 10
543.6765103726776
 20
624.1894201330238
 30
0.0
 40
17.99990744204135
100
AcDbArc
 50
196.1277008056641
 51
270.0
  0
ARC
  5
42C
330
1F
100
AcDbEntity
  8
1-3
  6
Continuous
 62
     4
370
    13
100
AcDbCircle
 10
543.6765103726776
 20
624.1894201330238
 30
0.0
 40
7.999976422335651
100
AcDbArc
 50
90.0
 51
141.3190155029297
  0
ARC
  5
42D
330
1F
100
AcDbEntity
  8
1-3
  6
Continuous
 62
     4
370
    13
100
AcDbCircle
 10
543.6765103726776
 20
624.1894201330238
 30
0.0
 40
7.999976422335651
100
AcDbArc
 50
218.6827850341797
 51
270.0
  0
ARC
  5
42E
330
1F
100
AcDbEntity
  8
1-3
  6
Continuous
 62
     4
370
    13
100
AcDbCircle
 10
311.6766852301521
 20
632.189644478463
 30
0.0
 40
1.999999904954756
100
AcDbArc
 50
180.0
 51
0.0
  0
ARC
  5
42F
330
1F
100
AcDbEntity
  8
1-3
  6
Continuous
 62
     4
370
    13
100
AcDbCircle
 10
315.6763025232266
 20
632.189644478463
 30
0.0
 40
1.999999904954756
100
AcDbArc
 50
180.0
 51
0.0
  0
ARC
  5
430
330
1F
100
AcDbEntity
  8
1-3
  6
Continuous
 62
     4
370
    13
100
AcDbCircle
 10
319.6759198163008
 20
632.189644478463
 30
0.0
 40
1.999999904954756
100
AcDbArc
 50
180.0
 51
0.0
  0
ARC
  5
431
330
1F
100
AcDbEntity
  8
1-3
  6
Continuous
 62
     4
370
    13
100
AcDbCircle
 10
323.675537109375
 20
632.189644478463
 30
0.0
 40
1.999999904954756
100
AcDbArc
 50
180.0
 51
0.0
  0
ARC
  5
432
330
1F
100
AcDbEntity
  8
1-3
  6
Continuous
 62
     4
370
    13
100
AcDbCircle
 10
311.6766852301521
 20
606.1894102354307
 30
0.0
 40
1.999999904954756
100
AcDbArc
 50
180.0
 51
0.0
  0
ARC
  5
433
330
1F
100
AcDbEntity
  8
1-3
  6
Continuous
 62
     4
370
    13
100
AcDbCircle
 10
315.6763025232266
 20
606.1894102354307
 30
0.0
 40
1.999999904954756
100
AcDbArc
 50
180.0
 51
0.0
  0
ARC
  5
434
330
1F
100
AcDbEntity
  8
1-3
  6
Continuous
 62
     4
370
    13
100
AcDbCircle
 10
319.6759198163008
 20
606.1894102354307
 30
0.0
 40
1.999999904954756
100
AcDbArc
 50
180.0
 51
0.0
  0
ARC
  5
435
330
1F
100
AcDbEntity
  8
1-3
  6
Continuous
 62
     4
370
    13
100
AcDbCircle
 10
323.675537109375
 20
606.1894102354307
 30
0.0
 40
1.999999904954756
100
AcDbArc
 50
180.0
 51
0.0
  0
ARC
  5
436
330
1F
100
AcDbEntity
  8
1-3
  6
Continuous
 62
     4
370
    13
100
AcDbCircle
 10
311.6766852301521
 20
616.1887009079394
 30
0.0
 40
1.999999904954756
100
AcDbArc
 50
0.0
 51
180.0
  0
ARC
  5
437
330
1F
100
AcDbEntity
  8
1-3
  6
Continuous
 62
     4
370
    13
100
AcDbCircle
 10
315.6763025232266
 20
616.1887009079394
 30
0.0
 40
1.999999904954756
100
AcDbArc
 50
0.0
 51
180.0
  0
ARC
  5
438
330
1F
100
AcDbEntity
  8
1-3
  6
Continuous
 62
     4
370
    13
100
AcDbCircle
 10
319.6759198163008
 20
616.1887009079394
 30
0.0
 40
1.999999904954756
100
AcDbArc
 50
0.0
 51
180.0
  0
ARC
  5
439
330
1F
100
AcDbEntity
  8
1-3
  6
Continuous
 62
     4
370
    13
100
AcDbCircle
 10
323.675537109375
 20
616.1887009079394
 30
0.0
 40
1.999999904954756
100
AcDbArc
 50
0.0
 51
180.0
  0
ARC
  5
43A
330
1F
100
AcDbEntity
  8
1-3
  6
JWW_CENTER1
 62
     4
370
    13
100
AcDbCircle
 10
1321.621621621622
 20
644.1894861169766
 30
0.0
 40
19.9999983246262
100
AcDbArc
 50
270.0
 51
0.0
  0
CIRCLE
  5
43B
330
1F
100
AcDbEntity
  8
1-2
  6
Continuous
 62
     3
370
    13
100
AcDbCircle
 10
281.6755964949326
 20
324.189172693201
 30
0.0
 40
6.000000077324945
  0
CIRCLE
  5
43C
330
1F
100
AcDbEntity
  8
1-2
  6
Continuous
 62
     3
370
    13
100
AcDbCircle
 10
281.6755964949326
 20
524.1892139331717
 30
0.0
 40
6.000000077324945
  0
CIRCLE
  5
43D
330
1F
100
AcDbEntity
  8
1-2
  6
Continuous
 62
     3
370
    13
100
AcDbCircle
 10
281.6755964949326
 20
724.1892551731419
 30
0.0
 40
6.000000077324945
  0
CIRCLE
  5
43E
330
1F
100
AcDbEntity
  8
1-2
  6
Continuous
 62
     3
370
    13
100
AcDbCircle
 10
281.6755964949326
 20
124.1891314532307
 30
0.0
 40
6.000000077324945
  0
CIRCLE
  5
43F
330
1F
100
AcDbEntity
  8
1-2
  6
Continuous
 62
     3
370
    13
100
AcDbCircle
 10
281.6755964949326
 20
-75.81078606682837
 30
0.0
 40
6.000000077324945
  0
CIRCLE
  5
440
330
1F
100
AcDbEntity
  8
1-3
  6
Continuous
 62
     4
370
    13
100
AcDbCircle
 10
-231.8172145534206
 20
636.7091328388938
 30
0.0
 40
4.519735316972476
  0
CIRCLE
  5
441
330
1F
100
AcDbEntity
  8
1-3
  6
Continuous
 62
     4
370
    13
100
AcDbCircle
 10
-231.8172145534206
 20
611.669707427154
 30
0.0
 40
4.519735316972476
  0
TEXT
  5
442
330
1F
100
AcDbEntity
  8
F-4
  6
Continuous
 62
     7
370
    13
100
AcDbText
 10
-530.931136672561
 20
1069.3895986856
 30
0.0
 40
22.86
  1
メインバー ＤⅠ－２５ ＠１５
 41
1.154761904761905
  7
ＭＳ ゴシック
100
AcDbText
  0
TEXT
  5
443
330
1F
100
AcDbEntity
  8
F-4
  6
Continuous
 62
     2
370
    13
100
AcDbText
 10
358.4086599008004
 20
-915.8151853489252
 30
0.0
 40
30.48
  1
処理：溶融亜鉛めっき
 50
359.9999681409946
 41
1.1125
  7
ＭＳ ゴシック
100
AcDbText
  0
TEXT
  5
444
330
1F
100
AcDbEntity
  8
F-4
  6
Continuous
 62
     2
370
    13
100
AcDbText
 10
308.6483104808912
 20
-769.517751134924
 30
0.0
 40
30.48
  1
ノンスリップタイプ
 41
1.111111111111111
  7
ＭＳ ゴシック
100
AcDbText
  0
TEXT
  5
445
330
1F
100
AcDbEntity
  8
F-D
  6
Continuous
 62
     2
370
    13
100
AcDbText
 10
-294.1592861805079
 20
-669.3855700509557
 30
0.0
 40
30.48
  1
25
 50
90.00000250447816
 41
1.062499999999999
  7
ＭＳ ゴシック
100
AcDbText
  0
TEXT
  5
446
330
1F
100
AcDbEntity
  8
F-D
  6
Continuous
 62
     2
370
    13
100
AcDbText
 10
-1167.815852411728
 20
-748.5352534104628
 30
0.0
 40
30.48
  1
5.4
 50
90.00000250447816
 41
1.083333333333334
  7
ＭＳ ゴシック
100
AcDbText
  0
TEXT
  5
447
330
1F
100
AcDbEntity
  8
F-D
  6
Continuous
 62
     2
370
    13
100
AcDbText
 10
-1167.815852411728
 20
-574.3374945554164
 30
0.0
 40
30.48
  1
7.6
 50
90.00000250447816
 41
1.083333333333333
  7
ＭＳ ゴシック
100
AcDbText
  0
TEXT
  5
448
330
1F
100
AcDbEntity
  8
F-D
  6
Continuous
 62
     2
370
    13
100
AcDbText
 10
-1017.874942054872
 20
-547.9823275478153
 30
0.0
 40
30.48
  1
5
 50
282.0789753068251
 41
1.0
  7
ＭＳ ゴシック
100
AcDbText
  0
TEXT
  5
449
330
1F
100
AcDbEntity
  8
F-D
  6
Continuous
 62
     2
370
    13
100
AcDbText
 10
-428.4653411040433
 20
-522.7415621040963
 30
0.0
 40
30.48
  1
5
 41
0.9999999999999998
  7
ＭＳ ゴシック
100
AcDbText
  0
TEXT
  5
44A
330
1F
100
AcDbEntity
  8
F-D
  6
Continuous
 62
     2
370
    13
100
AcDbText
 10
-405.1411685428103
 20
-657.0384742200697
 30
0.0
 40
30.48
  1
3
 41
0.9999999999999998
  7
ＭＳ ゴシック
100
AcDbText
  0
TEXT
  5
44B
330
1F
100
AcDbEntity
  8
F-D
  6
Continuous
 62
     2
370
    13
100
AcDbText
 10
-1145.243579761402
 20
-892.1999616963154
 30
0.0
 40
30.48
  1
ＤＩ－２５　バー形状詳細　Ｓ＝１：２
 41
1.118055555555555
  7
ＭＳ ゴシック
100
AcDbText
  0
TEXT
  5
44C
330
1F
100
AcDbEntity
  8
F-D
  6
Continuous
 62
     2
370
    13
100
AcDbText
 10
-1087.044213784708
 20
-435.4376169235642
 30
0.0
 40
30.48
  1
5
 41
0.9999999999999998
  7
ＭＳ ゴシック
100
AcDbText
  0
TEXT
  5
44D
330
1F
100
AcDbEntity
  8
F-D
  6
Continuous
 62
     7
370
    13
100
AcDbText
 10
-1118.812989930849
 20
-980.7015416490708
 30
0.0
 40
22.86
  1
※デルタパターンの配列は一定ではありません。
 41
1.159090909090909
  7
ＭＳ ゴシック
100
AcDbText
  0
TEXT
  5
44E
330
1F
100
AcDbEntity
  8
F-4
  6
Continuous
 62
     7
370
    13
100
AcDbText
 10
-597.8231275403822
 20
1206.484622175887
 30
0.0
 40
22.86
  1
エンドプレート ＦＢ１９×４．５
 41
1.155913978494624
  7
ＭＳ ゴシック
100
AcDbText
  0
TEXT
  5
44F
330
1F
100
AcDbEntity
  8
F-4
  6
Continuous
 62
     7
370
    13
100
AcDbText
 10
-558.5219058474978
 20
1135.812839553421
 30
0.0
 40
22.86
  1
クロスバー φ６ ＠１００
 41
1.152777777777778
  7
ＭＳ ゴシック
100
AcDbText
  0
TEXT
  5
450
330
1F
100
AcDbEntity
  8
F-D
  6
Continuous
 62
     7
370
    13
100
AcDbText
 10
-1003.919751966322
 20
-448.4347289379223
 30
0.0
 40
22.86
  1
デルタパターン
 41
1.142857142857143
  7
ＭＳ ゴシック
100
AcDbText
  0
TEXT
  5
451
330
1F
100
AcDbEntity
  8
1-4
  6
Continuous
 62
     7
370
    13
100
AcDbText
 10
728.7892109638938
 20
922.1379127956084
 30
0.0
 40
22.86
  1
鎖　ＳＷＲＭ　φ５×５００
 41
1.153846153846154
  7
ＭＳ ゴシック
100
AcDbText
  0
TEXT
  5
452
330
1F
100
AcDbEntity
  8
1-4
  6
Continuous
 62
     7
370
    13
100
AcDbText
 10
668.3306802285686
 20
870.3165907411318
 30
0.0
 40
22.86
  1
電気亜鉛めっき（光沢クロメート）
 41
1.15625
  7
ＭＳ ゴシック
100
AcDbText
  0
TEXT
  5
453
330
1F
100
AcDbEntity
  8
1-4
  6
Continuous
 62
     7
370
    13
100
AcDbText
 10
598.5802397856844
 20
306.9503039220862
 30
0.0
 40
22.86
  1
電気亜鉛めっき（光沢クロメート）
 41
1.15625
  7
ＭＳ ゴシック
100
AcDbText
  0
TEXT
  5
454
330
1F
100
AcDbEntity
  8
1-4
  6
Continuous
 62
     7
370
    13
100
AcDbText
 10
611.5357022672085
 20
356.6124660842485
 30
0.0
 40
22.86
  1
シャックル　Ｓ２０Ｃ　呼び６
 41
1.154761904761905
  7
ＭＳ ゴシック
100
AcDbText
  0
TEXT
  5
455
330
1F
100
AcDbEntity
  8
F-4
  6
Continuous
 62
     2
370
    13
100
AcDbText
 10
358.4087349003726
 20
-867.9178877217574
 30
0.0
 40
30.48
  1
材質：ＳＳ４００＋ＳＴＫＲ４００
 50
359.9999603433436
 41
1.1171875
  7
ＭＳ ゴシック
100
AcDbText
  0
TEXT
  5
456
330
1F
100
AcDbEntity
  8
1-4
  6
Continuous
 62
     2
370
    13
100
AcDbText
 10
478.682873114479
 20
-226.4294147379279
 30
0.0
 40
30.48
  1
7
 50
90.00000250447816
 41
0.9999999999999989
  7
ＭＳ ゴシック
100
AcDbText
  0
TEXT
  5
457
330
1F
100
AcDbEntity
  8
1-4
  6
Continuous
 62
     2
370
    13
100
AcDbText
 10
478.6828736062321
 20
-163.0610288043869
 30
0.0
 40
30.48
  1
40
 50
90.00000250447816
 41
1.0625
  7
ＭＳ ゴシック
100
AcDbText
  0
TEXT
  5
458
330
1F
100
AcDbEntity
  8
1-4
  6
Continuous
 62
     2
370
    13
100
AcDbText
 10
478.6828736062321
 20
768.9392499778133
 30
0.0
 40
30.48
  1
40
 50
90.00000250447816
 41
1.062500000000001
  7
ＭＳ ゴシック
100
AcDbText
  0
TEXT
  5
459
330
1F
100
AcDbEntity
  8
1-4
  6
Continuous
 62
     2
370
    13
100
AcDbText
 10
478.682873114479
 20
849.7541105537213
 30
0.0
 40
30.48
  1
7
 50
90.00000250447816
 41
1.000000000000001
  7
ＭＳ ゴシック
100
AcDbText
  0
TEXT
  5
45A
330
1F
100
AcDbEntity
  8
1-4
  6
Continuous
 62
     2
370
    13
100
AcDbText
 10
279.425881875528
 20
-293.01966796875
 30
0.0
 40
30.48
  1
25
 41
1.0625
  7
ＭＳ ゴシック
100
AcDbText
  0
TEXT
  5
45B
330
1F
100
AcDbEntity
  8
1-4
  6
Continuous
 62
     2
370
    13
100
AcDbText
 10
329.4257993955871
 20
-293.01966796875
 30
0.0
 40
30.48
  1
25
 41
1.0625
  7
ＭＳ ゴシック
100
AcDbText
  0
TEXT
  5
45C
330
1F
100
AcDbEntity
  8
1-4
  6
Continuous
 62
     2
370
    13
100
AcDbText
 10
304.4257169156463
 20
-372.3946514727617
 30
0.0
 40
30.48
  1
50
 41
1.0625
  7
ＭＳ ゴシック
100
AcDbText
  0
TEXT
  5
45D
330
1F
100
AcDbEntity
  8
1-4
  6
Continuous
 62
     2
370
    13
100
AcDbText
 10
-976.9748089764568
 20
907.0270981577281
 30
0.0
 40
30.48
  1
15
 41
1.0625
  7
ＭＳ ゴシック
100
AcDbText
  0
TEXT
  5
45E
330
1F
100
AcDbEntity
  8
1-5
  6
Continuous
 62
     7
370
    13
100
AcDbText
 10
-843.2432721112225
 20
-1320.634864864865
 30
0.0
 40
22.86
  1
ノンスリップタイプスチール製グレーチング
 41
1.158333333333333
  7
ＭＳ ゴシック
100
AcDbText
  0
TEXT
  5
45F
330
1F
100
AcDbEntity
  8
F-4
  6
Continuous
 62
     7
370
    13
100
AcDbText
 10
527.8233359783671
 20
1055.089803895717
 30
0.0
 40
22.86
  1
かさ上げ材　□４０×２５×３．２
 50
0.000025544603042
 41
1.15625
  7
ＭＳ ゴシック
100
AcDbText
  0
TEXT
  5
460
330
1F
100
AcDbEntity
  8
1-4
  6
Continuous
 62
     2
370
    13
100
AcDbText
 10
-644.7972643053209
 20
-293.01966796875
 30
0.0
 40
30.48
  1
515
 41
1.083333333333333
  7
ＭＳ ゴシック
100
AcDbText
  0
TEXT
  5
461
330
1F
100
AcDbEntity
  8
1-4
  6
Continuous
 62
     2
370
    13
100
AcDbText
 10
161.5051067310087
 20
291.689172446669
 30
0.0
 40
30.48
  1
520
 50
90.00000250447816
 41
1.083333333333334
  7
ＭＳ ゴシック
100
AcDbText
  0
TEXT
  5
462
330
1F
100
AcDbEntity
  8
1-4
  6
Continuous
 62
     2
370
    13
100
AcDbText
 10
472.7111614185088
 20
221.8928319166859
 30
0.0
 40
30.48
  1
426
 50
90.00000250447816
 41
1.083333333333333
  7
ＭＳ ゴシック
100
AcDbText
  0
TEXT
  5
463
330
1F
100
AcDbEntity
  8
F-4
  6
Continuous
 62
     2
370
    13
100
AcDbText
 10
308.6483104808912
 20
-817.2030546940983
 30
0.0
 40
30.48
  1
圧接式細目かさ上げグレーチング　ＱＸＣＤ　４５０
 41
1.119791666666667
  7
ＭＳ ゴシック
100
AcDbText
  0
TEXT
  5
464
330
1F
100
AcDbEntity
  8
1-5
  6
Continuous
 62
     7
370
    13
100
AcDbText
 10
-507.938521101668
 20
-1365.147247578389
 30
0.0
 40
22.86
  1
圧接式細目東京都住宅局型ＣＤます用　ＱＸＣＤ　４５０
 41
1.16025641025641
  7
ＭＳ ゴシック
100
AcDbText
  0
TEXT
  5
465
330
1F
100
AcDbEntity
  8
F-5
  6
Continuous
 62
     7
370
    13
100
AcDbText
 10
687.811716440562
 20
1012.395052259291
 30
0.0
 40
22.86
  1
（Ｌ＝５０５）
 41
1.142857142857143
  7
ＭＳ ゴシック
100
AcDbText
  0
TEXT
  5
466
330
1F
100
AcDbEntity
  8
1-4
  6
Continuous
 62
     2
370
    13
100
AcDbText
 10
254.0590523384714
 20
-706.5971446764147
 30
0.0
 40
30.48
  1
仕　様
 41
1.083333333333333
  7
ＭＳ ゴシック
100
AcDbText
  0
LWPOLYLINE
  5
467
330
1F
100
AcDbEntity
  8
1-4
  6
Continuous
 62
     7
370
    13
100
AcDbPolyline
 90
        4
 70
     1
 43
1.0
 10
490.8227934966219
 20
-195.8108108108107
 42
0.4142135623731
 10
490.3227934966219
 20
-195.3108108108107
 42
0.4142135623731
 10
489.8227934966219
 20
-195.8108108108107
 42
0.4142135623731
 10
490.3227934966219
 20
-196.3108108108107
 42
0.4142135623731
  0
LWPOLYLINE
  5
468
330
1F
100
AcDbEntity
  8
1-4
  6
Continuous
 62
     7
370
    13
100
AcDbPolyline
 90
        4
 70
     1
 43
1.0
 10
490.8227934966219
 20
-181.8111605257602
 42
0.4142135623731
 10
490.3227934966219
 20
-181.3111605257602
 42
0.4142135623731
 10
489.8227934966219
 20
-181.8111605257602
 42
0.4142135623731
 10
490.3227934966219
 20
-182.3111605257602
 42
0.4142135623731
  0
LWPOLYLINE
  5
469
330
1F
100
AcDbEntity
  8
1-4
  6
Continuous
 62
     7
370
    13
100
AcDbPolyline
 90
        4
 70
     1
 43
1.0
 10
490.8227934966219
 20
-101.8108965899492
 42
0.4142135623731
 10
490.3227934966219
 20
-101.3108965899492
 42
0.4142135623731
 10
489.8227934966219
 20
-101.8108965899492
 42
0.4142135623731
 10
490.3227934966219
 20
-102.3108965899492
 42
0.4142135623731
  0
LWPOLYLINE
  5
46A
330
1F
100
AcDbEntity
  8
1-4
  6
Continuous
 62
     7
370
    13
100
AcDbPolyline
 90
        4
 70
     1
 43
1.0
 10
490.8227934966219
 20
750.1892419763516
 42
0.4142135623731
 10
490.3227934966219
 20
750.6892419763516
 42
0.4142135623731
 10
489.8227934966219
 20
750.1892419763516
 42
0.4142135623731
 10
490.3227934966219
 20
749.6892419763516
 42
0.4142135623731
  0
LWPOLYLINE
  5
46B
330
1F
100
AcDbEntity
  8
1-4
  6
Continuous
 62
     7
370
    13
100
AcDbPolyline
 90
        4
 70
     1
 43
1.0
 10
490.8227934966219
 20
830.1890110325169
 42
0.4142135623731
 10
490.3227934966219
 20
830.6890110325169
 42
0.4142135623731
 10
489.8227934966219
 20
830.1890110325169
 42
0.4142135623731
 10
490.3227934966219
 20
829.689011032517
 42
0.4142135623731
  0
LWPOLYLINE
  5
46C
330
1F
100
AcDbEntity
  8
1-4
  6
Continuous
 62
     7
370
    13
100
AcDbPolyline
 90
        4
 70
     1
 43
1.0
 10
490.8227934966219
 20
844.189156197213
 42
0.4142135623731
 10
490.3227934966219
 20
844.689156197213
 42
0.4142135623731
 10
489.8227934966219
 20
844.189156197213
 42
0.4142135623731
 10
490.3227934966219
 20
843.689156197213
 42
0.4142135623731
  0
LWPOLYLINE
  5
46D
330
1F
100
AcDbEntity
  8
1-4
  6
Continuous
 62
     7
370
    13
100
AcDbPolyline
 90
        4
 70
     1
 43
1.0
 10
276.1756756756758
 20
-304.659712507918
 42
0.4142135623731
 10
275.6756756756758
 20
-304.159712507918
 42
0.4142135623731
 10
275.1756756756758
 20
-304.659712507918
 42
0.4142135623731
 10
275.6756756756758
 20
-305.159712507918
 42
0.4142135623731
  0
LWPOLYLINE
  5
46E
330
1F
100
AcDbEntity
  8
1-4
  6
Continuous
 62
     7
370
    13
100
AcDbPolyline
 90
        4
 70
     1
 43
1.0
 10
326.1758406355575
 20
-304.659712507918
 42
0.4142135623731
 10
325.6758406355576
 20
-304.159712507918
 42
0.4142135623731
 10
325.1758406355576
 20
-304.659712507918
 42
0.4142135623731
 10
325.6758406355576
 20
-305.159712507918
 42
0.4142135623731
  0
LWPOLYLINE
  5
46F
330
1F
100
AcDbEntity
  8
1-4
  6
Continuous
 62
     7
370
    13
100
AcDbPolyline
 90
        4
 70
     1
 43
1.0
 10
376.175510715794
 20
-304.659712507918
 42
0.4142135623731
 10
375.675510715794
 20
-304.159712507918
 42
0.4142135623731
 10
375.1755107157941
 20
-304.659712507918
 42
0.4142135623731
 10
375.675510715794
 20
-305.159712507918
 42
0.4142135623731
  0
LWPOLYLINE
  5
470
330
1F
100
AcDbEntity
  8
1-4
  6
Continuous
 62
     7
370
    13
100
AcDbPolyline
 90
        4
 70
     1
 43
1.0
 10
276.1756756756758
 20
-384.0346960119298
 42
0.4142135623731
 10
275.6756756756758
 20
-383.5346960119298
 42
0.4142135623731
 10
275.1756756756758
 20
-384.0346960119298
 42
0.4142135623731
 10
275.6756756756758
 20
-384.5346960119298
 42
0.4142135623731
  0
LWPOLYLINE
  5
471
330
1F
100
AcDbEntity
  8
1-4
  6
Continuous
 62
     7
370
    13
100
AcDbPolyline
 90
        4
 70
     1
 43
1.0
 10
376.1757581556167
 20
-384.0346960119298
 42
0.4142135623731
 10
375.6757581556167
 20
-383.5346960119298
 42
0.4142135623731
 10
375.1757581556167
 20
-384.0346960119298
 42
0.4142135623731
 10
375.6757581556167
 20
-384.5346960119298
 42
0.4142135623731
  0
LWPOLYLINE
  5
472
330
1F
100
AcDbEntity
  8
1-4
  6
Continuous
 62
     7
370
    13
100
AcDbPolyline
 90
        4
 70
     1
 43
1.0
 10
173.6450261296453
 20
-195.8108108108107
 42
0.4142135623731
 10
173.1450261296453
 20
-195.3108108108107
 42
0.4142135623731
 10
172.6450261296453
 20
-195.8108108108107
 42
0.4142135623731
 10
173.1450261296453
 20
-196.3108108108107
 42
0.4142135623731
  0
LWPOLYLINE
  5
473
330
1F
100
AcDbEntity
  8
1-4
  6
Continuous
 62
     7
370
    13
100
AcDbPolyline
 90
        4
 70
     1
 43
1.0
 10
173.6450261296453
 20
844.189156197213
 42
0.4142135623731
 10
173.1450261296453
 20
844.689156197213
 42
0.4142135623731
 10
172.6450261296453
 20
844.189156197213
 42
0.4142135623731
 10
173.1450261296453
 20
843.689156197213
 42
0.4142135623731
  0
LWPOLYLINE
  5
474
330
1F
100
AcDbEntity
  8
1-4
  6
Continuous
 62
     7
370
    13
100
AcDbPolyline
 90
        4
 70
     1
 43
1.0
 10
-1126.797231313345
 20
-304.659712507918
 42
0.4142135623731
 10
-1127.297231313345
 20
-304.159712507918
 42
0.4142135623731
 10
-1127.797231313345
 20
-304.659712507918
 42
0.4142135623731
 10
-1127.297231313345
 20
-305.159712507918
 42
0.4142135623731
  0
LWPOLYLINE
  5
475
330
1F
100
AcDbEntity
  8
1-4
  6
Continuous
 62
     7
370
    13
100
AcDbPolyline
 90
        4
 70
     1
 43
1.0
 10
-96.79729729729712
 20
-304.659712507918
 42
0.4142135623731
 10
-97.29729729729712
 20
-304.159712507918
 42
0.4142135623731
 10
-97.79729729729712
 20
-304.659712507918
 42
0.4142135623731
 10
-97.29729729729712
 20
-305.159712507918
 42
0.4142135623731
  0
LWPOLYLINE
  5
476
330
1F
100
AcDbEntity
  8
1-4
  6
Continuous
 62
     7
370
    13
100
AcDbPolyline
 90
        4
 70
     1
 43
1.0
 10
-971.7975859770904
 20
895.3871773384714
 42
0.4142135623731
 10
-972.2975859770904
 20
895.8871773384714
 42
0.4142135623731
 10
-972.7975859770903
 20
895.3871773384714
 42
0.4142135623731
 10
-972.2975859770904
 20
894.8871773384714
 42
0.4142135623731
  0
LWPOLYLINE
  5
477
330
1F
100
AcDbEntity
  8
1-4
  6
Continuous
 62
     7
370
    13
100
AcDbPolyline
 90
        4
 70
     1
 43
1.0
 10
-941.7976107210725
 20
895.3871773384714
 42
0.4142135623731
 10
-942.2976107210725
 20
895.8871773384714
 42
0.4142135623731
 10
-942.7976107210725
 20
895.3871773384714
 42
0.4142135623731
 10
-942.2976107210725
 20
894.8871773384714
 42
0.4142135623731
  0
LINE
  5
478
330
1F
100
AcDbEntity
  8
1-4
  6
Continuous
 62
     7
370
    13
100
AcDbLine
 10
575.2132106471709
 20
185.8463101773648
 30
0.0
 11
972.2511090195442
 21
185.8463101773648
 31
0.0
  0
TEXT
  5
479
330
1F
100
AcDbEntity
  8
1-4
  6
Continuous
 62
     7
370
    13
100
AcDbText
 10
653.7321598333574
 20
148.0748849239867
 30
0.0
 40
22.86
  1
溶融亜鉛めっき
 41
1.142857142857144
  7
ＭＳ ゴシック
100
AcDbText
  0
TEXT
  5
47A
330
1F
100
AcDbEntity
  8
1-4
  6
Continuous
 62
     7
370
    13
100
AcDbText
 10
583.7321598333575
 20
200.3549604096284
 30
0.0
 40
22.86
  1
鎖ピン　ＳＷＲＭ　φ５
 41
1.151515151515152
  7
ＭＳ ゴシック
100
AcDbText
  0
ENDSEC
  0
SECTION
  2
OBJECTS
  0
DICTIONARY
  5
C
330
0
100
AcDbDictionary
281
     1
  3
ACAD_GROUP
350
D
  3
ACAD_LAYOUT
350
1A
  3
ACAD_MLEADERSTYLE
350
47C
  3
ACAD_MLINESTYLE
350
17
  3
ACAD_PLOTSETTINGS
350
19
  3
ACAD_PLOTSTYLENAME
350
E
  3
ACAD_TABLESTYLE
350
47B
  3
ACAD_VISUALSTYLE
350
2A
  0
DICTIONARY
  5
D
102
{ACAD_REACTORS
330
C
102
}
330
C
100
AcDbDictionary
281
     1
  0
DICTIONARY
  5
1A
102
{ACAD_REACTORS
330
C
102
}
330
C
100
AcDbDictionary
281
     1
  3
Layout1
350
1E
  3
Layout2
350
26
  3
Model
350
22
  0
DICTIONARY
  5
47C
102
{ACAD_REACTORS
330
C
102
}
330
C
100
AcDbDictionary
281
     1
  0
DICTIONARY
  5
17
102
{ACAD_REACTORS
330
C
102
}
330
C
100
AcDbDictionary
281
     1
  3
Standard
350
18
  0
DICTIONARY
  5
19
102
{ACAD_REACTORS
330
C
102
}
330
C
100
AcDbDictionary
281
     1
  0
ACDBDICTIONARYWDFLT
  5
E
102
{ACAD_REACTORS
330
C
102
}
330
C
100
AcDbDictionary
281
     1
  3
Normal
350
F
100
AcDbDictionaryWithDefault
340
F
  0
DICTIONARY
  5
47B
102
{ACAD_REACTORS
330
C
102
}
330
C
100
AcDbDictionary
281
     1
  0
DICTIONARY
  5
2A
102
{ACAD_REACTORS
330
C
102
}
330
C
100
AcDbDictionary
281
     1
  3
2dWireframe
350
2F
  3
3D Hidden
350
31
  3
3dWireframe
350
30
  3
Basic
350
32
  3
Brighten
350
36
  3
ColorChange
350
3A
  3
Conceptual
350
34
  3
Dim
350
35
  3
Facepattern
350
39
  3
Flat
350
2B
  3
FlatWithEdges
350
2C
  3
Gouraud
350
2D
  3
GouraudWithEdges
350
2E
  3
Linepattern
350
38
  3
Realistic
350
33
  3
Thicken
350
37
  0
LAYOUT
  5
1E
102
{ACAD_REACTORS
330
1A
102
}
330
1A
100
AcDbPlotSettings
  1

  2
none_device
  4

  6

 40
0.0
 41
0.0
 42
0.0
 43
0.0
 44
0.0
 45
0.0
 46
0.0
 47
0.0
 48
0.0
 49
0.0
140
0.0
141
0.0
142
1.0
143
1.0
 70
   688
 72
     0
 73
     0
 74
     5
  7

 75
    16
 76
     0
 77
     5
 78
   300
147
1.0
148
0.0
149
0.0
100
AcDbLayout
  1
Layout1
 70
     1
 71
     1
 10
0.0
 20
0.0
 11
420.0
 21
297.0
 12
0.0
 22
0.0
 32
0.0
 14
1.000000000000000E+20
 24
1.000000000000000E+20
 34
1.000000000000000E+20
 15
-1.000000000000000E+20
 25
-1.000000000000000E+20
 35
-1.000000000000000E+20
146
0.0
 13
0.0
 23
0.0
 33
0.0
 16
1.0
 26
0.0
 36
0.0
 17
0.0
 27
1.0
 37
0.0
 76
     0
330
1B
  0
LAYOUT
  5
26
102
{ACAD_REACTORS
330
1A
102
}
330
1A
100
AcDbPlotSettings
  1

  2
none_device
  4

  6

 40
0.0
 41
0.0
 42
0.0
 43
0.0
 44
0.0
 45
0.0
 46
0.0
 47
0.0
 48
0.0
 49
0.0
140
0.0
141
0.0
142
1.0
143
1.0
 70
   688
 72
     0
 73
     0
 74
     5
  7

 75
    16
 76
     0
 77
     5
 78
   300
147
1.0
148
0.0
149
0.0
100
AcDbLayout
  1
Layout2
 70
     1
 71
     2
 10
0.0
 20
0.0
 11
0.0
 21
0.0
 12
0.0
 22
0.0
 32
0.0
 14
0.0
 24
0.0
 34
0.0
 15
0.0
 25
0.0
 35
0.0
146
0.0
 13
0.0
 23
0.0
 33
0.0
 16
1.0
 26
0.0
 36
0.0
 17
0.0
 27
1.0
 37
0.0
 76
     0
330
23
  0
LAYOUT
  5
22
102
{ACAD_REACTORS
330
1A
102
}
330
1A
100
AcDbPlotSettings
  1

  2
none_device
  4

  6

 40
0.0
 41
0.0
 42
0.0
 43
0.0
 44
0.0
 45
0.0
 46
0.0
 47
0.0
 48
0.0
 49
0.0
140
0.0
141
0.0
142
1.0
143
1.0
 70
  1712
 72
     0
 73
     0
 74
     0
  7

 75
     0
 76
     0
 77
     5
 78
   300
147
1.0
148
0.0
149
0.0
100
AcDbLayout
  1
Model
 70
     1
 71
     0
 10
-2100.0
 20
-1485.0
 11
2100.0
 21
1485.0
 12
0.0
 22
0.0
 32
0.0
 14
-2100.0
 24
-1485.0
 34
0.0
 15
2100.0
 25
1485.0
 35
0.0
146
0.0
 13
0.0
 23
0.0
 33
0.0
 16
1.0
 26
0.0
 36
0.0
 17
0.0
 27
1.0
 37
0.0
 76
     0
330
1F
331
29
  0
MLINESTYLE
  5
18
102
{ACAD_REACTORS
330
17
102
}
330
17
100
AcDbMlineStyle
  2
Standard
 70
     0
  3

 62
   256
 51
90.0
 52
90.0
 71
     2
 49
0.5
 62
   256
  6
BYLAYER
 49
-0.5
 62
   256
  6
BYLAYER
  0
ACDBPLACEHOLDER
  5
F
102
{ACAD_REACTORS
330
E
102
}
330
E
  0
VISUALSTYLE
  5
2F
102
{ACAD_REACTORS
330
2A
102
}
330
2A
100
AcDbVisualStyle
  2
2dWireframe
 70
     4
 71
     0
 72
     2
 73
     0
 90
        0
 40
-0.6
 41
-30.0
 62
     5
 63
     7
421
 16777215
 74
     1
 91
        4
 64
     7
 65
   257
 75
     1
175
     1
 42
1.0
 92
        0
 66
   257
 43
1.0
 76
     1
 77
     6
 78
     2
 67
     7
 79
     5
170
     0
171
     0
290
     0
174
     0
 93
        1
 44
0.0
173
     0
291
     0
 45
0.0
1001
ACAD
1000
AcDbSavedByObjectVersion
1070
     0
  0
VISUALSTYLE
  5
31
102
{ACAD_REACTORS
330
2A
102
}
330
2A
100
AcDbVisualStyle
  2
3D Hidden
 70
     6
 71
     1
 72
     2
 73
     2
 90
        0
 40
-0.6
 41
-30.0
 62
     5
 63
     7
421
 16777215
 74
     2
 91
        2
 64
     7
 65
   257
 75
     2
175
     1
 42
40.0
 92
        0
 66
   257
 43
1.0
 76
     1
 77
     6
 78
     2
 67
     7
 79
     3
170
     0
171
     0
290
     0
174
     0
 93
        1
 44
0.0
173
     0
291
     0
 45
0.0
1001
ACAD
1000
AcDbSavedByObjectVersion
1070
     0
  0
VISUALSTYLE
  5
30
102
{ACAD_REACTORS
330
2A
102
}
330
2A
100
AcDbVisualStyle
  2
3dWireframe
 70
     5
 71
     0
 72
     2
 73
     0
 90
        0
 40
-0.6
 41
-30.0
 62
     5
 63
     7
421
 16777215
 74
     1
 91
        4
 64
     7
 65
   257
 75
     1
175
     1
 42
1.0
 92
        0
 66
   257
 43
1.0
 76
     1
 77
     6
 78
     2
 67
     7
 79
     5
170
     0
171
     0
290
     0
174
     0
 93
        1
 44
0.0
173
     0
291
     0
 45
0.0
1001
ACAD
1000
AcDbSavedByObjectVersion
1070
     0
  0
VISUALSTYLE
  5
32
102
{ACAD_REACTORS
330
2A
102
}
330
2A
100
AcDbVisualStyle
  2
Basic
 70
     7
 71
     1
 72
     0
 73
     1
 90
        0
 40
-0.6
 41
-30.0
 62
     5
 63
     7
421
 16777215
 74
     0
 91
        4
 64
     7
 65
   257
 75
     1
175
     1
 42
1.0
 92
        8
 66
     7
 43
1.0
 76
     1
 77
     6
 78
     2
 67
     7
 79
     5
170
     0
171
     0
290
     0
174
     0
 93
        1
 44
0.0
173
     0
291
     1
 45
0.0
1001
ACAD
1000
AcDbSavedByObjectVersion
1070
     0
  0
VISUALSTYLE
  5
36
102
{ACAD_REACTORS
330
2A
102
}
330
2A
100
AcDbVisualStyle
  2
Brighten
 70
    12
 71
     2
 72
     2
 73
     0
 90
        0
 40
-0.6
 41
-30.0
 62
     5
 63
     7
421
 16777215
 74
     1
 91
        4
 64
     7
 65
   257
 75
     1
175
     1
 42
1.0
 92
        8
 66
     7
 43
1.0
 76
     1
 77
     6
 78
     2
 67
     7
 79
     5
170
     0
171
     0
290
     0
174
     0
 93
        1
 44
50.0
173
     0
291
     1
 45
0.0
1001
ACAD
1000
AcDbSavedByObjectVersion
1070
     0
  0
VISUALSTYLE
  5
3A
102
{ACAD_REACTORS
330
2A
102
}
330
2A
100
AcDbVisualStyle
  2
ColorChange
 70
    16
 71
     2
 72
     2
 73
     3
 90
        0
 40
-0.6
 41
-30.0
 62
     5
 63
     8
421
  8421504
 74
     1
 91
        4
 64
     7
 65
   257
 75
     1
175
     1
 42
1.0
 92
        8
 66
     8
424
  8421504
 43
1.0
 76
     1
 77
     6
 78
     2
 67
     7
 79
     5
170
     0
171
     0
290
     0
174
     0
 93
        1
 44
0.0
173
     0
291
     1
 45
0.0
1001
ACAD
1000
AcDbSavedByObjectVersion
1070
     0
  0
VISUALSTYLE
  5
34
102
{ACAD_REACTORS
330
2A
102
}
330
2A
100
AcDbVisualStyle
  2
Conceptual
 70
     9
 71
     3
 72
     2
 73
     0
 90
        0
 40
-0.6
 41
-30.0
 62
     5
 63
     7
421
 16777215
 74
     2
 91
        2
 64
     7
 65
   257
 75
     1
175
     1
 42
40.0
 92
        8
 66
     7
 43
1.0
 76
     1
 77
     6
 78
     2
 67
     7
 79
     3
170
     0
171
     0
290
     0
174
     0
 93
        1
 44
0.0
173
     0
291
     0
 45
0.0
1001
ACAD
1000
AcDbSavedByObjectVersion
1070
     0
  0
VISUALSTYLE
  5
35
102
{ACAD_REACTORS
330
2A
102
}
330
2A
100
AcDbVisualStyle
  2
Dim
 70
    11
 71
     2
 72
     2
 73
     0
 90
        0
 40
-0.6
 41
-30.0
 62
     5
 63
     7
421
 16777215
 74
     1
 91
        4
 64
     7
 65
   257
 75
     1
175
     1
 42
1.0
 92
        8
 66
     7
 43
1.0
 76
     1
 77
     6
 78
     2
 67
     7
 79
     5
170
     0
171
     0
290
     0
174
     0
 93
        1
 44
-50.0
173
     0
291
     1
 45
0.0
1001
ACAD
1000
AcDbSavedByObjectVersion
1070
     0
  0
VISUALSTYLE
  5
39
102
{ACAD_REACTORS
330
2A
102
}
330
2A
100
AcDbVisualStyle
  2
Facepattern
 70
    15
 71
     2
 72
     2
 73
     0
 90
        0
 40
-0.6
 41
-30.0
 62
     5
 63
     7
421
 16777215
 74
     1
 91
        4
 64
     7
 65
   257
 75
     1
175
     1
 42
1.0
 92
        8
 66
     7
 43
1.0
 76
     1
 77
     6
 78
     2
 67
     7
 79
     5
170
     0
171
     0
290
     0
174
     0
 93
        1
 44
0.0
173
     0
291
     1
 45
0.0
1001
ACAD
1000
AcDbSavedByObjectVersion
1070
     0
  0
VISUALSTYLE
  5
2B
102
{ACAD_REACTORS
330
2A
102
}
330
2A
100
AcDbVisualStyle
  2
Flat
 70
     0
 71
     2
 72
     1
 73
     1
 90
        2
 40
-0.6
 41
30.0
 62
     5
 63
     7
421
 16777215
 74
     0
 91
        4
 64
     7
 65
   257
 75
     1
175
     1
 42
1.0
 92
        8
 66
     7
 43
1.0
 76
     1
 77
     6
 78
     2
 67
     7
 79
     5
170
     0
171
     0
290
     0
174
     0
 93
       13
 44
0.0
173
     0
291
     1
 45
0.0
1001
ACAD
1000
AcDbSavedByObjectVersion
1070
     0
  0
VISUALSTYLE
  5
2C
102
{ACAD_REACTORS
330
2A
102
}
330
2A
100
AcDbVisualStyle
  2
FlatWithEdges
 70
     1
 71
     2
 72
     1
 73
     1
 90
        2
 40
-0.6
 41
30.0
 62
     5
 63
     7
421
 16777215
 74
     1
 91
        4
 64
     7
 65
   257
 75
     1
175
     1
 42
1.0
 92
        0
 66
   257
 43
1.0
 76
     1
 77
     6
 78
     2
 67
     7
 79
     5
170
     0
171
     0
290
     0
174
     0
 93
       13
 44
0.0
173
     0
291
     1
 45
0.0
1001
ACAD
1000
AcDbSavedByObjectVersion
1070
     0
  0
VISUALSTYLE
  5
2D
102
{ACAD_REACTORS
330
2A
102
}
330
2A
100
AcDbVisualStyle
  2
Gouraud
 70
     2
 71
     2
 72
     2
 73
     1
 90
        2
 40
-0.6
 41
30.0
 62
     5
 63
     7
421
 16777215
 74
     0
 91
        4
 64
     7
 65
   257
 75
     1
175
     1
 42
1.0
 92
        0
 66
     7
 43
1.0
 76
     1
 77
     6
 78
     2
 67
     7
 79
     5
170
     0
171
     0
290
     0
174
     0
 93
       13
 44
0.0
173
     0
291
     1
 45
0.0
1001
ACAD
1000
AcDbSavedByObjectVersion
1070
     0
  0
VISUALSTYLE
  5
2E
102
{ACAD_REACTORS
330
2A
102
}
330
2A
100
AcDbVisualStyle
  2
GouraudWithEdges
 70
     3
 71
     2
 72
     2
 73
     1
 90
        2
 40
-0.6
 41
30.0
 62
     5
 63
     7
421
 16777215
 74
     1
 91
        4
 64
     7
 65
   257
 75
     1
175
     1
 42
1.0
 92
        0
 66
   257
 43
1.0
 76
     1
 77
     6
 78
     2
 67
     7
 79
     5
170
     0
171
     0
290
     0
174
     0
 93
       13
 44
0.0
173
     0
291
     1
 45
0.0
1001
ACAD
1000
AcDbSavedByObjectVersion
1070
     0
  0
VISUALSTYLE
  5
38
102
{ACAD_REACTORS
330
2A
102
}
330
2A
100
AcDbVisualStyle
  2
Linepattern
 70
    14
 71
     2
 72
     2
 73
     0
 90
        0
 40
-0.6
 41
-30.0
 62
     5
 63
     7
421
 16777215
 74
     1
 91
        4
 64
     7
 65
   257
 75
     7
175
     7
 42
1.0
 92
        8
 66
     7
 43
1.0
 76
     1
 77
     6
 78
     2
 67
     7
 79
     5
170
     0
171
     0
290
     0
174
     0
 93
        1
 44
0.0
173
     0
291
     1
 45
0.0
1001
ACAD
1000
AcDbSavedByObjectVersion
1070
     0
  0
VISUALSTYLE
  5
33
102
{ACAD_REACTORS
330
2A
102
}
330
2A
100
AcDbVisualStyle
  2
Realistic
 70
     8
 71
     2
 72
     2
 73
     0
 90
        0
 40
-0.6
 41
-30.0
 62
     5
 63
     7
421
 16777215
 74
     1
 91
        0
 64
     7
 65
   257
 75
     1
175
     1
 42
1.0
 92
        8
 66
     8
424
  7895160
 43
1.0
 76
     1
 77
     6
 78
     2
 67
     7
 79
     5
170
     0
171
     0
290
     0
174
     0
 93
       13
 44
0.0
173
     0
291
     0
 45
0.0
1001
ACAD
1000
AcDbSavedByObjectVersion
1070
     0
  0
VISUALSTYLE
  5
37
102
{ACAD_REACTORS
330
2A
102
}
330
2A
100
AcDbVisualStyle
  2
Thicken
 70
    13
 71
     2
 72
     2
 73
     0
 90
        0
 40
-0.6
 41
-30.0
 62
     5
 63
     7
421
 16777215
 74
     1
 91
        4
 64
     7
 65
   257
 75
     1
175
     1
 42
1.0
 92
       12
 66
     7
 43
1.0
 76
     1
 77
     6
 78
     2
 67
     7
 79
     5
170
     0
171
     0
290
     0
174
     0
 93
        1
 44
0.0
173
     0
291
     1
 45
0.0
1001
ACAD
1000
AcDbSavedByObjectVersion
1070
     0
  0
ENDSEC
  0
EOF
