  0
SECTION
  2
HEADER
  9
$ACADVER
  1
AC1018
  9
$ACADMAINTVER
 70
     0
  9
$DWGCODEPAGE
  3
ANSI_932
  9
$INSBASE
 10
0.0
 20
0.0
 30
0.0
  9
$EXTMIN
 10
-2100.0
 20
-1485.0
 30
0.0
  9
$EXTMAX
 10
2100.0
 20
1485.0
 30
0.0
  9
$LIMMIN
 10
-2100.0
 20
-1485.0
  9
$LIMMAX
 10
2100.0
 20
1485.0
  9
$ORTHOMODE
 70
     0
  9
$REGENMODE
 70
     1
  9
$FILLMODE
 70
     1
  9
$QTEXTMODE
 70
     0
  9
$MIRRTEXT
 70
     1
  9
$LTSCALE
 40
10.0
  9
$ATTMODE
 70
     1
  9
$TEXTSIZE
 40
2.5
  9
$TRACEWID
 40
1.0
  9
$TEXTSTYLE
  7
Standard
  9
$CLAYER
  8
0
  9
$CELTYPE
  6
ByLayer
  9
$CECOLOR
 62
   256
  9
$CELTSCALE
 40
1.0
  9
$DISPSILH
 70
     0
  9
$DIMSCALE
 40
1.0
  9
$DIMASZ
 40
2.5
  9
$DIMEXO
 40
0.625
  9
$DIMDLI
 40
3.75
  9
$DIMRND
 40
0.0
  9
$DIMDLE
 40
0.0
  9
$DIMEXE
 40
1.25
  9
$DIMTP
 40
0.0
  9
$DIMTM
 40
0.0
  9
$DIMTXT
 40
2.5
  9
$DIMCEN
 40
2.5
  9
$DIMTSZ
 40
0.0
  9
$DIMTOL
 70
     0
  9
$DIMLIM
 70
     0
  9
$DIMTIH
 70
     0
  9
$DIMTOH
 70
     0
  9
$DIMSE1
 70
     0
  9
$DIMSE2
 70
     0
  9
$DIMTAD
 70
     1
  9
$DIMZIN
 70
     8
  9
$DIMBLK
  1

  9
$DIMASO
 70
     1
  9
$DIMSHO
 70
     1
  9
$DIMPOST
  1

  9
$DIMAPOST
  1

  9
$DIMALT
 70
     0
  9
$DIMALTD
 70
     3
  9
$DIMALTF
 40
0.03937007874016
  9
$DIMLFAC
 40
1.0
  9
$DIMTOFL
 70
     1
  9
$DIMTVP
 40
0.0
  9
$DIMTIX
 70
     0
  9
$DIMSOXD
 70
     0
  9
$DIMSAH
 70
     0
  9
$DIMBLK1
  1

  9
$DIMBLK2
  1

  9
$DIMSTYLE
  2
ISO-25
  9
$DIMCLRD
 70
     0
  9
$DIMCLRE
 70
     0
  9
$DIMCLRT
 70
     0
  9
$DIMTFAC
 40
1.0
  9
$DIMGAP
 40
0.625
  9
$DIMJUST
 70
     0
  9
$DIMSD1
 70
     0
  9
$DIMSD2
 70
     0
  9
$DIMTOLJ
 70
     0
  9
$DIMTZIN
 70
     8
  9
$DIMALTZ
 70
     0
  9
$DIMALTTZ
 70
     0
  9
$DIMUPT
 70
     0
  9
$DIMDEC
 70
     2
  9
$DIMTDEC
 70
     2
  9
$DIMALTU
 70
     2
  9
$DIMALTTD
 70
     3
  9
$DIMTXSTY
  7
Standard
  9
$DIMAUNIT
 70
     0
  9
$DIMADEC
 70
     0
  9
$DIMALTRND
 40
0.0
  9
$DIMAZIN
 70
     0
  9
$DIMDSEP
 70
    44
  9
$DIMATFIT
 70
     3
  9
$DIMFRAC
 70
     0
  9
$DIMLDRBLK
  1

  9
$DIMLUNIT
 70
     2
  9
$DIMLWD
 70
    -2
  9
$DIMLWE
 70
    -2
  9
$DIMTMOVE
 70
     0
  9
$LUNITS
 70
     2
  9
$LUPREC
 70
     4
  9
$SKETCHINC
 40
1.0
  9
$FILLETRAD
 40
10.0
  9
$AUNITS
 70
     0
  9
$AUPREC
 70
     0
  9
$MENU
  1
.
  9
$ELEVATION
 40
0.0
  9
$PELEVATION
 40
0.0
  9
$THICKNESS
 40
0.0
  9
$LIMCHECK
 70
     0
  9
$CHAMFERA
 40
10.0
  9
$CHAMFERB
 40
10.0
  9
$CHAMFERC
 40
20.0
  9
$CHAMFERD
 40
0.0
  9
$SKPOLY
 70
     0
  9
$TDCREATE
 40
2456499.58274566
  9
$TDUCREATE
 40
2456499.20774566
  9
$TDUPDATE
 40
2456499.582745671
  9
$TDUUPDATE
 40
2456499.207745671
  9
$TDINDWG
 40
0.0000000116
  9
$TDUSRTIMER
 40
0.0000000116
  9
$USRTIMER
 70
     1
  9
$ANGBASE
 50
0.0
  9
$ANGDIR
 70
     0
  9
$PDMODE
 70
     0
  9
$PDSIZE
 40
0.0
  9
$PLINEWID
 40
0.0
  9
$SPLFRAME
 70
     0
  9
$SPLINETYPE
 70
     6
  9
$SPLINESEGS
 70
     8
  9
$HANDSEED
  5
4C7
  9
$SURFTAB1
 70
     6
  9
$SURFTAB2
 70
     6
  9
$SURFTYPE
 70
     6
  9
$SURFU
 70
     6
  9
$SURFV
 70
     6
  9
$UCSBASE
  2

  9
$UCSNAME
  2

  9
$UCSORG
 10
0.0
 20
0.0
 30
0.0
  9
$UCSXDIR
 10
1.0
 20
0.0
 30
0.0
  9
$UCSYDIR
 10
0.0
 20
1.0
 30
0.0
  9
$UCSORTHOREF
  2

  9
$UCSORTHOVIEW
 70
     0
  9
$UCSORGTOP
 10
0.0
 20
0.0
 30
0.0
  9
$UCSORGBOTTOM
 10
0.0
 20
0.0
 30
0.0
  9
$UCSORGLEFT
 10
0.0
 20
0.0
 30
0.0
  9
$UCSORGRIGHT
 10
0.0
 20
0.0
 30
0.0
  9
$UCSORGFRONT
 10
0.0
 20
0.0
 30
0.0
  9
$UCSORGBACK
 10
0.0
 20
0.0
 30
0.0
  9
$PUCSBASE
  2

  9
$PUCSNAME
  2

  9
$PUCSORG
 10
0.0
 20
0.0
 30
0.0
  9
$PUCSXDIR
 10
1.0
 20
0.0
 30
0.0
  9
$PUCSYDIR
 10
0.0
 20
1.0
 30
0.0
  9
$PUCSORTHOREF
  2

  9
$PUCSORTHOVIEW
 70
     0
  9
$PUCSORGTOP
 10
0.0
 20
0.0
 30
0.0
  9
$PUCSORGBOTTOM
 10
0.0
 20
0.0
 30
0.0
  9
$PUCSORGLEFT
 10
0.0
 20
0.0
 30
0.0
  9
$PUCSORGRIGHT
 10
0.0
 20
0.0
 30
0.0
  9
$PUCSORGFRONT
 10
0.0
 20
0.0
 30
0.0
  9
$PUCSORGBACK
 10
0.0
 20
0.0
 30
0.0
  9
$USERI1
 70
     0
  9
$USERI2
 70
     0
  9
$USERI3
 70
     0
  9
$USERI4
 70
     0
  9
$USERI5
 70
     0
  9
$USERR1
 40
0.0
  9
$USERR2
 40
0.0
  9
$USERR3
 40
0.0
  9
$USERR4
 40
0.0
  9
$USERR5
 40
0.0
  9
$WORLDVIEW
 70
     1
  9
$SHADEDGE
 70
     3
  9
$SHADEDIF
 70
    70
  9
$TILEMODE
 70
     1
  9
$MAXACTVP
 70
    64
  9
$PINSBASE
 10
0.0
 20
0.0
 30
0.0
  9
$PLIMCHECK
 70
     0
  9
$PEXTMIN
 10
1.000000000000000E+20
 20
1.000000000000000E+20
 30
1.000000000000000E+20
  9
$PEXTMAX
 10
-1.000000000000000E+20
 20
-1.000000000000000E+20
 30
-1.000000000000000E+20
  9
$PLIMMIN
 10
0.0
 20
0.0
  9
$PLIMMAX
 10
420.0
 20
297.0
  9
$UNITMODE
 70
     0
  9
$VISRETAIN
 70
     1
  9
$PLINEGEN
 70
     0
  9
$PSLTSCALE
 70
     1
  9
$TREEDEPTH
 70
  3020
  9
$CMLSTYLE
  2
Standard
  9
$CMLJUST
 70
     0
  9
$CMLSCALE
 40
20.0
  9
$PROXYGRAPHICS
 70
     1
  9
$MEASUREMENT
 70
     1
  9
$CELWEIGHT
370
    -1
  9
$ENDCAPS
280
     0
  9
$JOINSTYLE
280
     0
  9
$LWDISPLAY
290
     0
  9
$INSUNITS
 70
     4
  9
$HYPERLINKBASE
  1

  9
$STYLESHEET
  1

  9
$XEDIT
290
     1
  9
$CEPSNTYPE
380
     0
  9
$PSTYLEMODE
290
     1
  9
$FINGERPRINTGUID
  2
{B16EF115-4B59-4EF6-9149-C4568FDF30DA}
  9
$VERSIONGUID
  2
{FAEB1C32-E019-11D5-929B-00C0DF256EC4}
  9
$EXTNAMES
290
     1
  9
$PSVPSCALE
 40
0.0
  9
$OLESTARTUP
290
     0
  9
$SORTENTS
280
   127
  9
$INDEXCTL
280
     0
  9
$HIDETEXT
280
     1
  9
$XCLIPFRAME
290
     0
  9
$HALOGAP
280
     0
  9
$OBSCOLOR
 70
   257
  9
$OBSLTYPE
280
     0
  9
$INTERSECTIONDISPLAY
280
     0
  9
$INTERSECTIONCOLOR
 70
   257
  9
$DIMASSOC
280
     2
  9
$PROJECTNAME
  1

  0
ENDSEC
  0
SECTION
  2
CLASSES
  0
CLASS
  1
ACDBDICTIONARYWDFLT
  2
AcDbDictionaryWithDefault
  3
ObjectDBX Classes
 90
        0
 91
        4
280
     0
281
     0
  0
CLASS
  1
VISUALSTYLE
  2
AcDbVisualStyle
  3
ObjectDBX Classes
 90
     4095
 91
        4
280
     0
281
     0
  0
ENDSEC
  0
SECTION
  2
TABLES
  0
TABLE
  2
VPORT
  5
8
330
0
100
AcDbSymbolTable
 70
     1
  0
VPORT
  5
29
330
8
100
AcDbSymbolTableRecord
100
AcDbViewportTableRecord
  2
*Active
 70
     0
 10
0.0
 20
0.0
 11
1.0
 21
1.0
 12
0.0
 22
0.0
 13
0.0
 23
0.0
 14
10.0
 24
10.0
 15
10.0
 25
10.0
 16
0.0
 26
0.0
 36
1.0
 17
0.0
 27
0.0
 37
0.0
 40
3267.0
 41
1.414141414141414
 42
50.0
 43
0.0
 44
0.0
 50
0.0
 51
0.0
 71
     0
 72
 10000
 73
     1
 74
     3
 75
     0
 76
     0
 77
     0
 78
     0
281
     0
 65
     1
110
0.0
120
0.0
130
0.0
111
1.0
121
0.0
131
0.0
112
0.0
122
1.0
132
0.0
 79
     0
146
0.0
  0
ENDTAB
  0
TABLE
  2
LTYPE
  5
5
330
0
100
AcDbSymbolTable
 70
     4
  0
LTYPE
  5
14
330
5
100
AcDbSymbolTableRecord
100
AcDbLinetypeTableRecord
  2
ByBlock
 70
     0
  3

 72
    65
 73
     0
 40
0.0
  0
LTYPE
  5
15
330
5
100
AcDbSymbolTableRecord
100
AcDbLinetypeTableRecord
  2
ByLayer
 70
     0
  3

 72
    65
 73
     0
 40
0.0
  0
LTYPE
  5
16
330
5
100
AcDbSymbolTableRecord
100
AcDbLinetypeTableRecord
  2
Continuous
 70
     0
  3
Solid line
 72
    65
 73
     0
 40
0.0
  0
LTYPE
  5
3C
330
5
100
AcDbSymbolTableRecord
100
AcDbLinetypeTableRecord
  2
JWW_CENTER1
 70
     0
  3
-----  --  ----------  --  -----
 72
    65
 73
     4
 40
6.773333333333333
 49
4.233333333333333
 74
     0
 49
-0.8466666666666667
 74
     0
 49
0.8466666666666667
 74
     0
 49
-0.8466666666666667
 74
     0
  0
LTYPE
  5
3D
330
5
100
AcDbSymbolTableRecord
100
AcDbLinetypeTableRecord
  2
JWW_HOJO
 70
     0
  3
  -   -   -   -   -   -   -   - 
 72
    65
 73
     2
 40
1.693333333333333
 49
-1.27
 74
     0
 49
0.4233333333333333
 74
     0
  0
LTYPE
  5
3E
330
5
100
AcDbSymbolTableRecord
100
AcDbLinetypeTableRecord
  2
JWW_DASHED1
 70
     0
  3
-  --  --  --  --  --  --  --  -
 72
    65
 73
     2
 40
1.693333333333333
 49
0.8466666666666667
 74
     0
 49
-0.8466666666666667
 74
     0
  0
ENDTAB
  0
TABLE
  2
LAYER
  5
2
330
0
100
AcDbSymbolTable
 70
     9
  0
LAYER
  5
10
330
2
100
AcDbSymbolTableRecord
100
AcDbLayerTableRecord
  2
0
 70
     0
 62
     7
  6
Continuous
370
    -3
390
F
  0
LAYER
  5
3F
330
2
100
AcDbSymbolTableRecord
100
AcDbLayerTableRecord
  2
1-2
 70
     0
 62
     7
  6
Continuous
370
    -3
390
F
  0
LAYER
  5
40
330
2
100
AcDbSymbolTableRecord
100
AcDbLayerTableRecord
  2
F-4
 70
     0
 62
     7
  6
Continuous
370
    -3
390
F
  0
LAYER
  5
41
330
2
100
AcDbSymbolTableRecord
100
AcDbLayerTableRecord
  2
F-D
 70
     0
 62
     7
  6
Continuous
370
    -3
390
F
  0
LAYER
  5
42
330
2
100
AcDbSymbolTableRecord
100
AcDbLayerTableRecord
  2
1-1
 70
     0
 62
     7
  6
Continuous
370
    -3
390
F
  0
LAYER
  5
43
330
2
100
AcDbSymbolTableRecord
100
AcDbLayerTableRecord
  2
1-5
 70
     0
 62
     7
  6
Continuous
370
    -3
390
F
  0
LAYER
  5
44
330
2
100
AcDbSymbolTableRecord
100
AcDbLayerTableRecord
  2
1-3
 70
     0
 62
     7
  6
Continuous
370
    -3
390
F
  0
LAYER
  5
45
330
2
100
AcDbSymbolTableRecord
100
AcDbLayerTableRecord
  2
1-4
 70
     0
 62
     7
  6
Continuous
370
    -3
390
F
  0
LAYER
  5
46
330
2
100
AcDbSymbolTableRecord
100
AcDbLayerTableRecord
  2
F-5
 70
     0
 62
     7
  6
Continuous
370
    -3
390
F
  0
ENDTAB
  0
TABLE
  2
STYLE
  5
3
330
0
100
AcDbSymbolTable
 70
     2
  0
STYLE
  5
11
330
3
100
AcDbSymbolTableRecord
100
AcDbTextStyleTableRecord
  2
Standard
 70
     0
 40
0.0
 41
1.0
 50
0.0
 71
     0
 42
2.5
  3
txt
  4

1001
ACAD
1000

1071
        0
  0
STYLE
  5
3B
330
3
100
AcDbSymbolTableRecord
100
AcDbTextStyleTableRecord
  2
ＭＳ ゴシック
 70
     0
 40
1.0
 41
1.0
 50
0.0
 71
     0
 42
10.0
  3

  4

1001
ACAD
1000
MS Gothic
1071
    32817
  0
ENDTAB
  0
TABLE
  2
VIEW
  5
6
330
0
100
AcDbSymbolTable
 70
     0
  0
ENDTAB
  0
TABLE
  2
UCS
  5
7
330
0
100
AcDbSymbolTable
 70
     0
  0
ENDTAB
  0
TABLE
  2
APPID
  5
9
330
0
100
AcDbSymbolTable
 70
     1
  0
APPID
  5
12
330
9
100
AcDbSymbolTableRecord
100
AcDbRegAppTableRecord
  2
ACAD
 70
     0
  0
ENDTAB
  0
TABLE
  2
DIMSTYLE
  5
A
330
0
100
AcDbSymbolTable
 70
     1
100
AcDbDimStyleTable
  0
DIMSTYLE
105
27
330
A
100
AcDbSymbolTableRecord
100
AcDbDimStyleTableRecord
  2
ISO-25
 70
     0
 41
2.5
 42
0.625
 43
3.75
 44
1.25
 73
     0
 74
     0
 77
     1
 78
     8
140
2.5
141
2.5
143
0.03937007874016
147
0.625
171
     3
172
     1
271
     2
272
     2
274
     3
278
    44
283
     0
284
     8
340
11
  0
ENDTAB
  0
TABLE
  2
BLOCK_RECORD
  5
1
330
0
100
AcDbSymbolTable
 70
     1
  0
BLOCK_RECORD
  5
1F
330
1
100
AcDbSymbolTableRecord
100
AcDbBlockTableRecord
  2
*Model_Space
340
22
  0
BLOCK_RECORD
  5
1B
330
1
100
AcDbSymbolTableRecord
100
AcDbBlockTableRecord
  2
*Paper_Space
340
1E
  0
BLOCK_RECORD
  5
23
330
1
100
AcDbSymbolTableRecord
100
AcDbBlockTableRecord
  2
*Paper_Space0
340
26
  0
ENDTAB
  0
ENDSEC
  0
SECTION
  2
BLOCKS
  0
BLOCK
  5
20
330
1F
100
AcDbEntity
  8
0
100
AcDbBlockBegin
  2
*Model_Space
 70
     0
 10
0.0
 20
0.0
 30
0.0
  3
*Model_Space
  1

  0
ENDBLK
  5
21
330
1F
100
AcDbEntity
  8
0
100
AcDbBlockEnd
  0
BLOCK
  5
1C
330
1B
100
AcDbEntity
 67
     1
  8
0
100
AcDbBlockBegin
  2
*Paper_Space
 70
     0
 10
0.0
 20
0.0
 30
0.0
  3
*Paper_Space
  1

  0
ENDBLK
  5
1D
330
1B
100
AcDbEntity
 67
     1
  8
0
100
AcDbBlockEnd
  0
BLOCK
  5
24
330
23
100
AcDbEntity
  8
0
100
AcDbBlockBegin
  2
*Paper_Space0
 70
     0
 10
0.0
 20
0.0
 30
0.0
  3
*Paper_Space0
  1

  0
ENDBLK
  5
25
330
23
100
AcDbEntity
  8
0
100
AcDbBlockEnd
  0
ENDSEC
  0
SECTION
  2
ENTITIES
  0
LINE
  5
47
330
1F
100
AcDbEntity
  8
1-2
  6
Continuous
 62
     3
370
    13
100
AcDbLine
 10
272.6757152660474
 20
830.1603080130915
 30
0.0
 11
275.6756756756758
 21
829.137886665963
 31
0.0
  0
LINE
  5
48
330
1F
100
AcDbEntity
  8
1-2
  6
Continuous
 62
     3
370
    13
100
AcDbLine
 10
275.6756756756758
 20
829.137886665963
 30
0.0
 11
275.6756756756758
 21
818.9116936760981
 31
0.0
  0
LINE
  5
49
330
1F
100
AcDbEntity
  8
1-2
  6
Continuous
 62
     3
370
    13
100
AcDbLine
 10
272.6757152660474
 20
817.8887774493245
 30
0.0
 11
275.6756756756758
 21
818.9116936760981
 31
0.0
  0
LINE
  5
4A
330
1F
100
AcDbEntity
  8
1-2
  6
Continuous
 62
     3
370
    13
100
AcDbLine
 10
272.6757152660474
 20
817.8887774493245
 30
0.0
 11
272.6757152660474
 21
804.7937671558279
 31
0.0
  0
LINE
  5
4B
330
1F
100
AcDbEntity
  8
1-2
  6
Continuous
 62
     3
370
    13
100
AcDbLine
 10
272.6757152660474
 20
804.7937671558279
 30
0.0
 11
275.6756756756758
 21
803.7718406883448
 31
0.0
  0
LINE
  5
4C
330
1F
100
AcDbEntity
  8
1-2
  6
Continuous
 62
     3
370
    13
100
AcDbLine
 10
272.6757152660474
 20
792.522236592061
 30
0.0
 11
272.6757152660474
 21
783.7079352301521
 31
0.0
  0
LINE
  5
4D
330
1F
100
AcDbEntity
  8
1-2
  6
Continuous
 62
     3
370
    13
100
AcDbLine
 10
272.6757152660474
 20
783.7079352301521
 30
0.0
 11
275.6756756756758
 21
782.6850190033783
 31
0.0
  0
LINE
  5
4E
330
1F
100
AcDbEntity
  8
1-2
  6
Continuous
 62
     3
370
    13
100
AcDbLine
 10
272.6757152660474
 20
792.522236592061
 30
0.0
 11
275.6756756756758
 21
793.5451528188346
 31
0.0
  0
LINE
  5
4F
330
1F
100
AcDbEntity
  8
1-2
  6
Continuous
 62
     3
370
    13
100
AcDbLine
 10
275.6756756756758
 20
782.6850190033783
 30
0.0
 11
275.6756756756758
 21
772.4588260135135
 31
0.0
  0
LINE
  5
50
330
1F
100
AcDbEntity
  8
1-2
  6
Continuous
 62
     3
370
    13
100
AcDbLine
 10
272.6757152660474
 20
771.4359097867401
 30
0.0
 11
275.6756756756758
 21
772.4588260135135
 31
0.0
  0
LINE
  5
51
330
1F
100
AcDbEntity
  8
1-2
  6
Continuous
 62
     3
370
    13
100
AcDbLine
 10
272.6757152660474
 20
771.4359097867401
 30
0.0
 11
272.6757152660474
 21
758.3413943728885
 31
0.0
  0
LINE
  5
52
330
1F
100
AcDbEntity
  8
1-2
  6
Continuous
 62
     3
370
    13
100
AcDbLine
 10
272.6757152660474
 20
758.3413943728885
 30
0.0
 11
275.6756756756758
 21
757.3184781461151
 31
0.0
  0
LINE
  5
53
330
1F
100
AcDbEntity
  8
1-2
  6
Continuous
 62
     3
370
    13
100
AcDbLine
 10
272.6757152660474
 20
746.0698638091217
 30
0.0
 11
272.6757152660474
 21
737.2545726879224
 31
0.0
  0
LINE
  5
54
330
1F
100
AcDbEntity
  8
1-2
  6
Continuous
 62
     3
370
    13
100
AcDbLine
 10
272.6757152660474
 20
737.2545726879224
 30
0.0
 11
275.6756756756758
 21
736.232151340794
 31
0.0
  0
LINE
  5
55
330
1F
100
AcDbEntity
  8
1-2
  6
Continuous
 62
     3
370
    13
100
AcDbLine
 10
272.6757152660474
 20
746.0698638091217
 30
0.0
 11
275.6756756756758
 21
747.09228515625
 31
0.0
  0
LINE
  5
56
330
1F
100
AcDbEntity
  8
1-2
  6
Continuous
 62
     3
370
    13
100
AcDbLine
 10
275.6756756756758
 20
757.3184781461151
 30
0.0
 11
275.6756756756758
 21
747.09228515625
 31
0.0
  0
LINE
  5
57
330
1F
100
AcDbEntity
  8
1-2
  6
Continuous
 62
     3
370
    13
100
AcDbLine
 10
275.6756756756758
 20
736.232151340794
 30
0.0
 11
275.6756756756758
 21
726.0059583509292
 31
0.0
  0
LINE
  5
58
330
1F
100
AcDbEntity
  8
1-2
  6
Continuous
 62
     3
370
    13
100
AcDbLine
 10
272.6757152660474
 20
724.9830421241554
 30
0.0
 11
275.6756756756758
 21
726.0059583509292
 31
0.0
  0
LINE
  5
59
330
1F
100
AcDbEntity
  8
1-2
  6
Continuous
 62
     3
370
    13
100
AcDbLine
 10
272.6757152660474
 20
724.9830421241554
 30
0.0
 11
272.6757152660474
 21
711.8885267103042
 31
0.0
  0
LINE
  5
5A
330
1F
100
AcDbEntity
  8
1-2
  6
Continuous
 62
     3
370
    13
100
AcDbLine
 10
272.6757152660474
 20
711.8885267103042
 30
0.0
 11
275.6756756756758
 21
710.8661053631758
 31
0.0
  0
LINE
  5
5B
330
1F
100
AcDbEntity
  8
1-2
  6
Continuous
 62
     3
370
    13
100
AcDbLine
 10
272.6757152660474
 20
699.6165012668919
 30
0.0
 11
272.6757152660474
 21
690.8021999049834
 31
0.0
  0
LINE
  5
5C
330
1F
100
AcDbEntity
  8
1-2
  6
Continuous
 62
     3
370
    13
100
AcDbLine
 10
272.6757152660474
 20
690.8021999049834
 30
0.0
 11
275.6756756756758
 21
689.7792836782096
 31
0.0
  0
LINE
  5
5D
330
1F
100
AcDbEntity
  8
1-2
  6
Continuous
 62
     3
370
    13
100
AcDbLine
 10
272.6757152660474
 20
699.6165012668919
 30
0.0
 11
275.6756756756758
 21
700.6394174936656
 31
0.0
  0
LINE
  5
5E
330
1F
100
AcDbEntity
  8
1-2
  6
Continuous
 62
     3
370
    13
100
AcDbLine
 10
275.6756756756758
 20
710.8661053631758
 30
0.0
 11
275.6756756756758
 21
700.6394174936656
 31
0.0
  0
LINE
  5
5F
330
1F
100
AcDbEntity
  8
1-2
  6
Continuous
 62
     3
370
    13
100
AcDbLine
 10
275.6756756756758
 20
689.7792836782096
 30
0.0
 11
275.6756756756758
 21
679.5530906883448
 31
0.0
  0
LINE
  5
60
330
1F
100
AcDbEntity
  8
1-2
  6
Continuous
 62
     3
370
    13
100
AcDbLine
 10
272.6757152660474
 20
678.5296795819258
 30
0.0
 11
275.6756756756758
 21
679.5530906883448
 31
0.0
  0
LINE
  5
61
330
1F
100
AcDbEntity
  8
1-2
  6
Continuous
 62
     3
370
    13
100
AcDbLine
 10
272.6757152660474
 20
678.5296795819258
 30
0.0
 11
272.6757152660474
 21
665.4356590477198
 31
0.0
  0
LINE
  5
62
330
1F
100
AcDbEntity
  8
1-2
  6
Continuous
 62
     3
370
    13
100
AcDbLine
 10
272.6757152660474
 20
665.4356590477198
 30
0.0
 11
275.6756756756758
 21
664.412742820946
 31
0.0
  0
LINE
  5
63
330
1F
100
AcDbEntity
  8
1-2
  6
Continuous
 62
     3
370
    13
100
AcDbLine
 10
272.6757152660474
 20
653.1641284839529
 30
0.0
 11
272.6757152660474
 21
644.3493322423988
 31
0.0
  0
LINE
  5
64
330
1F
100
AcDbEntity
  8
1-2
  6
Continuous
 62
     3
370
    13
100
AcDbLine
 10
272.6757152660474
 20
644.3493322423988
 30
0.0
 11
275.6756756756758
 21
643.326416015625
 31
0.0
  0
LINE
  5
65
330
1F
100
AcDbEntity
  8
1-2
  6
Continuous
 62
     3
370
    13
100
AcDbLine
 10
272.6757152660474
 20
653.1641284839529
 30
0.0
 11
275.6756756756758
 21
654.1865498310813
 31
0.0
  0
LINE
  5
66
330
1F
100
AcDbEntity
  8
1-2
  6
Continuous
 62
     3
370
    13
100
AcDbLine
 10
275.6756756756758
 20
664.412742820946
 30
0.0
 11
275.6756756756758
 21
654.1865498310813
 31
0.0
  0
LINE
  5
67
330
1F
100
AcDbEntity
  8
1-2
  6
Continuous
 62
     3
370
    13
100
AcDbLine
 10
275.6756756756758
 20
643.326416015625
 30
0.0
 11
275.6756756756758
 21
633.0997281461148
 31
0.0
  0
LINE
  5
68
330
1F
100
AcDbEntity
  8
1-2
  6
Continuous
 62
     3
370
    13
100
AcDbLine
 10
272.6757152660474
 20
632.0773067989867
 30
0.0
 11
275.6756756756758
 21
633.0997281461148
 31
0.0
  0
LINE
  5
69
330
1F
100
AcDbEntity
  8
1-2
  6
Continuous
 62
     3
370
    13
100
AcDbLine
 10
272.6757152660474
 20
632.0773067989867
 30
0.0
 11
272.6757152660474
 21
618.9827913851352
 31
0.0
  0
LINE
  5
6A
330
1F
100
AcDbEntity
  8
1-2
  6
Continuous
 62
     3
370
    13
100
AcDbLine
 10
272.6757152660474
 20
618.9827913851352
 30
0.0
 11
275.6756756756758
 21
617.9603700380068
 31
0.0
  0
LINE
  5
6B
330
1F
100
AcDbEntity
  8
1-2
  6
Continuous
 62
     3
370
    13
100
AcDbLine
 10
275.6756756756758
 20
617.9603700380068
 30
0.0
 11
275.6756756756758
 21
607.7336821684967
 31
0.0
  0
LINE
  5
6C
330
1F
100
AcDbEntity
  8
1-2
  6
Continuous
 62
     3
370
    13
100
AcDbLine
 10
272.6757152660474
 20
606.7107659417231
 30
0.0
 11
272.6757152660474
 21
597.8964645798144
 31
0.0
  0
LINE
  5
6D
330
1F
100
AcDbEntity
  8
1-2
  6
Continuous
 62
     3
370
    13
100
AcDbLine
 10
272.6757152660474
 20
597.8964645798144
 30
0.0
 11
275.6756756756758
 21
596.8735483530406
 31
0.0
  0
LINE
  5
6E
330
1F
100
AcDbEntity
  8
1-2
  6
Continuous
 62
     3
370
    13
100
AcDbLine
 10
272.6757152660474
 20
606.7107659417231
 30
0.0
 11
275.6756756756758
 21
607.7336821684967
 31
0.0
  0
LINE
  5
6F
330
1F
100
AcDbEntity
  8
1-2
  6
Continuous
 62
     3
370
    13
100
AcDbLine
 10
275.6756756756758
 20
596.8735483530406
 30
0.0
 11
275.6756756756758
 21
586.6473553631758
 31
0.0
  0
LINE
  5
70
330
1F
100
AcDbEntity
  8
1-2
  6
Continuous
 62
     3
370
    13
100
AcDbLine
 10
272.6757152660474
 20
585.6244391364021
 30
0.0
 11
275.6756756756758
 21
586.6473553631758
 31
0.0
  0
LINE
  5
71
330
1F
100
AcDbEntity
  8
1-2
  6
Continuous
 62
     3
370
    13
100
AcDbLine
 10
272.6757152660474
 20
585.6244391364021
 30
0.0
 11
272.6757152660474
 21
572.5299237225508
 31
0.0
  0
LINE
  5
72
330
1F
100
AcDbEntity
  8
1-2
  6
Continuous
 62
     3
370
    13
100
AcDbLine
 10
272.6757152660474
 20
572.5299237225508
 30
0.0
 11
275.6756756756758
 21
571.5070074957771
 31
0.0
  0
LINE
  5
73
330
1F
100
AcDbEntity
  8
1-2
  6
Continuous
 62
     3
370
    13
100
AcDbLine
 10
275.6756756756758
 20
571.5070074957771
 30
0.0
 11
275.6756756756758
 21
561.2808145059123
 31
0.0
  0
LINE
  5
74
330
1F
100
AcDbEntity
  8
1-2
  6
Continuous
 62
     3
370
    13
100
AcDbLine
 10
272.6757152660474
 20
560.2583931587839
 30
0.0
 11
272.6757152660474
 21
551.44359691723
 31
0.0
  0
LINE
  5
75
330
1F
100
AcDbEntity
  8
1-2
  6
Continuous
 62
     3
370
    13
100
AcDbLine
 10
272.6757152660474
 20
551.44359691723
 30
0.0
 11
275.6756756756758
 21
550.4206806904563
 31
0.0
  0
LINE
  5
76
330
1F
100
AcDbEntity
  8
1-2
  6
Continuous
 62
     3
370
    13
100
AcDbLine
 10
272.6757152660474
 20
560.2583931587839
 30
0.0
 11
275.6756756756758
 21
561.2808145059123
 31
0.0
  0
LINE
  5
77
330
1F
100
AcDbEntity
  8
1-2
  6
Continuous
 62
     3
370
    13
100
AcDbLine
 10
275.6756756756758
 20
550.4206806904563
 30
0.0
 11
275.6756756756758
 21
540.1944877005915
 31
0.0
  0
LINE
  5
78
330
1F
100
AcDbEntity
  8
1-2
  6
Continuous
 62
     3
370
    13
100
AcDbLine
 10
272.6757152660474
 20
539.1715714738177
 30
0.0
 11
275.6756756756758
 21
540.1944877005915
 31
0.0
  0
LINE
  5
79
330
1F
100
AcDbEntity
  8
1-2
  6
Continuous
 62
     3
370
    13
100
AcDbLine
 10
272.6757152660474
 20
539.1715714738177
 30
0.0
 11
272.6757152660474
 21
526.0770560599665
 31
0.0
  0
LINE
  5
7A
330
1F
100
AcDbEntity
  8
1-2
  6
Continuous
 62
     3
370
    13
100
AcDbLine
 10
272.6757152660474
 20
526.0770560599665
 30
0.0
 11
275.6756756756758
 21
525.054634712838
 31
0.0
  0
LINE
  5
7B
330
1F
100
AcDbEntity
  8
1-2
  6
Continuous
 62
     3
370
    13
100
AcDbLine
 10
275.6756756756758
 20
525.054634712838
 30
0.0
 11
275.6756756756758
 21
514.8279468433279
 31
0.0
  0
LINE
  5
7C
330
1F
100
AcDbEntity
  8
1-2
  6
Continuous
 62
     3
370
    13
100
AcDbLine
 10
272.6757152660474
 20
513.8050306165542
 30
0.0
 11
272.6757152660474
 21
504.9907292546453
 31
0.0
  0
LINE
  5
7D
330
1F
100
AcDbEntity
  8
1-2
  6
Continuous
 62
     3
370
    13
100
AcDbLine
 10
272.6757152660474
 20
504.9907292546453
 30
0.0
 11
275.6756756756758
 21
503.9678130278716
 31
0.0
  0
LINE
  5
7E
330
1F
100
AcDbEntity
  8
1-2
  6
Continuous
 62
     3
370
    13
100
AcDbLine
 10
272.6757152660474
 20
513.8050306165542
 30
0.0
 11
275.6756756756758
 21
514.8279468433279
 31
0.0
  0
LINE
  5
7F
330
1F
100
AcDbEntity
  8
1-2
  6
Continuous
 62
     3
370
    13
100
AcDbLine
 10
275.6756756756758
 20
503.9678130278716
 30
0.0
 11
275.6756756756758
 21
493.7417437579182
 31
0.0
  0
LINE
  5
80
330
1F
100
AcDbEntity
  8
1-2
  6
Continuous
 62
     3
370
    13
100
AcDbLine
 10
272.6757152660474
 20
492.7185800913219
 30
0.0
 11
275.6756756756758
 21
493.7417437579182
 31
0.0
  0
LINE
  5
81
330
1F
100
AcDbEntity
  8
1-2
  6
Continuous
 62
     3
370
    13
100
AcDbLine
 10
272.6757152660474
 20
492.7185800913219
 30
0.0
 11
272.6757152660474
 21
479.6240646774706
 31
0.0
  0
LINE
  5
82
330
1F
100
AcDbEntity
  8
1-2
  6
Continuous
 62
     3
370
    13
100
AcDbLine
 10
272.6757152660474
 20
479.6240646774706
 30
0.0
 11
275.6756756756758
 21
478.6013958905195
 31
0.0
  0
LINE
  5
83
330
1F
100
AcDbEntity
  8
1-2
  6
Continuous
 62
     3
370
    13
100
AcDbLine
 10
275.6756756756758
 20
478.6013958905195
 30
0.0
 11
275.6756756756758
 21
468.3752029006547
 31
0.0
  0
LINE
  5
84
330
1F
100
AcDbEntity
  8
1-2
  6
Continuous
 62
     3
370
    13
100
AcDbLine
 10
272.6757152660474
 20
467.3525341137037
 30
0.0
 11
272.6757152660474
 21
458.5379853119721
 31
0.0
  0
LINE
  5
85
330
1F
100
AcDbEntity
  8
1-2
  6
Continuous
 62
     3
370
    13
100
AcDbLine
 10
272.6757152660474
 20
458.5379853119721
 30
0.0
 11
275.6756756756758
 21
457.5148216453761
 31
0.0
  0
LINE
  5
86
330
1F
100
AcDbEntity
  8
1-2
  6
Continuous
 62
     3
370
    13
100
AcDbLine
 10
272.6757152660474
 20
467.3525341137037
 30
0.0
 11
275.6756756756758
 21
468.3752029006547
 31
0.0
  0
LINE
  5
87
330
1F
100
AcDbEntity
  8
1-2
  6
Continuous
 62
     3
370
    13
100
AcDbLine
 10
275.6756756756758
 20
457.5148216453761
 30
0.0
 11
275.6756756756758
 21
447.2886286555112
 31
0.0
  0
LINE
  5
88
330
1F
100
AcDbEntity
  8
1-2
  6
Continuous
 62
     3
370
    13
100
AcDbLine
 10
272.6757152660474
 20
446.2659598685602
 30
0.0
 11
275.6756756756758
 21
447.2886286555112
 31
0.0
  0
LINE
  5
89
330
1F
100
AcDbEntity
  8
1-2
  6
Continuous
 62
     3
370
    13
100
AcDbLine
 10
272.6757152660474
 20
446.2659598685602
 30
0.0
 11
272.6757152660474
 21
433.1714444547086
 31
0.0
  0
LINE
  5
8A
330
1F
100
AcDbEntity
  8
1-2
  6
Continuous
 62
     3
370
    13
100
AcDbLine
 10
272.6757152660474
 20
433.1714444547086
 30
0.0
 11
275.6756756756758
 21
432.1487756677578
 31
0.0
  0
LINE
  5
8B
330
1F
100
AcDbEntity
  8
1-2
  6
Continuous
 62
     3
370
    13
100
AcDbLine
 10
275.6756756756758
 20
432.1487756677578
 30
0.0
 11
275.6756756756758
 21
421.9220877982477
 31
0.0
  0
LINE
  5
8C
330
1F
100
AcDbEntity
  8
1-2
  6
Continuous
 62
     3
370
    13
100
AcDbLine
 10
272.6757152660474
 20
420.8994190112966
 30
0.0
 11
272.6757152660474
 21
412.0848702095651
 31
0.0
  0
LINE
  5
8D
330
1F
100
AcDbEntity
  8
1-2
  6
Continuous
 62
     3
370
    13
100
AcDbLine
 10
272.6757152660474
 20
412.0848702095651
 30
0.0
 11
275.6756756756758
 21
411.0622014226141
 31
0.0
  0
LINE
  5
8E
330
1F
100
AcDbEntity
  8
1-2
  6
Continuous
 62
     3
370
    13
100
AcDbLine
 10
272.6757152660474
 20
420.8994190112966
 30
0.0
 11
275.6756756756758
 21
421.9220877982477
 31
0.0
  0
LINE
  5
8F
330
1F
100
AcDbEntity
  8
1-2
  6
Continuous
 62
     3
370
    13
100
AcDbLine
 10
275.6756756756758
 20
411.0622014226141
 30
0.0
 11
275.6756756756758
 21
400.8360084327492
 31
0.0
  0
LINE
  5
90
330
1F
100
AcDbEntity
  8
1-2
  6
Continuous
 62
     3
370
    13
100
AcDbLine
 10
272.6757152660474
 20
399.8128447661529
 30
0.0
 11
275.6756756756758
 21
400.8360084327492
 31
0.0
  0
LINE
  5
91
330
1F
100
AcDbEntity
  8
1-2
  6
Continuous
 62
     3
370
    13
100
AcDbLine
 10
272.6757152660474
 20
399.8128447661529
 30
0.0
 11
272.6757152660474
 21
386.7183293523016
 31
0.0
  0
LINE
  5
92
330
1F
100
AcDbEntity
  8
1-2
  6
Continuous
 62
     3
370
    13
100
AcDbLine
 10
272.6757152660474
 20
386.7183293523016
 30
0.0
 11
275.6756756756758
 21
385.6956605653505
 31
0.0
  0
LINE
  5
93
330
1F
100
AcDbEntity
  8
1-2
  6
Continuous
 62
     3
370
    13
100
AcDbLine
 10
275.6756756756758
 20
385.6956605653505
 30
0.0
 11
275.6756756756758
 21
375.4694675754857
 31
0.0
  0
LINE
  5
94
330
1F
100
AcDbEntity
  8
1-2
  6
Continuous
 62
     3
370
    13
100
AcDbLine
 10
272.6757152660474
 20
374.4467987885346
 30
0.0
 11
272.6757152660474
 21
365.6322499868034
 31
0.0
  0
LINE
  5
95
330
1F
100
AcDbEntity
  8
1-2
  6
Continuous
 62
     3
370
    13
100
AcDbLine
 10
272.6757152660474
 20
365.6322499868034
 30
0.0
 11
275.6756756756758
 21
364.609086320207
 31
0.0
  0
LINE
  5
96
330
1F
100
AcDbEntity
  8
1-2
  6
Continuous
 62
     3
370
    13
100
AcDbLine
 10
272.6757152660474
 20
374.4467987885346
 30
0.0
 11
275.6756756756758
 21
375.4694675754857
 31
0.0
  0
LINE
  5
97
330
1F
100
AcDbEntity
  8
1-2
  6
Continuous
 62
     3
370
    13
100
AcDbLine
 10
275.6756756756758
 20
364.609086320207
 30
0.0
 11
275.6756756756758
 21
354.3828933303422
 31
0.0
  0
LINE
  5
98
330
1F
100
AcDbEntity
  8
1-2
  6
Continuous
 62
     3
370
    13
100
AcDbLine
 10
272.6757152660474
 20
353.3602245433912
 30
0.0
 11
275.6756756756758
 21
354.3828933303422
 31
0.0
  0
LINE
  5
99
330
1F
100
AcDbEntity
  8
1-2
  6
Continuous
 62
     3
370
    13
100
AcDbLine
 10
272.6757152660474
 20
353.3602245433912
 30
0.0
 11
272.6757152660474
 21
340.2657091295399
 31
0.0
  0
LINE
  5
9A
330
1F
100
AcDbEntity
  8
1-2
  6
Continuous
 62
     3
370
    13
100
AcDbLine
 10
272.6757152660474
 20
340.2657091295399
 30
0.0
 11
275.6756756756758
 21
339.2430403425888
 31
0.0
  0
LINE
  5
9B
330
1F
100
AcDbEntity
  8
1-2
  6
Continuous
 62
     3
370
    13
100
AcDbLine
 10
275.6756756756758
 20
339.2430403425888
 30
0.0
 11
275.6756756756758
 21
329.0163524730787
 31
0.0
  0
LINE
  5
9C
330
1F
100
AcDbEntity
  8
1-2
  6
Continuous
 62
     3
370
    13
100
AcDbLine
 10
272.6757152660474
 20
327.9936836861276
 30
0.0
 11
272.6757152660474
 21
319.1791348843961
 31
0.0
  0
LINE
  5
9D
330
1F
100
AcDbEntity
  8
1-2
  6
Continuous
 62
     3
370
    13
100
AcDbLine
 10
272.6757152660474
 20
319.1791348843961
 30
0.0
 11
275.6756756756758
 21
318.1564660974453
 31
0.0
  0
LINE
  5
9E
330
1F
100
AcDbEntity
  8
1-2
  6
Continuous
 62
     3
370
    13
100
AcDbLine
 10
272.6757152660474
 20
327.9936836861276
 30
0.0
 11
275.6756756756758
 21
329.0163524730787
 31
0.0
  0
LINE
  5
9F
330
1F
100
AcDbEntity
  8
1-2
  6
Continuous
 62
     3
370
    13
100
AcDbLine
 10
275.6756756756758
 20
318.1564660974453
 30
0.0
 11
275.6756756756758
 21
307.9302731075802
 31
0.0
  0
LINE
  5
A0
330
1F
100
AcDbEntity
  8
1-2
  6
Continuous
 62
     3
370
    13
100
AcDbLine
 10
272.6757152660474
 20
306.9071094409841
 30
0.0
 11
275.6756756756758
 21
307.9302731075802
 31
0.0
  0
LINE
  5
A1
330
1F
100
AcDbEntity
  8
1-2
  6
Continuous
 62
     3
370
    13
100
AcDbLine
 10
272.6757152660474
 20
306.9071094409841
 30
0.0
 11
272.6757152660474
 21
293.8125940271328
 31
0.0
  0
LINE
  5
A2
330
1F
100
AcDbEntity
  8
1-2
  6
Continuous
 62
     3
370
    13
100
AcDbLine
 10
272.6757152660474
 20
293.8125940271328
 30
0.0
 11
275.6756756756758
 21
292.7899252401818
 31
0.0
  0
LINE
  5
A3
330
1F
100
AcDbEntity
  8
1-2
  6
Continuous
 62
     3
370
    13
100
AcDbLine
 10
275.6756756756758
 20
292.7899252401818
 30
0.0
 11
275.6756756756758
 21
282.5636085304055
 31
0.0
  0
LINE
  5
A4
330
1F
100
AcDbEntity
  8
1-2
  6
Continuous
 62
     3
370
    13
100
AcDbLine
 10
272.6757152660474
 20
281.5410634633659
 30
0.0
 11
272.6757152660474
 21
272.7263909417232
 31
0.0
  0
LINE
  5
A5
330
1F
100
AcDbEntity
  8
1-2
  6
Continuous
 62
     3
370
    13
100
AcDbLine
 10
272.6757152660474
 20
272.7263909417232
 30
0.0
 11
275.6756756756758
 21
271.7032272751268
 31
0.0
  0
LINE
  5
A6
330
1F
100
AcDbEntity
  8
1-2
  6
Continuous
 62
     3
370
    13
100
AcDbLine
 10
272.6757152660474
 20
281.5410634633659
 30
0.0
 11
275.6756756756758
 21
282.5636085304055
 31
0.0
  0
LINE
  5
A7
330
1F
100
AcDbEntity
  8
1-2
  6
Continuous
 62
     3
370
    13
100
AcDbLine
 10
275.6756756756758
 20
271.7032272751268
 30
0.0
 11
275.6756756756758
 21
261.477034285262
 31
0.0
  0
LINE
  5
A8
330
1F
100
AcDbEntity
  8
F-4
  6
Continuous
 62
     7
370
    13
100
AcDbLine
 10
-876.6337626689188
 20
786.2268726245779
 30
0.0
 11
-873.9146464579813
 21
806.8816643792231
 31
0.0
  0
LINE
  5
A9
330
1F
100
AcDbEntity
  8
F-4
  6
Continuous
 62
     7
370
    13
100
AcDbLine
 10
-876.6337626689188
 20
786.2268726245779
 30
0.0
 11
-868.6610041437922
 21
805.4739792282519
 31
0.0
  0
LINE
  5
AA
330
1F
100
AcDbEntity
  8
F-4
  6
Continuous
 62
     7
370
    13
100
AcDbLine
 10
-966.5885306693411
 20
844.189156197213
 30
0.0
 11
-963.8694144584036
 21
864.8439479518584
 31
0.0
  0
LINE
  5
AB
330
1F
100
AcDbEntity
  8
F-4
  6
Continuous
 62
     7
370
    13
100
AcDbLine
 10
-966.5885306693411
 20
844.189156197213
 30
0.0
 11
-958.6162670238598
 21
863.4365102407096
 31
0.0
  0
LINE
  5
AC
330
1F
100
AcDbEntity
  8
F-4
  6
Continuous
 62
     7
370
    13
100
AcDbLine
 10
-803.8677731075802
 20
1057.791830526816
 30
0.0
 11
-307.993914629962
 21
1057.791830526816
 31
0.0
  0
LINE
  5
AD
330
1F
100
AcDbEntity
  8
F-4
  6
Continuous
 62
     7
370
    13
100
AcDbLine
 10
-873.8562506598395
 20
1191.125273833404
 30
0.0
 11
-322.5624290672508
 21
1191.125273833404
 31
0.0
  0
LINE
  5
AE
330
1F
100
AcDbEntity
  8
F-4
  6
Continuous
 62
     7
370
    13
100
AcDbLine
 10
-837.4606983081713
 20
1124.45855218011
 30
0.0
 11
-416.1854924382391
 21
1124.45855218011
 31
0.0
  0
LINE
  5
AF
330
1F
100
AcDbEntity
  8
1-2
  6
Continuous
 62
     3
370
    13
100
AcDbLine
 10
272.6757152660474
 20
260.4543654983109
 30
0.0
 11
275.6756756756758
 21
261.477034285262
 31
0.0
  0
LINE
  5
B0
330
1F
100
AcDbEntity
  8
1-2
  6
Continuous
 62
     3
370
    13
100
AcDbLine
 10
272.6757152660474
 20
260.4543654983109
 30
0.0
 11
272.6757152660474
 21
247.3598500844597
 31
0.0
  0
LINE
  5
B1
330
1F
100
AcDbEntity
  8
1-2
  6
Continuous
 62
     3
370
    13
100
AcDbLine
 10
272.6757152660474
 20
247.3598500844597
 30
0.0
 11
275.6756756756758
 21
246.3373050174198
 31
0.0
  0
LINE
  5
B2
330
1F
100
AcDbEntity
  8
1-2
  6
Continuous
 62
     3
370
    13
100
AcDbLine
 10
275.6756756756758
 20
246.3373050174198
 30
0.0
 11
275.6756756756758
 21
236.1104934279984
 31
0.0
  0
LINE
  5
B3
330
1F
100
AcDbEntity
  8
1-2
  6
Continuous
 62
     3
370
    13
100
AcDbLine
 10
272.6757152660474
 20
235.0878246410474
 30
0.0
 11
272.6757152660474
 21
226.2732758393159
 31
0.0
  0
LINE
  5
B4
330
1F
100
AcDbEntity
  8
1-2
  6
Continuous
 62
     3
370
    13
100
AcDbLine
 10
272.6757152660474
 20
226.2732758393159
 30
0.0
 11
275.6756756756758
 21
225.2506070523648
 31
0.0
  0
LINE
  5
B5
330
1F
100
AcDbEntity
  8
1-2
  6
Continuous
 62
     3
370
    13
100
AcDbLine
 10
272.6757152660474
 20
235.0878246410474
 30
0.0
 11
275.6756756756758
 21
236.1104934279984
 31
0.0
  0
LINE
  5
B6
330
1F
100
AcDbEntity
  8
1-2
  6
Continuous
 62
     3
370
    13
100
AcDbLine
 10
275.6756756756758
 20
225.2506070523648
 30
0.0
 11
275.6756756756758
 21
215.0244140625
 31
0.0
  0
LINE
  5
B7
330
1F
100
AcDbEntity
  8
1-2
  6
Continuous
 62
     3
370
    13
100
AcDbLine
 10
272.6757152660474
 20
214.0012503959039
 30
0.0
 11
275.6756756756758
 21
215.0244140625
 31
0.0
  0
LINE
  5
B8
330
1F
100
AcDbEntity
  8
1-2
  6
Continuous
 62
     3
370
    13
100
AcDbLine
 10
272.6757152660474
 20
214.0012503959039
 30
0.0
 11
272.6757152660474
 21
200.9067349820523
 31
0.0
  0
LINE
  5
B9
330
1F
100
AcDbEntity
  8
1-2
  6
Continuous
 62
     3
370
    13
100
AcDbLine
 10
272.6757152660474
 20
200.9067349820523
 30
0.0
 11
275.6756756756758
 21
199.8840661951016
 31
0.0
  0
LINE
  5
BA
330
1F
100
AcDbEntity
  8
1-2
  6
Continuous
 62
     3
370
    13
100
AcDbLine
 10
275.6756756756758
 20
199.8840661951016
 30
0.0
 11
275.6756756756758
 21
189.6578732052365
 31
0.0
  0
LINE
  5
BB
330
1F
100
AcDbEntity
  8
1-2
  6
Continuous
 62
     3
370
    13
100
AcDbLine
 10
272.6757152660474
 20
188.6353281381969
 30
0.0
 11
272.6757152660474
 21
179.8206556165542
 31
0.0
  0
LINE
  5
BC
330
1F
100
AcDbEntity
  8
1-2
  6
Continuous
 62
     3
370
    13
100
AcDbLine
 10
272.6757152660474
 20
179.8206556165542
 30
0.0
 11
275.6756756756758
 21
178.7974919499578
 31
0.0
  0
LINE
  5
BD
330
1F
100
AcDbEntity
  8
1-2
  6
Continuous
 62
     3
370
    13
100
AcDbLine
 10
272.6757152660474
 20
188.6353281381969
 30
0.0
 11
275.6756756756758
 21
189.6578732052365
 31
0.0
  0
LINE
  5
BE
330
1F
100
AcDbEntity
  8
1-2
  6
Continuous
 62
     3
370
    13
100
AcDbLine
 10
275.6756756756758
 20
178.7974919499578
 30
0.0
 11
275.6756756756758
 21
168.571298960093
 31
0.0
  0
LINE
  5
BF
330
1F
100
AcDbEntity
  8
1-2
  6
Continuous
 62
     3
370
    13
100
AcDbLine
 10
272.6757152660474
 20
167.5486301731419
 30
0.0
 11
275.6756756756758
 21
168.571298960093
 31
0.0
  0
LINE
  5
C0
330
1F
100
AcDbEntity
  8
1-2
  6
Continuous
 62
     3
370
    13
100
AcDbLine
 10
272.6757152660474
 20
167.5486301731419
 30
0.0
 11
272.6757152660474
 21
154.4541147592906
 31
0.0
  0
LINE
  5
C1
330
1F
100
AcDbEntity
  8
1-2
  6
Continuous
 62
     3
370
    13
100
AcDbLine
 10
272.6757152660474
 20
154.4541147592906
 30
0.0
 11
275.6756756756758
 21
153.4315696922511
 31
0.0
  0
LINE
  5
C2
330
1F
100
AcDbEntity
  8
1-2
  6
Continuous
 62
     3
370
    13
100
AcDbLine
 10
275.6756756756758
 20
153.4315696922511
 30
0.0
 11
275.6756756756758
 21
143.2047581028294
 31
0.0
  0
LINE
  5
C3
330
1F
100
AcDbEntity
  8
1-2
  6
Continuous
 62
     3
370
    13
100
AcDbLine
 10
272.6757152660474
 20
142.1820893158784
 30
0.0
 11
272.6757152660474
 21
133.3675405141472
 31
0.0
  0
LINE
  5
C4
330
1F
100
AcDbEntity
  8
1-2
  6
Continuous
 62
     3
370
    13
100
AcDbLine
 10
272.6757152660474
 20
133.3675405141472
 30
0.0
 11
275.6756756756758
 21
132.3448717271961
 31
0.0
  0
LINE
  5
C5
330
1F
100
AcDbEntity
  8
1-2
  6
Continuous
 62
     3
370
    13
100
AcDbLine
 10
272.6757152660474
 20
142.1820893158784
 30
0.0
 11
275.6756756756758
 21
143.2047581028294
 31
0.0
  0
LINE
  5
C6
330
1F
100
AcDbEntity
  8
1-2
  6
Continuous
 62
     3
370
    13
100
AcDbLine
 10
275.6756756756758
 20
132.3448717271961
 30
0.0
 11
275.6756756756758
 21
122.1186787373313
 31
0.0
  0
LINE
  5
C7
330
1F
100
AcDbEntity
  8
1-2
  6
JWW_CENTER1
 62
     3
370
    13
100
AcDbLine
 10
242.6234064875425
 20
274.1892551731419
 30
0.0
 11
353.1186490445526
 21
274.1892551731419
 31
0.0
  0
LINE
  5
C8
330
1F
100
AcDbEntity
  8
F-D
  6
Continuous
 62
     3
370
    13
100
AcDbLine
 10
-1186.841645111909
 20
-687.9357085356842
 30
0.0
 11
-1161.841562631968
 21
-682.5858121304898
 31
0.0
  0
LINE
  5
C9
330
1F
100
AcDbEntity
  8
F-D
  6
Continuous
 62
     3
370
    13
100
AcDbLine
 10
-1186.841645111909
 20
-690.4922567831502
 30
0.0
 11
-1161.841562631968
 21
-685.142360377956
 31
0.0
  0
LINE
  5
CA
330
1F
100
AcDbEntity
  8
F-D
  6
Continuous
 62
     3
370
    13
100
AcDbLine
 10
-1186.841645111909
 20
-716.0581722775021
 30
0.0
 11
-1161.841562631968
 21
-710.7082758723078
 31
0.0
  0
LINE
  5
CB
330
1F
100
AcDbEntity
  8
F-D
  6
Continuous
 62
     3
370
    13
100
AcDbLine
 10
-1186.841645111909
 20
-718.6149679647908
 30
0.0
 11
-1161.841562631968
 21
-713.2650715595967
 31
0.0
  0
LINE
  5
CC
330
1F
100
AcDbEntity
  8
F-D
  6
Continuous
 62
     3
370
    13
100
AcDbLine
 10
-1161.841562631968
 20
-746.001731253959
 30
0.0
 11
-1186.841645111909
 21
-740.6517111288533
 31
0.0
  0
LINE
  5
CD
330
1F
100
AcDbEntity
  8
F-D
  6
Continuous
 62
     3
370
    13
100
AcDbLine
 10
-1161.841562631968
 20
-748.5580320616026
 30
0.0
 11
-1186.841645111909
 21
-743.208197516364
 31
0.0
  0
LINE
  5
CE
330
1F
100
AcDbEntity
  8
F-D
  6
Continuous
 62
     3
370
    13
100
AcDbLine
 10
-672.3132984058276
 20
-707.8651923102301
 30
0.0
 11
-669.7567501583615
 21
-715.3653407741238
 31
0.0
  0
LINE
  5
CF
330
1F
100
AcDbEntity
  8
F-D
  6
Continuous
 62
     3
370
    13
100
AcDbLine
 10
-664.0406428156672
 20
-715.3653407741238
 30
0.0
 11
-669.7567501583615
 21
-715.3653407741238
 31
0.0
  0
LINE
  5
D0
330
1F
100
AcDbEntity
  8
F-D
  6
Continuous
 62
     3
370
    13
100
AcDbLine
 10
-672.3132984058276
 20
-707.8651923102301
 30
0.0
 11
-694.3502890097127
 21
-707.8651923102301
 31
0.0
  0
LINE
  5
D1
330
1F
100
AcDbEntity
  8
F-D
  6
Continuous
 62
     3
370
    13
100
AcDbLine
 10
-694.3502890097127
 20
-707.8651923102301
 30
0.0
 11
-696.906837257179
 21
-715.3653407741238
 31
0.0
  0
LINE
  5
D2
330
1F
100
AcDbEntity
  8
F-D
  6
Continuous
 62
     3
370
    13
100
AcDbLine
 10
-696.906837257179
 20
-715.3653407741238
 30
0.0
 11
-722.4728146114865
 21
-715.3653407741238
 31
0.0
  0
LINE
  5
D3
330
1F
100
AcDbEntity
  8
F-D
  6
Continuous
 62
     3
370
    13
100
AcDbLine
 10
-725.0298577385979
 20
-707.8651923102301
 30
0.0
 11
-722.4728146114865
 21
-715.3653407741238
 31
0.0
  0
LINE
  5
D4
330
1F
100
AcDbEntity
  8
F-D
  6
Continuous
 62
     3
370
    13
100
AcDbLine
 10
-725.0298577385979
 20
-707.8651923102301
 30
0.0
 11
-757.7661462732262
 21
-707.8651923102301
 31
0.0
  0
LINE
  5
D5
330
1F
100
AcDbEntity
  8
F-D
  6
Continuous
 62
     3
370
    13
100
AcDbLine
 10
-757.7661462732262
 20
-707.8651923102301
 30
0.0
 11
-760.3226945206925
 21
-715.3653407741238
 31
0.0
  0
LINE
  5
D6
330
1F
100
AcDbEntity
  8
F-D
  6
JWW_HOJO
 62
     3
370
    13
100
AcDbLine
 10
-1167.073182801942
 20
-773.0047153782199
 30
0.0
 11
-1192.073017842061
 21
-767.6546952531145
 31
0.0
  0
LINE
  5
D7
330
1F
100
AcDbEntity
  8
F-D
  6
Continuous
 62
     3
370
    13
100
AcDbLine
 10
-1186.841645111909
 20
-804.0675683923669
 30
0.0
 11
-1161.841562631968
 21
-798.7176719871727
 31
0.0
  0
LINE
  5
D8
330
1F
100
AcDbEntity
  8
F-D
  6
Continuous
 62
     3
370
    13
100
AcDbLine
 10
-1186.841645111909
 20
-771.3307849780932
 30
0.0
 11
-1161.841562631968
 21
-776.6806813832875
 31
0.0
  0
LINE
  5
D9
330
1F
100
AcDbEntity
  8
F-D
  6
Continuous
 62
     3
370
    13
100
AcDbLine
 10
-1186.841645111909
 20
-768.7741130107157
 30
0.0
 11
-1161.841562631968
 21
-774.1241331358214
 31
0.0
  0
LINE
  5
DA
330
1F
100
AcDbEntity
  8
F-D
  6
Continuous
 62
     3
370
    13
100
AcDbLine
 10
-1186.841645111909
 20
-806.6241166398332
 30
0.0
 11
-1161.841562631968
 21
-801.274220234639
 31
0.0
  0
LINE
  5
DB
330
1F
100
AcDbEntity
  8
F-D
  6
Continuous
 62
     3
370
    13
100
AcDbLine
 10
-1186.841645111909
 20
-832.1900939941406
 30
0.0
 11
-1161.841562631968
 21
-826.8401975889464
 31
0.0
  0
LINE
  5
DC
330
1F
100
AcDbEntity
  8
F-D
  6
Continuous
 62
     3
370
    13
100
AcDbLine
 10
-1186.841645111909
 20
-834.7468896814294
 30
0.0
 11
-1161.841562631968
 21
-829.3969932762352
 31
0.0
  0
LINE
  5
DD
330
1F
100
AcDbEntity
  8
F-D
  6
Continuous
 62
     3
370
    13
100
AcDbLine
 10
-1161.841562631968
 20
-862.1334055307749
 30
0.0
 11
-1186.841645111909
 21
-856.7836328454919
 31
0.0
  0
LINE
  5
DE
330
1F
100
AcDbEntity
  8
F-D
  6
Continuous
 62
     3
370
    13
100
AcDbLine
 10
-1161.841562631968
 20
-864.6899537782411
 30
0.0
 11
-1186.841645111909
 21
-859.3401810929581
 31
0.0
  0
LINE
  5
DF
330
1F
100
AcDbEntity
  8
F-D
  6
Continuous
 62
     3
370
    13
100
AcDbLine
 10
-788.4452201224661
 20
-707.8651923102301
 30
0.0
 11
-810.4822107263512
 21
-707.8651923102301
 31
0.0
  0
LINE
  5
E0
330
1F
100
AcDbEntity
  8
F-D
  6
Continuous
 62
     3
370
    13
100
AcDbLine
 10
-810.4822107263512
 20
-707.8651923102301
 30
0.0
 11
-813.0387589738175
 21
-715.3653407741238
 31
0.0
  0
LINE
  5
E1
330
1F
100
AcDbEntity
  8
F-D
  6
Continuous
 62
     3
370
    13
100
AcDbLine
 10
-813.0387589738175
 20
-715.3653407741238
 30
0.0
 11
-838.604736328125
 21
-715.3653407741238
 31
0.0
  0
LINE
  5
E2
330
1F
100
AcDbEntity
  8
F-D
  6
Continuous
 62
     3
370
    13
100
AcDbLine
 10
-841.1615320154137
 20
-707.8651923102301
 30
0.0
 11
-838.604736328125
 21
-715.3653407741238
 31
0.0
  0
LINE
  5
E3
330
1F
100
AcDbEntity
  8
F-D
  6
Continuous
 62
     3
370
    13
100
AcDbLine
 10
-841.1615320154137
 20
-707.8651923102301
 30
0.0
 11
-873.8980679898648
 21
-707.8651923102301
 31
0.0
  0
LINE
  5
E4
330
1F
100
AcDbEntity
  8
F-D
  6
Continuous
 62
     3
370
    13
100
AcDbLine
 10
-873.8980679898648
 20
-707.8651923102301
 30
0.0
 11
-876.454616237331
 21
-715.3653407741238
 31
0.0
  0
LINE
  5
E5
330
1F
100
AcDbEntity
  8
F-D
  6
Continuous
 62
     3
370
    13
100
AcDbLine
 10
-788.4452201224661
 20
-707.8651923102301
 30
0.0
 11
-785.888671875
 21
-715.3653407741238
 31
0.0
  0
LINE
  5
E6
330
1F
100
AcDbEntity
  8
F-D
  6
Continuous
 62
     3
370
    13
100
AcDbLine
 10
-760.3226945206925
 20
-715.3653407741238
 30
0.0
 11
-785.888671875
 21
-715.3653407741238
 31
0.0
  0
LINE
  5
E7
330
1F
100
AcDbEntity
  8
F-D
  6
Continuous
 62
     3
370
    13
100
AcDbLine
 10
-904.5771418391047
 20
-707.8651923102301
 30
0.0
 11
-926.6141324429898
 21
-707.8651923102301
 31
0.0
  0
LINE
  5
E8
330
1F
100
AcDbEntity
  8
F-D
  6
Continuous
 62
     3
370
    13
100
AcDbLine
 10
-926.6141324429898
 20
-707.8651923102301
 30
0.0
 11
-929.170680690456
 21
-715.3653407741238
 31
0.0
  0
LINE
  5
E9
330
1F
100
AcDbEntity
  8
F-D
  6
Continuous
 62
     3
370
    13
100
AcDbLine
 10
-929.170680690456
 20
-715.3653407741238
 30
0.0
 11
-954.7366580447634
 21
-715.3653407741238
 31
0.0
  0
LINE
  5
EA
330
1F
100
AcDbEntity
  8
F-D
  6
Continuous
 62
     3
370
    13
100
AcDbLine
 10
-957.2934537320523
 20
-707.8651923102301
 30
0.0
 11
-954.7366580447634
 21
-715.3653407741238
 31
0.0
  0
LINE
  5
EB
330
1F
100
AcDbEntity
  8
F-D
  6
Continuous
 62
     3
370
    13
100
AcDbLine
 10
-957.2934537320523
 20
-707.8651923102301
 30
0.0
 11
-990.0299897065033
 21
-707.8651923102301
 31
0.0
  0
LINE
  5
EC
330
1F
100
AcDbEntity
  8
F-D
  6
Continuous
 62
     3
370
    13
100
AcDbLine
 10
-990.0299897065033
 20
-707.8651923102301
 30
0.0
 11
-992.5865379539696
 21
-715.3653407741238
 31
0.0
  0
LINE
  5
ED
330
1F
100
AcDbEntity
  8
F-D
  6
Continuous
 62
     3
370
    13
100
AcDbLine
 10
-904.5771418391047
 20
-707.8651923102301
 30
0.0
 11
-902.0205935916384
 21
-715.3653407741238
 31
0.0
  0
LINE
  5
EE
330
1F
100
AcDbEntity
  8
F-D
  6
Continuous
 62
     3
370
    13
100
AcDbLine
 10
-876.454616237331
 20
-715.3653407741238
 30
0.0
 11
-902.0205935916384
 21
-715.3653407741238
 31
0.0
  0
LINE
  5
EF
330
1F
100
AcDbEntity
  8
F-D
  6
Continuous
 62
     3
370
    13
100
AcDbLine
 10
-1020.709063555743
 20
-707.8651923102301
 30
0.0
 11
-1042.746054159628
 21
-707.8651923102301
 31
0.0
  0
LINE
  5
F0
330
1F
100
AcDbEntity
  8
F-D
  6
Continuous
 62
     3
370
    13
100
AcDbLine
 10
-1042.746054159628
 20
-707.8651923102301
 30
0.0
 11
-1045.302602407095
 21
-715.3653407741238
 31
0.0
  0
LINE
  5
F1
330
1F
100
AcDbEntity
  8
F-D
  6
Continuous
 62
     3
370
    13
100
AcDbLine
 10
-1020.709063555743
 20
-707.8651923102301
 30
0.0
 11
-1018.152515308277
 21
-715.3653407741238
 31
0.0
  0
LINE
  5
F2
330
1F
100
AcDbEntity
  8
F-D
  6
Continuous
 62
     3
370
    13
100
AcDbLine
 10
-992.5865379539696
 20
-715.3653407741238
 30
0.0
 11
-1018.152515308277
 21
-715.3653407741238
 31
0.0
  0
LINE
  5
F3
330
1F
100
AcDbEntity
  8
F-D
  6
Continuous
 62
     3
370
    13
100
AcDbLine
 10
-1045.302602407095
 20
-715.3653407741238
 30
0.0
 11
-1060.554793074324
 21
-715.3653407741238
 31
0.0
  0
LINE
  5
F4
330
1F
100
AcDbEntity
  8
F-D
  6
Continuous
 62
     3
370
    13
100
AcDbLine
 10
-664.0406428156672
 20
-840.3652582941828
 30
0.0
 11
-1060.554793074324
 21
-840.3652582941828
 31
0.0
  0
LINE
  5
F5
330
1F
100
AcDbEntity
  8
F-D
  6
Continuous
 62
     3
370
    13
100
AcDbLine
 10
-664.0406428156672
 20
-817.8653077821474
 30
0.0
 11
-1060.554793074324
 21
-817.8653077821474
 31
0.0
  0
LINE
  5
F6
330
1F
100
AcDbEntity
  8
F-D
  6
Continuous
 62
     3
370
    13
100
AcDbLine
 10
-664.0406428156672
 20
-812.8652912861592
 30
0.0
 11
-1060.554793074324
 21
-812.8652912861592
 31
0.0
  0
LINE
  5
F7
330
1F
100
AcDbEntity
  8
F-D
  6
Continuous
 62
     3
370
    13
100
AcDbLine
 10
-664.0406428156672
 20
-737.8652912861592
 30
0.0
 11
-1060.554793074324
 21
-737.8652912861592
 31
0.0
  0
LINE
  5
F8
330
1F
100
AcDbEntity
  8
F-D
  6
Continuous
 62
     3
370
    13
100
AcDbLine
 10
-664.0406428156672
 20
-742.8653077821474
 30
0.0
 11
-1060.554793074324
 21
-742.8653077821474
 31
0.0
  0
LINE
  5
F9
330
1F
100
AcDbEntity
  8
F-D
  6
Continuous
 62
     3
370
    13
100
AcDbLine
 10
-528.2624940614443
 20
-715.3653407741238
 30
0.0
 11
-503.262659021326
 21
-715.3653407741238
 31
0.0
  0
LINE
  5
FA
330
1F
100
AcDbEntity
  8
F-D
  6
Continuous
 62
     3
370
    13
100
AcDbLine
 10
-503.262659021326
 20
-840.3652582941828
 30
0.0
 11
-528.2624940614443
 21
-840.3652582941828
 31
0.0
  0
LINE
  5
FB
330
1F
100
AcDbEntity
  8
F-D
  6
Continuous
 62
     3
370
    13
100
AcDbLine
 10
-503.262659021326
 20
-817.8653077821474
 30
0.0
 11
-503.262659021326
 21
-840.3652582941828
 31
0.0
  0
LINE
  5
FC
330
1F
100
AcDbEntity
  8
F-D
  6
Continuous
 62
     3
370
    13
100
AcDbLine
 10
-508.2626755173141
 20
-812.8650438463366
 30
0.0
 11
-503.262659021326
 21
-817.8653077821474
 31
0.0
  0
LINE
  5
FD
330
1F
100
AcDbEntity
  8
F-D
  6
Continuous
 62
     3
370
    13
100
AcDbLine
 10
-528.2624940614443
 20
-840.3652582941828
 30
0.0
 11
-528.2624940614443
 21
-817.8653077821474
 31
0.0
  0
LINE
  5
FE
330
1F
100
AcDbEntity
  8
F-D
  6
Continuous
 62
     3
370
    13
100
AcDbLine
 10
-528.2624940614443
 20
-817.8653077821474
 30
0.0
 11
-523.262477565456
 21
-812.8650438463366
 31
0.0
  0
LINE
  5
FF
330
1F
100
AcDbEntity
  8
F-D
  6
Continuous
 62
     3
370
    13
100
AcDbLine
 10
-528.2624940614443
 20
-737.8655387259818
 30
0.0
 11
-528.2624940614443
 21
-715.3653407741238
 31
0.0
  0
LINE
  5
100
330
1F
100
AcDbEntity
  8
F-D
  6
Continuous
 62
     3
370
    13
100
AcDbLine
 10
-528.2624940614443
 20
-737.8655387259818
 30
0.0
 11
-523.262477565456
 21
-742.8653077821474
 31
0.0
  0
LINE
  5
101
330
1F
100
AcDbEntity
  8
F-D
  6
Continuous
 62
     3
370
    13
100
AcDbLine
 10
-523.262477565456
 20
-812.8650438463366
 30
0.0
 11
-523.262477565456
 21
-742.8653077821474
 31
0.0
  0
LINE
  5
102
330
1F
100
AcDbEntity
  8
F-D
  6
Continuous
 62
     3
370
    13
100
AcDbLine
 10
-508.2626755173141
 20
-742.8653077821474
 30
0.0
 11
-508.2626755173141
 21
-812.8650438463366
 31
0.0
  0
LINE
  5
103
330
1F
100
AcDbEntity
  8
F-D
  6
Continuous
 62
     3
370
    13
100
AcDbLine
 10
-508.2626755173141
 20
-742.8653077821474
 30
0.0
 11
-503.262659021326
 21
-737.8655387259818
 31
0.0
  0
LINE
  5
104
330
1F
100
AcDbEntity
  8
F-D
  6
Continuous
 62
     3
370
    13
100
AcDbLine
 10
-503.262659021326
 20
-715.3653407741238
 30
0.0
 11
-503.262659021326
 21
-737.8655387259818
 31
0.0
  0
LINE
  5
105
330
1F
100
AcDbEntity
  8
F-D
  6
Continuous
 62
     3
370
    13
100
AcDbLine
 10
-528.2624940614443
 20
-715.3653407741238
 30
0.0
 11
-503.262659021326
 21
-715.3653407741238
 31
0.0
  0
LINE
  5
106
330
1F
100
AcDbEntity
  8
F-D
  6
Continuous
 62
     3
370
    13
100
AcDbLine
 10
-528.2624940614443
 20
-707.8654397500527
 30
0.0
 11
-503.262659021326
 21
-707.8654397500527
 31
0.0
  0
LINE
  5
107
330
1F
100
AcDbEntity
  8
F-D
  6
Continuous
 62
     3
370
    13
100
AcDbLine
 10
-528.2624940614443
 20
-707.8654397500527
 30
0.0
 11
-528.2624940614443
 21
-715.3653407741238
 31
0.0
  0
LINE
  5
108
330
1F
100
AcDbEntity
  8
F-D
  6
Continuous
 62
     3
370
    13
100
AcDbLine
 10
-503.262659021326
 20
-707.8654397500527
 30
0.0
 11
-503.262659021326
 21
-715.3653407741238
 31
0.0
  0
LINE
  5
109
330
1F
100
AcDbEntity
  8
F-D
  6
Continuous
 62
     7
370
    13
100
AcDbLine
 10
-380.8163204708615
 20
-840.3652582941828
 30
0.0
 11
-380.8163204708615
 21
-715.3653407741238
 31
0.0
  0
LINE
  5
10A
330
1F
100
AcDbEntity
  8
F-D
  6
Continuous
 62
     7
370
    13
100
AcDbLine
 10
-484.4879150390625
 20
-840.3652582941828
 30
0.0
 11
-377.8163600612331
 21
-840.3652582941828
 31
0.0
  0
LINE
  5
10B
330
1F
100
AcDbEntity
  8
F-D
  6
Continuous
 62
     7
370
    13
100
AcDbLine
 10
-484.4879150390625
 20
-715.3653407741238
 30
0.0
 11
-377.8163600612331
 21
-715.3653407741238
 31
0.0
  0
LINE
  5
10C
330
1F
100
AcDbEntity
  8
F-D
  6
Continuous
 62
     7
370
    13
100
AcDbLine
 10
-380.8163204708615
 20
-840.3652582941828
 30
0.0
 11
-384.0795568517734
 21
-815.5792112608214
 31
0.0
  0
LINE
  5
10D
330
1F
100
AcDbEntity
  8
F-D
  6
Continuous
 62
     7
370
    13
100
AcDbLine
 10
-380.8163204708615
 20
-840.3652582941828
 30
0.0
 11
-377.5533315297719
 21
-815.5792112608214
 31
0.0
  0
LINE
  5
10E
330
1F
100
AcDbEntity
  8
F-D
  6
Continuous
 62
     7
370
    13
100
AcDbLine
 10
-380.8163204708615
 20
-715.3653407741238
 30
0.0
 11
-384.0795568517734
 21
-740.1513259475296
 31
0.0
  0
LINE
  5
10F
330
1F
100
AcDbEntity
  8
F-D
  6
Continuous
 62
     7
370
    13
100
AcDbLine
 10
-380.8163204708615
 20
-715.3653407741238
 30
0.0
 11
-377.5533315297719
 21
-740.1513259475296
 31
0.0
  0
LINE
  5
110
330
1F
100
AcDbEntity
  8
F-D
  6
JWW_HOJO
 62
     3
370
    13
100
AcDbLine
 10
-1167.073182801942
 20
-889.1365133749471
 30
0.0
 11
-1192.073017842061
 21
-883.7869262695312
 31
0.0
  0
LINE
  5
111
330
1F
100
AcDbEntity
  8
F-D
  6
Continuous
 62
     3
370
    13
100
AcDbLine
 10
-1186.841645111909
 20
-887.4628304146431
 30
0.0
 11
-1161.841562631968
 21
-892.8124175200592
 31
0.0
  0
LINE
  5
112
330
1F
100
AcDbEntity
  8
F-D
  6
Continuous
 62
     3
370
    13
100
AcDbLine
 10
-1186.841645111909
 20
-884.9062821671769
 30
0.0
 11
-1161.841562631968
 21
-890.2559929925042
 31
0.0
  0
LINE
  5
113
330
1F
100
AcDbEntity
  8
F-D
  6
Continuous
 62
     3
370
    13
100
AcDbLine
 10
-1178.104792414485
 20
-688.6226014833193
 30
0.0
 11
-1161.841562631968
 21
-704.8855219660578
 31
0.0
  0
LINE
  5
114
330
1F
100
AcDbEntity
  8
F-D
  6
Continuous
 62
     3
370
    13
100
AcDbLine
 10
-1169.367692277238
 20
-686.7529461834881
 30
0.0
 11
-1161.841562631968
 21
-694.2787665289801
 31
0.0
  0
LINE
  5
115
330
1F
100
AcDbEntity
  8
F-D
  6
Continuous
 62
     3
370
    13
100
AcDbLine
 10
-1186.841645111909
 20
-690.4922567831502
 30
0.0
 11
-1165.782289247255
 21
-711.5515507878483
 31
0.0
  0
LINE
  5
116
330
1F
100
AcDbEntity
  8
F-D
  6
Continuous
 62
     3
370
    13
100
AcDbLine
 10
-1186.841645111909
 20
-701.0989503602724
 30
0.0
 11
-1174.519141944679
 21
-713.4212060876794
 31
0.0
  0
LINE
  5
117
330
1F
100
AcDbEntity
  8
F-D
  6
Continuous
 62
     3
370
    13
100
AcDbLine
 10
-1186.841645111909
 20
-711.7053964975718
 30
0.0
 11
-1183.256242081926
 21
-715.2908613875105
 31
0.0
  0
LINE
  5
118
330
1F
100
AcDbEntity
  8
F-D
  6
Continuous
 62
     3
370
    13
100
AcDbLine
 10
-1186.841645111909
 20
-764.4216465305636
 30
0.0
 11
-1181.303941881334
 21
-769.9592260412267
 31
0.0
  0
LINE
  5
119
330
1F
100
AcDbEntity
  8
F-D
  6
Continuous
 62
     3
370
    13
100
AcDbLine
 10
-1186.841645111909
 20
-753.814891093486
 30
0.0
 11
-1167.809563714105
 21
-772.8470962112015
 31
0.0
  0
LINE
  5
11A
330
1F
100
AcDbEntity
  8
F-D
  6
Continuous
 62
     3
370
    13
100
AcDbLine
 10
-1186.841645111909
 20
-743.208197516364
 30
0.0
 11
-1161.841562631968
 21
-768.2082181363492
 31
0.0
  0
LINE
  5
11B
330
1F
100
AcDbEntity
  8
F-D
  6
Continuous
 62
     3
370
    13
100
AcDbLine
 10
-1173.347266944679
 20
-746.0961295462943
 30
0.0
 11
-1161.841562631968
 21
-757.6015864191828
 31
0.0
  0
LINE
  5
11C
330
1F
100
AcDbEntity
  8
F-D
  6
Continuous
 62
     3
370
    13
100
AcDbLine
 10
-1178.104792414485
 20
-804.7544613400021
 30
0.0
 11
-1161.841562631968
 21
-821.0174436826964
 31
0.0
  0
LINE
  5
11D
330
1F
100
AcDbEntity
  8
F-D
  6
Continuous
 62
     3
370
    13
100
AcDbLine
 10
-1169.367692277238
 20
-802.8848060401709
 30
0.0
 11
-1161.841562631968
 21
-810.4106882456186
 31
0.0
  0
LINE
  5
11E
330
1F
100
AcDbEntity
  8
F-D
  6
Continuous
 62
     3
370
    13
100
AcDbLine
 10
-1186.841645111909
 20
-806.6241166398332
 30
0.0
 11
-1165.782289247255
 21
-827.6834725044869
 31
0.0
  0
LINE
  5
11F
330
1F
100
AcDbEntity
  8
F-D
  6
Continuous
 62
     3
370
    13
100
AcDbLine
 10
-1186.841645111909
 20
-817.2308720769108
 30
0.0
 11
-1174.519141944679
 21
-829.5531278043179
 31
0.0
  0
LINE
  5
120
330
1F
100
AcDbEntity
  8
F-D
  6
Continuous
 62
     3
370
    13
100
AcDbLine
 10
-1186.841645111909
 20
-827.8373800741658
 30
0.0
 11
-1183.256242081926
 21
-831.4227831041491
 31
0.0
  0
LINE
  5
121
330
1F
100
AcDbEntity
  8
F-D
  6
Continuous
 62
     3
370
    13
100
AcDbLine
 10
-1186.841645111909
 20
-880.5533826673353
 30
0.0
 11
-1181.303941881334
 21
-886.091024037954
 31
0.0
  0
LINE
  5
122
330
1F
100
AcDbEntity
  8
F-D
  6
Continuous
 62
     3
370
    13
100
AcDbLine
 10
-1186.841645111909
 20
-869.9470602499471
 30
0.0
 11
-1167.809563714105
 21
-888.9791416477512
 31
0.0
  0
LINE
  5
123
330
1F
100
AcDbEntity
  8
F-D
  6
Continuous
 62
     3
370
    13
100
AcDbLine
 10
-1186.841645111909
 20
-859.3401810929581
 30
0.0
 11
-1161.841562631968
 21
-884.3400779930321
 31
0.0
  0
LINE
  5
124
330
1F
100
AcDbEntity
  8
F-D
  6
Continuous
 62
     3
370
    13
100
AcDbLine
 10
-1173.347266944679
 20
-862.2279275430215
 30
0.0
 11
-1161.841562631968
 21
-873.73338441591
 31
0.0
  0
LINE
  5
125
330
1F
100
AcDbEntity
  8
F-D
  6
Continuous
 62
     3
370
    13
100
AcDbLine
 10
-1161.841562631968
 20
-629.8697476773648
 30
0.0
 11
-1186.841645111909
 21
-624.5197275522593
 31
0.0
  0
LINE
  5
126
330
1F
100
AcDbEntity
  8
F-D
  6
Continuous
 62
     3
370
    13
100
AcDbLine
 10
-1161.841562631968
 20
-632.426295924831
 30
0.0
 11
-1186.841645111909
 21
-627.0763995196367
 31
0.0
  0
LINE
  5
127
330
1F
100
AcDbEntity
  8
F-D
  6
JWW_HOJO
 62
     3
370
    13
100
AcDbLine
 10
-1167.073182801942
 20
-656.8728555215371
 30
0.0
 11
-1192.073017842061
 21
-651.5229591163428
 31
0.0
  0
LINE
  5
128
330
1F
100
AcDbEntity
  8
F-D
  6
Continuous
 62
     3
370
    13
100
AcDbLine
 10
-1186.841645111909
 20
-655.1989251214104
 30
0.0
 11
-1161.841562631968
 21
-660.5488215266047
 31
0.0
  0
LINE
  5
129
330
1F
100
AcDbEntity
  8
F-D
  6
Continuous
 62
     3
370
    13
100
AcDbLine
 10
-1186.841645111909
 20
-652.6423768739443
 30
0.0
 11
-1161.841562631968
 21
-657.9922732791384
 31
0.0
  0
LINE
  5
12A
330
1F
100
AcDbEntity
  8
F-D
  6
Continuous
 62
     3
370
    13
100
AcDbLine
 10
-1186.841645111909
 20
-648.2896629539696
 30
0.0
 11
-1181.303941881334
 21
-653.8273661845438
 31
0.0
  0
LINE
  5
12B
330
1F
100
AcDbEntity
  8
F-D
  6
Continuous
 62
     3
370
    13
100
AcDbLine
 10
-1186.841645111909
 20
-637.6831549567145
 30
0.0
 11
-1167.809563714105
 21
-656.7152363545185
 31
0.0
  0
LINE
  5
12C
330
1F
100
AcDbEntity
  8
F-D
  6
Continuous
 62
     3
370
    13
100
AcDbLine
 10
-1186.841645111909
 20
-627.0763995196367
 30
0.0
 11
-1161.841562631968
 21
-652.0762345597551
 31
0.0
  0
LINE
  5
12D
330
1F
100
AcDbEntity
  8
F-D
  6
Continuous
 62
     3
370
    13
100
AcDbLine
 10
-1173.347266944679
 20
-629.9642696896115
 30
0.0
 11
-1161.841562631968
 21
-641.4697265625
 31
0.0
  0
LINE
  5
12E
330
1F
100
AcDbEntity
  8
F-D
  6
Continuous
 62
     3
370
    13
100
AcDbLine
 10
-1161.841562631968
 20
-612.7417157147381
 30
0.0
 11
-1161.841562631968
 21
-904.2164240656672
 31
0.0
  0
LINE
  5
12F
330
1F
100
AcDbEntity
  8
F-D
  6
Continuous
 62
     3
370
    13
100
AcDbLine
 10
-1186.841645111909
 20
-612.7417157147381
 30
0.0
 11
-1186.841645111909
 21
-904.2164240656672
 31
0.0
  0
LINE
  5
130
330
1F
100
AcDbEntity
  8
F-D
  6
Continuous
 62
     7
370
    13
100
AcDbLine
 10
-1203.778406091638
 20
-832.1900939941406
 30
0.0
 11
-1257.473095043285
 21
-832.1900939941406
 31
0.0
  0
LINE
  5
131
330
1F
100
AcDbEntity
  8
F-D
  6
Continuous
 62
     7
370
    13
100
AcDbLine
 10
-1203.778406091638
 20
-859.3401810929581
 30
0.0
 11
-1257.473095043285
 21
-859.3401810929581
 31
0.0
  0
LINE
  5
132
330
1F
100
AcDbEntity
  8
F-D
  6
Continuous
 62
     7
370
    13
100
AcDbLine
 10
-1254.473134633657
 20
-832.1900939941406
 30
0.0
 11
-1257.736618454392
 21
-807.4040469607792
 31
0.0
  0
LINE
  5
133
330
1F
100
AcDbEntity
  8
F-D
  6
Continuous
 62
     7
370
    13
100
AcDbLine
 10
-1254.473134633657
 20
-832.1900939941406
 30
0.0
 11
-1251.209898252745
 21
-807.4040469607792
 31
0.0
  0
LINE
  5
134
330
1F
100
AcDbEntity
  8
F-D
  6
Continuous
 62
     7
370
    13
100
AcDbLine
 10
-1254.473134633657
 20
-859.3401810929581
 30
0.0
 11
-1257.736618454392
 21
-884.126351846231
 31
0.0
  0
LINE
  5
135
330
1F
100
AcDbEntity
  8
F-D
  6
Continuous
 62
     7
370
    13
100
AcDbLine
 10
-1254.473134633657
 20
-859.3401810929581
 30
0.0
 11
-1251.209898252745
 21
-884.126351846231
 31
0.0
  0
LINE
  5
136
330
1F
100
AcDbEntity
  8
F-D
  6
Continuous
 62
     7
370
    13
100
AcDbLine
 10
-1203.778406091638
 20
-652.6423768739443
 30
0.0
 11
-1257.473095043285
 21
-652.6423768739443
 31
0.0
  0
LINE
  5
137
330
1F
100
AcDbEntity
  8
F-D
  6
Continuous
 62
     7
370
    13
100
AcDbLine
 10
-1203.778406091638
 20
-690.4922567831502
 30
0.0
 11
-1257.473095043285
 21
-690.4922567831502
 31
0.0
  0
LINE
  5
138
330
1F
100
AcDbEntity
  8
F-D
  6
Continuous
 62
     7
370
    13
100
AcDbLine
 10
-1254.473134633657
 20
-652.6423768739443
 30
0.0
 11
-1257.736618454392
 21
-627.8563298405827
 31
0.0
  0
LINE
  5
139
330
1F
100
AcDbEntity
  8
F-D
  6
Continuous
 62
     7
370
    13
100
AcDbLine
 10
-1254.473134633657
 20
-652.6423768739443
 30
0.0
 11
-1251.209898252745
 21
-627.8563298405827
 31
0.0
  0
LINE
  5
13A
330
1F
100
AcDbEntity
  8
F-D
  6
Continuous
 62
     7
370
    13
100
AcDbLine
 10
-1254.473134633657
 20
-690.4922567831502
 30
0.0
 11
-1257.736618454392
 21
-715.2782419565561
 31
0.0
  0
LINE
  5
13B
330
1F
100
AcDbEntity
  8
F-D
  6
Continuous
 62
     7
370
    13
100
AcDbLine
 10
-1254.473134633657
 20
-690.4922567831502
 30
0.0
 11
-1251.209898252745
 21
-715.2782419565561
 31
0.0
  0
LINE
  5
13C
330
1F
100
AcDbEntity
  8
F-D
  6
Continuous
 62
     7
370
    13
100
AcDbLine
 10
-1254.473134633657
 20
-800.6905096930426
 30
0.0
 11
-1254.473134633657
 21
-898.6005298511401
 31
0.0
  0
LINE
  5
13D
330
1F
100
AcDbEntity
  8
F-D
  6
Continuous
 62
     7
370
    13
100
AcDbLine
 10
-1254.473134633657
 20
-618.2329002586571
 30
0.0
 11
-1254.473134633657
 21
-724.4507124617293
 31
0.0
  0
LINE
  5
13E
330
1F
100
AcDbEntity
  8
F-D
  6
Continuous
 62
     7
370
    13
100
AcDbLine
 10
-1149.950347075591
 20
-708.1637284562395
 30
0.0
 11
-1117.934603304476
 21
-701.3124909272065
 31
0.0
  0
LINE
  5
13F
330
1F
100
AcDbEntity
  8
F-D
  6
Continuous
 62
     7
370
    13
100
AcDbLine
 10
-1155.181719805743
 20
-683.7173544394002
 30
0.0
 11
-1123.166223474451
 21
-676.865993190456
 31
0.0
  0
LINE
  5
140
330
1F
100
AcDbEntity
  8
F-D
  6
Continuous
 62
     7
370
    13
100
AcDbLine
 10
-1120.868249841638
 20
-701.9402457572318
 30
0.0
 11
-1112.490679766681
 21
-725.4947229333825
 31
0.0
  0
LINE
  5
141
330
1F
100
AcDbEntity
  8
F-D
  6
Continuous
 62
     7
370
    13
100
AcDbLine
 10
-1120.868249841638
 20
-701.9402457572318
 30
0.0
 11
-1118.872400232263
 21
-726.8604051744616
 31
0.0
  0
LINE
  5
142
330
1F
100
AcDbEntity
  8
F-D
  6
Continuous
 62
     7
370
    13
100
AcDbLine
 10
-1126.09962257179
 20
-677.49362430057
 30
0.0
 11
-1128.095472181165
 21
-652.5734648833404
 31
0.0
  0
LINE
  5
143
330
1F
100
AcDbEntity
  8
F-D
  6
Continuous
 62
     7
370
    13
100
AcDbLine
 10
-1126.09962257179
 20
-677.49362430057
 30
0.0
 11
-1134.477440086571
 21
-653.939208984375
 31
0.0
  0
LINE
  5
144
330
1F
100
AcDbEntity
  8
F-D
  6
Continuous
 62
     7
370
    13
100
AcDbLine
 10
-1114.594165698902
 20
-731.2591429014464
 30
0.0
 11
-1132.950241501267
 21
-645.4809735272381
 31
0.0
  0
LINE
  5
145
330
1F
100
AcDbEntity
  8
F-D
  6
Continuous
 62
     7
370
    13
100
AcDbLine
 10
-503.262659021326
 20
-696.2812970135662
 30
0.0
 11
-503.262659021326
 21
-660.1113479201858
 31
0.0
  0
LINE
  5
146
330
1F
100
AcDbEntity
  8
F-D
  6
Continuous
 62
     7
370
    13
100
AcDbLine
 10
-528.2624940614443
 20
-696.2812970135662
 30
0.0
 11
-528.2624940614443
 21
-660.1113479201858
 31
0.0
  0
LINE
  5
147
330
1F
100
AcDbEntity
  8
F-D
  6
Continuous
 62
     7
370
    13
100
AcDbLine
 10
-503.262659021326
 20
-663.1111846099029
 30
0.0
 11
-478.4763645481419
 21
-659.848071948902
 31
0.0
  0
LINE
  5
148
330
1F
100
AcDbEntity
  8
F-D
  6
Continuous
 62
     7
370
    13
100
AcDbLine
 10
-503.262659021326
 20
-663.1111846099029
 30
0.0
 11
-478.4763645481419
 21
-666.3745447107262
 31
0.0
  0
LINE
  5
149
330
1F
100
AcDbEntity
  8
F-D
  6
Continuous
 62
     7
370
    13
100
AcDbLine
 10
-528.2624940614443
 20
-663.1111846099029
 30
0.0
 11
-553.0487885346283
 21
-659.848071948902
 31
0.0
  0
LINE
  5
14A
330
1F
100
AcDbEntity
  8
F-D
  6
Continuous
 62
     7
370
    13
100
AcDbLine
 10
-528.2624940614443
 20
-663.1111846099029
 30
0.0
 11
-553.0487885346283
 21
-666.3745447107262
 31
0.0
  0
LINE
  5
14B
330
1F
100
AcDbEntity
  8
F-D
  6
Continuous
 62
     7
370
    13
100
AcDbLine
 10
-475.3898002005911
 20
-663.1111846099029
 30
0.0
 11
-555.9458139780404
 21
-663.1111846099029
 31
0.0
  0
LINE
  5
14C
330
1F
100
AcDbEntity
  8
F-D
  6
Continuous
 62
     7
370
    13
100
AcDbLine
 10
-508.2626755173141
 20
-800.5306635676203
 30
0.0
 11
-508.2626755173141
 21
-803.5306239772488
 31
0.0
  0
LINE
  5
14D
330
1F
100
AcDbEntity
  8
F-D
  6
Continuous
 62
     7
370
    13
100
AcDbLine
 10
-523.262477565456
 20
-800.5306635676203
 30
0.0
 11
-523.262477565456
 21
-803.5306239772488
 31
0.0
  0
LINE
  5
14E
330
1F
100
AcDbEntity
  8
F-D
  6
Continuous
 62
     7
370
    13
100
AcDbLine
 10
-508.2626755173141
 20
-800.5306635676203
 30
0.0
 11
-483.4766284839526
 21
-797.2674271867082
 31
0.0
  0
LINE
  5
14F
330
1F
100
AcDbEntity
  8
F-D
  6
Continuous
 62
     7
370
    13
100
AcDbLine
 10
-508.2626755173141
 20
-800.5306635676203
 30
0.0
 11
-483.4766284839526
 21
-803.7938999485324
 31
0.0
  0
LINE
  5
150
330
1F
100
AcDbEntity
  8
F-D
  6
Continuous
 62
     7
370
    13
100
AcDbLine
 10
-523.262477565456
 20
-800.5306635676203
 30
0.0
 11
-548.0485245988175
 21
-797.2674271867082
 31
0.0
  0
LINE
  5
151
330
1F
100
AcDbEntity
  8
F-D
  6
Continuous
 62
     7
370
    13
100
AcDbLine
 10
-523.262477565456
 20
-800.5306635676203
 30
0.0
 11
-548.0485245988175
 21
-803.7938999485324
 31
0.0
  0
LINE
  5
152
330
1F
100
AcDbEntity
  8
F-D
  6
Continuous
 62
     7
370
    13
100
AcDbLine
 10
-472.5053941881333
 20
-800.5306635676203
 30
0.0
 11
-552.975793786951
 21
-800.5306635676203
 31
0.0
  0
LINE
  5
153
330
1F
100
AcDbEntity
  8
F-D
  6
Continuous
 62
     7
370
    13
100
AcDbLine
 10
-1252.764067778716
 20
-976.453572866079
 30
0.0
 11
-1252.764067778716
 21
-1042.904526994035
 31
0.0
  0
LINE
  5
154
330
1F
100
AcDbEntity
  8
F-D
  6
Continuous
 62
     7
370
    13
100
AcDbLine
 10
-1252.764067778716
 20
-1042.904526994035
 30
0.0
 11
-414.4562592377534
 21
-1042.904526994035
 31
0.0
  0
LINE
  5
155
330
1F
100
AcDbEntity
  8
F-D
  6
Continuous
 62
     7
370
    13
100
AcDbLine
 10
-414.4562592377534
 20
-1042.904526994035
 30
0.0
 11
-414.4562592377534
 21
-976.453572866079
 31
0.0
  0
LINE
  5
156
330
1F
100
AcDbEntity
  8
F-D
  6
Continuous
 62
     7
370
    13
100
AcDbLine
 10
-414.4562592377534
 20
-976.453572866079
 30
0.0
 11
-1252.764067778716
 21
-976.453572866079
 31
0.0
  0
LINE
  5
157
330
1F
100
AcDbEntity
  8
F-D
  6
Continuous
 62
     7
370
    13
100
AcDbLine
 10
-1161.841562631968
 20
-608.7685744826858
 30
0.0
 11
-1161.841562631968
 21
-572.8074027396536
 31
0.0
  0
LINE
  5
158
330
1F
100
AcDbEntity
  8
F-D
  6
Continuous
 62
     7
370
    13
100
AcDbLine
 10
-1186.841645111909
 20
-608.7685744826858
 30
0.0
 11
-1186.841645111909
 21
-572.8074027396536
 31
0.0
  0
LINE
  5
159
330
1F
100
AcDbEntity
  8
F-D
  6
Continuous
 62
     7
370
    13
100
AcDbLine
 10
-1161.841562631968
 20
-575.8073631492821
 30
0.0
 11
-1137.055515598606
 21
-572.5441267683699
 31
0.0
  0
LINE
  5
15A
330
1F
100
AcDbEntity
  8
F-D
  6
Continuous
 62
     7
370
    13
100
AcDbLine
 10
-1161.841562631968
 20
-575.8073631492821
 30
0.0
 11
-1137.055515598606
 21
-579.0705995301943
 31
0.0
  0
LINE
  5
15B
330
1F
100
AcDbEntity
  8
F-D
  6
Continuous
 62
     7
370
    13
100
AcDbLine
 10
-1186.841645111909
 20
-575.8073631492821
 30
0.0
 11
-1211.62769214527
 21
-572.5441267683699
 31
0.0
  0
LINE
  5
15C
330
1F
100
AcDbEntity
  8
F-D
  6
Continuous
 62
     7
370
    13
100
AcDbLine
 10
-1186.841645111909
 20
-575.8073631492821
 30
0.0
 11
-1211.62769214527
 21
-579.0705995301943
 31
0.0
  0
LINE
  5
15D
330
1F
100
AcDbEntity
  8
F-D
  6
Continuous
 62
     7
370
    13
100
AcDbLine
 10
-1124.841143633868
 20
-575.8073631492821
 30
0.0
 11
-1219.230280695735
 21
-575.8073631492821
 31
0.0
  0
LINE
  5
15E
330
1F
100
AcDbEntity
  8
1-2
  6
Continuous
 62
     3
370
    13
100
AcDbLine
 10
313.6755041173987
 20
-286.8108883419552
 30
0.0
 11
313.6755041173987
 21
-295.8107695708404
 31
0.0
  0
LINE
  5
15F
330
1F
100
AcDbEntity
  8
1-2
  6
Continuous
 62
     3
370
    13
100
AcDbLine
 10
313.6755041173987
 20
844.189156197213
 30
0.0
 11
313.6755041173987
 21
835.1887800886825
 31
0.0
  0
LINE
  5
160
330
1F
100
AcDbEntity
  8
1-2
  6
Continuous
 62
     3
370
    13
100
AcDbLine
 10
325.6758406355576
 20
835.1887800886825
 30
0.0
 11
275.6756756756758
 21
835.1887800886825
 31
0.0
  0
LINE
  5
161
330
1F
100
AcDbEntity
  8
1-2
  6
Continuous
 62
     3
370
    13
100
AcDbLine
 10
275.6756756756758
 20
803.7718406883448
 30
0.0
 11
275.6756756756758
 21
793.5451528188346
 31
0.0
  0
LINE
  5
162
330
1F
100
AcDbEntity
  8
1-2
  6
Continuous
 62
     3
370
    13
100
AcDbLine
 10
284.6755569045609
 20
-250.6146487674197
 30
0.0
 11
284.6755569045609
 21
-251.5070404877532
 31
0.0
  0
LINE
  5
163
330
1F
100
AcDbEntity
  8
1-2
  6
Continuous
 62
     3
370
    13
100
AcDbLine
 10
-1394.594594594595
 20
844.189156197213
 30
0.0
 11
-264.5947018185177
 21
844.189156197213
 31
0.0
  0
LINE
  5
164
330
1F
100
AcDbEntity
  8
1-2
  6
Continuous
 62
     3
370
    13
100
AcDbLine
 10
-1394.594594594595
 20
835.1877903293919
 30
0.0
 11
-264.5947018185177
 21
835.1877903293919
 31
0.0
  0
LINE
  5
165
330
1F
100
AcDbEntity
  8
1-2
  6
Continuous
 62
     3
370
    13
100
AcDbLine
 10
-264.5947018185177
 20
668.1891693940033
 30
0.0
 11
-1394.594594594595
 21
668.1891693940033
 31
0.0
  0
LINE
  5
166
330
1F
100
AcDbEntity
  8
1-2
  6
Continuous
 62
     3
370
    13
100
AcDbLine
 10
-264.5947018185177
 20
680.1895059121623
 30
0.0
 11
-1394.594594594595
 21
680.1895059121623
 31
0.0
  0
LINE
  5
167
330
1F
100
AcDbEntity
  8
1-2
  6
Continuous
 62
     3
370
    13
100
AcDbLine
 10
-264.5947018185177
 20
480.1895883921031
 30
0.0
 11
-1394.594594594595
 21
480.1895883921031
 31
0.0
  0
LINE
  5
168
330
1F
100
AcDbEntity
  8
1-2
  6
Continuous
 62
     3
370
    13
100
AcDbLine
 10
-1384.594314162796
 20
480.1895883921031
 30
0.0
 11
-1384.594314162796
 21
668.1891693940033
 31
0.0
  0
LINE
  5
169
330
1F
100
AcDbEntity
  8
1-2
  6
Continuous
 62
     3
370
    13
100
AcDbLine
 10
-1364.324600632126
 20
480.1895883921031
 30
0.0
 11
-1364.324600632126
 21
668.1891693940033
 31
0.0
  0
LINE
  5
16A
330
1F
100
AcDbEntity
  8
1-2
  6
Continuous
 62
     3
370
    13
100
AcDbLine
 10
-1354.325309959618
 20
480.1895883921031
 30
0.0
 11
-1354.325309959618
 21
668.1891693940033
 31
0.0
  0
LINE
  5
16B
330
1F
100
AcDbEntity
  8
1-2
  6
Continuous
 62
     3
370
    13
100
AcDbLine
 10
-274.5941162109375
 20
480.1895883921031
 30
0.0
 11
-274.5941162109375
 21
668.1891693940033
 31
0.0
  0
LINE
  5
16C
330
1F
100
AcDbEntity
  8
1-2
  6
Continuous
 62
     3
370
    13
100
AcDbLine
 10
-1384.594314162796
 20
680.1895059121623
 30
0.0
 11
-1384.594314162796
 21
835.1877903293919
 31
0.0
  0
LINE
  5
16D
330
1F
100
AcDbEntity
  8
1-2
  6
Continuous
 62
     3
370
    13
100
AcDbLine
 10
-1364.324600632126
 20
680.1895059121623
 30
0.0
 11
-1364.324600632126
 21
835.1877903293919
 31
0.0
  0
LINE
  5
16E
330
1F
100
AcDbEntity
  8
1-2
  6
Continuous
 62
     3
370
    13
100
AcDbLine
 10
-1354.325309959618
 20
680.1895059121623
 30
0.0
 11
-1354.325309959618
 21
835.1877903293919
 31
0.0
  0
LINE
  5
16F
330
1F
100
AcDbEntity
  8
1-2
  6
Continuous
 62
     3
370
    13
100
AcDbLine
 10
-1384.594314162796
 20
680.1895059121623
 30
0.0
 11
-1384.594314162796
 21
835.1877903293919
 31
0.0
  0
LINE
  5
170
330
1F
100
AcDbEntity
  8
1-2
  6
Continuous
 62
     3
370
    13
100
AcDbLine
 10
-274.5941162109375
 20
680.1895059121623
 30
0.0
 11
-274.5941162109375
 21
835.1877903293919
 31
0.0
  0
LINE
  5
171
330
1F
100
AcDbEntity
  8
1-2
  6
Continuous
 62
     3
370
    13
100
AcDbLine
 10
-1384.594314162796
 20
480.1895883921031
 30
0.0
 11
-1384.594314162796
 21
668.1891693940033
 31
0.0
  0
LINE
  5
172
330
1F
100
AcDbEntity
  8
1-2
  6
Continuous
 62
     3
370
    13
100
AcDbLine
 10
-264.5947018185177
 20
468.1892518739443
 30
0.0
 11
-1394.594594594595
 21
468.1892518739443
 31
0.0
  0
LINE
  5
173
330
1F
100
AcDbEntity
  8
1-2
  6
Continuous
 62
     3
370
    13
100
AcDbLine
 10
-264.5947018185177
 20
-295.8107695708404
 30
0.0
 11
-1394.594594594595
 21
-295.8107695708404
 31
0.0
  0
LINE
  5
174
330
1F
100
AcDbEntity
  8
1-2
  6
Continuous
 62
     3
370
    13
100
AcDbLine
 10
-264.5947018185177
 20
-283.8106804925042
 30
0.0
 11
-1394.594594594595
 21
-283.8106804925042
 31
0.0
  0
LINE
  5
175
330
1F
100
AcDbEntity
  8
1-2
  6
Continuous
 62
     3
370
    13
100
AcDbLine
 10
275.6756756756758
 20
844.189156197213
 30
0.0
 11
275.6756756756758
 21
835.1887800886825
 31
0.0
  0
LINE
  5
176
330
1F
100
AcDbEntity
  8
1-2
  6
Continuous
 62
     3
370
    13
100
AcDbLine
 10
275.6756756756758
 20
844.189156197213
 30
0.0
 11
313.6755041173987
 21
844.189156197213
 31
0.0
  0
LINE
  5
177
330
1F
100
AcDbEntity
  8
1-2
  6
Continuous
 62
     3
370
    13
100
AcDbLine
 10
272.6757152660474
 20
835.1887800886825
 30
0.0
 11
272.6757152660474
 21
830.1603080130915
 31
0.0
  0
LINE
  5
178
330
1F
100
AcDbEntity
  8
1-2
  6
Continuous
 62
     3
370
    13
100
AcDbLine
 10
275.6756756756758
 20
835.1887800886825
 30
0.0
 11
272.6757152660474
 21
835.1887800886825
 31
0.0
  0
LINE
  5
179
330
1F
100
AcDbEntity
  8
F-D
  6
Continuous
 62
     7
370
    13
100
AcDbLine
 10
-1111.431884765625
 20
-589.3356405722127
 30
0.0
 11
-861.7382565060177
 21
-589.3356405722127
 31
0.0
  0
LINE
  5
17A
330
1F
100
AcDbEntity
  8
F-D
  6
Continuous
 62
     7
370
    13
100
AcDbLine
 10
-1111.431884765625
 20
-589.3356405722127
 30
0.0
 11
-1171.38952306799
 21
-671.7494325380068
 31
0.0
  0
LINE
  5
17B
330
1F
100
AcDbEntity
  8
F-D
  6
Continuous
 62
     7
370
    13
100
AcDbLine
 10
-1171.38952306799
 20
-671.7494325380068
 30
0.0
 11
-1159.446592588683
 21
-649.7861790012668
 31
0.0
  0
LINE
  5
17C
330
1F
100
AcDbEntity
  8
F-D
  6
Continuous
 62
     7
370
    13
100
AcDbLine
 10
-1171.38952306799
 20
-671.7494325380068
 30
0.0
 11
-1154.16919605152
 21
-653.6259501689188
 31
0.0
  0
LINE
  5
17D
330
1F
100
AcDbEntity
  8
1-1
  6
Continuous
 62
     2
370
    13
100
AcDbLine
 10
362.875696130701
 20
750.1892419763516
 30
0.0
 11
338.4759026604732
 21
750.1892419763516
 31
0.0
  0
LINE
  5
17E
330
1F
100
AcDbEntity
  8
1-1
  6
Continuous
 62
     2
370
    13
100
AcDbLine
 10
325.6758406355576
 20
762.9888091216217
 30
0.0
 11
325.6758406355576
 21
817.3889490076016
 31
0.0
  0
LINE
  5
17F
330
1F
100
AcDbEntity
  8
1-1
  6
Continuous
 62
     2
370
    13
100
AcDbLine
 10
362.875696130701
 20
823.7892274598818
 30
0.0
 11
338.4756552206505
 21
823.7892274598818
 31
0.0
  0
LINE
  5
180
330
1F
100
AcDbEntity
  8
1-1
  6
Continuous
 62
     2
370
    13
100
AcDbLine
 10
369.2759745829815
 20
762.9893040012669
 30
0.0
 11
369.2759745829815
 21
817.3889490076016
 31
0.0
  0
LINE
  5
181
330
1F
100
AcDbEntity
  8
1-1
  6
Continuous
 62
     2
370
    13
100
AcDbLine
 10
362.875696130701
 20
830.1890110325169
 30
0.0
 11
338.4759026604732
 21
830.1890110325169
 31
0.0
  0
LINE
  5
182
330
1F
100
AcDbEntity
  8
1-1
  6
Continuous
 62
     2
370
    13
100
AcDbLine
 10
375.675510715794
 20
762.9888091216217
 30
0.0
 11
375.675510715794
 21
817.3889490076016
 31
0.0
  0
LINE
  5
183
330
1F
100
AcDbEntity
  8
1-1
  6
JWW_HOJO
 62
     2
370
    13
100
AcDbLine
 10
325.6758406355576
 20
817.3889490076016
 30
0.0
 11
325.6758406355576
 21
866.7081595755915
 31
0.0
  0
LINE
  5
184
330
1F
100
AcDbEntity
  8
1-1
  6
JWW_HOJO
 62
     2
370
    13
100
AcDbLine
 10
336.2791319151185
 20
844.189156197213
 30
0.0
 11
307.0698506123313
 21
844.189156197213
 31
0.0
  0
LINE
  5
185
330
1F
100
AcDbEntity
  8
1-1
  6
JWW_HOJO
 62
     2
370
    13
100
AcDbLine
 10
312.7782873205237
 20
790.1888790646117
 30
0.0
 11
394.6195035367401
 21
790.1888790646117
 31
0.0
  0
LINE
  5
186
330
1F
100
AcDbEntity
  8
1-1
  6
Continuous
 62
     2
370
    13
100
AcDbLine
 10
338.4759026604732
 20
756.5895204286318
 30
0.0
 11
362.875696130701
 21
756.5895204286318
 31
0.0
  0
LINE
  5
187
330
1F
100
AcDbEntity
  8
1-1
  6
Continuous
 62
     2
370
    13
100
AcDbLine
 10
332.0758716480154
 20
762.9893040012669
 30
0.0
 11
332.0758716480154
 21
817.3889490076016
 31
0.0
  0
LINE
  5
188
330
1F
100
AcDbEntity
  8
1-2
  6
Continuous
 62
     3
370
    13
100
AcDbLine
 10
272.6757152660474
 20
121.0955150707349
 30
0.0
 11
275.6756756756758
 21
122.1186787373313
 31
0.0
  0
LINE
  5
189
330
1F
100
AcDbEntity
  8
1-2
  6
Continuous
 62
     3
370
    13
100
AcDbLine
 10
272.6757152660474
 20
121.0955150707349
 30
0.0
 11
272.6757152660474
 21
113.1890704180745
 31
0.0
  0
LINE
  5
18A
330
1F
100
AcDbEntity
  8
1-2
  6
Continuous
 62
     3
370
    13
100
AcDbLine
 10
272.6757152660474
 20
-286.8108883419552
 30
0.0
 11
325.6758406355576
 21
-286.8108883419552
 31
0.0
  0
LINE
  5
18B
330
1F
100
AcDbEntity
  8
1-1
  6
Continuous
 62
     2
370
    13
100
AcDbLine
 10
362.875696130701
 20
-201.8113502296242
 30
0.0
 11
338.4759026604732
 21
-201.8113502296242
 31
0.0
  0
LINE
  5
18C
330
1F
100
AcDbEntity
  8
1-1
  6
Continuous
 62
     2
370
    13
100
AcDbLine
 10
325.6758406355576
 20
-214.6109173748944
 30
0.0
 11
325.6758406355576
 21
-269.0110572608741
 31
0.0
  0
LINE
  5
18D
330
1F
100
AcDbEntity
  8
1-1
  6
Continuous
 62
     2
370
    13
100
AcDbLine
 10
362.875696130701
 20
-275.4110882733319
 30
0.0
 11
338.4756552206505
 21
-275.4110882733319
 31
0.0
  0
LINE
  5
18E
330
1F
100
AcDbEntity
  8
1-1
  6
Continuous
 62
     2
370
    13
100
AcDbLine
 10
369.2759745829815
 20
-214.6112885346282
 30
0.0
 11
369.2759745829815
 21
-269.0110572608741
 31
0.0
  0
LINE
  5
18F
330
1F
100
AcDbEntity
  8
1-1
  6
Continuous
 62
     2
370
    13
100
AcDbLine
 10
362.875696130701
 20
-281.8111192857896
 30
0.0
 11
338.4759026604732
 21
-281.8111192857896
 31
0.0
  0
LINE
  5
190
330
1F
100
AcDbEntity
  8
1-1
  6
Continuous
 62
     2
370
    13
100
AcDbLine
 10
375.675510715794
 20
-214.6109173748944
 30
0.0
 11
375.675510715794
 21
-269.0110572608741
 31
0.0
  0
LINE
  5
191
330
1F
100
AcDbEntity
  8
1-1
  6
JWW_HOJO
 62
     2
370
    13
100
AcDbLine
 10
312.7782873205237
 20
-241.8109873178842
 30
0.0
 11
394.6195035367401
 21
-241.8109873178842
 31
0.0
  0
LINE
  5
192
330
1F
100
AcDbEntity
  8
1-1
  6
Continuous
 62
     2
370
    13
100
AcDbLine
 10
338.4759026604732
 20
-208.2112575221706
 30
0.0
 11
362.875696130701
 21
-208.2112575221706
 31
0.0
  0
LINE
  5
193
330
1F
100
AcDbEntity
  8
1-1
  6
Continuous
 62
     2
370
    13
100
AcDbLine
 10
332.0758716480154
 20
-214.6112885346282
 30
0.0
 11
332.0758716480154
 21
-269.0110572608741
 31
0.0
  0
LINE
  5
194
330
1F
100
AcDbEntity
  8
F-4
  6
Continuous
 62
     7
370
    13
100
AcDbLine
 10
520.4372096706084
 20
1046.725579339105
 30
0.0
 11
1089.476301863387
 21
1046.725579339105
 31
0.0
  0
LINE
  5
195
330
1F
100
AcDbEntity
  8
1-5
  6
Continuous
 62
     7
370
    13
100
AcDbLine
 10
520.4372096706084
 20
1046.725579339105
 30
0.0
 11
356.5842912003802
 21
827.5542718010981
 31
0.0
  0
LINE
  5
196
330
1F
100
AcDbEntity
  8
1-5
  6
Continuous
 62
     7
370
    13
100
AcDbLine
 10
356.5842912003802
 20
827.5542718010981
 30
0.0
 11
371.2131809543919
 21
853.7457770270271
 31
0.0
  0
LINE
  5
197
330
1F
100
AcDbEntity
  8
1-5
  6
Continuous
 62
     7
370
    13
100
AcDbLine
 10
356.5842912003802
 20
827.5542718010981
 30
0.0
 11
377.4934510926943
 21
849.0671848606419
 31
0.0
  0
LINE
  5
198
330
1F
100
AcDbEntity
  8
1-1
  6
JWW_DASHED1
 62
     2
370
    13
100
AcDbLine
 10
-1384.594561602618
 20
830.1890110325169
 30
0.0
 11
-1384.594561602618
 21
750.1892419763516
 31
0.0
  0
LINE
  5
199
330
1F
100
AcDbEntity
  8
1-1
  6
JWW_DASHED1
 62
     2
370
    13
100
AcDbLine
 10
-274.594734810494
 20
830.1890110325169
 30
0.0
 11
-1384.594561602618
 21
830.1890110325169
 31
0.0
  0
LINE
  5
19A
330
1F
100
AcDbEntity
  8
1-1
  6
JWW_DASHED1
 62
     2
370
    13
100
AcDbLine
 10
-274.594734810494
 20
830.1890110325169
 30
0.0
 11
-274.594734810494
 21
750.1892419763516
 31
0.0
  0
LINE
  5
19B
330
1F
100
AcDbEntity
  8
1-1
  6
JWW_DASHED1
 62
     2
370
    13
100
AcDbLine
 10
-274.594734810494
 20
750.1892419763516
 30
0.0
 11
-1384.594561602618
 21
750.1892419763516
 31
0.0
  0
LINE
  5
19C
330
1F
100
AcDbEntity
  8
1-1
  6
JWW_DASHED1
 62
     2
370
    13
100
AcDbLine
 10
-274.594734810494
 20
-281.8111192857896
 30
0.0
 11
-1384.594561602618
 21
-281.8111192857896
 31
0.0
  0
LINE
  5
19D
330
1F
100
AcDbEntity
  8
1-3
  6
JWW_CENTER1
 62
     4
370
    13
100
AcDbLine
 10
1328.62169420397
 20
1131.696661871833
 30
0.0
 11
1281.531421558277
 21
1131.696661871833
 31
0.0
  0
LINE
  5
19E
330
1F
100
AcDbEntity
  8
1-3
  6
Continuous
 62
     4
370
    13
100
AcDbLine
 10
1348.621760187923
 20
1118.697163349873
 30
0.0
 11
1348.621760187923
 21
893.1137002480998
 31
0.0
  0
LINE
  5
19F
330
1F
100
AcDbEntity
  8
1-3
  6
Continuous
 62
     4
370
    13
100
AcDbLine
 10
1334.621615023227
 20
1118.696668470228
 30
0.0
 11
1334.621615023227
 21
893.1137002480998
 31
0.0
  0
LINE
  5
1A0
330
1F
100
AcDbEntity
  8
1-3
  6
JWW_CENTER1
 62
     4
370
    13
100
AcDbLine
 10
1382.88475242821
 20
861.696760847762
 30
0.0
 11
1304.309494430955
 21
861.696760847762
 31
0.0
  0
LINE
  5
1A1
330
1F
100
AcDbEntity
  8
1-3
  6
Continuous
 62
     4
370
    13
100
AcDbLine
 10
1337.758904534417
 20
875.153528161951
 30
0.0
 11
1329.790599926098
 21
887.0746839368667
 31
0.0
  0
LINE
  5
1A2
330
1F
100
AcDbEntity
  8
1-3
  6
Continuous
 62
     4
370
    13
100
AcDbLine
 10
1328.62169420397
 20
1138.696734454181
 30
0.0
 11
1284.621697503167
 21
1138.696734454181
 31
0.0
  0
LINE
  5
1A3
330
1F
100
AcDbEntity
  8
1-3
  6
Continuous
 62
     4
370
    13
100
AcDbLine
 10
1284.621697503167
 20
1124.696589289485
 30
0.0
 11
1284.621697503167
 21
1138.696734454181
 31
0.0
  0
LINE
  5
1A4
330
1F
100
AcDbEntity
  8
1-3
  6
Continuous
 62
     4
370
    13
100
AcDbLine
 10
1328.62169420397
 20
1124.696589289485
 30
0.0
 11
1284.621697503167
 21
1124.696589289485
 31
0.0
  0
LINE
  5
1A5
330
1F
100
AcDbEntity
  8
1-3
  6
Continuous
 62
     2
370
    13
100
AcDbLine
 10
359.6765466638516
 20
568.1890869140625
 30
0.0
 11
398.5768086201438
 21
568.1890869140625
 31
0.0
  0
LINE
  5
1A6
330
1F
100
AcDbEntity
  8
1-3
  6
Continuous
 62
     2
370
    13
100
AcDbLine
 10
359.6765466638516
 20
580.1891759923988
 30
0.0
 11
398.5768086201438
 21
580.1891759923988
 31
0.0
  0
LINE
  5
1A7
330
1F
100
AcDbEntity
  8
1-3
  6
Continuous
 62
     4
370
    13
100
AcDbLine
 10
415.6766324429901
 20
556.1889978357266
 30
0.0
 11
463.6764938766891
 21
556.1889978357266
 31
0.0
  0
LINE
  5
1A8
330
1F
100
AcDbEntity
  8
1-3
  6
Continuous
 62
     4
370
    13
100
AcDbLine
 10
415.6766324429901
 20
592.1890176309123
 30
0.0
 11
463.6764938766891
 21
592.1890176309123
 31
0.0
  0
LINE
  5
1A9
330
1F
100
AcDbEntity
  8
1-3
  6
Continuous
 62
     4
370
    13
100
AcDbLine
 10
422.6207836254224
 20
582.188984638936
 30
0.0
 11
463.6764938766891
 21
582.188984638936
 31
0.0
  0
LINE
  5
1AA
330
1F
100
AcDbEntity
  8
1-3
  6
Continuous
 62
     4
370
    13
100
AcDbLine
 10
422.6207836254224
 20
566.1890308277029
 30
0.0
 11
463.6764938766891
 21
566.1890308277029
 31
0.0
  0
LINE
  5
1AB
330
1F
100
AcDbEntity
  8
1-3
  6
Continuous
 62
     4
370
    13
100
AcDbLine
 10
575.1788165118245
 20
546.18896484375
 30
0.0
 11
560.1740656672297
 21
602.1890506228885
 31
0.0
  0
LINE
  5
1AC
330
1F
100
AcDbEntity
  8
1-3
  6
Continuous
 62
     4
370
    13
100
AcDbLine
 10
543.6765103726776
 20
592.1890176309123
 30
0.0
 11
562.8535915065459
 21
592.1890176309123
 31
0.0
  0
LINE
  5
1AD
330
1F
100
AcDbEntity
  8
1-3
  6
Continuous
 62
     4
370
    13
100
AcDbLine
 10
543.6765103726776
 20
582.188984638936
 30
0.0
 11
565.5328699060391
 21
582.188984638936
 31
0.0
  0
LINE
  5
1AE
330
1F
100
AcDbEntity
  8
1-3
  6
Continuous
 62
     4
370
    13
100
AcDbLine
 10
543.6765103726776
 20
566.1890308277029
 30
0.0
 11
569.8200122730151
 21
566.1890308277029
 31
0.0
  0
LINE
  5
1AF
330
1F
100
AcDbEntity
  8
1-3
  6
Continuous
 62
     4
370
    13
100
AcDbLine
 10
543.6765103726776
 20
556.1889978357266
 30
0.0
 11
572.4992906725083
 21
556.1889978357266
 31
0.0
  0
LINE
  5
1B0
330
1F
100
AcDbEntity
  8
1-3
  6
Continuous
 62
     4
370
    13
100
AcDbLine
 10
540.676549963049
 20
579.1890242293075
 30
0.0
 11
466.6764542863177
 21
579.1890242293075
 31
0.0
  0
LINE
  5
1B1
330
1F
100
AcDbEntity
  8
1-3
  6
Continuous
 62
     4
370
    13
100
AcDbLine
 10
540.676549963049
 20
569.1889912373313
 30
0.0
 11
466.6764542863177
 21
569.1889912373313
 31
0.0
  0
LINE
  5
1B2
330
1F
100
AcDbEntity
  8
1-3
  6
Continuous
 62
     4
370
    13
100
AcDbLine
 10
309.6768765836151
 20
582.188984638936
 30
0.0
 11
357.6767380173143
 21
582.188984638936
 31
0.0
  0
LINE
  5
1B3
330
1F
100
AcDbEntity
  8
1-3
  6
Continuous
 62
     4
370
    13
100
AcDbLine
 10
309.6768765836151
 20
582.188984638936
 30
0.0
 11
309.6768765836151
 21
592.1890176309123
 31
0.0
  0
LINE
  5
1B4
330
1F
100
AcDbEntity
  8
1-3
  6
Continuous
 62
     4
370
    13
100
AcDbLine
 10
309.6768765836151
 20
592.1890176309123
 30
0.0
 11
357.6767380173143
 21
592.1890176309123
 31
0.0
  0
LINE
  5
1B5
330
1F
100
AcDbEntity
  8
1-3
  6
Continuous
 62
     4
370
    13
100
AcDbLine
 10
309.6768765836151
 20
566.1890308277029
 30
0.0
 11
357.6767380173143
 21
566.1890308277029
 31
0.0
  0
LINE
  5
1B6
330
1F
100
AcDbEntity
  8
1-3
  6
Continuous
 62
     4
370
    13
100
AcDbLine
 10
309.6768765836151
 20
556.1889978357266
 30
0.0
 11
309.6768765836151
 21
566.1890308277029
 31
0.0
  0
LINE
  5
1B7
330
1F
100
AcDbEntity
  8
1-3
  6
Continuous
 62
     4
370
    13
100
AcDbLine
 10
309.6768765836151
 20
556.1889978357266
 30
0.0
 11
357.6767380173143
 21
556.1889978357266
 31
0.0
  0
LINE
  5
1B8
330
1F
100
AcDbEntity
  8
1-3
  6
JWW_CENTER1
 62
     4
370
    13
100
AcDbLine
 10
1341.621687605575
 20
594.1893211570948
 30
0.0
 11
1341.621687605575
 21
1118.697163349873
 31
0.0
  0
LINE
  5
1B9
330
1F
100
AcDbEntity
  8
1-3
  6
JWW_CENTER1
 62
     4
370
    13
100
AcDbLine
 10
1321.621621621622
 20
574.1892551731419
 30
0.0
 11
287.2063714104732
 21
574.1892551731419
 31
0.0
  0
LINE
  5
1BA
330
1F
100
AcDbEntity
  8
1-2
  6
Continuous
 62
     3
370
    13
100
AcDbLine
 10
314.6756558804901
 20
835.1887800886825
 30
0.0
 11
314.6756558804901
 21
593.226780247044
 31
0.0
  0
LINE
  5
1BB
330
1F
100
AcDbEntity
  8
1-2
  6
Continuous
 62
     3
370
    13
100
AcDbLine
 10
316.6759594066724
 20
835.1887800886825
 30
0.0
 11
316.6759594066724
 21
593.2272751266894
 31
0.0
  0
LINE
  5
1BC
330
1F
100
AcDbEntity
  8
1-3
  6
JWW_HOJO
 62
     4
370
    13
100
AcDbLine
 10
325.6758406355576
 20
555.4951765730575
 30
0.0
 11
325.6758406355576
 21
527.1069006017738
 31
0.0
  0
LINE
  5
1BD
330
1F
100
AcDbEntity
  8
1-2
  6
Continuous
 62
     3
370
    13
100
AcDbLine
 10
316.6759594066724
 20
-286.8108883419552
 30
0.0
 11
316.6759594066724
 21
553.7630978146117
 31
0.0
  0
LINE
  5
1BE
330
1F
100
AcDbEntity
  8
1-2
  6
Continuous
 62
     3
370
    13
100
AcDbLine
 10
316.6759594066724
 20
567.9206147065033
 30
0.0
 11
316.6759594066724
 21
580.4574007601352
 31
0.0
  0
LINE
  5
1BF
330
1F
100
AcDbEntity
  8
1-2
  6
Continuous
 62
     3
370
    13
100
AcDbLine
 10
314.6756558804901
 20
-286.8108883419552
 30
0.0
 11
314.6756558804901
 21
553.7635926942568
 31
0.0
  0
LINE
  5
1C0
330
1F
100
AcDbEntity
  8
1-2
  6
Continuous
 62
     3
370
    13
100
AcDbLine
 10
314.6756558804901
 20
567.9201198268584
 30
0.0
 11
314.6756558804901
 21
580.4578956397804
 31
0.0
  0
LINE
  5
1C1
330
1F
100
AcDbEntity
  8
1-2
  6
Continuous
 62
     3
370
    13
100
AcDbLine
 10
325.6758406355576
 20
566.1890308277029
 30
0.0
 11
325.6758406355576
 21
582.188984638936
 31
0.0
  0
LINE
  5
1C2
330
1F
100
AcDbEntity
  8
1-1
  6
JWW_DASHED1
 62
     2
370
    13
100
AcDbLine
 10
287.2063714104732
 20
533.4955493823904
 30
0.0
 11
284.3786291173987
 21
533.4955493823904
 31
0.0
  0
LINE
  5
1C3
330
1F
100
AcDbEntity
  8
1-4
  6
Continuous
 62
     7
370
    13
100
AcDbLine
 10
663.6405326224661
 20
860.2566610800255
 30
0.0
 11
1223.330853436444
 21
860.2566610800255
 31
0.0
  0
LINE
  5
1C4
330
1F
100
AcDbEntity
  8
1-5
  6
Continuous
 62
     7
370
    13
100
AcDbLine
 10
575.2132106471709
 20
135.1523239548143
 30
0.0
 11
336.0356511296453
 21
558.0019894161742
 31
0.0
  0
LINE
  5
1C5
330
1F
100
AcDbEntity
  8
1-4
  6
Continuous
 62
     7
370
    13
100
AcDbLine
 10
591.5796228357266
 20
293.902290962838
 30
0.0
 11
1153.580289273649
 21
293.902290962838
 31
0.0
  0
LINE
  5
1C6
330
1F
100
AcDbEntity
  8
1-5
  6
Continuous
 62
     7
370
    13
100
AcDbLine
 10
663.6405326224661
 20
860.2566610800255
 30
0.0
 11
491.2450017155828
 21
578.4432406038852
 31
0.0
  0
LINE
  5
1C7
330
1F
100
AcDbEntity
  8
F-4
  6
Continuous
 62
     7
370
    13
100
AcDbLine
 10
-876.6336389490075
 20
786.2271200644005
 30
0.0
 11
-803.8677731075802
 21
1057.791830526816
 31
0.0
  0
LINE
  5
1C8
330
1F
100
AcDbEntity
  8
F-4
  6
Continuous
 62
     7
370
    13
100
AcDbLine
 10
-966.8172887853673
 20
844.189156197213
 30
0.0
 11
-873.8562506598395
 21
1191.125273833404
 31
0.0
  0
LINE
  5
1C9
330
1F
100
AcDbEntity
  8
1-4
  6
Continuous
 62
     7
370
    13
100
AcDbLine
 10
490.3227934966219
 20
-327.4268980283995
 30
0.0
 11
490.3227934966219
 21
-281.8111192857896
 31
0.0
  0
LINE
  5
1CA
330
1F
100
AcDbEntity
  8
1-4
  6
Continuous
 62
     7
370
    13
100
AcDbLine
 10
328.6755536053633
 20
-295.8107695708404
 30
0.0
 11
493.32275390625
 21
-295.8107695708404
 31
0.0
  0
LINE
  5
1CB
330
1F
100
AcDbEntity
  8
1-4
  6
Continuous
 62
     7
370
    13
100
AcDbLine
 10
377.8757456186656
 20
-281.8111192857896
 30
0.0
 11
493.32275390625
 21
-281.8111192857896
 31
0.0
  0
LINE
  5
1CC
330
1F
100
AcDbEntity
  8
1-4
  6
Continuous
 62
     7
370
    13
100
AcDbLine
 10
490.3227934966219
 20
-281.8111192857896
 30
0.0
 11
490.3227934966219
 21
-201.8108553499789
 31
0.0
  0
LINE
  5
1CD
330
1F
100
AcDbEntity
  8
1-4
  6
Continuous
 62
     7
370
    13
100
AcDbLine
 10
377.8757456186656
 20
-201.8108553499789
 30
0.0
 11
493.32275390625
 21
-201.8108553499789
 31
0.0
  0
LINE
  5
1CE
330
1F
100
AcDbEntity
  8
1-4
  6
Continuous
 62
     7
370
    13
100
AcDbLine
 10
490.3227934966219
 20
-201.8108553499789
 30
0.0
 11
490.3227934966219
 21
750.1892419763516
 31
0.0
  0
LINE
  5
1CF
330
1F
100
AcDbEntity
  8
1-4
  6
Continuous
 62
     7
370
    13
100
AcDbLine
 10
377.8757456186656
 20
750.1892419763516
 30
0.0
 11
493.32275390625
 21
750.1892419763516
 31
0.0
  0
LINE
  5
1D0
330
1F
100
AcDbEntity
  8
1-4
  6
Continuous
 62
     7
370
    13
100
AcDbLine
 10
490.3227934966219
 20
750.1892419763516
 30
0.0
 11
490.3227934966219
 21
830.1890110325169
 31
0.0
  0
LINE
  5
1D1
330
1F
100
AcDbEntity
  8
1-4
  6
Continuous
 62
     7
370
    13
100
AcDbLine
 10
377.8757456186656
 20
830.1890110325169
 30
0.0
 11
493.32275390625
 21
830.1890110325169
 31
0.0
  0
LINE
  5
1D2
330
1F
100
AcDbEntity
  8
1-4
  6
Continuous
 62
     7
370
    13
100
AcDbLine
 10
490.3227934966219
 20
830.1890110325169
 30
0.0
 11
490.3227934966219
 21
872.1013579497467
 31
0.0
  0
LINE
  5
1D3
330
1F
100
AcDbEntity
  8
1-4
  6
Continuous
 62
     7
370
    13
100
AcDbLine
 10
322.0699001002959
 20
844.189156197213
 30
0.0
 11
493.32275390625
 21
844.189156197213
 31
0.0
  0
LINE
  5
1D4
330
1F
100
AcDbEntity
  8
1-5
  6
Continuous
 62
     7
370
    13
100
AcDbLine
 10
591.5796228357266
 20
293.902290962838
 30
0.0
 11
419.5795007654141
 21
568.8059543918919
 31
0.0
  0
LINE
  5
1D5
330
1F
100
AcDbEntity
  8
1-4
  6
Continuous
 62
     7
370
    13
100
AcDbLine
 10
275.6756756756758
 20
-404.6596712679475
 30
0.0
 11
325.6758406355576
 21
-404.6596712679475
 31
0.0
  0
LINE
  5
1D6
330
1F
100
AcDbEntity
  8
1-4
  6
Continuous
 62
     7
370
    13
100
AcDbLine
 10
275.6756756756758
 20
-310.8108190588048
 30
0.0
 11
275.6756756756758
 21
-407.6596316775759
 31
0.0
  0
LINE
  5
1D7
330
1F
100
AcDbEntity
  8
1-4
  6
Continuous
 62
     7
370
    13
100
AcDbLine
 10
325.6758406355576
 20
-301.8109378299197
 30
0.0
 11
325.6758406355576
 21
-407.6596316775759
 31
0.0
  0
LINE
  5
1D8
330
1F
100
AcDbEntity
  8
1-4
  6
Continuous
 62
     7
370
    13
100
AcDbLine
 10
325.6758406355576
 20
-404.6596712679475
 30
0.0
 11
375.675510715794
 21
-404.6596712679475
 31
0.0
  0
LINE
  5
1D9
330
1F
100
AcDbEntity
  8
1-4
  6
Continuous
 62
     7
370
    13
100
AcDbLine
 10
375.675510715794
 20
-284.0111067488386
 30
0.0
 11
375.675510715794
 21
-407.6596316775759
 31
0.0
  0
LINE
  5
1DA
330
1F
100
AcDbEntity
  8
1-4
  6
Continuous
 62
     7
370
    13
100
AcDbLine
 10
275.6756756756758
 20
-484.0346547719594
 30
0.0
 11
375.6757581556167
 21
-484.0346547719594
 31
0.0
  0
LINE
  5
1DB
330
1F
100
AcDbEntity
  8
1-4
  6
Continuous
 62
     7
370
    13
100
AcDbLine
 10
275.6756756756758
 20
-310.8108190588048
 30
0.0
 11
275.6756756756758
 21
-487.0346151815878
 31
0.0
  0
LINE
  5
1DC
330
1F
100
AcDbEntity
  8
1-4
  6
Continuous
 62
     7
370
    13
100
AcDbLine
 10
375.6757581556167
 20
-284.0111067488386
 30
0.0
 11
375.6757581556167
 21
-487.0346151815878
 31
0.0
  0
LINE
  5
1DD
330
1F
100
AcDbEntity
  8
1-4
  6
Continuous
 62
     7
370
    13
100
AcDbLine
 10
173.1450261296453
 20
-295.8107695708404
 30
0.0
 11
173.1450261296453
 21
844.189156197213
 31
0.0
  0
LINE
  5
1DE
330
1F
100
AcDbEntity
  8
1-4
  6
Continuous
 62
     7
370
    13
100
AcDbLine
 10
260.6756261877112
 20
-295.8107695708404
 30
0.0
 11
170.1450657200169
 21
-295.8107695708404
 31
0.0
  0
LINE
  5
1DF
330
1F
100
AcDbEntity
  8
1-4
  6
Continuous
 62
     7
370
    13
100
AcDbLine
 10
260.6756261877112
 20
844.189156197213
 30
0.0
 11
170.1450657200169
 21
844.189156197213
 31
0.0
  0
LINE
  5
1E0
330
1F
100
AcDbEntity
  8
1-4
  6
Continuous
 62
     7
370
    13
100
AcDbLine
 10
-1394.594594594595
 20
-404.6596712679475
 30
0.0
 11
-264.5947018185177
 21
-404.6596712679475
 31
0.0
  0
LINE
  5
1E1
330
1F
100
AcDbEntity
  8
1-4
  6
Continuous
 62
     7
370
    13
100
AcDbLine
 10
-1394.594594594595
 20
-310.8108190588048
 30
0.0
 11
-1394.594594594595
 21
-407.6596316775759
 31
0.0
  0
LINE
  5
1E2
330
1F
100
AcDbEntity
  8
1-4
  6
Continuous
 62
     7
370
    13
100
AcDbLine
 10
-264.5947018185177
 20
-310.8108190588048
 30
0.0
 11
-264.5947018185177
 21
-407.6596316775759
 31
0.0
  0
LINE
  5
1E3
330
1F
100
AcDbEntity
  8
1-4
  6
Continuous
 62
     7
370
    13
100
AcDbLine
 10
-1238.244979445999
 20
895.3871773384714
 30
0.0
 11
-1207.97498548353
 21
895.3871773384714
 31
0.0
  0
LINE
  5
1E4
330
1F
100
AcDbEntity
  8
1-4
  6
Continuous
 62
     7
370
    13
100
AcDbLine
 10
-1238.244979445999
 20
799.5198347761825
 30
0.0
 11
-1238.244979445999
 21
898.3871377480998
 31
0.0
  0
LINE
  5
1E5
330
1F
100
AcDbEntity
  8
1-4
  6
Continuous
 62
     7
370
    13
100
AcDbLine
 10
-1207.97498548353
 20
799.5198347761825
 30
0.0
 11
-1207.97498548353
 21
898.3871377480998
 31
0.0
  0
LINE
  5
1E6
330
1F
100
AcDbEntity
  8
1-4
  6
Continuous
 62
     7
370
    13
100
AcDbLine
 10
491.2450017155828
 20
578.4432406038852
 30
0.0
 11
501.3957255595443
 21
601.2896068676099
 31
0.0
  0
LINE
  5
1E7
330
1F
100
AcDbEntity
  8
1-4
  6
Continuous
 62
     7
370
    13
100
AcDbLine
 10
491.2450017155828
 20
578.4432406038852
 30
0.0
 11
506.962874129012
 21
597.8840925886825
 31
0.0
  0
LINE
  5
1E8
330
1F
100
AcDbEntity
  8
1-4
  6
Continuous
 62
     7
370
    13
100
AcDbLine
 10
419.5795007654141
 20
569.499775654561
 30
0.0
 11
435.4926031989021
 21
550.2182749155406
 31
0.0
  0
LINE
  5
1E9
330
1F
100
AcDbEntity
  8
1-4
  6
Continuous
 62
     7
370
    13
100
AcDbLine
 10
419.5795007654141
 20
568.8059543918919
 30
0.0
 11
429.9600962046031
 21
546.0627705342063
 31
0.0
  0
LINE
  5
1EA
330
1F
100
AcDbEntity
  8
1-4
  6
Continuous
 62
     7
370
    13
100
AcDbLine
 10
336.0356511296453
 20
558.0019894161742
 30
0.0
 11
351.0790025865711
 21
538.0343380489867
 31
0.0
  0
LINE
  5
1EB
330
1F
100
AcDbEntity
  8
1-4
  6
Continuous
 62
     7
370
    13
100
AcDbLine
 10
336.0356511296453
 20
558.0019894161742
 30
0.0
 11
345.3982791385135
 21
534.8215793918919
 31
0.0
  0
LINE
  5
1EC
330
1F
100
AcDbEntity
  8
1-2
  6
Continuous
 62
     3
370
    13
100
AcDbLine
 10
272.6757152660474
 20
121.0955150707349
 30
0.0
 11
272.6757152660474
 21
112.2809662690034
 31
0.0
  0
LINE
  5
1ED
330
1F
100
AcDbEntity
  8
1-2
  6
Continuous
 62
     3
370
    13
100
AcDbLine
 10
272.6757152660474
 20
112.2809662690034
 30
0.0
 11
275.6756756756758
 21
111.2582974820523
 31
0.0
  0
LINE
  5
1EE
330
1F
100
AcDbEntity
  8
1-2
  6
Continuous
 62
     3
370
    13
100
AcDbLine
 10
275.6756756756758
 20
111.2582974820523
 30
0.0
 11
275.6756756756758
 21
101.0321044921875
 31
0.0
  0
LINE
  5
1EF
330
1F
100
AcDbEntity
  8
1-2
  6
Continuous
 62
     3
370
    13
100
AcDbLine
 10
272.6757152660474
 20
100.0089408255914
 30
0.0
 11
275.6756756756758
 21
101.0321044921875
 31
0.0
  0
LINE
  5
1F0
330
1F
100
AcDbEntity
  8
1-2
  6
Continuous
 62
     3
370
    13
100
AcDbLine
 10
272.6757152660474
 20
100.0089408255914
 30
0.0
 11
272.6757152660474
 21
92.10249617293073
 31
0.0
  0
LINE
  5
1F1
330
1F
100
AcDbEntity
  8
1-2
  6
Continuous
 62
     3
370
    13
100
AcDbLine
 10
272.6757152660474
 20
100.0089408255914
 30
0.0
 11
272.6757152660474
 21
91.1943920238599
 31
0.0
  0
LINE
  5
1F2
330
1F
100
AcDbEntity
  8
1-2
  6
Continuous
 62
     3
370
    13
100
AcDbLine
 10
272.6757152660474
 20
91.1943920238599
 30
0.0
 11
275.6756756756758
 21
90.17172323690886
 31
0.0
  0
LINE
  5
1F3
330
1F
100
AcDbEntity
  8
1-2
  6
Continuous
 62
     3
370
    13
100
AcDbLine
 10
275.6756756756758
 20
90.17172323690886
 30
0.0
 11
275.6756756756758
 21
79.94553024704402
 31
0.0
  0
LINE
  5
1F4
330
1F
100
AcDbEntity
  8
1-2
  6
Continuous
 62
     3
370
    13
100
AcDbLine
 10
272.6757152660474
 20
78.92236658044766
 30
0.0
 11
275.6756756756758
 21
79.94553024704402
 31
0.0
  0
LINE
  5
1F5
330
1F
100
AcDbEntity
  8
1-2
  6
Continuous
 62
     3
370
    13
100
AcDbLine
 10
272.6757152660474
 20
78.92236658044766
 30
0.0
 11
272.6757152660474
 21
71.01592192778725
 31
0.0
  0
LINE
  5
1F6
330
1F
100
AcDbEntity
  8
1-2
  6
Continuous
 62
     3
370
    13
100
AcDbLine
 10
272.6757152660474
 20
78.92236658044766
 30
0.0
 11
272.6757152660474
 21
70.10781777871642
 31
0.0
  0
LINE
  5
1F7
330
1F
100
AcDbEntity
  8
1-2
  6
Continuous
 62
     3
370
    13
100
AcDbLine
 10
272.6757152660474
 20
70.10781777871642
 30
0.0
 11
275.6756756756758
 21
69.08514899176538
 31
0.0
  0
LINE
  5
1F8
330
1F
100
AcDbEntity
  8
1-2
  6
Continuous
 62
     3
370
    13
100
AcDbLine
 10
275.6756756756758
 20
69.08514899176538
 30
0.0
 11
275.6756756756758
 21
58.85895600190054
 31
0.0
  0
LINE
  5
1F9
330
1F
100
AcDbEntity
  8
1-2
  6
Continuous
 62
     3
370
    13
100
AcDbLine
 10
272.6757152660474
 20
57.83579233530418
 30
0.0
 11
275.6756756756758
 21
58.85895600190054
 31
0.0
  0
LINE
  5
1FA
330
1F
100
AcDbEntity
  8
1-2
  6
Continuous
 62
     3
370
    13
100
AcDbLine
 10
272.6757152660474
 20
57.83579233530418
 30
0.0
 11
272.6757152660474
 21
49.92934768264377
 31
0.0
  0
LINE
  5
1FB
330
1F
100
AcDbEntity
  8
1-2
  6
Continuous
 62
     3
370
    13
100
AcDbLine
 10
272.6757152660474
 20
57.83579233530418
 30
0.0
 11
272.6757152660474
 21
49.02124353357266
 31
0.0
  0
LINE
  5
1FC
330
1F
100
AcDbEntity
  8
1-2
  6
Continuous
 62
     3
370
    13
100
AcDbLine
 10
272.6757152660474
 20
49.02124353357266
 30
0.0
 11
275.6756756756758
 21
47.99857474662161
 31
0.0
  0
LINE
  5
1FD
330
1F
100
AcDbEntity
  8
1-2
  6
Continuous
 62
     3
370
    13
100
AcDbLine
 10
275.6756756756758
 20
47.99857474662161
 30
0.0
 11
275.6756756756758
 21
37.77238175675677
 31
0.0
  0
LINE
  5
1FE
330
1F
100
AcDbEntity
  8
1-2
  6
Continuous
 62
     3
370
    13
100
AcDbLine
 10
272.6757152660474
 20
36.7492180901607
 30
0.0
 11
275.6756756756758
 21
37.77238175675677
 31
0.0
  0
LINE
  5
1FF
330
1F
100
AcDbEntity
  8
1-2
  6
Continuous
 62
     3
370
    13
100
AcDbLine
 10
272.6757152660474
 20
36.7492180901607
 30
0.0
 11
272.6757152660474
 21
28.8427734375
 31
0.0
  0
LINE
  5
200
330
1F
100
AcDbEntity
  8
1-2
  6
Continuous
 62
     3
370
    13
100
AcDbLine
 10
272.6757152660474
 20
36.7492180901607
 30
0.0
 11
272.6757152660474
 21
27.93466928842918
 31
0.0
  0
LINE
  5
201
330
1F
100
AcDbEntity
  8
1-2
  6
Continuous
 62
     3
370
    13
100
AcDbLine
 10
272.6757152660474
 20
27.93466928842918
 30
0.0
 11
275.6756756756758
 21
26.91200050147813
 31
0.0
  0
LINE
  5
202
330
1F
100
AcDbEntity
  8
1-2
  6
Continuous
 62
     3
370
    13
100
AcDbLine
 10
275.6756756756758
 20
26.91200050147813
 30
0.0
 11
275.6756756756758
 21
16.68580751161329
 31
0.0
  0
LINE
  5
203
330
1F
100
AcDbEntity
  8
1-2
  6
Continuous
 62
     3
370
    13
100
AcDbLine
 10
272.6757152660474
 20
15.66264384501693
 30
0.0
 11
275.6756756756758
 21
16.68580751161329
 31
0.0
  0
LINE
  5
204
330
1F
100
AcDbEntity
  8
1-2
  6
Continuous
 62
     3
370
    13
100
AcDbLine
 10
272.6757152660474
 20
15.66264384501693
 30
0.0
 11
272.6757152660474
 21
7.756199192356519
 31
0.0
  0
LINE
  5
205
330
1F
100
AcDbEntity
  8
1-2
  6
Continuous
 62
     3
370
    13
100
AcDbLine
 10
272.6757152660474
 20
15.66264384501693
 30
0.0
 11
272.6757152660474
 21
6.848095043285696
 31
0.0
  0
LINE
  5
206
330
1F
100
AcDbEntity
  8
1-2
  6
Continuous
 62
     3
370
    13
100
AcDbLine
 10
272.6757152660474
 20
6.848095043285696
 30
0.0
 11
275.6756756756758
 21
5.825426256334651
 31
0.0
  0
LINE
  5
207
330
1F
100
AcDbEntity
  8
1-2
  6
Continuous
 62
     3
370
    13
100
AcDbLine
 10
275.6756756756758
 20
5.825426256334651
 30
0.0
 11
275.6756756756758
 21
-4.40076673353019
 31
0.0
  0
LINE
  5
208
330
1F
100
AcDbEntity
  8
1-2
  6
Continuous
 62
     3
370
    13
100
AcDbLine
 10
272.6757152660474
 20
-5.423930400126551
 30
0.0
 11
275.6756756756758
 21
-4.40076673353019
 31
0.0
  0
LINE
  5
209
330
1F
100
AcDbEntity
  8
1-2
  6
Continuous
 62
     3
370
    13
100
AcDbLine
 10
272.6757152660474
 20
-5.423930400126551
 30
0.0
 11
272.6757152660474
 21
-14.23847920185807
 31
0.0
  0
LINE
  5
20A
330
1F
100
AcDbEntity
  8
1-2
  6
Continuous
 62
     3
370
    13
100
AcDbLine
 10
272.6757152660474
 20
-5.423930400126551
 30
0.0
 11
272.6757152660474
 21
-15.81071183488177
 31
0.0
  0
LINE
  5
20B
330
1F
100
AcDbEntity
  8
1-2
  6
Continuous
 62
     3
370
    13
100
AcDbLine
 10
-1394.594594594595
 20
844.189156197213
 30
0.0
 11
-1394.594594594595
 21
-295.8107695708404
 31
0.0
  0
LINE
  5
20C
330
1F
100
AcDbEntity
  8
1-2
  6
Continuous
 62
     3
370
    13
100
AcDbLine
 10
-264.5947018185177
 20
844.189156197213
 30
0.0
 11
-264.5947018185177
 21
-295.8107695708404
 31
0.0
  0
LINE
  5
20D
330
1F
100
AcDbEntity
  8
1-2
  6
Continuous
 62
     3
370
    13
100
AcDbLine
 10
-264.5947018185177
 20
280.1894234322214
 30
0.0
 11
-1394.594594594595
 21
280.1894234322214
 31
0.0
  0
LINE
  5
20E
330
1F
100
AcDbEntity
  8
1-2
  6
Continuous
 62
     3
370
    13
100
AcDbLine
 10
-264.5947018185177
 20
268.1890869140625
 30
0.0
 11
-1394.594594594595
 21
268.1890869140625
 31
0.0
  0
LINE
  5
20F
330
1F
100
AcDbEntity
  8
1-2
  6
Continuous
 62
     3
370
    13
100
AcDbLine
 10
-264.5947018185177
 20
80.18950591216225
 30
0.0
 11
-1394.594594594595
 21
80.18950591216225
 31
0.0
  0
LINE
  5
210
330
1F
100
AcDbEntity
  8
1-2
  6
Continuous
 62
     3
370
    13
100
AcDbLine
 10
-264.5947018185177
 20
68.18916939400339
 30
0.0
 11
-1394.594594594595
 21
68.18916939400339
 31
0.0
  0
LINE
  5
211
330
1F
100
AcDbEntity
  8
1-2
  6
Continuous
 62
     3
370
    13
100
AcDbLine
 10
-1384.594314162796
 20
280.1894234322214
 30
0.0
 11
-1384.594314162796
 21
468.1892518739443
 31
0.0
  0
LINE
  5
212
330
1F
100
AcDbEntity
  8
1-2
  6
Continuous
 62
     3
370
    13
100
AcDbLine
 10
-1364.324600632126
 20
280.1894234322214
 30
0.0
 11
-1364.324600632126
 21
468.1892518739443
 31
0.0
  0
LINE
  5
213
330
1F
100
AcDbEntity
  8
1-2
  6
Continuous
 62
     3
370
    13
100
AcDbLine
 10
-1354.325309959618
 20
280.1894234322214
 30
0.0
 11
-1354.325309959618
 21
468.1892518739443
 31
0.0
  0
LINE
  5
214
330
1F
100
AcDbEntity
  8
1-2
  6
Continuous
 62
     3
370
    13
100
AcDbLine
 10
-274.5941162109375
 20
280.1894234322214
 30
0.0
 11
-274.5941162109375
 21
468.1892518739443
 31
0.0
  0
LINE
  5
215
330
1F
100
AcDbEntity
  8
1-2
  6
Continuous
 62
     3
370
    13
100
AcDbLine
 10
-1384.594314162796
 20
80.18950591216225
 30
0.0
 11
-1384.594314162796
 21
268.1890869140625
 31
0.0
  0
LINE
  5
216
330
1F
100
AcDbEntity
  8
1-2
  6
Continuous
 62
     3
370
    13
100
AcDbLine
 10
-1364.324600632126
 20
80.18950591216225
 30
0.0
 11
-1364.324600632126
 21
268.1890869140625
 31
0.0
  0
LINE
  5
217
330
1F
100
AcDbEntity
  8
1-2
  6
Continuous
 62
     3
370
    13
100
AcDbLine
 10
-1354.325309959618
 20
80.18950591216225
 30
0.0
 11
-1354.325309959618
 21
268.1890869140625
 31
0.0
  0
LINE
  5
218
330
1F
100
AcDbEntity
  8
F-4
  6
Continuous
 62
     7
370
    13
100
AcDbLine
 10
-954.3242995803421
 20
669.9464870143584
 30
0.0
 11
-837.4606983081713
 21
1124.45855218011
 31
0.0
  0
LINE
  5
219
330
1F
100
AcDbEntity
  8
1-2
  6
Continuous
 62
     3
370
    13
100
AcDbLine
 10
325.6758406355576
 20
591.4951963682432
 30
0.0
 11
325.6758406355576
 21
835.1887800886825
 31
0.0
  0
LINE
  5
21A
330
1F
100
AcDbEntity
  8
1-2
  6
Continuous
 62
     3
370
    13
100
AcDbLine
 10
325.6758406355576
 20
-286.8108883419552
 30
0.0
 11
325.6758406355576
 21
555.4954240128802
 31
0.0
  0
LINE
  5
21B
330
1F
100
AcDbEntity
  8
1-2
  6
Continuous
 62
     3
370
    13
100
AcDbLine
 10
325.6758406355576
 20
566.1890308277029
 30
0.0
 11
325.6758406355576
 21
582.188984638936
 31
0.0
  0
LINE
  5
21C
330
1F
100
AcDbEntity
  8
1-2
  6
Continuous
 62
     3
370
    13
100
AcDbLine
 10
272.6757152660474
 20
-5.423930400126551
 30
0.0
 11
275.6756756756758
 21
-4.40076673353019
 31
0.0
  0
LINE
  5
21D
330
1F
100
AcDbEntity
  8
1-2
  6
Continuous
 62
     3
370
    13
100
AcDbLine
 10
272.6757152660474
 20
-5.423930400126551
 30
0.0
 11
272.6757152660474
 21
-13.33037505278696
 31
0.0
  0
LINE
  5
21E
330
1F
100
AcDbEntity
  8
1-2
  6
Continuous
 62
     3
370
    13
100
AcDbLine
 10
272.6757152660474
 20
-5.423930400126551
 30
0.0
 11
272.6757152660474
 21
-14.23847920185807
 31
0.0
  0
LINE
  5
21F
330
1F
100
AcDbEntity
  8
1-2
  6
Continuous
 62
     3
370
    13
100
AcDbLine
 10
272.6757152660474
 20
-7.798734097867452
 30
0.0
 11
272.6757152660474
 21
-15.70517875052786
 31
0.0
  0
LINE
  5
220
330
1F
100
AcDbEntity
  8
1-2
  6
Continuous
 62
     3
370
    13
100
AcDbLine
 10
272.6757152660474
 20
-7.798734097867452
 30
0.0
 11
272.6757152660474
 21
-16.61328289959869
 31
0.0
  0
LINE
  5
221
330
1F
100
AcDbEntity
  8
1-2
  6
Continuous
 62
     3
370
    13
100
AcDbLine
 10
272.6757152660474
 20
-16.61328289959869
 30
0.0
 11
275.6756756756758
 21
-17.63595168654973
 31
0.0
  0
LINE
  5
222
330
1F
100
AcDbEntity
  8
1-2
  6
Continuous
 62
     3
370
    13
100
AcDbLine
 10
275.6756756756758
 20
-17.63595168654973
 30
0.0
 11
275.6756756756758
 21
-27.86214467641457
 31
0.0
  0
LINE
  5
223
330
1F
100
AcDbEntity
  8
1-2
  6
Continuous
 62
     3
370
    13
100
AcDbLine
 10
272.6757152660474
 20
-28.88530834301093
 30
0.0
 11
275.6756756756758
 21
-27.86214467641457
 31
0.0
  0
LINE
  5
224
330
1F
100
AcDbEntity
  8
1-2
  6
Continuous
 62
     3
370
    13
100
AcDbLine
 10
272.6757152660474
 20
-28.88530834301093
 30
0.0
 11
272.6757152660474
 21
-36.79175299567135
 31
0.0
  0
LINE
  5
225
330
1F
100
AcDbEntity
  8
1-2
  6
Continuous
 62
     3
370
    13
100
AcDbLine
 10
272.6757152660474
 20
-28.88530834301093
 30
0.0
 11
272.6757152660474
 21
-37.69985714474245
 31
0.0
  0
LINE
  5
226
330
1F
100
AcDbEntity
  8
1-2
  6
Continuous
 62
     3
370
    13
100
AcDbLine
 10
272.6757152660474
 20
-37.69985714474245
 30
0.0
 11
275.6756756756758
 21
-38.72252593169321
 31
0.0
  0
LINE
  5
227
330
1F
100
AcDbEntity
  8
1-2
  6
Continuous
 62
     3
370
    13
100
AcDbLine
 10
275.6756756756758
 20
-38.72252593169321
 30
0.0
 11
275.6756756756758
 21
-48.94871892155834
 31
0.0
  0
LINE
  5
228
330
1F
100
AcDbEntity
  8
1-2
  6
Continuous
 62
     3
370
    13
100
AcDbLine
 10
272.6757152660474
 20
-49.97188258815441
 30
0.0
 11
275.6756756756758
 21
-48.94871892155834
 31
0.0
  0
LINE
  5
229
330
1F
100
AcDbEntity
  8
1-2
  6
Continuous
 62
     3
370
    13
100
AcDbLine
 10
272.6757152660474
 20
-49.97188258815441
 30
0.0
 11
272.6757152660474
 21
-58.78643138988593
 31
0.0
  0
LINE
  5
22A
330
1F
100
AcDbEntity
  8
1-2
  6
Continuous
 62
     3
370
    13
100
AcDbLine
 10
272.6757152660474
 20
-49.97188258815441
 30
0.0
 11
272.6757152660474
 21
-60.35866402290964
 31
0.0
  0
LINE
  5
22B
330
1F
100
AcDbEntity
  8
1-2
  6
Continuous
 62
     3
370
    13
100
AcDbLine
 10
272.6757152660474
 20
-49.97188258815441
 30
0.0
 11
275.6756756756758
 21
-48.94871892155834
 31
0.0
  0
LINE
  5
22C
330
1F
100
AcDbEntity
  8
1-2
  6
Continuous
 62
     3
370
    13
100
AcDbLine
 10
272.6757152660474
 20
-49.97188258815441
 30
0.0
 11
272.6757152660474
 21
-57.87832724081483
 31
0.0
  0
LINE
  5
22D
330
1F
100
AcDbEntity
  8
1-2
  6
Continuous
 62
     3
370
    13
100
AcDbLine
 10
272.6757152660474
 20
-49.97188258815441
 30
0.0
 11
272.6757152660474
 21
-58.78643138988593
 31
0.0
  0
LINE
  5
22E
330
1F
100
AcDbEntity
  8
1-2
  6
Continuous
 62
     3
370
    13
100
AcDbLine
 10
272.6757152660474
 20
-52.34668628589532
 30
0.0
 11
272.6757152660474
 21
-60.25313093855573
 31
0.0
  0
LINE
  5
22F
330
1F
100
AcDbEntity
  8
1-2
  6
Continuous
 62
     3
370
    13
100
AcDbLine
 10
272.6757152660474
 20
-52.34668628589532
 30
0.0
 11
272.6757152660474
 21
-61.16123508762655
 31
0.0
  0
LINE
  5
230
330
1F
100
AcDbEntity
  8
1-2
  6
Continuous
 62
     3
370
    13
100
AcDbLine
 10
272.6757152660474
 20
-61.16123508762655
 30
0.0
 11
275.6756756756758
 21
-62.1839038745776
 31
0.0
  0
LINE
  5
231
330
1F
100
AcDbEntity
  8
1-2
  6
Continuous
 62
     3
370
    13
100
AcDbLine
 10
275.6756756756758
 20
-62.1839038745776
 30
0.0
 11
275.6756756756758
 21
-72.41009686444244
 31
0.0
  0
LINE
  5
232
330
1F
100
AcDbEntity
  8
1-2
  6
Continuous
 62
     3
370
    13
100
AcDbLine
 10
272.6757152660474
 20
-73.4332605310388
 30
0.0
 11
275.6756756756758
 21
-72.41009686444244
 31
0.0
  0
LINE
  5
233
330
1F
100
AcDbEntity
  8
1-2
  6
Continuous
 62
     3
370
    13
100
AcDbLine
 10
272.6757152660474
 20
-73.4332605310388
 30
0.0
 11
272.6757152660474
 21
-81.33970518369921
 31
0.0
  0
LINE
  5
234
330
1F
100
AcDbEntity
  8
1-2
  6
Continuous
 62
     3
370
    13
100
AcDbLine
 10
272.6757152660474
 20
-73.4332605310388
 30
0.0
 11
272.6757152660474
 21
-82.24780933277032
 31
0.0
  0
LINE
  5
235
330
1F
100
AcDbEntity
  8
1-2
  6
Continuous
 62
     3
370
    13
100
AcDbLine
 10
272.6757152660474
 20
-82.24780933277032
 30
0.0
 11
275.6756756756758
 21
-83.27047811972108
 31
0.0
  0
LINE
  5
236
330
1F
100
AcDbEntity
  8
1-2
  6
Continuous
 62
     3
370
    13
100
AcDbLine
 10
275.6756756756758
 20
-83.27047811972108
 30
0.0
 11
275.6756756756758
 21
-93.4966711095862
 31
0.0
  0
LINE
  5
237
330
1F
100
AcDbEntity
  8
1-2
  6
Continuous
 62
     3
370
    13
100
AcDbLine
 10
272.6757152660474
 20
-94.51983477618228
 30
0.0
 11
275.6756756756758
 21
-93.4966711095862
 31
0.0
  0
LINE
  5
238
330
1F
100
AcDbEntity
  8
1-2
  6
Continuous
 62
     3
370
    13
100
AcDbLine
 10
272.6757152660474
 20
-94.51983477618228
 30
0.0
 11
272.6757152660474
 21
-103.3343835779138
 31
0.0
  0
LINE
  5
239
330
1F
100
AcDbEntity
  8
1-2
  6
Continuous
 62
     3
370
    13
100
AcDbLine
 10
272.6757152660474
 20
-94.51983477618228
 30
0.0
 11
272.6757152660474
 21
-104.9066162109375
 31
0.0
  0
LINE
  5
23A
330
1F
100
AcDbEntity
  8
1-2
  6
Continuous
 62
     3
370
    13
100
AcDbLine
 10
272.6757152660474
 20
-94.51983477618228
 30
0.0
 11
275.6756756756758
 21
-93.4966711095862
 31
0.0
  0
LINE
  5
23B
330
1F
100
AcDbEntity
  8
1-2
  6
Continuous
 62
     3
370
    13
100
AcDbLine
 10
272.6757152660474
 20
-94.51983477618228
 30
0.0
 11
272.6757152660474
 21
-102.4262794288427
 31
0.0
  0
LINE
  5
23C
330
1F
100
AcDbEntity
  8
1-2
  6
Continuous
 62
     3
370
    13
100
AcDbLine
 10
272.6757152660474
 20
-94.51983477618228
 30
0.0
 11
272.6757152660474
 21
-103.3343835779138
 31
0.0
  0
LINE
  5
23D
330
1F
100
AcDbEntity
  8
1-2
  6
Continuous
 62
     3
370
    13
100
AcDbLine
 10
272.6757152660474
 20
-96.89463847392318
 30
0.0
 11
272.6757152660474
 21
-104.8010831265836
 31
0.0
  0
LINE
  5
23E
330
1F
100
AcDbEntity
  8
1-2
  6
Continuous
 62
     3
370
    13
100
AcDbLine
 10
272.6757152660474
 20
-96.89463847392318
 30
0.0
 11
272.6757152660474
 21
-105.7091872756544
 31
0.0
  0
LINE
  5
23F
330
1F
100
AcDbEntity
  8
1-2
  6
Continuous
 62
     3
370
    13
100
AcDbLine
 10
272.6757152660474
 20
-105.7091872756544
 30
0.0
 11
275.6756756756758
 21
-106.7318560626055
 31
0.0
  0
LINE
  5
240
330
1F
100
AcDbEntity
  8
1-2
  6
Continuous
 62
     3
370
    13
100
AcDbLine
 10
275.6756756756758
 20
-106.7318560626055
 30
0.0
 11
275.6756756756758
 21
-116.9580490524703
 31
0.0
  0
LINE
  5
241
330
1F
100
AcDbEntity
  8
1-2
  6
Continuous
 62
     3
370
    13
100
AcDbLine
 10
272.6757152660474
 20
-117.9812127190667
 30
0.0
 11
275.6756756756758
 21
-116.9580490524703
 31
0.0
  0
LINE
  5
242
330
1F
100
AcDbEntity
  8
1-2
  6
Continuous
 62
     3
370
    13
100
AcDbLine
 10
272.6757152660474
 20
-117.9812127190667
 30
0.0
 11
272.6757152660474
 21
-125.8876573717271
 31
0.0
  0
LINE
  5
243
330
1F
100
AcDbEntity
  8
1-2
  6
Continuous
 62
     3
370
    13
100
AcDbLine
 10
272.6757152660474
 20
-117.9812127190667
 30
0.0
 11
272.6757152660474
 21
-126.7957615207982
 31
0.0
  0
LINE
  5
244
330
1F
100
AcDbEntity
  8
1-2
  6
Continuous
 62
     3
370
    13
100
AcDbLine
 10
272.6757152660474
 20
-126.7957615207982
 30
0.0
 11
275.6756756756758
 21
-127.8184303077489
 31
0.0
  0
LINE
  5
245
330
1F
100
AcDbEntity
  8
1-2
  6
Continuous
 62
     3
370
    13
100
AcDbLine
 10
275.6756756756758
 20
-127.8184303077489
 30
0.0
 11
275.6756756756758
 21
-138.0446232976141
 31
0.0
  0
LINE
  5
246
330
1F
100
AcDbEntity
  8
1-2
  6
Continuous
 62
     3
370
    13
100
AcDbLine
 10
272.6757152660474
 20
-139.0677869642101
 30
0.0
 11
275.6756756756758
 21
-138.0446232976141
 31
0.0
  0
LINE
  5
247
330
1F
100
AcDbEntity
  8
1-2
  6
Continuous
 62
     3
370
    13
100
AcDbLine
 10
272.6757152660474
 20
-139.0677869642101
 30
0.0
 11
272.6757152660474
 21
-147.8823357659417
 31
0.0
  0
LINE
  5
248
330
1F
100
AcDbEntity
  8
1-2
  6
Continuous
 62
     3
370
    13
100
AcDbLine
 10
272.6757152660474
 20
-139.0677869642101
 30
0.0
 11
272.6757152660474
 21
-149.4545683989654
 31
0.0
  0
LINE
  5
249
330
1F
100
AcDbEntity
  8
1-2
  6
Continuous
 62
     3
370
    13
100
AcDbLine
 10
272.6757152660474
 20
-139.0677869642101
 30
0.0
 11
275.6756756756758
 21
-138.0446232976141
 31
0.0
  0
LINE
  5
24A
330
1F
100
AcDbEntity
  8
1-2
  6
Continuous
 62
     3
370
    13
100
AcDbLine
 10
272.6757152660474
 20
-139.0677869642101
 30
0.0
 11
272.6757152660474
 21
-146.9742316168708
 31
0.0
  0
LINE
  5
24B
330
1F
100
AcDbEntity
  8
1-2
  6
Continuous
 62
     3
370
    13
100
AcDbLine
 10
272.6757152660474
 20
-139.0677869642101
 30
0.0
 11
272.6757152660474
 21
-147.8823357659417
 31
0.0
  0
LINE
  5
24C
330
1F
100
AcDbEntity
  8
1-2
  6
Continuous
 62
     3
370
    13
100
AcDbLine
 10
272.6757152660474
 20
-141.442590661951
 30
0.0
 11
272.6757152660474
 21
-149.3490353146115
 31
0.0
  0
LINE
  5
24D
330
1F
100
AcDbEntity
  8
1-2
  6
Continuous
 62
     3
370
    13
100
AcDbLine
 10
272.6757152660474
 20
-141.442590661951
 30
0.0
 11
272.6757152660474
 21
-150.2571394636823
 31
0.0
  0
LINE
  5
24E
330
1F
100
AcDbEntity
  8
1-2
  6
Continuous
 62
     3
370
    13
100
AcDbLine
 10
272.6757152660474
 20
-150.2571394636823
 30
0.0
 11
275.6756756756758
 21
-151.2798082506333
 31
0.0
  0
LINE
  5
24F
330
1F
100
AcDbEntity
  8
1-2
  6
Continuous
 62
     3
370
    13
100
AcDbLine
 10
275.6756756756758
 20
-151.2798082506333
 30
0.0
 11
275.6756756756758
 21
-161.5060012404982
 31
0.0
  0
LINE
  5
250
330
1F
100
AcDbEntity
  8
1-2
  6
Continuous
 62
     3
370
    13
100
AcDbLine
 10
272.6757152660474
 20
-162.5291649070945
 30
0.0
 11
275.6756756756758
 21
-161.5060012404982
 31
0.0
  0
LINE
  5
251
330
1F
100
AcDbEntity
  8
1-2
  6
Continuous
 62
     3
370
    13
100
AcDbLine
 10
272.6757152660474
 20
-162.5291649070945
 30
0.0
 11
272.6757152660474
 21
-170.4356095597549
 31
0.0
  0
LINE
  5
252
330
1F
100
AcDbEntity
  8
1-2
  6
Continuous
 62
     3
370
    13
100
AcDbLine
 10
272.6757152660474
 20
-162.5291649070945
 30
0.0
 11
272.6757152660474
 21
-171.343713708826
 31
0.0
  0
LINE
  5
253
330
1F
100
AcDbEntity
  8
1-2
  6
Continuous
 62
     3
370
    13
100
AcDbLine
 10
272.6757152660474
 20
-171.343713708826
 30
0.0
 11
275.6756756756758
 21
-172.3663824957771
 31
0.0
  0
LINE
  5
254
330
1F
100
AcDbEntity
  8
1-2
  6
Continuous
 62
     3
370
    13
100
AcDbLine
 10
275.6756756756758
 20
-172.3663824957771
 30
0.0
 11
275.6756756756758
 21
-182.5925754856419
 31
0.0
  0
LINE
  5
255
330
1F
100
AcDbEntity
  8
1-2
  6
Continuous
 62
     3
370
    13
100
AcDbLine
 10
272.6757152660474
 20
-183.615739152238
 30
0.0
 11
275.6756756756758
 21
-182.5925754856419
 31
0.0
  0
LINE
  5
256
330
1F
100
AcDbEntity
  8
1-2
  6
Continuous
 62
     3
370
    13
100
AcDbLine
 10
272.6757152660474
 20
-183.615739152238
 30
0.0
 11
272.6757152660474
 21
-194.0025205869932
 31
0.0
  0
LINE
  5
257
330
1F
100
AcDbEntity
  8
1-2
  6
Continuous
 62
     3
370
    13
100
AcDbLine
 10
272.6757152660474
 20
-183.615739152238
 30
0.0
 11
275.6756756756758
 21
-182.5925754856419
 31
0.0
  0
LINE
  5
258
330
1F
100
AcDbEntity
  8
1-2
  6
Continuous
 62
     3
370
    13
100
AcDbLine
 10
272.6757152660474
 20
-183.615739152238
 30
0.0
 11
272.6757152660474
 21
-191.5221838048987
 31
0.0
  0
LINE
  5
259
330
1F
100
AcDbEntity
  8
1-2
  6
Continuous
 62
     3
370
    13
100
AcDbLine
 10
272.6757152660474
 20
-183.615739152238
 30
0.0
 11
272.6757152660474
 21
-192.4302879539695
 31
0.0
  0
LINE
  5
25A
330
1F
100
AcDbEntity
  8
1-2
  6
Continuous
 62
     3
370
    13
100
AcDbLine
 10
272.6757152660474
 20
-183.615739152238
 30
0.0
 11
272.6757152660474
 21
-195.8108108108107
 31
0.0
  0
LINE
  5
25B
330
1F
100
AcDbEntity
  8
1-2
  6
Continuous
 62
     3
370
    13
100
AcDbLine
 10
-264.5947018185177
 20
-119.8105353278083
 30
0.0
 11
-1394.594594594595
 21
-119.8105353278083
 31
0.0
  0
LINE
  5
25C
330
1F
100
AcDbEntity
  8
1-2
  6
Continuous
 62
     3
370
    13
100
AcDbLine
 10
-264.5947018185177
 20
-131.8108718459669
 30
0.0
 11
-1394.594594594595
 21
-131.8108718459669
 31
0.0
  0
LINE
  5
25D
330
1F
100
AcDbEntity
  8
1-2
  6
Continuous
 62
     3
370
    13
100
AcDbLine
 10
-274.5941162109375
 20
-283.8106804925042
 30
0.0
 11
-274.5941162109375
 21
-131.8108718459669
 31
0.0
  0
LINE
  5
25E
330
1F
100
AcDbEntity
  8
1-2
  6
Continuous
 62
     3
370
    13
100
AcDbLine
 10
-274.5941162109375
 20
-119.8105353278083
 30
0.0
 11
-274.5941162109375
 21
268.1890869140625
 31
0.0
  0
LINE
  5
25F
330
1F
100
AcDbEntity
  8
1-2
  6
Continuous
 62
     3
370
    13
100
AcDbLine
 10
-1384.594314162796
 20
-283.8106804925042
 30
0.0
 11
-1384.594314162796
 21
-131.8108718459669
 31
0.0
  0
LINE
  5
260
330
1F
100
AcDbEntity
  8
1-2
  6
Continuous
 62
     3
370
    13
100
AcDbLine
 10
-1384.594314162796
 20
-119.8105353278083
 30
0.0
 11
-1384.594314162796
 21
68.18916939400339
 31
0.0
  0
LINE
  5
261
330
1F
100
AcDbEntity
  8
1-2
  6
Continuous
 62
     3
370
    13
100
AcDbLine
 10
-1364.324600632126
 20
-283.8106804925042
 30
0.0
 11
-1364.324600632126
 21
-131.8108718459669
 31
0.0
  0
LINE
  5
262
330
1F
100
AcDbEntity
  8
1-2
  6
Continuous
 62
     3
370
    13
100
AcDbLine
 10
-1364.324600632126
 20
-119.8105353278083
 30
0.0
 11
-1364.324600632126
 21
68.18916939400339
 31
0.0
  0
LINE
  5
263
330
1F
100
AcDbEntity
  8
1-2
  6
Continuous
 62
     3
370
    13
100
AcDbLine
 10
-1354.325309959618
 20
-283.8106804925042
 30
0.0
 11
-1354.325309959618
 21
-131.8108718459669
 31
0.0
  0
LINE
  5
264
330
1F
100
AcDbEntity
  8
1-2
  6
Continuous
 62
     3
370
    13
100
AcDbLine
 10
-1354.325309959618
 20
-119.8105353278083
 30
0.0
 11
-1354.325309959618
 21
68.18916939400339
 31
0.0
  0
LINE
  5
265
330
1F
100
AcDbEntity
  8
1-1
  6
JWW_DASHED1
 62
     2
370
    13
100
AcDbLine
 10
-274.594734810494
 20
-201.8113502296242
 30
0.0
 11
-274.594734810494
 21
-281.8111192857896
 31
0.0
  0
LINE
  5
266
330
1F
100
AcDbEntity
  8
1-1
  6
JWW_DASHED1
 62
     2
370
    13
100
AcDbLine
 10
-1384.594561602618
 20
-201.8113502296242
 30
0.0
 11
-1384.594561602618
 21
-281.8111192857896
 31
0.0
  0
LINE
  5
267
330
1F
100
AcDbEntity
  8
1-1
  6
JWW_DASHED1
 62
     2
370
    13
100
AcDbLine
 10
-274.594734810494
 20
-201.8113502296242
 30
0.0
 11
-1384.594561602618
 21
-201.8113502296242
 31
0.0
  0
LINE
  5
268
330
1F
100
AcDbEntity
  8
1-2
  6
Continuous
 62
     3
370
    13
100
AcDbLine
 10
272.6757152660474
 20
-185.5101384343328
 30
0.0
 11
272.6757152660474
 21
-194.3246872360641
 31
0.0
  0
LINE
  5
269
330
1F
100
AcDbEntity
  8
1-2
  6
Continuous
 62
     3
370
    13
100
AcDbLine
 10
272.6757152660474
 20
-185.5101384343328
 30
0.0
 11
272.6757152660474
 21
-195.8969198690878
 31
0.0
  0
LINE
  5
26A
330
1F
100
AcDbEntity
  8
1-2
  6
Continuous
 62
     3
370
    13
100
AcDbLine
 10
272.6757152660474
 20
-185.5101384343328
 30
0.0
 11
272.6757152660474
 21
-193.4165830869932
 31
0.0
  0
LINE
  5
26B
330
1F
100
AcDbEntity
  8
1-2
  6
Continuous
 62
     3
370
    13
100
AcDbLine
 10
272.6757152660474
 20
-185.5101384343328
 30
0.0
 11
272.6757152660474
 21
-194.3246872360641
 31
0.0
  0
LINE
  5
26C
330
1F
100
AcDbEntity
  8
1-2
  6
Continuous
 62
     3
370
    13
100
AcDbLine
 10
272.6757152660474
 20
-187.8849421320734
 30
0.0
 11
272.6757152660474
 21
-195.7913867847338
 31
0.0
  0
LINE
  5
26D
330
1F
100
AcDbEntity
  8
1-2
  6
Continuous
 62
     3
370
    13
100
AcDbLine
 10
272.6757152660474
 20
-187.8849421320734
 30
0.0
 11
272.6757152660474
 21
-196.699490933805
 31
0.0
  0
LINE
  5
26E
330
1F
100
AcDbEntity
  8
1-2
  6
Continuous
 62
     3
370
    13
100
AcDbLine
 10
272.6757152660474
 20
-196.699490933805
 30
0.0
 11
275.6756756756758
 21
-197.7221597207557
 31
0.0
  0
LINE
  5
26F
330
1F
100
AcDbEntity
  8
1-2
  6
Continuous
 62
     3
370
    13
100
AcDbLine
 10
275.6756756756758
 20
-197.7221597207557
 30
0.0
 11
275.6756756756758
 21
-207.9483527106207
 31
0.0
  0
LINE
  5
270
330
1F
100
AcDbEntity
  8
1-2
  6
Continuous
 62
     3
370
    13
100
AcDbLine
 10
272.6757152660474
 20
-208.9715163772171
 30
0.0
 11
275.6756756756758
 21
-207.9483527106207
 31
0.0
  0
LINE
  5
271
330
1F
100
AcDbEntity
  8
1-2
  6
Continuous
 62
     3
370
    13
100
AcDbLine
 10
272.6757152660474
 20
-208.9715163772171
 30
0.0
 11
272.6757152660474
 21
-216.8779610298775
 31
0.0
  0
LINE
  5
272
330
1F
100
AcDbEntity
  8
1-2
  6
Continuous
 62
     3
370
    13
100
AcDbLine
 10
272.6757152660474
 20
-208.9715163772171
 30
0.0
 11
272.6757152660474
 21
-217.7860651789484
 31
0.0
  0
LINE
  5
273
330
1F
100
AcDbEntity
  8
1-2
  6
Continuous
 62
     3
370
    13
100
AcDbLine
 10
272.6757152660474
 20
-217.7860651789484
 30
0.0
 11
275.6756756756758
 21
-218.8087339658995
 31
0.0
  0
LINE
  5
274
330
1F
100
AcDbEntity
  8
1-2
  6
Continuous
 62
     3
370
    13
100
AcDbLine
 10
275.6756756756758
 20
-218.8087339658995
 30
0.0
 11
275.6756756756758
 21
-229.0349269557643
 31
0.0
  0
LINE
  5
275
330
1F
100
AcDbEntity
  8
1-2
  6
Continuous
 62
     3
370
    13
100
AcDbLine
 10
272.6757152660474
 20
-230.0580906223605
 30
0.0
 11
275.6756756756758
 21
-229.0349269557643
 31
0.0
  0
LINE
  5
276
330
1F
100
AcDbEntity
  8
1-2
  6
Continuous
 62
     3
370
    13
100
AcDbLine
 10
272.6757152660474
 20
-230.0580906223605
 30
0.0
 11
272.6757152660474
 21
-240.4448720571156
 31
0.0
  0
LINE
  5
277
330
1F
100
AcDbEntity
  8
1-2
  6
Continuous
 62
     3
370
    13
100
AcDbLine
 10
272.6757152660474
 20
-230.0580906223605
 30
0.0
 11
275.6756756756758
 21
-229.0349269557643
 31
0.0
  0
LINE
  5
278
330
1F
100
AcDbEntity
  8
1-2
  6
Continuous
 62
     3
370
    13
100
AcDbLine
 10
272.6757152660474
 20
-230.0580906223605
 30
0.0
 11
272.6757152660474
 21
-237.9645352750211
 31
0.0
  0
LINE
  5
279
330
1F
100
AcDbEntity
  8
1-2
  6
Continuous
 62
     3
370
    13
100
AcDbLine
 10
272.6757152660474
 20
-230.0580906223605
 30
0.0
 11
272.6757152660474
 21
-238.8726394240921
 31
0.0
  0
LINE
  5
27A
330
1F
100
AcDbEntity
  8
1-2
  6
Continuous
 62
     3
370
    13
100
AcDbLine
 10
272.6757152660474
 20
-230.0580906223605
 30
0.0
 11
272.6757152660474
 21
-242.2531622809332
 31
0.0
  0
LINE
  5
27B
330
1F
100
AcDbEntity
  8
1-2
  6
Continuous
 62
     3
370
    13
100
AcDbLine
 10
272.6757152660474
 20
-231.9524899044552
 30
0.0
 11
272.6757152660474
 21
-240.7670387061866
 31
0.0
  0
LINE
  5
27C
330
1F
100
AcDbEntity
  8
1-2
  6
Continuous
 62
     3
370
    13
100
AcDbLine
 10
272.6757152660474
 20
-231.9524899044552
 30
0.0
 11
272.6757152660474
 21
-242.3392713392103
 31
0.0
  0
LINE
  5
27D
330
1F
100
AcDbEntity
  8
1-2
  6
Continuous
 62
     3
370
    13
100
AcDbLine
 10
272.6757152660474
 20
-231.9524899044552
 30
0.0
 11
272.6757152660474
 21
-239.8589345571156
 31
0.0
  0
LINE
  5
27E
330
1F
100
AcDbEntity
  8
1-2
  6
Continuous
 62
     3
370
    13
100
AcDbLine
 10
272.6757152660474
 20
-231.9524899044552
 30
0.0
 11
272.6757152660474
 21
-240.7670387061866
 31
0.0
  0
LINE
  5
27F
330
1F
100
AcDbEntity
  8
1-2
  6
Continuous
 62
     3
370
    13
100
AcDbLine
 10
272.6757152660474
 20
-234.3272936021958
 30
0.0
 11
272.6757152660474
 21
-242.2337382548564
 31
0.0
  0
LINE
  5
280
330
1F
100
AcDbEntity
  8
1-2
  6
Continuous
 62
     3
370
    13
100
AcDbLine
 10
272.6757152660474
 20
-234.3272936021958
 30
0.0
 11
272.6757152660474
 21
-243.1418424039273
 31
0.0
  0
LINE
  5
281
330
1F
100
AcDbEntity
  8
1-2
  6
Continuous
 62
     3
370
    13
100
AcDbLine
 10
272.6757152660474
 20
-243.1418424039273
 30
0.0
 11
275.6756756756758
 21
-244.1645111908782
 31
0.0
  0
LINE
  5
282
330
1F
100
AcDbEntity
  8
1-2
  6
Continuous
 62
     3
370
    13
100
AcDbLine
 10
275.6756756756758
 20
-244.1645111908782
 30
0.0
 11
275.6756756756758
 21
-254.3907041807432
 31
0.0
  0
LINE
  5
283
330
1F
100
AcDbEntity
  8
1-2
  6
Continuous
 62
     3
370
    13
100
AcDbLine
 10
272.6757152660474
 20
-255.4138678473394
 30
0.0
 11
275.6756756756758
 21
-254.3907041807432
 31
0.0
  0
LINE
  5
284
330
1F
100
AcDbEntity
  8
1-2
  6
Continuous
 62
     3
370
    13
100
AcDbLine
 10
272.6757152660474
 20
-255.4138678473394
 30
0.0
 11
272.6757152660474
 21
-263.3203125
 31
0.0
  0
LINE
  5
285
330
1F
100
AcDbEntity
  8
1-2
  6
Continuous
 62
     3
370
    13
100
AcDbLine
 10
272.6757152660474
 20
-255.4138678473394
 30
0.0
 11
272.6757152660474
 21
-264.2284166490708
 31
0.0
  0
LINE
  5
286
330
1F
100
AcDbEntity
  8
1-2
  6
Continuous
 62
     3
370
    13
100
AcDbLine
 10
272.6757152660474
 20
-264.2284166490708
 30
0.0
 11
275.6756756756758
 21
-265.2510854360219
 31
0.0
  0
LINE
  5
287
330
1F
100
AcDbEntity
  8
1-2
  6
Continuous
 62
     3
370
    13
100
AcDbLine
 10
275.6756756756758
 20
-265.2510854360219
 30
0.0
 11
275.6756756756758
 21
-275.4772784258867
 31
0.0
  0
LINE
  5
288
330
1F
100
AcDbEntity
  8
1-2
  6
Continuous
 62
     3
370
    13
100
AcDbLine
 10
272.6757152660474
 20
-276.5004420924831
 30
0.0
 11
275.6756756756758
 21
-275.4772784258867
 31
0.0
  0
LINE
  5
289
330
1F
100
AcDbEntity
  8
1-2
  6
Continuous
 62
     3
370
    13
100
AcDbLine
 10
272.6757152660474
 20
-276.5004420924831
 30
0.0
 11
272.6757152660474
 21
-286.8872235272381
 31
0.0
  0
LINE
  5
28A
330
1F
100
AcDbEntity
  8
1-2
  6
Continuous
 62
     3
370
    13
100
AcDbLine
 10
272.6757152660474
 20
-276.5004420924831
 30
0.0
 11
275.6756756756758
 21
-275.4772784258867
 31
0.0
  0
LINE
  5
28B
330
1F
100
AcDbEntity
  8
1-2
  6
Continuous
 62
     3
370
    13
100
AcDbLine
 10
272.6757152660474
 20
-276.5004420924831
 30
0.0
 11
272.6757152660474
 21
-284.4068867451435
 31
0.0
  0
LINE
  5
28C
330
1F
100
AcDbEntity
  8
1-2
  6
Continuous
 62
     3
370
    13
100
AcDbLine
 10
272.6757152660474
 20
-276.5004420924831
 30
0.0
 11
272.6757152660474
 21
-285.3149908942145
 31
0.0
  0
LINE
  5
28D
330
1F
100
AcDbEntity
  8
1-2
  6
Continuous
 62
     3
370
    13
100
AcDbLine
 10
272.6757152660474
 20
-276.5004420924831
 30
0.0
 11
272.6757152660474
 21
-295.8107695708404
 31
0.0
  0
LINE
  5
28E
330
1F
100
AcDbEntity
  8
1-2
  6
Continuous
 62
     3
370
    13
100
AcDbLine
 10
272.6757152660474
 20
-295.8107695708404
 30
0.0
 11
313.6755041173987
 21
-295.8107695708404
 31
0.0
  0
LINE
  5
28F
330
1F
100
AcDbEntity
  8
1-4
  6
Continuous
 62
     7
370
    13
100
AcDbLine
 10
-954.3242995803421
 20
669.9464870143584
 30
0.0
 11
-951.3124620592271
 21
694.7644537848396
 31
0.0
  0
LINE
  5
290
330
1F
100
AcDbEntity
  8
1-4
  6
Continuous
 62
     7
370
    13
100
AcDbLine
 10
-954.3242995803421
 20
669.9464870143584
 30
0.0
 11
-944.991735509924
 21
693.1392690297721
 31
0.0
  0
LINE
  5
291
330
1F
100
AcDbEntity
  8
1-2
  6
Continuous
 62
     3
370
    13
100
AcDbLine
 10
-1334.054606669658
 20
480.1895883921031
 30
0.0
 11
-1334.054606669658
 21
668.1891693940033
 31
0.0
  0
LINE
  5
292
330
1F
100
AcDbEntity
  8
1-2
  6
Continuous
 62
     3
370
    13
100
AcDbLine
 10
-1324.05531599715
 20
480.1895883921031
 30
0.0
 11
-1324.05531599715
 21
668.1891693940033
 31
0.0
  0
LINE
  5
293
330
1F
100
AcDbEntity
  8
1-2
  6
Continuous
 62
     3
370
    13
100
AcDbLine
 10
-1334.054606669658
 20
680.1895059121623
 30
0.0
 11
-1334.054606669658
 21
835.1877903293919
 31
0.0
  0
LINE
  5
294
330
1F
100
AcDbEntity
  8
1-2
  6
Continuous
 62
     3
370
    13
100
AcDbLine
 10
-1324.05531599715
 20
680.1895059121623
 30
0.0
 11
-1324.05531599715
 21
835.1877903293919
 31
0.0
  0
LINE
  5
295
330
1F
100
AcDbEntity
  8
1-2
  6
Continuous
 62
     3
370
    13
100
AcDbLine
 10
-1334.054606669658
 20
280.1894234322214
 30
0.0
 11
-1334.054606669658
 21
468.1892518739443
 31
0.0
  0
LINE
  5
296
330
1F
100
AcDbEntity
  8
1-2
  6
Continuous
 62
     3
370
    13
100
AcDbLine
 10
-1324.05531599715
 20
280.1894234322214
 30
0.0
 11
-1324.05531599715
 21
468.1892518739443
 31
0.0
  0
LINE
  5
297
330
1F
100
AcDbEntity
  8
1-2
  6
Continuous
 62
     3
370
    13
100
AcDbLine
 10
-1334.054606669658
 20
80.18950591216225
 30
0.0
 11
-1334.054606669658
 21
268.1890869140625
 31
0.0
  0
LINE
  5
298
330
1F
100
AcDbEntity
  8
1-2
  6
Continuous
 62
     3
370
    13
100
AcDbLine
 10
-1324.05531599715
 20
80.18950591216225
 30
0.0
 11
-1324.05531599715
 21
268.1890869140625
 31
0.0
  0
LINE
  5
299
330
1F
100
AcDbEntity
  8
1-2
  6
Continuous
 62
     3
370
    13
100
AcDbLine
 10
-1334.054606669658
 20
-283.8106804925042
 30
0.0
 11
-1334.054606669658
 21
-131.8108718459669
 31
0.0
  0
LINE
  5
29A
330
1F
100
AcDbEntity
  8
1-2
  6
Continuous
 62
     3
370
    13
100
AcDbLine
 10
-1334.054606669658
 20
-119.8105353278083
 30
0.0
 11
-1334.054606669658
 21
68.18916939400339
 31
0.0
  0
LINE
  5
29B
330
1F
100
AcDbEntity
  8
1-2
  6
Continuous
 62
     3
370
    13
100
AcDbLine
 10
-1324.05531599715
 20
-283.8106804925042
 30
0.0
 11
-1324.05531599715
 21
-131.8108718459669
 31
0.0
  0
LINE
  5
29C
330
1F
100
AcDbEntity
  8
1-2
  6
Continuous
 62
     3
370
    13
100
AcDbLine
 10
-1324.05531599715
 20
-119.8105353278083
 30
0.0
 11
-1324.05531599715
 21
68.18916939400339
 31
0.0
  0
LINE
  5
29D
330
1F
100
AcDbEntity
  8
1-2
  6
Continuous
 62
     3
370
    13
100
AcDbLine
 10
-1303.78461270719
 20
480.1895883921031
 30
0.0
 11
-1303.78461270719
 21
668.1891693940033
 31
0.0
  0
LINE
  5
29E
330
1F
100
AcDbEntity
  8
1-2
  6
Continuous
 62
     3
370
    13
100
AcDbLine
 10
-1293.785322034681
 20
480.1895883921031
 30
0.0
 11
-1293.785322034681
 21
668.1891693940033
 31
0.0
  0
LINE
  5
29F
330
1F
100
AcDbEntity
  8
1-2
  6
Continuous
 62
     3
370
    13
100
AcDbLine
 10
-1303.78461270719
 20
680.1895059121623
 30
0.0
 11
-1303.78461270719
 21
835.1877903293919
 31
0.0
  0
LINE
  5
2A0
330
1F
100
AcDbEntity
  8
1-2
  6
Continuous
 62
     3
370
    13
100
AcDbLine
 10
-1293.785322034681
 20
680.1895059121623
 30
0.0
 11
-1293.785322034681
 21
835.1877903293919
 31
0.0
  0
LINE
  5
2A1
330
1F
100
AcDbEntity
  8
1-2
  6
Continuous
 62
     3
370
    13
100
AcDbLine
 10
-1303.78461270719
 20
280.1894234322214
 30
0.0
 11
-1303.78461270719
 21
468.1892518739443
 31
0.0
  0
LINE
  5
2A2
330
1F
100
AcDbEntity
  8
1-2
  6
Continuous
 62
     3
370
    13
100
AcDbLine
 10
-1293.785322034681
 20
280.1894234322214
 30
0.0
 11
-1293.785322034681
 21
468.1892518739443
 31
0.0
  0
LINE
  5
2A3
330
1F
100
AcDbEntity
  8
1-2
  6
Continuous
 62
     3
370
    13
100
AcDbLine
 10
-1303.78461270719
 20
80.18950591216225
 30
0.0
 11
-1303.78461270719
 21
268.1890869140625
 31
0.0
  0
LINE
  5
2A4
330
1F
100
AcDbEntity
  8
1-2
  6
Continuous
 62
     3
370
    13
100
AcDbLine
 10
-1293.785322034681
 20
80.18950591216225
 30
0.0
 11
-1293.785322034681
 21
268.1890869140625
 31
0.0
  0
LINE
  5
2A5
330
1F
100
AcDbEntity
  8
1-2
  6
Continuous
 62
     3
370
    13
100
AcDbLine
 10
-1303.78461270719
 20
-283.8106804925042
 30
0.0
 11
-1303.78461270719
 21
-131.8108718459669
 31
0.0
  0
LINE
  5
2A6
330
1F
100
AcDbEntity
  8
1-2
  6
Continuous
 62
     3
370
    13
100
AcDbLine
 10
-1303.78461270719
 20
-119.8105353278083
 30
0.0
 11
-1303.78461270719
 21
68.18916939400339
 31
0.0
  0
LINE
  5
2A7
330
1F
100
AcDbEntity
  8
1-2
  6
Continuous
 62
     3
370
    13
100
AcDbLine
 10
-1293.785322034681
 20
-283.8106804925042
 30
0.0
 11
-1293.785322034681
 21
-131.8108718459669
 31
0.0
  0
LINE
  5
2A8
330
1F
100
AcDbEntity
  8
1-2
  6
Continuous
 62
     3
370
    13
100
AcDbLine
 10
-1293.785322034681
 20
-119.8105353278083
 30
0.0
 11
-1293.785322034681
 21
68.18916939400339
 31
0.0
  0
LINE
  5
2A9
330
1F
100
AcDbEntity
  8
1-2
  6
Continuous
 62
     3
370
    13
100
AcDbLine
 10
-1273.514618744721
 20
480.1895883921031
 30
0.0
 11
-1273.514618744721
 21
668.1891693940033
 31
0.0
  0
LINE
  5
2AA
330
1F
100
AcDbEntity
  8
1-2
  6
Continuous
 62
     3
370
    13
100
AcDbLine
 10
-1263.515328072213
 20
480.1895883921031
 30
0.0
 11
-1263.515328072213
 21
668.1891693940033
 31
0.0
  0
LINE
  5
2AB
330
1F
100
AcDbEntity
  8
1-2
  6
Continuous
 62
     3
370
    13
100
AcDbLine
 10
-1273.514618744721
 20
680.1895059121623
 30
0.0
 11
-1273.514618744721
 21
835.1877903293919
 31
0.0
  0
LINE
  5
2AC
330
1F
100
AcDbEntity
  8
1-2
  6
Continuous
 62
     3
370
    13
100
AcDbLine
 10
-1263.515328072213
 20
680.1895059121623
 30
0.0
 11
-1263.515328072213
 21
835.1877903293919
 31
0.0
  0
LINE
  5
2AD
330
1F
100
AcDbEntity
  8
1-2
  6
Continuous
 62
     3
370
    13
100
AcDbLine
 10
-1273.514618744721
 20
280.1894234322214
 30
0.0
 11
-1273.514618744721
 21
468.1892518739443
 31
0.0
  0
LINE
  5
2AE
330
1F
100
AcDbEntity
  8
1-2
  6
Continuous
 62
     3
370
    13
100
AcDbLine
 10
-1263.515328072213
 20
280.1894234322214
 30
0.0
 11
-1263.515328072213
 21
468.1892518739443
 31
0.0
  0
LINE
  5
2AF
330
1F
100
AcDbEntity
  8
1-2
  6
Continuous
 62
     3
370
    13
100
AcDbLine
 10
-1273.514618744721
 20
80.18950591216225
 30
0.0
 11
-1273.514618744721
 21
268.1890869140625
 31
0.0
  0
LINE
  5
2B0
330
1F
100
AcDbEntity
  8
1-2
  6
Continuous
 62
     3
370
    13
100
AcDbLine
 10
-1263.515328072213
 20
80.18950591216225
 30
0.0
 11
-1263.515328072213
 21
268.1890869140625
 31
0.0
  0
LINE
  5
2B1
330
1F
100
AcDbEntity
  8
1-2
  6
Continuous
 62
     3
370
    13
100
AcDbLine
 10
-1273.514618744721
 20
-283.8106804925042
 30
0.0
 11
-1273.514618744721
 21
-131.8108718459669
 31
0.0
  0
LINE
  5
2B2
330
1F
100
AcDbEntity
  8
1-2
  6
Continuous
 62
     3
370
    13
100
AcDbLine
 10
-1273.514618744721
 20
-119.8105353278083
 30
0.0
 11
-1273.514618744721
 21
68.18916939400339
 31
0.0
  0
LINE
  5
2B3
330
1F
100
AcDbEntity
  8
1-2
  6
Continuous
 62
     3
370
    13
100
AcDbLine
 10
-1263.515328072213
 20
-283.8106804925042
 30
0.0
 11
-1263.515328072213
 21
-131.8108718459669
 31
0.0
  0
LINE
  5
2B4
330
1F
100
AcDbEntity
  8
1-2
  6
Continuous
 62
     3
370
    13
100
AcDbLine
 10
-1263.515328072213
 20
-119.8105353278083
 30
0.0
 11
-1263.515328072213
 21
68.18916939400339
 31
0.0
  0
LINE
  5
2B5
330
1F
100
AcDbEntity
  8
1-2
  6
Continuous
 62
     3
370
    13
100
AcDbLine
 10
-1243.244624782253
 20
480.1895883921031
 30
0.0
 11
-1243.244624782253
 21
668.1891693940033
 31
0.0
  0
LINE
  5
2B6
330
1F
100
AcDbEntity
  8
1-2
  6
Continuous
 62
     3
370
    13
100
AcDbLine
 10
-1233.245334109744
 20
480.1895883921031
 30
0.0
 11
-1233.245334109744
 21
668.1891693940033
 31
0.0
  0
LINE
  5
2B7
330
1F
100
AcDbEntity
  8
1-2
  6
Continuous
 62
     3
370
    13
100
AcDbLine
 10
-1243.244624782253
 20
680.1895059121623
 30
0.0
 11
-1243.244624782253
 21
835.1877903293919
 31
0.0
  0
LINE
  5
2B8
330
1F
100
AcDbEntity
  8
1-2
  6
Continuous
 62
     3
370
    13
100
AcDbLine
 10
-1233.245334109744
 20
680.1895059121623
 30
0.0
 11
-1233.245334109744
 21
835.1877903293919
 31
0.0
  0
LINE
  5
2B9
330
1F
100
AcDbEntity
  8
1-2
  6
Continuous
 62
     3
370
    13
100
AcDbLine
 10
-1243.244624782253
 20
280.1894234322214
 30
0.0
 11
-1243.244624782253
 21
468.1892518739443
 31
0.0
  0
LINE
  5
2BA
330
1F
100
AcDbEntity
  8
1-2
  6
Continuous
 62
     3
370
    13
100
AcDbLine
 10
-1233.245334109744
 20
280.1894234322214
 30
0.0
 11
-1233.245334109744
 21
468.1892518739443
 31
0.0
  0
LINE
  5
2BB
330
1F
100
AcDbEntity
  8
1-2
  6
Continuous
 62
     3
370
    13
100
AcDbLine
 10
-1243.244624782253
 20
80.18950591216225
 30
0.0
 11
-1243.244624782253
 21
268.1890869140625
 31
0.0
  0
LINE
  5
2BC
330
1F
100
AcDbEntity
  8
1-2
  6
Continuous
 62
     3
370
    13
100
AcDbLine
 10
-1233.245334109744
 20
80.18950591216225
 30
0.0
 11
-1233.245334109744
 21
268.1890869140625
 31
0.0
  0
LINE
  5
2BD
330
1F
100
AcDbEntity
  8
1-2
  6
Continuous
 62
     3
370
    13
100
AcDbLine
 10
-1243.244624782253
 20
-283.8106804925042
 30
0.0
 11
-1243.244624782253
 21
-131.8108718459669
 31
0.0
  0
LINE
  5
2BE
330
1F
100
AcDbEntity
  8
1-2
  6
Continuous
 62
     3
370
    13
100
AcDbLine
 10
-1243.244624782253
 20
-119.8105353278083
 30
0.0
 11
-1243.244624782253
 21
68.18916939400339
 31
0.0
  0
LINE
  5
2BF
330
1F
100
AcDbEntity
  8
1-2
  6
Continuous
 62
     3
370
    13
100
AcDbLine
 10
-1233.245334109744
 20
-283.8106804925042
 30
0.0
 11
-1233.245334109744
 21
-131.8108718459669
 31
0.0
  0
LINE
  5
2C0
330
1F
100
AcDbEntity
  8
1-2
  6
Continuous
 62
     3
370
    13
100
AcDbLine
 10
-1233.245334109744
 20
-119.8105353278083
 30
0.0
 11
-1233.245334109744
 21
68.18916939400339
 31
0.0
  0
LINE
  5
2C1
330
1F
100
AcDbEntity
  8
1-2
  6
Continuous
 62
     3
370
    13
100
AcDbLine
 10
-1212.974630819785
 20
480.1895883921031
 30
0.0
 11
-1212.974630819785
 21
668.1891693940033
 31
0.0
  0
LINE
  5
2C2
330
1F
100
AcDbEntity
  8
1-2
  6
Continuous
 62
     3
370
    13
100
AcDbLine
 10
-1202.975340147276
 20
480.1895883921031
 30
0.0
 11
-1202.975340147276
 21
668.1891693940033
 31
0.0
  0
LINE
  5
2C3
330
1F
100
AcDbEntity
  8
1-2
  6
Continuous
 62
     3
370
    13
100
AcDbLine
 10
-1212.974630819785
 20
680.1895059121623
 30
0.0
 11
-1212.974630819785
 21
835.1877903293919
 31
0.0
  0
LINE
  5
2C4
330
1F
100
AcDbEntity
  8
1-2
  6
Continuous
 62
     3
370
    13
100
AcDbLine
 10
-1202.975340147276
 20
680.1895059121623
 30
0.0
 11
-1202.975340147276
 21
835.1877903293919
 31
0.0
  0
LINE
  5
2C5
330
1F
100
AcDbEntity
  8
1-2
  6
Continuous
 62
     3
370
    13
100
AcDbLine
 10
-1212.974630819785
 20
280.1894234322214
 30
0.0
 11
-1212.974630819785
 21
468.1892518739443
 31
0.0
  0
LINE
  5
2C6
330
1F
100
AcDbEntity
  8
1-2
  6
Continuous
 62
     3
370
    13
100
AcDbLine
 10
-1202.975340147276
 20
280.1894234322214
 30
0.0
 11
-1202.975340147276
 21
468.1892518739443
 31
0.0
  0
LINE
  5
2C7
330
1F
100
AcDbEntity
  8
1-2
  6
Continuous
 62
     3
370
    13
100
AcDbLine
 10
-1212.974630819785
 20
80.18950591216225
 30
0.0
 11
-1212.974630819785
 21
268.1890869140625
 31
0.0
  0
LINE
  5
2C8
330
1F
100
AcDbEntity
  8
1-2
  6
Continuous
 62
     3
370
    13
100
AcDbLine
 10
-1202.975340147276
 20
80.18950591216225
 30
0.0
 11
-1202.975340147276
 21
268.1890869140625
 31
0.0
  0
LINE
  5
2C9
330
1F
100
AcDbEntity
  8
1-2
  6
Continuous
 62
     3
370
    13
100
AcDbLine
 10
-1212.974630819785
 20
-283.8106804925042
 30
0.0
 11
-1212.974630819785
 21
-131.8108718459669
 31
0.0
  0
LINE
  5
2CA
330
1F
100
AcDbEntity
  8
1-2
  6
Continuous
 62
     3
370
    13
100
AcDbLine
 10
-1212.974630819785
 20
-119.8105353278083
 30
0.0
 11
-1212.974630819785
 21
68.18916939400339
 31
0.0
  0
LINE
  5
2CB
330
1F
100
AcDbEntity
  8
1-2
  6
Continuous
 62
     3
370
    13
100
AcDbLine
 10
-1202.975340147276
 20
-283.8106804925042
 30
0.0
 11
-1202.975340147276
 21
-131.8108718459669
 31
0.0
  0
LINE
  5
2CC
330
1F
100
AcDbEntity
  8
1-2
  6
Continuous
 62
     3
370
    13
100
AcDbLine
 10
-1202.975340147276
 20
-119.8105353278083
 30
0.0
 11
-1202.975340147276
 21
68.18916939400339
 31
0.0
  0
LINE
  5
2CD
330
1F
100
AcDbEntity
  8
1-2
  6
Continuous
 62
     3
370
    13
100
AcDbLine
 10
-1182.704574997361
 20
480.1895883921031
 30
0.0
 11
-1182.704574997361
 21
668.1891693940033
 31
0.0
  0
LINE
  5
2CE
330
1F
100
AcDbEntity
  8
1-2
  6
Continuous
 62
     3
370
    13
100
AcDbLine
 10
-1172.705284324852
 20
480.1895883921031
 30
0.0
 11
-1172.705284324852
 21
668.1891693940033
 31
0.0
  0
LINE
  5
2CF
330
1F
100
AcDbEntity
  8
1-2
  6
Continuous
 62
     3
370
    13
100
AcDbLine
 10
-1182.704574997361
 20
680.1895059121623
 30
0.0
 11
-1182.704574997361
 21
835.1877903293919
 31
0.0
  0
LINE
  5
2D0
330
1F
100
AcDbEntity
  8
1-2
  6
Continuous
 62
     3
370
    13
100
AcDbLine
 10
-1172.705284324852
 20
680.1895059121623
 30
0.0
 11
-1172.705284324852
 21
835.1877903293919
 31
0.0
  0
LINE
  5
2D1
330
1F
100
AcDbEntity
  8
1-2
  6
Continuous
 62
     3
370
    13
100
AcDbLine
 10
-1182.704574997361
 20
280.1894234322214
 30
0.0
 11
-1182.704574997361
 21
468.1892518739443
 31
0.0
  0
LINE
  5
2D2
330
1F
100
AcDbEntity
  8
1-2
  6
Continuous
 62
     3
370
    13
100
AcDbLine
 10
-1172.705284324852
 20
280.1894234322214
 30
0.0
 11
-1172.705284324852
 21
468.1892518739443
 31
0.0
  0
LINE
  5
2D3
330
1F
100
AcDbEntity
  8
1-2
  6
Continuous
 62
     3
370
    13
100
AcDbLine
 10
-1182.704574997361
 20
80.18950591216225
 30
0.0
 11
-1182.704574997361
 21
268.1890869140625
 31
0.0
  0
LINE
  5
2D4
330
1F
100
AcDbEntity
  8
1-2
  6
Continuous
 62
     3
370
    13
100
AcDbLine
 10
-1172.705284324852
 20
80.18950591216225
 30
0.0
 11
-1172.705284324852
 21
268.1890869140625
 31
0.0
  0
LINE
  5
2D5
330
1F
100
AcDbEntity
  8
1-2
  6
Continuous
 62
     3
370
    13
100
AcDbLine
 10
-1182.704574997361
 20
-283.8106804925042
 30
0.0
 11
-1182.704574997361
 21
-131.8108718459669
 31
0.0
  0
LINE
  5
2D6
330
1F
100
AcDbEntity
  8
1-2
  6
Continuous
 62
     3
370
    13
100
AcDbLine
 10
-1182.704574997361
 20
-119.8105353278083
 30
0.0
 11
-1182.704574997361
 21
68.18916939400339
 31
0.0
  0
LINE
  5
2D7
330
1F
100
AcDbEntity
  8
1-2
  6
Continuous
 62
     3
370
    13
100
AcDbLine
 10
-1172.705284324852
 20
-283.8106804925042
 30
0.0
 11
-1172.705284324852
 21
-131.8108718459669
 31
0.0
  0
LINE
  5
2D8
330
1F
100
AcDbEntity
  8
1-2
  6
Continuous
 62
     3
370
    13
100
AcDbLine
 10
-1172.705284324852
 20
-119.8105353278083
 30
0.0
 11
-1172.705284324852
 21
68.18916939400339
 31
0.0
  0
LINE
  5
2D9
330
1F
100
AcDbEntity
  8
1-2
  6
Continuous
 62
     3
370
    13
100
AcDbLine
 10
-1152.434642894848
 20
480.1895883921031
 30
0.0
 11
-1152.434642894848
 21
668.1891693940033
 31
0.0
  0
LINE
  5
2DA
330
1F
100
AcDbEntity
  8
1-2
  6
Continuous
 62
     3
370
    13
100
AcDbLine
 10
-1142.435352222339
 20
480.1895883921031
 30
0.0
 11
-1142.435352222339
 21
668.1891693940033
 31
0.0
  0
LINE
  5
2DB
330
1F
100
AcDbEntity
  8
1-2
  6
Continuous
 62
     3
370
    13
100
AcDbLine
 10
-1152.434642894848
 20
680.1895059121623
 30
0.0
 11
-1152.434642894848
 21
835.1877903293919
 31
0.0
  0
LINE
  5
2DC
330
1F
100
AcDbEntity
  8
1-2
  6
Continuous
 62
     3
370
    13
100
AcDbLine
 10
-1142.435352222339
 20
680.1895059121623
 30
0.0
 11
-1142.435352222339
 21
835.1877903293919
 31
0.0
  0
LINE
  5
2DD
330
1F
100
AcDbEntity
  8
1-2
  6
Continuous
 62
     3
370
    13
100
AcDbLine
 10
-1152.434642894848
 20
280.1894234322214
 30
0.0
 11
-1152.434642894848
 21
468.1892518739443
 31
0.0
  0
LINE
  5
2DE
330
1F
100
AcDbEntity
  8
1-2
  6
Continuous
 62
     3
370
    13
100
AcDbLine
 10
-1142.435352222339
 20
280.1894234322214
 30
0.0
 11
-1142.435352222339
 21
468.1892518739443
 31
0.0
  0
LINE
  5
2DF
330
1F
100
AcDbEntity
  8
1-2
  6
Continuous
 62
     3
370
    13
100
AcDbLine
 10
-1152.434642894848
 20
80.18950591216225
 30
0.0
 11
-1152.434642894848
 21
268.1890869140625
 31
0.0
  0
LINE
  5
2E0
330
1F
100
AcDbEntity
  8
1-2
  6
Continuous
 62
     3
370
    13
100
AcDbLine
 10
-1142.435352222339
 20
80.18950591216225
 30
0.0
 11
-1142.435352222339
 21
268.1890869140625
 31
0.0
  0
LINE
  5
2E1
330
1F
100
AcDbEntity
  8
1-2
  6
Continuous
 62
     3
370
    13
100
AcDbLine
 10
-1152.434642894848
 20
-283.8106804925042
 30
0.0
 11
-1152.434642894848
 21
-131.8108718459669
 31
0.0
  0
LINE
  5
2E2
330
1F
100
AcDbEntity
  8
1-2
  6
Continuous
 62
     3
370
    13
100
AcDbLine
 10
-1152.434642894848
 20
-119.8105353278083
 30
0.0
 11
-1152.434642894848
 21
68.18916939400339
 31
0.0
  0
LINE
  5
2E3
330
1F
100
AcDbEntity
  8
1-2
  6
Continuous
 62
     3
370
    13
100
AcDbLine
 10
-1142.435352222339
 20
-283.8106804925042
 30
0.0
 11
-1142.435352222339
 21
-131.8108718459669
 31
0.0
  0
LINE
  5
2E4
330
1F
100
AcDbEntity
  8
1-2
  6
Continuous
 62
     3
370
    13
100
AcDbLine
 10
-1142.435352222339
 20
-119.8105353278083
 30
0.0
 11
-1142.435352222339
 21
68.18916939400339
 31
0.0
  0
LINE
  5
2E5
330
1F
100
AcDbEntity
  8
1-2
  6
Continuous
 62
     3
370
    13
100
AcDbLine
 10
-1122.164587072424
 20
480.1895883921031
 30
0.0
 11
-1122.164587072424
 21
668.1891693940033
 31
0.0
  0
LINE
  5
2E6
330
1F
100
AcDbEntity
  8
1-2
  6
Continuous
 62
     3
370
    13
100
AcDbLine
 10
-1112.165296399915
 20
480.1895883921031
 30
0.0
 11
-1112.165296399915
 21
668.1891693940033
 31
0.0
  0
LINE
  5
2E7
330
1F
100
AcDbEntity
  8
1-2
  6
Continuous
 62
     3
370
    13
100
AcDbLine
 10
-1122.164587072424
 20
680.1895059121623
 30
0.0
 11
-1122.164587072424
 21
835.1877903293919
 31
0.0
  0
LINE
  5
2E8
330
1F
100
AcDbEntity
  8
1-2
  6
Continuous
 62
     3
370
    13
100
AcDbLine
 10
-1112.165296399915
 20
680.1895059121623
 30
0.0
 11
-1112.165296399915
 21
835.1877903293919
 31
0.0
  0
LINE
  5
2E9
330
1F
100
AcDbEntity
  8
1-2
  6
Continuous
 62
     3
370
    13
100
AcDbLine
 10
-1122.164587072424
 20
280.1894234322214
 30
0.0
 11
-1122.164587072424
 21
468.1892518739443
 31
0.0
  0
LINE
  5
2EA
330
1F
100
AcDbEntity
  8
1-2
  6
Continuous
 62
     3
370
    13
100
AcDbLine
 10
-1112.165296399915
 20
280.1894234322214
 30
0.0
 11
-1112.165296399915
 21
468.1892518739443
 31
0.0
  0
LINE
  5
2EB
330
1F
100
AcDbEntity
  8
1-2
  6
Continuous
 62
     3
370
    13
100
AcDbLine
 10
-1122.164587072424
 20
80.18950591216225
 30
0.0
 11
-1122.164587072424
 21
268.1890869140625
 31
0.0
  0
LINE
  5
2EC
330
1F
100
AcDbEntity
  8
1-2
  6
Continuous
 62
     3
370
    13
100
AcDbLine
 10
-1112.165296399915
 20
80.18950591216225
 30
0.0
 11
-1112.165296399915
 21
268.1890869140625
 31
0.0
  0
LINE
  5
2ED
330
1F
100
AcDbEntity
  8
1-2
  6
Continuous
 62
     3
370
    13
100
AcDbLine
 10
-1122.164587072424
 20
-283.8106804925042
 30
0.0
 11
-1122.164587072424
 21
-131.8108718459669
 31
0.0
  0
LINE
  5
2EE
330
1F
100
AcDbEntity
  8
1-2
  6
Continuous
 62
     3
370
    13
100
AcDbLine
 10
-1122.164587072424
 20
-119.8105353278083
 30
0.0
 11
-1122.164587072424
 21
68.18916939400339
 31
0.0
  0
LINE
  5
2EF
330
1F
100
AcDbEntity
  8
1-2
  6
Continuous
 62
     3
370
    13
100
AcDbLine
 10
-1112.165296399915
 20
-283.8106804925042
 30
0.0
 11
-1112.165296399915
 21
-131.8108718459669
 31
0.0
  0
LINE
  5
2F0
330
1F
100
AcDbEntity
  8
1-2
  6
Continuous
 62
     3
370
    13
100
AcDbLine
 10
-1112.165296399915
 20
-119.8105353278083
 30
0.0
 11
-1112.165296399915
 21
68.18916939400339
 31
0.0
  0
LINE
  5
2F1
330
1F
100
AcDbEntity
  8
1-2
  6
Continuous
 62
     3
370
    13
100
AcDbLine
 10
-1091.894654969911
 20
480.1895883921031
 30
0.0
 11
-1091.894654969911
 21
668.1891693940033
 31
0.0
  0
LINE
  5
2F2
330
1F
100
AcDbEntity
  8
1-2
  6
Continuous
 62
     3
370
    13
100
AcDbLine
 10
-1081.895364297403
 20
480.1895883921031
 30
0.0
 11
-1081.895364297403
 21
668.1891693940033
 31
0.0
  0
LINE
  5
2F3
330
1F
100
AcDbEntity
  8
1-2
  6
Continuous
 62
     3
370
    13
100
AcDbLine
 10
-1091.894654969911
 20
680.1895059121623
 30
0.0
 11
-1091.894654969911
 21
835.1877903293919
 31
0.0
  0
LINE
  5
2F4
330
1F
100
AcDbEntity
  8
1-2
  6
Continuous
 62
     3
370
    13
100
AcDbLine
 10
-1081.895364297403
 20
680.1895059121623
 30
0.0
 11
-1081.895364297403
 21
835.1877903293919
 31
0.0
  0
LINE
  5
2F5
330
1F
100
AcDbEntity
  8
1-2
  6
Continuous
 62
     3
370
    13
100
AcDbLine
 10
-1091.894654969911
 20
280.1894234322214
 30
0.0
 11
-1091.894654969911
 21
468.1892518739443
 31
0.0
  0
LINE
  5
2F6
330
1F
100
AcDbEntity
  8
1-2
  6
Continuous
 62
     3
370
    13
100
AcDbLine
 10
-1081.895364297403
 20
280.1894234322214
 30
0.0
 11
-1081.895364297403
 21
468.1892518739443
 31
0.0
  0
LINE
  5
2F7
330
1F
100
AcDbEntity
  8
1-2
  6
Continuous
 62
     3
370
    13
100
AcDbLine
 10
-1091.894654969911
 20
80.18950591216225
 30
0.0
 11
-1091.894654969911
 21
268.1890869140625
 31
0.0
  0
LINE
  5
2F8
330
1F
100
AcDbEntity
  8
1-2
  6
Continuous
 62
     3
370
    13
100
AcDbLine
 10
-1081.895364297403
 20
80.18950591216225
 30
0.0
 11
-1081.895364297403
 21
268.1890869140625
 31
0.0
  0
LINE
  5
2F9
330
1F
100
AcDbEntity
  8
1-2
  6
Continuous
 62
     3
370
    13
100
AcDbLine
 10
-1091.894654969911
 20
-283.8106804925042
 30
0.0
 11
-1091.894654969911
 21
-131.8108718459669
 31
0.0
  0
LINE
  5
2FA
330
1F
100
AcDbEntity
  8
1-2
  6
Continuous
 62
     3
370
    13
100
AcDbLine
 10
-1091.894654969911
 20
-119.8105353278083
 30
0.0
 11
-1091.894654969911
 21
68.18916939400339
 31
0.0
  0
LINE
  5
2FB
330
1F
100
AcDbEntity
  8
1-2
  6
Continuous
 62
     3
370
    13
100
AcDbLine
 10
-1081.895364297403
 20
-283.8106804925042
 30
0.0
 11
-1081.895364297403
 21
-131.8108718459669
 31
0.0
  0
LINE
  5
2FC
330
1F
100
AcDbEntity
  8
1-2
  6
Continuous
 62
     3
370
    13
100
AcDbLine
 10
-1081.895364297403
 20
-119.8105353278083
 30
0.0
 11
-1081.895364297403
 21
68.18916939400339
 31
0.0
  0
LINE
  5
2FD
330
1F
100
AcDbEntity
  8
1-2
  6
Continuous
 62
     3
370
    13
100
AcDbLine
 10
-1061.624599147487
 20
480.1895883921031
 30
0.0
 11
-1061.624599147487
 21
668.1891693940033
 31
0.0
  0
LINE
  5
2FE
330
1F
100
AcDbEntity
  8
1-2
  6
Continuous
 62
     3
370
    13
100
AcDbLine
 10
-1051.625308474979
 20
480.1895883921031
 30
0.0
 11
-1051.625308474979
 21
668.1891693940033
 31
0.0
  0
LINE
  5
2FF
330
1F
100
AcDbEntity
  8
1-2
  6
Continuous
 62
     3
370
    13
100
AcDbLine
 10
-1061.624599147487
 20
680.1895059121623
 30
0.0
 11
-1061.624599147487
 21
835.1877903293919
 31
0.0
  0
LINE
  5
300
330
1F
100
AcDbEntity
  8
1-2
  6
Continuous
 62
     3
370
    13
100
AcDbLine
 10
-1051.625308474979
 20
680.1895059121623
 30
0.0
 11
-1051.625308474979
 21
835.1877903293919
 31
0.0
  0
LINE
  5
301
330
1F
100
AcDbEntity
  8
1-2
  6
Continuous
 62
     3
370
    13
100
AcDbLine
 10
-1061.624599147487
 20
280.1894234322214
 30
0.0
 11
-1061.624599147487
 21
468.1892518739443
 31
0.0
  0
LINE
  5
302
330
1F
100
AcDbEntity
  8
1-2
  6
Continuous
 62
     3
370
    13
100
AcDbLine
 10
-1051.625308474979
 20
280.1894234322214
 30
0.0
 11
-1051.625308474979
 21
468.1892518739443
 31
0.0
  0
LINE
  5
303
330
1F
100
AcDbEntity
  8
1-2
  6
Continuous
 62
     3
370
    13
100
AcDbLine
 10
-1061.624599147487
 20
80.18950591216225
 30
0.0
 11
-1061.624599147487
 21
268.1890869140625
 31
0.0
  0
LINE
  5
304
330
1F
100
AcDbEntity
  8
1-2
  6
Continuous
 62
     3
370
    13
100
AcDbLine
 10
-1051.625308474979
 20
80.18950591216225
 30
0.0
 11
-1051.625308474979
 21
268.1890869140625
 31
0.0
  0
LINE
  5
305
330
1F
100
AcDbEntity
  8
1-2
  6
Continuous
 62
     3
370
    13
100
AcDbLine
 10
-1061.624599147487
 20
-283.8106804925042
 30
0.0
 11
-1061.624599147487
 21
-131.8108718459669
 31
0.0
  0
LINE
  5
306
330
1F
100
AcDbEntity
  8
1-2
  6
Continuous
 62
     3
370
    13
100
AcDbLine
 10
-1061.624599147487
 20
-119.8105353278083
 30
0.0
 11
-1061.624599147487
 21
68.18916939400339
 31
0.0
  0
LINE
  5
307
330
1F
100
AcDbEntity
  8
1-2
  6
Continuous
 62
     3
370
    13
100
AcDbLine
 10
-1051.625308474979
 20
-283.8106804925042
 30
0.0
 11
-1051.625308474979
 21
-131.8108718459669
 31
0.0
  0
LINE
  5
308
330
1F
100
AcDbEntity
  8
1-2
  6
Continuous
 62
     3
370
    13
100
AcDbLine
 10
-1051.625308474979
 20
-119.8105353278083
 30
0.0
 11
-1051.625308474979
 21
68.18916939400339
 31
0.0
  0
LINE
  5
309
330
1F
100
AcDbEntity
  8
1-2
  6
Continuous
 62
     3
370
    13
100
AcDbLine
 10
-1031.354667044975
 20
480.1895883921031
 30
0.0
 11
-1031.354667044975
 21
668.1891693940033
 31
0.0
  0
LINE
  5
30A
330
1F
100
AcDbEntity
  8
1-2
  6
Continuous
 62
     3
370
    13
100
AcDbLine
 10
-1021.355376372466
 20
480.1895883921031
 30
0.0
 11
-1021.355376372466
 21
668.1891693940033
 31
0.0
  0
LINE
  5
30B
330
1F
100
AcDbEntity
  8
1-2
  6
Continuous
 62
     3
370
    13
100
AcDbLine
 10
-1031.354667044975
 20
680.1895059121623
 30
0.0
 11
-1031.354667044975
 21
835.1877903293919
 31
0.0
  0
LINE
  5
30C
330
1F
100
AcDbEntity
  8
1-2
  6
Continuous
 62
     3
370
    13
100
AcDbLine
 10
-1021.355376372466
 20
680.1895059121623
 30
0.0
 11
-1021.355376372466
 21
835.1877903293919
 31
0.0
  0
LINE
  5
30D
330
1F
100
AcDbEntity
  8
1-2
  6
Continuous
 62
     3
370
    13
100
AcDbLine
 10
-1031.354667044975
 20
280.1894234322214
 30
0.0
 11
-1031.354667044975
 21
468.1892518739443
 31
0.0
  0
LINE
  5
30E
330
1F
100
AcDbEntity
  8
1-2
  6
Continuous
 62
     3
370
    13
100
AcDbLine
 10
-1021.355376372466
 20
280.1894234322214
 30
0.0
 11
-1021.355376372466
 21
468.1892518739443
 31
0.0
  0
LINE
  5
30F
330
1F
100
AcDbEntity
  8
1-2
  6
Continuous
 62
     3
370
    13
100
AcDbLine
 10
-1031.354667044975
 20
80.18950591216225
 30
0.0
 11
-1031.354667044975
 21
268.1890869140625
 31
0.0
  0
LINE
  5
310
330
1F
100
AcDbEntity
  8
1-2
  6
Continuous
 62
     3
370
    13
100
AcDbLine
 10
-1021.355376372466
 20
80.18950591216225
 30
0.0
 11
-1021.355376372466
 21
268.1890869140625
 31
0.0
  0
LINE
  5
311
330
1F
100
AcDbEntity
  8
1-2
  6
Continuous
 62
     3
370
    13
100
AcDbLine
 10
-1031.354667044975
 20
-283.8106804925042
 30
0.0
 11
-1031.354667044975
 21
-131.8108718459669
 31
0.0
  0
LINE
  5
312
330
1F
100
AcDbEntity
  8
1-2
  6
Continuous
 62
     3
370
    13
100
AcDbLine
 10
-1031.354667044975
 20
-119.8105353278083
 30
0.0
 11
-1031.354667044975
 21
68.18916939400339
 31
0.0
  0
LINE
  5
313
330
1F
100
AcDbEntity
  8
1-2
  6
Continuous
 62
     3
370
    13
100
AcDbLine
 10
-1021.355376372466
 20
-283.8106804925042
 30
0.0
 11
-1021.355376372466
 21
-131.8108718459669
 31
0.0
  0
LINE
  5
314
330
1F
100
AcDbEntity
  8
1-2
  6
Continuous
 62
     3
370
    13
100
AcDbLine
 10
-1021.355376372466
 20
-119.8105353278083
 30
0.0
 11
-1021.355376372466
 21
68.18916939400339
 31
0.0
  0
LINE
  5
315
330
1F
100
AcDbEntity
  8
1-2
  6
Continuous
 62
     3
370
    13
100
AcDbLine
 10
-1001.084611222551
 20
480.1895883921031
 30
0.0
 11
-1001.084611222551
 21
668.1891693940033
 31
0.0
  0
LINE
  5
316
330
1F
100
AcDbEntity
  8
1-2
  6
Continuous
 62
     3
370
    13
100
AcDbLine
 10
-991.0853205500422
 20
480.1895883921031
 30
0.0
 11
-991.0853205500422
 21
668.1891693940033
 31
0.0
  0
LINE
  5
317
330
1F
100
AcDbEntity
  8
1-2
  6
Continuous
 62
     3
370
    13
100
AcDbLine
 10
-1001.084611222551
 20
680.1895059121623
 30
0.0
 11
-1001.084611222551
 21
835.1877903293919
 31
0.0
  0
LINE
  5
318
330
1F
100
AcDbEntity
  8
1-2
  6
Continuous
 62
     3
370
    13
100
AcDbLine
 10
-991.0853205500422
 20
680.1895059121623
 30
0.0
 11
-991.0853205500422
 21
835.1877903293919
 31
0.0
  0
LINE
  5
319
330
1F
100
AcDbEntity
  8
1-2
  6
Continuous
 62
     3
370
    13
100
AcDbLine
 10
-1001.084611222551
 20
280.1894234322214
 30
0.0
 11
-1001.084611222551
 21
468.1892518739443
 31
0.0
  0
LINE
  5
31A
330
1F
100
AcDbEntity
  8
1-2
  6
Continuous
 62
     3
370
    13
100
AcDbLine
 10
-991.0853205500422
 20
280.1894234322214
 30
0.0
 11
-991.0853205500422
 21
468.1892518739443
 31
0.0
  0
LINE
  5
31B
330
1F
100
AcDbEntity
  8
1-2
  6
Continuous
 62
     3
370
    13
100
AcDbLine
 10
-1001.084611222551
 20
80.18950591216225
 30
0.0
 11
-1001.084611222551
 21
268.1890869140625
 31
0.0
  0
LINE
  5
31C
330
1F
100
AcDbEntity
  8
1-2
  6
Continuous
 62
     3
370
    13
100
AcDbLine
 10
-991.0853205500422
 20
80.18950591216225
 30
0.0
 11
-991.0853205500422
 21
268.1890869140625
 31
0.0
  0
LINE
  5
31D
330
1F
100
AcDbEntity
  8
1-2
  6
Continuous
 62
     3
370
    13
100
AcDbLine
 10
-1001.084611222551
 20
-283.8106804925042
 30
0.0
 11
-1001.084611222551
 21
-131.8108718459669
 31
0.0
  0
LINE
  5
31E
330
1F
100
AcDbEntity
  8
1-2
  6
Continuous
 62
     3
370
    13
100
AcDbLine
 10
-1001.084611222551
 20
-119.8105353278083
 30
0.0
 11
-1001.084611222551
 21
68.18916939400339
 31
0.0
  0
LINE
  5
31F
330
1F
100
AcDbEntity
  8
1-2
  6
Continuous
 62
     3
370
    13
100
AcDbLine
 10
-991.0853205500422
 20
-283.8106804925042
 30
0.0
 11
-991.0853205500422
 21
-131.8108718459669
 31
0.0
  0
LINE
  5
320
330
1F
100
AcDbEntity
  8
1-2
  6
Continuous
 62
     3
370
    13
100
AcDbLine
 10
-991.0853205500422
 20
-119.8105353278083
 30
0.0
 11
-991.0853205500422
 21
68.18916939400339
 31
0.0
  0
LINE
  5
321
330
1F
100
AcDbEntity
  8
1-2
  6
Continuous
 62
     3
370
    13
100
AcDbLine
 10
-970.8146791200379
 20
480.1895883921031
 30
0.0
 11
-970.8146791200379
 21
668.1891693940033
 31
0.0
  0
LINE
  5
322
330
1F
100
AcDbEntity
  8
1-2
  6
Continuous
 62
     3
370
    13
100
AcDbLine
 10
-960.8153884475296
 20
480.1895883921031
 30
0.0
 11
-960.8153884475296
 21
668.1891693940033
 31
0.0
  0
LINE
  5
323
330
1F
100
AcDbEntity
  8
1-2
  6
Continuous
 62
     3
370
    13
100
AcDbLine
 10
-970.8146791200379
 20
680.1895059121623
 30
0.0
 11
-970.8146791200379
 21
835.1877903293919
 31
0.0
  0
LINE
  5
324
330
1F
100
AcDbEntity
  8
1-2
  6
Continuous
 62
     3
370
    13
100
AcDbLine
 10
-960.8153884475296
 20
680.1895059121623
 30
0.0
 11
-960.8153884475296
 21
835.1877903293919
 31
0.0
  0
LINE
  5
325
330
1F
100
AcDbEntity
  8
1-2
  6
Continuous
 62
     3
370
    13
100
AcDbLine
 10
-970.8146791200379
 20
280.1894234322214
 30
0.0
 11
-970.8146791200379
 21
468.1892518739443
 31
0.0
  0
LINE
  5
326
330
1F
100
AcDbEntity
  8
1-2
  6
Continuous
 62
     3
370
    13
100
AcDbLine
 10
-960.8153884475296
 20
280.1894234322214
 30
0.0
 11
-960.8153884475296
 21
468.1892518739443
 31
0.0
  0
LINE
  5
327
330
1F
100
AcDbEntity
  8
1-2
  6
Continuous
 62
     3
370
    13
100
AcDbLine
 10
-970.8146791200379
 20
80.18950591216225
 30
0.0
 11
-970.8146791200379
 21
268.1890869140625
 31
0.0
  0
LINE
  5
328
330
1F
100
AcDbEntity
  8
1-2
  6
Continuous
 62
     3
370
    13
100
AcDbLine
 10
-960.8153884475296
 20
80.18950591216225
 30
0.0
 11
-960.8153884475296
 21
268.1890869140625
 31
0.0
  0
LINE
  5
329
330
1F
100
AcDbEntity
  8
1-2
  6
Continuous
 62
     3
370
    13
100
AcDbLine
 10
-970.8146791200379
 20
-283.8106804925042
 30
0.0
 11
-970.8146791200379
 21
-131.8108718459669
 31
0.0
  0
LINE
  5
32A
330
1F
100
AcDbEntity
  8
1-2
  6
Continuous
 62
     3
370
    13
100
AcDbLine
 10
-970.8146791200379
 20
-119.8105353278083
 30
0.0
 11
-970.8146791200379
 21
68.18916939400339
 31
0.0
  0
LINE
  5
32B
330
1F
100
AcDbEntity
  8
1-2
  6
Continuous
 62
     3
370
    13
100
AcDbLine
 10
-960.8153884475296
 20
-283.8106804925042
 30
0.0
 11
-960.8153884475296
 21
-131.8108718459669
 31
0.0
  0
LINE
  5
32C
330
1F
100
AcDbEntity
  8
1-2
  6
Continuous
 62
     3
370
    13
100
AcDbLine
 10
-960.8153884475296
 20
-119.8105353278083
 30
0.0
 11
-960.8153884475296
 21
68.18916939400339
 31
0.0
  0
LINE
  5
32D
330
1F
100
AcDbEntity
  8
1-2
  6
Continuous
 62
     3
370
    13
100
AcDbLine
 10
-940.544623297614
 20
480.1895883921031
 30
0.0
 11
-940.544623297614
 21
668.1891693940033
 31
0.0
  0
LINE
  5
32E
330
1F
100
AcDbEntity
  8
1-2
  6
Continuous
 62
     3
370
    13
100
AcDbLine
 10
-930.5453326251054
 20
480.1895883921031
 30
0.0
 11
-930.5453326251054
 21
668.1891693940033
 31
0.0
  0
LINE
  5
32F
330
1F
100
AcDbEntity
  8
1-2
  6
Continuous
 62
     3
370
    13
100
AcDbLine
 10
-940.544623297614
 20
680.1895059121623
 30
0.0
 11
-940.544623297614
 21
835.1877903293919
 31
0.0
  0
LINE
  5
330
330
1F
100
AcDbEntity
  8
1-2
  6
Continuous
 62
     3
370
    13
100
AcDbLine
 10
-930.5453326251054
 20
680.1895059121623
 30
0.0
 11
-930.5453326251054
 21
835.1877903293919
 31
0.0
  0
LINE
  5
331
330
1F
100
AcDbEntity
  8
1-2
  6
Continuous
 62
     3
370
    13
100
AcDbLine
 10
-940.544623297614
 20
280.1894234322214
 30
0.0
 11
-940.544623297614
 21
468.1892518739443
 31
0.0
  0
LINE
  5
332
330
1F
100
AcDbEntity
  8
1-2
  6
Continuous
 62
     3
370
    13
100
AcDbLine
 10
-930.5453326251054
 20
280.1894234322214
 30
0.0
 11
-930.5453326251054
 21
468.1892518739443
 31
0.0
  0
LINE
  5
333
330
1F
100
AcDbEntity
  8
1-2
  6
Continuous
 62
     3
370
    13
100
AcDbLine
 10
-940.544623297614
 20
80.18950591216225
 30
0.0
 11
-940.544623297614
 21
268.1890869140625
 31
0.0
  0
LINE
  5
334
330
1F
100
AcDbEntity
  8
1-2
  6
Continuous
 62
     3
370
    13
100
AcDbLine
 10
-930.5453326251054
 20
80.18950591216225
 30
0.0
 11
-930.5453326251054
 21
268.1890869140625
 31
0.0
  0
LINE
  5
335
330
1F
100
AcDbEntity
  8
1-2
  6
Continuous
 62
     3
370
    13
100
AcDbLine
 10
-940.544623297614
 20
-283.8106804925042
 30
0.0
 11
-940.544623297614
 21
-131.8108718459669
 31
0.0
  0
LINE
  5
336
330
1F
100
AcDbEntity
  8
1-2
  6
Continuous
 62
     3
370
    13
100
AcDbLine
 10
-940.544623297614
 20
-119.8105353278083
 30
0.0
 11
-940.544623297614
 21
68.18916939400339
 31
0.0
  0
LINE
  5
337
330
1F
100
AcDbEntity
  8
1-2
  6
Continuous
 62
     3
370
    13
100
AcDbLine
 10
-930.5453326251054
 20
-283.8106804925042
 30
0.0
 11
-930.5453326251054
 21
-131.8108718459669
 31
0.0
  0
LINE
  5
338
330
1F
100
AcDbEntity
  8
1-2
  6
Continuous
 62
     3
370
    13
100
AcDbLine
 10
-930.5453326251054
 20
-119.8105353278083
 30
0.0
 11
-930.5453326251054
 21
68.18916939400339
 31
0.0
  0
LINE
  5
339
330
1F
100
AcDbEntity
  8
1-2
  6
Continuous
 62
     3
370
    13
100
AcDbLine
 10
-910.2746911951012
 20
480.1895883921031
 30
0.0
 11
-910.2746911951012
 21
668.1891693940033
 31
0.0
  0
LINE
  5
33A
330
1F
100
AcDbEntity
  8
1-2
  6
Continuous
 62
     3
370
    13
100
AcDbLine
 10
-900.2754005225928
 20
480.1895883921031
 30
0.0
 11
-900.2754005225928
 21
668.1891693940033
 31
0.0
  0
LINE
  5
33B
330
1F
100
AcDbEntity
  8
1-2
  6
Continuous
 62
     3
370
    13
100
AcDbLine
 10
-910.2746911951012
 20
680.1895059121623
 30
0.0
 11
-910.2746911951012
 21
835.1877903293919
 31
0.0
  0
LINE
  5
33C
330
1F
100
AcDbEntity
  8
1-2
  6
Continuous
 62
     3
370
    13
100
AcDbLine
 10
-900.2754005225928
 20
680.1895059121623
 30
0.0
 11
-900.2754005225928
 21
835.1877903293919
 31
0.0
  0
LINE
  5
33D
330
1F
100
AcDbEntity
  8
1-2
  6
Continuous
 62
     3
370
    13
100
AcDbLine
 10
-910.2746911951012
 20
280.1894234322214
 30
0.0
 11
-910.2746911951012
 21
468.1892518739443
 31
0.0
  0
LINE
  5
33E
330
1F
100
AcDbEntity
  8
1-2
  6
Continuous
 62
     3
370
    13
100
AcDbLine
 10
-900.2754005225928
 20
280.1894234322214
 30
0.0
 11
-900.2754005225928
 21
468.1892518739443
 31
0.0
  0
LINE
  5
33F
330
1F
100
AcDbEntity
  8
1-2
  6
Continuous
 62
     3
370
    13
100
AcDbLine
 10
-910.2746911951012
 20
80.18950591216225
 30
0.0
 11
-910.2746911951012
 21
268.1890869140625
 31
0.0
  0
LINE
  5
340
330
1F
100
AcDbEntity
  8
1-2
  6
Continuous
 62
     3
370
    13
100
AcDbLine
 10
-900.2754005225928
 20
80.18950591216225
 30
0.0
 11
-900.2754005225928
 21
268.1890869140625
 31
0.0
  0
LINE
  5
341
330
1F
100
AcDbEntity
  8
1-2
  6
Continuous
 62
     3
370
    13
100
AcDbLine
 10
-910.2746911951012
 20
-283.8106804925042
 30
0.0
 11
-910.2746911951012
 21
-131.8108718459669
 31
0.0
  0
LINE
  5
342
330
1F
100
AcDbEntity
  8
1-2
  6
Continuous
 62
     3
370
    13
100
AcDbLine
 10
-910.2746911951012
 20
-119.8105353278083
 30
0.0
 11
-910.2746911951012
 21
68.18916939400339
 31
0.0
  0
LINE
  5
343
330
1F
100
AcDbEntity
  8
1-2
  6
Continuous
 62
     3
370
    13
100
AcDbLine
 10
-900.2754005225928
 20
-283.8106804925042
 30
0.0
 11
-900.2754005225928
 21
-131.8108718459669
 31
0.0
  0
LINE
  5
344
330
1F
100
AcDbEntity
  8
1-2
  6
Continuous
 62
     3
370
    13
100
AcDbLine
 10
-900.2754005225928
 20
-119.8105353278083
 30
0.0
 11
-900.2754005225928
 21
68.18916939400339
 31
0.0
  0
LINE
  5
345
330
1F
100
AcDbEntity
  8
1-2
  6
Continuous
 62
     3
370
    13
100
AcDbLine
 10
-880.0046353726773
 20
480.1895883921031
 30
0.0
 11
-880.0046353726773
 21
668.1891693940033
 31
0.0
  0
LINE
  5
346
330
1F
100
AcDbEntity
  8
1-2
  6
Continuous
 62
     3
370
    13
100
AcDbLine
 10
-870.0053447001688
 20
480.1895883921031
 30
0.0
 11
-870.0053447001688
 21
668.1891693940033
 31
0.0
  0
LINE
  5
347
330
1F
100
AcDbEntity
  8
1-2
  6
Continuous
 62
     3
370
    13
100
AcDbLine
 10
-880.0046353726773
 20
680.1895059121623
 30
0.0
 11
-880.0046353726773
 21
835.1877903293919
 31
0.0
  0
LINE
  5
348
330
1F
100
AcDbEntity
  8
1-2
  6
Continuous
 62
     3
370
    13
100
AcDbLine
 10
-870.0053447001688
 20
680.1895059121623
 30
0.0
 11
-870.0053447001688
 21
835.1877903293919
 31
0.0
  0
LINE
  5
349
330
1F
100
AcDbEntity
  8
1-2
  6
Continuous
 62
     3
370
    13
100
AcDbLine
 10
-880.0046353726773
 20
280.1894234322214
 30
0.0
 11
-880.0046353726773
 21
468.1892518739443
 31
0.0
  0
LINE
  5
34A
330
1F
100
AcDbEntity
  8
1-2
  6
Continuous
 62
     3
370
    13
100
AcDbLine
 10
-870.0053447001688
 20
280.1894234322214
 30
0.0
 11
-870.0053447001688
 21
468.1892518739443
 31
0.0
  0
LINE
  5
34B
330
1F
100
AcDbEntity
  8
1-2
  6
Continuous
 62
     3
370
    13
100
AcDbLine
 10
-880.0046353726773
 20
80.18950591216225
 30
0.0
 11
-880.0046353726773
 21
268.1890869140625
 31
0.0
  0
LINE
  5
34C
330
1F
100
AcDbEntity
  8
1-2
  6
Continuous
 62
     3
370
    13
100
AcDbLine
 10
-870.0053447001688
 20
80.18950591216225
 30
0.0
 11
-870.0053447001688
 21
268.1890869140625
 31
0.0
  0
LINE
  5
34D
330
1F
100
AcDbEntity
  8
1-2
  6
Continuous
 62
     3
370
    13
100
AcDbLine
 10
-880.0046353726773
 20
-283.8106804925042
 30
0.0
 11
-880.0046353726773
 21
-131.8108718459669
 31
0.0
  0
LINE
  5
34E
330
1F
100
AcDbEntity
  8
1-2
  6
Continuous
 62
     3
370
    13
100
AcDbLine
 10
-880.0046353726773
 20
-119.8105353278083
 30
0.0
 11
-880.0046353726773
 21
68.18916939400339
 31
0.0
  0
LINE
  5
34F
330
1F
100
AcDbEntity
  8
1-2
  6
Continuous
 62
     3
370
    13
100
AcDbLine
 10
-870.0053447001688
 20
-283.8106804925042
 30
0.0
 11
-870.0053447001688
 21
-131.8108718459669
 31
0.0
  0
LINE
  5
350
330
1F
100
AcDbEntity
  8
1-2
  6
Continuous
 62
     3
370
    13
100
AcDbLine
 10
-870.0053447001688
 20
-119.8105353278083
 30
0.0
 11
-870.0053447001688
 21
68.18916939400339
 31
0.0
  0
LINE
  5
351
330
1F
100
AcDbEntity
  8
1-2
  6
Continuous
 62
     3
370
    13
100
AcDbLine
 10
-849.7347032701646
 20
480.1895883921031
 30
0.0
 11
-849.7347032701646
 21
668.1891693940033
 31
0.0
  0
LINE
  5
352
330
1F
100
AcDbEntity
  8
1-2
  6
Continuous
 62
     3
370
    13
100
AcDbLine
 10
-839.7354125976562
 20
480.1895883921031
 30
0.0
 11
-839.7354125976562
 21
668.1891693940033
 31
0.0
  0
LINE
  5
353
330
1F
100
AcDbEntity
  8
1-2
  6
Continuous
 62
     3
370
    13
100
AcDbLine
 10
-849.7347032701646
 20
680.1895059121623
 30
0.0
 11
-849.7347032701646
 21
835.1877903293919
 31
0.0
  0
LINE
  5
354
330
1F
100
AcDbEntity
  8
1-2
  6
Continuous
 62
     3
370
    13
100
AcDbLine
 10
-839.7354125976562
 20
680.1895059121623
 30
0.0
 11
-839.7354125976562
 21
835.1877903293919
 31
0.0
  0
LINE
  5
355
330
1F
100
AcDbEntity
  8
1-2
  6
Continuous
 62
     3
370
    13
100
AcDbLine
 10
-849.7347032701646
 20
280.1894234322214
 30
0.0
 11
-849.7347032701646
 21
468.1892518739443
 31
0.0
  0
LINE
  5
356
330
1F
100
AcDbEntity
  8
1-2
  6
Continuous
 62
     3
370
    13
100
AcDbLine
 10
-839.7354125976562
 20
280.1894234322214
 30
0.0
 11
-839.7354125976562
 21
468.1892518739443
 31
0.0
  0
LINE
  5
357
330
1F
100
AcDbEntity
  8
1-2
  6
Continuous
 62
     3
370
    13
100
AcDbLine
 10
-849.7347032701646
 20
80.18950591216225
 30
0.0
 11
-849.7347032701646
 21
268.1890869140625
 31
0.0
  0
LINE
  5
358
330
1F
100
AcDbEntity
  8
1-2
  6
Continuous
 62
     3
370
    13
100
AcDbLine
 10
-839.7354125976562
 20
80.18950591216225
 30
0.0
 11
-839.7354125976562
 21
268.1890869140625
 31
0.0
  0
LINE
  5
359
330
1F
100
AcDbEntity
  8
1-2
  6
Continuous
 62
     3
370
    13
100
AcDbLine
 10
-849.7347032701646
 20
-283.8106804925042
 30
0.0
 11
-849.7347032701646
 21
-131.8108718459669
 31
0.0
  0
LINE
  5
35A
330
1F
100
AcDbEntity
  8
1-2
  6
Continuous
 62
     3
370
    13
100
AcDbLine
 10
-849.7347032701646
 20
-119.8105353278083
 30
0.0
 11
-849.7347032701646
 21
68.18916939400339
 31
0.0
  0
LINE
  5
35B
330
1F
100
AcDbEntity
  8
1-2
  6
Continuous
 62
     3
370
    13
100
AcDbLine
 10
-839.7354125976562
 20
-283.8106804925042
 30
0.0
 11
-839.7354125976562
 21
-131.8108718459669
 31
0.0
  0
LINE
  5
35C
330
1F
100
AcDbEntity
  8
1-2
  6
Continuous
 62
     3
370
    13
100
AcDbLine
 10
-839.7354125976562
 20
-119.8105353278083
 30
0.0
 11
-839.7354125976562
 21
68.18916939400339
 31
0.0
  0
LINE
  5
35D
330
1F
100
AcDbEntity
  8
1-2
  6
Continuous
 62
     3
370
    13
100
AcDbLine
 10
-819.4646474477406
 20
480.1895883921031
 30
0.0
 11
-819.4646474477406
 21
668.1891693940033
 31
0.0
  0
LINE
  5
35E
330
1F
100
AcDbEntity
  8
1-2
  6
Continuous
 62
     3
370
    13
100
AcDbLine
 10
-809.4653567752323
 20
480.1895883921031
 30
0.0
 11
-809.4653567752323
 21
668.1891693940033
 31
0.0
  0
LINE
  5
35F
330
1F
100
AcDbEntity
  8
1-2
  6
Continuous
 62
     3
370
    13
100
AcDbLine
 10
-819.4646474477406
 20
680.1895059121623
 30
0.0
 11
-819.4646474477406
 21
835.1877903293919
 31
0.0
  0
LINE
  5
360
330
1F
100
AcDbEntity
  8
1-2
  6
Continuous
 62
     3
370
    13
100
AcDbLine
 10
-809.4653567752323
 20
680.1895059121623
 30
0.0
 11
-809.4653567752323
 21
835.1877903293919
 31
0.0
  0
LINE
  5
361
330
1F
100
AcDbEntity
  8
1-2
  6
Continuous
 62
     3
370
    13
100
AcDbLine
 10
-819.4646474477406
 20
280.1894234322214
 30
0.0
 11
-819.4646474477406
 21
468.1892518739443
 31
0.0
  0
LINE
  5
362
330
1F
100
AcDbEntity
  8
1-2
  6
Continuous
 62
     3
370
    13
100
AcDbLine
 10
-809.4653567752323
 20
280.1894234322214
 30
0.0
 11
-809.4653567752323
 21
468.1892518739443
 31
0.0
  0
LINE
  5
363
330
1F
100
AcDbEntity
  8
1-2
  6
Continuous
 62
     3
370
    13
100
AcDbLine
 10
-819.4646474477406
 20
80.18950591216225
 30
0.0
 11
-819.4646474477406
 21
268.1890869140625
 31
0.0
  0
LINE
  5
364
330
1F
100
AcDbEntity
  8
1-2
  6
Continuous
 62
     3
370
    13
100
AcDbLine
 10
-809.4653567752323
 20
80.18950591216225
 30
0.0
 11
-809.4653567752323
 21
268.1890869140625
 31
0.0
  0
LINE
  5
365
330
1F
100
AcDbEntity
  8
1-2
  6
Continuous
 62
     3
370
    13
100
AcDbLine
 10
-819.4646474477406
 20
-283.8106804925042
 30
0.0
 11
-819.4646474477406
 21
-131.8108718459669
 31
0.0
  0
LINE
  5
366
330
1F
100
AcDbEntity
  8
1-2
  6
Continuous
 62
     3
370
    13
100
AcDbLine
 10
-819.4646474477406
 20
-119.8105353278083
 30
0.0
 11
-819.4646474477406
 21
68.18916939400339
 31
0.0
  0
LINE
  5
367
330
1F
100
AcDbEntity
  8
1-2
  6
Continuous
 62
     3
370
    13
100
AcDbLine
 10
-809.4653567752323
 20
-283.8106804925042
 30
0.0
 11
-809.4653567752323
 21
-131.8108718459669
 31
0.0
  0
LINE
  5
368
330
1F
100
AcDbEntity
  8
1-2
  6
Continuous
 62
     3
370
    13
100
AcDbLine
 10
-809.4653567752323
 20
-119.8105353278083
 30
0.0
 11
-809.4653567752323
 21
68.18916939400339
 31
0.0
  0
LINE
  5
369
330
1F
100
AcDbEntity
  8
1-2
  6
Continuous
 62
     3
370
    13
100
AcDbLine
 10
-789.1947153452279
 20
480.1895883921031
 30
0.0
 11
-789.1947153452279
 21
668.1891693940033
 31
0.0
  0
LINE
  5
36A
330
1F
100
AcDbEntity
  8
1-2
  6
Continuous
 62
     3
370
    13
100
AcDbLine
 10
-779.1954246727196
 20
480.1895883921031
 30
0.0
 11
-779.1954246727196
 21
668.1891693940033
 31
0.0
  0
LINE
  5
36B
330
1F
100
AcDbEntity
  8
1-2
  6
Continuous
 62
     3
370
    13
100
AcDbLine
 10
-789.1947153452279
 20
680.1895059121623
 30
0.0
 11
-789.1947153452279
 21
835.1877903293919
 31
0.0
  0
LINE
  5
36C
330
1F
100
AcDbEntity
  8
1-2
  6
Continuous
 62
     3
370
    13
100
AcDbLine
 10
-779.1954246727196
 20
680.1895059121623
 30
0.0
 11
-779.1954246727196
 21
835.1877903293919
 31
0.0
  0
LINE
  5
36D
330
1F
100
AcDbEntity
  8
1-2
  6
Continuous
 62
     3
370
    13
100
AcDbLine
 10
-789.1947153452279
 20
280.1894234322214
 30
0.0
 11
-789.1947153452279
 21
468.1892518739443
 31
0.0
  0
LINE
  5
36E
330
1F
100
AcDbEntity
  8
1-2
  6
Continuous
 62
     3
370
    13
100
AcDbLine
 10
-779.1954246727196
 20
280.1894234322214
 30
0.0
 11
-779.1954246727196
 21
468.1892518739443
 31
0.0
  0
LINE
  5
36F
330
1F
100
AcDbEntity
  8
1-2
  6
Continuous
 62
     3
370
    13
100
AcDbLine
 10
-789.1947153452279
 20
80.18950591216225
 30
0.0
 11
-789.1947153452279
 21
268.1890869140625
 31
0.0
  0
LINE
  5
370
330
1F
100
AcDbEntity
  8
1-2
  6
Continuous
 62
     3
370
    13
100
AcDbLine
 10
-779.1954246727196
 20
80.18950591216225
 30
0.0
 11
-779.1954246727196
 21
268.1890869140625
 31
0.0
  0
LINE
  5
371
330
1F
100
AcDbEntity
  8
1-2
  6
Continuous
 62
     3
370
    13
100
AcDbLine
 10
-789.1947153452279
 20
-283.8106804925042
 30
0.0
 11
-789.1947153452279
 21
-131.8108718459669
 31
0.0
  0
LINE
  5
372
330
1F
100
AcDbEntity
  8
1-2
  6
Continuous
 62
     3
370
    13
100
AcDbLine
 10
-789.1947153452279
 20
-119.8105353278083
 30
0.0
 11
-789.1947153452279
 21
68.18916939400339
 31
0.0
  0
LINE
  5
373
330
1F
100
AcDbEntity
  8
1-2
  6
Continuous
 62
     3
370
    13
100
AcDbLine
 10
-779.1954246727196
 20
-283.8106804925042
 30
0.0
 11
-779.1954246727196
 21
-131.8108718459669
 31
0.0
  0
LINE
  5
374
330
1F
100
AcDbEntity
  8
1-2
  6
Continuous
 62
     3
370
    13
100
AcDbLine
 10
-779.1954246727196
 20
-119.8105353278083
 30
0.0
 11
-779.1954246727196
 21
68.18916939400339
 31
0.0
  0
LINE
  5
375
330
1F
100
AcDbEntity
  8
1-2
  6
Continuous
 62
     3
370
    13
100
AcDbLine
 10
-758.924659522804
 20
480.1895883921031
 30
0.0
 11
-758.924659522804
 21
668.1891693940033
 31
0.0
  0
LINE
  5
376
330
1F
100
AcDbEntity
  8
1-2
  6
Continuous
 62
     3
370
    13
100
AcDbLine
 10
-748.9253688502956
 20
480.1895883921031
 30
0.0
 11
-748.9253688502956
 21
668.1891693940033
 31
0.0
  0
LINE
  5
377
330
1F
100
AcDbEntity
  8
1-2
  6
Continuous
 62
     3
370
    13
100
AcDbLine
 10
-758.924659522804
 20
680.1895059121623
 30
0.0
 11
-758.924659522804
 21
835.1877903293919
 31
0.0
  0
LINE
  5
378
330
1F
100
AcDbEntity
  8
1-2
  6
Continuous
 62
     3
370
    13
100
AcDbLine
 10
-748.9253688502956
 20
680.1895059121623
 30
0.0
 11
-748.9253688502956
 21
835.1877903293919
 31
0.0
  0
LINE
  5
379
330
1F
100
AcDbEntity
  8
1-2
  6
Continuous
 62
     3
370
    13
100
AcDbLine
 10
-758.924659522804
 20
280.1894234322214
 30
0.0
 11
-758.924659522804
 21
468.1892518739443
 31
0.0
  0
LINE
  5
37A
330
1F
100
AcDbEntity
  8
1-2
  6
Continuous
 62
     3
370
    13
100
AcDbLine
 10
-748.9253688502956
 20
280.1894234322214
 30
0.0
 11
-748.9253688502956
 21
468.1892518739443
 31
0.0
  0
LINE
  5
37B
330
1F
100
AcDbEntity
  8
1-2
  6
Continuous
 62
     3
370
    13
100
AcDbLine
 10
-758.924659522804
 20
80.18950591216225
 30
0.0
 11
-758.924659522804
 21
268.1890869140625
 31
0.0
  0
LINE
  5
37C
330
1F
100
AcDbEntity
  8
1-2
  6
Continuous
 62
     3
370
    13
100
AcDbLine
 10
-748.9253688502956
 20
80.18950591216225
 30
0.0
 11
-748.9253688502956
 21
268.1890869140625
 31
0.0
  0
LINE
  5
37D
330
1F
100
AcDbEntity
  8
1-2
  6
Continuous
 62
     3
370
    13
100
AcDbLine
 10
-758.924659522804
 20
-283.8106804925042
 30
0.0
 11
-758.924659522804
 21
-131.8108718459669
 31
0.0
  0
LINE
  5
37E
330
1F
100
AcDbEntity
  8
1-2
  6
Continuous
 62
     3
370
    13
100
AcDbLine
 10
-758.924659522804
 20
-119.8105353278083
 30
0.0
 11
-758.924659522804
 21
68.18916939400339
 31
0.0
  0
LINE
  5
37F
330
1F
100
AcDbEntity
  8
1-2
  6
Continuous
 62
     3
370
    13
100
AcDbLine
 10
-748.9253688502956
 20
-283.8106804925042
 30
0.0
 11
-748.9253688502956
 21
-131.8108718459669
 31
0.0
  0
LINE
  5
380
330
1F
100
AcDbEntity
  8
1-2
  6
Continuous
 62
     3
370
    13
100
AcDbLine
 10
-748.9253688502956
 20
-119.8105353278083
 30
0.0
 11
-748.9253688502956
 21
68.18916939400339
 31
0.0
  0
LINE
  5
381
330
1F
100
AcDbEntity
  8
1-2
  6
Continuous
 62
     3
370
    13
100
AcDbLine
 10
-728.65460370038
 20
480.1895883921031
 30
0.0
 11
-728.65460370038
 21
668.1891693940033
 31
0.0
  0
LINE
  5
382
330
1F
100
AcDbEntity
  8
1-2
  6
Continuous
 62
     3
370
    13
100
AcDbLine
 10
-718.6553130278717
 20
480.1895883921031
 30
0.0
 11
-718.6553130278717
 21
668.1891693940033
 31
0.0
  0
LINE
  5
383
330
1F
100
AcDbEntity
  8
1-2
  6
Continuous
 62
     3
370
    13
100
AcDbLine
 10
-728.65460370038
 20
680.1895059121623
 30
0.0
 11
-728.65460370038
 21
835.1877903293919
 31
0.0
  0
LINE
  5
384
330
1F
100
AcDbEntity
  8
1-2
  6
Continuous
 62
     3
370
    13
100
AcDbLine
 10
-718.6553130278717
 20
680.1895059121623
 30
0.0
 11
-718.6553130278717
 21
835.1877903293919
 31
0.0
  0
LINE
  5
385
330
1F
100
AcDbEntity
  8
1-2
  6
Continuous
 62
     3
370
    13
100
AcDbLine
 10
-728.65460370038
 20
280.1894234322214
 30
0.0
 11
-728.65460370038
 21
468.1892518739443
 31
0.0
  0
LINE
  5
386
330
1F
100
AcDbEntity
  8
1-2
  6
Continuous
 62
     3
370
    13
100
AcDbLine
 10
-718.6553130278717
 20
280.1894234322214
 30
0.0
 11
-718.6553130278717
 21
468.1892518739443
 31
0.0
  0
LINE
  5
387
330
1F
100
AcDbEntity
  8
1-2
  6
Continuous
 62
     3
370
    13
100
AcDbLine
 10
-728.65460370038
 20
80.18950591216225
 30
0.0
 11
-728.65460370038
 21
268.1890869140625
 31
0.0
  0
LINE
  5
388
330
1F
100
AcDbEntity
  8
1-2
  6
Continuous
 62
     3
370
    13
100
AcDbLine
 10
-718.6553130278717
 20
80.18950591216225
 30
0.0
 11
-718.6553130278717
 21
268.1890869140625
 31
0.0
  0
LINE
  5
389
330
1F
100
AcDbEntity
  8
1-2
  6
Continuous
 62
     3
370
    13
100
AcDbLine
 10
-728.65460370038
 20
-283.8106804925042
 30
0.0
 11
-728.65460370038
 21
-131.8108718459669
 31
0.0
  0
LINE
  5
38A
330
1F
100
AcDbEntity
  8
1-2
  6
Continuous
 62
     3
370
    13
100
AcDbLine
 10
-728.65460370038
 20
-119.8105353278083
 30
0.0
 11
-728.65460370038
 21
68.18916939400339
 31
0.0
  0
LINE
  5
38B
330
1F
100
AcDbEntity
  8
1-2
  6
Continuous
 62
     3
370
    13
100
AcDbLine
 10
-718.6553130278717
 20
-283.8106804925042
 30
0.0
 11
-718.6553130278717
 21
-131.8108718459669
 31
0.0
  0
LINE
  5
38C
330
1F
100
AcDbEntity
  8
1-2
  6
Continuous
 62
     3
370
    13
100
AcDbLine
 10
-718.6553130278717
 20
-119.8105353278083
 30
0.0
 11
-718.6553130278717
 21
68.18916939400339
 31
0.0
  0
LINE
  5
38D
330
1F
100
AcDbEntity
  8
1-2
  6
Continuous
 62
     3
370
    13
100
AcDbLine
 10
-698.3846715978675
 20
480.1895883921031
 30
0.0
 11
-698.3846715978675
 21
668.1891693940033
 31
0.0
  0
LINE
  5
38E
330
1F
100
AcDbEntity
  8
1-2
  6
Continuous
 62
     3
370
    13
100
AcDbLine
 10
-688.3853809253588
 20
480.1895883921031
 30
0.0
 11
-688.3853809253588
 21
668.1891693940033
 31
0.0
  0
LINE
  5
38F
330
1F
100
AcDbEntity
  8
1-2
  6
Continuous
 62
     3
370
    13
100
AcDbLine
 10
-698.3846715978675
 20
680.1895059121623
 30
0.0
 11
-698.3846715978675
 21
835.1877903293919
 31
0.0
  0
LINE
  5
390
330
1F
100
AcDbEntity
  8
1-2
  6
Continuous
 62
     3
370
    13
100
AcDbLine
 10
-688.3853809253588
 20
680.1895059121623
 30
0.0
 11
-688.3853809253588
 21
835.1877903293919
 31
0.0
  0
LINE
  5
391
330
1F
100
AcDbEntity
  8
1-2
  6
Continuous
 62
     3
370
    13
100
AcDbLine
 10
-698.3846715978675
 20
280.1894234322214
 30
0.0
 11
-698.3846715978675
 21
468.1892518739443
 31
0.0
  0
LINE
  5
392
330
1F
100
AcDbEntity
  8
1-2
  6
Continuous
 62
     3
370
    13
100
AcDbLine
 10
-688.3853809253588
 20
280.1894234322214
 30
0.0
 11
-688.3853809253588
 21
468.1892518739443
 31
0.0
  0
LINE
  5
393
330
1F
100
AcDbEntity
  8
1-2
  6
Continuous
 62
     3
370
    13
100
AcDbLine
 10
-698.3846715978675
 20
80.18950591216225
 30
0.0
 11
-698.3846715978675
 21
268.1890869140625
 31
0.0
  0
LINE
  5
394
330
1F
100
AcDbEntity
  8
1-2
  6
Continuous
 62
     3
370
    13
100
AcDbLine
 10
-688.3853809253588
 20
80.18950591216225
 30
0.0
 11
-688.3853809253588
 21
268.1890869140625
 31
0.0
  0
LINE
  5
395
330
1F
100
AcDbEntity
  8
1-2
  6
Continuous
 62
     3
370
    13
100
AcDbLine
 10
-698.3846715978675
 20
-283.8106804925042
 30
0.0
 11
-698.3846715978675
 21
-131.8108718459669
 31
0.0
  0
LINE
  5
396
330
1F
100
AcDbEntity
  8
1-2
  6
Continuous
 62
     3
370
    13
100
AcDbLine
 10
-698.3846715978675
 20
-119.8105353278083
 30
0.0
 11
-698.3846715978675
 21
68.18916939400339
 31
0.0
  0
LINE
  5
397
330
1F
100
AcDbEntity
  8
1-2
  6
Continuous
 62
     3
370
    13
100
AcDbLine
 10
-688.3853809253588
 20
-283.8106804925042
 30
0.0
 11
-688.3853809253588
 21
-131.8108718459669
 31
0.0
  0
LINE
  5
398
330
1F
100
AcDbEntity
  8
1-2
  6
Continuous
 62
     3
370
    13
100
AcDbLine
 10
-688.3853809253588
 20
-119.8105353278083
 30
0.0
 11
-688.3853809253588
 21
68.18916939400339
 31
0.0
  0
LINE
  5
399
330
1F
100
AcDbEntity
  8
1-2
  6
Continuous
 62
     3
370
    13
100
AcDbLine
 10
-668.1147394953547
 20
480.1895883921031
 30
0.0
 11
-668.1147394953547
 21
668.1891693940033
 31
0.0
  0
LINE
  5
39A
330
1F
100
AcDbEntity
  8
1-2
  6
Continuous
 62
     3
370
    13
100
AcDbLine
 10
-658.115448822846
 20
480.1895883921031
 30
0.0
 11
-658.115448822846
 21
668.1891693940033
 31
0.0
  0
LINE
  5
39B
330
1F
100
AcDbEntity
  8
1-2
  6
Continuous
 62
     3
370
    13
100
AcDbLine
 10
-668.1147394953547
 20
680.1895059121623
 30
0.0
 11
-668.1147394953547
 21
835.1877903293919
 31
0.0
  0
LINE
  5
39C
330
1F
100
AcDbEntity
  8
1-2
  6
Continuous
 62
     3
370
    13
100
AcDbLine
 10
-658.115448822846
 20
680.1895059121623
 30
0.0
 11
-658.115448822846
 21
835.1877903293919
 31
0.0
  0
LINE
  5
39D
330
1F
100
AcDbEntity
  8
1-2
  6
Continuous
 62
     3
370
    13
100
AcDbLine
 10
-668.1147394953547
 20
280.1894234322214
 30
0.0
 11
-668.1147394953547
 21
468.1892518739443
 31
0.0
  0
LINE
  5
39E
330
1F
100
AcDbEntity
  8
1-2
  6
Continuous
 62
     3
370
    13
100
AcDbLine
 10
-658.115448822846
 20
280.1894234322214
 30
0.0
 11
-658.115448822846
 21
468.1892518739443
 31
0.0
  0
LINE
  5
39F
330
1F
100
AcDbEntity
  8
1-2
  6
Continuous
 62
     3
370
    13
100
AcDbLine
 10
-668.1147394953547
 20
80.18950591216225
 30
0.0
 11
-668.1147394953547
 21
268.1890869140625
 31
0.0
  0
LINE
  5
3A0
330
1F
100
AcDbEntity
  8
1-2
  6
Continuous
 62
     3
370
    13
100
AcDbLine
 10
-658.115448822846
 20
80.18950591216225
 30
0.0
 11
-658.115448822846
 21
268.1890869140625
 31
0.0
  0
LINE
  5
3A1
330
1F
100
AcDbEntity
  8
1-2
  6
Continuous
 62
     3
370
    13
100
AcDbLine
 10
-668.1147394953547
 20
-283.8106804925042
 30
0.0
 11
-668.1147394953547
 21
-131.8108718459669
 31
0.0
  0
LINE
  5
3A2
330
1F
100
AcDbEntity
  8
1-2
  6
Continuous
 62
     3
370
    13
100
AcDbLine
 10
-668.1147394953547
 20
-119.8105353278083
 30
0.0
 11
-668.1147394953547
 21
68.18916939400339
 31
0.0
  0
LINE
  5
3A3
330
1F
100
AcDbEntity
  8
1-2
  6
Continuous
 62
     3
370
    13
100
AcDbLine
 10
-658.115448822846
 20
-283.8106804925042
 30
0.0
 11
-658.115448822846
 21
-131.8108718459669
 31
0.0
  0
LINE
  5
3A4
330
1F
100
AcDbEntity
  8
1-2
  6
Continuous
 62
     3
370
    13
100
AcDbLine
 10
-658.115448822846
 20
-119.8105353278083
 30
0.0
 11
-658.115448822846
 21
68.18916939400339
 31
0.0
  0
LINE
  5
3A5
330
1F
100
AcDbEntity
  8
1-2
  6
Continuous
 62
     3
370
    13
100
AcDbLine
 10
-637.8446836729307
 20
480.1895883921031
 30
0.0
 11
-637.8446836729307
 21
668.1891693940033
 31
0.0
  0
LINE
  5
3A6
330
1F
100
AcDbEntity
  8
1-2
  6
Continuous
 62
     3
370
    13
100
AcDbLine
 10
-627.8453930004221
 20
480.1895883921031
 30
0.0
 11
-627.8453930004221
 21
668.1891693940033
 31
0.0
  0
LINE
  5
3A7
330
1F
100
AcDbEntity
  8
1-2
  6
Continuous
 62
     3
370
    13
100
AcDbLine
 10
-637.8446836729307
 20
680.1895059121623
 30
0.0
 11
-637.8446836729307
 21
835.1877903293919
 31
0.0
  0
LINE
  5
3A8
330
1F
100
AcDbEntity
  8
1-2
  6
Continuous
 62
     3
370
    13
100
AcDbLine
 10
-627.8453930004221
 20
680.1895059121623
 30
0.0
 11
-627.8453930004221
 21
835.1877903293919
 31
0.0
  0
LINE
  5
3A9
330
1F
100
AcDbEntity
  8
1-2
  6
Continuous
 62
     3
370
    13
100
AcDbLine
 10
-637.8446836729307
 20
280.1894234322214
 30
0.0
 11
-637.8446836729307
 21
468.1892518739443
 31
0.0
  0
LINE
  5
3AA
330
1F
100
AcDbEntity
  8
1-2
  6
Continuous
 62
     3
370
    13
100
AcDbLine
 10
-627.8453930004221
 20
280.1894234322214
 30
0.0
 11
-627.8453930004221
 21
468.1892518739443
 31
0.0
  0
LINE
  5
3AB
330
1F
100
AcDbEntity
  8
1-2
  6
Continuous
 62
     3
370
    13
100
AcDbLine
 10
-637.8446836729307
 20
80.18950591216225
 30
0.0
 11
-637.8446836729307
 21
268.1890869140625
 31
0.0
  0
LINE
  5
3AC
330
1F
100
AcDbEntity
  8
1-2
  6
Continuous
 62
     3
370
    13
100
AcDbLine
 10
-627.8453930004221
 20
80.18950591216225
 30
0.0
 11
-627.8453930004221
 21
268.1890869140625
 31
0.0
  0
LINE
  5
3AD
330
1F
100
AcDbEntity
  8
1-2
  6
Continuous
 62
     3
370
    13
100
AcDbLine
 10
-637.8446836729307
 20
-283.8106804925042
 30
0.0
 11
-637.8446836729307
 21
-131.8108718459669
 31
0.0
  0
LINE
  5
3AE
330
1F
100
AcDbEntity
  8
1-2
  6
Continuous
 62
     3
370
    13
100
AcDbLine
 10
-637.8446836729307
 20
-119.8105353278083
 30
0.0
 11
-637.8446836729307
 21
68.18916939400339
 31
0.0
  0
LINE
  5
3AF
330
1F
100
AcDbEntity
  8
1-2
  6
Continuous
 62
     3
370
    13
100
AcDbLine
 10
-627.8453930004221
 20
-283.8106804925042
 30
0.0
 11
-627.8453930004221
 21
-131.8108718459669
 31
0.0
  0
LINE
  5
3B0
330
1F
100
AcDbEntity
  8
1-2
  6
Continuous
 62
     3
370
    13
100
AcDbLine
 10
-627.8453930004221
 20
-119.8105353278083
 30
0.0
 11
-627.8453930004221
 21
68.18916939400339
 31
0.0
  0
LINE
  5
3B1
330
1F
100
AcDbEntity
  8
1-2
  6
Continuous
 62
     3
370
    13
100
AcDbLine
 10
-607.5746278505068
 20
480.1895883921031
 30
0.0
 11
-607.5746278505068
 21
668.1891693940033
 31
0.0
  0
LINE
  5
3B2
330
1F
100
AcDbEntity
  8
1-2
  6
Continuous
 62
     3
370
    13
100
AcDbLine
 10
-597.5753371779981
 20
480.1895883921031
 30
0.0
 11
-597.5753371779981
 21
668.1891693940033
 31
0.0
  0
LINE
  5
3B3
330
1F
100
AcDbEntity
  8
1-2
  6
Continuous
 62
     3
370
    13
100
AcDbLine
 10
-607.5746278505068
 20
680.1895059121623
 30
0.0
 11
-607.5746278505068
 21
835.1877903293919
 31
0.0
  0
LINE
  5
3B4
330
1F
100
AcDbEntity
  8
1-2
  6
Continuous
 62
     3
370
    13
100
AcDbLine
 10
-597.5753371779981
 20
680.1895059121623
 30
0.0
 11
-597.5753371779981
 21
835.1877903293919
 31
0.0
  0
LINE
  5
3B5
330
1F
100
AcDbEntity
  8
1-2
  6
Continuous
 62
     3
370
    13
100
AcDbLine
 10
-607.5746278505068
 20
280.1894234322214
 30
0.0
 11
-607.5746278505068
 21
468.1892518739443
 31
0.0
  0
LINE
  5
3B6
330
1F
100
AcDbEntity
  8
1-2
  6
Continuous
 62
     3
370
    13
100
AcDbLine
 10
-597.5753371779981
 20
280.1894234322214
 30
0.0
 11
-597.5753371779981
 21
468.1892518739443
 31
0.0
  0
LINE
  5
3B7
330
1F
100
AcDbEntity
  8
1-2
  6
Continuous
 62
     3
370
    13
100
AcDbLine
 10
-607.5746278505068
 20
80.18950591216225
 30
0.0
 11
-607.5746278505068
 21
268.1890869140625
 31
0.0
  0
LINE
  5
3B8
330
1F
100
AcDbEntity
  8
1-2
  6
Continuous
 62
     3
370
    13
100
AcDbLine
 10
-597.5753371779981
 20
80.18950591216225
 30
0.0
 11
-597.5753371779981
 21
268.1890869140625
 31
0.0
  0
LINE
  5
3B9
330
1F
100
AcDbEntity
  8
1-2
  6
Continuous
 62
     3
370
    13
100
AcDbLine
 10
-607.5746278505068
 20
-283.8106804925042
 30
0.0
 11
-607.5746278505068
 21
-131.8108718459669
 31
0.0
  0
LINE
  5
3BA
330
1F
100
AcDbEntity
  8
1-2
  6
Continuous
 62
     3
370
    13
100
AcDbLine
 10
-607.5746278505068
 20
-119.8105353278083
 30
0.0
 11
-607.5746278505068
 21
68.18916939400339
 31
0.0
  0
LINE
  5
3BB
330
1F
100
AcDbEntity
  8
1-2
  6
Continuous
 62
     3
370
    13
100
AcDbLine
 10
-597.5753371779981
 20
-283.8106804925042
 30
0.0
 11
-597.5753371779981
 21
-131.8108718459669
 31
0.0
  0
LINE
  5
3BC
330
1F
100
AcDbEntity
  8
1-2
  6
Continuous
 62
     3
370
    13
100
AcDbLine
 10
-597.5753371779981
 20
-119.8105353278083
 30
0.0
 11
-597.5753371779981
 21
68.18916939400339
 31
0.0
  0
LINE
  5
3BD
330
1F
100
AcDbEntity
  8
1-2
  6
Continuous
 62
     3
370
    13
100
AcDbLine
 10
-577.304695747994
 20
480.1895883921031
 30
0.0
 11
-577.304695747994
 21
668.1891693940033
 31
0.0
  0
LINE
  5
3BE
330
1F
100
AcDbEntity
  8
1-2
  6
Continuous
 62
     3
370
    13
100
AcDbLine
 10
-567.3054050754856
 20
480.1895883921031
 30
0.0
 11
-567.3054050754856
 21
668.1891693940033
 31
0.0
  0
LINE
  5
3BF
330
1F
100
AcDbEntity
  8
1-2
  6
Continuous
 62
     3
370
    13
100
AcDbLine
 10
-577.304695747994
 20
680.1895059121623
 30
0.0
 11
-577.304695747994
 21
835.1877903293919
 31
0.0
  0
LINE
  5
3C0
330
1F
100
AcDbEntity
  8
1-2
  6
Continuous
 62
     3
370
    13
100
AcDbLine
 10
-567.3054050754856
 20
680.1895059121623
 30
0.0
 11
-567.3054050754856
 21
835.1877903293919
 31
0.0
  0
LINE
  5
3C1
330
1F
100
AcDbEntity
  8
1-2
  6
Continuous
 62
     3
370
    13
100
AcDbLine
 10
-577.304695747994
 20
280.1894234322214
 30
0.0
 11
-577.304695747994
 21
468.1892518739443
 31
0.0
  0
LINE
  5
3C2
330
1F
100
AcDbEntity
  8
1-2
  6
Continuous
 62
     3
370
    13
100
AcDbLine
 10
-567.3054050754856
 20
280.1894234322214
 30
0.0
 11
-567.3054050754856
 21
468.1892518739443
 31
0.0
  0
LINE
  5
3C3
330
1F
100
AcDbEntity
  8
1-2
  6
Continuous
 62
     3
370
    13
100
AcDbLine
 10
-577.304695747994
 20
80.18950591216225
 30
0.0
 11
-577.304695747994
 21
268.1890869140625
 31
0.0
  0
LINE
  5
3C4
330
1F
100
AcDbEntity
  8
1-2
  6
Continuous
 62
     3
370
    13
100
AcDbLine
 10
-567.3054050754856
 20
80.18950591216225
 30
0.0
 11
-567.3054050754856
 21
268.1890869140625
 31
0.0
  0
LINE
  5
3C5
330
1F
100
AcDbEntity
  8
1-2
  6
Continuous
 62
     3
370
    13
100
AcDbLine
 10
-577.304695747994
 20
-283.8106804925042
 30
0.0
 11
-577.304695747994
 21
-131.8108718459669
 31
0.0
  0
LINE
  5
3C6
330
1F
100
AcDbEntity
  8
1-2
  6
Continuous
 62
     3
370
    13
100
AcDbLine
 10
-577.304695747994
 20
-119.8105353278083
 30
0.0
 11
-577.304695747994
 21
68.18916939400339
 31
0.0
  0
LINE
  5
3C7
330
1F
100
AcDbEntity
  8
1-2
  6
Continuous
 62
     3
370
    13
100
AcDbLine
 10
-567.3054050754856
 20
-283.8106804925042
 30
0.0
 11
-567.3054050754856
 21
-131.8108718459669
 31
0.0
  0
LINE
  5
3C8
330
1F
100
AcDbEntity
  8
1-2
  6
Continuous
 62
     3
370
    13
100
AcDbLine
 10
-567.3054050754856
 20
-119.8105353278083
 30
0.0
 11
-567.3054050754856
 21
68.18916939400339
 31
0.0
  0
LINE
  5
3C9
330
1F
100
AcDbEntity
  8
1-2
  6
Continuous
 62
     3
370
    13
100
AcDbLine
 10
-547.0347636454812
 20
480.1895883921031
 30
0.0
 11
-547.0347636454812
 21
668.1891693940033
 31
0.0
  0
LINE
  5
3CA
330
1F
100
AcDbEntity
  8
1-2
  6
Continuous
 62
     3
370
    13
100
AcDbLine
 10
-537.0354729729729
 20
480.1895883921031
 30
0.0
 11
-537.0354729729729
 21
668.1891693940033
 31
0.0
  0
LINE
  5
3CB
330
1F
100
AcDbEntity
  8
1-2
  6
Continuous
 62
     3
370
    13
100
AcDbLine
 10
-547.0347636454812
 20
680.1895059121623
 30
0.0
 11
-547.0347636454812
 21
835.1877903293919
 31
0.0
  0
LINE
  5
3CC
330
1F
100
AcDbEntity
  8
1-2
  6
Continuous
 62
     3
370
    13
100
AcDbLine
 10
-537.0354729729729
 20
680.1895059121623
 30
0.0
 11
-537.0354729729729
 21
835.1877903293919
 31
0.0
  0
LINE
  5
3CD
330
1F
100
AcDbEntity
  8
1-2
  6
Continuous
 62
     3
370
    13
100
AcDbLine
 10
-547.0347636454812
 20
280.1894234322214
 30
0.0
 11
-547.0347636454812
 21
468.1892518739443
 31
0.0
  0
LINE
  5
3CE
330
1F
100
AcDbEntity
  8
1-2
  6
Continuous
 62
     3
370
    13
100
AcDbLine
 10
-537.0354729729729
 20
280.1894234322214
 30
0.0
 11
-537.0354729729729
 21
468.1892518739443
 31
0.0
  0
LINE
  5
3CF
330
1F
100
AcDbEntity
  8
1-2
  6
Continuous
 62
     3
370
    13
100
AcDbLine
 10
-547.0347636454812
 20
80.18950591216225
 30
0.0
 11
-547.0347636454812
 21
268.1890869140625
 31
0.0
  0
LINE
  5
3D0
330
1F
100
AcDbEntity
  8
1-2
  6
Continuous
 62
     3
370
    13
100
AcDbLine
 10
-537.0354729729729
 20
80.18950591216225
 30
0.0
 11
-537.0354729729729
 21
268.1890869140625
 31
0.0
  0
LINE
  5
3D1
330
1F
100
AcDbEntity
  8
1-2
  6
Continuous
 62
     3
370
    13
100
AcDbLine
 10
-547.0347636454812
 20
-283.8106804925042
 30
0.0
 11
-547.0347636454812
 21
-131.8108718459669
 31
0.0
  0
LINE
  5
3D2
330
1F
100
AcDbEntity
  8
1-2
  6
Continuous
 62
     3
370
    13
100
AcDbLine
 10
-547.0347636454812
 20
-119.8105353278083
 30
0.0
 11
-547.0347636454812
 21
68.18916939400339
 31
0.0
  0
LINE
  5
3D3
330
1F
100
AcDbEntity
  8
1-2
  6
Continuous
 62
     3
370
    13
100
AcDbLine
 10
-537.0354729729729
 20
-283.8106804925042
 30
0.0
 11
-537.0354729729729
 21
-131.8108718459669
 31
0.0
  0
LINE
  5
3D4
330
1F
100
AcDbEntity
  8
1-2
  6
Continuous
 62
     3
370
    13
100
AcDbLine
 10
-537.0354729729729
 20
-119.8105353278083
 30
0.0
 11
-537.0354729729729
 21
68.18916939400339
 31
0.0
  0
LINE
  5
3D5
330
1F
100
AcDbEntity
  8
1-2
  6
Continuous
 62
     3
370
    13
100
AcDbLine
 10
-516.7647078230573
 20
480.1895883921031
 30
0.0
 11
-516.7647078230573
 21
668.1891693940033
 31
0.0
  0
LINE
  5
3D6
330
1F
100
AcDbEntity
  8
1-2
  6
Continuous
 62
     3
370
    13
100
AcDbLine
 10
-506.765417150549
 20
480.1895883921031
 30
0.0
 11
-506.765417150549
 21
668.1891693940033
 31
0.0
  0
LINE
  5
3D7
330
1F
100
AcDbEntity
  8
1-2
  6
Continuous
 62
     3
370
    13
100
AcDbLine
 10
-516.7647078230573
 20
680.1895059121623
 30
0.0
 11
-516.7647078230573
 21
835.1877903293919
 31
0.0
  0
LINE
  5
3D8
330
1F
100
AcDbEntity
  8
1-2
  6
Continuous
 62
     3
370
    13
100
AcDbLine
 10
-506.765417150549
 20
680.1895059121623
 30
0.0
 11
-506.765417150549
 21
835.1877903293919
 31
0.0
  0
LINE
  5
3D9
330
1F
100
AcDbEntity
  8
1-2
  6
Continuous
 62
     3
370
    13
100
AcDbLine
 10
-516.7647078230573
 20
280.1894234322214
 30
0.0
 11
-516.7647078230573
 21
468.1892518739443
 31
0.0
  0
LINE
  5
3DA
330
1F
100
AcDbEntity
  8
1-2
  6
Continuous
 62
     3
370
    13
100
AcDbLine
 10
-506.765417150549
 20
280.1894234322214
 30
0.0
 11
-506.765417150549
 21
468.1892518739443
 31
0.0
  0
LINE
  5
3DB
330
1F
100
AcDbEntity
  8
1-2
  6
Continuous
 62
     3
370
    13
100
AcDbLine
 10
-516.7647078230573
 20
80.18950591216225
 30
0.0
 11
-516.7647078230573
 21
268.1890869140625
 31
0.0
  0
LINE
  5
3DC
330
1F
100
AcDbEntity
  8
1-2
  6
Continuous
 62
     3
370
    13
100
AcDbLine
 10
-506.765417150549
 20
80.18950591216225
 30
0.0
 11
-506.765417150549
 21
268.1890869140625
 31
0.0
  0
LINE
  5
3DD
330
1F
100
AcDbEntity
  8
1-2
  6
Continuous
 62
     3
370
    13
100
AcDbLine
 10
-516.7647078230573
 20
-283.8106804925042
 30
0.0
 11
-516.7647078230573
 21
-131.8108718459669
 31
0.0
  0
LINE
  5
3DE
330
1F
100
AcDbEntity
  8
1-2
  6
Continuous
 62
     3
370
    13
100
AcDbLine
 10
-516.7647078230573
 20
-119.8105353278083
 30
0.0
 11
-516.7647078230573
 21
68.18916939400339
 31
0.0
  0
LINE
  5
3DF
330
1F
100
AcDbEntity
  8
1-2
  6
Continuous
 62
     3
370
    13
100
AcDbLine
 10
-506.765417150549
 20
-283.8106804925042
 30
0.0
 11
-506.765417150549
 21
-131.8108718459669
 31
0.0
  0
LINE
  5
3E0
330
1F
100
AcDbEntity
  8
1-2
  6
Continuous
 62
     3
370
    13
100
AcDbLine
 10
-506.765417150549
 20
-119.8105353278083
 30
0.0
 11
-506.765417150549
 21
68.18916939400339
 31
0.0
  0
LINE
  5
3E1
330
1F
100
AcDbEntity
  8
1-2
  6
Continuous
 62
     3
370
    13
100
AcDbLine
 10
-486.4946520006333
 20
480.1895883921031
 30
0.0
 11
-486.4946520006333
 21
668.1891693940033
 31
0.0
  0
LINE
  5
3E2
330
1F
100
AcDbEntity
  8
1-2
  6
Continuous
 62
     3
370
    13
100
AcDbLine
 10
-476.495361328125
 20
480.1895883921031
 30
0.0
 11
-476.495361328125
 21
668.1891693940033
 31
0.0
  0
LINE
  5
3E3
330
1F
100
AcDbEntity
  8
1-2
  6
Continuous
 62
     3
370
    13
100
AcDbLine
 10
-486.4946520006333
 20
680.1895059121623
 30
0.0
 11
-486.4946520006333
 21
835.1877903293919
 31
0.0
  0
LINE
  5
3E4
330
1F
100
AcDbEntity
  8
1-2
  6
Continuous
 62
     3
370
    13
100
AcDbLine
 10
-476.495361328125
 20
680.1895059121623
 30
0.0
 11
-476.495361328125
 21
835.1877903293919
 31
0.0
  0
LINE
  5
3E5
330
1F
100
AcDbEntity
  8
1-2
  6
Continuous
 62
     3
370
    13
100
AcDbLine
 10
-486.4946520006333
 20
280.1894234322214
 30
0.0
 11
-486.4946520006333
 21
468.1892518739443
 31
0.0
  0
LINE
  5
3E6
330
1F
100
AcDbEntity
  8
1-2
  6
Continuous
 62
     3
370
    13
100
AcDbLine
 10
-476.495361328125
 20
280.1894234322214
 30
0.0
 11
-476.495361328125
 21
468.1892518739443
 31
0.0
  0
LINE
  5
3E7
330
1F
100
AcDbEntity
  8
1-2
  6
Continuous
 62
     3
370
    13
100
AcDbLine
 10
-486.4946520006333
 20
80.18950591216225
 30
0.0
 11
-486.4946520006333
 21
268.1890869140625
 31
0.0
  0
LINE
  5
3E8
330
1F
100
AcDbEntity
  8
1-2
  6
Continuous
 62
     3
370
    13
100
AcDbLine
 10
-476.495361328125
 20
80.18950591216225
 30
0.0
 11
-476.495361328125
 21
268.1890869140625
 31
0.0
  0
LINE
  5
3E9
330
1F
100
AcDbEntity
  8
1-2
  6
Continuous
 62
     3
370
    13
100
AcDbLine
 10
-486.4946520006333
 20
-283.8106804925042
 30
0.0
 11
-486.4946520006333
 21
-131.8108718459669
 31
0.0
  0
LINE
  5
3EA
330
1F
100
AcDbEntity
  8
1-2
  6
Continuous
 62
     3
370
    13
100
AcDbLine
 10
-486.4946520006333
 20
-119.8105353278083
 30
0.0
 11
-486.4946520006333
 21
68.18916939400339
 31
0.0
  0
LINE
  5
3EB
330
1F
100
AcDbEntity
  8
1-2
  6
Continuous
 62
     3
370
    13
100
AcDbLine
 10
-476.495361328125
 20
-283.8106804925042
 30
0.0
 11
-476.495361328125
 21
-131.8108718459669
 31
0.0
  0
LINE
  5
3EC
330
1F
100
AcDbEntity
  8
1-2
  6
Continuous
 62
     3
370
    13
100
AcDbLine
 10
-476.495361328125
 20
-119.8105353278083
 30
0.0
 11
-476.495361328125
 21
68.18916939400339
 31
0.0
  0
LINE
  5
3ED
330
1F
100
AcDbEntity
  8
1-2
  6
Continuous
 62
     3
370
    13
100
AcDbLine
 10
-456.2247198981206
 20
480.1895883921031
 30
0.0
 11
-456.2247198981206
 21
668.1891693940033
 31
0.0
  0
LINE
  5
3EE
330
1F
100
AcDbEntity
  8
1-2
  6
Continuous
 62
     3
370
    13
100
AcDbLine
 10
-446.2254292256122
 20
480.1895883921031
 30
0.0
 11
-446.2254292256122
 21
668.1891693940033
 31
0.0
  0
LINE
  5
3EF
330
1F
100
AcDbEntity
  8
1-2
  6
Continuous
 62
     3
370
    13
100
AcDbLine
 10
-456.2247198981206
 20
680.1895059121623
 30
0.0
 11
-456.2247198981206
 21
835.1877903293919
 31
0.0
  0
LINE
  5
3F0
330
1F
100
AcDbEntity
  8
1-2
  6
Continuous
 62
     3
370
    13
100
AcDbLine
 10
-446.2254292256122
 20
680.1895059121623
 30
0.0
 11
-446.2254292256122
 21
835.1877903293919
 31
0.0
  0
LINE
  5
3F1
330
1F
100
AcDbEntity
  8
1-2
  6
Continuous
 62
     3
370
    13
100
AcDbLine
 10
-456.2247198981206
 20
280.1894234322214
 30
0.0
 11
-456.2247198981206
 21
468.1892518739443
 31
0.0
  0
LINE
  5
3F2
330
1F
100
AcDbEntity
  8
1-2
  6
Continuous
 62
     3
370
    13
100
AcDbLine
 10
-446.2254292256122
 20
280.1894234322214
 30
0.0
 11
-446.2254292256122
 21
468.1892518739443
 31
0.0
  0
LINE
  5
3F3
330
1F
100
AcDbEntity
  8
1-2
  6
Continuous
 62
     3
370
    13
100
AcDbLine
 10
-456.2247198981206
 20
80.18950591216225
 30
0.0
 11
-456.2247198981206
 21
268.1890869140625
 31
0.0
  0
LINE
  5
3F4
330
1F
100
AcDbEntity
  8
1-2
  6
Continuous
 62
     3
370
    13
100
AcDbLine
 10
-446.2254292256122
 20
80.18950591216225
 30
0.0
 11
-446.2254292256122
 21
268.1890869140625
 31
0.0
  0
LINE
  5
3F5
330
1F
100
AcDbEntity
  8
1-2
  6
Continuous
 62
     3
370
    13
100
AcDbLine
 10
-456.2247198981206
 20
-283.8106804925042
 30
0.0
 11
-456.2247198981206
 21
-131.8108718459669
 31
0.0
  0
LINE
  5
3F6
330
1F
100
AcDbEntity
  8
1-2
  6
Continuous
 62
     3
370
    13
100
AcDbLine
 10
-456.2247198981206
 20
-119.8105353278083
 30
0.0
 11
-456.2247198981206
 21
68.18916939400339
 31
0.0
  0
LINE
  5
3F7
330
1F
100
AcDbEntity
  8
1-2
  6
Continuous
 62
     3
370
    13
100
AcDbLine
 10
-446.2254292256122
 20
-283.8106804925042
 30
0.0
 11
-446.2254292256122
 21
-131.8108718459669
 31
0.0
  0
LINE
  5
3F8
330
1F
100
AcDbEntity
  8
1-2
  6
Continuous
 62
     3
370
    13
100
AcDbLine
 10
-446.2254292256122
 20
-119.8105353278083
 30
0.0
 11
-446.2254292256122
 21
68.18916939400339
 31
0.0
  0
LINE
  5
3F9
330
1F
100
AcDbEntity
  8
1-2
  6
Continuous
 62
     3
370
    13
100
AcDbLine
 10
-425.9547877956081
 20
480.1895883921031
 30
0.0
 11
-425.9547877956081
 21
668.1891693940033
 31
0.0
  0
LINE
  5
3FA
330
1F
100
AcDbEntity
  8
1-2
  6
Continuous
 62
     3
370
    13
100
AcDbLine
 10
-415.9554971230995
 20
480.1895883921031
 30
0.0
 11
-415.9554971230995
 21
668.1891693940033
 31
0.0
  0
LINE
  5
3FB
330
1F
100
AcDbEntity
  8
1-2
  6
Continuous
 62
     3
370
    13
100
AcDbLine
 10
-425.9547877956081
 20
680.1895059121623
 30
0.0
 11
-425.9547877956081
 21
835.1877903293919
 31
0.0
  0
LINE
  5
3FC
330
1F
100
AcDbEntity
  8
1-2
  6
Continuous
 62
     3
370
    13
100
AcDbLine
 10
-415.9554971230995
 20
680.1895059121623
 30
0.0
 11
-415.9554971230995
 21
835.1877903293919
 31
0.0
  0
LINE
  5
3FD
330
1F
100
AcDbEntity
  8
1-2
  6
Continuous
 62
     3
370
    13
100
AcDbLine
 10
-425.9547877956081
 20
280.1894234322214
 30
0.0
 11
-425.9547877956081
 21
468.1892518739443
 31
0.0
  0
LINE
  5
3FE
330
1F
100
AcDbEntity
  8
1-2
  6
Continuous
 62
     3
370
    13
100
AcDbLine
 10
-415.9554971230995
 20
280.1894234322214
 30
0.0
 11
-415.9554971230995
 21
468.1892518739443
 31
0.0
  0
LINE
  5
3FF
330
1F
100
AcDbEntity
  8
1-2
  6
Continuous
 62
     3
370
    13
100
AcDbLine
 10
-425.9547877956081
 20
80.18950591216225
 30
0.0
 11
-425.9547877956081
 21
268.1890869140625
 31
0.0
  0
LINE
  5
400
330
1F
100
AcDbEntity
  8
1-2
  6
Continuous
 62
     3
370
    13
100
AcDbLine
 10
-415.9554971230995
 20
80.18950591216225
 30
0.0
 11
-415.9554971230995
 21
268.1890869140625
 31
0.0
  0
LINE
  5
401
330
1F
100
AcDbEntity
  8
1-2
  6
Continuous
 62
     3
370
    13
100
AcDbLine
 10
-425.9547877956081
 20
-283.8106804925042
 30
0.0
 11
-425.9547877956081
 21
-131.8108718459669
 31
0.0
  0
LINE
  5
402
330
1F
100
AcDbEntity
  8
1-2
  6
Continuous
 62
     3
370
    13
100
AcDbLine
 10
-425.9547877956081
 20
-119.8105353278083
 30
0.0
 11
-425.9547877956081
 21
68.18916939400339
 31
0.0
  0
LINE
  5
403
330
1F
100
AcDbEntity
  8
1-2
  6
Continuous
 62
     3
370
    13
100
AcDbLine
 10
-415.9554971230995
 20
-283.8106804925042
 30
0.0
 11
-415.9554971230995
 21
-131.8108718459669
 31
0.0
  0
LINE
  5
404
330
1F
100
AcDbEntity
  8
1-2
  6
Continuous
 62
     3
370
    13
100
AcDbLine
 10
-415.9554971230995
 20
-119.8105353278083
 30
0.0
 11
-415.9554971230995
 21
68.18916939400339
 31
0.0
  0
LINE
  5
405
330
1F
100
AcDbEntity
  8
1-2
  6
Continuous
 62
     3
370
    13
100
AcDbLine
 10
-395.6847319731841
 20
480.1895883921031
 30
0.0
 11
-395.6847319731841
 21
668.1891693940033
 31
0.0
  0
LINE
  5
406
330
1F
100
AcDbEntity
  8
1-2
  6
Continuous
 62
     3
370
    13
100
AcDbLine
 10
-385.6854413006755
 20
480.1895883921031
 30
0.0
 11
-385.6854413006755
 21
668.1891693940033
 31
0.0
  0
LINE
  5
407
330
1F
100
AcDbEntity
  8
1-2
  6
Continuous
 62
     3
370
    13
100
AcDbLine
 10
-395.6847319731841
 20
680.1895059121623
 30
0.0
 11
-395.6847319731841
 21
835.1877903293919
 31
0.0
  0
LINE
  5
408
330
1F
100
AcDbEntity
  8
1-2
  6
Continuous
 62
     3
370
    13
100
AcDbLine
 10
-385.6854413006755
 20
680.1895059121623
 30
0.0
 11
-385.6854413006755
 21
835.1877903293919
 31
0.0
  0
LINE
  5
409
330
1F
100
AcDbEntity
  8
1-2
  6
Continuous
 62
     3
370
    13
100
AcDbLine
 10
-395.6847319731841
 20
280.1894234322214
 30
0.0
 11
-395.6847319731841
 21
468.1892518739443
 31
0.0
  0
LINE
  5
40A
330
1F
100
AcDbEntity
  8
1-2
  6
Continuous
 62
     3
370
    13
100
AcDbLine
 10
-385.6854413006755
 20
280.1894234322214
 30
0.0
 11
-385.6854413006755
 21
468.1892518739443
 31
0.0
  0
LINE
  5
40B
330
1F
100
AcDbEntity
  8
1-2
  6
Continuous
 62
     3
370
    13
100
AcDbLine
 10
-395.6847319731841
 20
80.18950591216225
 30
0.0
 11
-395.6847319731841
 21
268.1890869140625
 31
0.0
  0
LINE
  5
40C
330
1F
100
AcDbEntity
  8
1-2
  6
Continuous
 62
     3
370
    13
100
AcDbLine
 10
-385.6854413006755
 20
80.18950591216225
 30
0.0
 11
-385.6854413006755
 21
268.1890869140625
 31
0.0
  0
LINE
  5
40D
330
1F
100
AcDbEntity
  8
1-2
  6
Continuous
 62
     3
370
    13
100
AcDbLine
 10
-395.6847319731841
 20
-283.8106804925042
 30
0.0
 11
-395.6847319731841
 21
-131.8108718459669
 31
0.0
  0
LINE
  5
40E
330
1F
100
AcDbEntity
  8
1-2
  6
Continuous
 62
     3
370
    13
100
AcDbLine
 10
-395.6847319731841
 20
-119.8105353278083
 30
0.0
 11
-395.6847319731841
 21
68.18916939400339
 31
0.0
  0
LINE
  5
40F
330
1F
100
AcDbEntity
  8
1-2
  6
Continuous
 62
     3
370
    13
100
AcDbLine
 10
-385.6854413006755
 20
-283.8106804925042
 30
0.0
 11
-385.6854413006755
 21
-131.8108718459669
 31
0.0
  0
LINE
  5
410
330
1F
100
AcDbEntity
  8
1-2
  6
Continuous
 62
     3
370
    13
100
AcDbLine
 10
-385.6854413006755
 20
-119.8105353278083
 30
0.0
 11
-385.6854413006755
 21
68.18916939400339
 31
0.0
  0
LINE
  5
411
330
1F
100
AcDbEntity
  8
1-2
  6
Continuous
 62
     3
370
    13
100
AcDbLine
 10
-365.4146761507602
 20
480.1895883921031
 30
0.0
 11
-365.4146761507602
 21
668.1891693940033
 31
0.0
  0
LINE
  5
412
330
1F
100
AcDbEntity
  8
1-2
  6
Continuous
 62
     3
370
    13
100
AcDbLine
 10
-355.4153854782516
 20
480.1895883921031
 30
0.0
 11
-355.4153854782516
 21
668.1891693940033
 31
0.0
  0
LINE
  5
413
330
1F
100
AcDbEntity
  8
1-2
  6
Continuous
 62
     3
370
    13
100
AcDbLine
 10
-365.4146761507602
 20
680.1895059121623
 30
0.0
 11
-365.4146761507602
 21
835.1877903293919
 31
0.0
  0
LINE
  5
414
330
1F
100
AcDbEntity
  8
1-2
  6
Continuous
 62
     3
370
    13
100
AcDbLine
 10
-355.4153854782516
 20
680.1895059121623
 30
0.0
 11
-355.4153854782516
 21
835.1877903293919
 31
0.0
  0
LINE
  5
415
330
1F
100
AcDbEntity
  8
1-2
  6
Continuous
 62
     3
370
    13
100
AcDbLine
 10
-365.4146761507602
 20
280.1894234322214
 30
0.0
 11
-365.4146761507602
 21
468.1892518739443
 31
0.0
  0
LINE
  5
416
330
1F
100
AcDbEntity
  8
1-2
  6
Continuous
 62
     3
370
    13
100
AcDbLine
 10
-355.4153854782516
 20
280.1894234322214
 30
0.0
 11
-355.4153854782516
 21
468.1892518739443
 31
0.0
  0
LINE
  5
417
330
1F
100
AcDbEntity
  8
1-2
  6
Continuous
 62
     3
370
    13
100
AcDbLine
 10
-365.4146761507602
 20
80.18950591216225
 30
0.0
 11
-365.4146761507602
 21
268.1890869140625
 31
0.0
  0
LINE
  5
418
330
1F
100
AcDbEntity
  8
1-2
  6
Continuous
 62
     3
370
    13
100
AcDbLine
 10
-355.4153854782516
 20
80.18950591216225
 30
0.0
 11
-355.4153854782516
 21
268.1890869140625
 31
0.0
  0
LINE
  5
419
330
1F
100
AcDbEntity
  8
1-2
  6
Continuous
 62
     3
370
    13
100
AcDbLine
 10
-365.4146761507602
 20
-283.8106804925042
 30
0.0
 11
-365.4146761507602
 21
-131.8108718459669
 31
0.0
  0
LINE
  5
41A
330
1F
100
AcDbEntity
  8
1-2
  6
Continuous
 62
     3
370
    13
100
AcDbLine
 10
-365.4146761507602
 20
-119.8105353278083
 30
0.0
 11
-365.4146761507602
 21
68.18916939400339
 31
0.0
  0
LINE
  5
41B
330
1F
100
AcDbEntity
  8
1-2
  6
Continuous
 62
     3
370
    13
100
AcDbLine
 10
-355.4153854782516
 20
-283.8106804925042
 30
0.0
 11
-355.4153854782516
 21
-131.8108718459669
 31
0.0
  0
LINE
  5
41C
330
1F
100
AcDbEntity
  8
1-2
  6
Continuous
 62
     3
370
    13
100
AcDbLine
 10
-355.4153854782516
 20
-119.8105353278083
 30
0.0
 11
-355.4153854782516
 21
68.18916939400339
 31
0.0
  0
LINE
  5
41D
330
1F
100
AcDbEntity
  8
1-2
  6
Continuous
 62
     3
370
    13
100
AcDbLine
 10
-335.1447440482474
 20
480.1895883921031
 30
0.0
 11
-335.1447440482474
 21
668.1891693940033
 31
0.0
  0
LINE
  5
41E
330
1F
100
AcDbEntity
  8
1-2
  6
Continuous
 62
     3
370
    13
100
AcDbLine
 10
-325.1454533757388
 20
480.1895883921031
 30
0.0
 11
-325.1454533757388
 21
668.1891693940033
 31
0.0
  0
LINE
  5
41F
330
1F
100
AcDbEntity
  8
1-2
  6
Continuous
 62
     3
370
    13
100
AcDbLine
 10
-335.1447440482474
 20
680.1895059121623
 30
0.0
 11
-335.1447440482474
 21
835.1877903293919
 31
0.0
  0
LINE
  5
420
330
1F
100
AcDbEntity
  8
1-2
  6
Continuous
 62
     3
370
    13
100
AcDbLine
 10
-325.1454533757388
 20
680.1895059121623
 30
0.0
 11
-325.1454533757388
 21
835.1877903293919
 31
0.0
  0
LINE
  5
421
330
1F
100
AcDbEntity
  8
1-2
  6
Continuous
 62
     3
370
    13
100
AcDbLine
 10
-335.1447440482474
 20
280.1894234322214
 30
0.0
 11
-335.1447440482474
 21
468.1892518739443
 31
0.0
  0
LINE
  5
422
330
1F
100
AcDbEntity
  8
1-2
  6
Continuous
 62
     3
370
    13
100
AcDbLine
 10
-325.1454533757388
 20
280.1894234322214
 30
0.0
 11
-325.1454533757388
 21
468.1892518739443
 31
0.0
  0
LINE
  5
423
330
1F
100
AcDbEntity
  8
1-2
  6
Continuous
 62
     3
370
    13
100
AcDbLine
 10
-335.1447440482474
 20
80.18950591216225
 30
0.0
 11
-335.1447440482474
 21
268.1890869140625
 31
0.0
  0
LINE
  5
424
330
1F
100
AcDbEntity
  8
1-2
  6
Continuous
 62
     3
370
    13
100
AcDbLine
 10
-325.1454533757388
 20
80.18950591216225
 30
0.0
 11
-325.1454533757388
 21
268.1890869140625
 31
0.0
  0
LINE
  5
425
330
1F
100
AcDbEntity
  8
1-2
  6
Continuous
 62
     3
370
    13
100
AcDbLine
 10
-335.1447440482474
 20
-283.8106804925042
 30
0.0
 11
-335.1447440482474
 21
-131.8108718459669
 31
0.0
  0
LINE
  5
426
330
1F
100
AcDbEntity
  8
1-2
  6
Continuous
 62
     3
370
    13
100
AcDbLine
 10
-335.1447440482474
 20
-119.8105353278083
 30
0.0
 11
-335.1447440482474
 21
68.18916939400339
 31
0.0
  0
LINE
  5
427
330
1F
100
AcDbEntity
  8
1-2
  6
Continuous
 62
     3
370
    13
100
AcDbLine
 10
-325.1454533757388
 20
-283.8106804925042
 30
0.0
 11
-325.1454533757388
 21
-131.8108718459669
 31
0.0
  0
LINE
  5
428
330
1F
100
AcDbEntity
  8
1-2
  6
Continuous
 62
     3
370
    13
100
AcDbLine
 10
-325.1454533757388
 20
-119.8105353278083
 30
0.0
 11
-325.1454533757388
 21
68.18916939400339
 31
0.0
  0
LINE
  5
429
330
1F
100
AcDbEntity
  8
1-2
  6
Continuous
 62
     3
370
    13
100
AcDbLine
 10
-304.8748119457346
 20
480.1895883921031
 30
0.0
 11
-304.8748119457346
 21
668.1891693940033
 31
0.0
  0
LINE
  5
42A
330
1F
100
AcDbEntity
  8
1-2
  6
Continuous
 62
     3
370
    13
100
AcDbLine
 10
-294.8755212732263
 20
480.1895883921031
 30
0.0
 11
-294.8755212732263
 21
668.1891693940033
 31
0.0
  0
LINE
  5
42B
330
1F
100
AcDbEntity
  8
1-2
  6
Continuous
 62
     3
370
    13
100
AcDbLine
 10
-304.8748119457346
 20
680.1895059121623
 30
0.0
 11
-304.8748119457346
 21
835.1877903293919
 31
0.0
  0
LINE
  5
42C
330
1F
100
AcDbEntity
  8
1-2
  6
Continuous
 62
     3
370
    13
100
AcDbLine
 10
-294.8755212732263
 20
680.1895059121623
 30
0.0
 11
-294.8755212732263
 21
835.1877903293919
 31
0.0
  0
LINE
  5
42D
330
1F
100
AcDbEntity
  8
1-2
  6
Continuous
 62
     3
370
    13
100
AcDbLine
 10
-304.8748119457346
 20
280.1894234322214
 30
0.0
 11
-304.8748119457346
 21
468.1892518739443
 31
0.0
  0
LINE
  5
42E
330
1F
100
AcDbEntity
  8
1-2
  6
Continuous
 62
     3
370
    13
100
AcDbLine
 10
-294.8755212732263
 20
280.1894234322214
 30
0.0
 11
-294.8755212732263
 21
468.1892518739443
 31
0.0
  0
LINE
  5
42F
330
1F
100
AcDbEntity
  8
1-2
  6
Continuous
 62
     3
370
    13
100
AcDbLine
 10
-304.8748119457346
 20
80.18950591216225
 30
0.0
 11
-304.8748119457346
 21
268.1890869140625
 31
0.0
  0
LINE
  5
430
330
1F
100
AcDbEntity
  8
1-2
  6
Continuous
 62
     3
370
    13
100
AcDbLine
 10
-294.8755212732263
 20
80.18950591216225
 30
0.0
 11
-294.8755212732263
 21
268.1890869140625
 31
0.0
  0
LINE
  5
431
330
1F
100
AcDbEntity
  8
1-2
  6
Continuous
 62
     3
370
    13
100
AcDbLine
 10
-304.8748119457346
 20
-283.8106804925042
 30
0.0
 11
-304.8748119457346
 21
-131.8108718459669
 31
0.0
  0
LINE
  5
432
330
1F
100
AcDbEntity
  8
1-2
  6
Continuous
 62
     3
370
    13
100
AcDbLine
 10
-304.8748119457346
 20
-119.8105353278083
 30
0.0
 11
-304.8748119457346
 21
68.18916939400339
 31
0.0
  0
LINE
  5
433
330
1F
100
AcDbEntity
  8
1-2
  6
Continuous
 62
     3
370
    13
100
AcDbLine
 10
-294.8755212732263
 20
-283.8106804925042
 30
0.0
 11
-294.8755212732263
 21
-131.8108718459669
 31
0.0
  0
LINE
  5
434
330
1F
100
AcDbEntity
  8
1-2
  6
Continuous
 62
     3
370
    13
100
AcDbLine
 10
-294.8755212732263
 20
-119.8105353278083
 30
0.0
 11
-294.8755212732263
 21
68.18916939400339
 31
0.0
  0
LINE
  5
435
330
1F
100
AcDbEntity
  8
1-2
  6
Continuous
 62
     3
370
    13
100
AcDbLine
 10
284.6755569045609
 20
-131.0069398622255
 30
0.0
 11
284.6755569045609
 21
-286.8108883419552
 31
0.0
  0
LINE
  5
436
330
1F
100
AcDbEntity
  8
1-2
  6
Continuous
 62
     3
370
    13
100
AcDbLine
 10
286.6758604307435
 20
-129.1268920898438
 30
0.0
 11
286.6758604307435
 21
-286.8108883419552
 31
0.0
  0
LINE
  5
437
330
1F
100
AcDbEntity
  8
1-2
  6
Continuous
 62
     3
370
    13
100
AcDbLine
 10
284.6755569045609
 20
68.99297765783359
 30
0.0
 11
284.6755569045609
 21
-120.6144673115497
 31
0.0
  0
LINE
  5
438
330
1F
100
AcDbEntity
  8
1-2
  6
Continuous
 62
     3
370
    13
100
AcDbLine
 10
286.6758604307435
 20
70.87302543021536
 30
0.0
 11
286.6758604307435
 21
-122.4945150839315
 31
0.0
  0
LINE
  5
439
330
1F
100
AcDbEntity
  8
1-2
  6
Continuous
 62
     3
370
    13
100
AcDbLine
 10
286.6758604307435
 20
270.8730666701859
 30
0.0
 11
286.6758604307435
 21
77.50540243612761
 31
0.0
  0
LINE
  5
43A
330
1F
100
AcDbEntity
  8
1-2
  6
Continuous
 62
     3
370
    13
100
AcDbLine
 10
284.6755569045609
 20
268.9930188978042
 30
0.0
 11
284.6755569045609
 21
79.38545020850938
 31
0.0
  0
LINE
  5
43B
330
1F
100
AcDbEntity
  8
1-2
  6
Continuous
 62
     3
370
    13
100
AcDbLine
 10
286.6758604307435
 20
470.8731079101562
 30
0.0
 11
286.6758604307435
 21
277.5054436760982
 31
0.0
  0
LINE
  5
43C
330
1F
100
AcDbEntity
  8
1-2
  6
Continuous
 62
     3
370
    13
100
AcDbLine
 10
284.6755569045609
 20
468.9930601377745
 30
0.0
 11
284.6755569045609
 21
279.38549144848
 31
0.0
  0
LINE
  5
43D
330
1F
100
AcDbEntity
  8
1-2
  6
Continuous
 62
     3
370
    13
100
AcDbLine
 10
284.6755569045609
 20
668.993101377745
 30
0.0
 11
284.6755569045609
 21
479.3855326884503
 31
0.0
  0
LINE
  5
43E
330
1F
100
AcDbEntity
  8
1-2
  6
Continuous
 62
     3
370
    13
100
AcDbLine
 10
286.6758604307435
 20
670.8731491501269
 30
0.0
 11
286.6758604307435
 21
477.5054849160685
 31
0.0
  0
LINE
  5
43F
330
1F
100
AcDbEntity
  8
1-2
  6
Continuous
 62
     3
370
    13
100
AcDbLine
 10
284.6755569045609
 20
835.1887800886825
 30
0.0
 11
284.6755569045609
 21
679.3855739284209
 31
0.0
  0
LINE
  5
440
330
1F
100
AcDbEntity
  8
1-2
  6
Continuous
 62
     3
370
    13
100
AcDbLine
 10
286.6758604307435
 20
835.1887800886825
 30
0.0
 11
286.6758604307435
 21
677.5055261560391
 31
0.0
  0
LINE
  5
441
330
1F
100
AcDbEntity
  8
1-4
  6
Continuous
 62
     2
370
    13
100
AcDbLine
 10
384.5873033678211
 20
-842.9567574165962
 30
0.0
 11
384.5873033678211
 21
-792.9558501372467
 31
0.0
  0
LINE
  5
442
330
1F
100
AcDbEntity
  8
1-4
  6
Continuous
 62
     2
370
    13
100
AcDbLine
 10
384.5873033678211
 20
-792.9558501372467
 30
0.0
 11
609.5873033678208
 21
-792.9558501372467
 31
0.0
  0
LINE
  5
443
330
1F
100
AcDbEntity
  8
1-4
  6
Continuous
 62
     2
370
    13
100
AcDbLine
 10
609.5873033678208
 20
-792.9558501372467
 30
0.0
 11
609.5873033678208
 21
-842.9567574165962
 31
0.0
  0
LINE
  5
444
330
1F
100
AcDbEntity
  8
1-4
  6
Continuous
 62
     2
370
    13
100
AcDbLine
 10
609.5873033678208
 20
-842.9567574165962
 30
0.0
 11
384.5873033678211
 21
-842.9567574165962
 31
0.0
  0
LINE
  5
445
330
1F
100
AcDbEntity
  8
1-3
  6
Continuous
 62
     4
370
    13
100
AcDbLine
 10
-495.5341236011401
 20
561.6696661871833
 30
0.0
 11
-495.5341236011401
 21
586.7090915989231
 31
0.0
  0
LINE
  5
446
330
1F
100
AcDbEntity
  8
1-3
  6
Continuous
 62
     4
370
    13
100
AcDbLine
 10
-504.9890466638513
 20
574.1893788930533
 30
0.0
 11
-478.4533526446367
 21
574.1893788930533
 31
0.0
  0
ARC
  5
447
330
1F
100
AcDbEntity
  8
1-1
  6
Continuous
 62
     2
370
    13
100
AcDbCircle
 10
338.4759026604732
 20
762.9888091216217
 30
0.0
 40
12.80000113152169
100
AcDbArc
 50
180.0
 51
270.0
  0
ARC
  5
448
330
1F
100
AcDbEntity
  8
1-1
  6
Continuous
 62
     2
370
    13
100
AcDbCircle
 10
362.875696130701
 20
762.9888091216217
 30
0.0
 40
12.80000113152169
100
AcDbArc
 50
270.0
 51
0.0
  0
ARC
  5
449
330
1F
100
AcDbEntity
  8
1-1
  6
Continuous
 62
     2
370
    13
100
AcDbCircle
 10
362.875696130701
 20
762.9893040012669
 30
0.0
 40
6.400000565760845
100
AcDbArc
 50
270.0
 51
0.0
  0
ARC
  5
44A
330
1F
100
AcDbEntity
  8
1-1
  6
Continuous
 62
     2
370
    13
100
AcDbCircle
 10
338.4759026604732
 20
817.3889490076016
 30
0.0
 40
12.80000113152169
100
AcDbArc
 50
90.0
 51
180.0
  0
ARC
  5
44B
330
1F
100
AcDbEntity
  8
1-1
  6
Continuous
 62
     2
370
    13
100
AcDbCircle
 10
338.4756552206505
 20
817.3889490076016
 30
0.0
 40
6.400000565760845
100
AcDbArc
 50
90.0
 51
180.0
  0
ARC
  5
44C
330
1F
100
AcDbEntity
  8
1-1
  6
Continuous
 62
     2
370
    13
100
AcDbCircle
 10
362.875696130701
 20
817.3889490076016
 30
0.0
 40
6.400000565760845
100
AcDbArc
 50
0.0
 51
90.0
  0
ARC
  5
44D
330
1F
100
AcDbEntity
  8
1-1
  6
Continuous
 62
     2
370
    13
100
AcDbCircle
 10
362.875696130701
 20
817.3889490076016
 30
0.0
 40
12.80000113152169
100
AcDbArc
 50
0.0
 51
90.0
  0
ARC
  5
44E
330
1F
100
AcDbEntity
  8
1-1
  6
Continuous
 62
     2
370
    13
100
AcDbCircle
 10
338.4759026604732
 20
762.9893040012669
 30
0.0
 40
6.400000565760845
100
AcDbArc
 50
180.0
 51
270.0
  0
ARC
  5
44F
330
1F
100
AcDbEntity
  8
1-1
  6
Continuous
 62
     2
370
    13
100
AcDbCircle
 10
338.4759026604732
 20
-214.6109173748944
 30
0.0
 40
12.80000113152169
100
AcDbArc
 50
90.0
 51
180.0
  0
ARC
  5
450
330
1F
100
AcDbEntity
  8
1-1
  6
Continuous
 62
     2
370
    13
100
AcDbCircle
 10
362.875696130701
 20
-214.6109173748944
 30
0.0
 40
12.80000113152169
100
AcDbArc
 50
0.0
 51
90.0
  0
ARC
  5
451
330
1F
100
AcDbEntity
  8
1-1
  6
Continuous
 62
     2
370
    13
100
AcDbCircle
 10
362.875696130701
 20
-214.6112885346282
 30
0.0
 40
6.400000565760845
100
AcDbArc
 50
0.0
 51
90.0
  0
ARC
  5
452
330
1F
100
AcDbEntity
  8
1-1
  6
Continuous
 62
     2
370
    13
100
AcDbCircle
 10
338.4759026604732
 20
-269.0110572608741
 30
0.0
 40
12.80000113152169
100
AcDbArc
 50
180.0
 51
270.0
  0
ARC
  5
453
330
1F
100
AcDbEntity
  8
1-1
  6
Continuous
 62
     2
370
    13
100
AcDbCircle
 10
338.4756552206505
 20
-269.0110572608741
 30
0.0
 40
6.400000565760845
100
AcDbArc
 50
180.0
 51
270.0
  0
ARC
  5
454
330
1F
100
AcDbEntity
  8
1-1
  6
Continuous
 62
     2
370
    13
100
AcDbCircle
 10
362.875696130701
 20
-269.0110572608741
 30
0.0
 40
6.400000565760845
100
AcDbArc
 50
270.0
 51
0.0
  0
ARC
  5
455
330
1F
100
AcDbEntity
  8
1-1
  6
Continuous
 62
     2
370
    13
100
AcDbCircle
 10
362.875696130701
 20
-269.0110572608741
 30
0.0
 40
12.80000113152169
100
AcDbArc
 50
270.0
 51
0.0
  0
ARC
  5
456
330
1F
100
AcDbEntity
  8
1-1
  6
Continuous
 62
     2
370
    13
100
AcDbCircle
 10
338.4759026604732
 20
-214.6112885346282
 30
0.0
 40
6.400000565760845
100
AcDbArc
 50
90.0
 51
180.0
  0
ARC
  5
457
330
1F
100
AcDbEntity
  8
1-3
  6
Continuous
 62
     4
370
    13
100
AcDbCircle
 10
1328.62169420397
 20
1118.696668470228
 30
0.0
 40
5.999999594044041
100
AcDbArc
 50
0.0
 51
90.0
  0
ARC
  5
458
330
1F
100
AcDbEntity
  8
1-3
  6
JWW_CENTER1
 62
     4
370
    13
100
AcDbCircle
 10
1328.62169420397
 20
1118.697163349873
 30
0.0
 40
12.99999823441377
100
AcDbArc
 50
0.0
 51
90.0
  0
ARC
  5
459
330
1F
100
AcDbEntity
  8
1-3
  6
Continuous
 62
     4
370
    13
100
AcDbCircle
 10
1328.62169420397
 20
1118.697163349873
 30
0.0
 40
19.9999983246262
100
AcDbArc
 50
0.0
 51
90.0
  0
ARC
  5
45A
330
1F
100
AcDbEntity
  8
1-3
  6
Continuous
 62
     4
370
    13
100
AcDbCircle
 10
1354.621681007179
 20
893.1137002480998
 30
0.0
 40
5.999999594044041
100
AcDbArc
 50
180.0
 51
247.5196228027344
  0
ARC
  5
45B
330
1F
100
AcDbEntity
  8
1-3
  6
Continuous
 62
     4
370
    13
100
AcDbCircle
 10
1354.621681007179
 20
893.1137002480998
 30
0.0
 40
19.9999983246262
100
AcDbArc
 50
180.0
 51
247.5204620361328
  0
ARC
  5
45C
330
1F
100
AcDbEntity
  8
1-3
  6
Continuous
 62
     4
370
    13
100
AcDbCircle
 10
1341.621687605575
 20
861.696760847762
 30
0.0
 40
13.99999921386306
100
AcDbArc
 50
106.0161743164062
 51
67.5208129882812
  0
ARC
  5
45D
330
1F
100
AcDbEntity
  8
1-3
  6
Continuous
 62
     4
370
    13
100
AcDbCircle
 10
1341.621687605575
 20
861.696760847762
 30
0.0
 40
27.99999842772613
100
AcDbArc
 50
114.9949645996094
 51
67.52053833007812
  0
ARC
  5
45E
330
1F
100
AcDbEntity
  8
1-3
  6
Continuous
 62
     4
370
    13
100
AcDbCircle
 10
311.6766852301521
 20
592.1890176309123
 30
0.0
 40
1.999999904954756
100
AcDbArc
 50
0.0
 51
180.0
  0
ARC
  5
45F
330
1F
100
AcDbEntity
  8
1-3
  6
Continuous
 62
     4
370
    13
100
AcDbCircle
 10
315.6763025232266
 20
592.1890176309123
 30
0.0
 40
1.999999904954756
100
AcDbArc
 50
0.0
 51
180.0
  0
ARC
  5
460
330
1F
100
AcDbEntity
  8
1-3
  6
Continuous
 62
     4
370
    13
100
AcDbCircle
 10
319.6759198163008
 20
592.1890176309123
 30
0.0
 40
1.999999904954756
100
AcDbArc
 50
0.0
 51
180.0
  0
ARC
  5
461
330
1F
100
AcDbEntity
  8
1-3
  6
Continuous
 62
     4
370
    13
100
AcDbCircle
 10
323.675537109375
 20
592.1890176309123
 30
0.0
 40
1.999999904954756
100
AcDbArc
 50
0.0
 51
180.0
  0
ARC
  5
462
330
1F
100
AcDbEntity
  8
1-3
  6
Continuous
 62
     2
370
    13
100
AcDbCircle
 10
413.6763289168076
 20
574.1892551731419
 30
0.0
 40
11.99999918808808
100
AcDbArc
 50
226.6585083007813
 51
133.3414916992187
  0
ARC
  5
463
330
1F
100
AcDbEntity
  8
1-3
  6
Continuous
 62
     2
370
    13
100
AcDbCircle
 10
398.5768086201438
 20
590.189208984375
 30
0.0
 40
9.9999991623131
100
AcDbArc
 50
270.0
 51
313.3416595458985
  0
ARC
  5
464
330
1F
100
AcDbEntity
  8
1-3
  6
Continuous
 62
     2
370
    13
100
AcDbCircle
 10
398.5768086201438
 20
558.1890539220863
 30
0.0
 40
9.9999991623131
100
AcDbArc
 50
46.65834045410156
 51
90.0
  0
CIRCLE
  5
465
330
1F
100
AcDbEntity
  8
1-3
  6
Continuous
 62
     2
370
    13
100
AcDbCircle
 10
413.6763289168076
 20
574.1892551731419
 30
0.0
 40
5.999999594044041
  0
CIRCLE
  5
466
330
1F
100
AcDbEntity
  8
1-3
  6
Continuous
 62
     2
370
    13
100
AcDbCircle
 10
413.6763289168076
 20
574.1892551731419
 30
0.0
 40
4.99999958115655
  0
ARC
  5
467
330
1F
100
AcDbEntity
  8
1-3
  6
Continuous
 62
     4
370
    13
100
AcDbCircle
 10
415.6766324429901
 20
574.1892551731419
 30
0.0
 40
17.99990744204135
100
AcDbArc
 50
90.0
 51
160.6648712158203
  0
ARC
  5
468
330
1F
100
AcDbEntity
  8
1-3
  6
Continuous
 62
     4
370
    13
100
AcDbCircle
 10
415.6766324429901
 20
574.1892551731419
 30
0.0
 40
17.99990744204135
100
AcDbArc
 50
199.3351287841797
 51
270.0
  0
ARC
  5
469
330
1F
100
AcDbEntity
  8
1-3
  6
Continuous
 62
     2
370
    13
100
AcDbCircle
 10
359.6765466638516
 20
574.1892551731419
 30
0.0
 40
6.000044539168075
100
AcDbArc
 50
90.0
 51
270.0
  0
ARC
  5
46A
330
1F
100
AcDbEntity
  8
1-3
  6
Continuous
 62
     4
370
    13
100
AcDbCircle
 10
357.6767380173143
 20
574.1892551731419
 30
0.0
 40
17.99990744204135
100
AcDbArc
 50
270.0
 51
340.5284881591797
  0
ARC
  5
46B
330
1F
100
AcDbEntity
  8
1-3
  6
Continuous
 62
     4
370
    13
100
AcDbCircle
 10
357.6767380173143
 20
574.1892551731419
 30
0.0
 40
17.99990744204135
100
AcDbArc
 50
19.47151184082031
 51
90.0
  0
ARC
  5
46C
330
1F
100
AcDbEntity
  8
1-3
  6
Continuous
 62
     4
370
    13
100
AcDbCircle
 10
357.6767380173143
 20
574.1892551731419
 30
0.0
 40
7.999975939054748
100
AcDbArc
 50
270.0
 51
311.4087371826172
  0
ARC
  5
46D
330
1F
100
AcDbEntity
  8
1-3
  6
Continuous
 62
     4
370
    13
100
AcDbCircle
 10
357.6767380173143
 20
574.1892551731419
 30
0.0
 40
7.999975939054748
100
AcDbArc
 50
48.59126281738281
 51
90.0
  0
ARC
  5
46E
330
1F
100
AcDbEntity
  8
1-3
  6
Continuous
 62
     4
370
    13
100
AcDbCircle
 10
466.6764542863177
 20
574.1892551731419
 30
0.0
 40
4.99999958115655
100
AcDbArc
 50
90.0
 51
270.0
  0
ARC
  5
46F
330
1F
100
AcDbEntity
  8
1-3
  6
Continuous
 62
     4
370
    13
100
AcDbCircle
 10
540.676549963049
 20
574.1892551731419
 30
0.0
 40
4.99999958115655
100
AcDbArc
 50
270.0
 51
90.0
  0
ARC
  5
470
330
1F
100
AcDbEntity
  8
1-3
  6
Continuous
 62
     4
370
    13
100
AcDbCircle
 10
463.6764938766891
 20
574.1892551731419
 30
0.0
 40
17.99990744204135
100
AcDbArc
 50
270.0
 51
343.8722991943359
  0
ARC
  5
471
330
1F
100
AcDbEntity
  8
1-3
  6
Continuous
 62
     4
370
    13
100
AcDbCircle
 10
463.6764938766891
 20
574.1892551731419
 30
0.0
 40
17.99990744204135
100
AcDbArc
 50
16.1273193359375
 51
90.0
  0
ARC
  5
472
330
1F
100
AcDbEntity
  8
1-3
  6
Continuous
 62
     4
370
    13
100
AcDbCircle
 10
463.6764938766891
 20
574.1892551731419
 30
0.0
 40
7.999975939054748
100
AcDbArc
 50
270.0
 51
321.3172149658203
  0
ARC
  5
473
330
1F
100
AcDbEntity
  8
1-3
  6
Continuous
 62
     4
370
    13
100
AcDbCircle
 10
463.6764938766891
 20
574.1892551731419
 30
0.0
 40
7.999975939054748
100
AcDbArc
 50
38.68098449707031
 51
90.0
  0
ARC
  5
474
330
1F
100
AcDbEntity
  8
1-3
  6
Continuous
 62
     4
370
    13
100
AcDbCircle
 10
543.6765103726776
 20
574.1892551731419
 30
0.0
 40
17.99990744204135
100
AcDbArc
 50
90.0
 51
163.8726806640625
  0
ARC
  5
475
330
1F
100
AcDbEntity
  8
1-3
  6
Continuous
 62
     4
370
    13
100
AcDbCircle
 10
543.6765103726776
 20
574.1892551731419
 30
0.0
 40
17.99990744204135
100
AcDbArc
 50
196.1277008056641
 51
270.0
  0
ARC
  5
476
330
1F
100
AcDbEntity
  8
1-3
  6
Continuous
 62
     4
370
    13
100
AcDbCircle
 10
543.6765103726776
 20
574.1892551731419
 30
0.0
 40
7.999976422335651
100
AcDbArc
 50
90.0
 51
141.3190155029297
  0
ARC
  5
477
330
1F
100
AcDbEntity
  8
1-3
  6
Continuous
 62
     4
370
    13
100
AcDbCircle
 10
543.6765103726776
 20
574.1892551731419
 30
0.0
 40
7.999976422335651
100
AcDbArc
 50
218.6827850341797
 51
270.0
  0
ARC
  5
478
330
1F
100
AcDbEntity
  8
1-3
  6
Continuous
 62
     4
370
    13
100
AcDbCircle
 10
311.6766852301521
 20
582.1894795185813
 30
0.0
 40
1.999999904954756
100
AcDbArc
 50
180.0
 51
0.0
  0
ARC
  5
479
330
1F
100
AcDbEntity
  8
1-3
  6
Continuous
 62
     4
370
    13
100
AcDbCircle
 10
315.6763025232266
 20
582.1894795185813
 30
0.0
 40
1.999999904954756
100
AcDbArc
 50
180.0
 51
0.0
  0
ARC
  5
47A
330
1F
100
AcDbEntity
  8
1-3
  6
Continuous
 62
     4
370
    13
100
AcDbCircle
 10
319.6759198163008
 20
582.1894795185813
 30
0.0
 40
1.999999904954756
100
AcDbArc
 50
180.0
 51
0.0
  0
ARC
  5
47B
330
1F
100
AcDbEntity
  8
1-3
  6
Continuous
 62
     4
370
    13
100
AcDbCircle
 10
323.675537109375
 20
582.1894795185813
 30
0.0
 40
1.999999904954756
100
AcDbArc
 50
180.0
 51
0.0
  0
ARC
  5
47C
330
1F
100
AcDbEntity
  8
1-3
  6
Continuous
 62
     4
370
    13
100
AcDbCircle
 10
311.6766852301521
 20
556.1892452755492
 30
0.0
 40
1.999999904954756
100
AcDbArc
 50
180.0
 51
0.0
  0
ARC
  5
47D
330
1F
100
AcDbEntity
  8
1-3
  6
Continuous
 62
     4
370
    13
100
AcDbCircle
 10
315.6763025232266
 20
556.1892452755492
 30
0.0
 40
1.999999904954756
100
AcDbArc
 50
180.0
 51
0.0
  0
ARC
  5
47E
330
1F
100
AcDbEntity
  8
1-3
  6
Continuous
 62
     4
370
    13
100
AcDbCircle
 10
319.6759198163008
 20
556.1892452755492
 30
0.0
 40
1.999999904954756
100
AcDbArc
 50
180.0
 51
0.0
  0
ARC
  5
47F
330
1F
100
AcDbEntity
  8
1-3
  6
Continuous
 62
     4
370
    13
100
AcDbCircle
 10
323.675537109375
 20
556.1892452755492
 30
0.0
 40
1.999999904954756
100
AcDbArc
 50
180.0
 51
0.0
  0
ARC
  5
480
330
1F
100
AcDbEntity
  8
1-3
  6
Continuous
 62
     4
370
    13
100
AcDbCircle
 10
311.6766852301521
 20
566.1885359480575
 30
0.0
 40
1.999999904954756
100
AcDbArc
 50
0.0
 51
180.0
  0
ARC
  5
481
330
1F
100
AcDbEntity
  8
1-3
  6
Continuous
 62
     4
370
    13
100
AcDbCircle
 10
315.6763025232266
 20
566.1885359480575
 30
0.0
 40
1.999999904954756
100
AcDbArc
 50
0.0
 51
180.0
  0
ARC
  5
482
330
1F
100
AcDbEntity
  8
1-3
  6
Continuous
 62
     4
370
    13
100
AcDbCircle
 10
319.6759198163008
 20
566.1885359480575
 30
0.0
 40
1.999999904954756
100
AcDbArc
 50
0.0
 51
180.0
  0
ARC
  5
483
330
1F
100
AcDbEntity
  8
1-3
  6
Continuous
 62
     4
370
    13
100
AcDbCircle
 10
323.675537109375
 20
566.1885359480575
 30
0.0
 40
1.999999904954756
100
AcDbArc
 50
0.0
 51
180.0
  0
ARC
  5
484
330
1F
100
AcDbEntity
  8
1-3
  6
JWW_CENTER1
 62
     4
370
    13
100
AcDbCircle
 10
1321.621621621622
 20
594.1893211570948
 30
0.0
 40
19.9999983246262
100
AcDbArc
 50
270.0
 51
0.0
  0
CIRCLE
  5
485
330
1F
100
AcDbEntity
  8
1-2
  6
Continuous
 62
     3
370
    13
100
AcDbCircle
 10
281.6755964949326
 20
274.1892551731419
 30
0.0
 40
6.000000077324945
  0
CIRCLE
  5
486
330
1F
100
AcDbEntity
  8
1-2
  6
Continuous
 62
     3
370
    13
100
AcDbCircle
 10
281.6755964949326
 20
474.1892964131125
 30
0.0
 40
6.000000077324945
  0
CIRCLE
  5
487
330
1F
100
AcDbEntity
  8
1-2
  6
Continuous
 62
     3
370
    13
100
AcDbCircle
 10
281.6755964949326
 20
674.1893376530828
 30
0.0
 40
6.000000077324945
  0
CIRCLE
  5
488
330
1F
100
AcDbEntity
  8
1-2
  6
Continuous
 62
     3
370
    13
100
AcDbCircle
 10
281.6755964949326
 20
74.18921393317163
 30
0.0
 40
6.000000077324945
  0
CIRCLE
  5
489
330
1F
100
AcDbEntity
  8
1-2
  6
Continuous
 62
     3
370
    13
100
AcDbCircle
 10
281.6755964949326
 20
-125.8107035868875
 30
0.0
 40
6.000000077324945
  0
CIRCLE
  5
48A
330
1F
100
AcDbEntity
  8
1-3
  6
Continuous
 62
     4
370
    13
100
AcDbCircle
 10
-491.0143878008867
 20
586.7090915989231
 30
0.0
 40
4.519735316972476
  0
CIRCLE
  5
48B
330
1F
100
AcDbEntity
  8
1-3
  6
Continuous
 62
     4
370
    13
100
AcDbCircle
 10
-491.0143878008867
 20
561.6696661871833
 30
0.0
 40
4.519735316972476
  0
TEXT
  5
48C
330
1F
100
AcDbEntity
  8
F-4
  6
Continuous
 62
     7
370
    13
100
AcDbText
 10
-798.228499953811
 20
1069.3895986856
 30
0.0
 40
22.86
  1
メインバー ＤⅠ－２５ ＠１５
 41
1.154761904761905
  7
ＭＳ ゴシック
100
AcDbText
  0
TEXT
  5
48D
330
1F
100
AcDbEntity
  8
F-4
  6
Continuous
 62
     2
370
    13
100
AcDbText
 10
536.4371583699727
 20
-1041.534410433384
 30
0.0
 40
30.48
  1
処理：溶融亜鉛めっき
 50
359.9999681409946
 41
1.1125
  7
ＭＳ ゴシック
100
AcDbText
  0
TEXT
  5
48E
330
1F
100
AcDbEntity
  8
F-4
  6
Continuous
 62
     2
370
    13
100
AcDbText
 10
486.6768089500636
 20
-895.2369762193833
 30
0.0
 40
30.48
  1
ノンスリップタイプ
 41
1.111111111111111
  7
ＭＳ ゴシック
100
AcDbText
  0
TEXT
  5
48F
330
1F
100
AcDbEntity
  8
F-D
  6
Continuous
 62
     2
370
    13
100
AcDbText
 10
-391.4565834778051
 20
-799.1152997806855
 30
0.0
 40
30.48
  1
25
 50
90.00000250447816
 41
1.062500000000001
  7
ＭＳ ゴシック
100
AcDbText
  0
TEXT
  5
490
330
1F
100
AcDbEntity
  8
F-D
  6
Continuous
 62
     2
370
    13
100
AcDbText
 10
-1265.113149709025
 20
-878.2649831401924
 30
0.0
 40
30.48
  1
5.4
 50
90.00000250447816
 41
1.083333333333334
  7
ＭＳ ゴシック
100
AcDbText
  0
TEXT
  5
491
330
1F
100
AcDbEntity
  8
F-D
  6
Continuous
 62
     2
370
    13
100
AcDbText
 10
-1265.113149709025
 20
-704.0672242851462
 30
0.0
 40
30.48
  1
7.6
 50
90.00000250447816
 41
1.083333333333333
  7
ＭＳ ゴシック
100
AcDbText
  0
TEXT
  5
492
330
1F
100
AcDbEntity
  8
F-D
  6
Continuous
 62
     2
370
    13
100
AcDbText
 10
-1115.17223935217
 20
-677.712057277545
 30
0.0
 40
30.48
  1
5
 50
282.0789753068251
 41
0.999999999999997
  7
ＭＳ ゴシック
100
AcDbText
  0
TEXT
  5
493
330
1F
100
AcDbEntity
  8
F-D
  6
Continuous
 62
     2
370
    13
100
AcDbText
 10
-525.7626384013407
 20
-652.471291833826
 30
0.0
 40
30.48
  1
5
 41
0.9999999999999998
  7
ＭＳ ゴシック
100
AcDbText
  0
TEXT
  5
494
330
1F
100
AcDbEntity
  8
F-D
  6
Continuous
 62
     2
370
    13
100
AcDbText
 10
-502.4384658401077
 20
-786.7682039497994
 30
0.0
 40
30.48
  1
3
 41
0.9999999999999998
  7
ＭＳ ゴシック
100
AcDbText
  0
TEXT
  5
495
330
1F
100
AcDbEntity
  8
F-D
  6
Continuous
 62
     2
370
    13
100
AcDbText
 10
-1242.540877058699
 20
-1021.929691426045
 30
0.0
 40
30.48
  1
ＤＩ－２５　バー形状詳細　Ｓ＝１：２
 41
1.118055555555555
  7
ＭＳ ゴシック
100
AcDbText
  0
TEXT
  5
496
330
1F
100
AcDbEntity
  8
F-D
  6
Continuous
 62
     2
370
    13
100
AcDbText
 10
-1184.341511082005
 20
-565.1673466532939
 30
0.0
 40
30.48
  1
5
 41
0.9999999999999998
  7
ＭＳ ゴシック
100
AcDbText
  0
TEXT
  5
497
330
1F
100
AcDbEntity
  8
F-D
  6
Continuous
 62
     7
370
    13
100
AcDbText
 10
-1216.110287228146
 20
-1110.431271378801
 30
0.0
 40
22.86
  1
※デルタパターンの配列は一定ではありません。
 41
1.159090909090909
  7
ＭＳ ゴシック
100
AcDbText
  0
TEXT
  5
498
330
1F
100
AcDbEntity
  8
F-4
  6
Continuous
 62
     7
370
    13
100
AcDbText
 10
-865.1204908216321
 20
1206.484622175887
 30
0.0
 40
22.86
  1
エンドプレート ＦＢ１９×４．５
 41
1.155913978494624
  7
ＭＳ ゴシック
100
AcDbText
  0
TEXT
  5
499
330
1F
100
AcDbEntity
  8
F-4
  6
Continuous
 62
     7
370
    13
100
AcDbText
 10
-825.8192691287479
 20
1135.812839553421
 30
0.0
 40
22.86
  1
クロスバー φ６ ＠１００
 41
1.152777777777778
  7
ＭＳ ゴシック
100
AcDbText
  0
TEXT
  5
49A
330
1F
100
AcDbEntity
  8
F-D
  6
Continuous
 62
     7
370
    13
100
AcDbText
 10
-1101.217049263619
 20
-578.164458667652
 30
0.0
 40
22.86
  1
デルタパターン
 41
1.142857142857143
  7
ＭＳ ゴシック
100
AcDbText
  0
TEXT
  5
49B
330
1F
100
AcDbEntity
  8
1-4
  6
Continuous
 62
     7
370
    13
100
AcDbText
 10
728.7892109638938
 20
871.4439265730575
 30
0.0
 40
22.86
  1
鎖　ＳＷＲＭ　φ５×５００
 41
1.153846153846154
  7
ＭＳ ゴシック
100
AcDbText
  0
TEXT
  5
49C
330
1F
100
AcDbEntity
  8
1-4
  6
Continuous
 62
     7
370
    13
100
AcDbText
 10
668.3306802285686
 20
819.6226045185813
 30
0.0
 40
22.86
  1
電気亜鉛めっき（光沢クロメート）
 41
1.15625
  7
ＭＳ ゴシック
100
AcDbText
  0
TEXT
  5
49D
330
1F
100
AcDbEntity
  8
1-4
  6
Continuous
 62
     7
370
    13
100
AcDbText
 10
598.5802397856844
 20
256.2563176995357
 30
0.0
 40
22.86
  1
電気亜鉛めっき（光沢クロメート）
 41
1.15625
  7
ＭＳ ゴシック
100
AcDbText
  0
TEXT
  5
49E
330
1F
100
AcDbEntity
  8
1-4
  6
Continuous
 62
     7
370
    13
100
AcDbText
 10
611.5357022672085
 20
305.9184798616977
 30
0.0
 40
22.86
  1
シャックル　Ｓ２０Ｃ　呼び６
 41
1.154761904761905
  7
ＭＳ ゴシック
100
AcDbText
  0
TEXT
  5
49F
330
1F
100
AcDbEntity
  8
F-4
  6
Continuous
 62
     2
370
    13
100
AcDbText
 10
536.4372333695449
 20
-993.6371128062169
 30
0.0
 40
30.48
  1
材質：ＳＳ４００＋ＳＴＫＲ４００
 50
359.9999603433436
 41
1.1171875
  7
ＭＳ ゴシック
100
AcDbText
  0
TEXT
  5
4A0
330
1F
100
AcDbEntity
  8
1-4
  6
Continuous
 62
     2
370
    13
100
AcDbText
 10
478.682873114479
 20
-326.4293734979574
 30
0.0
 40
30.48
  1
7
 50
90.00000250447816
 41
0.9999999999999989
  7
ＭＳ ゴシック
100
AcDbText
  0
TEXT
  5
4A1
330
1F
100
AcDbEntity
  8
1-4
  6
Continuous
 62
     2
370
    13
100
AcDbText
 10
478.6828736062321
 20
-263.0609875644164
 30
0.0
 40
30.48
  1
40
 50
90.00000250447816
 41
1.0625
  7
ＭＳ ゴシック
100
AcDbText
  0
TEXT
  5
4A2
330
1F
100
AcDbEntity
  8
1-4
  6
Continuous
 62
     2
370
    13
100
AcDbText
 10
478.6828736062321
 20
768.9392499778133
 30
0.0
 40
30.48
  1
40
 50
90.00000250447816
 41
1.062500000000001
  7
ＭＳ ゴシック
100
AcDbText
  0
TEXT
  5
4A3
330
1F
100
AcDbEntity
  8
1-4
  6
Continuous
 62
     2
370
    13
100
AcDbText
 10
478.682873114479
 20
849.7541105537213
 30
0.0
 40
30.48
  1
7
 50
90.00000250447816
 41
1.000000000000001
  7
ＭＳ ゴシック
100
AcDbText
  0
TEXT
  5
4A4
330
1F
100
AcDbEntity
  8
1-4
  6
Continuous
 62
     2
370
    13
100
AcDbText
 10
279.425881875528
 20
-393.0196267287796
 30
0.0
 40
30.48
  1
25
 41
1.0625
  7
ＭＳ ゴシック
100
AcDbText
  0
TEXT
  5
4A5
330
1F
100
AcDbEntity
  8
1-4
  6
Continuous
 62
     2
370
    13
100
AcDbText
 10
329.4257993955871
 20
-393.0196267287796
 30
0.0
 40
30.48
  1
25
 41
1.0625
  7
ＭＳ ゴシック
100
AcDbText
  0
TEXT
  5
4A6
330
1F
100
AcDbEntity
  8
1-4
  6
Continuous
 62
     2
370
    13
100
AcDbText
 10
304.4257169156463
 20
-472.3946102327913
 30
0.0
 40
30.48
  1
50
 41
1.0625
  7
ＭＳ ゴシック
100
AcDbText
  0
TEXT
  5
4A7
330
1F
100
AcDbEntity
  8
1-4
  6
Continuous
 62
     2
370
    13
100
AcDbText
 10
-1242.922202445365
 20
907.0270981577281
 30
0.0
 40
30.48
  1
15
 41
1.0625
  7
ＭＳ ゴシック
100
AcDbText
  0
TEXT
  5
4A8
330
1F
100
AcDbEntity
  8
1-5
  6
Continuous
 62
     7
370
    13
100
AcDbText
 10
-843.2432721112225
 20
-1320.634864864865
 30
0.0
 40
22.86
  1
ノンスリップタイプスチール製グレーチング
 41
1.158333333333333
  7
ＭＳ ゴシック
100
AcDbText
  0
TEXT
  5
4A9
330
1F
100
AcDbEntity
  8
F-4
  6
Continuous
 62
     7
370
    13
100
AcDbText
 10
527.8233359783671
 20
1055.089803895717
 30
0.0
 40
22.86
  1
かさ上げ材　□４０×２５×３．２
 50
0.000025544603042
 41
1.15625
  7
ＭＳ ゴシック
100
AcDbText
  0
TEXT
  5
4AA
330
1F
100
AcDbEntity
  8
1-4
  6
Continuous
 62
     2
370
    13
100
AcDbText
 10
161.5051067310087
 20
241.6892549266099
 30
0.0
 40
30.48
  1
570
 50
90.00000250447816
 41
1.083333333333333
  7
ＭＳ ゴシック
100
AcDbText
  0
TEXT
  5
4AB
330
1F
100
AcDbEntity
  8
1-4
  6
Continuous
 62
     2
370
    13
100
AcDbText
 10
-862.0947100665117
 20
-393.0196267287796
 30
0.0
 40
30.48
  1
565
 41
1.083333333333333
  7
ＭＳ ゴシック
100
AcDbText
  0
TEXT
  5
4AC
330
1F
100
AcDbEntity
  8
F-4
  6
Continuous
 62
     2
370
    13
100
AcDbText
 10
486.6768089500636
 20
-942.9222797785578
 30
0.0
 40
30.48
  1
圧接式細目かさ上げグレーチング　ＱＸＣＤ　５００
 41
1.119791666666667
  7
ＭＳ ゴシック
100
AcDbText
  0
TEXT
  5
4AD
330
1F
100
AcDbEntity
  8
1-5
  6
Continuous
 62
     7
370
    13
100
AcDbText
 10
-507.938521101668
 20
-1365.147247578389
 30
0.0
 40
22.86
  1
圧接式細目東京都住宅局型ＣＤます用　ＱＸＣＤ　５００
 41
1.16025641025641
  7
ＭＳ ゴシック
100
AcDbText
  0
TEXT
  5
4AE
330
1F
100
AcDbEntity
  8
F-5
  6
Continuous
 62
     7
370
    13
100
AcDbText
 10
687.811716440562
 20
1012.395052259291
 30
0.0
 40
22.86
  1
（Ｌ＝５５５）
 41
1.142857142857143
  7
ＭＳ ゴシック
100
AcDbText
  0
TEXT
  5
4AF
330
1F
100
AcDbEntity
  8
1-4
  6
Continuous
 62
     2
370
    13
100
AcDbText
 10
432.0875508076437
 20
-832.3163697608741
 30
0.0
 40
30.48
  1
仕　様
 41
1.083333333333333
  7
ＭＳ ゴシック
100
AcDbText
  0
TEXT
  5
4B0
330
1F
100
AcDbEntity
  8
1-4
  6
Continuous
 62
     2
370
    13
100
AcDbText
 10
478.6828740979853
 20
215.6542553884973
 30
0.0
 40
30.48
  1
476
 50
90.00000250447816
 41
1.083333333333333
  7
ＭＳ ゴシック
100
AcDbText
  0
LWPOLYLINE
  5
4B1
330
1F
100
AcDbEntity
  8
1-4
  6
Continuous
 62
     7
370
    13
100
AcDbPolyline
 90
        4
 70
     1
 43
1.0
 10
490.8227934966219
 20
-295.8107695708404
 42
0.4142135623731
 10
490.3227934966219
 20
-295.3107695708404
 42
0.4142135623731
 10
489.8227934966219
 20
-295.8107695708404
 42
0.4142135623731
 10
490.3227934966219
 20
-296.3107695708404
 42
0.4142135623731
  0
LWPOLYLINE
  5
4B2
330
1F
100
AcDbEntity
  8
1-4
  6
Continuous
 62
     7
370
    13
100
AcDbPolyline
 90
        4
 70
     1
 43
1.0
 10
490.8227934966219
 20
-281.8111192857896
 42
0.4142135623731
 10
490.3227934966219
 20
-281.3111192857896
 42
0.4142135623731
 10
489.8227934966219
 20
-281.8111192857896
 42
0.4142135623731
 10
490.3227934966219
 20
-282.3111192857896
 42
0.4142135623731
  0
LWPOLYLINE
  5
4B3
330
1F
100
AcDbEntity
  8
1-4
  6
Continuous
 62
     7
370
    13
100
AcDbPolyline
 90
        4
 70
     1
 43
1.0
 10
490.8227934966219
 20
-201.8108553499789
 42
0.4142135623731
 10
490.3227934966219
 20
-201.3108553499789
 42
0.4142135623731
 10
489.8227934966219
 20
-201.8108553499789
 42
0.4142135623731
 10
490.3227934966219
 20
-202.3108553499789
 42
0.4142135623731
  0
LWPOLYLINE
  5
4B4
330
1F
100
AcDbEntity
  8
1-4
  6
Continuous
 62
     7
370
    13
100
AcDbPolyline
 90
        4
 70
     1
 43
1.0
 10
490.8227934966219
 20
750.1892419763516
 42
0.4142135623731
 10
490.3227934966219
 20
750.6892419763516
 42
0.4142135623731
 10
489.8227934966219
 20
750.1892419763516
 42
0.4142135623731
 10
490.3227934966219
 20
749.6892419763516
 42
0.4142135623731
  0
LWPOLYLINE
  5
4B5
330
1F
100
AcDbEntity
  8
1-4
  6
Continuous
 62
     7
370
    13
100
AcDbPolyline
 90
        4
 70
     1
 43
1.0
 10
490.8227934966219
 20
830.1890110325169
 42
0.4142135623731
 10
490.3227934966219
 20
830.6890110325169
 42
0.4142135623731
 10
489.8227934966219
 20
830.1890110325169
 42
0.4142135623731
 10
490.3227934966219
 20
829.689011032517
 42
0.4142135623731
  0
LWPOLYLINE
  5
4B6
330
1F
100
AcDbEntity
  8
1-4
  6
Continuous
 62
     7
370
    13
100
AcDbPolyline
 90
        4
 70
     1
 43
1.0
 10
490.8227934966219
 20
844.189156197213
 42
0.4142135623731
 10
490.3227934966219
 20
844.689156197213
 42
0.4142135623731
 10
489.8227934966219
 20
844.189156197213
 42
0.4142135623731
 10
490.3227934966219
 20
843.689156197213
 42
0.4142135623731
  0
LWPOLYLINE
  5
4B7
330
1F
100
AcDbEntity
  8
1-4
  6
Continuous
 62
     7
370
    13
100
AcDbPolyline
 90
        4
 70
     1
 43
1.0
 10
276.1756756756758
 20
-404.6596712679475
 42
0.4142135623731
 10
275.6756756756758
 20
-404.1596712679475
 42
0.4142135623731
 10
275.1756756756758
 20
-404.6596712679475
 42
0.4142135623731
 10
275.6756756756758
 20
-405.1596712679475
 42
0.4142135623731
  0
LWPOLYLINE
  5
4B8
330
1F
100
AcDbEntity
  8
1-4
  6
Continuous
 62
     7
370
    13
100
AcDbPolyline
 90
        4
 70
     1
 43
1.0
 10
326.1758406355575
 20
-404.6596712679475
 42
0.4142135623731
 10
325.6758406355576
 20
-404.1596712679475
 42
0.4142135623731
 10
325.1758406355576
 20
-404.6596712679475
 42
0.4142135623731
 10
325.6758406355576
 20
-405.1596712679475
 42
0.4142135623731
  0
LWPOLYLINE
  5
4B9
330
1F
100
AcDbEntity
  8
1-4
  6
Continuous
 62
     7
370
    13
100
AcDbPolyline
 90
        4
 70
     1
 43
1.0
 10
376.175510715794
 20
-404.6596712679475
 42
0.4142135623731
 10
375.675510715794
 20
-404.1596712679475
 42
0.4142135623731
 10
375.1755107157941
 20
-404.6596712679475
 42
0.4142135623731
 10
375.675510715794
 20
-405.1596712679475
 42
0.4142135623731
  0
LWPOLYLINE
  5
4BA
330
1F
100
AcDbEntity
  8
1-4
  6
Continuous
 62
     7
370
    13
100
AcDbPolyline
 90
        4
 70
     1
 43
1.0
 10
276.1756756756758
 20
-484.0346547719594
 42
0.4142135623731
 10
275.6756756756758
 20
-483.5346547719594
 42
0.4142135623731
 10
275.1756756756758
 20
-484.0346547719594
 42
0.4142135623731
 10
275.6756756756758
 20
-484.5346547719594
 42
0.4142135623731
  0
LWPOLYLINE
  5
4BB
330
1F
100
AcDbEntity
  8
1-4
  6
Continuous
 62
     7
370
    13
100
AcDbPolyline
 90
        4
 70
     1
 43
1.0
 10
376.1757581556167
 20
-484.0346547719594
 42
0.4142135623731
 10
375.6757581556167
 20
-483.5346547719594
 42
0.4142135623731
 10
375.1757581556167
 20
-484.0346547719594
 42
0.4142135623731
 10
375.6757581556167
 20
-484.5346547719594
 42
0.4142135623731
  0
LWPOLYLINE
  5
4BC
330
1F
100
AcDbEntity
  8
1-4
  6
Continuous
 62
     7
370
    13
100
AcDbPolyline
 90
        4
 70
     1
 43
1.0
 10
173.6450261296453
 20
-295.8107695708404
 42
0.4142135623731
 10
173.1450261296453
 20
-295.3107695708404
 42
0.4142135623731
 10
172.6450261296453
 20
-295.8107695708404
 42
0.4142135623731
 10
173.1450261296453
 20
-296.3107695708404
 42
0.4142135623731
  0
LWPOLYLINE
  5
4BD
330
1F
100
AcDbEntity
  8
1-4
  6
Continuous
 62
     7
370
    13
100
AcDbPolyline
 90
        4
 70
     1
 43
1.0
 10
173.6450261296453
 20
844.189156197213
 42
0.4142135623731
 10
173.1450261296453
 20
844.689156197213
 42
0.4142135623731
 10
172.6450261296453
 20
844.189156197213
 42
0.4142135623731
 10
173.1450261296453
 20
843.689156197213
 42
0.4142135623731
  0
LWPOLYLINE
  5
4BE
330
1F
100
AcDbEntity
  8
1-4
  6
Continuous
 62
     7
370
    13
100
AcDbPolyline
 90
        4
 70
     1
 43
1.0
 10
-1394.094594594594
 20
-404.6596712679475
 42
0.4142135623731
 10
-1394.594594594595
 20
-404.1596712679475
 42
0.4142135623731
 10
-1395.094594594595
 20
-404.6596712679475
 42
0.4142135623731
 10
-1394.594594594595
 20
-405.1596712679475
 42
0.4142135623731
  0
LWPOLYLINE
  5
4BF
330
1F
100
AcDbEntity
  8
1-4
  6
Continuous
 62
     7
370
    13
100
AcDbPolyline
 90
        4
 70
     1
 43
1.0
 10
-264.0947018185177
 20
-404.6596712679475
 42
0.4142135623731
 10
-264.5947018185177
 20
-404.1596712679475
 42
0.4142135623731
 10
-265.0947018185177
 20
-404.6596712679475
 42
0.4142135623731
 10
-264.5947018185177
 20
-405.1596712679475
 42
0.4142135623731
  0
LWPOLYLINE
  5
4C0
330
1F
100
AcDbEntity
  8
1-4
  6
Continuous
 62
     7
370
    13
100
AcDbPolyline
 90
        4
 70
     1
 43
1.0
 10
-1237.744979445999
 20
895.3871773384714
 42
0.4142135623731
 10
-1238.244979445999
 20
895.8871773384714
 42
0.4142135623731
 10
-1238.744979445999
 20
895.3871773384714
 42
0.4142135623731
 10
-1238.244979445999
 20
894.8871773384714
 42
0.4142135623731
  0
LWPOLYLINE
  5
4C1
330
1F
100
AcDbEntity
  8
1-4
  6
Continuous
 62
     7
370
    13
100
AcDbPolyline
 90
        4
 70
     1
 43
1.0
 10
-1207.47498548353
 20
895.3871773384714
 42
0.4142135623731
 10
-1207.97498548353
 20
895.8871773384714
 42
0.4142135623731
 10
-1208.47498548353
 20
895.3871773384714
 42
0.4142135623731
 10
-1207.97498548353
 20
894.8871773384714
 42
0.4142135623731
  0
LINE
  5
4C2
330
1F
100
AcDbEntity
  8
1-4
  6
Continuous
 62
     7
370
    13
100
AcDbLine
 10
575.2132106471709
 20
135.1523239548143
 30
0.0
 11
972.2511090195442
 21
135.1523239548143
 31
0.0
  0
TEXT
  5
4C3
330
1F
100
AcDbEntity
  8
1-4
  6
Continuous
 62
     7
370
    13
100
AcDbText
 10
653.7321598333574
 20
97.38089870143624
 30
0.0
 40
22.86
  1
溶融亜鉛めっき
 41
1.142857142857144
  7
ＭＳ ゴシック
100
AcDbText
  0
TEXT
  5
4C4
330
1F
100
AcDbEntity
  8
1-4
  6
Continuous
 62
     7
370
    13
100
AcDbText
 10
583.7321598333575
 20
149.6609741870779
 30
0.0
 40
22.86
  1
鎖ピン　ＳＷＲＭ　φ５
 41
1.151515151515152
  7
ＭＳ ゴシック
100
AcDbText
  0
ENDSEC
  0
SECTION
  2
OBJECTS
  0
DICTIONARY
  5
C
330
0
100
AcDbDictionary
281
     1
  3
ACAD_GROUP
350
D
  3
ACAD_LAYOUT
350
1A
  3
ACAD_MLEADERSTYLE
350
4C6
  3
ACAD_MLINESTYLE
350
17
  3
ACAD_PLOTSETTINGS
350
19
  3
ACAD_PLOTSTYLENAME
350
E
  3
ACAD_TABLESTYLE
350
4C5
  3
ACAD_VISUALSTYLE
350
2A
  0
DICTIONARY
  5
D
102
{ACAD_REACTORS
330
C
102
}
330
C
100
AcDbDictionary
281
     1
  0
DICTIONARY
  5
1A
102
{ACAD_REACTORS
330
C
102
}
330
C
100
AcDbDictionary
281
     1
  3
Layout1
350
1E
  3
Layout2
350
26
  3
Model
350
22
  0
DICTIONARY
  5
4C6
102
{ACAD_REACTORS
330
C
102
}
330
C
100
AcDbDictionary
281
     1
  0
DICTIONARY
  5
17
102
{ACAD_REACTORS
330
C
102
}
330
C
100
AcDbDictionary
281
     1
  3
Standard
350
18
  0
DICTIONARY
  5
19
102
{ACAD_REACTORS
330
C
102
}
330
C
100
AcDbDictionary
281
     1
  0
ACDBDICTIONARYWDFLT
  5
E
102
{ACAD_REACTORS
330
C
102
}
330
C
100
AcDbDictionary
281
     1
  3
Normal
350
F
100
AcDbDictionaryWithDefault
340
F
  0
DICTIONARY
  5
4C5
102
{ACAD_REACTORS
330
C
102
}
330
C
100
AcDbDictionary
281
     1
  0
DICTIONARY
  5
2A
102
{ACAD_REACTORS
330
C
102
}
330
C
100
AcDbDictionary
281
     1
  3
2dWireframe
350
2F
  3
3D Hidden
350
31
  3
3dWireframe
350
30
  3
Basic
350
32
  3
Brighten
350
36
  3
ColorChange
350
3A
  3
Conceptual
350
34
  3
Dim
350
35
  3
Facepattern
350
39
  3
Flat
350
2B
  3
FlatWithEdges
350
2C
  3
Gouraud
350
2D
  3
GouraudWithEdges
350
2E
  3
Linepattern
350
38
  3
Realistic
350
33
  3
Thicken
350
37
  0
LAYOUT
  5
1E
102
{ACAD_REACTORS
330
1A
102
}
330
1A
100
AcDbPlotSettings
  1

  2
none_device
  4

  6

 40
0.0
 41
0.0
 42
0.0
 43
0.0
 44
0.0
 45
0.0
 46
0.0
 47
0.0
 48
0.0
 49
0.0
140
0.0
141
0.0
142
1.0
143
1.0
 70
   688
 72
     0
 73
     0
 74
     5
  7

 75
    16
 76
     0
 77
     5
 78
   300
147
1.0
148
0.0
149
0.0
100
AcDbLayout
  1
Layout1
 70
     1
 71
     1
 10
0.0
 20
0.0
 11
420.0
 21
297.0
 12
0.0
 22
0.0
 32
0.0
 14
1.000000000000000E+20
 24
1.000000000000000E+20
 34
1.000000000000000E+20
 15
-1.000000000000000E+20
 25
-1.000000000000000E+20
 35
-1.000000000000000E+20
146
0.0
 13
0.0
 23
0.0
 33
0.0
 16
1.0
 26
0.0
 36
0.0
 17
0.0
 27
1.0
 37
0.0
 76
     0
330
1B
  0
LAYOUT
  5
26
102
{ACAD_REACTORS
330
1A
102
}
330
1A
100
AcDbPlotSettings
  1

  2
none_device
  4

  6

 40
0.0
 41
0.0
 42
0.0
 43
0.0
 44
0.0
 45
0.0
 46
0.0
 47
0.0
 48
0.0
 49
0.0
140
0.0
141
0.0
142
1.0
143
1.0
 70
   688
 72
     0
 73
     0
 74
     5
  7

 75
    16
 76
     0
 77
     5
 78
   300
147
1.0
148
0.0
149
0.0
100
AcDbLayout
  1
Layout2
 70
     1
 71
     2
 10
0.0
 20
0.0
 11
0.0
 21
0.0
 12
0.0
 22
0.0
 32
0.0
 14
0.0
 24
0.0
 34
0.0
 15
0.0
 25
0.0
 35
0.0
146
0.0
 13
0.0
 23
0.0
 33
0.0
 16
1.0
 26
0.0
 36
0.0
 17
0.0
 27
1.0
 37
0.0
 76
     0
330
23
  0
LAYOUT
  5
22
102
{ACAD_REACTORS
330
1A
102
}
330
1A
100
AcDbPlotSettings
  1

  2
none_device
  4

  6

 40
0.0
 41
0.0
 42
0.0
 43
0.0
 44
0.0
 45
0.0
 46
0.0
 47
0.0
 48
0.0
 49
0.0
140
0.0
141
0.0
142
1.0
143
1.0
 70
  1712
 72
     0
 73
     0
 74
     0
  7

 75
     0
 76
     0
 77
     5
 78
   300
147
1.0
148
0.0
149
0.0
100
AcDbLayout
  1
Model
 70
     1
 71
     0
 10
-2100.0
 20
-1485.0
 11
2100.0
 21
1485.0
 12
0.0
 22
0.0
 32
0.0
 14
-2100.0
 24
-1485.0
 34
0.0
 15
2100.0
 25
1485.0
 35
0.0
146
0.0
 13
0.0
 23
0.0
 33
0.0
 16
1.0
 26
0.0
 36
0.0
 17
0.0
 27
1.0
 37
0.0
 76
     0
330
1F
331
29
  0
MLINESTYLE
  5
18
102
{ACAD_REACTORS
330
17
102
}
330
17
100
AcDbMlineStyle
  2
Standard
 70
     0
  3

 62
   256
 51
90.0
 52
90.0
 71
     2
 49
0.5
 62
   256
  6
BYLAYER
 49
-0.5
 62
   256
  6
BYLAYER
  0
ACDBPLACEHOLDER
  5
F
102
{ACAD_REACTORS
330
E
102
}
330
E
  0
VISUALSTYLE
  5
2F
102
{ACAD_REACTORS
330
2A
102
}
330
2A
100
AcDbVisualStyle
  2
2dWireframe
 70
     4
 71
     0
 72
     2
 73
     0
 90
        0
 40
-0.6
 41
-30.0
 62
     5
 63
     7
421
 16777215
 74
     1
 91
        4
 64
     7
 65
   257
 75
     1
175
     1
 42
1.0
 92
        0
 66
   257
 43
1.0
 76
     1
 77
     6
 78
     2
 67
     7
 79
     5
170
     0
171
     0
290
     0
174
     0
 93
        1
 44
0.0
173
     0
291
     0
 45
0.0
1001
ACAD
1000
AcDbSavedByObjectVersion
1070
     0
  0
VISUALSTYLE
  5
31
102
{ACAD_REACTORS
330
2A
102
}
330
2A
100
AcDbVisualStyle
  2
3D Hidden
 70
     6
 71
     1
 72
     2
 73
     2
 90
        0
 40
-0.6
 41
-30.0
 62
     5
 63
     7
421
 16777215
 74
     2
 91
        2
 64
     7
 65
   257
 75
     2
175
     1
 42
40.0
 92
        0
 66
   257
 43
1.0
 76
     1
 77
     6
 78
     2
 67
     7
 79
     3
170
     0
171
     0
290
     0
174
     0
 93
        1
 44
0.0
173
     0
291
     0
 45
0.0
1001
ACAD
1000
AcDbSavedByObjectVersion
1070
     0
  0
VISUALSTYLE
  5
30
102
{ACAD_REACTORS
330
2A
102
}
330
2A
100
AcDbVisualStyle
  2
3dWireframe
 70
     5
 71
     0
 72
     2
 73
     0
 90
        0
 40
-0.6
 41
-30.0
 62
     5
 63
     7
421
 16777215
 74
     1
 91
        4
 64
     7
 65
   257
 75
     1
175
     1
 42
1.0
 92
        0
 66
   257
 43
1.0
 76
     1
 77
     6
 78
     2
 67
     7
 79
     5
170
     0
171
     0
290
     0
174
     0
 93
        1
 44
0.0
173
     0
291
     0
 45
0.0
1001
ACAD
1000
AcDbSavedByObjectVersion
1070
     0
  0
VISUALSTYLE
  5
32
102
{ACAD_REACTORS
330
2A
102
}
330
2A
100
AcDbVisualStyle
  2
Basic
 70
     7
 71
     1
 72
     0
 73
     1
 90
        0
 40
-0.6
 41
-30.0
 62
     5
 63
     7
421
 16777215
 74
     0
 91
        4
 64
     7
 65
   257
 75
     1
175
     1
 42
1.0
 92
        8
 66
     7
 43
1.0
 76
     1
 77
     6
 78
     2
 67
     7
 79
     5
170
     0
171
     0
290
     0
174
     0
 93
        1
 44
0.0
173
     0
291
     1
 45
0.0
1001
ACAD
1000
AcDbSavedByObjectVersion
1070
     0
  0
VISUALSTYLE
  5
36
102
{ACAD_REACTORS
330
2A
102
}
330
2A
100
AcDbVisualStyle
  2
Brighten
 70
    12
 71
     2
 72
     2
 73
     0
 90
        0
 40
-0.6
 41
-30.0
 62
     5
 63
     7
421
 16777215
 74
     1
 91
        4
 64
     7
 65
   257
 75
     1
175
     1
 42
1.0
 92
        8
 66
     7
 43
1.0
 76
     1
 77
     6
 78
     2
 67
     7
 79
     5
170
     0
171
     0
290
     0
174
     0
 93
        1
 44
50.0
173
     0
291
     1
 45
0.0
1001
ACAD
1000
AcDbSavedByObjectVersion
1070
     0
  0
VISUALSTYLE
  5
3A
102
{ACAD_REACTORS
330
2A
102
}
330
2A
100
AcDbVisualStyle
  2
ColorChange
 70
    16
 71
     2
 72
     2
 73
     3
 90
        0
 40
-0.6
 41
-30.0
 62
     5
 63
     8
421
  8421504
 74
     1
 91
        4
 64
     7
 65
   257
 75
     1
175
     1
 42
1.0
 92
        8
 66
     8
424
  8421504
 43
1.0
 76
     1
 77
     6
 78
     2
 67
     7
 79
     5
170
     0
171
     0
290
     0
174
     0
 93
        1
 44
0.0
173
     0
291
     1
 45
0.0
1001
ACAD
1000
AcDbSavedByObjectVersion
1070
     0
  0
VISUALSTYLE
  5
34
102
{ACAD_REACTORS
330
2A
102
}
330
2A
100
AcDbVisualStyle
  2
Conceptual
 70
     9
 71
     3
 72
     2
 73
     0
 90
        0
 40
-0.6
 41
-30.0
 62
     5
 63
     7
421
 16777215
 74
     2
 91
        2
 64
     7
 65
   257
 75
     1
175
     1
 42
40.0
 92
        8
 66
     7
 43
1.0
 76
     1
 77
     6
 78
     2
 67
     7
 79
     3
170
     0
171
     0
290
     0
174
     0
 93
        1
 44
0.0
173
     0
291
     0
 45
0.0
1001
ACAD
1000
AcDbSavedByObjectVersion
1070
     0
  0
VISUALSTYLE
  5
35
102
{ACAD_REACTORS
330
2A
102
}
330
2A
100
AcDbVisualStyle
  2
Dim
 70
    11
 71
     2
 72
     2
 73
     0
 90
        0
 40
-0.6
 41
-30.0
 62
     5
 63
     7
421
 16777215
 74
     1
 91
        4
 64
     7
 65
   257
 75
     1
175
     1
 42
1.0
 92
        8
 66
     7
 43
1.0
 76
     1
 77
     6
 78
     2
 67
     7
 79
     5
170
     0
171
     0
290
     0
174
     0
 93
        1
 44
-50.0
173
     0
291
     1
 45
0.0
1001
ACAD
1000
AcDbSavedByObjectVersion
1070
     0
  0
VISUALSTYLE
  5
39
102
{ACAD_REACTORS
330
2A
102
}
330
2A
100
AcDbVisualStyle
  2
Facepattern
 70
    15
 71
     2
 72
     2
 73
     0
 90
        0
 40
-0.6
 41
-30.0
 62
     5
 63
     7
421
 16777215
 74
     1
 91
        4
 64
     7
 65
   257
 75
     1
175
     1
 42
1.0
 92
        8
 66
     7
 43
1.0
 76
     1
 77
     6
 78
     2
 67
     7
 79
     5
170
     0
171
     0
290
     0
174
     0
 93
        1
 44
0.0
173
     0
291
     1
 45
0.0
1001
ACAD
1000
AcDbSavedByObjectVersion
1070
     0
  0
VISUALSTYLE
  5
2B
102
{ACAD_REACTORS
330
2A
102
}
330
2A
100
AcDbVisualStyle
  2
Flat
 70
     0
 71
     2
 72
     1
 73
     1
 90
        2
 40
-0.6
 41
30.0
 62
     5
 63
     7
421
 16777215
 74
     0
 91
        4
 64
     7
 65
   257
 75
     1
175
     1
 42
1.0
 92
        8
 66
     7
 43
1.0
 76
     1
 77
     6
 78
     2
 67
     7
 79
     5
170
     0
171
     0
290
     0
174
     0
 93
       13
 44
0.0
173
     0
291
     1
 45
0.0
1001
ACAD
1000
AcDbSavedByObjectVersion
1070
     0
  0
VISUALSTYLE
  5
2C
102
{ACAD_REACTORS
330
2A
102
}
330
2A
100
AcDbVisualStyle
  2
FlatWithEdges
 70
     1
 71
     2
 72
     1
 73
     1
 90
        2
 40
-0.6
 41
30.0
 62
     5
 63
     7
421
 16777215
 74
     1
 91
        4
 64
     7
 65
   257
 75
     1
175
     1
 42
1.0
 92
        0
 66
   257
 43
1.0
 76
     1
 77
     6
 78
     2
 67
     7
 79
     5
170
     0
171
     0
290
     0
174
     0
 93
       13
 44
0.0
173
     0
291
     1
 45
0.0
1001
ACAD
1000
AcDbSavedByObjectVersion
1070
     0
  0
VISUALSTYLE
  5
2D
102
{ACAD_REACTORS
330
2A
102
}
330
2A
100
AcDbVisualStyle
  2
Gouraud
 70
     2
 71
     2
 72
     2
 73
     1
 90
        2
 40
-0.6
 41
30.0
 62
     5
 63
     7
421
 16777215
 74
     0
 91
        4
 64
     7
 65
   257
 75
     1
175
     1
 42
1.0
 92
        0
 66
     7
 43
1.0
 76
     1
 77
     6
 78
     2
 67
     7
 79
     5
170
     0
171
     0
290
     0
174
     0
 93
       13
 44
0.0
173
     0
291
     1
 45
0.0
1001
ACAD
1000
AcDbSavedByObjectVersion
1070
     0
  0
VISUALSTYLE
  5
2E
102
{ACAD_REACTORS
330
2A
102
}
330
2A
100
AcDbVisualStyle
  2
GouraudWithEdges
 70
     3
 71
     2
 72
     2
 73
     1
 90
        2
 40
-0.6
 41
30.0
 62
     5
 63
     7
421
 16777215
 74
     1
 91
        4
 64
     7
 65
   257
 75
     1
175
     1
 42
1.0
 92
        0
 66
   257
 43
1.0
 76
     1
 77
     6
 78
     2
 67
     7
 79
     5
170
     0
171
     0
290
     0
174
     0
 93
       13
 44
0.0
173
     0
291
     1
 45
0.0
1001
ACAD
1000
AcDbSavedByObjectVersion
1070
     0
  0
VISUALSTYLE
  5
38
102
{ACAD_REACTORS
330
2A
102
}
330
2A
100
AcDbVisualStyle
  2
Linepattern
 70
    14
 71
     2
 72
     2
 73
     0
 90
        0
 40
-0.6
 41
-30.0
 62
     5
 63
     7
421
 16777215
 74
     1
 91
        4
 64
     7
 65
   257
 75
     7
175
     7
 42
1.0
 92
        8
 66
     7
 43
1.0
 76
     1
 77
     6
 78
     2
 67
     7
 79
     5
170
     0
171
     0
290
     0
174
     0
 93
        1
 44
0.0
173
     0
291
     1
 45
0.0
1001
ACAD
1000
AcDbSavedByObjectVersion
1070
     0
  0
VISUALSTYLE
  5
33
102
{ACAD_REACTORS
330
2A
102
}
330
2A
100
AcDbVisualStyle
  2
Realistic
 70
     8
 71
     2
 72
     2
 73
     0
 90
        0
 40
-0.6
 41
-30.0
 62
     5
 63
     7
421
 16777215
 74
     1
 91
        0
 64
     7
 65
   257
 75
     1
175
     1
 42
1.0
 92
        8
 66
     8
424
  7895160
 43
1.0
 76
     1
 77
     6
 78
     2
 67
     7
 79
     5
170
     0
171
     0
290
     0
174
     0
 93
       13
 44
0.0
173
     0
291
     0
 45
0.0
1001
ACAD
1000
AcDbSavedByObjectVersion
1070
     0
  0
VISUALSTYLE
  5
37
102
{ACAD_REACTORS
330
2A
102
}
330
2A
100
AcDbVisualStyle
  2
Thicken
 70
    13
 71
     2
 72
     2
 73
     0
 90
        0
 40
-0.6
 41
-30.0
 62
     5
 63
     7
421
 16777215
 74
     1
 91
        4
 64
     7
 65
   257
 75
     1
175
     1
 42
1.0
 92
       12
 66
     7
 43
1.0
 76
     1
 77
     6
 78
     2
 67
     7
 79
     5
170
     0
171
     0
290
     0
174
     0
 93
        1
 44
0.0
173
     0
291
     1
 45
0.0
1001
ACAD
1000
AcDbSavedByObjectVersion
1070
     0
  0
ENDSEC
  0
EOF
