  0
SECTION
  2
HEADER
  9
$ACADVER
  1
AC1018
  9
$ACADMAINTVER
 70
     0
  9
$DWGCODEPAGE
  3
ANSI_932
  9
$INSBASE
 10
0.0
 20
0.0
 30
0.0
  9
$EXTMIN
 10
-2100.0
 20
-1485.0
 30
0.0
  9
$EXTMAX
 10
2100.0
 20
1485.0
 30
0.0
  9
$LIMMIN
 10
-2100.0
 20
-1485.0
  9
$LIMMAX
 10
2100.0
 20
1485.0
  9
$ORTHOMODE
 70
     0
  9
$REGENMODE
 70
     1
  9
$FILLMODE
 70
     1
  9
$QTEXTMODE
 70
     0
  9
$MIRRTEXT
 70
     1
  9
$LTSCALE
 40
10.0
  9
$ATTMODE
 70
     1
  9
$TEXTSIZE
 40
2.5
  9
$TRACEWID
 40
1.0
  9
$TEXTSTYLE
  7
Standard
  9
$CLAYER
  8
0
  9
$CELTYPE
  6
ByLayer
  9
$CECOLOR
 62
   256
  9
$CELTSCALE
 40
1.0
  9
$DISPSILH
 70
     0
  9
$DIMSCALE
 40
1.0
  9
$DIMASZ
 40
2.5
  9
$DIMEXO
 40
0.625
  9
$DIMDLI
 40
3.75
  9
$DIMRND
 40
0.0
  9
$DIMDLE
 40
0.0
  9
$DIMEXE
 40
1.25
  9
$DIMTP
 40
0.0
  9
$DIMTM
 40
0.0
  9
$DIMTXT
 40
2.5
  9
$DIMCEN
 40
2.5
  9
$DIMTSZ
 40
0.0
  9
$DIMTOL
 70
     0
  9
$DIMLIM
 70
     0
  9
$DIMTIH
 70
     0
  9
$DIMTOH
 70
     0
  9
$DIMSE1
 70
     0
  9
$DIMSE2
 70
     0
  9
$DIMTAD
 70
     1
  9
$DIMZIN
 70
     8
  9
$DIMBLK
  1

  9
$DIMASO
 70
     1
  9
$DIMSHO
 70
     1
  9
$DIMPOST
  1

  9
$DIMAPOST
  1

  9
$DIMALT
 70
     0
  9
$DIMALTD
 70
     3
  9
$DIMALTF
 40
0.03937007874016
  9
$DIMLFAC
 40
1.0
  9
$DIMTOFL
 70
     1
  9
$DIMTVP
 40
0.0
  9
$DIMTIX
 70
     0
  9
$DIMSOXD
 70
     0
  9
$DIMSAH
 70
     0
  9
$DIMBLK1
  1

  9
$DIMBLK2
  1

  9
$DIMSTYLE
  2
ISO-25
  9
$DIMCLRD
 70
     0
  9
$DIMCLRE
 70
     0
  9
$DIMCLRT
 70
     0
  9
$DIMTFAC
 40
1.0
  9
$DIMGAP
 40
0.625
  9
$DIMJUST
 70
     0
  9
$DIMSD1
 70
     0
  9
$DIMSD2
 70
     0
  9
$DIMTOLJ
 70
     0
  9
$DIMTZIN
 70
     8
  9
$DIMALTZ
 70
     0
  9
$DIMALTTZ
 70
     0
  9
$DIMUPT
 70
     0
  9
$DIMDEC
 70
     2
  9
$DIMTDEC
 70
     2
  9
$DIMALTU
 70
     2
  9
$DIMALTTD
 70
     3
  9
$DIMTXSTY
  7
Standard
  9
$DIMAUNIT
 70
     0
  9
$DIMADEC
 70
     0
  9
$DIMALTRND
 40
0.0
  9
$DIMAZIN
 70
     0
  9
$DIMDSEP
 70
    44
  9
$DIMATFIT
 70
     3
  9
$DIMFRAC
 70
     0
  9
$DIMLDRBLK
  1

  9
$DIMLUNIT
 70
     2
  9
$DIMLWD
 70
    -2
  9
$DIMLWE
 70
    -2
  9
$DIMTMOVE
 70
     0
  9
$LUNITS
 70
     2
  9
$LUPREC
 70
     4
  9
$SKETCHINC
 40
1.0
  9
$FILLETRAD
 40
10.0
  9
$AUNITS
 70
     0
  9
$AUPREC
 70
     0
  9
$MENU
  1
.
  9
$ELEVATION
 40
0.0
  9
$PELEVATION
 40
0.0
  9
$THICKNESS
 40
0.0
  9
$LIMCHECK
 70
     0
  9
$CHAMFERA
 40
10.0
  9
$CHAMFERB
 40
10.0
  9
$CHAMFERC
 40
20.0
  9
$CHAMFERD
 40
0.0
  9
$SKPOLY
 70
     0
  9
$TDCREATE
 40
2456499.582793137
  9
$TDUCREATE
 40
2456499.207793137
  9
$TDUPDATE
 40
2456499.582793148
  9
$TDUUPDATE
 40
2456499.207793148
  9
$TDINDWG
 40
0.0000000116
  9
$TDUSRTIMER
 40
0.0000000116
  9
$USRTIMER
 70
     1
  9
$ANGBASE
 50
0.0
  9
$ANGDIR
 70
     0
  9
$PDMODE
 70
     0
  9
$PDSIZE
 40
0.0
  9
$PLINEWID
 40
0.0
  9
$SPLFRAME
 70
     0
  9
$SPLINETYPE
 70
     6
  9
$SPLINESEGS
 70
     8
  9
$HANDSEED
  5
35B
  9
$SURFTAB1
 70
     6
  9
$SURFTAB2
 70
     6
  9
$SURFTYPE
 70
     6
  9
$SURFU
 70
     6
  9
$SURFV
 70
     6
  9
$UCSBASE
  2

  9
$UCSNAME
  2

  9
$UCSORG
 10
0.0
 20
0.0
 30
0.0
  9
$UCSXDIR
 10
1.0
 20
0.0
 30
0.0
  9
$UCSYDIR
 10
0.0
 20
1.0
 30
0.0
  9
$UCSORTHOREF
  2

  9
$UCSORTHOVIEW
 70
     0
  9
$UCSORGTOP
 10
0.0
 20
0.0
 30
0.0
  9
$UCSORGBOTTOM
 10
0.0
 20
0.0
 30
0.0
  9
$UCSORGLEFT
 10
0.0
 20
0.0
 30
0.0
  9
$UCSORGRIGHT
 10
0.0
 20
0.0
 30
0.0
  9
$UCSORGFRONT
 10
0.0
 20
0.0
 30
0.0
  9
$UCSORGBACK
 10
0.0
 20
0.0
 30
0.0
  9
$PUCSBASE
  2

  9
$PUCSNAME
  2

  9
$PUCSORG
 10
0.0
 20
0.0
 30
0.0
  9
$PUCSXDIR
 10
1.0
 20
0.0
 30
0.0
  9
$PUCSYDIR
 10
0.0
 20
1.0
 30
0.0
  9
$PUCSORTHOREF
  2

  9
$PUCSORTHOVIEW
 70
     0
  9
$PUCSORGTOP
 10
0.0
 20
0.0
 30
0.0
  9
$PUCSORGBOTTOM
 10
0.0
 20
0.0
 30
0.0
  9
$PUCSORGLEFT
 10
0.0
 20
0.0
 30
0.0
  9
$PUCSORGRIGHT
 10
0.0
 20
0.0
 30
0.0
  9
$PUCSORGFRONT
 10
0.0
 20
0.0
 30
0.0
  9
$PUCSORGBACK
 10
0.0
 20
0.0
 30
0.0
  9
$USERI1
 70
     0
  9
$USERI2
 70
     0
  9
$USERI3
 70
     0
  9
$USERI4
 70
     0
  9
$USERI5
 70
     0
  9
$USERR1
 40
0.0
  9
$USERR2
 40
0.0
  9
$USERR3
 40
0.0
  9
$USERR4
 40
0.0
  9
$USERR5
 40
0.0
  9
$WORLDVIEW
 70
     1
  9
$SHADEDGE
 70
     3
  9
$SHADEDIF
 70
    70
  9
$TILEMODE
 70
     1
  9
$MAXACTVP
 70
    64
  9
$PINSBASE
 10
0.0
 20
0.0
 30
0.0
  9
$PLIMCHECK
 70
     0
  9
$PEXTMIN
 10
1.000000000000000E+20
 20
1.000000000000000E+20
 30
1.000000000000000E+20
  9
$PEXTMAX
 10
-1.000000000000000E+20
 20
-1.000000000000000E+20
 30
-1.000000000000000E+20
  9
$PLIMMIN
 10
0.0
 20
0.0
  9
$PLIMMAX
 10
420.0
 20
297.0
  9
$UNITMODE
 70
     0
  9
$VISRETAIN
 70
     1
  9
$PLINEGEN
 70
     0
  9
$PSLTSCALE
 70
     1
  9
$TREEDEPTH
 70
  3020
  9
$CMLSTYLE
  2
Standard
  9
$CMLJUST
 70
     0
  9
$CMLSCALE
 40
20.0
  9
$PROXYGRAPHICS
 70
     1
  9
$MEASUREMENT
 70
     1
  9
$CELWEIGHT
370
    -1
  9
$ENDCAPS
280
     0
  9
$JOINSTYLE
280
     0
  9
$LWDISPLAY
290
     0
  9
$INSUNITS
 70
     4
  9
$HYPERLINKBASE
  1

  9
$STYLESHEET
  1

  9
$XEDIT
290
     1
  9
$CEPSNTYPE
380
     0
  9
$PSTYLEMODE
290
     1
  9
$FINGERPRINTGUID
  2
{017F9C2E-7C2D-4C96-8098-6B02E7905C06}
  9
$VERSIONGUID
  2
{FAEB1C32-E019-11D5-929B-00C0DF256EC4}
  9
$EXTNAMES
290
     1
  9
$PSVPSCALE
 40
0.0
  9
$OLESTARTUP
290
     0
  9
$SORTENTS
280
   127
  9
$INDEXCTL
280
     0
  9
$HIDETEXT
280
     1
  9
$XCLIPFRAME
290
     0
  9
$HALOGAP
280
     0
  9
$OBSCOLOR
 70
   257
  9
$OBSLTYPE
280
     0
  9
$INTERSECTIONDISPLAY
280
     0
  9
$INTERSECTIONCOLOR
 70
   257
  9
$DIMASSOC
280
     2
  9
$PROJECTNAME
  1

  0
ENDSEC
  0
SECTION
  2
CLASSES
  0
CLASS
  1
ACDBDICTIONARYWDFLT
  2
AcDbDictionaryWithDefault
  3
ObjectDBX Classes
 90
        0
 91
        4
280
     0
281
     0
  0
CLASS
  1
VISUALSTYLE
  2
AcDbVisualStyle
  3
ObjectDBX Classes
 90
     4095
 91
        4
280
     0
281
     0
  0
ENDSEC
  0
SECTION
  2
TABLES
  0
TABLE
  2
VPORT
  5
8
330
0
100
AcDbSymbolTable
 70
     1
  0
VPORT
  5
29
330
8
100
AcDbSymbolTableRecord
100
AcDbViewportTableRecord
  2
*Active
 70
     0
 10
0.0
 20
0.0
 11
1.0
 21
1.0
 12
0.0
 22
0.0
 13
0.0
 23
0.0
 14
10.0
 24
10.0
 15
10.0
 25
10.0
 16
0.0
 26
0.0
 36
1.0
 17
0.0
 27
0.0
 37
0.0
 40
3267.0
 41
1.414141414141414
 42
50.0
 43
0.0
 44
0.0
 50
0.0
 51
0.0
 71
     0
 72
 10000
 73
     1
 74
     3
 75
     0
 76
     0
 77
     0
 78
     0
281
     0
 65
     1
110
0.0
120
0.0
130
0.0
111
1.0
121
0.0
131
0.0
112
0.0
122
1.0
132
0.0
 79
     0
146
0.0
  0
ENDTAB
  0
TABLE
  2
LTYPE
  5
5
330
0
100
AcDbSymbolTable
 70
     3
  0
LTYPE
  5
14
330
5
100
AcDbSymbolTableRecord
100
AcDbLinetypeTableRecord
  2
ByBlock
 70
     0
  3

 72
    65
 73
     0
 40
0.0
  0
LTYPE
  5
15
330
5
100
AcDbSymbolTableRecord
100
AcDbLinetypeTableRecord
  2
ByLayer
 70
     0
  3

 72
    65
 73
     0
 40
0.0
  0
LTYPE
  5
16
330
5
100
AcDbSymbolTableRecord
100
AcDbLinetypeTableRecord
  2
Continuous
 70
     0
  3
Solid line
 72
    65
 73
     0
 40
0.0
  0
LTYPE
  5
3C
330
5
100
AcDbSymbolTableRecord
100
AcDbLinetypeTableRecord
  2
JWW_CENTER1
 70
     0
  3
-----  --  ----------  --  -----
 72
    65
 73
     4
 40
6.773333333333333
 49
4.233333333333333
 74
     0
 49
-0.8466666666666667
 74
     0
 49
0.8466666666666667
 74
     0
 49
-0.8466666666666667
 74
     0
  0
LTYPE
  5
3D
330
5
100
AcDbSymbolTableRecord
100
AcDbLinetypeTableRecord
  2
JWW_DASHED1
 70
     0
  3
-  --  --  --  --  --  --  --  -
 72
    65
 73
     2
 40
0.508
 49
0.254
 74
     0
 49
-0.254
 74
     0
  0
ENDTAB
  0
TABLE
  2
LAYER
  5
2
330
0
100
AcDbSymbolTable
 70
     6
  0
LAYER
  5
10
330
2
100
AcDbSymbolTableRecord
100
AcDbLayerTableRecord
  2
0
 70
     0
 62
     7
  6
Continuous
370
    -3
390
F
  0
LAYER
  5
3E
330
2
100
AcDbSymbolTableRecord
100
AcDbLayerTableRecord
  2
1-4
 70
     0
 62
     7
  6
Continuous
370
    -3
390
F
  0
LAYER
  5
3F
330
2
100
AcDbSymbolTableRecord
100
AcDbLayerTableRecord
  2
1-2
 70
     0
 62
     7
  6
Continuous
370
    -3
390
F
  0
LAYER
  5
40
330
2
100
AcDbSymbolTableRecord
100
AcDbLayerTableRecord
  2
1-1
 70
     0
 62
     7
  6
Continuous
370
    -3
390
F
  0
LAYER
  5
41
330
2
100
AcDbSymbolTableRecord
100
AcDbLayerTableRecord
  2
1-5
 70
     0
 62
     7
  6
Continuous
370
    -3
390
F
  0
LAYER
  5
42
330
2
100
AcDbSymbolTableRecord
100
AcDbLayerTableRecord
  2
A-5
 70
     0
 62
     7
  6
Continuous
370
    -3
390
F
  0
ENDTAB
  0
TABLE
  2
STYLE
  5
3
330
0
100
AcDbSymbolTable
 70
     2
  0
STYLE
  5
11
330
3
100
AcDbSymbolTableRecord
100
AcDbTextStyleTableRecord
  2
Standard
 70
     0
 40
0.0
 41
1.0
 50
0.0
 71
     0
 42
2.5
  3
txt
  4

1001
ACAD
1000

1071
        0
  0
STYLE
  5
3B
330
3
100
AcDbSymbolTableRecord
100
AcDbTextStyleTableRecord
  2
ＭＳ ゴシック
 70
     0
 40
1.0
 41
1.0
 50
0.0
 71
     0
 42
10.0
  3

  4

1001
ACAD
1000
MS Gothic
1071
    32817
  0
ENDTAB
  0
TABLE
  2
VIEW
  5
6
330
0
100
AcDbSymbolTable
 70
     0
  0
ENDTAB
  0
TABLE
  2
UCS
  5
7
330
0
100
AcDbSymbolTable
 70
     0
  0
ENDTAB
  0
TABLE
  2
APPID
  5
9
330
0
100
AcDbSymbolTable
 70
     1
  0
APPID
  5
12
330
9
100
AcDbSymbolTableRecord
100
AcDbRegAppTableRecord
  2
ACAD
 70
     0
  0
ENDTAB
  0
TABLE
  2
DIMSTYLE
  5
A
330
0
100
AcDbSymbolTable
 70
     1
100
AcDbDimStyleTable
  0
DIMSTYLE
105
27
330
A
100
AcDbSymbolTableRecord
100
AcDbDimStyleTableRecord
  2
ISO-25
 70
     0
 41
2.5
 42
0.625
 43
3.75
 44
1.25
 73
     0
 74
     0
 77
     1
 78
     8
140
2.5
141
2.5
143
0.03937007874016
147
0.625
171
     3
172
     1
271
     2
272
     2
274
     3
278
    44
283
     0
284
     8
340
11
  0
ENDTAB
  0
TABLE
  2
BLOCK_RECORD
  5
1
330
0
100
AcDbSymbolTable
 70
     1
  0
BLOCK_RECORD
  5
1F
330
1
100
AcDbSymbolTableRecord
100
AcDbBlockTableRecord
  2
*Model_Space
340
22
  0
BLOCK_RECORD
  5
1B
330
1
100
AcDbSymbolTableRecord
100
AcDbBlockTableRecord
  2
*Paper_Space
340
1E
  0
BLOCK_RECORD
  5
23
330
1
100
AcDbSymbolTableRecord
100
AcDbBlockTableRecord
  2
*Paper_Space0
340
26
  0
ENDTAB
  0
ENDSEC
  0
SECTION
  2
BLOCKS
  0
BLOCK
  5
20
330
1F
100
AcDbEntity
  8
0
100
AcDbBlockBegin
  2
*Model_Space
 70
     0
 10
0.0
 20
0.0
 30
0.0
  3
*Model_Space
  1

  0
ENDBLK
  5
21
330
1F
100
AcDbEntity
  8
0
100
AcDbBlockEnd
  0
BLOCK
  5
1C
330
1B
100
AcDbEntity
 67
     1
  8
0
100
AcDbBlockBegin
  2
*Paper_Space
 70
     0
 10
0.0
 20
0.0
 30
0.0
  3
*Paper_Space
  1

  0
ENDBLK
  5
1D
330
1B
100
AcDbEntity
 67
     1
  8
0
100
AcDbBlockEnd
  0
BLOCK
  5
24
330
23
100
AcDbEntity
  8
0
100
AcDbBlockBegin
  2
*Paper_Space0
 70
     0
 10
0.0
 20
0.0
 30
0.0
  3
*Paper_Space0
  1

  0
ENDBLK
  5
25
330
23
100
AcDbEntity
  8
0
100
AcDbBlockEnd
  0
ENDSEC
  0
SECTION
  2
ENTITIES
  0
LINE
  5
43
330
1F
100
AcDbEntity
  8
1-4
  6
Continuous
 62
     2
370
     9
100
AcDbLine
 10
338.4387866870779
 20
-633.789441907728
 30
0.0
 11
338.4387866870779
 21
-583.7886583482897
 31
0.0
  0
LINE
  5
44
330
1F
100
AcDbEntity
  8
1-4
  6
Continuous
 62
     2
370
     9
100
AcDbLine
 10
338.4387866870779
 20
-583.7886583482897
 30
0.0
 11
563.4387866870776
 21
-583.7886583482897
 31
0.0
  0
LINE
  5
45
330
1F
100
AcDbEntity
  8
1-4
  6
Continuous
 62
     2
370
     9
100
AcDbLine
 10
563.4387866870776
 20
-583.7886583482897
 30
0.0
 11
563.4387866870776
 21
-633.789441907728
 31
0.0
  0
LINE
  5
46
330
1F
100
AcDbEntity
  8
1-4
  6
Continuous
 62
     2
370
     9
100
AcDbLine
 10
563.4387866870776
 20
-633.789441907728
 30
0.0
 11
338.4387866870779
 21
-633.789441907728
 31
0.0
  0
LINE
  5
47
330
1F
100
AcDbEntity
  8
1-2
  6
Continuous
 62
     3
370
     9
100
AcDbLine
 10
-993.3010204418285
 20
-530.3023137273015
 30
0.0
 11
-968.3011854017103
 21
-524.9526647619298
 31
0.0
  0
LINE
  5
48
330
1F
100
AcDbEntity
  8
1-2
  6
Continuous
 62
     3
370
     9
100
AcDbLine
 10
-993.3010204418285
 20
-532.8588619747677
 30
0.0
 11
-968.3011854017103
 21
-527.5093367293074
 31
0.0
  0
LINE
  5
49
330
1F
100
AcDbEntity
  8
1-2
  6
Continuous
 62
     3
370
     9
100
AcDbLine
 10
-993.3010204418285
 20
-558.4249630489865
 30
0.0
 11
-968.3011854017103
 21
-553.0748192039696
 31
0.0
  0
LINE
  5
4A
330
1F
100
AcDbEntity
  8
1-2
  6
Continuous
 62
     3
370
     9
100
AcDbLine
 10
-993.3010204418285
 20
-560.9815112964526
 30
0.0
 11
-968.3011854017103
 21
-555.6321097709036
 31
0.0
  0
LINE
  5
4B
330
1F
100
AcDbEntity
  8
1-2
  6
Continuous
 62
     3
370
     9
100
AcDbLine
 10
-968.3011854017103
 20
-588.368027145798
 30
0.0
 11
-993.3010204418285
 21
-583.0183781804265
 31
0.0
  0
LINE
  5
4C
330
1F
100
AcDbEntity
  8
1-2
  6
Continuous
 62
     3
370
     9
100
AcDbLine
 10
-968.3011854017103
 20
-590.9245753932644
 30
0.0
 11
-993.3010204418285
 21
-585.5752975876267
 31
0.0
  0
LINE
  5
4D
330
1F
100
AcDbEntity
  8
1-2
  6
Continuous
 62
     3
370
     9
100
AcDbLine
 10
-478.7726737357474
 20
-550.2319830817145
 30
0.0
 11
-476.2161254882812
 21
-557.7318841057854
 31
0.0
  0
LINE
  5
4E
330
1F
100
AcDbEntity
  8
1-2
  6
Continuous
 62
     3
370
     9
100
AcDbLine
 10
-470.4997707057643
 20
-557.7318841057854
 30
0.0
 11
-476.2161254882812
 21
-557.7318841057854
 31
0.0
  0
LINE
  5
4F
330
1F
100
AcDbEntity
  8
1-2
  6
Continuous
 62
     3
370
     9
100
AcDbLine
 10
-478.7726737357474
 20
-550.2319830817145
 30
0.0
 11
-500.8096643396325
 21
-550.2319830817145
 31
0.0
  0
LINE
  5
50
330
1F
100
AcDbEntity
  8
1-2
  6
Continuous
 62
     3
370
     9
100
AcDbLine
 10
-500.8096643396325
 20
-550.2319830817145
 30
0.0
 11
-503.3662125870987
 21
-557.7318841057854
 31
0.0
  0
LINE
  5
51
330
1F
100
AcDbEntity
  8
1-2
  6
Continuous
 62
     3
370
     9
100
AcDbLine
 10
-503.3662125870987
 20
-557.7318841057854
 30
0.0
 11
-528.9321899414062
 21
-557.7318841057854
 31
0.0
  0
LINE
  5
52
330
1F
100
AcDbEntity
  8
1-2
  6
Continuous
 62
     3
370
     9
100
AcDbLine
 10
-531.4887381888724
 20
-550.2319830817145
 30
0.0
 11
-528.9321899414062
 21
-557.7318841057854
 31
0.0
  0
LINE
  5
53
330
1F
100
AcDbEntity
  8
1-2
  6
Continuous
 62
     3
370
     9
100
AcDbLine
 10
-531.4887381888724
 20
-550.2319830817145
 30
0.0
 11
-564.225521603146
 21
-550.2319830817145
 31
0.0
  0
LINE
  5
54
330
1F
100
AcDbEntity
  8
1-2
  6
Continuous
 62
     3
370
     9
100
AcDbLine
 10
-564.225521603146
 20
-550.2319830817145
 30
0.0
 11
-566.7820698506123
 21
-557.7318841057854
 31
0.0
  0
LINE
  5
55
330
1F
100
AcDbEntity
  8
1-2
  6
Continuous
 62
     3
370
     9
100
AcDbLine
 10
-993.3010204418285
 20
-646.4341117240286
 30
0.0
 11
-968.3011854017103
 21
-641.0847101984797
 31
0.0
  0
LINE
  5
56
330
1F
100
AcDbEntity
  8
1-2
  6
Continuous
 62
     3
370
     9
100
AcDbLine
 10
-993.3010204418285
 20
-613.6975757495776
 30
0.0
 11
-968.3011854017103
 21
-619.0477195945946
 31
0.0
  0
LINE
  5
57
330
1F
100
AcDbEntity
  8
1-2
  6
Continuous
 62
     3
370
     9
100
AcDbLine
 10
-993.3010204418285
 20
-611.1410275021115
 30
0.0
 11
-968.3011854017103
 21
-616.4910476272171
 31
0.0
  0
LINE
  5
58
330
1F
100
AcDbEntity
  8
1-2
  6
Continuous
 62
     3
370
     9
100
AcDbLine
 10
-993.3010204418285
 20
-648.9909074113176
 30
0.0
 11
-968.3011854017103
 21
-643.6412584459459
 31
0.0
  0
LINE
  5
59
330
1F
100
AcDbEntity
  8
1-2
  6
Continuous
 62
     3
370
     9
100
AcDbLine
 10
-993.3010204418285
 20
-674.556884765625
 30
0.0
 11
-968.3011854017103
 21
-669.2069883604307
 31
0.0
  0
LINE
  5
5A
330
1F
100
AcDbEntity
  8
1-2
  6
Continuous
 62
     3
370
     9
100
AcDbLine
 10
-993.3010204418285
 20
-677.1136804529137
 30
0.0
 11
-968.3011854017103
 21
-671.7641552074535
 31
0.0
  0
LINE
  5
5B
330
1F
100
AcDbEntity
  8
1-2
  6
Continuous
 62
     3
370
     9
100
AcDbLine
 10
-968.3011854017103
 20
-704.4998251425252
 30
0.0
 11
-993.3010204418285
 21
-699.1504236169762
 31
0.0
  0
LINE
  5
5C
330
1F
100
AcDbEntity
  8
1-2
  6
Continuous
 62
     3
370
     9
100
AcDbLine
 10
-968.3011854017103
 20
-707.0566208298142
 30
0.0
 11
-993.3010204418285
 21
-701.7072193042651
 31
0.0
  0
LINE
  5
5D
330
1F
100
AcDbEntity
  8
1-2
  6
Continuous
 62
     3
370
     9
100
AcDbLine
 10
-594.9045954523859
 20
-550.2319830817145
 30
0.0
 11
-616.941586056271
 21
-550.2319830817145
 31
0.0
  0
LINE
  5
5E
330
1F
100
AcDbEntity
  8
1-2
  6
Continuous
 62
     3
370
     9
100
AcDbLine
 10
-616.941586056271
 20
-550.2319830817145
 30
0.0
 11
-619.4981343037373
 21
-557.7318841057854
 31
0.0
  0
LINE
  5
5F
330
1F
100
AcDbEntity
  8
1-2
  6
Continuous
 62
     3
370
     9
100
AcDbLine
 10
-619.4981343037373
 20
-557.7318841057854
 30
0.0
 11
-645.0641116580448
 21
-557.7318841057854
 31
0.0
  0
LINE
  5
60
330
1F
100
AcDbEntity
  8
1-2
  6
Continuous
 62
     3
370
     9
100
AcDbLine
 10
-647.6211547851562
 20
-550.2319830817145
 30
0.0
 11
-645.0641116580448
 21
-557.7318841057854
 31
0.0
  0
LINE
  5
61
330
1F
100
AcDbEntity
  8
1-2
  6
Continuous
 62
     3
370
     9
100
AcDbLine
 10
-647.6211547851562
 20
-550.2319830817145
 30
0.0
 11
-680.3574433197846
 21
-550.2319830817145
 31
0.0
  0
LINE
  5
62
330
1F
100
AcDbEntity
  8
1-2
  6
Continuous
 62
     3
370
     9
100
AcDbLine
 10
-680.3574433197846
 20
-550.2319830817145
 30
0.0
 11
-682.9139915672508
 21
-557.7318841057854
 31
0.0
  0
LINE
  5
63
330
1F
100
AcDbEntity
  8
1-2
  6
Continuous
 62
     3
370
     9
100
AcDbLine
 10
-594.9045954523859
 20
-550.2319830817145
 30
0.0
 11
-592.3480472049198
 21
-557.7318841057854
 31
0.0
  0
LINE
  5
64
330
1F
100
AcDbEntity
  8
1-2
  6
Continuous
 62
     3
370
     9
100
AcDbLine
 10
-566.7820698506123
 20
-557.7318841057854
 30
0.0
 11
-592.3480472049198
 21
-557.7318841057854
 31
0.0
  0
LINE
  5
65
330
1F
100
AcDbEntity
  8
1-2
  6
Continuous
 62
     3
370
     9
100
AcDbLine
 10
-711.0365171690245
 20
-550.2319830817145
 30
0.0
 11
-733.0735077729096
 21
-550.2319830817145
 31
0.0
  0
LINE
  5
66
330
1F
100
AcDbEntity
  8
1-2
  6
Continuous
 62
     3
370
     9
100
AcDbLine
 10
-733.0735077729096
 20
-550.2319830817145
 30
0.0
 11
-735.6300560203758
 21
-557.7318841057854
 31
0.0
  0
LINE
  5
67
330
1F
100
AcDbEntity
  8
1-2
  6
Continuous
 62
     3
370
     9
100
AcDbLine
 10
-735.6300560203758
 20
-557.7318841057854
 30
0.0
 11
-761.1960333746833
 21
-557.7318841057854
 31
0.0
  0
LINE
  5
68
330
1F
100
AcDbEntity
  8
1-2
  6
Continuous
 62
     3
370
     9
100
AcDbLine
 10
-763.7530765017948
 20
-550.2319830817145
 30
0.0
 11
-761.1960333746833
 21
-557.7318841057854
 31
0.0
  0
LINE
  5
69
330
1F
100
AcDbEntity
  8
1-2
  6
Continuous
 62
     3
370
     9
100
AcDbLine
 10
-763.7530765017948
 20
-550.2319830817145
 30
0.0
 11
-796.4893650364231
 21
-550.2319830817145
 31
0.0
  0
LINE
  5
6A
330
1F
100
AcDbEntity
  8
1-2
  6
Continuous
 62
     3
370
     9
100
AcDbLine
 10
-796.4893650364231
 20
-550.2319830817145
 30
0.0
 11
-799.0459132838894
 21
-557.7318841057854
 31
0.0
  0
LINE
  5
6B
330
1F
100
AcDbEntity
  8
1-2
  6
Continuous
 62
     3
370
     9
100
AcDbLine
 10
-711.0365171690245
 20
-550.2319830817145
 30
0.0
 11
-708.4799689215583
 21
-557.7318841057854
 31
0.0
  0
LINE
  5
6C
330
1F
100
AcDbEntity
  8
1-2
  6
Continuous
 62
     3
370
     9
100
AcDbLine
 10
-682.9139915672508
 20
-557.7318841057854
 30
0.0
 11
-708.4799689215583
 21
-557.7318841057854
 31
0.0
  0
LINE
  5
6D
330
1F
100
AcDbEntity
  8
1-2
  6
Continuous
 62
     3
370
     9
100
AcDbLine
 10
-827.1684388856629
 20
-550.2319830817145
 30
0.0
 11
-849.205429489548
 21
-550.2319830817145
 31
0.0
  0
LINE
  5
6E
330
1F
100
AcDbEntity
  8
1-2
  6
Continuous
 62
     3
370
     9
100
AcDbLine
 10
-849.205429489548
 20
-550.2319830817145
 30
0.0
 11
-851.7619777370144
 21
-557.7318841057854
 31
0.0
  0
LINE
  5
6F
330
1F
100
AcDbEntity
  8
1-2
  6
Continuous
 62
     3
370
     9
100
AcDbLine
 10
-827.1684388856629
 20
-550.2319830817145
 30
0.0
 11
-824.6118906381968
 21
-557.7318841057854
 31
0.0
  0
LINE
  5
70
330
1F
100
AcDbEntity
  8
1-2
  6
Continuous
 62
     3
370
     9
100
AcDbLine
 10
-799.0459132838894
 20
-557.7318841057854
 30
0.0
 11
-824.6118906381968
 21
-557.7318841057854
 31
0.0
  0
LINE
  5
71
330
1F
100
AcDbEntity
  8
1-2
  6
Continuous
 62
     3
370
     9
100
AcDbLine
 10
-851.7619777370144
 20
-557.7318841057854
 30
0.0
 11
-867.014168404244
 21
-557.7318841057854
 31
0.0
  0
LINE
  5
72
330
1F
100
AcDbEntity
  8
1-2
  6
Continuous
 62
     3
370
     9
100
AcDbLine
 10
-470.4997707057643
 20
-682.7322965054898
 30
0.0
 11
-867.014168404244
 21
-682.7322965054898
 31
0.0
  0
LINE
  5
73
330
1F
100
AcDbEntity
  8
1-2
  6
Continuous
 62
     3
370
     9
100
AcDbLine
 10
-470.4997707057643
 20
-660.2318511138092
 30
0.0
 11
-867.014168404244
 21
-660.2318511138092
 31
0.0
  0
LINE
  5
74
330
1F
100
AcDbEntity
  8
1-2
  6
Continuous
 62
     3
370
     9
100
AcDbLine
 10
-470.4997707057643
 20
-655.2324532173775
 30
0.0
 11
-867.014168404244
 21
-655.2324532173775
 31
0.0
  0
LINE
  5
75
330
1F
100
AcDbEntity
  8
1-2
  6
Continuous
 62
     3
370
     9
100
AcDbLine
 10
-470.4997707057643
 20
-580.2320820576435
 30
0.0
 11
-867.014168404244
 21
-580.2320820576435
 31
0.0
  0
LINE
  5
76
330
1F
100
AcDbEntity
  8
1-2
  6
Continuous
 62
     3
370
     9
100
AcDbLine
 10
-470.4997707057643
 20
-585.2319748337204
 30
0.0
 11
-867.014168404244
 21
-585.2319748337204
 31
0.0
  0
LINE
  5
77
330
1F
100
AcDbEntity
  8
1-2
  6
Continuous
 62
     3
370
     9
100
AcDbLine
 10
-334.7216219515414
 20
-557.7318841057854
 30
0.0
 11
-309.7217869114232
 21
-557.7318841057854
 31
0.0
  0
LINE
  5
78
330
1F
100
AcDbEntity
  8
1-2
  6
Continuous
 62
     3
370
     9
100
AcDbLine
 10
-309.7217869114232
 20
-682.7322965054898
 30
0.0
 11
-334.7216219515414
 21
-682.7322965054898
 31
0.0
  0
LINE
  5
79
330
1F
100
AcDbEntity
  8
1-2
  6
Continuous
 62
     3
370
     9
100
AcDbLine
 10
-309.7217869114232
 20
-660.2318511138092
 30
0.0
 11
-309.7217869114232
 21
-682.7322965054898
 31
0.0
  0
LINE
  5
7A
330
1F
100
AcDbEntity
  8
1-2
  6
Continuous
 62
     3
370
     9
100
AcDbLine
 10
-314.7220508472338
 20
-655.2319583377322
 30
0.0
 11
-309.7217869114232
 21
-660.2318511138092
 31
0.0
  0
LINE
  5
7B
330
1F
100
AcDbEntity
  8
1-2
  6
Continuous
 62
     3
370
     9
100
AcDbLine
 10
-334.7216219515414
 20
-682.7322965054898
 30
0.0
 11
-334.7216219515414
 21
-660.2318511138092
 31
0.0
  0
LINE
  5
7C
330
1F
100
AcDbEntity
  8
1-2
  6
Continuous
 62
     3
370
     9
100
AcDbLine
 10
-334.7216219515414
 20
-660.2318511138092
 30
0.0
 11
-329.7218528953758
 21
-655.2319583377322
 31
0.0
  0
LINE
  5
7D
330
1F
100
AcDbEntity
  8
1-2
  6
Continuous
 62
     3
370
     9
100
AcDbLine
 10
-334.7216219515414
 20
-580.2320820576435
 30
0.0
 11
-334.7216219515414
 21
-550.2324779613598
 31
0.0
  0
LINE
  5
7E
330
1F
100
AcDbEntity
  8
1-2
  6
Continuous
 62
     3
370
     9
100
AcDbLine
 10
-334.7216219515414
 20
-580.2320820576435
 30
0.0
 11
-329.7218528953758
 21
-585.2319748337204
 31
0.0
  0
LINE
  5
7F
330
1F
100
AcDbEntity
  8
1-2
  6
Continuous
 62
     3
370
     9
100
AcDbLine
 10
-329.7218528953758
 20
-655.2319583377322
 30
0.0
 11
-329.7218528953758
 21
-585.2319748337204
 31
0.0
  0
LINE
  5
80
330
1F
100
AcDbEntity
  8
1-2
  6
Continuous
 62
     3
370
     9
100
AcDbLine
 10
-314.7220508472338
 20
-585.2319748337204
 30
0.0
 11
-314.7220508472338
 21
-655.2319583377322
 31
0.0
  0
LINE
  5
81
330
1F
100
AcDbEntity
  8
1-2
  6
Continuous
 62
     3
370
     9
100
AcDbLine
 10
-314.7220508472338
 20
-585.2319748337204
 30
0.0
 11
-309.7217869114232
 21
-580.2320820576435
 31
0.0
  0
LINE
  5
82
330
1F
100
AcDbEntity
  8
1-2
  6
Continuous
 62
     3
370
     9
100
AcDbLine
 10
-309.7217869114232
 20
-550.2324779613598
 30
0.0
 11
-309.7217869114232
 21
-580.2320820576435
 31
0.0
  0
LINE
  5
83
330
1F
100
AcDbEntity
  8
1-2
  6
Continuous
 62
     3
370
     9
100
AcDbLine
 10
-334.7216219515414
 20
-550.2324779613598
 30
0.0
 11
-309.7217869114232
 21
-550.2324779613598
 31
0.0
  0
LINE
  5
84
330
1F
100
AcDbEntity
  8
1-4
  6
Continuous
 62
     7
370
     9
100
AcDbLine
 10
-187.2756958007812
 20
-682.7322965054898
 30
0.0
 11
-187.2756958007812
 21
-557.7318841057854
 31
0.0
  0
LINE
  5
85
330
1F
100
AcDbEntity
  8
1-4
  6
Continuous
 62
     7
370
     9
100
AcDbLine
 10
-290.9475378088047
 20
-682.7322965054898
 30
0.0
 11
-184.2757353911529
 21
-682.7322965054898
 31
0.0
  0
LINE
  5
86
330
1F
100
AcDbEntity
  8
1-4
  6
Continuous
 62
     7
370
     9
100
AcDbLine
 10
-290.9475378088047
 20
-557.7318841057854
 30
0.0
 11
-184.2757353911529
 21
-557.7318841057854
 31
0.0
  0
LINE
  5
87
330
1F
100
AcDbEntity
  8
1-4
  6
Continuous
 62
     7
370
     9
100
AcDbLine
 10
-187.2756958007812
 20
-682.7322965054898
 30
0.0
 11
-190.5389321816932
 21
-657.9457545924831
 31
0.0
  0
LINE
  5
88
330
1F
100
AcDbEntity
  8
1-4
  6
Continuous
 62
     7
370
     9
100
AcDbLine
 10
-187.2756958007812
 20
-682.7322965054898
 30
0.0
 11
-184.0130780194255
 21
-657.9457545924831
 31
0.0
  0
LINE
  5
89
330
1F
100
AcDbEntity
  8
1-4
  6
Continuous
 62
     7
370
     9
100
AcDbLine
 10
-187.2756958007812
 20
-557.7318841057854
 30
0.0
 11
-190.5389321816932
 21
-582.5181785789696
 31
0.0
  0
LINE
  5
8A
330
1F
100
AcDbEntity
  8
1-4
  6
Continuous
 62
     7
370
     9
100
AcDbLine
 10
-187.2756958007812
 20
-557.7318841057854
 30
0.0
 11
-184.0130780194255
 21
-582.5181785789696
 31
0.0
  0
LINE
  5
8B
330
1F
100
AcDbEntity
  8
1-2
  6
Continuous
 62
     3
370
     9
100
AcDbLine
 10
-993.3010204418285
 20
-729.8294974662161
 30
0.0
 11
-968.3011854017103
 21
-735.1796413112331
 31
0.0
  0
LINE
  5
8C
330
1F
100
AcDbEntity
  8
1-2
  6
Continuous
 62
     3
370
     9
100
AcDbLine
 10
-993.3010204418285
 20
-727.27294921875
 30
0.0
 11
-968.3011854017103
 21
-732.6228456239443
 31
0.0
  0
LINE
  5
8D
330
1F
100
AcDbEntity
  8
1-2
  6
Continuous
 62
     3
370
     9
100
AcDbLine
 10
-984.5639203045819
 20
-530.9892066749366
 30
0.0
 11
-968.3011854017103
 21
-547.2520652977196
 31
0.0
  0
LINE
  5
8E
330
1F
100
AcDbEntity
  8
1-2
  6
Continuous
 62
     3
370
     9
100
AcDbLine
 10
-975.8273150469804
 20
-529.1196750950168
 30
0.0
 11
-968.3011854017103
 21
-536.6458047402871
 31
0.0
  0
LINE
  5
8F
330
1F
100
AcDbEntity
  8
1-2
  6
Continuous
 62
     3
370
     9
100
AcDbLine
 10
-993.3010204418285
 20
-532.8588619747677
 30
0.0
 11
-972.2419120169974
 21
-553.9183415593327
 31
0.0
  0
LINE
  5
90
330
1F
100
AcDbEntity
  8
1-2
  6
Continuous
 62
     3
370
     9
100
AcDbLine
 10
-993.3010204418285
 20
-543.4656174118454
 30
0.0
 11
-980.9785172745987
 21
-555.7883680188978
 31
0.0
  0
LINE
  5
91
330
1F
100
AcDbEntity
  8
1-2
  6
Continuous
 62
     3
370
     9
100
AcDbLine
 10
-993.3010204418285
 20
-554.072372848923
 30
0.0
 11
-989.7156174118454
 21
-557.6574047191723
 31
0.0
  0
LINE
  5
92
330
1F
100
AcDbEntity
  8
1-2
  6
Continuous
 62
     3
370
     9
100
AcDbLine
 10
-993.3010204418285
 20
-606.7883135821367
 30
0.0
 11
-987.7631934913428
 21
-612.3261405326224
 31
0.0
  0
LINE
  5
93
330
1F
100
AcDbEntity
  8
1-2
  6
Continuous
 62
     3
370
     9
100
AcDbLine
 10
-993.3010204418285
 20
-596.1818055848818
 30
0.0
 11
-974.2689390440245
 21
-615.2135158229519
 31
0.0
  0
LINE
  5
94
330
1F
100
AcDbEntity
  8
1-2
  6
Continuous
 62
     3
370
     9
100
AcDbLine
 10
-993.3010204418285
 20
-585.5752975876267
 30
0.0
 11
-968.3011854017103
 21
-610.5746377480996
 31
0.0
  0
LINE
  5
95
330
1F
100
AcDbEntity
  8
1-2
  6
Continuous
 62
     3
370
     9
100
AcDbLine
 10
-979.8066422745987
 20
-588.46304403769
 30
0.0
 11
-968.3011854017103
 21
-599.9686246304898
 31
0.0
  0
LINE
  5
96
330
1F
100
AcDbEntity
  8
1-2
  6
Continuous
 62
     3
370
     9
100
AcDbLine
 10
-984.5639203045819
 20
-647.1212521114865
 30
0.0
 11
-968.3011854017103
 21
-663.3842344541807
 31
0.0
  0
LINE
  5
97
330
1F
100
AcDbEntity
  8
1-2
  6
Continuous
 62
     3
370
     9
100
AcDbLine
 10
-975.8273150469804
 20
-645.2515968116553
 30
0.0
 11
-968.3011854017103
 21
-652.777850176837
 31
0.0
  0
LINE
  5
98
330
1F
100
AcDbEntity
  8
1-2
  6
Continuous
 62
     3
370
     9
100
AcDbLine
 10
-993.3010204418285
 20
-648.9909074113176
 30
0.0
 11
-972.2419120169974
 21
-670.0502632759712
 31
0.0
  0
LINE
  5
99
330
1F
100
AcDbEntity
  8
1-2
  6
Continuous
 62
     3
370
     9
100
AcDbLine
 10
-993.3010204418285
 20
-659.5976628483952
 30
0.0
 11
-980.9785172745987
 21
-671.920166015625
 31
0.0
  0
LINE
  5
9A
330
1F
100
AcDbEntity
  8
1-2
  6
Continuous
 62
     3
370
     9
100
AcDbLine
 10
-993.3010204418285
 20
-670.2042945655616
 30
0.0
 11
-989.7156174118454
 21
-673.7895738756334
 31
0.0
  0
LINE
  5
9B
330
1F
100
AcDbEntity
  8
1-2
  6
Continuous
 62
     3
370
     9
100
AcDbLine
 10
-993.3010204418285
 20
-722.9202352987752
 30
0.0
 11
-987.7631934913428
 21
-728.4579385293496
 31
0.0
  0
LINE
  5
9C
330
1F
100
AcDbEntity
  8
1-2
  6
Continuous
 62
     3
370
     9
100
AcDbLine
 10
-993.3010204418285
 20
-712.3137273015202
 30
0.0
 11
-974.2689390440245
 21
-731.3455612595017
 31
0.0
  0
LINE
  5
9D
330
1F
100
AcDbEntity
  8
1-2
  6
Continuous
 62
     3
370
     9
100
AcDbLine
 10
-993.3010204418285
 20
-701.7072193042651
 30
0.0
 11
-968.3011854017103
 21
-726.7065594647381
 31
0.0
  0
LINE
  5
9E
330
1F
100
AcDbEntity
  8
1-2
  6
Continuous
 62
     3
370
     9
100
AcDbLine
 10
-979.8066422745987
 20
-704.5948420344172
 30
0.0
 11
-968.3011854017103
 21
-716.1000514674831
 31
0.0
  0
LINE
  5
9F
330
1F
100
AcDbEntity
  8
1-2
  6
Continuous
 62
     3
370
     9
100
AcDbLine
 10
-968.3011854017103
 20
-472.2362291490708
 30
0.0
 11
-993.3010204418285
 21
-466.8864564637879
 31
0.0
  0
LINE
  5
A0
330
1F
100
AcDbEntity
  8
1-2
  6
Continuous
 62
     3
370
     9
100
AcDbLine
 10
-968.3011854017103
 20
-474.7926536766258
 30
0.0
 11
-993.3010204418285
 21
-469.4433758709881
 31
0.0
  0
LINE
  5
A1
330
1F
100
AcDbEntity
  8
1-2
  6
Continuous
 62
     3
370
     9
100
AcDbLine
 10
-993.3010204418285
 20
-497.5656540329392
 30
0.0
 11
-968.3011854017103
 21
-502.915797877956
 31
0.0
  0
LINE
  5
A2
330
1F
100
AcDbEntity
  8
1-2
  6
Continuous
 62
     3
370
     9
100
AcDbLine
 10
-993.3010204418285
 20
-495.0091057854729
 30
0.0
 11
-968.3011854017103
 21
-500.3588784707558
 31
0.0
  0
LINE
  5
A3
330
1F
100
AcDbEntity
  8
1-2
  6
Continuous
 62
     3
370
     9
100
AcDbLine
 10
-993.3010204418285
 20
-490.6563918654983
 30
0.0
 11
-987.7631934913428
 21
-496.1944662558065
 31
0.0
  0
LINE
  5
A4
330
1F
100
AcDbEntity
  8
1-2
  6
Continuous
 62
     3
370
     9
100
AcDbLine
 10
-993.3010204418285
 20
-480.0498838682432
 30
0.0
 11
-974.2689390440245
 21
-499.0818415461359
 31
0.0
  0
LINE
  5
A5
330
1F
100
AcDbEntity
  8
1-2
  6
Continuous
 62
     3
370
     9
100
AcDbLine
 10
-993.3010204418285
 20
-469.4433758709881
 30
0.0
 11
-968.3011854017103
 21
-494.4432109111063
 31
0.0
  0
LINE
  5
A6
330
1F
100
AcDbEntity
  8
1-2
  6
Continuous
 62
     3
370
     9
100
AcDbLine
 10
-979.8066422745987
 20
-472.3307511613176
 30
0.0
 11
-968.3011854017103
 21
-483.8367029138513
 31
0.0
  0
LINE
  5
A7
330
1F
100
AcDbEntity
  8
1-2
  6
Continuous
 62
     3
370
     9
100
AcDbLine
 10
-968.3011854017103
 20
-455.1084446262668
 30
0.0
 11
-968.3011854017103
 21
-746.5831529771959
 31
0.0
  0
LINE
  5
A8
330
1F
100
AcDbEntity
  8
1-2
  6
Continuous
 62
     3
370
     9
100
AcDbLine
 10
-993.3010204418285
 20
-455.1084446262668
 30
0.0
 11
-993.3010204418285
 21
-746.5831529771959
 31
0.0
  0
LINE
  5
A9
330
1F
100
AcDbEntity
  8
1-4
  6
Continuous
 62
     7
370
     9
100
AcDbLine
 10
-1010.237781421558
 20
-674.556884765625
 30
0.0
 11
-1063.932222933382
 21
-674.556884765625
 31
0.0
  0
LINE
  5
AA
330
1F
100
AcDbEntity
  8
1-4
  6
Continuous
 62
     7
370
     9
100
AcDbLine
 10
-1010.237781421558
 20
-701.7072193042651
 30
0.0
 11
-1063.932222933382
 21
-701.7072193042651
 31
0.0
  0
LINE
  5
AB
330
1F
100
AcDbEntity
  8
1-4
  6
Continuous
 62
     7
370
     9
100
AcDbLine
 10
-1060.9327574034
 20
-674.556884765625
 30
0.0
 11
-1064.195498904666
 21
-649.7709614521748
 31
0.0
  0
LINE
  5
AC
330
1F
100
AcDbEntity
  8
1-4
  6
Continuous
 62
     7
370
     9
100
AcDbLine
 10
-1060.9327574034
 20
-674.556884765625
 30
0.0
 11
-1057.669026142842
 21
-649.7709614521748
 31
0.0
  0
LINE
  5
AD
330
1F
100
AcDbEntity
  8
1-4
  6
Continuous
 62
     7
370
     9
100
AcDbLine
 10
-1060.9327574034
 20
-701.7072193042651
 30
0.0
 11
-1064.195498904666
 21
-726.4930188978041
 31
0.0
  0
LINE
  5
AE
330
1F
100
AcDbEntity
  8
1-4
  6
Continuous
 62
     7
370
     9
100
AcDbLine
 10
-1060.9327574034
 20
-701.7072193042651
 30
0.0
 11
-1057.669026142842
 21
-726.4930188978041
 31
0.0
  0
LINE
  5
AF
330
1F
100
AcDbEntity
  8
1-4
  6
Continuous
 62
     7
370
     9
100
AcDbLine
 10
-1010.237781421558
 20
-495.0091057854729
 30
0.0
 11
-1063.932222933382
 21
-495.0091057854729
 31
0.0
  0
LINE
  5
B0
330
1F
100
AcDbEntity
  8
1-4
  6
Continuous
 62
     7
370
     9
100
AcDbLine
 10
-1010.237781421558
 20
-532.8588619747677
 30
0.0
 11
-1063.932222933382
 21
-532.8588619747677
 31
0.0
  0
LINE
  5
B1
330
1F
100
AcDbEntity
  8
1-4
  6
Continuous
 62
     7
370
     9
100
AcDbLine
 10
-1060.9327574034
 20
-495.0091057854729
 30
0.0
 11
-1064.195498904666
 21
-470.2229350322001
 31
0.0
  0
LINE
  5
B2
330
1F
100
AcDbEntity
  8
1-4
  6
Continuous
 62
     7
370
     9
100
AcDbLine
 10
-1060.9327574034
 20
-495.0091057854729
 30
0.0
 11
-1057.669026142842
 21
-470.2229350322001
 31
0.0
  0
LINE
  5
B3
330
1F
100
AcDbEntity
  8
1-4
  6
Continuous
 62
     7
370
     9
100
AcDbLine
 10
-1060.9327574034
 20
-532.8588619747677
 30
0.0
 11
-1064.195498904666
 21
-557.6450327280405
 31
0.0
  0
LINE
  5
B4
330
1F
100
AcDbEntity
  8
1-4
  6
Continuous
 62
     7
370
     9
100
AcDbLine
 10
-1060.9327574034
 20
-532.8588619747677
 30
0.0
 11
-1057.669026142842
 21
-557.6450327280405
 31
0.0
  0
LINE
  5
B5
330
1F
100
AcDbEntity
  8
1-4
  6
Continuous
 62
     7
370
     9
100
AcDbLine
 10
-1060.9327574034
 20
-643.0570530247043
 30
0.0
 11
-1060.9327574034
 21
-740.9672587626688
 31
0.0
  0
LINE
  5
B6
330
1F
100
AcDbEntity
  8
1-4
  6
Continuous
 62
     7
370
     9
100
AcDbLine
 10
-1060.9327574034
 20
-460.5995054502745
 30
0.0
 11
-1060.9327574034
 21
-566.8173795133023
 31
0.0
  0
LINE
  5
B7
330
1F
100
AcDbEntity
  8
1-4
  6
Continuous
 62
     7
370
     9
100
AcDbLine
 10
-956.4097224055109
 20
-550.5300243480785
 30
0.0
 11
-924.393978634396
 21
-543.6794054186021
 31
0.0
  0
LINE
  5
B8
330
1F
100
AcDbEntity
  8
1-4
  6
Continuous
 62
     7
370
     9
100
AcDbLine
 10
-961.6410951356629
 20
-526.0843307907517
 30
0.0
 11
-929.6258462441933
 21
-519.2329695418074
 31
0.0
  0
LINE
  5
B9
330
1F
100
AcDbEntity
  8
1-4
  6
Continuous
 62
     7
370
     9
100
AcDbLine
 10
-927.3276251715582
 20
-544.3069128088048
 30
0.0
 11
-918.9498076567779
 21
-567.8618230046452
 31
0.0
  0
LINE
  5
BA
330
1F
100
AcDbEntity
  8
1-4
  6
Continuous
 62
     7
370
     9
100
AcDbLine
 10
-927.3276251715582
 20
-544.3069128088048
 30
0.0
 11
-925.3317755621832
 21
-569.2270722260346
 31
0.0
  0
LINE
  5
BB
330
1F
100
AcDbEntity
  8
1-4
  6
Continuous
 62
     7
370
     9
100
AcDbLine
 10
-932.5589979017103
 20
-519.8602294921875
 30
0.0
 11
-934.5548475110853
 21
-494.9399463550463
 31
0.0
  0
LINE
  5
BC
330
1F
100
AcDbEntity
  8
1-4
  6
Continuous
 62
     7
370
     9
100
AcDbLine
 10
-932.5589979017103
 20
-519.8602294921875
 30
0.0
 11
-940.9368154164906
 21
-496.3061853357263
 31
0.0
  0
LINE
  5
BD
330
1F
100
AcDbEntity
  8
1-4
  6
Continuous
 62
     7
370
     9
100
AcDbLine
 10
-921.0535410288218
 20
-573.6260573928421
 30
0.0
 11
-939.4096168311866
 21
-487.8473312790329
 31
0.0
  0
LINE
  5
BE
330
1F
100
AcDbEntity
  8
1-4
  6
Continuous
 62
     7
370
     9
100
AcDbLine
 10
-309.7217869114232
 20
-538.648211504962
 30
0.0
 11
-309.7217869114232
 21
-502.4782005516258
 31
0.0
  0
LINE
  5
BF
330
1F
100
AcDbEntity
  8
1-4
  6
Continuous
 62
     7
370
     9
100
AcDbLine
 10
-334.7216219515414
 20
-538.648211504962
 30
0.0
 11
-334.7216219515414
 21
-502.4782005516258
 31
0.0
  0
LINE
  5
C0
330
1F
100
AcDbEntity
  8
1-4
  6
Continuous
 62
     7
370
     9
100
AcDbLine
 10
-309.7217869114232
 20
-505.4782846811655
 30
0.0
 11
-284.9357398780614
 21
-502.2144297006968
 31
0.0
  0
LINE
  5
C1
330
1F
100
AcDbEntity
  8
1-4
  6
Continuous
 62
     7
370
     9
100
AcDbLine
 10
-309.7217869114232
 20
-505.4782846811655
 30
0.0
 11
-284.9357398780614
 21
-508.7415210620776
 31
0.0
  0
LINE
  5
C2
330
1F
100
AcDbEntity
  8
1-4
  6
Continuous
 62
     7
370
     9
100
AcDbLine
 10
-334.7216219515414
 20
-505.4782846811655
 30
0.0
 11
-359.5080401446367
 21
-502.2144297006968
 31
0.0
  0
LINE
  5
C3
330
1F
100
AcDbEntity
  8
1-4
  6
Continuous
 62
     7
370
     9
100
AcDbLine
 10
-334.7216219515414
 20
-505.4782846811655
 30
0.0
 11
-359.5080401446367
 21
-508.7415210620776
 31
0.0
  0
LINE
  5
C4
330
1F
100
AcDbEntity
  8
1-4
  6
Continuous
 62
     7
370
     9
100
AcDbLine
 10
-314.7220508472338
 20
-642.8973306191933
 30
0.0
 11
-289.9360038138724
 21
-639.6342179581926
 31
0.0
  0
LINE
  5
C5
330
1F
100
AcDbEntity
  8
1-4
  6
Continuous
 62
     7
370
     9
100
AcDbLine
 10
-314.7220508472338
 20
-642.8973306191933
 30
0.0
 11
-289.9360038138724
 21
-646.1606907200168
 31
0.0
  0
LINE
  5
C6
330
1F
100
AcDbEntity
  8
1-4
  6
Continuous
 62
     7
370
     9
100
AcDbLine
 10
-329.7218528953758
 20
-642.8973306191933
 30
0.0
 11
-354.5078999287372
 21
-639.6342179581926
 31
0.0
  0
LINE
  5
C7
330
1F
100
AcDbEntity
  8
1-4
  6
Continuous
 62
     7
370
     9
100
AcDbLine
 10
-329.7218528953758
 20
-642.8973306191933
 30
0.0
 11
-354.5078999287372
 21
-646.1606907200168
 31
0.0
  0
LINE
  5
C8
330
1F
100
AcDbEntity
  8
1-4
  6
Continuous
 62
     7
370
     9
100
AcDbLine
 10
-968.3011854017103
 20
-451.1353033942145
 30
0.0
 11
-968.3011854017103
 21
-415.1741316511824
 31
0.0
  0
LINE
  5
C9
330
1F
100
AcDbEntity
  8
1-4
  6
Continuous
 62
     7
370
     9
100
AcDbLine
 10
-993.3010204418285
 20
-451.1353033942145
 30
0.0
 11
-993.3010204418285
 21
-415.1741316511824
 31
0.0
  0
LINE
  5
CA
330
1F
100
AcDbEntity
  8
1-4
  6
Continuous
 62
     7
370
     9
100
AcDbLine
 10
-968.3011854017103
 20
-418.1739683408995
 30
0.0
 11
-943.5146434887035
 21
-414.9108556798985
 31
0.0
  0
LINE
  5
CB
330
1F
100
AcDbEntity
  8
1-4
  6
Continuous
 62
     7
370
     9
100
AcDbLine
 10
-968.3011854017103
 20
-418.1739683408995
 30
0.0
 11
-943.5146434887035
 21
-421.4373284417229
 31
0.0
  0
LINE
  5
CC
330
1F
100
AcDbEntity
  8
1-4
  6
Continuous
 62
     7
370
     9
100
AcDbLine
 10
-993.3010204418285
 20
-418.1739683408995
 30
0.0
 11
-1018.08706747519
 21
-414.9108556798985
 31
0.0
  0
LINE
  5
CD
330
1F
100
AcDbEntity
  8
1-4
  6
Continuous
 62
     7
370
     9
100
AcDbLine
 10
-993.3010204418285
 20
-418.1739683408995
 30
0.0
 11
-1018.08706747519
 21
-421.4373284417229
 31
0.0
  0
LINE
  5
CE
330
1F
100
AcDbEntity
  8
1-4
  6
Continuous
 62
     7
370
     9
100
AcDbLine
 10
-931.3005189637879
 20
-418.1739683408995
 30
0.0
 11
-1025.689408585832
 21
-418.1739683408995
 31
0.0
  0
LINE
  5
CF
330
1F
100
AcDbEntity
  8
1-4
  6
Continuous
 62
     7
370
     9
100
AcDbLine
 10
-243.7568045951224
 20
-782.7318841057854
 30
0.0
 11
-243.7568045951224
 21
-852.7321150496199
 31
0.0
  0
LINE
  5
D0
330
1F
100
AcDbEntity
  8
1-4
  6
Continuous
 62
     7
370
     9
100
AcDbLine
 10
-243.7568045951224
 20
-782.7318841057854
 30
0.0
 11
-1093.756639635241
 21
-782.7318841057854
 31
0.0
  0
LINE
  5
D1
330
1F
100
AcDbEntity
  8
1-4
  6
Continuous
 62
     7
370
     9
100
AcDbLine
 10
-243.7568045951224
 20
-852.7321150496199
 30
0.0
 11
-1093.756639635241
 21
-852.7321150496199
 31
0.0
  0
LINE
  5
D2
330
1F
100
AcDbEntity
  8
1-4
  6
Continuous
 62
     7
370
     9
100
AcDbLine
 10
-1093.756639635241
 20
-782.7318841057854
 30
0.0
 11
-1093.756639635241
 21
-852.7321150496199
 31
0.0
  0
LINE
  5
D3
330
1F
100
AcDbEntity
  8
1-4
  6
Continuous
 62
     7
370
     9
100
AcDbLine
 10
-271.6398084485851
 20
-642.8973306191933
 30
0.0
 11
-359.4354165566932
 21
-642.8973306191933
 31
0.0
  0
LINE
  5
D4
330
1F
100
AcDbEntity
  8
1-4
  6
Continuous
 62
     7
370
     9
100
AcDbLine
 10
-271.2088919974661
 20
-505.4782846811655
 30
0.0
 11
-373.8185985668284
 21
-505.4782846811655
 31
0.0
  0
LINE
  5
D5
330
1F
100
AcDbEntity
  8
1-4
  6
Continuous
 62
     7
370
     9
100
AcDbLine
 10
-914.085140743771
 20
-434.5100691511824
 30
0.0
 11
-664.3915124841637
 21
-434.5100691511824
 31
0.0
  0
LINE
  5
D6
330
1F
100
AcDbEntity
  8
1-4
  6
Continuous
 62
     7
370
     9
100
AcDbLine
 10
-914.085140743771
 20
-434.5100691511824
 30
0.0
 11
-974.0427790461359
 21
-516.9239848368876
 31
0.0
  0
LINE
  5
D7
330
1F
100
AcDbEntity
  8
1-4
  6
Continuous
 62
     7
370
     9
100
AcDbLine
 10
-974.0427790461359
 20
-516.9239848368876
 30
0.0
 11
-962.0998485668285
 21
-494.9608550200591
 31
0.0
  0
LINE
  5
D8
330
1F
100
AcDbEntity
  8
1-4
  6
Continuous
 62
     7
370
     9
100
AcDbLine
 10
-974.0427790461359
 20
-516.9239848368876
 30
0.0
 11
-956.8224520296662
 21
-498.8003787478884
 31
0.0
  0
LINE
  5
D9
330
1F
100
AcDbEntity
  8
1-2
  6
Continuous
 62
     3
370
     9
100
AcDbLine
 10
-1148.161604597762
 20
721.8103687183279
 30
0.0
 11
-1148.161604597762
 21
816.8101872624578
 31
0.0
  0
LINE
  5
DA
330
1F
100
AcDbEntity
  8
1-2
  6
Continuous
 62
     3
370
     9
100
AcDbLine
 10
-1148.161604597762
 20
721.8103687183279
 30
0.0
 11
-1148.161604597762
 21
816.8101872624578
 31
0.0
  0
LINE
  5
DB
330
1F
100
AcDbEntity
  8
1-2
  6
Continuous
 62
     3
370
     9
100
AcDbLine
 10
526.7296043602198
 20
813.5014219541811
 30
0.0
 11
529.7298122096709
 21
814.5240907411318
 31
0.0
  0
LINE
  5
DC
330
1F
100
AcDbEntity
  8
1-2
  6
Continuous
 62
     3
370
     9
100
AcDbLine
 10
526.7296043602198
 20
813.5014219541811
 30
0.0
 11
526.7296043602198
 21
804.6866257126269
 31
0.0
  0
LINE
  5
DD
330
1F
100
AcDbEntity
  8
1-2
  6
Continuous
 62
     3
370
     9
100
AcDbLine
 10
526.7296043602198
 20
804.6866257126269
 30
0.0
 11
529.7298122096709
 21
803.6642043654984
 31
0.0
  0
LINE
  5
DE
330
1F
100
AcDbEntity
  8
1-2
  6
Continuous
 62
     3
370
     9
100
AcDbLine
 10
529.7298122096709
 20
803.6642043654984
 30
0.0
 11
529.7298122096709
 21
793.4375164959883
 31
0.0
  0
LINE
  5
DF
330
1F
100
AcDbEntity
  8
1-2
  6
Continuous
 62
     3
370
     9
100
AcDbLine
 10
526.7296043602198
 20
792.4150951488599
 30
0.0
 11
529.7298122096709
 21
793.4375164959883
 31
0.0
  0
LINE
  5
E0
330
1F
100
AcDbEntity
  8
1-2
  6
Continuous
 62
     3
370
     9
100
AcDbLine
 10
526.7296043602198
 20
792.4150951488599
 30
0.0
 11
526.7296043602198
 21
779.320332295186
 31
0.0
  0
LINE
  5
E1
330
1F
100
AcDbEntity
  8
1-2
  6
Continuous
 62
     3
370
     9
100
AcDbLine
 10
526.7296043602198
 20
779.320332295186
 30
0.0
 11
529.7298122096709
 21
778.2976635082349
 31
0.0
  0
LINE
  5
E2
330
1F
100
AcDbEntity
  8
1-2
  6
Continuous
 62
     3
370
     9
100
AcDbLine
 10
526.7296043602198
 20
767.048801731419
 30
0.0
 11
526.7296043602198
 21
758.2340054898651
 31
0.0
  0
LINE
  5
E3
330
1F
100
AcDbEntity
  8
1-2
  6
Continuous
 62
     3
370
     9
100
AcDbLine
 10
526.7296043602198
 20
758.2340054898651
 30
0.0
 11
529.7298122096709
 21
757.2113367029141
 31
0.0
  0
LINE
  5
E4
330
1F
100
AcDbEntity
  8
1-2
  6
Continuous
 62
     3
370
     9
100
AcDbLine
 10
529.7298122096709
 20
757.2113367029141
 30
0.0
 11
529.7298122096709
 21
746.9851437130492
 31
0.0
  0
LINE
  5
E5
330
1F
100
AcDbEntity
  8
1-2
  6
Continuous
 62
     3
370
     9
100
AcDbLine
 10
526.7296043602198
 20
745.9622274862755
 30
0.0
 11
529.7298122096709
 21
746.9851437130492
 31
0.0
  0
LINE
  5
E6
330
1F
100
AcDbEntity
  8
1-2
  6
Continuous
 62
     3
370
     9
100
AcDbLine
 10
526.7296043602198
 20
745.9622274862755
 30
0.0
 11
526.7296043602198
 21
732.8674646326016
 31
0.0
  0
LINE
  5
E7
330
1F
100
AcDbEntity
  8
1-2
  6
Continuous
 62
     3
370
     9
100
AcDbLine
 10
526.7296043602198
 20
732.8674646326016
 30
0.0
 11
529.7298122096709
 21
731.8450432854731
 31
0.0
  0
LINE
  5
E8
330
1F
100
AcDbEntity
  8
1-2
  6
Continuous
 62
     3
370
     9
100
AcDbLine
 10
526.7296043602198
 20
767.048801731419
 30
0.0
 11
529.7298122096709
 21
768.07147051837
 31
0.0
  0
LINE
  5
E9
330
1F
100
AcDbEntity
  8
1-2
  6
Continuous
 62
     3
370
     9
100
AcDbLine
 10
529.7298122096709
 20
778.2976635082349
 30
0.0
 11
529.7298122096709
 21
768.07147051837
 31
0.0
  0
LINE
  5
EA
330
1F
100
AcDbEntity
  8
1-2
  6
Continuous
 62
     3
370
     9
100
AcDbLine
 10
526.7296043602198
 20
720.5959340688346
 30
0.0
 11
526.7296043602198
 21
711.7811378272804
 31
0.0
  0
LINE
  5
EB
330
1F
100
AcDbEntity
  8
1-2
  6
Continuous
 62
     3
370
     9
100
AcDbLine
 10
526.7296043602198
 20
711.7811378272804
 30
0.0
 11
529.7298122096709
 21
710.7584690403294
 31
0.0
  0
LINE
  5
EC
330
1F
100
AcDbEntity
  8
1-2
  6
Continuous
 62
     3
370
     9
100
AcDbLine
 10
529.7298122096709
 20
710.7584690403294
 30
0.0
 11
529.7298122096709
 21
700.5322760504646
 31
0.0
  0
LINE
  5
ED
330
1F
100
AcDbEntity
  8
1-2
  6
Continuous
 62
     3
370
     9
100
AcDbLine
 10
526.7296043602198
 20
699.5093598236908
 30
0.0
 11
529.7298122096709
 21
700.5322760504646
 31
0.0
  0
LINE
  5
EE
330
1F
100
AcDbEntity
  8
1-2
  6
Continuous
 62
     3
370
     9
100
AcDbLine
 10
526.7296043602198
 20
699.5093598236908
 30
0.0
 11
526.7296043602198
 21
686.4148444098396
 31
0.0
  0
LINE
  5
EF
330
1F
100
AcDbEntity
  8
1-2
  6
Continuous
 62
     3
370
     9
100
AcDbLine
 10
526.7296043602198
 20
686.4148444098396
 30
0.0
 11
529.7298122096709
 21
685.3926705025339
 31
0.0
  0
LINE
  5
F0
330
1F
100
AcDbEntity
  8
1-2
  6
Continuous
 62
     3
370
     9
100
AcDbLine
 10
526.7296043602198
 20
720.5959340688346
 30
0.0
 11
529.7298122096709
 21
721.6186028557856
 31
0.0
  0
LINE
  5
F1
330
1F
100
AcDbEntity
  8
1-2
  6
Continuous
 62
     3
370
     9
100
AcDbLine
 10
529.7298122096709
 20
731.8450432854731
 30
0.0
 11
529.7298122096709
 21
721.6186028557856
 31
0.0
  0
LINE
  5
F2
330
1F
100
AcDbEntity
  8
1-2
  6
Continuous
 62
     3
370
     9
100
AcDbLine
 10
526.7296043602198
 20
674.1433138460727
 30
0.0
 11
526.7296043602198
 21
665.3285176045188
 31
0.0
  0
LINE
  5
F3
330
1F
100
AcDbEntity
  8
1-2
  6
Continuous
 62
     3
370
     9
100
AcDbLine
 10
526.7296043602198
 20
665.3285176045188
 30
0.0
 11
529.7298122096709
 21
664.3058488175677
 31
0.0
  0
LINE
  5
F4
330
1F
100
AcDbEntity
  8
1-2
  6
Continuous
 62
     3
370
     9
100
AcDbLine
 10
526.7296043602198
 20
674.1433138460727
 30
0.0
 11
529.7298122096709
 21
675.165735193201
 31
0.0
  0
LINE
  5
F5
330
1F
100
AcDbEntity
  8
1-2
  6
Continuous
 62
     3
370
     9
100
AcDbLine
 10
529.7298122096709
 20
685.3926705025339
 30
0.0
 11
529.7298122096709
 21
675.165735193201
 31
0.0
  0
LINE
  5
F6
330
1F
100
AcDbEntity
  8
1-2
  6
Continuous
 62
     3
370
     9
100
AcDbLine
 10
529.7298122096709
 20
825.810810810811
 30
0.0
 11
529.7298122096709
 21
814.5240907411318
 31
0.0
  0
LINE
  5
F7
330
1F
100
AcDbEntity
  8
1-2
  6
Continuous
 62
     3
370
     9
100
AcDbLine
 10
529.7298122096709
 20
664.3058488175677
 30
0.0
 11
529.7298122096709
 21
654.0794083878802
 31
0.0
  0
LINE
  5
F8
330
1F
100
AcDbEntity
  8
1-2
  6
Continuous
 62
     3
370
     9
100
AcDbLine
 10
526.7296043602198
 20
653.0567396009292
 30
0.0
 11
529.7298122096709
 21
654.0794083878802
 31
0.0
  0
LINE
  5
F9
330
1F
100
AcDbEntity
  8
1-2
  6
Continuous
 62
     3
370
     9
100
AcDbLine
 10
526.7296043602198
 20
653.0567396009292
 30
0.0
 11
526.7296043602198
 21
639.9619767472552
 31
0.0
  0
LINE
  5
FA
330
1F
100
AcDbEntity
  8
1-2
  6
Continuous
 62
     3
370
     9
100
AcDbLine
 10
526.7296043602198
 20
639.9619767472552
 30
0.0
 11
529.7298122096709
 21
638.9395554001269
 31
0.0
  0
LINE
  5
FB
330
1F
100
AcDbEntity
  8
1-2
  6
Continuous
 62
     3
370
     9
100
AcDbLine
 10
526.7296043602198
 20
627.6904461834883
 30
0.0
 11
526.7296043602198
 21
618.8756499419342
 31
0.0
  0
LINE
  5
FC
330
1F
100
AcDbEntity
  8
1-2
  6
Continuous
 62
     3
370
     9
100
AcDbLine
 10
526.7296043602198
 20
618.8756499419342
 30
0.0
 11
529.7298122096709
 21
617.8529811549834
 31
0.0
  0
LINE
  5
FD
330
1F
100
AcDbEntity
  8
1-2
  6
Continuous
 62
     3
370
     9
100
AcDbLine
 10
526.7296043602198
 20
627.6904461834883
 30
0.0
 11
529.7298122096709
 21
628.7131149704394
 31
0.0
  0
LINE
  5
FE
330
1F
100
AcDbEntity
  8
1-2
  6
Continuous
 62
     3
370
     9
100
AcDbLine
 10
529.7298122096709
 20
638.9395554001269
 30
0.0
 11
529.7298122096709
 21
628.7131149704394
 31
0.0
  0
LINE
  5
FF
330
1F
100
AcDbEntity
  8
1-2
  6
Continuous
 62
     3
370
     9
100
AcDbLine
 10
529.7298122096709
 20
617.8529811549834
 30
0.0
 11
529.7298122096709
 21
607.6267881651182
 31
0.0
  0
LINE
  5
100
330
1F
100
AcDbEntity
  8
1-2
  6
Continuous
 62
     3
370
     9
100
AcDbLine
 10
526.7296043602198
 20
606.6038719383448
 30
0.0
 11
529.7298122096709
 21
607.6267881651182
 31
0.0
  0
LINE
  5
101
330
1F
100
AcDbEntity
  8
1-2
  6
Continuous
 62
     3
370
     9
100
AcDbLine
 10
526.7296043602198
 20
606.6038719383448
 30
0.0
 11
526.7296043602198
 21
593.5091090846709
 31
0.0
  0
LINE
  5
102
330
1F
100
AcDbEntity
  8
1-2
  6
Continuous
 62
     3
370
     9
100
AcDbLine
 10
526.7296043602198
 20
593.5091090846709
 30
0.0
 11
529.7298122096709
 21
592.4866877375425
 31
0.0
  0
LINE
  5
103
330
1F
100
AcDbEntity
  8
1-2
  6
Continuous
 62
     3
370
     9
100
AcDbLine
 10
526.7296043602198
 20
581.237578520904
 30
0.0
 11
526.7296043602198
 21
572.4227822793498
 31
0.0
  0
LINE
  5
104
330
1F
100
AcDbEntity
  8
1-2
  6
Continuous
 62
     3
370
     9
100
AcDbLine
 10
526.7296043602198
 20
572.4227822793498
 30
0.0
 11
529.7298122096709
 21
571.4001134923988
 31
0.0
  0
LINE
  5
105
330
1F
100
AcDbEntity
  8
1-2
  6
Continuous
 62
     3
370
     9
100
AcDbLine
 10
526.7296043602198
 20
581.237578520904
 30
0.0
 11
529.7298122096709
 21
582.260247307855
 31
0.0
  0
LINE
  5
106
330
1F
100
AcDbEntity
  8
1-2
  6
Continuous
 62
     3
370
     9
100
AcDbLine
 10
529.7298122096709
 20
592.4866877375425
 30
0.0
 11
529.7298122096709
 21
582.260247307855
 31
0.0
  0
LINE
  5
107
330
1F
100
AcDbEntity
  8
1-2
  6
Continuous
 62
     3
370
     9
100
AcDbLine
 10
529.7298122096709
 20
571.4001134923988
 30
0.0
 11
529.7298122096709
 21
561.1739205025339
 31
0.0
  0
LINE
  5
108
330
1F
100
AcDbEntity
  8
1-1
  6
Continuous
 62
     2
370
     9
100
AcDbLine
 10
706.929634712838
 20
731.8108965899495
 30
0.0
 11
592.5297917546453
 21
731.8108965899495
 31
0.0
  0
LINE
  5
109
330
1F
100
AcDbEntity
  8
1-1
  6
Continuous
 62
     2
370
     9
100
AcDbLine
 10
706.9293872730151
 20
805.41088207348
 30
0.0
 11
592.529296875
 21
805.41088207348
 31
0.0
  0
LINE
  5
10A
330
1F
100
AcDbEntity
  8
1-1
  6
Continuous
 62
     2
370
     9
100
AcDbLine
 10
713.3296657252959
 20
744.6109586148651
 30
0.0
 11
713.3296657252959
 21
799.0106036211995
 31
0.0
  0
LINE
  5
10B
330
1F
100
AcDbEntity
  8
1-1
  6
Continuous
 62
     2
370
     9
100
AcDbLine
 10
706.929634712838
 20
811.8109130859375
 30
0.0
 11
592.5297917546453
 21
811.8109130859375
 31
0.0
  0
LINE
  5
10C
330
1F
100
AcDbEntity
  8
1-1
  6
Continuous
 62
     2
370
     9
100
AcDbLine
 10
719.7294492979307
 20
744.6109586148651
 30
0.0
 11
719.7294492979307
 21
799.0110985008448
 31
0.0
  0
LINE
  5
10D
330
1F
100
AcDbEntity
  8
1-1
  6
Continuous
 62
     2
370
     9
100
AcDbLine
 10
592.5297917546453
 20
738.21117504223
 30
0.0
 11
706.9293872730151
 21
738.21117504223
 31
0.0
  0
LINE
  5
10E
330
1F
100
AcDbEntity
  8
1-1
  6
Continuous
 62
     2
370
     9
100
AcDbLine
 10
586.1295133023651
 20
744.6109586148651
 30
0.0
 11
586.1295133023651
 21
799.0106036211995
 31
0.0
  0
LINE
  5
10F
330
1F
100
AcDbEntity
  8
1-1
  6
Continuous
 62
     2
370
     9
100
AcDbLine
 10
706.929634712838
 20
99.8107415276607
 30
0.0
 11
592.5297917546453
 21
99.8107415276607
 31
0.0
  0
LINE
  5
110
330
1F
100
AcDbEntity
  8
1-1
  6
Continuous
 62
     2
370
     9
100
AcDbLine
 10
706.9293872730151
 20
26.21075604413022
 30
0.0
 11
592.529296875
 21
26.21075604413022
 31
0.0
  0
LINE
  5
111
330
1F
100
AcDbEntity
  8
1-1
  6
Continuous
 62
     2
370
     9
100
AcDbLine
 10
713.3296657252959
 20
87.01067950274506
 30
0.0
 11
713.3296657252959
 21
32.61091077649922
 31
0.0
  0
LINE
  5
112
330
1F
100
AcDbEntity
  8
1-1
  6
Continuous
 62
     2
370
     9
100
AcDbLine
 10
706.929634712838
 20
19.8107250316724
 30
0.0
 11
592.5297917546453
 21
19.8107250316724
 31
0.0
  0
LINE
  5
113
330
1F
100
AcDbEntity
  8
1-1
  6
Continuous
 62
     2
370
     9
100
AcDbLine
 10
719.7294492979307
 20
87.01067950274506
 30
0.0
 11
719.7294492979307
 21
32.61053961676538
 31
0.0
  0
LINE
  5
114
330
1F
100
AcDbEntity
  8
1-1
  6
Continuous
 62
     2
370
     9
100
AcDbLine
 10
592.5297917546453
 20
93.41046307538022
 30
0.0
 11
706.9293872730151
 21
93.41046307538022
 31
0.0
  0
LINE
  5
115
330
1F
100
AcDbEntity
  8
1-1
  6
Continuous
 62
     2
370
     9
100
AcDbLine
 10
586.1295133023651
 20
87.01067950274506
 30
0.0
 11
586.1295133023651
 21
32.61091077649922
 31
0.0
  0
LINE
  5
116
330
1F
100
AcDbEntity
  8
1-2
  6
Continuous
 62
     3
370
     9
100
AcDbLine
 10
570.7298485008448
 20
816.8106821421031
 30
0.0
 11
570.7298485008448
 21
14.81095597550677
 31
0.0
  0
LINE
  5
117
330
1F
100
AcDbEntity
  8
1-2
  6
Continuous
 62
     3
370
     9
100
AcDbLine
 10
568.7295449746625
 20
816.8106821421031
 30
0.0
 11
568.7295449746625
 21
14.81095597550677
 31
0.0
  0
LINE
  5
118
330
1F
100
AcDbEntity
  8
1-2
  6
Continuous
 62
     3
370
     9
100
AcDbLine
 10
526.7296043602198
 20
560.1510042757602
 30
0.0
 11
529.7298122096709
 21
561.1739205025339
 31
0.0
  0
LINE
  5
119
330
1F
100
AcDbEntity
  8
1-2
  6
Continuous
 62
     3
370
     9
100
AcDbLine
 10
526.7296043602198
 20
560.1510042757602
 30
0.0
 11
526.7296043602198
 21
547.0562414220863
 31
0.0
  0
LINE
  5
11A
330
1F
100
AcDbEntity
  8
1-2
  6
Continuous
 62
     3
370
     9
100
AcDbLine
 10
526.7296043602198
 20
547.0562414220863
 30
0.0
 11
529.7298122096709
 21
546.0338200749578
 31
0.0
  0
LINE
  5
11B
330
1F
100
AcDbEntity
  8
1-2
  6
Continuous
 62
     3
370
     9
100
AcDbLine
 10
526.7296043602198
 20
534.7847108583193
 30
0.0
 11
526.7296043602198
 21
525.9699146167654
 31
0.0
  0
LINE
  5
11C
330
1F
100
AcDbEntity
  8
1-2
  6
Continuous
 62
     3
370
     9
100
AcDbLine
 10
526.7296043602198
 20
525.9699146167654
 30
0.0
 11
529.7298122096709
 21
524.9472458298144
 31
0.0
  0
LINE
  5
11D
330
1F
100
AcDbEntity
  8
1-2
  6
Continuous
 62
     3
370
     9
100
AcDbLine
 10
526.7296043602198
 20
534.7847108583193
 30
0.0
 11
529.7298122096709
 21
535.8073796452703
 31
0.0
  0
LINE
  5
11E
330
1F
100
AcDbEntity
  8
1-2
  6
Continuous
 62
     3
370
     9
100
AcDbLine
 10
529.7298122096709
 20
546.0338200749578
 30
0.0
 11
529.7298122096709
 21
535.8073796452703
 31
0.0
  0
LINE
  5
11F
330
1F
100
AcDbEntity
  8
1-2
  6
Continuous
 62
     3
370
     9
100
AcDbLine
 10
529.7298122096709
 20
524.9472458298144
 30
0.0
 11
529.7298122096709
 21
514.7210528399495
 31
0.0
  0
LINE
  5
120
330
1F
100
AcDbEntity
  8
1-2
  6
Continuous
 62
     3
370
     9
100
AcDbLine
 10
526.7296043602198
 20
513.6981366131758
 30
0.0
 11
529.7298122096709
 21
514.7210528399495
 31
0.0
  0
LINE
  5
121
330
1F
100
AcDbEntity
  8
1-2
  6
Continuous
 62
     3
370
     9
100
AcDbLine
 10
526.7296043602198
 20
513.6981366131758
 30
0.0
 11
526.7296043602198
 21
500.6033737595018
 31
0.0
  0
LINE
  5
122
330
1F
100
AcDbEntity
  8
1-2
  6
Continuous
 62
     3
370
     9
100
AcDbLine
 10
526.7296043602198
 20
500.6033737595018
 30
0.0
 11
529.7298122096709
 21
499.5809524123734
 31
0.0
  0
LINE
  5
123
330
1F
100
AcDbEntity
  8
1-2
  6
Continuous
 62
     3
370
     9
100
AcDbLine
 10
526.7296043602198
 20
488.3318431957349
 30
0.0
 11
526.7296043602198
 21
479.5170469541807
 31
0.0
  0
LINE
  5
124
330
1F
100
AcDbEntity
  8
1-2
  6
Continuous
 62
     3
370
     9
100
AcDbLine
 10
526.7296043602198
 20
479.5170469541807
 30
0.0
 11
529.7298122096709
 21
478.49437816723
 31
0.0
  0
LINE
  5
125
330
1F
100
AcDbEntity
  8
1-2
  6
Continuous
 62
     3
370
     9
100
AcDbLine
 10
526.7296043602198
 20
488.3318431957349
 30
0.0
 11
529.7298122096709
 21
489.3545119826859
 31
0.0
  0
LINE
  5
126
330
1F
100
AcDbEntity
  8
1-2
  6
Continuous
 62
     3
370
     9
100
AcDbLine
 10
529.7298122096709
 20
499.5809524123734
 30
0.0
 11
529.7298122096709
 21
489.3545119826859
 31
0.0
  0
LINE
  5
127
330
1F
100
AcDbEntity
  8
1-2
  6
Continuous
 62
     3
370
     9
100
AcDbLine
 10
529.7298122096709
 20
478.49437816723
 30
0.0
 11
529.7298122096709
 21
468.2681851773648
 31
0.0
  0
LINE
  5
128
330
1F
100
AcDbEntity
  8
1-2
  6
Continuous
 62
     3
370
     9
100
AcDbLine
 10
526.7296043602198
 20
467.2452689505914
 30
0.0
 11
529.7298122096709
 21
468.2681851773648
 31
0.0
  0
LINE
  5
129
330
1F
100
AcDbEntity
  8
1-2
  6
Continuous
 62
     3
370
     9
100
AcDbLine
 10
526.7296043602198
 20
467.2452689505914
 30
0.0
 11
526.7296043602198
 21
454.1505060969175
 31
0.0
  0
LINE
  5
12A
330
1F
100
AcDbEntity
  8
1-2
  6
Continuous
 62
     3
370
     9
100
AcDbLine
 10
526.7296043602198
 20
454.1505060969175
 30
0.0
 11
529.7298122096709
 21
453.1280847497891
 31
0.0
  0
LINE
  5
12B
330
1F
100
AcDbEntity
  8
1-2
  6
Continuous
 62
     3
370
     9
100
AcDbLine
 10
526.7296043602198
 20
441.8789755331505
 30
0.0
 11
526.7296043602198
 21
433.0641792915964
 31
0.0
  0
LINE
  5
12C
330
1F
100
AcDbEntity
  8
1-2
  6
Continuous
 62
     3
370
     9
100
AcDbLine
 10
526.7296043602198
 20
433.0641792915964
 30
0.0
 11
529.7298122096709
 21
432.0415105046453
 31
0.0
  0
LINE
  5
12D
330
1F
100
AcDbEntity
  8
1-2
  6
Continuous
 62
     3
370
     9
100
AcDbLine
 10
526.7296043602198
 20
441.8789755331505
 30
0.0
 11
529.7298122096709
 21
442.9016443201016
 31
0.0
  0
LINE
  5
12E
330
1F
100
AcDbEntity
  8
1-2
  6
Continuous
 62
     3
370
     9
100
AcDbLine
 10
529.7298122096709
 20
453.1280847497891
 30
0.0
 11
529.7298122096709
 21
442.9016443201016
 31
0.0
  0
LINE
  5
12F
330
1F
100
AcDbEntity
  8
1-2
  6
Continuous
 62
     3
370
     9
100
AcDbLine
 10
529.7298122096709
 20
432.0415105046453
 30
0.0
 11
529.7298122096709
 21
421.8153175147805
 31
0.0
  0
LINE
  5
130
330
1F
100
AcDbEntity
  8
1-2
  6
Continuous
 62
     3
370
     9
100
AcDbLine
 10
526.7296043602198
 20
420.7924012880068
 30
0.0
 11
529.7298122096709
 21
421.8153175147805
 31
0.0
  0
LINE
  5
131
330
1F
100
AcDbEntity
  8
1-2
  6
Continuous
 62
     3
370
     9
100
AcDbLine
 10
526.7296043602198
 20
420.7924012880068
 30
0.0
 11
526.7296043602198
 21
407.6976384343328
 31
0.0
  0
LINE
  5
132
330
1F
100
AcDbEntity
  8
1-2
  6
Continuous
 62
     3
370
     9
100
AcDbLine
 10
526.7296043602198
 20
407.6976384343328
 30
0.0
 11
529.7298122096709
 21
406.6752170872044
 31
0.0
  0
LINE
  5
133
330
1F
100
AcDbEntity
  8
1-2
  6
Continuous
 62
     3
370
     9
100
AcDbLine
 10
526.7296043602198
 20
395.4261078705659
 30
0.0
 11
526.7296043602198
 21
386.611311629012
 31
0.0
  0
LINE
  5
134
330
1F
100
AcDbEntity
  8
1-2
  6
Continuous
 62
     3
370
     9
100
AcDbLine
 10
526.7296043602198
 20
386.611311629012
 30
0.0
 11
529.7298122096709
 21
385.5886428420609
 31
0.0
  0
LINE
  5
135
330
1F
100
AcDbEntity
  8
1-2
  6
Continuous
 62
     3
370
     9
100
AcDbLine
 10
526.7296043602198
 20
395.4261078705659
 30
0.0
 11
529.7298122096709
 21
396.4487766575169
 31
0.0
  0
LINE
  5
136
330
1F
100
AcDbEntity
  8
1-2
  6
Continuous
 62
     3
370
     9
100
AcDbLine
 10
529.7298122096709
 20
406.6752170872044
 30
0.0
 11
529.7298122096709
 21
396.4487766575169
 31
0.0
  0
LINE
  5
137
330
1F
100
AcDbEntity
  8
1-2
  6
Continuous
 62
     3
370
     9
100
AcDbLine
 10
529.7298122096709
 20
385.5886428420609
 30
0.0
 11
529.7298122096709
 21
375.3624498521961
 31
0.0
  0
LINE
  5
138
330
1F
100
AcDbEntity
  8
1-2
  6
Continuous
 62
     3
370
     9
100
AcDbLine
 10
526.7296043602198
 20
374.3395336254224
 30
0.0
 11
529.7298122096709
 21
375.3624498521961
 31
0.0
  0
LINE
  5
139
330
1F
100
AcDbEntity
  8
1-2
  6
Continuous
 62
     3
370
     9
100
AcDbLine
 10
526.7296043602198
 20
374.3395336254224
 30
0.0
 11
526.7296043602198
 21
361.2447707717484
 31
0.0
  0
LINE
  5
13A
330
1F
100
AcDbEntity
  8
1-2
  6
Continuous
 62
     3
370
     9
100
AcDbLine
 10
526.7296043602198
 20
361.2447707717484
 30
0.0
 11
529.7298122096709
 21
360.2223494246201
 31
0.0
  0
LINE
  5
13B
330
1F
100
AcDbEntity
  8
1-2
  6
Continuous
 62
     3
370
     9
100
AcDbLine
 10
526.7296043602198
 20
348.9732402079815
 30
0.0
 11
526.7296043602198
 21
340.1584439664273
 31
0.0
  0
LINE
  5
13C
330
1F
100
AcDbEntity
  8
1-2
  6
Continuous
 62
     3
370
     9
100
AcDbLine
 10
526.7296043602198
 20
340.1584439664273
 30
0.0
 11
529.7298122096709
 21
339.1357751794766
 31
0.0
  0
LINE
  5
13D
330
1F
100
AcDbEntity
  8
1-2
  6
Continuous
 62
     3
370
     9
100
AcDbLine
 10
526.7296043602198
 20
348.9732402079815
 30
0.0
 11
529.7298122096709
 21
349.9959089949326
 31
0.0
  0
LINE
  5
13E
330
1F
100
AcDbEntity
  8
1-2
  6
Continuous
 62
     3
370
     9
100
AcDbLine
 10
529.7298122096709
 20
360.2223494246201
 30
0.0
 11
529.7298122096709
 21
349.9959089949326
 31
0.0
  0
LINE
  5
13F
330
1F
100
AcDbEntity
  8
1-2
  6
Continuous
 62
     3
370
     9
100
AcDbLine
 10
529.7298122096709
 20
339.1357751794766
 30
0.0
 11
529.7298122096709
 21
328.9095821896115
 31
0.0
  0
LINE
  5
140
330
1F
100
AcDbEntity
  8
1-2
  6
Continuous
 62
     3
370
     9
100
AcDbLine
 10
526.7296043602198
 20
327.886665962838
 30
0.0
 11
529.7298122096709
 21
328.9095821896115
 31
0.0
  0
LINE
  5
141
330
1F
100
AcDbEntity
  8
1-2
  6
Continuous
 62
     3
370
     9
100
AcDbLine
 10
526.7296043602198
 20
327.886665962838
 30
0.0
 11
526.7296043602198
 21
314.7919031091641
 31
0.0
  0
LINE
  5
142
330
1F
100
AcDbEntity
  8
1-2
  6
Continuous
 62
     3
370
     9
100
AcDbLine
 10
526.7296043602198
 20
314.7919031091641
 30
0.0
 11
529.7298122096709
 21
313.7694817620357
 31
0.0
  0
LINE
  5
143
330
1F
100
AcDbEntity
  8
1-2
  6
Continuous
 62
     3
370
     9
100
AcDbLine
 10
526.7296043602198
 20
302.5204962653083
 30
0.0
 11
526.7296043602198
 21
293.705576303843
 31
0.0
  0
LINE
  5
144
330
1F
100
AcDbEntity
  8
1-2
  6
Continuous
 62
     3
370
     9
100
AcDbLine
 10
526.7296043602198
 20
293.705576303843
 30
0.0
 11
529.7298122096709
 21
292.6829075168919
 31
0.0
  0
LINE
  5
145
330
1F
100
AcDbEntity
  8
1-2
  6
Continuous
 62
     3
370
     9
100
AcDbLine
 10
526.7296043602198
 20
302.5204962653083
 30
0.0
 11
529.7298122096709
 21
303.5430413323482
 31
0.0
  0
LINE
  5
146
330
1F
100
AcDbEntity
  8
1-2
  6
Continuous
 62
     3
370
     9
100
AcDbLine
 10
529.7298122096709
 20
313.7694817620357
 30
0.0
 11
529.7298122096709
 21
303.5430413323482
 31
0.0
  0
LINE
  5
147
330
1F
100
AcDbEntity
  8
1-2
  6
Continuous
 62
     3
370
     9
100
AcDbLine
 10
529.7298122096709
 20
292.6829075168919
 30
0.0
 11
529.7298122096709
 21
282.4567145270271
 31
0.0
  0
LINE
  5
148
330
1F
100
AcDbEntity
  8
1-2
  6
Continuous
 62
     3
370
     9
100
AcDbLine
 10
526.7296043602198
 20
281.4337983002534
 30
0.0
 11
529.7298122096709
 21
282.4567145270271
 31
0.0
  0
LINE
  5
149
330
1F
100
AcDbEntity
  8
1-2
  6
Continuous
 62
     3
370
     9
100
AcDbLine
 10
526.7296043602198
 20
281.4337983002534
 30
0.0
 11
526.7296043602198
 21
268.3390354465794
 31
0.0
  0
LINE
  5
14A
330
1F
100
AcDbEntity
  8
1-2
  6
Continuous
 62
     3
370
     9
100
AcDbLine
 10
526.7296043602198
 20
268.3390354465794
 30
0.0
 11
529.7298122096709
 21
267.316614099451
 31
0.0
  0
LINE
  5
14B
330
1F
100
AcDbEntity
  8
1-2
  6
Continuous
 62
     3
370
     9
100
AcDbLine
 10
526.7296043602198
 20
256.0675048828125
 30
0.0
 11
526.7296043602198
 21
247.2527086412586
 31
0.0
  0
LINE
  5
14C
330
1F
100
AcDbEntity
  8
1-2
  6
Continuous
 62
     3
370
     9
100
AcDbLine
 10
526.7296043602198
 20
247.2527086412586
 30
0.0
 11
529.7298122096709
 21
246.2300398543076
 31
0.0
  0
LINE
  5
14D
330
1F
100
AcDbEntity
  8
1-2
  6
Continuous
 62
     3
370
     9
100
AcDbLine
 10
526.7296043602198
 20
256.0675048828125
 30
0.0
 11
529.7298122096709
 21
257.0901736697635
 31
0.0
  0
LINE
  5
14E
330
1F
100
AcDbEntity
  8
1-2
  6
Continuous
 62
     3
370
     9
100
AcDbLine
 10
529.7298122096709
 20
267.316614099451
 30
0.0
 11
529.7298122096709
 21
257.0901736697635
 31
0.0
  0
LINE
  5
14F
330
1F
100
AcDbEntity
  8
1-2
  6
Continuous
 62
     3
370
     9
100
AcDbLine
 10
529.7298122096709
 20
246.2300398543076
 30
0.0
 11
529.7298122096709
 21
236.0038468644427
 31
0.0
  0
LINE
  5
150
330
1F
100
AcDbEntity
  8
1-2
  6
Continuous
 62
     3
370
     9
100
AcDbLine
 10
526.7296043602198
 20
234.980930637669
 30
0.0
 11
529.7298122096709
 21
236.0038468644427
 31
0.0
  0
LINE
  5
151
330
1F
100
AcDbEntity
  8
1-2
  6
Continuous
 62
     3
370
     9
100
AcDbLine
 10
526.7296043602198
 20
234.980930637669
 30
0.0
 11
526.7296043602198
 21
221.8861677839951
 31
0.0
  0
LINE
  5
152
330
1F
100
AcDbEntity
  8
1-2
  6
Continuous
 62
     3
370
     9
100
AcDbLine
 10
526.7296043602198
 20
221.8861677839951
 30
0.0
 11
529.7298122096709
 21
220.8637464368667
 31
0.0
  0
LINE
  5
153
330
1F
100
AcDbEntity
  8
1-2
  6
Continuous
 62
     3
370
     9
100
AcDbLine
 10
526.7296043602198
 20
209.6146372202281
 30
0.0
 11
526.7296043602198
 21
200.799840978674
 31
0.0
  0
LINE
  5
154
330
1F
100
AcDbEntity
  8
1-2
  6
Continuous
 62
     3
370
     9
100
AcDbLine
 10
526.7296043602198
 20
200.799840978674
 30
0.0
 11
529.7298122096709
 21
199.7771721917232
 31
0.0
  0
LINE
  5
155
330
1F
100
AcDbEntity
  8
1-2
  6
Continuous
 62
     3
370
     9
100
AcDbLine
 10
526.7296043602198
 20
209.6146372202281
 30
0.0
 11
529.7298122096709
 21
210.6373060071792
 31
0.0
  0
LINE
  5
156
330
1F
100
AcDbEntity
  8
1-2
  6
Continuous
 62
     3
370
     9
100
AcDbLine
 10
529.7298122096709
 20
220.8637464368667
 30
0.0
 11
529.7298122096709
 21
210.6373060071792
 31
0.0
  0
LINE
  5
157
330
1F
100
AcDbEntity
  8
1-2
  6
Continuous
 62
     3
370
     9
100
AcDbLine
 10
529.7298122096709
 20
199.7771721917232
 30
0.0
 11
529.7298122096709
 21
189.5509792018581
 31
0.0
  0
LINE
  5
158
330
1F
100
AcDbEntity
  8
1-2
  6
Continuous
 62
     3
370
     9
100
AcDbLine
 10
526.7296043602198
 20
188.5280629750847
 30
0.0
 11
529.7298122096709
 21
189.5509792018581
 31
0.0
  0
LINE
  5
159
330
1F
100
AcDbEntity
  8
1-2
  6
Continuous
 62
     3
370
     9
100
AcDbLine
 10
526.7296043602198
 20
188.5280629750847
 30
0.0
 11
526.7296043602198
 21
175.4333001214107
 31
0.0
  0
LINE
  5
15A
330
1F
100
AcDbEntity
  8
1-2
  6
Continuous
 62
     3
370
     9
100
AcDbLine
 10
526.7296043602198
 20
175.4333001214107
 30
0.0
 11
529.7298122096709
 21
174.4108787742823
 31
0.0
  0
LINE
  5
15B
330
1F
100
AcDbEntity
  8
1-2
  6
Continuous
 62
     3
370
     9
100
AcDbLine
 10
526.7296043602198
 20
163.1617695576438
 30
0.0
 11
526.7296043602198
 21
154.3469733160896
 31
0.0
  0
LINE
  5
15C
330
1F
100
AcDbEntity
  8
1-2
  6
Continuous
 62
     3
370
     9
100
AcDbLine
 10
526.7296043602198
 20
154.3469733160896
 30
0.0
 11
529.7298122096709
 21
153.3243045291385
 31
0.0
  0
LINE
  5
15D
330
1F
100
AcDbEntity
  8
1-2
  6
Continuous
 62
     3
370
     9
100
AcDbLine
 10
526.7296043602198
 20
163.1617695576438
 30
0.0
 11
529.7298122096709
 21
164.1844383445948
 31
0.0
  0
LINE
  5
15E
330
1F
100
AcDbEntity
  8
1-2
  6
Continuous
 62
     3
370
     9
100
AcDbLine
 10
529.7298122096709
 20
174.4108787742823
 30
0.0
 11
529.7298122096709
 21
164.1844383445948
 31
0.0
  0
LINE
  5
15F
330
1F
100
AcDbEntity
  8
1-2
  6
Continuous
 62
     3
370
     9
100
AcDbLine
 10
529.7298122096709
 20
153.3243045291385
 30
0.0
 11
529.7298122096709
 21
143.0981115392737
 31
0.0
  0
LINE
  5
160
330
1F
100
AcDbEntity
  8
1-2
  6
Continuous
 62
     3
370
     9
100
AcDbLine
 10
526.7296043602198
 20
142.0751953125
 30
0.0
 11
529.7298122096709
 21
143.0981115392737
 31
0.0
  0
LINE
  5
161
330
1F
100
AcDbEntity
  8
1-2
  6
Continuous
 62
     3
370
     9
100
AcDbLine
 10
526.7296043602198
 20
142.0751953125
 30
0.0
 11
526.7296043602198
 21
128.980432458826
 31
0.0
  0
LINE
  5
162
330
1F
100
AcDbEntity
  8
1-2
  6
JWW_CENTER1
 62
     3
370
     9
100
AcDbLine
 10
491.7906065244932
 20
415.810819058805
 30
0.0
 11
609.7340351826438
 21
415.810819058805
 31
0.0
  0
LINE
  5
163
330
1F
100
AcDbEntity
  8
1-4
  6
Continuous
 62
     7
370
     9
100
AcDbLine
 10
-1158.162132469383
 20
-19.18913145323046
 30
0.0
 11
-1158.162132469383
 21
-134.4858200485641
 31
0.0
  0
LINE
  5
164
330
1F
100
AcDbEntity
  8
1-4
  6
Continuous
 62
     7
370
     9
100
AcDbLine
 10
529.7298122096709
 20
-131.4858596389357
 30
0.0
 11
719.7296967377537
 21
-131.4858596389357
 31
0.0
  0
LINE
  5
165
330
1F
100
AcDbEntity
  8
1-4
  6
Continuous
 62
     7
370
     9
100
AcDbLine
 10
529.7298122096709
 20
-19.18913145323046
 30
0.0
 11
529.7298122096709
 21
-214.4858365445523
 31
0.0
  0
LINE
  5
166
330
1F
100
AcDbEntity
  8
1-4
  6
Continuous
 62
     7
370
     9
100
AcDbLine
 10
579.7297297297297
 20
-19.18913145323046
 30
0.0
 11
579.7297297297297
 21
-134.4858200485641
 31
0.0
  0
LINE
  5
167
330
1F
100
AcDbEntity
  8
1-4
  6
Continuous
 62
     7
370
     9
100
AcDbLine
 10
719.7296967377537
 20
7.61058085673568
 30
0.0
 11
719.7296967377537
 21
-214.4858365445523
 31
0.0
  0
LINE
  5
168
330
1F
100
AcDbEntity
  8
1-4
  6
Continuous
 62
     7
370
     9
100
AcDbLine
 10
529.7298122096709
 20
-211.4859998548353
 30
0.0
 11
719.7294492979307
 21
-211.4859998548353
 31
0.0
  0
LINE
  5
169
330
1F
100
AcDbEntity
  8
1-4
  6
Continuous
 62
     7
370
     9
100
AcDbLine
 10
429.72972972973
 20
5.810827306798956
 30
0.0
 11
429.72972972973
 21
825.810810810811
 31
0.0
  0
LINE
  5
16A
330
1F
100
AcDbEntity
  8
1-4
  6
Continuous
 62
     7
370
     9
100
AcDbLine
 10
504.7297297297297
 20
5.810827306798956
 30
0.0
 11
426.7297693201016
 21
5.810827306798956
 31
0.0
  0
LINE
  5
16B
330
1F
100
AcDbEntity
  8
1-4
  6
Continuous
 62
     7
370
     9
100
AcDbLine
 10
504.7297297297297
 20
825.810810810811
 30
0.0
 11
426.7297693201016
 21
825.810810810811
 31
0.0
  0
LINE
  5
16C
330
1F
100
AcDbEntity
  8
1-4
  6
Continuous
 62
     7
370
     9
100
AcDbLine
 10
604.7298122096709
 20
5.810827306798956
 30
0.0
 11
822.7294921875
 21
5.810827306798956
 31
0.0
  0
LINE
  5
16D
330
1F
100
AcDbEntity
  8
1-4
  6
Continuous
 62
     7
370
     9
100
AcDbLine
 10
731.9297171927786
 20
19.81060131176093
 30
0.0
 11
822.7294921875
 21
19.81060131176093
 31
0.0
  0
LINE
  5
16E
330
1F
100
AcDbEntity
  8
1-4
  6
Continuous
 62
     7
370
     9
100
AcDbLine
 10
731.9297171927786
 20
99.81049408783804
 30
0.0
 11
822.7294921875
 21
99.81049408783804
 31
0.0
  0
LINE
  5
16F
330
1F
100
AcDbEntity
  8
1-4
  6
Continuous
 62
     7
370
     9
100
AcDbLine
 10
731.9297171927786
 20
731.8108965899495
 30
0.0
 11
822.7294921875
 21
731.8108965899495
 31
0.0
  0
LINE
  5
170
330
1F
100
AcDbEntity
  8
1-4
  6
Continuous
 62
     7
370
     9
100
AcDbLine
 10
731.9297171927786
 20
811.8111605257602
 30
0.0
 11
822.7294921875
 21
811.8111605257602
 31
0.0
  0
LINE
  5
171
330
1F
100
AcDbEntity
  8
1-4
  6
Continuous
 62
     7
370
     9
100
AcDbLine
 10
604.7298122096709
 20
825.810810810811
 30
0.0
 11
822.7294921875
 21
825.810810810811
 31
0.0
  0
LINE
  5
172
330
1F
100
AcDbEntity
  8
1-4
  6
Continuous
 62
     7
370
     9
100
AcDbLine
 10
819.7295317778719
 20
-53.04050754856405
 30
0.0
 11
819.7295317778719
 21
878.3625752217063
 31
0.0
  0
LINE
  5
173
330
1F
100
AcDbEntity
  8
1-2
  6
Continuous
 62
     3
370
     9
100
AcDbLine
 10
526.7296043602198
 20
128.980432458826
 30
0.0
 11
529.7298122096709
 21
127.9580111116977
 31
0.0
  0
LINE
  5
174
330
1F
100
AcDbEntity
  8
1-2
  6
Continuous
 62
     3
370
     9
100
AcDbLine
 10
529.7298122096709
 20
825.810810810811
 30
0.0
 11
567.7298880912161
 21
825.810810810811
 31
0.0
  0
LINE
  5
175
330
1F
100
AcDbEntity
  8
1-2
  6
Continuous
 62
     3
370
     9
100
AcDbLine
 10
529.7298122096709
 20
816.8106821421031
 30
0.0
 11
579.7297297297297
 21
816.8106821421031
 31
0.0
  0
LINE
  5
176
330
1F
100
AcDbEntity
  8
1-2
  6
Continuous
 62
     3
370
     9
100
AcDbLine
 10
567.7298880912161
 20
825.810810810811
 30
0.0
 11
567.7298880912161
 21
816.8106821421031
 31
0.0
  0
LINE
  5
177
330
1F
100
AcDbEntity
  8
1-2
  6
Continuous
 62
     3
370
     9
100
AcDbLine
 10
529.7298122096709
 20
5.810827306798956
 30
0.0
 11
567.7298880912161
 21
5.810827306798956
 31
0.0
  0
LINE
  5
178
330
1F
100
AcDbEntity
  8
1-2
  6
Continuous
 62
     3
370
     9
100
AcDbLine
 10
567.7298880912161
 20
14.81095597550677
 30
0.0
 11
567.7298880912161
 21
5.810827306798956
 31
0.0
  0
LINE
  5
179
330
1F
100
AcDbEntity
  8
1-2
  6
Continuous
 62
     3
370
     9
100
AcDbLine
 10
529.7298122096709
 20
14.81095597550677
 30
0.0
 11
579.7297297297297
 21
14.81095597550677
 31
0.0
  0
LINE
  5
17A
330
1F
100
AcDbEntity
  8
1-2
  6
Continuous
 62
     3
370
     9
100
AcDbLine
 10
579.7297297297297
 20
816.8106821421031
 30
0.0
 11
579.7297297297297
 21
14.81095597550677
 31
0.0
  0
LINE
  5
17B
330
1F
100
AcDbEntity
  8
1-2
  6
Continuous
 62
     3
370
     9
100
AcDbLine
 10
-1148.161604597762
 20
321.8106573981208
 30
0.0
 11
-1148.161604597762
 21
509.8109807194891
 31
0.0
  0
LINE
  5
17C
330
1F
100
AcDbEntity
  8
1-2
  6
Continuous
 62
     3
370
     9
100
AcDbLine
 10
-1148.161604597762
 20
521.8108223580026
 30
0.0
 11
-1148.161604597762
 21
709.8105270798144
 31
0.0
  0
LINE
  5
17D
330
1F
100
AcDbEntity
  8
1-2
  6
Continuous
 62
     3
370
     9
100
AcDbLine
 10
538.7299408783787
 20
816.8106821421031
 30
0.0
 11
538.7299408783787
 21
721.4674171241554
 31
0.0
  0
LINE
  5
17E
330
1F
100
AcDbEntity
  8
1-2
  6
Continuous
 62
     3
370
     9
100
AcDbLine
 10
540.7297495249156
 20
816.8106821421031
 30
0.0
 11
540.7297495249156
 21
720.2826752533783
 31
0.0
  0
LINE
  5
17F
330
1F
100
AcDbEntity
  8
1-2
  6
Continuous
 62
     3
370
     9
100
AcDbLine
 10
538.7299408783787
 20
710.1539735536318
 30
0.0
 11
538.7299408783787
 21
521.4672521642738
 31
0.0
  0
LINE
  5
180
330
1F
100
AcDbEntity
  8
1-2
  6
Continuous
 62
     3
370
     9
100
AcDbLine
 10
540.7297495249156
 20
711.3387154244089
 30
0.0
 11
540.7297495249156
 21
520.2825102934967
 31
0.0
  0
LINE
  5
181
330
1F
100
AcDbEntity
  8
1-2
  6
Continuous
 62
     3
370
     9
100
AcDbLine
 10
538.7299408783787
 20
510.15380859375
 30
0.0
 11
538.7299408783787
 21
321.4673346442146
 31
0.0
  0
LINE
  5
182
330
1F
100
AcDbEntity
  8
1-2
  6
Continuous
 62
     3
370
     9
100
AcDbLine
 10
540.7297495249156
 20
511.3385504645271
 30
0.0
 11
540.7297495249156
 21
320.282716493349
 31
0.0
  0
LINE
  5
183
330
1F
100
AcDbEntity
  8
1-2
  6
Continuous
 62
     3
370
     9
100
AcDbLine
 10
-1158.162132469383
 20
5.810827306798956
 30
0.0
 11
-1158.162132469383
 21
825.810810810811
 31
0.0
  0
LINE
  5
184
330
1F
100
AcDbEntity
  8
1-2
  6
Continuous
 62
     3
370
     9
100
AcDbLine
 10
529.7298122096709
 20
117.7315706820102
 30
0.0
 11
529.7298122096709
 21
114.8110384554477
 31
0.0
  0
LINE
  5
185
330
1F
100
AcDbEntity
  8
1-2
  6
Continuous
 62
     3
370
     9
100
AcDbLine
 10
526.7296043602198
 20
114.0527591189823
 30
0.0
 11
526.7296043602198
 21
100.9579962653083
 31
0.0
  0
LINE
  5
186
330
1F
100
AcDbEntity
  8
1-2
  6
Continuous
 62
     3
370
     9
100
AcDbLine
 10
526.7296043602198
 20
100.9579962653083
 30
0.0
 11
529.7298122096709
 21
99.93557491817995
 31
0.0
  0
LINE
  5
187
330
1F
100
AcDbEntity
  8
1-2
  6
Continuous
 62
     3
370
     9
100
AcDbLine
 10
526.7296043602198
 20
88.68646570154141
 30
0.0
 11
526.7296043602198
 21
79.87166945998752
 31
0.0
  0
LINE
  5
188
330
1F
100
AcDbEntity
  8
1-2
  6
Continuous
 62
     3
370
     9
100
AcDbLine
 10
526.7296043602198
 20
79.87166945998752
 30
0.0
 11
529.7298122096709
 21
78.84900067303647
 31
0.0
  0
LINE
  5
189
330
1F
100
AcDbEntity
  8
1-2
  6
Continuous
 62
     3
370
     9
100
AcDbLine
 10
526.7296043602198
 20
88.68646570154141
 30
0.0
 11
529.7298122096709
 21
89.70913448849245
 31
0.0
  0
LINE
  5
18A
330
1F
100
AcDbEntity
  8
1-2
  6
Continuous
 62
     3
370
     9
100
AcDbLine
 10
529.7298122096709
 20
99.93557491817995
 30
0.0
 11
529.7298122096709
 21
89.70913448849245
 31
0.0
  0
LINE
  5
18B
330
1F
100
AcDbEntity
  8
1-2
  6
Continuous
 62
     3
370
     9
100
AcDbLine
 10
529.7298122096709
 20
78.84900067303647
 30
0.0
 11
529.7298122096709
 21
68.62280768317163
 31
0.0
  0
LINE
  5
18C
330
1F
100
AcDbEntity
  8
1-2
  6
Continuous
 62
     3
370
     9
100
AcDbLine
 10
526.7296043602198
 20
67.59989145639793
 30
0.0
 11
529.7298122096709
 21
68.62280768317163
 31
0.0
  0
LINE
  5
18D
330
1F
100
AcDbEntity
  8
1-2
  6
Continuous
 62
     3
370
     9
100
AcDbLine
 10
526.7296043602198
 20
67.59989145639793
 30
0.0
 11
526.7296043602198
 21
54.50512860272397
 31
0.0
  0
LINE
  5
18E
330
1F
100
AcDbEntity
  8
1-2
  6
Continuous
 62
     3
370
     9
100
AcDbLine
 10
526.7296043602198
 20
54.50512860272397
 30
0.0
 11
529.7298122096709
 21
53.48270725559559
 31
0.0
  0
LINE
  5
18F
330
1F
100
AcDbEntity
  8
1-2
  6
Continuous
 62
     3
370
     9
100
AcDbLine
 10
529.7298122096709
 20
53.48270725559559
 30
0.0
 11
529.7298122096709
 21
43.25626682590809
 31
0.0
  0
LINE
  5
190
330
1F
100
AcDbEntity
  8
1-2
  6
Continuous
 62
     3
370
     9
100
AcDbLine
 10
529.7298122096709
 20
40.33573459934559
 30
0.0
 11
529.7298122096709
 21
40.1312255859375
 31
0.0
  0
LINE
  5
191
330
1F
100
AcDbEntity
  8
1-2
  6
Continuous
 62
     3
370
     9
100
AcDbLine
 10
529.7298122096709
 20
43.25626682590809
 30
0.0
 11
529.7298122096709
 21
40.33573459934559
 31
0.0
  0
LINE
  5
192
330
1F
100
AcDbEntity
  8
1-2
  6
Continuous
 62
     3
370
     9
100
AcDbLine
 10
526.7296043602198
 20
114.0527591189823
 30
0.0
 11
529.7298122096709
 21
115.075675345756
 31
0.0
  0
LINE
  5
193
330
1F
100
AcDbEntity
  8
1-2
  6
Continuous
 62
     3
370
     9
100
AcDbLine
 10
529.7298122096709
 20
127.9580111116977
 30
0.0
 11
529.7298122096709
 21
115.075675345756
 31
0.0
  0
LINE
  5
194
330
1F
100
AcDbEntity
  8
1-2
  6
Continuous
 62
     3
370
     9
100
AcDbLine
 10
526.7296043602198
 20
39.1083093591638
 30
0.0
 11
529.7298122096709
 21
40.1312255859375
 31
0.0
  0
LINE
  5
195
330
1F
100
AcDbEntity
  8
1-2
  6
Continuous
 62
     3
370
     9
100
AcDbLine
 10
526.7296043602198
 20
39.1083093591638
 30
0.0
 11
526.7296043602198
 21
26.01354650548984
 31
0.0
  0
LINE
  5
196
330
1F
100
AcDbEntity
  8
1-2
  6
Continuous
 62
     3
370
     9
100
AcDbLine
 10
526.7296043602198
 20
26.01354650548984
 30
0.0
 11
529.7298122096709
 21
24.99112515836146
 31
0.0
  0
LINE
  5
197
330
1F
100
AcDbEntity
  8
1-2
  6
Continuous
 62
     3
370
     9
100
AcDbLine
 10
529.7298122096709
 20
24.99112515836146
 30
0.0
 11
529.7298122096709
 21
14.76468472867396
 31
0.0
  0
LINE
  5
198
330
1F
100
AcDbEntity
  8
1-2
  6
Continuous
 62
     3
370
     9
100
AcDbLine
 10
529.7298122096709
 20
5.810827306798956
 30
0.0
 11
529.7298122096709
 21
14.76468472867396
 31
0.0
  0
LINE
  5
199
330
1F
100
AcDbEntity
  8
1-2
  6
Continuous
 62
     3
370
     9
100
AcDbLine
 10
-1148.161604597762
 20
14.81046109586146
 30
0.0
 11
-1148.161604597762
 21
109.8108982395482
 31
0.0
  0
LINE
  5
19A
330
1F
100
AcDbEntity
  8
1-2
  6
Continuous
 62
     3
370
     9
100
AcDbLine
 10
-1148.161604597762
 20
121.8106161581505
 30
0.0
 11
-1148.161604597762
 21
309.8109394795188
 31
0.0
  0
LINE
  5
19B
330
1F
100
AcDbEntity
  8
1-2
  6
Continuous
 62
     3
370
     9
100
AcDbLine
 10
538.7299408783787
 20
310.1538910736909
 30
0.0
 11
538.7299408783787
 21
121.4672934042443
 31
0.0
  0
LINE
  5
19C
330
1F
100
AcDbEntity
  8
1-2
  6
Continuous
 62
     3
370
     9
100
AcDbLine
 10
538.7299408783787
 20
110.1538498337206
 30
0.0
 11
538.7299408783787
 21
14.81095597550677
 31
0.0
  0
LINE
  5
19D
330
1F
100
AcDbEntity
  8
1-2
  6
Continuous
 62
     3
370
     9
100
AcDbLine
 10
540.7297495249156
 20
311.338632944468
 30
0.0
 11
540.7297495249156
 21
120.2825515334672
 31
0.0
  0
LINE
  5
19E
330
1F
100
AcDbEntity
  8
1-2
  6
Continuous
 62
     3
370
     9
100
AcDbLine
 10
540.7297495249156
 20
111.3385917044977
 30
0.0
 11
540.7297495249156
 21
14.81095597550677
 31
0.0
  0
ARC
  5
19F
330
1F
100
AcDbEntity
  8
1-1
  6
Continuous
 62
     2
370
     9
100
AcDbCircle
 10
592.5297917546453
 20
744.6109586148651
 30
0.0
 40
12.79999919839808
100
AcDbArc
 50
180.0
 51
270.0
  0
ARC
  5
1A0
330
1F
100
AcDbEntity
  8
1-1
  6
Continuous
 62
     2
370
     9
100
AcDbCircle
 10
706.929634712838
 20
744.6109586148651
 30
0.0
 40
12.79999919839808
100
AcDbArc
 50
270.0
 51
0.0
  0
ARC
  5
1A1
330
1F
100
AcDbEntity
  8
1-1
  6
Continuous
 62
     2
370
     9
100
AcDbCircle
 10
706.9293872730151
 20
744.6109586148651
 30
0.0
 40
6.399999599199038
100
AcDbArc
 50
270.0
 51
0.0
  0
ARC
  5
1A2
330
1F
100
AcDbEntity
  8
1-1
  6
Continuous
 62
     2
370
     9
100
AcDbCircle
 10
592.5297917546453
 20
799.0110985008448
 30
0.0
 40
12.79999919839808
100
AcDbArc
 50
90.0
 51
180.0
  0
ARC
  5
1A3
330
1F
100
AcDbEntity
  8
1-1
  6
Continuous
 62
     2
370
     9
100
AcDbCircle
 10
592.529296875
 20
799.0106036211995
 30
0.0
 40
6.399999599199038
100
AcDbArc
 50
90.0
 51
180.0
  0
ARC
  5
1A4
330
1F
100
AcDbEntity
  8
1-1
  6
Continuous
 62
     2
370
     9
100
AcDbCircle
 10
706.9293872730151
 20
799.0106036211995
 30
0.0
 40
6.399999599199038
100
AcDbArc
 50
0.0
 51
90.0
  0
ARC
  5
1A5
330
1F
100
AcDbEntity
  8
1-1
  6
Continuous
 62
     2
370
     9
100
AcDbCircle
 10
706.929634712838
 20
799.0110985008448
 30
0.0
 40
12.79999919839808
100
AcDbArc
 50
0.0
 51
90.0
  0
ARC
  5
1A6
330
1F
100
AcDbEntity
  8
1-1
  6
Continuous
 62
     2
370
     9
100
AcDbCircle
 10
592.5297917546453
 20
744.6109586148651
 30
0.0
 40
6.399999599199038
100
AcDbArc
 50
180.0
 51
270.0
  0
ARC
  5
1A7
330
1F
100
AcDbEntity
  8
1-1
  6
Continuous
 62
     2
370
     9
100
AcDbCircle
 10
592.5297917546453
 20
87.01067950274506
 30
0.0
 40
12.79999919839808
100
AcDbArc
 50
90.0
 51
180.0
  0
ARC
  5
1A8
330
1F
100
AcDbEntity
  8
1-1
  6
Continuous
 62
     2
370
     9
100
AcDbCircle
 10
706.929634712838
 20
87.01067950274506
 30
0.0
 40
12.79999919839808
100
AcDbArc
 50
0.0
 51
90.0
  0
ARC
  5
1A9
330
1F
100
AcDbEntity
  8
1-1
  6
Continuous
 62
     2
370
     9
100
AcDbCircle
 10
706.9293872730151
 20
87.01067950274506
 30
0.0
 40
6.399999599199038
100
AcDbArc
 50
0.0
 51
90.0
  0
ARC
  5
1AA
330
1F
100
AcDbEntity
  8
1-1
  6
Continuous
 62
     2
370
     9
100
AcDbCircle
 10
592.5297917546453
 20
32.61053961676538
 30
0.0
 40
12.79999919839808
100
AcDbArc
 50
180.0
 51
270.0
  0
ARC
  5
1AB
330
1F
100
AcDbEntity
  8
1-1
  6
Continuous
 62
     2
370
     9
100
AcDbCircle
 10
592.529296875
 20
32.61091077649922
 30
0.0
 40
6.399999599199038
100
AcDbArc
 50
180.0
 51
270.0
  0
ARC
  5
1AC
330
1F
100
AcDbEntity
  8
1-1
  6
Continuous
 62
     2
370
     9
100
AcDbCircle
 10
706.9293872730151
 20
32.61091077649922
 30
0.0
 40
6.399999599199038
100
AcDbArc
 50
270.0
 51
0.0
  0
ARC
  5
1AD
330
1F
100
AcDbEntity
  8
1-1
  6
Continuous
 62
     2
370
     9
100
AcDbCircle
 10
706.929634712838
 20
32.61053961676538
 30
0.0
 40
12.79999919839808
100
AcDbArc
 50
270.0
 51
0.0
  0
ARC
  5
1AE
330
1F
100
AcDbEntity
  8
1-1
  6
Continuous
 62
     2
370
     9
100
AcDbCircle
 10
592.5297917546453
 20
87.01067950274506
 30
0.0
 40
6.399999599199038
100
AcDbArc
 50
90.0
 51
180.0
  0
CIRCLE
  5
1AF
330
1F
100
AcDbEntity
  8
1-2
  6
Continuous
 62
     3
370
     9
100
AcDbCircle
 10
536.7296373521958
 20
715.810447899071
 30
0.0
 40
5.999999594044041
  0
CIRCLE
  5
1B0
330
1F
100
AcDbEntity
  8
1-2
  6
Continuous
 62
     3
370
     9
100
AcDbCircle
 10
536.7296373521958
 20
515.810530379012
 30
0.0
 40
5.999999594044041
  0
CIRCLE
  5
1B1
330
1F
100
AcDbEntity
  8
1-2
  6
Continuous
 62
     3
370
     9
100
AcDbCircle
 10
536.7296373521958
 20
315.8106128589529
 30
0.0
 40
5.999999594044041
  0
CIRCLE
  5
1B2
330
1F
100
AcDbEntity
  8
1-2
  6
Continuous
 62
     3
370
     9
100
AcDbCircle
 10
536.7296373521958
 20
115.8105716189823
 30
0.0
 40
5.999999594044041
  0
TEXT
  5
1B3
330
1F
100
AcDbEntity
  8
1-4
  6
Continuous
 62
     2
370
     9
100
AcDbText
 10
385.9390341269004
 20
-623.1491779719172
 30
0.0
 40
30.48
  1
仕　様
 41
1.083333333333333
  7
ＭＳ ゴシック
100
AcDbText
  0
TEXT
  5
1B4
330
1F
100
AcDbEntity
  8
1-4
  6
Continuous
 62
     2
370
     9
100
AcDbText
 10
500.2406682194894
 20
-851.0687204391891
 30
0.0
 40
30.48
  1
処理：溶融亜鉛めっき
 41
1.1125
  7
ＭＳ ゴシック
100
AcDbText
  0
TEXT
  5
1B5
330
1F
100
AcDbEntity
  8
1-4
  6
Continuous
 62
     2
370
     9
100
AcDbText
 10
440.5282922693202
 20
-686.0696607105151
 30
0.0
 40
30.48
  1
ノンスリップタイプ
 41
1.111111111111111
  7
ＭＳ ゴシック
100
AcDbText
  0
TEXT
  5
1B6
330
1F
100
AcDbEntity
  8
1-4
  6
Continuous
 62
     2
370
     9
100
AcDbText
 10
500.24074440329
 20
-796.0675492240518
 30
0.0
 40
30.48
  1
材質：ＳＳ４００＋ＳＴＫＲ４００
 50
359.9999801716714
 41
1.1171875
  7
ＭＳ ゴシック
100
AcDbText
  0
TEXT
  5
1B7
330
1F
100
AcDbEntity
  8
1-4
  6
Continuous
 62
     7
370
     9
100
AcDbText
 10
-1051.256660255226
 20
-908.5020655616554
 30
0.0
 40
22.86
  1
※デルタパターンの配列は一定ではありません。
 41
1.159090909090909
  7
ＭＳ ゴシック
100
AcDbText
  0
TEXT
  5
1B8
330
1F
100
AcDbEntity
  8
1-4
  6
Continuous
 62
     2
370
     9
100
AcDbText
 10
-1076.572790395376
 20
-720.6321448248787
 30
0.0
 40
30.48
  1
5.4
 50
90.0
 41
1.083333333333333
  7
ＭＳ ゴシック
100
AcDbText
  0
TEXT
  5
1B9
330
1F
100
AcDbEntity
  8
1-4
  6
Continuous
 62
     2
370
     9
100
AcDbText
 10
-1076.572790395376
 20
-546.4337673702754
 30
0.0
 40
30.48
  1
7.6
 50
90.0
 41
1.083333333333333
  7
ＭＳ ゴシック
100
AcDbText
  0
TEXT
  5
1BA
330
1F
100
AcDbEntity
  8
1-4
  6
Continuous
 62
     2
370
     9
100
AcDbText
 10
-990.8009173419023
 20
-402.533935348923
 30
0.0
 40
30.48
  1
5
 41
0.9999999999999998
  7
ＭＳ ゴシック
100
AcDbText
  0
TEXT
  5
1BB
330
1F
100
AcDbEntity
  8
1-4
  6
Continuous
 62
     2
370
     9
100
AcDbText
 10
-916.7419564888494
 20
-519.0326105746706
 30
0.0
 40
30.48
  1
5
 50
282.0789760484706
 41
0.9999999999999991
  7
ＭＳ ゴシック
100
AcDbText
  0
TEXT
  5
1BC
330
1F
100
AcDbEntity
  8
1-4
  6
Continuous
 62
     2
370
     9
100
AcDbText
 10
-332.2216425715264
 20
-489.8382516891892
 30
0.0
 40
30.48
  1
5
 41
0.9999999999999998
  7
ＭＳ ゴシック
100
AcDbText
  0
TEXT
  5
1BD
330
1F
100
AcDbEntity
  8
1-4
  6
Continuous
 62
     2
370
     9
100
AcDbText
 10
-294.3538581641036
 20
-627.2575450673262
 30
0.0
 40
30.48
  1
3
 50
0.0003544324611818
  7
ＭＳ ゴシック
100
AcDbText
  0
TEXT
  5
1BE
330
1F
100
AcDbEntity
  8
1-4
  6
Continuous
 62
     2
370
     9
100
AcDbText
 10
-202.9157287927575
 20
-641.4817191459036
 30
0.0
 40
30.48
  1
25
 50
90.0
 41
1.0625
  7
ＭＳ ゴシック
100
AcDbText
  0
TEXT
  5
1BF
330
1F
100
AcDbEntity
  8
1-4
  6
Continuous
 62
     7
370
     9
100
AcDbText
 10
-903.8703052417651
 20
-423.3390109665329
 30
0.0
 40
22.86
  1
デルタパターン
 41
1.142857142857143
  7
ＭＳ ゴシック
100
AcDbText
  0
TEXT
  5
1C0
330
1F
100
AcDbEntity
  8
1-4
  6
Continuous
 62
     2
370
     9
100
AcDbText
 10
-1071.256907695049
 20
-832.0920655616553
 30
0.0
 40
30.48
  1
ＤⅠ－２５　バー形状詳細　Ｓ＝１：２
 41
1.118055555555555
  7
ＭＳ ゴシック
100
AcDbText
  0
TEXT
  5
1C1
330
1F
100
AcDbEntity
  8
1-4
  6
Continuous
 62
     2
370
     9
100
AcDbText
 10
533.4797709697002
 20
-115.8458266469594
 30
0.0
 40
30.48
  1
25
 41
1.0625
  7
ＭＳ ゴシック
100
AcDbText
  0
TEXT
  5
1C2
330
1F
100
AcDbEntity
  8
1-4
  6
Continuous
 62
     2
370
     9
100
AcDbText
 10
804.0894987858953
 20
-35.97139513170376
 30
0.0
 40
30.48
  1
7
 50
90.0
 41
0.9999999999999998
  7
ＭＳ ゴシック
100
AcDbText
  0
TEXT
  5
1C3
330
1F
100
AcDbEntity
  8
1-4
  6
Continuous
 62
     2
370
     9
100
AcDbText
 10
804.0894987858953
 20
38.56060955975508
 30
0.0
 40
30.48
  1
40
 50
90.0
 41
1.0625
  7
ＭＳ ゴシック
100
AcDbText
  0
TEXT
  5
1C4
330
1F
100
AcDbEntity
  8
1-4
  6
Continuous
 62
     2
370
     9
100
AcDbText
 10
804.0894987858953
 20
750.5611522777662
 30
0.0
 40
30.48
  1
40
 50
90.0
 41
1.0625
  7
ＭＳ ゴシック
100
AcDbText
  0
TEXT
  5
1C5
330
1F
100
AcDbEntity
  8
1-4
  6
Continuous
 62
     2
370
     9
100
AcDbText
 10
804.0894987858953
 20
845.8230343380491
 30
0.0
 40
30.48
  1
7
 50
90.0
 41
0.9999999999999998
  7
ＭＳ ゴシック
100
AcDbText
  0
TEXT
  5
1C6
330
1F
100
AcDbEntity
  8
1-4
  6
Continuous
 62
     2
370
     9
100
AcDbText
 10
418.0898089104732
 20
383.3108190588051
 30
0.0
 40
30.48
  1
410
 50
90.0
 41
1.083333333333333
  7
ＭＳ ゴシック
100
AcDbText
  0
TEXT
  5
1C7
330
1F
100
AcDbEntity
  8
1-4
  6
Continuous
 62
     2
370
     9
100
AcDbText
 10
808.0896109586151
 20
383.3106953388937
 30
0.0
 40
30.48
  1
316
 50
90.0
 41
1.083333333333333
  7
ＭＳ ゴシック
100
AcDbText
  0
TEXT
  5
1C8
330
1F
100
AcDbEntity
  8
1-4
  6
Continuous
 62
     2
370
     9
100
AcDbText
 10
628.4798369536529
 20
-119.8458150997677
 30
0.0
 40
30.48
  1
70
 41
1.0625
  7
ＭＳ ゴシック
100
AcDbText
  0
TEXT
  5
1C9
330
1F
100
AcDbEntity
  8
1-4
  6
Continuous
 62
     2
370
     9
100
AcDbText
 10
603.4797544737123
 20
-199.8459553156672
 30
0.0
 40
30.48
  1
95
 41
1.0625
  7
ＭＳ ゴシック
100
AcDbText
  0
TEXT
  5
1CA
330
1F
100
AcDbEntity
  8
1-4
  6
Continuous
 62
     2
370
     9
100
AcDbText
 10
440.5281932933913
 20
-741.0708319256756
 30
0.0
 40
30.48
  1
圧接式細目グレーチング　ＱＸＪ　４１２５Ａ
 41
1.119047619047619
  7
ＭＳ ゴシック
100
AcDbText
  0
LWPOLYLINE
  5
1CB
330
1F
100
AcDbEntity
  8
1-4
  6
Continuous
 62
     7
370
     9
100
AcDbPolyline
 90
        4
 70
     1
 43
1.0
 10
-1157.662132469383
 20
-131.4858596389357
 42
0.4142135623731
 10
-1158.162132469383
 20
-130.9858596389357
 42
0.4142135623731
 10
-1158.662132469383
 20
-131.4858596389357
 42
0.4142135623731
 10
-1158.162132469383
 20
-131.9858596389357
 42
0.4142135623731
  0
LWPOLYLINE
  5
1CC
330
1F
100
AcDbEntity
  8
1-4
  6
Continuous
 62
     7
370
     9
100
AcDbPolyline
 90
        4
 70
     1
 43
1.0
 10
530.2298122096709
 20
-131.4858596389357
 42
0.4142135623731
 10
529.7298122096709
 20
-130.9858596389357
 42
0.4142135623731
 10
529.2298122096709
 20
-131.4858596389357
 42
0.4142135623731
 10
529.7298122096709
 20
-131.9858596389357
 42
0.4142135623731
  0
LWPOLYLINE
  5
1CD
330
1F
100
AcDbEntity
  8
1-4
  6
Continuous
 62
     7
370
     9
100
AcDbPolyline
 90
        4
 70
     1
 43
1.0
 10
580.2297297297297
 20
-131.4858596389357
 42
0.4142135623731
 10
579.7297297297297
 20
-130.9858596389357
 42
0.4142135623731
 10
579.2297297297297
 20
-131.4858596389357
 42
0.4142135623731
 10
579.7297297297297
 20
-131.9858596389357
 42
0.4142135623731
  0
LWPOLYLINE
  5
1CE
330
1F
100
AcDbEntity
  8
1-4
  6
Continuous
 62
     7
370
     9
100
AcDbPolyline
 90
        4
 70
     1
 43
1.0
 10
720.2296967377537
 20
-131.4858596389357
 42
0.4142135623731
 10
719.7296967377537
 20
-130.9858596389357
 42
0.4142135623731
 10
719.2296967377537
 20
-131.4858596389357
 42
0.4142135623731
 10
719.7296967377537
 20
-131.9858596389357
 42
0.4142135623731
  0
LWPOLYLINE
  5
1CF
330
1F
100
AcDbEntity
  8
1-4
  6
Continuous
 62
     7
370
     9
100
AcDbPolyline
 90
        4
 70
     1
 43
1.0
 10
530.2298122096709
 20
-211.4859998548353
 42
0.4142135623731
 10
529.7298122096709
 20
-210.9859998548353
 42
0.4142135623731
 10
529.2298122096709
 20
-211.4859998548353
 42
0.4142135623731
 10
529.7298122096709
 20
-211.9859998548353
 42
0.4142135623731
  0
LWPOLYLINE
  5
1D0
330
1F
100
AcDbEntity
  8
1-4
  6
Continuous
 62
     7
370
     9
100
AcDbPolyline
 90
        4
 70
     1
 43
1.0
 10
720.2294492979307
 20
-211.4859998548353
 42
0.4142135623731
 10
719.7294492979307
 20
-210.9859998548353
 42
0.4142135623731
 10
719.2294492979307
 20
-211.4859998548353
 42
0.4142135623731
 10
719.7294492979307
 20
-211.9859998548353
 42
0.4142135623731
  0
LWPOLYLINE
  5
1D1
330
1F
100
AcDbEntity
  8
1-4
  6
Continuous
 62
     7
370
     9
100
AcDbPolyline
 90
        4
 70
     1
 43
1.0
 10
430.2297297297299
 20
5.810827306798956
 42
0.4142135623731
 10
429.72972972973
 20
6.310827306798956
 42
0.4142135623731
 10
429.22972972973
 20
5.810827306798956
 42
0.4142135623731
 10
429.72972972973
 20
5.310827306798956
 42
0.4142135623731
  0
LWPOLYLINE
  5
1D2
330
1F
100
AcDbEntity
  8
1-4
  6
Continuous
 62
     7
370
     9
100
AcDbPolyline
 90
        4
 70
     1
 43
1.0
 10
430.2297297297299
 20
825.810810810811
 42
0.4142135623731
 10
429.72972972973
 20
826.310810810811
 42
0.4142135623731
 10
429.22972972973
 20
825.810810810811
 42
0.4142135623731
 10
429.72972972973
 20
825.310810810811
 42
0.4142135623731
  0
LWPOLYLINE
  5
1D3
330
1F
100
AcDbEntity
  8
1-4
  6
Continuous
 62
     7
370
     9
100
AcDbPolyline
 90
        4
 70
     1
 43
1.0
 10
820.2295317778719
 20
5.810827306798956
 42
0.4142135623731
 10
819.7295317778719
 20
6.310827306798956
 42
0.4142135623731
 10
819.2295317778719
 20
5.810827306798956
 42
0.4142135623731
 10
819.7295317778719
 20
5.310827306798956
 42
0.4142135623731
  0
LWPOLYLINE
  5
1D4
330
1F
100
AcDbEntity
  8
1-4
  6
Continuous
 62
     7
370
     9
100
AcDbPolyline
 90
        4
 70
     1
 43
1.0
 10
820.2295317778719
 20
19.81060131176093
 42
0.4142135623731
 10
819.7295317778719
 20
20.31060131176093
 42
0.4142135623731
 10
819.2295317778719
 20
19.81060131176093
 42
0.4142135623731
 10
819.7295317778719
 20
19.31060131176093
 42
0.4142135623731
  0
LWPOLYLINE
  5
1D5
330
1F
100
AcDbEntity
  8
1-4
  6
Continuous
 62
     7
370
     9
100
AcDbPolyline
 90
        4
 70
     1
 43
1.0
 10
820.2295317778719
 20
99.81049408783804
 42
0.4142135623731
 10
819.7295317778719
 20
100.310494087838
 42
0.4142135623731
 10
819.2295317778719
 20
99.81049408783804
 42
0.4142135623731
 10
819.7295317778719
 20
99.31049408783804
 42
0.4142135623731
  0
LWPOLYLINE
  5
1D6
330
1F
100
AcDbEntity
  8
1-4
  6
Continuous
 62
     7
370
     9
100
AcDbPolyline
 90
        4
 70
     1
 43
1.0
 10
820.2295317778719
 20
731.8108965899495
 42
0.4142135623731
 10
819.7295317778719
 20
732.3108965899495
 42
0.4142135623731
 10
819.2295317778719
 20
731.8108965899495
 42
0.4142135623731
 10
819.7295317778719
 20
731.3108965899495
 42
0.4142135623731
  0
LWPOLYLINE
  5
1D7
330
1F
100
AcDbEntity
  8
1-4
  6
Continuous
 62
     7
370
     9
100
AcDbPolyline
 90
        4
 70
     1
 43
1.0
 10
820.2295317778719
 20
811.8111605257602
 42
0.4142135623731
 10
819.7295317778719
 20
812.3111605257601
 42
0.4142135623731
 10
819.2295317778719
 20
811.8111605257602
 42
0.4142135623731
 10
819.7295317778719
 20
811.3111605257602
 42
0.4142135623731
  0
LWPOLYLINE
  5
1D8
330
1F
100
AcDbEntity
  8
1-4
  6
Continuous
 62
     7
370
     9
100
AcDbPolyline
 90
        4
 70
     1
 43
1.0
 10
820.2295317778719
 20
825.810810810811
 42
0.4142135623731
 10
819.7295317778719
 20
826.310810810811
 42
0.4142135623731
 10
819.2295317778719
 20
825.810810810811
 42
0.4142135623731
 10
819.7295317778719
 20
825.310810810811
 42
0.4142135623731
  0
LINE
  5
1D9
330
1F
100
AcDbEntity
  8
1-5
  6
Continuous
 62
     7
370
     9
100
AcDbLine
 10
644.7296967377537
 20
811.8109130859375
 30
0.0
 11
654.2967100401182
 21
834.9079358899917
 31
0.0
  0
LINE
  5
1DA
330
1F
100
AcDbEntity
  8
1-5
  6
Continuous
 62
     7
370
     9
100
AcDbLine
 10
644.7296967377537
 20
811.8109130859375
 30
0.0
 11
659.9489779085729
 21
831.6446995090794
 31
0.0
  0
LINE
  5
1DB
330
1F
100
AcDbEntity
  8
1-5
  6
Continuous
 62
     7
370
     9
100
AcDbLine
 10
644.7296967377537
 20
811.8109130859375
 30
0.0
 11
756.735806851774
 21
1005.81090978674
 31
0.0
  0
LINE
  5
1DC
330
1F
100
AcDbEntity
  8
1-5
  6
Continuous
 62
     7
370
     9
100
AcDbLine
 10
756.735806851774
 20
1005.81090978674
 30
0.0
 11
1340.48321698163
 21
1005.81090978674
 31
0.0
  0
TEXT
  5
1DD
330
1F
100
AcDbEntity
  8
1-5
  6
Continuous
 62
     7
370
     9
100
AcDbText
 10
775.107892010663
 20
1026.989795317779
 30
0.0
 40
22.86
  1
かさ上げ材：□７０×４０×３．２
 41
1.15625
  7
ＭＳ ゴシック
100
AcDbText
  0
LINE
  5
1DE
330
1F
100
AcDbEntity
  8
1-1
  6
JWW_DASHED1
 62
     2
370
     9
100
AcDbLine
 10
-1148.161604597762
 20
731.8108965899495
 30
0.0
 11
-1148.161604597762
 21
811.8109130859375
 31
0.0
  0
LINE
  5
1DF
330
1F
100
AcDbEntity
  8
1-1
  6
JWW_DASHED1
 62
     2
370
     9
100
AcDbLine
 10
-1148.161604597762
 20
99.8107415276607
 30
0.0
 11
-1148.161604597762
 21
19.8107250316724
 31
0.0
  0
LINE
  5
1E0
330
1F
100
AcDbEntity
  8
1-1
  6
JWW_DASHED1
 62
     2
370
     9
100
AcDbLine
 10
-1148.161604597762
 20
19.8107250316724
 30
0.0
 11
-1148.161604597762
 21
99.8107415276607
 31
0.0
  0
LINE
  5
1E1
330
1F
100
AcDbEntity
  8
1-1
  6
JWW_DASHED1
 62
     2
370
     9
100
AcDbLine
 10
-1148.161604597762
 20
19.8107250316724
 30
0.0
 11
-1148.161604597762
 21
99.8107415276607
 31
0.0
  0
LINE
  5
1E2
330
1F
100
AcDbEntity
  8
1-2
  6
Continuous
 62
     3
370
     9
100
AcDbLine
 10
-158.1621324693833
 20
5.810827306798956
 30
0.0
 11
-1158.162132469383
 21
5.810827306798956
 31
0.0
  0
LINE
  5
1E3
330
1F
100
AcDbEntity
  8
1-2
  6
Continuous
 62
     3
370
     9
100
AcDbLine
 10
-1158.162132469383
 20
825.810810810811
 30
0.0
 11
-158.1621324693833
 21
825.810810810811
 31
0.0
  0
LINE
  5
1E4
330
1F
100
AcDbEntity
  8
1-2
  6
Continuous
 62
     3
370
     9
100
AcDbLine
 10
-1158.162132469383
 20
816.8101872624578
 30
0.0
 11
-158.1621324693833
 21
816.8101872624578
 31
0.0
  0
LINE
  5
1E5
330
1F
100
AcDbEntity
  8
1-2
  6
Continuous
 62
     3
370
     9
100
AcDbLine
 10
-158.1621324693833
 20
14.81046109586146
 30
0.0
 11
-1158.162132469383
 21
14.81046109586146
 31
0.0
  0
LINE
  5
1E6
330
1F
100
AcDbEntity
  8
1-2
  6
Continuous
 62
     3
370
     9
100
AcDbLine
 10
-158.1621324693833
 20
709.8105270798144
 30
0.0
 11
-1158.162132469383
 21
709.8105270798144
 31
0.0
  0
LINE
  5
1E7
330
1F
100
AcDbEntity
  8
1-2
  6
Continuous
 62
     3
370
     9
100
AcDbLine
 10
-158.1621324693833
 20
309.8109394795188
 30
0.0
 11
-1158.162132469383
 21
309.8109394795188
 31
0.0
  0
LINE
  5
1E8
330
1F
100
AcDbEntity
  8
1-2
  6
Continuous
 62
     3
370
     9
100
AcDbLine
 10
-168.1616705817146
 20
721.8103687183279
 30
0.0
 11
-168.1616705817146
 21
816.8101872624578
 31
0.0
  0
LINE
  5
1E9
330
1F
100
AcDbEntity
  8
1-2
  6
Continuous
 62
     3
370
     9
100
AcDbLine
 10
-158.1621324693833
 20
321.8106573981208
 30
0.0
 11
-1158.162132469383
 21
321.8106573981208
 31
0.0
  0
LINE
  5
1EA
330
1F
100
AcDbEntity
  8
1-4
  6
Continuous
 62
     7
370
     9
100
AcDbLine
 10
-158.1621324693833
 20
-19.18913145323046
 30
0.0
 11
-158.1621324693833
 21
-134.4858200485641
 31
0.0
  0
LINE
  5
1EB
330
1F
100
AcDbEntity
  8
1-2
  6
Continuous
 62
     3
370
     9
100
AcDbLine
 10
-158.1621324693833
 20
721.8103687183279
 30
0.0
 11
-1158.162132469383
 21
721.8103687183279
 31
0.0
  0
LINE
  5
1EC
330
1F
100
AcDbEntity
  8
1-2
  6
Continuous
 62
     3
370
     9
100
AcDbLine
 10
-158.1621324693833
 20
509.8109807194891
 30
0.0
 11
-1158.162132469383
 21
509.8109807194891
 31
0.0
  0
LINE
  5
1ED
330
1F
100
AcDbEntity
  8
1-2
  6
Continuous
 62
     3
370
     9
100
AcDbLine
 10
-158.1621324693833
 20
521.8108223580026
 30
0.0
 11
-1158.162132469383
 21
521.8108223580026
 31
0.0
  0
LINE
  5
1EE
330
1F
100
AcDbEntity
  8
1-2
  6
Continuous
 62
     3
370
     9
100
AcDbLine
 10
-168.1616705817146
 20
321.8106573981208
 30
0.0
 11
-168.1616705817146
 21
509.8109807194891
 31
0.0
  0
LINE
  5
1EF
330
1F
100
AcDbEntity
  8
1-2
  6
Continuous
 62
     3
370
     9
100
AcDbLine
 10
-168.1616705817146
 20
521.8108223580026
 30
0.0
 11
-168.1616705817146
 21
709.8105270798144
 31
0.0
  0
LINE
  5
1F0
330
1F
100
AcDbEntity
  8
1-2
  6
Continuous
 62
     3
370
     9
100
AcDbLine
 10
-158.1621324693833
 20
5.810827306798956
 30
0.0
 11
-158.1621324693833
 21
825.810810810811
 31
0.0
  0
LINE
  5
1F1
330
1F
100
AcDbEntity
  8
1-2
  6
Continuous
 62
     3
370
     9
100
AcDbLine
 10
-158.1621324693833
 20
109.8108982395482
 30
0.0
 11
-1158.162132469383
 21
109.8108982395482
 31
0.0
  0
LINE
  5
1F2
330
1F
100
AcDbEntity
  8
1-2
  6
Continuous
 62
     3
370
     9
100
AcDbLine
 10
-158.1621324693833
 20
121.8106161581505
 30
0.0
 11
-1158.162132469383
 21
121.8106161581505
 31
0.0
  0
LINE
  5
1F3
330
1F
100
AcDbEntity
  8
1-2
  6
Continuous
 62
     3
370
     9
100
AcDbLine
 10
-168.1616705817146
 20
14.81046109586146
 30
0.0
 11
-168.1616705817146
 21
109.8108982395482
 31
0.0
  0
LINE
  5
1F4
330
1F
100
AcDbEntity
  8
1-2
  6
Continuous
 62
     3
370
     9
100
AcDbLine
 10
-168.1616705817146
 20
121.8106161581505
 30
0.0
 11
-168.1616705817146
 21
309.8109394795188
 31
0.0
  0
LWPOLYLINE
  5
1F5
330
1F
100
AcDbEntity
  8
1-4
  6
Continuous
 62
     7
370
     9
100
AcDbPolyline
 90
        4
 70
     1
 43
1.0
 10
-157.6621324693833
 20
-131.4858596389357
 42
0.4142135623731
 10
-158.1621324693833
 20
-130.9858596389357
 42
0.4142135623731
 10
-158.6621324693833
 20
-131.4858596389357
 42
0.4142135623731
 10
-158.1621324693833
 20
-131.9858596389357
 42
0.4142135623731
  0
LINE
  5
1F6
330
1F
100
AcDbEntity
  8
1-1
  6
JWW_DASHED1
 62
     2
370
     9
100
AcDbLine
 10
-1148.161604597762
 20
731.8108965899495
 30
0.0
 11
-168.1616705817146
 21
731.8108965899495
 31
0.0
  0
LINE
  5
1F7
330
1F
100
AcDbEntity
  8
1-1
  6
JWW_DASHED1
 62
     2
370
     9
100
AcDbLine
 10
-168.1616705817146
 20
731.8108965899495
 30
0.0
 11
-168.1616705817146
 21
811.8109130859375
 31
0.0
  0
LINE
  5
1F8
330
1F
100
AcDbEntity
  8
1-1
  6
JWW_DASHED1
 62
     2
370
     9
100
AcDbLine
 10
-1148.161604597762
 20
811.8109130859375
 30
0.0
 11
-168.1616705817146
 21
811.8109130859375
 31
0.0
  0
LINE
  5
1F9
330
1F
100
AcDbEntity
  8
1-1
  6
JWW_DASHED1
 62
     2
370
     9
100
AcDbLine
 10
-1148.161604597762
 20
99.8107415276607
 30
0.0
 11
-168.1616705817146
 21
99.8107415276607
 31
0.0
  0
LINE
  5
1FA
330
1F
100
AcDbEntity
  8
1-1
  6
JWW_DASHED1
 62
     2
370
     9
100
AcDbLine
 10
-168.1616705817146
 20
99.8107415276607
 30
0.0
 11
-168.1616705817146
 21
19.8107250316724
 31
0.0
  0
LINE
  5
1FB
330
1F
100
AcDbEntity
  8
1-1
  6
JWW_DASHED1
 62
     2
370
     9
100
AcDbLine
 10
-1148.161604597762
 20
19.8107250316724
 30
0.0
 11
-168.1616705817146
 21
19.8107250316724
 31
0.0
  0
LINE
  5
1FC
330
1F
100
AcDbEntity
  8
1-1
  6
JWW_DASHED1
 62
     2
370
     9
100
AcDbLine
 10
-168.1616705817146
 20
19.8107250316724
 30
0.0
 11
-168.1616705817146
 21
99.8107415276607
 31
0.0
  0
LINE
  5
1FD
330
1F
100
AcDbEntity
  8
1-1
  6
JWW_DASHED1
 62
     2
370
     9
100
AcDbLine
 10
-168.1616705817146
 20
19.8107250316724
 30
0.0
 11
-168.1616705817146
 21
99.8107415276607
 31
0.0
  0
LINE
  5
1FE
330
1F
100
AcDbEntity
  8
1-4
  6
Continuous
 62
     7
370
     9
100
AcDbLine
 10
-1158.162132469383
 20
-131.4858596389357
 30
0.0
 11
-158.1621324693833
 21
-131.4858596389357
 31
0.0
  0
TEXT
  5
1FF
330
1F
100
AcDbEntity
  8
1-4
  6
Continuous
 62
     2
370
   211
100
AcDbText
 10
-690.6621324693833
 20
-119.8458150997677
 30
0.0
 40
30.48
  1
500
 41
1.083333333333333
  7
ＭＳ ゴシック
100
AcDbText
  0
LINE
  5
200
330
1F
100
AcDbEntity
  8
1-2
  6
Continuous
 62
     3
370
     9
100
AcDbLine
 10
-1118.162594357052
 20
121.8106161581505
 30
0.0
 11
-1118.162594357052
 21
309.8109394795188
 31
0.0
  0
LINE
  5
201
330
1F
100
AcDbEntity
  8
1-2
  6
Continuous
 62
     3
370
     9
100
AcDbLine
 10
-1118.162594357052
 20
14.81046109586146
 30
0.0
 11
-1118.162594357052
 21
109.8108982395482
 31
0.0
  0
LINE
  5
202
330
1F
100
AcDbEntity
  8
1-2
  6
Continuous
 62
     3
370
     9
100
AcDbLine
 10
-1128.162132469383
 20
121.8106161581505
 30
0.0
 11
-1128.162132469383
 21
309.8109394795188
 31
0.0
  0
LINE
  5
203
330
1F
100
AcDbEntity
  8
1-2
  6
Continuous
 62
     3
370
     9
100
AcDbLine
 10
-1128.162132469383
 20
14.81046109586146
 30
0.0
 11
-1128.162132469383
 21
109.8108982395482
 31
0.0
  0
LINE
  5
204
330
1F
100
AcDbEntity
  8
1-2
  6
Continuous
 62
     3
370
     9
100
AcDbLine
 10
-1118.162594357052
 20
521.8108223580026
 30
0.0
 11
-1118.162594357052
 21
709.8105270798144
 31
0.0
  0
LINE
  5
205
330
1F
100
AcDbEntity
  8
1-2
  6
Continuous
 62
     3
370
     9
100
AcDbLine
 10
-1118.162594357052
 20
321.8106573981208
 30
0.0
 11
-1118.162594357052
 21
509.8109807194891
 31
0.0
  0
LINE
  5
206
330
1F
100
AcDbEntity
  8
1-2
  6
Continuous
 62
     3
370
     9
100
AcDbLine
 10
-1128.162132469383
 20
521.8108223580026
 30
0.0
 11
-1128.162132469383
 21
709.8105270798144
 31
0.0
  0
LINE
  5
207
330
1F
100
AcDbEntity
  8
1-2
  6
Continuous
 62
     3
370
     9
100
AcDbLine
 10
-1128.162132469383
 20
321.8106573981208
 30
0.0
 11
-1128.162132469383
 21
509.8109807194891
 31
0.0
  0
LINE
  5
208
330
1F
100
AcDbEntity
  8
1-2
  6
Continuous
 62
     3
370
     9
100
AcDbLine
 10
-1118.162594357052
 20
721.8103687183279
 30
0.0
 11
-1118.162594357052
 21
816.8101872624578
 31
0.0
  0
LINE
  5
209
330
1F
100
AcDbEntity
  8
1-2
  6
Continuous
 62
     3
370
     9
100
AcDbLine
 10
-1128.162132469383
 20
721.8103687183279
 30
0.0
 11
-1128.162132469383
 21
816.8101872624578
 31
0.0
  0
LINE
  5
20A
330
1F
100
AcDbEntity
  8
1-2
  6
Continuous
 62
     3
370
     9
100
AcDbLine
 10
-1088.162594357052
 20
121.8106161581505
 30
0.0
 11
-1088.162594357052
 21
309.8109394795188
 31
0.0
  0
LINE
  5
20B
330
1F
100
AcDbEntity
  8
1-2
  6
Continuous
 62
     3
370
     9
100
AcDbLine
 10
-1088.162594357052
 20
14.81046109586146
 30
0.0
 11
-1088.162594357052
 21
109.8108982395482
 31
0.0
  0
LINE
  5
20C
330
1F
100
AcDbEntity
  8
1-2
  6
Continuous
 62
     3
370
     9
100
AcDbLine
 10
-1098.162132469383
 20
121.8106161581505
 30
0.0
 11
-1098.162132469383
 21
309.8109394795188
 31
0.0
  0
LINE
  5
20D
330
1F
100
AcDbEntity
  8
1-2
  6
Continuous
 62
     3
370
     9
100
AcDbLine
 10
-1098.162132469383
 20
14.81046109586146
 30
0.0
 11
-1098.162132469383
 21
109.8108982395482
 31
0.0
  0
LINE
  5
20E
330
1F
100
AcDbEntity
  8
1-2
  6
Continuous
 62
     3
370
     9
100
AcDbLine
 10
-1088.162594357052
 20
521.8108223580026
 30
0.0
 11
-1088.162594357052
 21
709.8105270798144
 31
0.0
  0
LINE
  5
20F
330
1F
100
AcDbEntity
  8
1-2
  6
Continuous
 62
     3
370
     9
100
AcDbLine
 10
-1088.162594357052
 20
321.8106573981208
 30
0.0
 11
-1088.162594357052
 21
509.8109807194891
 31
0.0
  0
LINE
  5
210
330
1F
100
AcDbEntity
  8
1-2
  6
Continuous
 62
     3
370
     9
100
AcDbLine
 10
-1098.162132469383
 20
521.8108223580026
 30
0.0
 11
-1098.162132469383
 21
709.8105270798144
 31
0.0
  0
LINE
  5
211
330
1F
100
AcDbEntity
  8
1-2
  6
Continuous
 62
     3
370
     9
100
AcDbLine
 10
-1098.162132469383
 20
321.8106573981208
 30
0.0
 11
-1098.162132469383
 21
509.8109807194891
 31
0.0
  0
LINE
  5
212
330
1F
100
AcDbEntity
  8
1-2
  6
Continuous
 62
     3
370
     9
100
AcDbLine
 10
-1088.162594357052
 20
721.8103687183279
 30
0.0
 11
-1088.162594357052
 21
816.8101872624578
 31
0.0
  0
LINE
  5
213
330
1F
100
AcDbEntity
  8
1-2
  6
Continuous
 62
     3
370
     9
100
AcDbLine
 10
-1098.162132469383
 20
721.8103687183279
 30
0.0
 11
-1098.162132469383
 21
816.8101872624578
 31
0.0
  0
LINE
  5
214
330
1F
100
AcDbEntity
  8
1-2
  6
Continuous
 62
     3
370
     9
100
AcDbLine
 10
-1058.162594357052
 20
121.8106161581505
 30
0.0
 11
-1058.162594357052
 21
309.8109394795188
 31
0.0
  0
LINE
  5
215
330
1F
100
AcDbEntity
  8
1-2
  6
Continuous
 62
     3
370
     9
100
AcDbLine
 10
-1058.162594357052
 20
14.81046109586146
 30
0.0
 11
-1058.162594357052
 21
109.8108982395482
 31
0.0
  0
LINE
  5
216
330
1F
100
AcDbEntity
  8
1-2
  6
Continuous
 62
     3
370
     9
100
AcDbLine
 10
-1068.162132469383
 20
121.8106161581505
 30
0.0
 11
-1068.162132469383
 21
309.8109394795188
 31
0.0
  0
LINE
  5
217
330
1F
100
AcDbEntity
  8
1-2
  6
Continuous
 62
     3
370
     9
100
AcDbLine
 10
-1068.162132469383
 20
14.81046109586146
 30
0.0
 11
-1068.162132469383
 21
109.8108982395482
 31
0.0
  0
LINE
  5
218
330
1F
100
AcDbEntity
  8
1-2
  6
Continuous
 62
     3
370
     9
100
AcDbLine
 10
-1058.162594357052
 20
521.8108223580026
 30
0.0
 11
-1058.162594357052
 21
709.8105270798144
 31
0.0
  0
LINE
  5
219
330
1F
100
AcDbEntity
  8
1-2
  6
Continuous
 62
     3
370
     9
100
AcDbLine
 10
-1058.162594357052
 20
321.8106573981208
 30
0.0
 11
-1058.162594357052
 21
509.8109807194891
 31
0.0
  0
LINE
  5
21A
330
1F
100
AcDbEntity
  8
1-2
  6
Continuous
 62
     3
370
     9
100
AcDbLine
 10
-1068.162132469383
 20
521.8108223580026
 30
0.0
 11
-1068.162132469383
 21
709.8105270798144
 31
0.0
  0
LINE
  5
21B
330
1F
100
AcDbEntity
  8
1-2
  6
Continuous
 62
     3
370
     9
100
AcDbLine
 10
-1068.162132469383
 20
321.8106573981208
 30
0.0
 11
-1068.162132469383
 21
509.8109807194891
 31
0.0
  0
LINE
  5
21C
330
1F
100
AcDbEntity
  8
1-2
  6
Continuous
 62
     3
370
     9
100
AcDbLine
 10
-1058.162594357052
 20
721.8103687183279
 30
0.0
 11
-1058.162594357052
 21
816.8101872624578
 31
0.0
  0
LINE
  5
21D
330
1F
100
AcDbEntity
  8
1-2
  6
Continuous
 62
     3
370
     9
100
AcDbLine
 10
-1068.162132469383
 20
721.8103687183279
 30
0.0
 11
-1068.162132469383
 21
816.8101872624578
 31
0.0
  0
LINE
  5
21E
330
1F
100
AcDbEntity
  8
1-2
  6
Continuous
 62
     3
370
     9
100
AcDbLine
 10
-1028.162594357052
 20
121.8106161581505
 30
0.0
 11
-1028.162594357052
 21
309.8109394795188
 31
0.0
  0
LINE
  5
21F
330
1F
100
AcDbEntity
  8
1-2
  6
Continuous
 62
     3
370
     9
100
AcDbLine
 10
-1028.162594357052
 20
14.81046109586146
 30
0.0
 11
-1028.162594357052
 21
109.8108982395482
 31
0.0
  0
LINE
  5
220
330
1F
100
AcDbEntity
  8
1-2
  6
Continuous
 62
     3
370
     9
100
AcDbLine
 10
-1038.162132469383
 20
121.8106161581505
 30
0.0
 11
-1038.162132469383
 21
309.8109394795188
 31
0.0
  0
LINE
  5
221
330
1F
100
AcDbEntity
  8
1-2
  6
Continuous
 62
     3
370
     9
100
AcDbLine
 10
-1038.162132469383
 20
14.81046109586146
 30
0.0
 11
-1038.162132469383
 21
109.8108982395482
 31
0.0
  0
LINE
  5
222
330
1F
100
AcDbEntity
  8
1-2
  6
Continuous
 62
     3
370
     9
100
AcDbLine
 10
-1028.162594357052
 20
521.8108223580026
 30
0.0
 11
-1028.162594357052
 21
709.8105270798144
 31
0.0
  0
LINE
  5
223
330
1F
100
AcDbEntity
  8
1-2
  6
Continuous
 62
     3
370
     9
100
AcDbLine
 10
-1028.162594357052
 20
321.8106573981208
 30
0.0
 11
-1028.162594357052
 21
509.8109807194891
 31
0.0
  0
LINE
  5
224
330
1F
100
AcDbEntity
  8
1-2
  6
Continuous
 62
     3
370
     9
100
AcDbLine
 10
-1038.162132469383
 20
521.8108223580026
 30
0.0
 11
-1038.162132469383
 21
709.8105270798144
 31
0.0
  0
LINE
  5
225
330
1F
100
AcDbEntity
  8
1-2
  6
Continuous
 62
     3
370
     9
100
AcDbLine
 10
-1038.162132469383
 20
321.8106573981208
 30
0.0
 11
-1038.162132469383
 21
509.8109807194891
 31
0.0
  0
LINE
  5
226
330
1F
100
AcDbEntity
  8
1-2
  6
Continuous
 62
     3
370
     9
100
AcDbLine
 10
-1028.162594357052
 20
721.8103687183279
 30
0.0
 11
-1028.162594357052
 21
816.8101872624578
 31
0.0
  0
LINE
  5
227
330
1F
100
AcDbEntity
  8
1-2
  6
Continuous
 62
     3
370
     9
100
AcDbLine
 10
-1038.162132469383
 20
721.8103687183279
 30
0.0
 11
-1038.162132469383
 21
816.8101872624578
 31
0.0
  0
LINE
  5
228
330
1F
100
AcDbEntity
  8
1-2
  6
Continuous
 62
     3
370
     9
100
AcDbLine
 10
-998.1625943570522
 20
121.8106161581505
 30
0.0
 11
-998.1625943570522
 21
309.8109394795188
 31
0.0
  0
LINE
  5
229
330
1F
100
AcDbEntity
  8
1-2
  6
Continuous
 62
     3
370
     9
100
AcDbLine
 10
-998.1625943570522
 20
14.81046109586146
 30
0.0
 11
-998.1625943570522
 21
109.8108982395482
 31
0.0
  0
LINE
  5
22A
330
1F
100
AcDbEntity
  8
1-2
  6
Continuous
 62
     3
370
     9
100
AcDbLine
 10
-1008.162132469383
 20
121.8106161581505
 30
0.0
 11
-1008.162132469383
 21
309.8109394795188
 31
0.0
  0
LINE
  5
22B
330
1F
100
AcDbEntity
  8
1-2
  6
Continuous
 62
     3
370
     9
100
AcDbLine
 10
-1008.162132469383
 20
14.81046109586146
 30
0.0
 11
-1008.162132469383
 21
109.8108982395482
 31
0.0
  0
LINE
  5
22C
330
1F
100
AcDbEntity
  8
1-2
  6
Continuous
 62
     3
370
     9
100
AcDbLine
 10
-998.1625943570522
 20
521.8108223580026
 30
0.0
 11
-998.1625943570522
 21
709.8105270798144
 31
0.0
  0
LINE
  5
22D
330
1F
100
AcDbEntity
  8
1-2
  6
Continuous
 62
     3
370
     9
100
AcDbLine
 10
-998.1625943570522
 20
321.8106573981208
 30
0.0
 11
-998.1625943570522
 21
509.8109807194891
 31
0.0
  0
LINE
  5
22E
330
1F
100
AcDbEntity
  8
1-2
  6
Continuous
 62
     3
370
     9
100
AcDbLine
 10
-1008.162132469383
 20
521.8108223580026
 30
0.0
 11
-1008.162132469383
 21
709.8105270798144
 31
0.0
  0
LINE
  5
22F
330
1F
100
AcDbEntity
  8
1-2
  6
Continuous
 62
     3
370
     9
100
AcDbLine
 10
-1008.162132469383
 20
321.8106573981208
 30
0.0
 11
-1008.162132469383
 21
509.8109807194891
 31
0.0
  0
LINE
  5
230
330
1F
100
AcDbEntity
  8
1-2
  6
Continuous
 62
     3
370
     9
100
AcDbLine
 10
-998.1625943570522
 20
721.8103687183279
 30
0.0
 11
-998.1625943570522
 21
816.8101872624578
 31
0.0
  0
LINE
  5
231
330
1F
100
AcDbEntity
  8
1-2
  6
Continuous
 62
     3
370
     9
100
AcDbLine
 10
-1008.162132469383
 20
721.8103687183279
 30
0.0
 11
-1008.162132469383
 21
816.8101872624578
 31
0.0
  0
LINE
  5
232
330
1F
100
AcDbEntity
  8
1-2
  6
Continuous
 62
     3
370
     9
100
AcDbLine
 10
-968.1625943570522
 20
121.8106161581505
 30
0.0
 11
-968.1625943570522
 21
309.8109394795188
 31
0.0
  0
LINE
  5
233
330
1F
100
AcDbEntity
  8
1-2
  6
Continuous
 62
     3
370
     9
100
AcDbLine
 10
-968.1625943570522
 20
14.81046109586146
 30
0.0
 11
-968.1625943570522
 21
109.8108982395482
 31
0.0
  0
LINE
  5
234
330
1F
100
AcDbEntity
  8
1-2
  6
Continuous
 62
     3
370
     9
100
AcDbLine
 10
-978.1621324693833
 20
121.8106161581505
 30
0.0
 11
-978.1621324693833
 21
309.8109394795188
 31
0.0
  0
LINE
  5
235
330
1F
100
AcDbEntity
  8
1-2
  6
Continuous
 62
     3
370
     9
100
AcDbLine
 10
-978.1621324693833
 20
14.81046109586146
 30
0.0
 11
-978.1621324693833
 21
109.8108982395482
 31
0.0
  0
LINE
  5
236
330
1F
100
AcDbEntity
  8
1-2
  6
Continuous
 62
     3
370
     9
100
AcDbLine
 10
-968.1625943570522
 20
521.8108223580026
 30
0.0
 11
-968.1625943570522
 21
709.8105270798144
 31
0.0
  0
LINE
  5
237
330
1F
100
AcDbEntity
  8
1-2
  6
Continuous
 62
     3
370
     9
100
AcDbLine
 10
-968.1625943570522
 20
321.8106573981208
 30
0.0
 11
-968.1625943570522
 21
509.8109807194891
 31
0.0
  0
LINE
  5
238
330
1F
100
AcDbEntity
  8
1-2
  6
Continuous
 62
     3
370
     9
100
AcDbLine
 10
-978.1621324693833
 20
521.8108223580026
 30
0.0
 11
-978.1621324693833
 21
709.8105270798144
 31
0.0
  0
LINE
  5
239
330
1F
100
AcDbEntity
  8
1-2
  6
Continuous
 62
     3
370
     9
100
AcDbLine
 10
-978.1621324693833
 20
321.8106573981208
 30
0.0
 11
-978.1621324693833
 21
509.8109807194891
 31
0.0
  0
LINE
  5
23A
330
1F
100
AcDbEntity
  8
1-2
  6
Continuous
 62
     3
370
     9
100
AcDbLine
 10
-968.1625943570522
 20
721.8103687183279
 30
0.0
 11
-968.1625943570522
 21
816.8101872624578
 31
0.0
  0
LINE
  5
23B
330
1F
100
AcDbEntity
  8
1-2
  6
Continuous
 62
     3
370
     9
100
AcDbLine
 10
-978.1621324693833
 20
721.8103687183279
 30
0.0
 11
-978.1621324693833
 21
816.8101872624578
 31
0.0
  0
LINE
  5
23C
330
1F
100
AcDbEntity
  8
1-2
  6
Continuous
 62
     3
370
     9
100
AcDbLine
 10
-938.1625943570522
 20
121.8106161581505
 30
0.0
 11
-938.1625943570522
 21
309.8109394795188
 31
0.0
  0
LINE
  5
23D
330
1F
100
AcDbEntity
  8
1-2
  6
Continuous
 62
     3
370
     9
100
AcDbLine
 10
-938.1625943570522
 20
14.81046109586146
 30
0.0
 11
-938.1625943570522
 21
109.8108982395482
 31
0.0
  0
LINE
  5
23E
330
1F
100
AcDbEntity
  8
1-2
  6
Continuous
 62
     3
370
     9
100
AcDbLine
 10
-948.1621324693833
 20
121.8106161581505
 30
0.0
 11
-948.1621324693833
 21
309.8109394795188
 31
0.0
  0
LINE
  5
23F
330
1F
100
AcDbEntity
  8
1-2
  6
Continuous
 62
     3
370
     9
100
AcDbLine
 10
-948.1621324693833
 20
14.81046109586146
 30
0.0
 11
-948.1621324693833
 21
109.8108982395482
 31
0.0
  0
LINE
  5
240
330
1F
100
AcDbEntity
  8
1-2
  6
Continuous
 62
     3
370
     9
100
AcDbLine
 10
-938.1625943570522
 20
521.8108223580026
 30
0.0
 11
-938.1625943570522
 21
709.8105270798144
 31
0.0
  0
LINE
  5
241
330
1F
100
AcDbEntity
  8
1-2
  6
Continuous
 62
     3
370
     9
100
AcDbLine
 10
-938.1625943570522
 20
321.8106573981208
 30
0.0
 11
-938.1625943570522
 21
509.8109807194891
 31
0.0
  0
LINE
  5
242
330
1F
100
AcDbEntity
  8
1-2
  6
Continuous
 62
     3
370
     9
100
AcDbLine
 10
-948.1621324693833
 20
521.8108223580026
 30
0.0
 11
-948.1621324693833
 21
709.8105270798144
 31
0.0
  0
LINE
  5
243
330
1F
100
AcDbEntity
  8
1-2
  6
Continuous
 62
     3
370
     9
100
AcDbLine
 10
-948.1621324693833
 20
321.8106573981208
 30
0.0
 11
-948.1621324693833
 21
509.8109807194891
 31
0.0
  0
LINE
  5
244
330
1F
100
AcDbEntity
  8
1-2
  6
Continuous
 62
     3
370
     9
100
AcDbLine
 10
-938.1625943570522
 20
721.8103687183279
 30
0.0
 11
-938.1625943570522
 21
816.8101872624578
 31
0.0
  0
LINE
  5
245
330
1F
100
AcDbEntity
  8
1-2
  6
Continuous
 62
     3
370
     9
100
AcDbLine
 10
-948.1621324693833
 20
721.8103687183279
 30
0.0
 11
-948.1621324693833
 21
816.8101872624578
 31
0.0
  0
LINE
  5
246
330
1F
100
AcDbEntity
  8
1-2
  6
Continuous
 62
     3
370
     9
100
AcDbLine
 10
-908.1625943570522
 20
121.8106161581505
 30
0.0
 11
-908.1625943570522
 21
309.8109394795188
 31
0.0
  0
LINE
  5
247
330
1F
100
AcDbEntity
  8
1-2
  6
Continuous
 62
     3
370
     9
100
AcDbLine
 10
-908.1625943570522
 20
14.81046109586146
 30
0.0
 11
-908.1625943570522
 21
109.8108982395482
 31
0.0
  0
LINE
  5
248
330
1F
100
AcDbEntity
  8
1-2
  6
Continuous
 62
     3
370
     9
100
AcDbLine
 10
-918.1621324693833
 20
121.8106161581505
 30
0.0
 11
-918.1621324693833
 21
309.8109394795188
 31
0.0
  0
LINE
  5
249
330
1F
100
AcDbEntity
  8
1-2
  6
Continuous
 62
     3
370
     9
100
AcDbLine
 10
-918.1621324693833
 20
14.81046109586146
 30
0.0
 11
-918.1621324693833
 21
109.8108982395482
 31
0.0
  0
LINE
  5
24A
330
1F
100
AcDbEntity
  8
1-2
  6
Continuous
 62
     3
370
     9
100
AcDbLine
 10
-908.1625943570522
 20
521.8108223580026
 30
0.0
 11
-908.1625943570522
 21
709.8105270798144
 31
0.0
  0
LINE
  5
24B
330
1F
100
AcDbEntity
  8
1-2
  6
Continuous
 62
     3
370
     9
100
AcDbLine
 10
-908.1625943570522
 20
321.8106573981208
 30
0.0
 11
-908.1625943570522
 21
509.8109807194891
 31
0.0
  0
LINE
  5
24C
330
1F
100
AcDbEntity
  8
1-2
  6
Continuous
 62
     3
370
     9
100
AcDbLine
 10
-918.1621324693833
 20
521.8108223580026
 30
0.0
 11
-918.1621324693833
 21
709.8105270798144
 31
0.0
  0
LINE
  5
24D
330
1F
100
AcDbEntity
  8
1-2
  6
Continuous
 62
     3
370
     9
100
AcDbLine
 10
-918.1621324693833
 20
321.8106573981208
 30
0.0
 11
-918.1621324693833
 21
509.8109807194891
 31
0.0
  0
LINE
  5
24E
330
1F
100
AcDbEntity
  8
1-2
  6
Continuous
 62
     3
370
     9
100
AcDbLine
 10
-908.1625943570522
 20
721.8103687183279
 30
0.0
 11
-908.1625943570522
 21
816.8101872624578
 31
0.0
  0
LINE
  5
24F
330
1F
100
AcDbEntity
  8
1-2
  6
Continuous
 62
     3
370
     9
100
AcDbLine
 10
-918.1621324693833
 20
721.8103687183279
 30
0.0
 11
-918.1621324693833
 21
816.8101872624578
 31
0.0
  0
LINE
  5
250
330
1F
100
AcDbEntity
  8
1-2
  6
Continuous
 62
     3
370
     9
100
AcDbLine
 10
-878.1625943570522
 20
121.8106161581505
 30
0.0
 11
-878.1625943570522
 21
309.8109394795188
 31
0.0
  0
LINE
  5
251
330
1F
100
AcDbEntity
  8
1-2
  6
Continuous
 62
     3
370
     9
100
AcDbLine
 10
-878.1625943570522
 20
14.81046109586146
 30
0.0
 11
-878.1625943570522
 21
109.8108982395482
 31
0.0
  0
LINE
  5
252
330
1F
100
AcDbEntity
  8
1-2
  6
Continuous
 62
     3
370
     9
100
AcDbLine
 10
-888.1621324693833
 20
121.8106161581505
 30
0.0
 11
-888.1621324693833
 21
309.8109394795188
 31
0.0
  0
LINE
  5
253
330
1F
100
AcDbEntity
  8
1-2
  6
Continuous
 62
     3
370
     9
100
AcDbLine
 10
-888.1621324693833
 20
14.81046109586146
 30
0.0
 11
-888.1621324693833
 21
109.8108982395482
 31
0.0
  0
LINE
  5
254
330
1F
100
AcDbEntity
  8
1-2
  6
Continuous
 62
     3
370
     9
100
AcDbLine
 10
-878.1625943570522
 20
521.8108223580026
 30
0.0
 11
-878.1625943570522
 21
709.8105270798144
 31
0.0
  0
LINE
  5
255
330
1F
100
AcDbEntity
  8
1-2
  6
Continuous
 62
     3
370
     9
100
AcDbLine
 10
-878.1625943570522
 20
321.8106573981208
 30
0.0
 11
-878.1625943570522
 21
509.8109807194891
 31
0.0
  0
LINE
  5
256
330
1F
100
AcDbEntity
  8
1-2
  6
Continuous
 62
     3
370
     9
100
AcDbLine
 10
-888.1621324693833
 20
521.8108223580026
 30
0.0
 11
-888.1621324693833
 21
709.8105270798144
 31
0.0
  0
LINE
  5
257
330
1F
100
AcDbEntity
  8
1-2
  6
Continuous
 62
     3
370
     9
100
AcDbLine
 10
-888.1621324693833
 20
321.8106573981208
 30
0.0
 11
-888.1621324693833
 21
509.8109807194891
 31
0.0
  0
LINE
  5
258
330
1F
100
AcDbEntity
  8
1-2
  6
Continuous
 62
     3
370
     9
100
AcDbLine
 10
-878.1625943570522
 20
721.8103687183279
 30
0.0
 11
-878.1625943570522
 21
816.8101872624578
 31
0.0
  0
LINE
  5
259
330
1F
100
AcDbEntity
  8
1-2
  6
Continuous
 62
     3
370
     9
100
AcDbLine
 10
-888.1621324693833
 20
721.8103687183279
 30
0.0
 11
-888.1621324693833
 21
816.8101872624578
 31
0.0
  0
LINE
  5
25A
330
1F
100
AcDbEntity
  8
1-2
  6
Continuous
 62
     3
370
     9
100
AcDbLine
 10
-848.1625943570522
 20
121.8106161581505
 30
0.0
 11
-848.1625943570522
 21
309.8109394795188
 31
0.0
  0
LINE
  5
25B
330
1F
100
AcDbEntity
  8
1-2
  6
Continuous
 62
     3
370
     9
100
AcDbLine
 10
-848.1625943570522
 20
14.81046109586146
 30
0.0
 11
-848.1625943570522
 21
109.8108982395482
 31
0.0
  0
LINE
  5
25C
330
1F
100
AcDbEntity
  8
1-2
  6
Continuous
 62
     3
370
     9
100
AcDbLine
 10
-858.1621324693833
 20
121.8106161581505
 30
0.0
 11
-858.1621324693833
 21
309.8109394795188
 31
0.0
  0
LINE
  5
25D
330
1F
100
AcDbEntity
  8
1-2
  6
Continuous
 62
     3
370
     9
100
AcDbLine
 10
-858.1621324693833
 20
14.81046109586146
 30
0.0
 11
-858.1621324693833
 21
109.8108982395482
 31
0.0
  0
LINE
  5
25E
330
1F
100
AcDbEntity
  8
1-2
  6
Continuous
 62
     3
370
     9
100
AcDbLine
 10
-848.1625943570522
 20
521.8108223580026
 30
0.0
 11
-848.1625943570522
 21
709.8105270798144
 31
0.0
  0
LINE
  5
25F
330
1F
100
AcDbEntity
  8
1-2
  6
Continuous
 62
     3
370
     9
100
AcDbLine
 10
-848.1625943570522
 20
321.8106573981208
 30
0.0
 11
-848.1625943570522
 21
509.8109807194891
 31
0.0
  0
LINE
  5
260
330
1F
100
AcDbEntity
  8
1-2
  6
Continuous
 62
     3
370
     9
100
AcDbLine
 10
-858.1621324693833
 20
521.8108223580026
 30
0.0
 11
-858.1621324693833
 21
709.8105270798144
 31
0.0
  0
LINE
  5
261
330
1F
100
AcDbEntity
  8
1-2
  6
Continuous
 62
     3
370
     9
100
AcDbLine
 10
-858.1621324693833
 20
321.8106573981208
 30
0.0
 11
-858.1621324693833
 21
509.8109807194891
 31
0.0
  0
LINE
  5
262
330
1F
100
AcDbEntity
  8
1-2
  6
Continuous
 62
     3
370
     9
100
AcDbLine
 10
-848.1625943570522
 20
721.8103687183279
 30
0.0
 11
-848.1625943570522
 21
816.8101872624578
 31
0.0
  0
LINE
  5
263
330
1F
100
AcDbEntity
  8
1-2
  6
Continuous
 62
     3
370
     9
100
AcDbLine
 10
-858.1621324693833
 20
721.8103687183279
 30
0.0
 11
-858.1621324693833
 21
816.8101872624578
 31
0.0
  0
LINE
  5
264
330
1F
100
AcDbEntity
  8
1-2
  6
Continuous
 62
     3
370
     9
100
AcDbLine
 10
-818.1625943570522
 20
121.8106161581505
 30
0.0
 11
-818.1625943570522
 21
309.8109394795188
 31
0.0
  0
LINE
  5
265
330
1F
100
AcDbEntity
  8
1-2
  6
Continuous
 62
     3
370
     9
100
AcDbLine
 10
-818.1625943570522
 20
14.81046109586146
 30
0.0
 11
-818.1625943570522
 21
109.8108982395482
 31
0.0
  0
LINE
  5
266
330
1F
100
AcDbEntity
  8
1-2
  6
Continuous
 62
     3
370
     9
100
AcDbLine
 10
-828.1621324693833
 20
121.8106161581505
 30
0.0
 11
-828.1621324693833
 21
309.8109394795188
 31
0.0
  0
LINE
  5
267
330
1F
100
AcDbEntity
  8
1-2
  6
Continuous
 62
     3
370
     9
100
AcDbLine
 10
-828.1621324693833
 20
14.81046109586146
 30
0.0
 11
-828.1621324693833
 21
109.8108982395482
 31
0.0
  0
LINE
  5
268
330
1F
100
AcDbEntity
  8
1-2
  6
Continuous
 62
     3
370
     9
100
AcDbLine
 10
-818.1625943570522
 20
521.8108223580026
 30
0.0
 11
-818.1625943570522
 21
709.8105270798144
 31
0.0
  0
LINE
  5
269
330
1F
100
AcDbEntity
  8
1-2
  6
Continuous
 62
     3
370
     9
100
AcDbLine
 10
-818.1625943570522
 20
321.8106573981208
 30
0.0
 11
-818.1625943570522
 21
509.8109807194891
 31
0.0
  0
LINE
  5
26A
330
1F
100
AcDbEntity
  8
1-2
  6
Continuous
 62
     3
370
     9
100
AcDbLine
 10
-828.1621324693833
 20
521.8108223580026
 30
0.0
 11
-828.1621324693833
 21
709.8105270798144
 31
0.0
  0
LINE
  5
26B
330
1F
100
AcDbEntity
  8
1-2
  6
Continuous
 62
     3
370
     9
100
AcDbLine
 10
-828.1621324693833
 20
321.8106573981208
 30
0.0
 11
-828.1621324693833
 21
509.8109807194891
 31
0.0
  0
LINE
  5
26C
330
1F
100
AcDbEntity
  8
1-2
  6
Continuous
 62
     3
370
     9
100
AcDbLine
 10
-818.1625943570522
 20
721.8103687183279
 30
0.0
 11
-818.1625943570522
 21
816.8101872624578
 31
0.0
  0
LINE
  5
26D
330
1F
100
AcDbEntity
  8
1-2
  6
Continuous
 62
     3
370
     9
100
AcDbLine
 10
-828.1621324693833
 20
721.8103687183279
 30
0.0
 11
-828.1621324693833
 21
816.8101872624578
 31
0.0
  0
LINE
  5
26E
330
1F
100
AcDbEntity
  8
1-2
  6
Continuous
 62
     3
370
     9
100
AcDbLine
 10
-788.1625943570522
 20
121.8106161581505
 30
0.0
 11
-788.1625943570522
 21
309.8109394795188
 31
0.0
  0
LINE
  5
26F
330
1F
100
AcDbEntity
  8
1-2
  6
Continuous
 62
     3
370
     9
100
AcDbLine
 10
-788.1625943570522
 20
14.81046109586146
 30
0.0
 11
-788.1625943570522
 21
109.8108982395482
 31
0.0
  0
LINE
  5
270
330
1F
100
AcDbEntity
  8
1-2
  6
Continuous
 62
     3
370
     9
100
AcDbLine
 10
-798.1621324693833
 20
121.8106161581505
 30
0.0
 11
-798.1621324693833
 21
309.8109394795188
 31
0.0
  0
LINE
  5
271
330
1F
100
AcDbEntity
  8
1-2
  6
Continuous
 62
     3
370
     9
100
AcDbLine
 10
-798.1621324693833
 20
14.81046109586146
 30
0.0
 11
-798.1621324693833
 21
109.8108982395482
 31
0.0
  0
LINE
  5
272
330
1F
100
AcDbEntity
  8
1-2
  6
Continuous
 62
     3
370
     9
100
AcDbLine
 10
-788.1625943570522
 20
521.8108223580026
 30
0.0
 11
-788.1625943570522
 21
709.8105270798144
 31
0.0
  0
LINE
  5
273
330
1F
100
AcDbEntity
  8
1-2
  6
Continuous
 62
     3
370
     9
100
AcDbLine
 10
-788.1625943570522
 20
321.8106573981208
 30
0.0
 11
-788.1625943570522
 21
509.8109807194891
 31
0.0
  0
LINE
  5
274
330
1F
100
AcDbEntity
  8
1-2
  6
Continuous
 62
     3
370
     9
100
AcDbLine
 10
-798.1621324693833
 20
521.8108223580026
 30
0.0
 11
-798.1621324693833
 21
709.8105270798144
 31
0.0
  0
LINE
  5
275
330
1F
100
AcDbEntity
  8
1-2
  6
Continuous
 62
     3
370
     9
100
AcDbLine
 10
-798.1621324693833
 20
321.8106573981208
 30
0.0
 11
-798.1621324693833
 21
509.8109807194891
 31
0.0
  0
LINE
  5
276
330
1F
100
AcDbEntity
  8
1-2
  6
Continuous
 62
     3
370
     9
100
AcDbLine
 10
-788.1625943570522
 20
721.8103687183279
 30
0.0
 11
-788.1625943570522
 21
816.8101872624578
 31
0.0
  0
LINE
  5
277
330
1F
100
AcDbEntity
  8
1-2
  6
Continuous
 62
     3
370
     9
100
AcDbLine
 10
-798.1621324693833
 20
721.8103687183279
 30
0.0
 11
-798.1621324693833
 21
816.8101872624578
 31
0.0
  0
LINE
  5
278
330
1F
100
AcDbEntity
  8
1-2
  6
Continuous
 62
     3
370
     9
100
AcDbLine
 10
-758.1625943570522
 20
121.8106161581505
 30
0.0
 11
-758.1625943570522
 21
309.8109394795188
 31
0.0
  0
LINE
  5
279
330
1F
100
AcDbEntity
  8
1-2
  6
Continuous
 62
     3
370
     9
100
AcDbLine
 10
-758.1625943570522
 20
14.81046109586146
 30
0.0
 11
-758.1625943570522
 21
109.8108982395482
 31
0.0
  0
LINE
  5
27A
330
1F
100
AcDbEntity
  8
1-2
  6
Continuous
 62
     3
370
     9
100
AcDbLine
 10
-768.1621324693833
 20
121.8106161581505
 30
0.0
 11
-768.1621324693833
 21
309.8109394795188
 31
0.0
  0
LINE
  5
27B
330
1F
100
AcDbEntity
  8
1-2
  6
Continuous
 62
     3
370
     9
100
AcDbLine
 10
-768.1621324693833
 20
14.81046109586146
 30
0.0
 11
-768.1621324693833
 21
109.8108982395482
 31
0.0
  0
LINE
  5
27C
330
1F
100
AcDbEntity
  8
1-2
  6
Continuous
 62
     3
370
     9
100
AcDbLine
 10
-758.1625943570522
 20
521.8108223580026
 30
0.0
 11
-758.1625943570522
 21
709.8105270798144
 31
0.0
  0
LINE
  5
27D
330
1F
100
AcDbEntity
  8
1-2
  6
Continuous
 62
     3
370
     9
100
AcDbLine
 10
-758.1625943570522
 20
321.8106573981208
 30
0.0
 11
-758.1625943570522
 21
509.8109807194891
 31
0.0
  0
LINE
  5
27E
330
1F
100
AcDbEntity
  8
1-2
  6
Continuous
 62
     3
370
     9
100
AcDbLine
 10
-768.1621324693833
 20
521.8108223580026
 30
0.0
 11
-768.1621324693833
 21
709.8105270798144
 31
0.0
  0
LINE
  5
27F
330
1F
100
AcDbEntity
  8
1-2
  6
Continuous
 62
     3
370
     9
100
AcDbLine
 10
-768.1621324693833
 20
321.8106573981208
 30
0.0
 11
-768.1621324693833
 21
509.8109807194891
 31
0.0
  0
LINE
  5
280
330
1F
100
AcDbEntity
  8
1-2
  6
Continuous
 62
     3
370
     9
100
AcDbLine
 10
-758.1625943570522
 20
721.8103687183279
 30
0.0
 11
-758.1625943570522
 21
816.8101872624578
 31
0.0
  0
LINE
  5
281
330
1F
100
AcDbEntity
  8
1-2
  6
Continuous
 62
     3
370
     9
100
AcDbLine
 10
-768.1621324693833
 20
721.8103687183279
 30
0.0
 11
-768.1621324693833
 21
816.8101872624578
 31
0.0
  0
LINE
  5
282
330
1F
100
AcDbEntity
  8
1-2
  6
Continuous
 62
     3
370
     9
100
AcDbLine
 10
-728.1625943570522
 20
121.8106161581505
 30
0.0
 11
-728.1625943570522
 21
309.8109394795188
 31
0.0
  0
LINE
  5
283
330
1F
100
AcDbEntity
  8
1-2
  6
Continuous
 62
     3
370
     9
100
AcDbLine
 10
-728.1625943570522
 20
14.81046109586146
 30
0.0
 11
-728.1625943570522
 21
109.8108982395482
 31
0.0
  0
LINE
  5
284
330
1F
100
AcDbEntity
  8
1-2
  6
Continuous
 62
     3
370
     9
100
AcDbLine
 10
-738.1621324693833
 20
121.8106161581505
 30
0.0
 11
-738.1621324693833
 21
309.8109394795188
 31
0.0
  0
LINE
  5
285
330
1F
100
AcDbEntity
  8
1-2
  6
Continuous
 62
     3
370
     9
100
AcDbLine
 10
-738.1621324693833
 20
14.81046109586146
 30
0.0
 11
-738.1621324693833
 21
109.8108982395482
 31
0.0
  0
LINE
  5
286
330
1F
100
AcDbEntity
  8
1-2
  6
Continuous
 62
     3
370
     9
100
AcDbLine
 10
-728.1625943570522
 20
521.8108223580026
 30
0.0
 11
-728.1625943570522
 21
709.8105270798144
 31
0.0
  0
LINE
  5
287
330
1F
100
AcDbEntity
  8
1-2
  6
Continuous
 62
     3
370
     9
100
AcDbLine
 10
-728.1625943570522
 20
321.8106573981208
 30
0.0
 11
-728.1625943570522
 21
509.8109807194891
 31
0.0
  0
LINE
  5
288
330
1F
100
AcDbEntity
  8
1-2
  6
Continuous
 62
     3
370
     9
100
AcDbLine
 10
-738.1621324693833
 20
521.8108223580026
 30
0.0
 11
-738.1621324693833
 21
709.8105270798144
 31
0.0
  0
LINE
  5
289
330
1F
100
AcDbEntity
  8
1-2
  6
Continuous
 62
     3
370
     9
100
AcDbLine
 10
-738.1621324693833
 20
321.8106573981208
 30
0.0
 11
-738.1621324693833
 21
509.8109807194891
 31
0.0
  0
LINE
  5
28A
330
1F
100
AcDbEntity
  8
1-2
  6
Continuous
 62
     3
370
     9
100
AcDbLine
 10
-728.1625943570522
 20
721.8103687183279
 30
0.0
 11
-728.1625943570522
 21
816.8101872624578
 31
0.0
  0
LINE
  5
28B
330
1F
100
AcDbEntity
  8
1-2
  6
Continuous
 62
     3
370
     9
100
AcDbLine
 10
-738.1621324693833
 20
721.8103687183279
 30
0.0
 11
-738.1621324693833
 21
816.8101872624578
 31
0.0
  0
LINE
  5
28C
330
1F
100
AcDbEntity
  8
1-2
  6
Continuous
 62
     3
370
     9
100
AcDbLine
 10
-698.1625943570522
 20
121.8106161581505
 30
0.0
 11
-698.1625943570522
 21
309.8109394795188
 31
0.0
  0
LINE
  5
28D
330
1F
100
AcDbEntity
  8
1-2
  6
Continuous
 62
     3
370
     9
100
AcDbLine
 10
-698.1625943570522
 20
14.81046109586146
 30
0.0
 11
-698.1625943570522
 21
109.8108982395482
 31
0.0
  0
LINE
  5
28E
330
1F
100
AcDbEntity
  8
1-2
  6
Continuous
 62
     3
370
     9
100
AcDbLine
 10
-708.1621324693833
 20
121.8106161581505
 30
0.0
 11
-708.1621324693833
 21
309.8109394795188
 31
0.0
  0
LINE
  5
28F
330
1F
100
AcDbEntity
  8
1-2
  6
Continuous
 62
     3
370
     9
100
AcDbLine
 10
-708.1621324693833
 20
14.81046109586146
 30
0.0
 11
-708.1621324693833
 21
109.8108982395482
 31
0.0
  0
LINE
  5
290
330
1F
100
AcDbEntity
  8
1-2
  6
Continuous
 62
     3
370
     9
100
AcDbLine
 10
-698.1625943570522
 20
521.8108223580026
 30
0.0
 11
-698.1625943570522
 21
709.8105270798144
 31
0.0
  0
LINE
  5
291
330
1F
100
AcDbEntity
  8
1-2
  6
Continuous
 62
     3
370
     9
100
AcDbLine
 10
-698.1625943570522
 20
321.8106573981208
 30
0.0
 11
-698.1625943570522
 21
509.8109807194891
 31
0.0
  0
LINE
  5
292
330
1F
100
AcDbEntity
  8
1-2
  6
Continuous
 62
     3
370
     9
100
AcDbLine
 10
-708.1621324693833
 20
521.8108223580026
 30
0.0
 11
-708.1621324693833
 21
709.8105270798144
 31
0.0
  0
LINE
  5
293
330
1F
100
AcDbEntity
  8
1-2
  6
Continuous
 62
     3
370
     9
100
AcDbLine
 10
-708.1621324693833
 20
321.8106573981208
 30
0.0
 11
-708.1621324693833
 21
509.8109807194891
 31
0.0
  0
LINE
  5
294
330
1F
100
AcDbEntity
  8
1-2
  6
Continuous
 62
     3
370
     9
100
AcDbLine
 10
-698.1625943570522
 20
721.8103687183279
 30
0.0
 11
-698.1625943570522
 21
816.8101872624578
 31
0.0
  0
LINE
  5
295
330
1F
100
AcDbEntity
  8
1-2
  6
Continuous
 62
     3
370
     9
100
AcDbLine
 10
-708.1621324693833
 20
721.8103687183279
 30
0.0
 11
-708.1621324693833
 21
816.8101872624578
 31
0.0
  0
LINE
  5
296
330
1F
100
AcDbEntity
  8
1-2
  6
Continuous
 62
     3
370
     9
100
AcDbLine
 10
-668.1625943570522
 20
121.8106161581505
 30
0.0
 11
-668.1625943570522
 21
309.8109394795188
 31
0.0
  0
LINE
  5
297
330
1F
100
AcDbEntity
  8
1-2
  6
Continuous
 62
     3
370
     9
100
AcDbLine
 10
-668.1625943570522
 20
14.81046109586146
 30
0.0
 11
-668.1625943570522
 21
109.8108982395482
 31
0.0
  0
LINE
  5
298
330
1F
100
AcDbEntity
  8
1-2
  6
Continuous
 62
     3
370
     9
100
AcDbLine
 10
-678.1621324693833
 20
121.8106161581505
 30
0.0
 11
-678.1621324693833
 21
309.8109394795188
 31
0.0
  0
LINE
  5
299
330
1F
100
AcDbEntity
  8
1-2
  6
Continuous
 62
     3
370
     9
100
AcDbLine
 10
-678.1621324693833
 20
14.81046109586146
 30
0.0
 11
-678.1621324693833
 21
109.8108982395482
 31
0.0
  0
LINE
  5
29A
330
1F
100
AcDbEntity
  8
1-2
  6
Continuous
 62
     3
370
     9
100
AcDbLine
 10
-668.1625943570522
 20
521.8108223580026
 30
0.0
 11
-668.1625943570522
 21
709.8105270798144
 31
0.0
  0
LINE
  5
29B
330
1F
100
AcDbEntity
  8
1-2
  6
Continuous
 62
     3
370
     9
100
AcDbLine
 10
-668.1625943570522
 20
321.8106573981208
 30
0.0
 11
-668.1625943570522
 21
509.8109807194891
 31
0.0
  0
LINE
  5
29C
330
1F
100
AcDbEntity
  8
1-2
  6
Continuous
 62
     3
370
     9
100
AcDbLine
 10
-678.1621324693833
 20
521.8108223580026
 30
0.0
 11
-678.1621324693833
 21
709.8105270798144
 31
0.0
  0
LINE
  5
29D
330
1F
100
AcDbEntity
  8
1-2
  6
Continuous
 62
     3
370
     9
100
AcDbLine
 10
-678.1621324693833
 20
321.8106573981208
 30
0.0
 11
-678.1621324693833
 21
509.8109807194891
 31
0.0
  0
LINE
  5
29E
330
1F
100
AcDbEntity
  8
1-2
  6
Continuous
 62
     3
370
     9
100
AcDbLine
 10
-668.1625943570522
 20
721.8103687183279
 30
0.0
 11
-668.1625943570522
 21
816.8101872624578
 31
0.0
  0
LINE
  5
29F
330
1F
100
AcDbEntity
  8
1-2
  6
Continuous
 62
     3
370
     9
100
AcDbLine
 10
-678.1621324693833
 20
721.8103687183279
 30
0.0
 11
-678.1621324693833
 21
816.8101872624578
 31
0.0
  0
LINE
  5
2A0
330
1F
100
AcDbEntity
  8
1-2
  6
Continuous
 62
     3
370
     9
100
AcDbLine
 10
-638.1625943570522
 20
121.8106161581505
 30
0.0
 11
-638.1625943570522
 21
309.8109394795188
 31
0.0
  0
LINE
  5
2A1
330
1F
100
AcDbEntity
  8
1-2
  6
Continuous
 62
     3
370
     9
100
AcDbLine
 10
-638.1625943570522
 20
14.81046109586146
 30
0.0
 11
-638.1625943570522
 21
109.8108982395482
 31
0.0
  0
LINE
  5
2A2
330
1F
100
AcDbEntity
  8
1-2
  6
Continuous
 62
     3
370
     9
100
AcDbLine
 10
-648.1621324693833
 20
121.8106161581505
 30
0.0
 11
-648.1621324693833
 21
309.8109394795188
 31
0.0
  0
LINE
  5
2A3
330
1F
100
AcDbEntity
  8
1-2
  6
Continuous
 62
     3
370
     9
100
AcDbLine
 10
-648.1621324693833
 20
14.81046109586146
 30
0.0
 11
-648.1621324693833
 21
109.8108982395482
 31
0.0
  0
LINE
  5
2A4
330
1F
100
AcDbEntity
  8
1-2
  6
Continuous
 62
     3
370
     9
100
AcDbLine
 10
-638.1625943570522
 20
521.8108223580026
 30
0.0
 11
-638.1625943570522
 21
709.8105270798144
 31
0.0
  0
LINE
  5
2A5
330
1F
100
AcDbEntity
  8
1-2
  6
Continuous
 62
     3
370
     9
100
AcDbLine
 10
-638.1625943570522
 20
321.8106573981208
 30
0.0
 11
-638.1625943570522
 21
509.8109807194891
 31
0.0
  0
LINE
  5
2A6
330
1F
100
AcDbEntity
  8
1-2
  6
Continuous
 62
     3
370
     9
100
AcDbLine
 10
-648.1621324693833
 20
521.8108223580026
 30
0.0
 11
-648.1621324693833
 21
709.8105270798144
 31
0.0
  0
LINE
  5
2A7
330
1F
100
AcDbEntity
  8
1-2
  6
Continuous
 62
     3
370
     9
100
AcDbLine
 10
-648.1621324693833
 20
321.8106573981208
 30
0.0
 11
-648.1621324693833
 21
509.8109807194891
 31
0.0
  0
LINE
  5
2A8
330
1F
100
AcDbEntity
  8
1-2
  6
Continuous
 62
     3
370
     9
100
AcDbLine
 10
-638.1625943570522
 20
721.8103687183279
 30
0.0
 11
-638.1625943570522
 21
816.8101872624578
 31
0.0
  0
LINE
  5
2A9
330
1F
100
AcDbEntity
  8
1-2
  6
Continuous
 62
     3
370
     9
100
AcDbLine
 10
-648.1621324693833
 20
721.8103687183279
 30
0.0
 11
-648.1621324693833
 21
816.8101872624578
 31
0.0
  0
LINE
  5
2AA
330
1F
100
AcDbEntity
  8
1-2
  6
Continuous
 62
     3
370
     9
100
AcDbLine
 10
-608.1625943570522
 20
121.8106161581505
 30
0.0
 11
-608.1625943570522
 21
309.8109394795188
 31
0.0
  0
LINE
  5
2AB
330
1F
100
AcDbEntity
  8
1-2
  6
Continuous
 62
     3
370
     9
100
AcDbLine
 10
-608.1625943570522
 20
14.81046109586146
 30
0.0
 11
-608.1625943570522
 21
109.8108982395482
 31
0.0
  0
LINE
  5
2AC
330
1F
100
AcDbEntity
  8
1-2
  6
Continuous
 62
     3
370
     9
100
AcDbLine
 10
-618.1621324693833
 20
121.8106161581505
 30
0.0
 11
-618.1621324693833
 21
309.8109394795188
 31
0.0
  0
LINE
  5
2AD
330
1F
100
AcDbEntity
  8
1-2
  6
Continuous
 62
     3
370
     9
100
AcDbLine
 10
-618.1621324693833
 20
14.81046109586146
 30
0.0
 11
-618.1621324693833
 21
109.8108982395482
 31
0.0
  0
LINE
  5
2AE
330
1F
100
AcDbEntity
  8
1-2
  6
Continuous
 62
     3
370
     9
100
AcDbLine
 10
-608.1625943570522
 20
521.8108223580026
 30
0.0
 11
-608.1625943570522
 21
709.8105270798144
 31
0.0
  0
LINE
  5
2AF
330
1F
100
AcDbEntity
  8
1-2
  6
Continuous
 62
     3
370
     9
100
AcDbLine
 10
-608.1625943570522
 20
321.8106573981208
 30
0.0
 11
-608.1625943570522
 21
509.8109807194891
 31
0.0
  0
LINE
  5
2B0
330
1F
100
AcDbEntity
  8
1-2
  6
Continuous
 62
     3
370
     9
100
AcDbLine
 10
-618.1621324693833
 20
521.8108223580026
 30
0.0
 11
-618.1621324693833
 21
709.8105270798144
 31
0.0
  0
LINE
  5
2B1
330
1F
100
AcDbEntity
  8
1-2
  6
Continuous
 62
     3
370
     9
100
AcDbLine
 10
-618.1621324693833
 20
321.8106573981208
 30
0.0
 11
-618.1621324693833
 21
509.8109807194891
 31
0.0
  0
LINE
  5
2B2
330
1F
100
AcDbEntity
  8
1-2
  6
Continuous
 62
     3
370
     9
100
AcDbLine
 10
-608.1625943570522
 20
721.8103687183279
 30
0.0
 11
-608.1625943570522
 21
816.8101872624578
 31
0.0
  0
LINE
  5
2B3
330
1F
100
AcDbEntity
  8
1-2
  6
Continuous
 62
     3
370
     9
100
AcDbLine
 10
-618.1621324693833
 20
721.8103687183279
 30
0.0
 11
-618.1621324693833
 21
816.8101872624578
 31
0.0
  0
LINE
  5
2B4
330
1F
100
AcDbEntity
  8
1-2
  6
Continuous
 62
     3
370
     9
100
AcDbLine
 10
-578.1625943570522
 20
121.8106161581505
 30
0.0
 11
-578.1625943570522
 21
309.8109394795188
 31
0.0
  0
LINE
  5
2B5
330
1F
100
AcDbEntity
  8
1-2
  6
Continuous
 62
     3
370
     9
100
AcDbLine
 10
-578.1625943570522
 20
14.81046109586146
 30
0.0
 11
-578.1625943570522
 21
109.8108982395482
 31
0.0
  0
LINE
  5
2B6
330
1F
100
AcDbEntity
  8
1-2
  6
Continuous
 62
     3
370
     9
100
AcDbLine
 10
-588.1621324693833
 20
121.8106161581505
 30
0.0
 11
-588.1621324693833
 21
309.8109394795188
 31
0.0
  0
LINE
  5
2B7
330
1F
100
AcDbEntity
  8
1-2
  6
Continuous
 62
     3
370
     9
100
AcDbLine
 10
-588.1621324693833
 20
14.81046109586146
 30
0.0
 11
-588.1621324693833
 21
109.8108982395482
 31
0.0
  0
LINE
  5
2B8
330
1F
100
AcDbEntity
  8
1-2
  6
Continuous
 62
     3
370
     9
100
AcDbLine
 10
-578.1625943570522
 20
521.8108223580026
 30
0.0
 11
-578.1625943570522
 21
709.8105270798144
 31
0.0
  0
LINE
  5
2B9
330
1F
100
AcDbEntity
  8
1-2
  6
Continuous
 62
     3
370
     9
100
AcDbLine
 10
-578.1625943570522
 20
321.8106573981208
 30
0.0
 11
-578.1625943570522
 21
509.8109807194891
 31
0.0
  0
LINE
  5
2BA
330
1F
100
AcDbEntity
  8
1-2
  6
Continuous
 62
     3
370
     9
100
AcDbLine
 10
-588.1621324693833
 20
521.8108223580026
 30
0.0
 11
-588.1621324693833
 21
709.8105270798144
 31
0.0
  0
LINE
  5
2BB
330
1F
100
AcDbEntity
  8
1-2
  6
Continuous
 62
     3
370
     9
100
AcDbLine
 10
-588.1621324693833
 20
321.8106573981208
 30
0.0
 11
-588.1621324693833
 21
509.8109807194891
 31
0.0
  0
LINE
  5
2BC
330
1F
100
AcDbEntity
  8
1-2
  6
Continuous
 62
     3
370
     9
100
AcDbLine
 10
-578.1625943570522
 20
721.8103687183279
 30
0.0
 11
-578.1625943570522
 21
816.8101872624578
 31
0.0
  0
LINE
  5
2BD
330
1F
100
AcDbEntity
  8
1-2
  6
Continuous
 62
     3
370
     9
100
AcDbLine
 10
-588.1621324693833
 20
721.8103687183279
 30
0.0
 11
-588.1621324693833
 21
816.8101872624578
 31
0.0
  0
LINE
  5
2BE
330
1F
100
AcDbEntity
  8
1-2
  6
Continuous
 62
     3
370
     9
100
AcDbLine
 10
-548.1625943570522
 20
121.8106161581505
 30
0.0
 11
-548.1625943570522
 21
309.8109394795188
 31
0.0
  0
LINE
  5
2BF
330
1F
100
AcDbEntity
  8
1-2
  6
Continuous
 62
     3
370
     9
100
AcDbLine
 10
-548.1625943570522
 20
14.81046109586146
 30
0.0
 11
-548.1625943570522
 21
109.8108982395482
 31
0.0
  0
LINE
  5
2C0
330
1F
100
AcDbEntity
  8
1-2
  6
Continuous
 62
     3
370
     9
100
AcDbLine
 10
-558.1621324693833
 20
121.8106161581505
 30
0.0
 11
-558.1621324693833
 21
309.8109394795188
 31
0.0
  0
LINE
  5
2C1
330
1F
100
AcDbEntity
  8
1-2
  6
Continuous
 62
     3
370
     9
100
AcDbLine
 10
-558.1621324693833
 20
14.81046109586146
 30
0.0
 11
-558.1621324693833
 21
109.8108982395482
 31
0.0
  0
LINE
  5
2C2
330
1F
100
AcDbEntity
  8
1-2
  6
Continuous
 62
     3
370
     9
100
AcDbLine
 10
-548.1625943570522
 20
521.8108223580026
 30
0.0
 11
-548.1625943570522
 21
709.8105270798144
 31
0.0
  0
LINE
  5
2C3
330
1F
100
AcDbEntity
  8
1-2
  6
Continuous
 62
     3
370
     9
100
AcDbLine
 10
-548.1625943570522
 20
321.8106573981208
 30
0.0
 11
-548.1625943570522
 21
509.8109807194891
 31
0.0
  0
LINE
  5
2C4
330
1F
100
AcDbEntity
  8
1-2
  6
Continuous
 62
     3
370
     9
100
AcDbLine
 10
-558.1621324693833
 20
521.8108223580026
 30
0.0
 11
-558.1621324693833
 21
709.8105270798144
 31
0.0
  0
LINE
  5
2C5
330
1F
100
AcDbEntity
  8
1-2
  6
Continuous
 62
     3
370
     9
100
AcDbLine
 10
-558.1621324693833
 20
321.8106573981208
 30
0.0
 11
-558.1621324693833
 21
509.8109807194891
 31
0.0
  0
LINE
  5
2C6
330
1F
100
AcDbEntity
  8
1-2
  6
Continuous
 62
     3
370
     9
100
AcDbLine
 10
-548.1625943570522
 20
721.8103687183279
 30
0.0
 11
-548.1625943570522
 21
816.8101872624578
 31
0.0
  0
LINE
  5
2C7
330
1F
100
AcDbEntity
  8
1-2
  6
Continuous
 62
     3
370
     9
100
AcDbLine
 10
-558.1621324693833
 20
721.8103687183279
 30
0.0
 11
-558.1621324693833
 21
816.8101872624578
 31
0.0
  0
LINE
  5
2C8
330
1F
100
AcDbEntity
  8
1-2
  6
Continuous
 62
     3
370
     9
100
AcDbLine
 10
-518.1625943570522
 20
121.8106161581505
 30
0.0
 11
-518.1625943570522
 21
309.8109394795188
 31
0.0
  0
LINE
  5
2C9
330
1F
100
AcDbEntity
  8
1-2
  6
Continuous
 62
     3
370
     9
100
AcDbLine
 10
-518.1625943570522
 20
14.81046109586146
 30
0.0
 11
-518.1625943570522
 21
109.8108982395482
 31
0.0
  0
LINE
  5
2CA
330
1F
100
AcDbEntity
  8
1-2
  6
Continuous
 62
     3
370
     9
100
AcDbLine
 10
-528.1621324693833
 20
121.8106161581505
 30
0.0
 11
-528.1621324693833
 21
309.8109394795188
 31
0.0
  0
LINE
  5
2CB
330
1F
100
AcDbEntity
  8
1-2
  6
Continuous
 62
     3
370
     9
100
AcDbLine
 10
-528.1621324693833
 20
14.81046109586146
 30
0.0
 11
-528.1621324693833
 21
109.8108982395482
 31
0.0
  0
LINE
  5
2CC
330
1F
100
AcDbEntity
  8
1-2
  6
Continuous
 62
     3
370
     9
100
AcDbLine
 10
-518.1625943570522
 20
521.8108223580026
 30
0.0
 11
-518.1625943570522
 21
709.8105270798144
 31
0.0
  0
LINE
  5
2CD
330
1F
100
AcDbEntity
  8
1-2
  6
Continuous
 62
     3
370
     9
100
AcDbLine
 10
-518.1625943570522
 20
321.8106573981208
 30
0.0
 11
-518.1625943570522
 21
509.8109807194891
 31
0.0
  0
LINE
  5
2CE
330
1F
100
AcDbEntity
  8
1-2
  6
Continuous
 62
     3
370
     9
100
AcDbLine
 10
-528.1621324693833
 20
521.8108223580026
 30
0.0
 11
-528.1621324693833
 21
709.8105270798144
 31
0.0
  0
LINE
  5
2CF
330
1F
100
AcDbEntity
  8
1-2
  6
Continuous
 62
     3
370
     9
100
AcDbLine
 10
-528.1621324693833
 20
321.8106573981208
 30
0.0
 11
-528.1621324693833
 21
509.8109807194891
 31
0.0
  0
LINE
  5
2D0
330
1F
100
AcDbEntity
  8
1-2
  6
Continuous
 62
     3
370
     9
100
AcDbLine
 10
-518.1625943570522
 20
721.8103687183279
 30
0.0
 11
-518.1625943570522
 21
816.8101872624578
 31
0.0
  0
LINE
  5
2D1
330
1F
100
AcDbEntity
  8
1-2
  6
Continuous
 62
     3
370
     9
100
AcDbLine
 10
-528.1621324693833
 20
721.8103687183279
 30
0.0
 11
-528.1621324693833
 21
816.8101872624578
 31
0.0
  0
LINE
  5
2D2
330
1F
100
AcDbEntity
  8
1-2
  6
Continuous
 62
     3
370
     9
100
AcDbLine
 10
-488.1625943570522
 20
121.8106161581505
 30
0.0
 11
-488.1625943570522
 21
309.8109394795188
 31
0.0
  0
LINE
  5
2D3
330
1F
100
AcDbEntity
  8
1-2
  6
Continuous
 62
     3
370
     9
100
AcDbLine
 10
-488.1625943570522
 20
14.81046109586146
 30
0.0
 11
-488.1625943570522
 21
109.8108982395482
 31
0.0
  0
LINE
  5
2D4
330
1F
100
AcDbEntity
  8
1-2
  6
Continuous
 62
     3
370
     9
100
AcDbLine
 10
-498.1621324693833
 20
121.8106161581505
 30
0.0
 11
-498.1621324693833
 21
309.8109394795188
 31
0.0
  0
LINE
  5
2D5
330
1F
100
AcDbEntity
  8
1-2
  6
Continuous
 62
     3
370
     9
100
AcDbLine
 10
-498.1621324693833
 20
14.81046109586146
 30
0.0
 11
-498.1621324693833
 21
109.8108982395482
 31
0.0
  0
LINE
  5
2D6
330
1F
100
AcDbEntity
  8
1-2
  6
Continuous
 62
     3
370
     9
100
AcDbLine
 10
-488.1625943570522
 20
521.8108223580026
 30
0.0
 11
-488.1625943570522
 21
709.8105270798144
 31
0.0
  0
LINE
  5
2D7
330
1F
100
AcDbEntity
  8
1-2
  6
Continuous
 62
     3
370
     9
100
AcDbLine
 10
-488.1625943570522
 20
321.8106573981208
 30
0.0
 11
-488.1625943570522
 21
509.8109807194891
 31
0.0
  0
LINE
  5
2D8
330
1F
100
AcDbEntity
  8
1-2
  6
Continuous
 62
     3
370
     9
100
AcDbLine
 10
-498.1621324693833
 20
521.8108223580026
 30
0.0
 11
-498.1621324693833
 21
709.8105270798144
 31
0.0
  0
LINE
  5
2D9
330
1F
100
AcDbEntity
  8
1-2
  6
Continuous
 62
     3
370
     9
100
AcDbLine
 10
-498.1621324693833
 20
321.8106573981208
 30
0.0
 11
-498.1621324693833
 21
509.8109807194891
 31
0.0
  0
LINE
  5
2DA
330
1F
100
AcDbEntity
  8
1-2
  6
Continuous
 62
     3
370
     9
100
AcDbLine
 10
-488.1625943570522
 20
721.8103687183279
 30
0.0
 11
-488.1625943570522
 21
816.8101872624578
 31
0.0
  0
LINE
  5
2DB
330
1F
100
AcDbEntity
  8
1-2
  6
Continuous
 62
     3
370
     9
100
AcDbLine
 10
-498.1621324693833
 20
721.8103687183279
 30
0.0
 11
-498.1621324693833
 21
816.8101872624578
 31
0.0
  0
LINE
  5
2DC
330
1F
100
AcDbEntity
  8
1-2
  6
Continuous
 62
     3
370
     9
100
AcDbLine
 10
-458.1625943570522
 20
121.8106161581505
 30
0.0
 11
-458.1625943570522
 21
309.8109394795188
 31
0.0
  0
LINE
  5
2DD
330
1F
100
AcDbEntity
  8
1-2
  6
Continuous
 62
     3
370
     9
100
AcDbLine
 10
-458.1625943570522
 20
14.81046109586146
 30
0.0
 11
-458.1625943570522
 21
109.8108982395482
 31
0.0
  0
LINE
  5
2DE
330
1F
100
AcDbEntity
  8
1-2
  6
Continuous
 62
     3
370
     9
100
AcDbLine
 10
-468.1621324693833
 20
121.8106161581505
 30
0.0
 11
-468.1621324693833
 21
309.8109394795188
 31
0.0
  0
LINE
  5
2DF
330
1F
100
AcDbEntity
  8
1-2
  6
Continuous
 62
     3
370
     9
100
AcDbLine
 10
-468.1621324693833
 20
14.81046109586146
 30
0.0
 11
-468.1621324693833
 21
109.8108982395482
 31
0.0
  0
LINE
  5
2E0
330
1F
100
AcDbEntity
  8
1-2
  6
Continuous
 62
     3
370
     9
100
AcDbLine
 10
-458.1625943570522
 20
521.8108223580026
 30
0.0
 11
-458.1625943570522
 21
709.8105270798144
 31
0.0
  0
LINE
  5
2E1
330
1F
100
AcDbEntity
  8
1-2
  6
Continuous
 62
     3
370
     9
100
AcDbLine
 10
-458.1625943570522
 20
321.8106573981208
 30
0.0
 11
-458.1625943570522
 21
509.8109807194891
 31
0.0
  0
LINE
  5
2E2
330
1F
100
AcDbEntity
  8
1-2
  6
Continuous
 62
     3
370
     9
100
AcDbLine
 10
-468.1621324693833
 20
521.8108223580026
 30
0.0
 11
-468.1621324693833
 21
709.8105270798144
 31
0.0
  0
LINE
  5
2E3
330
1F
100
AcDbEntity
  8
1-2
  6
Continuous
 62
     3
370
     9
100
AcDbLine
 10
-468.1621324693833
 20
321.8106573981208
 30
0.0
 11
-468.1621324693833
 21
509.8109807194891
 31
0.0
  0
LINE
  5
2E4
330
1F
100
AcDbEntity
  8
1-2
  6
Continuous
 62
     3
370
     9
100
AcDbLine
 10
-458.1625943570522
 20
721.8103687183279
 30
0.0
 11
-458.1625943570522
 21
816.8101872624578
 31
0.0
  0
LINE
  5
2E5
330
1F
100
AcDbEntity
  8
1-2
  6
Continuous
 62
     3
370
     9
100
AcDbLine
 10
-468.1621324693833
 20
721.8103687183279
 30
0.0
 11
-468.1621324693833
 21
816.8101872624578
 31
0.0
  0
LINE
  5
2E6
330
1F
100
AcDbEntity
  8
1-2
  6
Continuous
 62
     3
370
     9
100
AcDbLine
 10
-428.1625943570522
 20
121.8106161581505
 30
0.0
 11
-428.1625943570522
 21
309.8109394795188
 31
0.0
  0
LINE
  5
2E7
330
1F
100
AcDbEntity
  8
1-2
  6
Continuous
 62
     3
370
     9
100
AcDbLine
 10
-428.1625943570522
 20
14.81046109586146
 30
0.0
 11
-428.1625943570522
 21
109.8108982395482
 31
0.0
  0
LINE
  5
2E8
330
1F
100
AcDbEntity
  8
1-2
  6
Continuous
 62
     3
370
     9
100
AcDbLine
 10
-438.1621324693833
 20
121.8106161581505
 30
0.0
 11
-438.1621324693833
 21
309.8109394795188
 31
0.0
  0
LINE
  5
2E9
330
1F
100
AcDbEntity
  8
1-2
  6
Continuous
 62
     3
370
     9
100
AcDbLine
 10
-438.1621324693833
 20
14.81046109586146
 30
0.0
 11
-438.1621324693833
 21
109.8108982395482
 31
0.0
  0
LINE
  5
2EA
330
1F
100
AcDbEntity
  8
1-2
  6
Continuous
 62
     3
370
     9
100
AcDbLine
 10
-428.1625943570522
 20
521.8108223580026
 30
0.0
 11
-428.1625943570522
 21
709.8105270798144
 31
0.0
  0
LINE
  5
2EB
330
1F
100
AcDbEntity
  8
1-2
  6
Continuous
 62
     3
370
     9
100
AcDbLine
 10
-428.1625943570522
 20
321.8106573981208
 30
0.0
 11
-428.1625943570522
 21
509.8109807194891
 31
0.0
  0
LINE
  5
2EC
330
1F
100
AcDbEntity
  8
1-2
  6
Continuous
 62
     3
370
     9
100
AcDbLine
 10
-438.1621324693833
 20
521.8108223580026
 30
0.0
 11
-438.1621324693833
 21
709.8105270798144
 31
0.0
  0
LINE
  5
2ED
330
1F
100
AcDbEntity
  8
1-2
  6
Continuous
 62
     3
370
     9
100
AcDbLine
 10
-438.1621324693833
 20
321.8106573981208
 30
0.0
 11
-438.1621324693833
 21
509.8109807194891
 31
0.0
  0
LINE
  5
2EE
330
1F
100
AcDbEntity
  8
1-2
  6
Continuous
 62
     3
370
     9
100
AcDbLine
 10
-428.1625943570522
 20
721.8103687183279
 30
0.0
 11
-428.1625943570522
 21
816.8101872624578
 31
0.0
  0
LINE
  5
2EF
330
1F
100
AcDbEntity
  8
1-2
  6
Continuous
 62
     3
370
     9
100
AcDbLine
 10
-438.1621324693833
 20
721.8103687183279
 30
0.0
 11
-438.1621324693833
 21
816.8101872624578
 31
0.0
  0
LINE
  5
2F0
330
1F
100
AcDbEntity
  8
1-2
  6
Continuous
 62
     3
370
     9
100
AcDbLine
 10
-398.1625943570522
 20
121.8106161581505
 30
0.0
 11
-398.1625943570522
 21
309.8109394795188
 31
0.0
  0
LINE
  5
2F1
330
1F
100
AcDbEntity
  8
1-2
  6
Continuous
 62
     3
370
     9
100
AcDbLine
 10
-398.1625943570522
 20
14.81046109586146
 30
0.0
 11
-398.1625943570522
 21
109.8108982395482
 31
0.0
  0
LINE
  5
2F2
330
1F
100
AcDbEntity
  8
1-2
  6
Continuous
 62
     3
370
     9
100
AcDbLine
 10
-408.1621324693833
 20
121.8106161581505
 30
0.0
 11
-408.1621324693833
 21
309.8109394795188
 31
0.0
  0
LINE
  5
2F3
330
1F
100
AcDbEntity
  8
1-2
  6
Continuous
 62
     3
370
     9
100
AcDbLine
 10
-408.1621324693833
 20
14.81046109586146
 30
0.0
 11
-408.1621324693833
 21
109.8108982395482
 31
0.0
  0
LINE
  5
2F4
330
1F
100
AcDbEntity
  8
1-2
  6
Continuous
 62
     3
370
     9
100
AcDbLine
 10
-398.1625943570522
 20
521.8108223580026
 30
0.0
 11
-398.1625943570522
 21
709.8105270798144
 31
0.0
  0
LINE
  5
2F5
330
1F
100
AcDbEntity
  8
1-2
  6
Continuous
 62
     3
370
     9
100
AcDbLine
 10
-398.1625943570522
 20
321.8106573981208
 30
0.0
 11
-398.1625943570522
 21
509.8109807194891
 31
0.0
  0
LINE
  5
2F6
330
1F
100
AcDbEntity
  8
1-2
  6
Continuous
 62
     3
370
     9
100
AcDbLine
 10
-408.1621324693833
 20
521.8108223580026
 30
0.0
 11
-408.1621324693833
 21
709.8105270798144
 31
0.0
  0
LINE
  5
2F7
330
1F
100
AcDbEntity
  8
1-2
  6
Continuous
 62
     3
370
     9
100
AcDbLine
 10
-408.1621324693833
 20
321.8106573981208
 30
0.0
 11
-408.1621324693833
 21
509.8109807194891
 31
0.0
  0
LINE
  5
2F8
330
1F
100
AcDbEntity
  8
1-2
  6
Continuous
 62
     3
370
     9
100
AcDbLine
 10
-398.1625943570522
 20
721.8103687183279
 30
0.0
 11
-398.1625943570522
 21
816.8101872624578
 31
0.0
  0
LINE
  5
2F9
330
1F
100
AcDbEntity
  8
1-2
  6
Continuous
 62
     3
370
     9
100
AcDbLine
 10
-408.1621324693833
 20
721.8103687183279
 30
0.0
 11
-408.1621324693833
 21
816.8101872624578
 31
0.0
  0
LINE
  5
2FA
330
1F
100
AcDbEntity
  8
1-2
  6
Continuous
 62
     3
370
     9
100
AcDbLine
 10
-368.1625943570522
 20
121.8106161581505
 30
0.0
 11
-368.1625943570522
 21
309.8109394795188
 31
0.0
  0
LINE
  5
2FB
330
1F
100
AcDbEntity
  8
1-2
  6
Continuous
 62
     3
370
     9
100
AcDbLine
 10
-368.1625943570522
 20
14.81046109586146
 30
0.0
 11
-368.1625943570522
 21
109.8108982395482
 31
0.0
  0
LINE
  5
2FC
330
1F
100
AcDbEntity
  8
1-2
  6
Continuous
 62
     3
370
     9
100
AcDbLine
 10
-378.1621324693833
 20
121.8106161581505
 30
0.0
 11
-378.1621324693833
 21
309.8109394795188
 31
0.0
  0
LINE
  5
2FD
330
1F
100
AcDbEntity
  8
1-2
  6
Continuous
 62
     3
370
     9
100
AcDbLine
 10
-378.1621324693833
 20
14.81046109586146
 30
0.0
 11
-378.1621324693833
 21
109.8108982395482
 31
0.0
  0
LINE
  5
2FE
330
1F
100
AcDbEntity
  8
1-2
  6
Continuous
 62
     3
370
     9
100
AcDbLine
 10
-368.1625943570522
 20
521.8108223580026
 30
0.0
 11
-368.1625943570522
 21
709.8105270798144
 31
0.0
  0
LINE
  5
2FF
330
1F
100
AcDbEntity
  8
1-2
  6
Continuous
 62
     3
370
     9
100
AcDbLine
 10
-368.1625943570522
 20
321.8106573981208
 30
0.0
 11
-368.1625943570522
 21
509.8109807194891
 31
0.0
  0
LINE
  5
300
330
1F
100
AcDbEntity
  8
1-2
  6
Continuous
 62
     3
370
     9
100
AcDbLine
 10
-378.1621324693833
 20
521.8108223580026
 30
0.0
 11
-378.1621324693833
 21
709.8105270798144
 31
0.0
  0
LINE
  5
301
330
1F
100
AcDbEntity
  8
1-2
  6
Continuous
 62
     3
370
     9
100
AcDbLine
 10
-378.1621324693833
 20
321.8106573981208
 30
0.0
 11
-378.1621324693833
 21
509.8109807194891
 31
0.0
  0
LINE
  5
302
330
1F
100
AcDbEntity
  8
1-2
  6
Continuous
 62
     3
370
     9
100
AcDbLine
 10
-368.1625943570522
 20
721.8103687183279
 30
0.0
 11
-368.1625943570522
 21
816.8101872624578
 31
0.0
  0
LINE
  5
303
330
1F
100
AcDbEntity
  8
1-2
  6
Continuous
 62
     3
370
     9
100
AcDbLine
 10
-378.1621324693833
 20
721.8103687183279
 30
0.0
 11
-378.1621324693833
 21
816.8101872624578
 31
0.0
  0
LINE
  5
304
330
1F
100
AcDbEntity
  8
1-2
  6
Continuous
 62
     3
370
     9
100
AcDbLine
 10
-338.1625943570522
 20
121.8106161581505
 30
0.0
 11
-338.1625943570522
 21
309.8109394795188
 31
0.0
  0
LINE
  5
305
330
1F
100
AcDbEntity
  8
1-2
  6
Continuous
 62
     3
370
     9
100
AcDbLine
 10
-338.1625943570522
 20
14.81046109586146
 30
0.0
 11
-338.1625943570522
 21
109.8108982395482
 31
0.0
  0
LINE
  5
306
330
1F
100
AcDbEntity
  8
1-2
  6
Continuous
 62
     3
370
     9
100
AcDbLine
 10
-348.1621324693833
 20
121.8106161581505
 30
0.0
 11
-348.1621324693833
 21
309.8109394795188
 31
0.0
  0
LINE
  5
307
330
1F
100
AcDbEntity
  8
1-2
  6
Continuous
 62
     3
370
     9
100
AcDbLine
 10
-348.1621324693833
 20
14.81046109586146
 30
0.0
 11
-348.1621324693833
 21
109.8108982395482
 31
0.0
  0
LINE
  5
308
330
1F
100
AcDbEntity
  8
1-2
  6
Continuous
 62
     3
370
     9
100
AcDbLine
 10
-338.1625943570522
 20
521.8108223580026
 30
0.0
 11
-338.1625943570522
 21
709.8105270798144
 31
0.0
  0
LINE
  5
309
330
1F
100
AcDbEntity
  8
1-2
  6
Continuous
 62
     3
370
     9
100
AcDbLine
 10
-338.1625943570522
 20
321.8106573981208
 30
0.0
 11
-338.1625943570522
 21
509.8109807194891
 31
0.0
  0
LINE
  5
30A
330
1F
100
AcDbEntity
  8
1-2
  6
Continuous
 62
     3
370
     9
100
AcDbLine
 10
-348.1621324693833
 20
521.8108223580026
 30
0.0
 11
-348.1621324693833
 21
709.8105270798144
 31
0.0
  0
LINE
  5
30B
330
1F
100
AcDbEntity
  8
1-2
  6
Continuous
 62
     3
370
     9
100
AcDbLine
 10
-348.1621324693833
 20
321.8106573981208
 30
0.0
 11
-348.1621324693833
 21
509.8109807194891
 31
0.0
  0
LINE
  5
30C
330
1F
100
AcDbEntity
  8
1-2
  6
Continuous
 62
     3
370
     9
100
AcDbLine
 10
-338.1625943570522
 20
721.8103687183279
 30
0.0
 11
-338.1625943570522
 21
816.8101872624578
 31
0.0
  0
LINE
  5
30D
330
1F
100
AcDbEntity
  8
1-2
  6
Continuous
 62
     3
370
     9
100
AcDbLine
 10
-348.1621324693833
 20
721.8103687183279
 30
0.0
 11
-348.1621324693833
 21
816.8101872624578
 31
0.0
  0
LINE
  5
30E
330
1F
100
AcDbEntity
  8
1-2
  6
Continuous
 62
     3
370
     9
100
AcDbLine
 10
-308.1625943570522
 20
121.8106161581505
 30
0.0
 11
-308.1625943570522
 21
309.8109394795188
 31
0.0
  0
LINE
  5
30F
330
1F
100
AcDbEntity
  8
1-2
  6
Continuous
 62
     3
370
     9
100
AcDbLine
 10
-308.1625943570522
 20
14.81046109586146
 30
0.0
 11
-308.1625943570522
 21
109.8108982395482
 31
0.0
  0
LINE
  5
310
330
1F
100
AcDbEntity
  8
1-2
  6
Continuous
 62
     3
370
     9
100
AcDbLine
 10
-318.1621324693833
 20
121.8106161581505
 30
0.0
 11
-318.1621324693833
 21
309.8109394795188
 31
0.0
  0
LINE
  5
311
330
1F
100
AcDbEntity
  8
1-2
  6
Continuous
 62
     3
370
     9
100
AcDbLine
 10
-318.1621324693833
 20
14.81046109586146
 30
0.0
 11
-318.1621324693833
 21
109.8108982395482
 31
0.0
  0
LINE
  5
312
330
1F
100
AcDbEntity
  8
1-2
  6
Continuous
 62
     3
370
     9
100
AcDbLine
 10
-308.1625943570522
 20
521.8108223580026
 30
0.0
 11
-308.1625943570522
 21
709.8105270798144
 31
0.0
  0
LINE
  5
313
330
1F
100
AcDbEntity
  8
1-2
  6
Continuous
 62
     3
370
     9
100
AcDbLine
 10
-308.1625943570522
 20
321.8106573981208
 30
0.0
 11
-308.1625943570522
 21
509.8109807194891
 31
0.0
  0
LINE
  5
314
330
1F
100
AcDbEntity
  8
1-2
  6
Continuous
 62
     3
370
     9
100
AcDbLine
 10
-318.1621324693833
 20
521.8108223580026
 30
0.0
 11
-318.1621324693833
 21
709.8105270798144
 31
0.0
  0
LINE
  5
315
330
1F
100
AcDbEntity
  8
1-2
  6
Continuous
 62
     3
370
     9
100
AcDbLine
 10
-318.1621324693833
 20
321.8106573981208
 30
0.0
 11
-318.1621324693833
 21
509.8109807194891
 31
0.0
  0
LINE
  5
316
330
1F
100
AcDbEntity
  8
1-2
  6
Continuous
 62
     3
370
     9
100
AcDbLine
 10
-308.1625943570522
 20
721.8103687183279
 30
0.0
 11
-308.1625943570522
 21
816.8101872624578
 31
0.0
  0
LINE
  5
317
330
1F
100
AcDbEntity
  8
1-2
  6
Continuous
 62
     3
370
     9
100
AcDbLine
 10
-318.1621324693833
 20
721.8103687183279
 30
0.0
 11
-318.1621324693833
 21
816.8101872624578
 31
0.0
  0
LINE
  5
318
330
1F
100
AcDbEntity
  8
1-2
  6
Continuous
 62
     3
370
     9
100
AcDbLine
 10
-278.1625943570522
 20
121.8106161581505
 30
0.0
 11
-278.1625943570522
 21
309.8109394795188
 31
0.0
  0
LINE
  5
319
330
1F
100
AcDbEntity
  8
1-2
  6
Continuous
 62
     3
370
     9
100
AcDbLine
 10
-278.1625943570522
 20
14.81046109586146
 30
0.0
 11
-278.1625943570522
 21
109.8108982395482
 31
0.0
  0
LINE
  5
31A
330
1F
100
AcDbEntity
  8
1-2
  6
Continuous
 62
     3
370
     9
100
AcDbLine
 10
-288.1621324693833
 20
121.8106161581505
 30
0.0
 11
-288.1621324693833
 21
309.8109394795188
 31
0.0
  0
LINE
  5
31B
330
1F
100
AcDbEntity
  8
1-2
  6
Continuous
 62
     3
370
     9
100
AcDbLine
 10
-288.1621324693833
 20
14.81046109586146
 30
0.0
 11
-288.1621324693833
 21
109.8108982395482
 31
0.0
  0
LINE
  5
31C
330
1F
100
AcDbEntity
  8
1-2
  6
Continuous
 62
     3
370
     9
100
AcDbLine
 10
-278.1625943570522
 20
521.8108223580026
 30
0.0
 11
-278.1625943570522
 21
709.8105270798144
 31
0.0
  0
LINE
  5
31D
330
1F
100
AcDbEntity
  8
1-2
  6
Continuous
 62
     3
370
     9
100
AcDbLine
 10
-278.1625943570522
 20
321.8106573981208
 30
0.0
 11
-278.1625943570522
 21
509.8109807194891
 31
0.0
  0
LINE
  5
31E
330
1F
100
AcDbEntity
  8
1-2
  6
Continuous
 62
     3
370
     9
100
AcDbLine
 10
-288.1621324693833
 20
521.8108223580026
 30
0.0
 11
-288.1621324693833
 21
709.8105270798144
 31
0.0
  0
LINE
  5
31F
330
1F
100
AcDbEntity
  8
1-2
  6
Continuous
 62
     3
370
     9
100
AcDbLine
 10
-288.1621324693833
 20
321.8106573981208
 30
0.0
 11
-288.1621324693833
 21
509.8109807194891
 31
0.0
  0
LINE
  5
320
330
1F
100
AcDbEntity
  8
1-2
  6
Continuous
 62
     3
370
     9
100
AcDbLine
 10
-278.1625943570522
 20
721.8103687183279
 30
0.0
 11
-278.1625943570522
 21
816.8101872624578
 31
0.0
  0
LINE
  5
321
330
1F
100
AcDbEntity
  8
1-2
  6
Continuous
 62
     3
370
     9
100
AcDbLine
 10
-288.1621324693833
 20
721.8103687183279
 30
0.0
 11
-288.1621324693833
 21
816.8101872624578
 31
0.0
  0
LINE
  5
322
330
1F
100
AcDbEntity
  8
1-2
  6
Continuous
 62
     3
370
     9
100
AcDbLine
 10
-248.1625943570522
 20
121.8106161581505
 30
0.0
 11
-248.1625943570522
 21
309.8109394795188
 31
0.0
  0
LINE
  5
323
330
1F
100
AcDbEntity
  8
1-2
  6
Continuous
 62
     3
370
     9
100
AcDbLine
 10
-248.1625943570522
 20
14.81046109586146
 30
0.0
 11
-248.1625943570522
 21
109.8108982395482
 31
0.0
  0
LINE
  5
324
330
1F
100
AcDbEntity
  8
1-2
  6
Continuous
 62
     3
370
     9
100
AcDbLine
 10
-258.1621324693833
 20
121.8106161581505
 30
0.0
 11
-258.1621324693833
 21
309.8109394795188
 31
0.0
  0
LINE
  5
325
330
1F
100
AcDbEntity
  8
1-2
  6
Continuous
 62
     3
370
     9
100
AcDbLine
 10
-258.1621324693833
 20
14.81046109586146
 30
0.0
 11
-258.1621324693833
 21
109.8108982395482
 31
0.0
  0
LINE
  5
326
330
1F
100
AcDbEntity
  8
1-2
  6
Continuous
 62
     3
370
     9
100
AcDbLine
 10
-248.1625943570522
 20
521.8108223580026
 30
0.0
 11
-248.1625943570522
 21
709.8105270798144
 31
0.0
  0
LINE
  5
327
330
1F
100
AcDbEntity
  8
1-2
  6
Continuous
 62
     3
370
     9
100
AcDbLine
 10
-248.1625943570522
 20
321.8106573981208
 30
0.0
 11
-248.1625943570522
 21
509.8109807194891
 31
0.0
  0
LINE
  5
328
330
1F
100
AcDbEntity
  8
1-2
  6
Continuous
 62
     3
370
     9
100
AcDbLine
 10
-258.1621324693833
 20
521.8108223580026
 30
0.0
 11
-258.1621324693833
 21
709.8105270798144
 31
0.0
  0
LINE
  5
329
330
1F
100
AcDbEntity
  8
1-2
  6
Continuous
 62
     3
370
     9
100
AcDbLine
 10
-258.1621324693833
 20
321.8106573981208
 30
0.0
 11
-258.1621324693833
 21
509.8109807194891
 31
0.0
  0
LINE
  5
32A
330
1F
100
AcDbEntity
  8
1-2
  6
Continuous
 62
     3
370
     9
100
AcDbLine
 10
-248.1625943570522
 20
721.8103687183279
 30
0.0
 11
-248.1625943570522
 21
816.8101872624578
 31
0.0
  0
LINE
  5
32B
330
1F
100
AcDbEntity
  8
1-2
  6
Continuous
 62
     3
370
     9
100
AcDbLine
 10
-258.1621324693833
 20
721.8103687183279
 30
0.0
 11
-258.1621324693833
 21
816.8101872624578
 31
0.0
  0
LINE
  5
32C
330
1F
100
AcDbEntity
  8
1-2
  6
Continuous
 62
     3
370
     9
100
AcDbLine
 10
-218.1625943570522
 20
121.8106161581505
 30
0.0
 11
-218.1625943570522
 21
309.8109394795188
 31
0.0
  0
LINE
  5
32D
330
1F
100
AcDbEntity
  8
1-2
  6
Continuous
 62
     3
370
     9
100
AcDbLine
 10
-218.1625943570522
 20
14.81046109586146
 30
0.0
 11
-218.1625943570522
 21
109.8108982395482
 31
0.0
  0
LINE
  5
32E
330
1F
100
AcDbEntity
  8
1-2
  6
Continuous
 62
     3
370
     9
100
AcDbLine
 10
-228.1621324693833
 20
121.8106161581505
 30
0.0
 11
-228.1621324693833
 21
309.8109394795188
 31
0.0
  0
LINE
  5
32F
330
1F
100
AcDbEntity
  8
1-2
  6
Continuous
 62
     3
370
     9
100
AcDbLine
 10
-228.1621324693833
 20
14.81046109586146
 30
0.0
 11
-228.1621324693833
 21
109.8108982395482
 31
0.0
  0
LINE
  5
330
330
1F
100
AcDbEntity
  8
1-2
  6
Continuous
 62
     3
370
     9
100
AcDbLine
 10
-218.1625943570522
 20
521.8108223580026
 30
0.0
 11
-218.1625943570522
 21
709.8105270798144
 31
0.0
  0
LINE
  5
331
330
1F
100
AcDbEntity
  8
1-2
  6
Continuous
 62
     3
370
     9
100
AcDbLine
 10
-218.1625943570522
 20
321.8106573981208
 30
0.0
 11
-218.1625943570522
 21
509.8109807194891
 31
0.0
  0
LINE
  5
332
330
1F
100
AcDbEntity
  8
1-2
  6
Continuous
 62
     3
370
     9
100
AcDbLine
 10
-228.1621324693833
 20
521.8108223580026
 30
0.0
 11
-228.1621324693833
 21
709.8105270798144
 31
0.0
  0
LINE
  5
333
330
1F
100
AcDbEntity
  8
1-2
  6
Continuous
 62
     3
370
     9
100
AcDbLine
 10
-228.1621324693833
 20
321.8106573981208
 30
0.0
 11
-228.1621324693833
 21
509.8109807194891
 31
0.0
  0
LINE
  5
334
330
1F
100
AcDbEntity
  8
1-2
  6
Continuous
 62
     3
370
     9
100
AcDbLine
 10
-218.1625943570522
 20
721.8103687183279
 30
0.0
 11
-218.1625943570522
 21
816.8101872624578
 31
0.0
  0
LINE
  5
335
330
1F
100
AcDbEntity
  8
1-2
  6
Continuous
 62
     3
370
     9
100
AcDbLine
 10
-228.1621324693833
 20
721.8103687183279
 30
0.0
 11
-228.1621324693833
 21
816.8101872624578
 31
0.0
  0
LINE
  5
336
330
1F
100
AcDbEntity
  8
1-2
  6
Continuous
 62
     3
370
     9
100
AcDbLine
 10
-188.1625943570522
 20
121.8106161581505
 30
0.0
 11
-188.1625943570522
 21
309.8109394795188
 31
0.0
  0
LINE
  5
337
330
1F
100
AcDbEntity
  8
1-2
  6
Continuous
 62
     3
370
     9
100
AcDbLine
 10
-188.1625943570522
 20
14.81046109586146
 30
0.0
 11
-188.1625943570522
 21
109.8108982395482
 31
0.0
  0
LINE
  5
338
330
1F
100
AcDbEntity
  8
1-2
  6
Continuous
 62
     3
370
     9
100
AcDbLine
 10
-198.1621324693833
 20
121.8106161581505
 30
0.0
 11
-198.1621324693833
 21
309.8109394795188
 31
0.0
  0
LINE
  5
339
330
1F
100
AcDbEntity
  8
1-2
  6
Continuous
 62
     3
370
     9
100
AcDbLine
 10
-198.1621324693833
 20
14.81046109586146
 30
0.0
 11
-198.1621324693833
 21
109.8108982395482
 31
0.0
  0
LINE
  5
33A
330
1F
100
AcDbEntity
  8
1-2
  6
Continuous
 62
     3
370
     9
100
AcDbLine
 10
-188.1625943570522
 20
521.8108223580026
 30
0.0
 11
-188.1625943570522
 21
709.8105270798144
 31
0.0
  0
LINE
  5
33B
330
1F
100
AcDbEntity
  8
1-2
  6
Continuous
 62
     3
370
     9
100
AcDbLine
 10
-188.1625943570522
 20
321.8106573981208
 30
0.0
 11
-188.1625943570522
 21
509.8109807194891
 31
0.0
  0
LINE
  5
33C
330
1F
100
AcDbEntity
  8
1-2
  6
Continuous
 62
     3
370
     9
100
AcDbLine
 10
-198.1621324693833
 20
521.8108223580026
 30
0.0
 11
-198.1621324693833
 21
709.8105270798144
 31
0.0
  0
LINE
  5
33D
330
1F
100
AcDbEntity
  8
1-2
  6
Continuous
 62
     3
370
     9
100
AcDbLine
 10
-198.1621324693833
 20
321.8106573981208
 30
0.0
 11
-198.1621324693833
 21
509.8109807194891
 31
0.0
  0
LINE
  5
33E
330
1F
100
AcDbEntity
  8
1-2
  6
Continuous
 62
     3
370
     9
100
AcDbLine
 10
-188.1625943570522
 20
721.8103687183279
 30
0.0
 11
-188.1625943570522
 21
816.8101872624578
 31
0.0
  0
LINE
  5
33F
330
1F
100
AcDbEntity
  8
1-2
  6
Continuous
 62
     3
370
     9
100
AcDbLine
 10
-198.1621324693833
 20
721.8103687183279
 30
0.0
 11
-198.1621324693833
 21
816.8101872624578
 31
0.0
  0
LINE
  5
340
330
1F
100
AcDbEntity
  8
1-4
  6
Continuous
 62
     7
370
     9
100
AcDbLine
 10
-403.1623634132177
 20
869.559504423586
 30
0.0
 11
-373.1623634132177
 21
869.559504423586
 31
0.0
  0
LWPOLYLINE
  5
341
330
1F
100
AcDbEntity
  8
1-4
  6
Continuous
 62
     7
370
     9
100
AcDbPolyline
 90
        4
 70
     1
 43
1.0
 10
-402.6623634132178
 20
869.559504423586
 42
0.4142135623731
 10
-403.1623634132177
 20
870.059504423586
 42
0.4142135623731
 10
-403.6623634132177
 20
869.559504423586
 42
0.4142135623731
 10
-403.1623634132177
 20
869.0595044235861
 42
0.4142135623731
  0
LWPOLYLINE
  5
342
330
1F
100
AcDbEntity
  8
1-4
  6
Continuous
 62
     7
370
     9
100
AcDbPolyline
 90
        4
 70
     1
 43
1.0
 10
-372.6623634132178
 20
869.559504423586
 42
0.4142135623731
 10
-373.1623634132177
 20
870.059504423586
 42
0.4142135623731
 10
-373.6623634132177
 20
869.559504423586
 42
0.4142135623731
 10
-373.1623634132177
 20
869.0595044235861
 42
0.4142135623731
  0
TEXT
  5
343
330
1F
100
AcDbEntity
  8
1-4
  6
Continuous
 62
     2
370
   211
100
AcDbText
 10
-409.4123634132177
 20
881.199504423586
 30
0.0
 40
30.48
  1
15
 41
1.0625
  7
ＭＳ ゴシック
100
AcDbText
  0
LINE
  5
344
330
1F
100
AcDbEntity
  8
1-4
  6
Continuous
 62
     7
370
     9
100
AcDbLine
 10
-403.1623634132177
 20
872.559504423586
 30
0.0
 11
-403.1623634132177
 21
804.0108221688845
 31
0.0
  0
LINE
  5
345
330
1F
100
AcDbEntity
  8
1-4
  6
Continuous
 62
     7
370
     9
100
AcDbLine
 10
-373.1623634132177
 20
872.559504423586
 30
0.0
 11
-373.1623634132177
 21
804.0108221688845
 31
0.0
  0
LINE
  5
346
330
1F
100
AcDbEntity
  8
1-5
  6
Continuous
 62
     7
370
     9
100
AcDbLine
 10
-933.7471296980573
 20
825.810810810811
 30
0.0
 11
-929.6146372202279
 21
850.4669519372891
 31
0.0
  0
LINE
  5
347
330
1F
100
AcDbEntity
  8
1-5
  6
Continuous
 62
     7
370
     9
100
AcDbLine
 10
-933.7471296980573
 20
825.810810810811
 30
0.0
 11
-923.3739574535471
 21
848.5572113861908
 31
0.0
  0
LINE
  5
348
330
1F
100
AcDbEntity
  8
1-5
  6
Continuous
 62
     7
370
     9
100
AcDbLine
 10
-758.1625943570522
 20
790.9611387510557
 30
0.0
 11
-754.0301018792228
 21
815.6172798775339
 31
0.0
  0
LINE
  5
349
330
1F
100
AcDbEntity
  8
1-5
  6
Continuous
 62
     7
370
     9
100
AcDbLine
 10
-758.1625943570522
 20
790.9611387510557
 30
0.0
 11
-747.7895458324535
 21
813.707539326436
 31
0.0
  0
LINE
  5
34A
330
1F
100
AcDbEntity
  8
1-5
  6
Continuous
 62
     7
370
     9
100
AcDbLine
 10
-867.3396012589737
 20
721.8103687183279
 30
0.0
 11
-864.6842008023647
 21
746.669163059544
 31
0.0
  0
LINE
  5
34B
330
1F
100
AcDbEntity
  8
1-5
  6
Continuous
 62
     7
370
     9
100
AcDbLine
 10
-867.3396012589737
 20
721.8103687183279
 30
0.0
 11
-858.3408335092904
 21
745.134541279561
 31
0.0
  0
TEXT
  5
34C
330
1F
100
AcDbEntity
  8
1-5
  6
Continuous
 62
     7
370
     9
100
AcDbText
 10
-841.5653991699218
 20
1136.919986127258
 30
0.0
 40
22.86
  1
エンドプレート ＦＢ19×4.5
 41
1.16025641025641
  7
ＭＳ ゴシック
100
AcDbText
  0
TEXT
  5
34D
330
1F
100
AcDbEntity
  8
1-5
  6
Continuous
 62
     7
370
     9
100
AcDbText
 10
-776.6010841163427
 20
1055.471951789209
 30
0.0
 40
22.86
  1
クロスバー φ６ ＠100
 41
1.158730158730159
  7
ＭＳ ゴシック
100
AcDbText
  0
TEXT
  5
34E
330
1F
100
AcDbEntity
  8
1-5
  6
Continuous
 62
     7
370
     9
100
AcDbText
 10
-708.9814510860957
 20
977.9646440664475
 30
0.0
 40
22.86
  1
メインバー ＤⅠ－２５ ＠15
 41
1.16025641025641
  7
ＭＳ ゴシック
100
AcDbText
  0
LINE
  5
34F
330
1F
100
AcDbEntity
  8
1-5
  6
Continuous
 62
     7
370
     9
100
AcDbLine
 10
-933.7471296980573
 20
825.810810810811
 30
0.0
 11
-843.9483637928597
 21
1119.26340647143
 31
0.0
  0
LINE
  5
350
330
1F
100
AcDbEntity
  8
1-5
  6
Continuous
 62
     7
370
     9
100
AcDbLine
 10
-388.5132330817145
 20
1119.26340647143
 30
0.0
 11
-843.9483637928597
 21
1119.26340647143
 31
0.0
  0
LINE
  5
351
330
1F
100
AcDbEntity
  8
1-5
  6
Continuous
 62
     7
370
     9
100
AcDbLine
 10
-867.3396012589737
 20
721.8103687183279
 30
0.0
 11
-777.0375155101704
 21
1039.263389975443
 31
0.0
  0
LINE
  5
352
330
1F
100
AcDbEntity
  8
1-5
  6
Continuous
 62
     7
370
     9
100
AcDbLine
 10
-408.4837300068621
 20
1039.263389975443
 30
0.0
 11
-777.0375155101704
 21
1039.263389975443
 31
0.0
  0
LINE
  5
353
330
1F
100
AcDbEntity
  8
1-5
  6
Continuous
 62
     7
370
     9
100
AcDbLine
 10
-257.2941630595438
 20
959.2633734794542
 30
0.0
 11
-706.6608381803384
 21
959.2633734794542
 31
0.0
  0
LINE
  5
354
330
1F
100
AcDbEntity
  8
1-5
  6
Continuous
 62
     7
370
     9
100
AcDbLine
 10
-758.1625943570522
 20
790.9611387510557
 30
0.0
 11
-706.6608381803384
 21
959.2633734794542
 31
0.0
  0
TEXT
  5
355
330
1F
100
AcDbEntity
  8
1-5
  6
Continuous
 62
     7
370
     9
100
AcDbText
 10
922.7434560414908
 20
969.8945408836573
 30
0.0
 40
22.86
  1
（Ｌ＝４９０）
 41
1.142857142857143
  7
ＭＳ ゴシック
100
AcDbText
  0
TEXT
  5
356
330
1F
100
AcDbEntity
  8
1-4
  6
Continuous
 62
     2
370
     9
100
AcDbText
 10
500.2407424514359
 20
-906.0698916543496
 30
0.0
 40
30.48
  1
定尺：５００
 41
1.104166666666667
  7
ＭＳ ゴシック
100
AcDbText
  0
TEXT
  5
357
330
1F
100
AcDbEntity
  8
A-5
  6
Continuous
 62
     7
370
     9
100
AcDbText
 10
-843.0376874080132
 20
-1322.44290764886
 30
0.0
 40
22.86
  1
かさあげ型　細目ノンスリップタイプ　
 41
1.157407407407407
  7
ＭＳ ゴシック
100
AcDbText
  0
TEXT
  5
358
330
1F
100
AcDbEntity
  8
A-5
  6
Continuous
 62
     7
370
     9
100
AcDbText
 10
-628.2506290838903
 20
-1361.590361987965
 30
0.0
 40
22.86
  1
ＪＩＳ型側溝用　スチール製グレーチング　ＱＸＪ　４１２５Ａ
 41
1.160919540229885
  7
ＭＳ ゴシック
100
AcDbText
  0
ENDSEC
  0
SECTION
  2
OBJECTS
  0
DICTIONARY
  5
C
330
0
100
AcDbDictionary
281
     1
  3
ACAD_GROUP
350
D
  3
ACAD_LAYOUT
350
1A
  3
ACAD_MLEADERSTYLE
350
35A
  3
ACAD_MLINESTYLE
350
17
  3
ACAD_PLOTSETTINGS
350
19
  3
ACAD_PLOTSTYLENAME
350
E
  3
ACAD_TABLESTYLE
350
359
  3
ACAD_VISUALSTYLE
350
2A
  0
DICTIONARY
  5
D
102
{ACAD_REACTORS
330
C
102
}
330
C
100
AcDbDictionary
281
     1
  0
DICTIONARY
  5
1A
102
{ACAD_REACTORS
330
C
102
}
330
C
100
AcDbDictionary
281
     1
  3
Layout1
350
1E
  3
Layout2
350
26
  3
Model
350
22
  0
DICTIONARY
  5
35A
102
{ACAD_REACTORS
330
C
102
}
330
C
100
AcDbDictionary
281
     1
  0
DICTIONARY
  5
17
102
{ACAD_REACTORS
330
C
102
}
330
C
100
AcDbDictionary
281
     1
  3
Standard
350
18
  0
DICTIONARY
  5
19
102
{ACAD_REACTORS
330
C
102
}
330
C
100
AcDbDictionary
281
     1
  0
ACDBDICTIONARYWDFLT
  5
E
102
{ACAD_REACTORS
330
C
102
}
330
C
100
AcDbDictionary
281
     1
  3
Normal
350
F
100
AcDbDictionaryWithDefault
340
F
  0
DICTIONARY
  5
359
102
{ACAD_REACTORS
330
C
102
}
330
C
100
AcDbDictionary
281
     1
  0
DICTIONARY
  5
2A
102
{ACAD_REACTORS
330
C
102
}
330
C
100
AcDbDictionary
281
     1
  3
2dWireframe
350
2F
  3
3D Hidden
350
31
  3
3dWireframe
350
30
  3
Basic
350
32
  3
Brighten
350
36
  3
ColorChange
350
3A
  3
Conceptual
350
34
  3
Dim
350
35
  3
Facepattern
350
39
  3
Flat
350
2B
  3
FlatWithEdges
350
2C
  3
Gouraud
350
2D
  3
GouraudWithEdges
350
2E
  3
Linepattern
350
38
  3
Realistic
350
33
  3
Thicken
350
37
  0
LAYOUT
  5
1E
102
{ACAD_REACTORS
330
1A
102
}
330
1A
100
AcDbPlotSettings
  1

  2
none_device
  4

  6

 40
0.0
 41
0.0
 42
0.0
 43
0.0
 44
0.0
 45
0.0
 46
0.0
 47
0.0
 48
0.0
 49
0.0
140
0.0
141
0.0
142
1.0
143
1.0
 70
   688
 72
     0
 73
     0
 74
     5
  7

 75
    16
 76
     0
 77
     5
 78
   300
147
1.0
148
0.0
149
0.0
100
AcDbLayout
  1
Layout1
 70
     1
 71
     1
 10
0.0
 20
0.0
 11
420.0
 21
297.0
 12
0.0
 22
0.0
 32
0.0
 14
1.000000000000000E+20
 24
1.000000000000000E+20
 34
1.000000000000000E+20
 15
-1.000000000000000E+20
 25
-1.000000000000000E+20
 35
-1.000000000000000E+20
146
0.0
 13
0.0
 23
0.0
 33
0.0
 16
1.0
 26
0.0
 36
0.0
 17
0.0
 27
1.0
 37
0.0
 76
     0
330
1B
  0
LAYOUT
  5
26
102
{ACAD_REACTORS
330
1A
102
}
330
1A
100
AcDbPlotSettings
  1

  2
none_device
  4

  6

 40
0.0
 41
0.0
 42
0.0
 43
0.0
 44
0.0
 45
0.0
 46
0.0
 47
0.0
 48
0.0
 49
0.0
140
0.0
141
0.0
142
1.0
143
1.0
 70
   688
 72
     0
 73
     0
 74
     5
  7

 75
    16
 76
     0
 77
     5
 78
   300
147
1.0
148
0.0
149
0.0
100
AcDbLayout
  1
Layout2
 70
     1
 71
     2
 10
0.0
 20
0.0
 11
0.0
 21
0.0
 12
0.0
 22
0.0
 32
0.0
 14
0.0
 24
0.0
 34
0.0
 15
0.0
 25
0.0
 35
0.0
146
0.0
 13
0.0
 23
0.0
 33
0.0
 16
1.0
 26
0.0
 36
0.0
 17
0.0
 27
1.0
 37
0.0
 76
     0
330
23
  0
LAYOUT
  5
22
102
{ACAD_REACTORS
330
1A
102
}
330
1A
100
AcDbPlotSettings
  1

  2
none_device
  4

  6

 40
0.0
 41
0.0
 42
0.0
 43
0.0
 44
0.0
 45
0.0
 46
0.0
 47
0.0
 48
0.0
 49
0.0
140
0.0
141
0.0
142
1.0
143
1.0
 70
  1712
 72
     0
 73
     0
 74
     0
  7

 75
     0
 76
     0
 77
     5
 78
   300
147
1.0
148
0.0
149
0.0
100
AcDbLayout
  1
Model
 70
     1
 71
     0
 10
-2100.0
 20
-1485.0
 11
2100.0
 21
1485.0
 12
0.0
 22
0.0
 32
0.0
 14
-2100.0
 24
-1485.0
 34
0.0
 15
2100.0
 25
1485.0
 35
0.0
146
0.0
 13
0.0
 23
0.0
 33
0.0
 16
1.0
 26
0.0
 36
0.0
 17
0.0
 27
1.0
 37
0.0
 76
     0
330
1F
331
29
  0
MLINESTYLE
  5
18
102
{ACAD_REACTORS
330
17
102
}
330
17
100
AcDbMlineStyle
  2
Standard
 70
     0
  3

 62
   256
 51
90.0
 52
90.0
 71
     2
 49
0.5
 62
   256
  6
BYLAYER
 49
-0.5
 62
   256
  6
BYLAYER
  0
ACDBPLACEHOLDER
  5
F
102
{ACAD_REACTORS
330
E
102
}
330
E
  0
VISUALSTYLE
  5
2F
102
{ACAD_REACTORS
330
2A
102
}
330
2A
100
AcDbVisualStyle
  2
2dWireframe
 70
     4
 71
     0
 72
     2
 73
     0
 90
        0
 40
-0.6
 41
-30.0
 62
     5
 63
     7
421
 16777215
 74
     1
 91
        4
 64
     7
 65
   257
 75
     1
175
     1
 42
1.0
 92
        0
 66
   257
 43
1.0
 76
     1
 77
     6
 78
     2
 67
     7
 79
     5
170
     0
171
     0
290
     0
174
     0
 93
        1
 44
0.0
173
     0
291
     0
 45
0.0
1001
ACAD
1000
AcDbSavedByObjectVersion
1070
     0
  0
VISUALSTYLE
  5
31
102
{ACAD_REACTORS
330
2A
102
}
330
2A
100
AcDbVisualStyle
  2
3D Hidden
 70
     6
 71
     1
 72
     2
 73
     2
 90
        0
 40
-0.6
 41
-30.0
 62
     5
 63
     7
421
 16777215
 74
     2
 91
        2
 64
     7
 65
   257
 75
     2
175
     1
 42
40.0
 92
        0
 66
   257
 43
1.0
 76
     1
 77
     6
 78
     2
 67
     7
 79
     3
170
     0
171
     0
290
     0
174
     0
 93
        1
 44
0.0
173
     0
291
     0
 45
0.0
1001
ACAD
1000
AcDbSavedByObjectVersion
1070
     0
  0
VISUALSTYLE
  5
30
102
{ACAD_REACTORS
330
2A
102
}
330
2A
100
AcDbVisualStyle
  2
3dWireframe
 70
     5
 71
     0
 72
     2
 73
     0
 90
        0
 40
-0.6
 41
-30.0
 62
     5
 63
     7
421
 16777215
 74
     1
 91
        4
 64
     7
 65
   257
 75
     1
175
     1
 42
1.0
 92
        0
 66
   257
 43
1.0
 76
     1
 77
     6
 78
     2
 67
     7
 79
     5
170
     0
171
     0
290
     0
174
     0
 93
        1
 44
0.0
173
     0
291
     0
 45
0.0
1001
ACAD
1000
AcDbSavedByObjectVersion
1070
     0
  0
VISUALSTYLE
  5
32
102
{ACAD_REACTORS
330
2A
102
}
330
2A
100
AcDbVisualStyle
  2
Basic
 70
     7
 71
     1
 72
     0
 73
     1
 90
        0
 40
-0.6
 41
-30.0
 62
     5
 63
     7
421
 16777215
 74
     0
 91
        4
 64
     7
 65
   257
 75
     1
175
     1
 42
1.0
 92
        8
 66
     7
 43
1.0
 76
     1
 77
     6
 78
     2
 67
     7
 79
     5
170
     0
171
     0
290
     0
174
     0
 93
        1
 44
0.0
173
     0
291
     1
 45
0.0
1001
ACAD
1000
AcDbSavedByObjectVersion
1070
     0
  0
VISUALSTYLE
  5
36
102
{ACAD_REACTORS
330
2A
102
}
330
2A
100
AcDbVisualStyle
  2
Brighten
 70
    12
 71
     2
 72
     2
 73
     0
 90
        0
 40
-0.6
 41
-30.0
 62
     5
 63
     7
421
 16777215
 74
     1
 91
        4
 64
     7
 65
   257
 75
     1
175
     1
 42
1.0
 92
        8
 66
     7
 43
1.0
 76
     1
 77
     6
 78
     2
 67
     7
 79
     5
170
     0
171
     0
290
     0
174
     0
 93
        1
 44
50.0
173
     0
291
     1
 45
0.0
1001
ACAD
1000
AcDbSavedByObjectVersion
1070
     0
  0
VISUALSTYLE
  5
3A
102
{ACAD_REACTORS
330
2A
102
}
330
2A
100
AcDbVisualStyle
  2
ColorChange
 70
    16
 71
     2
 72
     2
 73
     3
 90
        0
 40
-0.6
 41
-30.0
 62
     5
 63
     8
421
  8421504
 74
     1
 91
        4
 64
     7
 65
   257
 75
     1
175
     1
 42
1.0
 92
        8
 66
     8
424
  8421504
 43
1.0
 76
     1
 77
     6
 78
     2
 67
     7
 79
     5
170
     0
171
     0
290
     0
174
     0
 93
        1
 44
0.0
173
     0
291
     1
 45
0.0
1001
ACAD
1000
AcDbSavedByObjectVersion
1070
     0
  0
VISUALSTYLE
  5
34
102
{ACAD_REACTORS
330
2A
102
}
330
2A
100
AcDbVisualStyle
  2
Conceptual
 70
     9
 71
     3
 72
     2
 73
     0
 90
        0
 40
-0.6
 41
-30.0
 62
     5
 63
     7
421
 16777215
 74
     2
 91
        2
 64
     7
 65
   257
 75
     1
175
     1
 42
40.0
 92
        8
 66
     7
 43
1.0
 76
     1
 77
     6
 78
     2
 67
     7
 79
     3
170
     0
171
     0
290
     0
174
     0
 93
        1
 44
0.0
173
     0
291
     0
 45
0.0
1001
ACAD
1000
AcDbSavedByObjectVersion
1070
     0
  0
VISUALSTYLE
  5
35
102
{ACAD_REACTORS
330
2A
102
}
330
2A
100
AcDbVisualStyle
  2
Dim
 70
    11
 71
     2
 72
     2
 73
     0
 90
        0
 40
-0.6
 41
-30.0
 62
     5
 63
     7
421
 16777215
 74
     1
 91
        4
 64
     7
 65
   257
 75
     1
175
     1
 42
1.0
 92
        8
 66
     7
 43
1.0
 76
     1
 77
     6
 78
     2
 67
     7
 79
     5
170
     0
171
     0
290
     0
174
     0
 93
        1
 44
-50.0
173
     0
291
     1
 45
0.0
1001
ACAD
1000
AcDbSavedByObjectVersion
1070
     0
  0
VISUALSTYLE
  5
39
102
{ACAD_REACTORS
330
2A
102
}
330
2A
100
AcDbVisualStyle
  2
Facepattern
 70
    15
 71
     2
 72
     2
 73
     0
 90
        0
 40
-0.6
 41
-30.0
 62
     5
 63
     7
421
 16777215
 74
     1
 91
        4
 64
     7
 65
   257
 75
     1
175
     1
 42
1.0
 92
        8
 66
     7
 43
1.0
 76
     1
 77
     6
 78
     2
 67
     7
 79
     5
170
     0
171
     0
290
     0
174
     0
 93
        1
 44
0.0
173
     0
291
     1
 45
0.0
1001
ACAD
1000
AcDbSavedByObjectVersion
1070
     0
  0
VISUALSTYLE
  5
2B
102
{ACAD_REACTORS
330
2A
102
}
330
2A
100
AcDbVisualStyle
  2
Flat
 70
     0
 71
     2
 72
     1
 73
     1
 90
        2
 40
-0.6
 41
30.0
 62
     5
 63
     7
421
 16777215
 74
     0
 91
        4
 64
     7
 65
   257
 75
     1
175
     1
 42
1.0
 92
        8
 66
     7
 43
1.0
 76
     1
 77
     6
 78
     2
 67
     7
 79
     5
170
     0
171
     0
290
     0
174
     0
 93
       13
 44
0.0
173
     0
291
     1
 45
0.0
1001
ACAD
1000
AcDbSavedByObjectVersion
1070
     0
  0
VISUALSTYLE
  5
2C
102
{ACAD_REACTORS
330
2A
102
}
330
2A
100
AcDbVisualStyle
  2
FlatWithEdges
 70
     1
 71
     2
 72
     1
 73
     1
 90
        2
 40
-0.6
 41
30.0
 62
     5
 63
     7
421
 16777215
 74
     1
 91
        4
 64
     7
 65
   257
 75
     1
175
     1
 42
1.0
 92
        0
 66
   257
 43
1.0
 76
     1
 77
     6
 78
     2
 67
     7
 79
     5
170
     0
171
     0
290
     0
174
     0
 93
       13
 44
0.0
173
     0
291
     1
 45
0.0
1001
ACAD
1000
AcDbSavedByObjectVersion
1070
     0
  0
VISUALSTYLE
  5
2D
102
{ACAD_REACTORS
330
2A
102
}
330
2A
100
AcDbVisualStyle
  2
Gouraud
 70
     2
 71
     2
 72
     2
 73
     1
 90
        2
 40
-0.6
 41
30.0
 62
     5
 63
     7
421
 16777215
 74
     0
 91
        4
 64
     7
 65
   257
 75
     1
175
     1
 42
1.0
 92
        0
 66
     7
 43
1.0
 76
     1
 77
     6
 78
     2
 67
     7
 79
     5
170
     0
171
     0
290
     0
174
     0
 93
       13
 44
0.0
173
     0
291
     1
 45
0.0
1001
ACAD
1000
AcDbSavedByObjectVersion
1070
     0
  0
VISUALSTYLE
  5
2E
102
{ACAD_REACTORS
330
2A
102
}
330
2A
100
AcDbVisualStyle
  2
GouraudWithEdges
 70
     3
 71
     2
 72
     2
 73
     1
 90
        2
 40
-0.6
 41
30.0
 62
     5
 63
     7
421
 16777215
 74
     1
 91
        4
 64
     7
 65
   257
 75
     1
175
     1
 42
1.0
 92
        0
 66
   257
 43
1.0
 76
     1
 77
     6
 78
     2
 67
     7
 79
     5
170
     0
171
     0
290
     0
174
     0
 93
       13
 44
0.0
173
     0
291
     1
 45
0.0
1001
ACAD
1000
AcDbSavedByObjectVersion
1070
     0
  0
VISUALSTYLE
  5
38
102
{ACAD_REACTORS
330
2A
102
}
330
2A
100
AcDbVisualStyle
  2
Linepattern
 70
    14
 71
     2
 72
     2
 73
     0
 90
        0
 40
-0.6
 41
-30.0
 62
     5
 63
     7
421
 16777215
 74
     1
 91
        4
 64
     7
 65
   257
 75
     7
175
     7
 42
1.0
 92
        8
 66
     7
 43
1.0
 76
     1
 77
     6
 78
     2
 67
     7
 79
     5
170
     0
171
     0
290
     0
174
     0
 93
        1
 44
0.0
173
     0
291
     1
 45
0.0
1001
ACAD
1000
AcDbSavedByObjectVersion
1070
     0
  0
VISUALSTYLE
  5
33
102
{ACAD_REACTORS
330
2A
102
}
330
2A
100
AcDbVisualStyle
  2
Realistic
 70
     8
 71
     2
 72
     2
 73
     0
 90
        0
 40
-0.6
 41
-30.0
 62
     5
 63
     7
421
 16777215
 74
     1
 91
        0
 64
     7
 65
   257
 75
     1
175
     1
 42
1.0
 92
        8
 66
     8
424
  7895160
 43
1.0
 76
     1
 77
     6
 78
     2
 67
     7
 79
     5
170
     0
171
     0
290
     0
174
     0
 93
       13
 44
0.0
173
     0
291
     0
 45
0.0
1001
ACAD
1000
AcDbSavedByObjectVersion
1070
     0
  0
VISUALSTYLE
  5
37
102
{ACAD_REACTORS
330
2A
102
}
330
2A
100
AcDbVisualStyle
  2
Thicken
 70
    13
 71
     2
 72
     2
 73
     0
 90
        0
 40
-0.6
 41
-30.0
 62
     5
 63
     7
421
 16777215
 74
     1
 91
        4
 64
     7
 65
   257
 75
     1
175
     1
 42
1.0
 92
       12
 66
     7
 43
1.0
 76
     1
 77
     6
 78
     2
 67
     7
 79
     5
170
     0
171
     0
290
     0
174
     0
 93
        1
 44
0.0
173
     0
291
     1
 45
0.0
1001
ACAD
1000
AcDbSavedByObjectVersion
1070
     0
  0
ENDSEC
  0
EOF
