  0
SECTION
  2
HEADER
  9
$ACADVER
  1
AC1018
  9
$ACADMAINTVER
 70
     0
  9
$DWGCODEPAGE
  3
ANSI_932
  9
$INSBASE
 10
0.0
 20
0.0
 30
0.0
  9
$EXTMIN
 10
-2100.0
 20
-1485.0
 30
0.0
  9
$EXTMAX
 10
2100.0
 20
1485.0
 30
0.0
  9
$LIMMIN
 10
-2100.0
 20
-1485.0
  9
$LIMMAX
 10
2100.0
 20
1485.0
  9
$ORTHOMODE
 70
     0
  9
$REGENMODE
 70
     1
  9
$FILLMODE
 70
     1
  9
$QTEXTMODE
 70
     0
  9
$MIRRTEXT
 70
     1
  9
$LTSCALE
 40
10.0
  9
$ATTMODE
 70
     1
  9
$TEXTSIZE
 40
2.5
  9
$TRACEWID
 40
1.0
  9
$TEXTSTYLE
  7
Standard
  9
$CLAYER
  8
0
  9
$CELTYPE
  6
ByLayer
  9
$CECOLOR
 62
   256
  9
$CELTSCALE
 40
1.0
  9
$DISPSILH
 70
     0
  9
$DIMSCALE
 40
1.0
  9
$DIMASZ
 40
2.5
  9
$DIMEXO
 40
0.625
  9
$DIMDLI
 40
3.75
  9
$DIMRND
 40
0.0
  9
$DIMDLE
 40
0.0
  9
$DIMEXE
 40
1.25
  9
$DIMTP
 40
0.0
  9
$DIMTM
 40
0.0
  9
$DIMTXT
 40
2.5
  9
$DIMCEN
 40
2.5
  9
$DIMTSZ
 40
0.0
  9
$DIMTOL
 70
     0
  9
$DIMLIM
 70
     0
  9
$DIMTIH
 70
     0
  9
$DIMTOH
 70
     0
  9
$DIMSE1
 70
     0
  9
$DIMSE2
 70
     0
  9
$DIMTAD
 70
     1
  9
$DIMZIN
 70
     8
  9
$DIMBLK
  1

  9
$DIMASO
 70
     1
  9
$DIMSHO
 70
     1
  9
$DIMPOST
  1

  9
$DIMAPOST
  1

  9
$DIMALT
 70
     0
  9
$DIMALTD
 70
     3
  9
$DIMALTF
 40
0.03937007874016
  9
$DIMLFAC
 40
1.0
  9
$DIMTOFL
 70
     1
  9
$DIMTVP
 40
0.0
  9
$DIMTIX
 70
     0
  9
$DIMSOXD
 70
     0
  9
$DIMSAH
 70
     0
  9
$DIMBLK1
  1

  9
$DIMBLK2
  1

  9
$DIMSTYLE
  2
ISO-25
  9
$DIMCLRD
 70
     0
  9
$DIMCLRE
 70
     0
  9
$DIMCLRT
 70
     0
  9
$DIMTFAC
 40
1.0
  9
$DIMGAP
 40
0.625
  9
$DIMJUST
 70
     0
  9
$DIMSD1
 70
     0
  9
$DIMSD2
 70
     0
  9
$DIMTOLJ
 70
     0
  9
$DIMTZIN
 70
     8
  9
$DIMALTZ
 70
     0
  9
$DIMALTTZ
 70
     0
  9
$DIMUPT
 70
     0
  9
$DIMDEC
 70
     2
  9
$DIMTDEC
 70
     2
  9
$DIMALTU
 70
     2
  9
$DIMALTTD
 70
     3
  9
$DIMTXSTY
  7
Standard
  9
$DIMAUNIT
 70
     0
  9
$DIMADEC
 70
     0
  9
$DIMALTRND
 40
0.0
  9
$DIMAZIN
 70
     0
  9
$DIMDSEP
 70
    44
  9
$DIMATFIT
 70
     3
  9
$DIMFRAC
 70
     0
  9
$DIMLDRBLK
  1

  9
$DIMLUNIT
 70
     2
  9
$DIMLWD
 70
    -2
  9
$DIMLWE
 70
    -2
  9
$DIMTMOVE
 70
     0
  9
$LUNITS
 70
     2
  9
$LUPREC
 70
     4
  9
$SKETCHINC
 40
1.0
  9
$FILLETRAD
 40
10.0
  9
$AUNITS
 70
     0
  9
$AUPREC
 70
     0
  9
$MENU
  1
.
  9
$ELEVATION
 40
0.0
  9
$PELEVATION
 40
0.0
  9
$THICKNESS
 40
0.0
  9
$LIMCHECK
 70
     0
  9
$CHAMFERA
 40
10.0
  9
$CHAMFERB
 40
10.0
  9
$CHAMFERC
 40
20.0
  9
$CHAMFERD
 40
0.0
  9
$SKPOLY
 70
     0
  9
$TDCREATE
 40
2456499.582795313
  9
$TDUCREATE
 40
2456499.207795313
  9
$TDUPDATE
 40
2456499.582795324
  9
$TDUUPDATE
 40
2456499.207795324
  9
$TDINDWG
 40
0.0000000116
  9
$TDUSRTIMER
 40
0.0000000116
  9
$USRTIMER
 70
     1
  9
$ANGBASE
 50
0.0
  9
$ANGDIR
 70
     0
  9
$PDMODE
 70
     0
  9
$PDSIZE
 40
0.0
  9
$PLINEWID
 40
0.0
  9
$SPLFRAME
 70
     0
  9
$SPLINETYPE
 70
     6
  9
$SPLINESEGS
 70
     8
  9
$HANDSEED
  5
4A2
  9
$SURFTAB1
 70
     6
  9
$SURFTAB2
 70
     6
  9
$SURFTYPE
 70
     6
  9
$SURFU
 70
     6
  9
$SURFV
 70
     6
  9
$UCSBASE
  2

  9
$UCSNAME
  2

  9
$UCSORG
 10
0.0
 20
0.0
 30
0.0
  9
$UCSXDIR
 10
1.0
 20
0.0
 30
0.0
  9
$UCSYDIR
 10
0.0
 20
1.0
 30
0.0
  9
$UCSORTHOREF
  2

  9
$UCSORTHOVIEW
 70
     0
  9
$UCSORGTOP
 10
0.0
 20
0.0
 30
0.0
  9
$UCSORGBOTTOM
 10
0.0
 20
0.0
 30
0.0
  9
$UCSORGLEFT
 10
0.0
 20
0.0
 30
0.0
  9
$UCSORGRIGHT
 10
0.0
 20
0.0
 30
0.0
  9
$UCSORGFRONT
 10
0.0
 20
0.0
 30
0.0
  9
$UCSORGBACK
 10
0.0
 20
0.0
 30
0.0
  9
$PUCSBASE
  2

  9
$PUCSNAME
  2

  9
$PUCSORG
 10
0.0
 20
0.0
 30
0.0
  9
$PUCSXDIR
 10
1.0
 20
0.0
 30
0.0
  9
$PUCSYDIR
 10
0.0
 20
1.0
 30
0.0
  9
$PUCSORTHOREF
  2

  9
$PUCSORTHOVIEW
 70
     0
  9
$PUCSORGTOP
 10
0.0
 20
0.0
 30
0.0
  9
$PUCSORGBOTTOM
 10
0.0
 20
0.0
 30
0.0
  9
$PUCSORGLEFT
 10
0.0
 20
0.0
 30
0.0
  9
$PUCSORGRIGHT
 10
0.0
 20
0.0
 30
0.0
  9
$PUCSORGFRONT
 10
0.0
 20
0.0
 30
0.0
  9
$PUCSORGBACK
 10
0.0
 20
0.0
 30
0.0
  9
$USERI1
 70
     0
  9
$USERI2
 70
     0
  9
$USERI3
 70
     0
  9
$USERI4
 70
     0
  9
$USERI5
 70
     0
  9
$USERR1
 40
0.0
  9
$USERR2
 40
0.0
  9
$USERR3
 40
0.0
  9
$USERR4
 40
0.0
  9
$USERR5
 40
0.0
  9
$WORLDVIEW
 70
     1
  9
$SHADEDGE
 70
     3
  9
$SHADEDIF
 70
    70
  9
$TILEMODE
 70
     1
  9
$MAXACTVP
 70
    64
  9
$PINSBASE
 10
0.0
 20
0.0
 30
0.0
  9
$PLIMCHECK
 70
     0
  9
$PEXTMIN
 10
1.000000000000000E+20
 20
1.000000000000000E+20
 30
1.000000000000000E+20
  9
$PEXTMAX
 10
-1.000000000000000E+20
 20
-1.000000000000000E+20
 30
-1.000000000000000E+20
  9
$PLIMMIN
 10
0.0
 20
0.0
  9
$PLIMMAX
 10
420.0
 20
297.0
  9
$UNITMODE
 70
     0
  9
$VISRETAIN
 70
     1
  9
$PLINEGEN
 70
     0
  9
$PSLTSCALE
 70
     1
  9
$TREEDEPTH
 70
  3020
  9
$CMLSTYLE
  2
Standard
  9
$CMLJUST
 70
     0
  9
$CMLSCALE
 40
20.0
  9
$PROXYGRAPHICS
 70
     1
  9
$MEASUREMENT
 70
     1
  9
$CELWEIGHT
370
    -1
  9
$ENDCAPS
280
     0
  9
$JOINSTYLE
280
     0
  9
$LWDISPLAY
290
     0
  9
$INSUNITS
 70
     4
  9
$HYPERLINKBASE
  1

  9
$STYLESHEET
  1

  9
$XEDIT
290
     1
  9
$CEPSNTYPE
380
     0
  9
$PSTYLEMODE
290
     1
  9
$FINGERPRINTGUID
  2
{6E9B3907-21D9-4DA8-B2BB-48D532F09C92}
  9
$VERSIONGUID
  2
{FAEB1C32-E019-11D5-929B-00C0DF256EC4}
  9
$EXTNAMES
290
     1
  9
$PSVPSCALE
 40
0.0
  9
$OLESTARTUP
290
     0
  9
$SORTENTS
280
   127
  9
$INDEXCTL
280
     0
  9
$HIDETEXT
280
     1
  9
$XCLIPFRAME
290
     0
  9
$HALOGAP
280
     0
  9
$OBSCOLOR
 70
   257
  9
$OBSLTYPE
280
     0
  9
$INTERSECTIONDISPLAY
280
     0
  9
$INTERSECTIONCOLOR
 70
   257
  9
$DIMASSOC
280
     2
  9
$PROJECTNAME
  1

  0
ENDSEC
  0
SECTION
  2
CLASSES
  0
CLASS
  1
ACDBDICTIONARYWDFLT
  2
AcDbDictionaryWithDefault
  3
ObjectDBX Classes
 90
        0
 91
        4
280
     0
281
     0
  0
CLASS
  1
VISUALSTYLE
  2
AcDbVisualStyle
  3
ObjectDBX Classes
 90
     4095
 91
        4
280
     0
281
     0
  0
ENDSEC
  0
SECTION
  2
TABLES
  0
TABLE
  2
VPORT
  5
8
330
0
100
AcDbSymbolTable
 70
     1
  0
VPORT
  5
29
330
8
100
AcDbSymbolTableRecord
100
AcDbViewportTableRecord
  2
*Active
 70
     0
 10
0.0
 20
0.0
 11
1.0
 21
1.0
 12
0.0
 22
0.0
 13
0.0
 23
0.0
 14
10.0
 24
10.0
 15
10.0
 25
10.0
 16
0.0
 26
0.0
 36
1.0
 17
0.0
 27
0.0
 37
0.0
 40
3267.0
 41
1.414141414141414
 42
50.0
 43
0.0
 44
0.0
 50
0.0
 51
0.0
 71
     0
 72
 10000
 73
     1
 74
     3
 75
     0
 76
     0
 77
     0
 78
     0
281
     0
 65
     1
110
0.0
120
0.0
130
0.0
111
1.0
121
0.0
131
0.0
112
0.0
122
1.0
132
0.0
 79
     0
146
0.0
  0
ENDTAB
  0
TABLE
  2
LTYPE
  5
5
330
0
100
AcDbSymbolTable
 70
     3
  0
LTYPE
  5
14
330
5
100
AcDbSymbolTableRecord
100
AcDbLinetypeTableRecord
  2
ByBlock
 70
     0
  3

 72
    65
 73
     0
 40
0.0
  0
LTYPE
  5
15
330
5
100
AcDbSymbolTableRecord
100
AcDbLinetypeTableRecord
  2
ByLayer
 70
     0
  3

 72
    65
 73
     0
 40
0.0
  0
LTYPE
  5
16
330
5
100
AcDbSymbolTableRecord
100
AcDbLinetypeTableRecord
  2
Continuous
 70
     0
  3
Solid line
 72
    65
 73
     0
 40
0.0
  0
LTYPE
  5
3C
330
5
100
AcDbSymbolTableRecord
100
AcDbLinetypeTableRecord
  2
JWW_CENTER1
 70
     0
  3
-----  --  ----------  --  -----
 72
    65
 73
     4
 40
6.773333333333333
 49
4.233333333333333
 74
     0
 49
-0.8466666666666667
 74
     0
 49
0.8466666666666667
 74
     0
 49
-0.8466666666666667
 74
     0
  0
LTYPE
  5
3D
330
5
100
AcDbSymbolTableRecord
100
AcDbLinetypeTableRecord
  2
JWW_DASHED1
 70
     0
  3
-  --  --  --  --  --  --  --  -
 72
    65
 73
     2
 40
0.508
 49
0.254
 74
     0
 49
-0.254
 74
     0
  0
ENDTAB
  0
TABLE
  2
LAYER
  5
2
330
0
100
AcDbSymbolTable
 70
     7
  0
LAYER
  5
10
330
2
100
AcDbSymbolTableRecord
100
AcDbLayerTableRecord
  2
0
 70
     0
 62
     7
  6
Continuous
370
    -3
390
F
  0
LAYER
  5
3E
330
2
100
AcDbSymbolTableRecord
100
AcDbLayerTableRecord
  2
1-4
 70
     0
 62
     7
  6
Continuous
370
    -3
390
F
  0
LAYER
  5
3F
330
2
100
AcDbSymbolTableRecord
100
AcDbLayerTableRecord
  2
1-2
 70
     0
 62
     7
  6
Continuous
370
    -3
390
F
  0
LAYER
  5
40
330
2
100
AcDbSymbolTableRecord
100
AcDbLayerTableRecord
  2
1-1
 70
     0
 62
     7
  6
Continuous
370
    -3
390
F
  0
LAYER
  5
41
330
2
100
AcDbSymbolTableRecord
100
AcDbLayerTableRecord
  2
1-5
 70
     0
 62
     7
  6
Continuous
370
    -3
390
F
  0
LAYER
  5
42
330
2
100
AcDbSymbolTableRecord
100
AcDbLayerTableRecord
  2
F-5
 70
     0
 62
     7
  6
Continuous
370
    -3
390
F
  0
LAYER
  5
43
330
2
100
AcDbSymbolTableRecord
100
AcDbLayerTableRecord
  2
D-4
 70
     0
 62
     7
  6
Continuous
370
    -3
390
F
  0
ENDTAB
  0
TABLE
  2
STYLE
  5
3
330
0
100
AcDbSymbolTable
 70
     2
  0
STYLE
  5
11
330
3
100
AcDbSymbolTableRecord
100
AcDbTextStyleTableRecord
  2
Standard
 70
     0
 40
0.0
 41
1.0
 50
0.0
 71
     0
 42
2.5
  3
txt
  4

1001
ACAD
1000

1071
        0
  0
STYLE
  5
3B
330
3
100
AcDbSymbolTableRecord
100
AcDbTextStyleTableRecord
  2
ＭＳ ゴシック
 70
     0
 40
1.0
 41
1.0
 50
0.0
 71
     0
 42
10.0
  3

  4

1001
ACAD
1000
MS Gothic
1071
    32817
  0
ENDTAB
  0
TABLE
  2
VIEW
  5
6
330
0
100
AcDbSymbolTable
 70
     0
  0
ENDTAB
  0
TABLE
  2
UCS
  5
7
330
0
100
AcDbSymbolTable
 70
     0
  0
ENDTAB
  0
TABLE
  2
APPID
  5
9
330
0
100
AcDbSymbolTable
 70
     1
  0
APPID
  5
12
330
9
100
AcDbSymbolTableRecord
100
AcDbRegAppTableRecord
  2
ACAD
 70
     0
  0
ENDTAB
  0
TABLE
  2
DIMSTYLE
  5
A
330
0
100
AcDbSymbolTable
 70
     1
100
AcDbDimStyleTable
  0
DIMSTYLE
105
27
330
A
100
AcDbSymbolTableRecord
100
AcDbDimStyleTableRecord
  2
ISO-25
 70
     0
 41
2.5
 42
0.625
 43
3.75
 44
1.25
 73
     0
 74
     0
 77
     1
 78
     8
140
2.5
141
2.5
143
0.03937007874016
147
0.625
171
     3
172
     1
271
     2
272
     2
274
     3
278
    44
283
     0
284
     8
340
11
  0
ENDTAB
  0
TABLE
  2
BLOCK_RECORD
  5
1
330
0
100
AcDbSymbolTable
 70
     1
  0
BLOCK_RECORD
  5
1F
330
1
100
AcDbSymbolTableRecord
100
AcDbBlockTableRecord
  2
*Model_Space
340
22
  0
BLOCK_RECORD
  5
1B
330
1
100
AcDbSymbolTableRecord
100
AcDbBlockTableRecord
  2
*Paper_Space
340
1E
  0
BLOCK_RECORD
  5
23
330
1
100
AcDbSymbolTableRecord
100
AcDbBlockTableRecord
  2
*Paper_Space0
340
26
  0
ENDTAB
  0
ENDSEC
  0
SECTION
  2
BLOCKS
  0
BLOCK
  5
20
330
1F
100
AcDbEntity
  8
0
100
AcDbBlockBegin
  2
*Model_Space
 70
     0
 10
0.0
 20
0.0
 30
0.0
  3
*Model_Space
  1

  0
ENDBLK
  5
21
330
1F
100
AcDbEntity
  8
0
100
AcDbBlockEnd
  0
BLOCK
  5
1C
330
1B
100
AcDbEntity
 67
     1
  8
0
100
AcDbBlockBegin
  2
*Paper_Space
 70
     0
 10
0.0
 20
0.0
 30
0.0
  3
*Paper_Space
  1

  0
ENDBLK
  5
1D
330
1B
100
AcDbEntity
 67
     1
  8
0
100
AcDbBlockEnd
  0
BLOCK
  5
24
330
23
100
AcDbEntity
  8
0
100
AcDbBlockBegin
  2
*Paper_Space0
 70
     0
 10
0.0
 20
0.0
 30
0.0
  3
*Paper_Space0
  1

  0
ENDBLK
  5
25
330
23
100
AcDbEntity
  8
0
100
AcDbBlockEnd
  0
ENDSEC
  0
SECTION
  2
ENTITIES
  0
LINE
  5
44
330
1F
100
AcDbEntity
  8
1-4
  6
Continuous
 62
     2
370
     9
100
AcDbLine
 10
338.4387866870779
 20
-633.789441907728
 30
0.0
 11
338.4387866870779
 21
-583.7886583482897
 31
0.0
  0
LINE
  5
45
330
1F
100
AcDbEntity
  8
1-4
  6
Continuous
 62
     2
370
     9
100
AcDbLine
 10
338.4387866870779
 20
-583.7886583482897
 30
0.0
 11
563.4387866870776
 21
-583.7886583482897
 31
0.0
  0
LINE
  5
46
330
1F
100
AcDbEntity
  8
1-4
  6
Continuous
 62
     2
370
     9
100
AcDbLine
 10
563.4387866870776
 20
-583.7886583482897
 30
0.0
 11
563.4387866870776
 21
-633.789441907728
 31
0.0
  0
LINE
  5
47
330
1F
100
AcDbEntity
  8
1-4
  6
Continuous
 62
     2
370
     9
100
AcDbLine
 10
563.4387866870776
 20
-633.789441907728
 30
0.0
 11
338.4387866870779
 21
-633.789441907728
 31
0.0
  0
LINE
  5
48
330
1F
100
AcDbEntity
  8
1-2
  6
Continuous
 62
     3
370
     9
100
AcDbLine
 10
-1058.165885306693
 20
-530.3023137273015
 30
0.0
 11
-1033.166050266575
 21
-524.9526647619298
 31
0.0
  0
LINE
  5
49
330
1F
100
AcDbEntity
  8
1-2
  6
Continuous
 62
     3
370
     9
100
AcDbLine
 10
-1058.165885306693
 20
-532.8588619747677
 30
0.0
 11
-1033.166050266575
 21
-527.5093367293074
 31
0.0
  0
LINE
  5
4A
330
1F
100
AcDbEntity
  8
1-2
  6
Continuous
 62
     3
370
     9
100
AcDbLine
 10
-1058.165885306693
 20
-558.4249630489865
 30
0.0
 11
-1033.166050266575
 21
-553.0748192039696
 31
0.0
  0
LINE
  5
4B
330
1F
100
AcDbEntity
  8
1-2
  6
Continuous
 62
     3
370
     9
100
AcDbLine
 10
-1058.165885306693
 20
-560.9815112964526
 30
0.0
 11
-1033.166050266575
 21
-555.6321097709036
 31
0.0
  0
LINE
  5
4C
330
1F
100
AcDbEntity
  8
1-2
  6
Continuous
 62
     3
370
     9
100
AcDbLine
 10
-1033.166050266575
 20
-588.368027145798
 30
0.0
 11
-1058.165885306693
 21
-583.0183781804265
 31
0.0
  0
LINE
  5
4D
330
1F
100
AcDbEntity
  8
1-2
  6
Continuous
 62
     3
370
     9
100
AcDbLine
 10
-1033.166050266575
 20
-590.9245753932644
 30
0.0
 11
-1058.165885306693
 21
-585.5752975876267
 31
0.0
  0
LINE
  5
4E
330
1F
100
AcDbEntity
  8
1-2
  6
Continuous
 62
     3
370
     9
100
AcDbLine
 10
-543.6375386006123
 20
-550.2319830817145
 30
0.0
 11
-541.080990353146
 21
-557.7318841057854
 31
0.0
  0
LINE
  5
4F
330
1F
100
AcDbEntity
  8
1-2
  6
Continuous
 62
     3
370
     9
100
AcDbLine
 10
-535.3646355706292
 20
-557.7318841057854
 30
0.0
 11
-541.080990353146
 21
-557.7318841057854
 31
0.0
  0
LINE
  5
50
330
1F
100
AcDbEntity
  8
1-2
  6
Continuous
 62
     3
370
     9
100
AcDbLine
 10
-543.6375386006123
 20
-550.2319830817145
 30
0.0
 11
-565.6745292044974
 21
-550.2319830817145
 31
0.0
  0
LINE
  5
51
330
1F
100
AcDbEntity
  8
1-2
  6
Continuous
 62
     3
370
     9
100
AcDbLine
 10
-565.6745292044974
 20
-550.2319830817145
 30
0.0
 11
-568.2310774519635
 21
-557.7318841057854
 31
0.0
  0
LINE
  5
52
330
1F
100
AcDbEntity
  8
1-2
  6
Continuous
 62
     3
370
     9
100
AcDbLine
 10
-568.2310774519635
 20
-557.7318841057854
 30
0.0
 11
-593.797054806271
 21
-557.7318841057854
 31
0.0
  0
LINE
  5
53
330
1F
100
AcDbEntity
  8
1-2
  6
Continuous
 62
     3
370
     9
100
AcDbLine
 10
-596.3536030537373
 20
-550.2319830817145
 30
0.0
 11
-593.797054806271
 21
-557.7318841057854
 31
0.0
  0
LINE
  5
54
330
1F
100
AcDbEntity
  8
1-2
  6
Continuous
 62
     3
370
     9
100
AcDbLine
 10
-596.3536030537373
 20
-550.2319830817145
 30
0.0
 11
-629.0903864680109
 21
-550.2319830817145
 31
0.0
  0
LINE
  5
55
330
1F
100
AcDbEntity
  8
1-2
  6
Continuous
 62
     3
370
     9
100
AcDbLine
 10
-629.0903864680109
 20
-550.2319830817145
 30
0.0
 11
-631.6469347154771
 21
-557.7318841057854
 31
0.0
  0
LINE
  5
56
330
1F
100
AcDbEntity
  8
1-2
  6
Continuous
 62
     3
370
     9
100
AcDbLine
 10
-1058.165885306693
 20
-646.4341117240286
 30
0.0
 11
-1033.166050266575
 21
-641.0847101984797
 31
0.0
  0
LINE
  5
57
330
1F
100
AcDbEntity
  8
1-2
  6
Continuous
 62
     3
370
     9
100
AcDbLine
 10
-1058.165885306693
 20
-613.6975757495776
 30
0.0
 11
-1033.166050266575
 21
-619.0477195945946
 31
0.0
  0
LINE
  5
58
330
1F
100
AcDbEntity
  8
1-2
  6
Continuous
 62
     3
370
     9
100
AcDbLine
 10
-1058.165885306693
 20
-611.1410275021115
 30
0.0
 11
-1033.166050266575
 21
-616.4910476272171
 31
0.0
  0
LINE
  5
59
330
1F
100
AcDbEntity
  8
1-2
  6
Continuous
 62
     3
370
     9
100
AcDbLine
 10
-1058.165885306693
 20
-648.9909074113176
 30
0.0
 11
-1033.166050266575
 21
-643.6412584459459
 31
0.0
  0
LINE
  5
5A
330
1F
100
AcDbEntity
  8
1-2
  6
Continuous
 62
     3
370
     9
100
AcDbLine
 10
-1058.165885306693
 20
-674.556884765625
 30
0.0
 11
-1033.166050266575
 21
-669.2069883604307
 31
0.0
  0
LINE
  5
5B
330
1F
100
AcDbEntity
  8
1-2
  6
Continuous
 62
     3
370
     9
100
AcDbLine
 10
-1058.165885306693
 20
-677.1136804529137
 30
0.0
 11
-1033.166050266575
 21
-671.7641552074535
 31
0.0
  0
LINE
  5
5C
330
1F
100
AcDbEntity
  8
1-2
  6
Continuous
 62
     3
370
     9
100
AcDbLine
 10
-1033.166050266575
 20
-704.4998251425252
 30
0.0
 11
-1058.165885306693
 21
-699.1504236169762
 31
0.0
  0
LINE
  5
5D
330
1F
100
AcDbEntity
  8
1-2
  6
Continuous
 62
     3
370
     9
100
AcDbLine
 10
-1033.166050266575
 20
-707.0566208298142
 30
0.0
 11
-1058.165885306693
 21
-701.7072193042651
 31
0.0
  0
LINE
  5
5E
330
1F
100
AcDbEntity
  8
1-2
  6
Continuous
 62
     3
370
     9
100
AcDbLine
 10
-659.7694603172508
 20
-550.2319830817145
 30
0.0
 11
-681.8064509211359
 21
-550.2319830817145
 31
0.0
  0
LINE
  5
5F
330
1F
100
AcDbEntity
  8
1-2
  6
Continuous
 62
     3
370
     9
100
AcDbLine
 10
-681.8064509211359
 20
-550.2319830817145
 30
0.0
 11
-684.3629991686021
 21
-557.7318841057854
 31
0.0
  0
LINE
  5
60
330
1F
100
AcDbEntity
  8
1-2
  6
Continuous
 62
     3
370
     9
100
AcDbLine
 10
-684.3629991686021
 20
-557.7318841057854
 30
0.0
 11
-709.9289765229096
 21
-557.7318841057854
 31
0.0
  0
LINE
  5
61
330
1F
100
AcDbEntity
  8
1-2
  6
Continuous
 62
     3
370
     9
100
AcDbLine
 10
-712.486019650021
 20
-550.2319830817145
 30
0.0
 11
-709.9289765229096
 21
-557.7318841057854
 31
0.0
  0
LINE
  5
62
330
1F
100
AcDbEntity
  8
1-2
  6
Continuous
 62
     3
370
     9
100
AcDbLine
 10
-712.486019650021
 20
-550.2319830817145
 30
0.0
 11
-745.2223081846495
 21
-550.2319830817145
 31
0.0
  0
LINE
  5
63
330
1F
100
AcDbEntity
  8
1-2
  6
Continuous
 62
     3
370
     9
100
AcDbLine
 10
-745.2223081846495
 20
-550.2319830817145
 30
0.0
 11
-747.7788564321156
 21
-557.7318841057854
 31
0.0
  0
LINE
  5
64
330
1F
100
AcDbEntity
  8
1-2
  6
Continuous
 62
     3
370
     9
100
AcDbLine
 10
-659.7694603172508
 20
-550.2319830817145
 30
0.0
 11
-657.2129120697846
 21
-557.7318841057854
 31
0.0
  0
LINE
  5
65
330
1F
100
AcDbEntity
  8
1-2
  6
Continuous
 62
     3
370
     9
100
AcDbLine
 10
-631.6469347154771
 20
-557.7318841057854
 30
0.0
 11
-657.2129120697846
 21
-557.7318841057854
 31
0.0
  0
LINE
  5
66
330
1F
100
AcDbEntity
  8
1-2
  6
Continuous
 62
     3
370
     9
100
AcDbLine
 10
-775.9013820338894
 20
-550.2319830817145
 30
0.0
 11
-797.9383726377745
 21
-550.2319830817145
 31
0.0
  0
LINE
  5
67
330
1F
100
AcDbEntity
  8
1-2
  6
Continuous
 62
     3
370
     9
100
AcDbLine
 10
-797.9383726377745
 20
-550.2319830817145
 30
0.0
 11
-800.4949208852406
 21
-557.7318841057854
 31
0.0
  0
LINE
  5
68
330
1F
100
AcDbEntity
  8
1-2
  6
Continuous
 62
     3
370
     9
100
AcDbLine
 10
-800.4949208852406
 20
-557.7318841057854
 30
0.0
 11
-826.060898239548
 21
-557.7318841057854
 31
0.0
  0
LINE
  5
69
330
1F
100
AcDbEntity
  8
1-2
  6
Continuous
 62
     3
370
     9
100
AcDbLine
 10
-828.6179413666595
 20
-550.2319830817145
 30
0.0
 11
-826.060898239548
 21
-557.7318841057854
 31
0.0
  0
LINE
  5
6A
330
1F
100
AcDbEntity
  8
1-2
  6
Continuous
 62
     3
370
     9
100
AcDbLine
 10
-828.6179413666595
 20
-550.2319830817145
 30
0.0
 11
-861.3542299012879
 21
-550.2319830817145
 31
0.0
  0
LINE
  5
6B
330
1F
100
AcDbEntity
  8
1-2
  6
Continuous
 62
     3
370
     9
100
AcDbLine
 10
-861.3542299012879
 20
-550.2319830817145
 30
0.0
 11
-863.9107781487542
 21
-557.7318841057854
 31
0.0
  0
LINE
  5
6C
330
1F
100
AcDbEntity
  8
1-2
  6
Continuous
 62
     3
370
     9
100
AcDbLine
 10
-775.9013820338894
 20
-550.2319830817145
 30
0.0
 11
-773.3448337864231
 21
-557.7318841057854
 31
0.0
  0
LINE
  5
6D
330
1F
100
AcDbEntity
  8
1-2
  6
Continuous
 62
     3
370
     9
100
AcDbLine
 10
-747.7788564321156
 20
-557.7318841057854
 30
0.0
 11
-773.3448337864231
 21
-557.7318841057854
 31
0.0
  0
LINE
  5
6E
330
1F
100
AcDbEntity
  8
1-2
  6
Continuous
 62
     3
370
     9
100
AcDbLine
 10
-892.0333037505279
 20
-550.2319830817145
 30
0.0
 11
-914.0702943544129
 21
-550.2319830817145
 31
0.0
  0
LINE
  5
6F
330
1F
100
AcDbEntity
  8
1-2
  6
Continuous
 62
     3
370
     9
100
AcDbLine
 10
-914.0702943544129
 20
-550.2319830817145
 30
0.0
 11
-916.6268426018792
 21
-557.7318841057854
 31
0.0
  0
LINE
  5
70
330
1F
100
AcDbEntity
  8
1-2
  6
Continuous
 62
     3
370
     9
100
AcDbLine
 10
-892.0333037505279
 20
-550.2319830817145
 30
0.0
 11
-889.4767555030616
 21
-557.7318841057854
 31
0.0
  0
LINE
  5
71
330
1F
100
AcDbEntity
  8
1-2
  6
Continuous
 62
     3
370
     9
100
AcDbLine
 10
-863.9107781487542
 20
-557.7318841057854
 30
0.0
 11
-889.4767555030616
 21
-557.7318841057854
 31
0.0
  0
LINE
  5
72
330
1F
100
AcDbEntity
  8
1-2
  6
Continuous
 62
     3
370
     9
100
AcDbLine
 10
-916.6268426018792
 20
-557.7318841057854
 30
0.0
 11
-931.8790332691088
 21
-557.7318841057854
 31
0.0
  0
LINE
  5
73
330
1F
100
AcDbEntity
  8
1-2
  6
Continuous
 62
     3
370
     9
100
AcDbLine
 10
-535.3646355706292
 20
-682.7322965054898
 30
0.0
 11
-931.8790332691088
 21
-682.7322965054898
 31
0.0
  0
LINE
  5
74
330
1F
100
AcDbEntity
  8
1-2
  6
Continuous
 62
     3
370
     9
100
AcDbLine
 10
-535.3646355706292
 20
-660.2318511138092
 30
0.0
 11
-931.8790332691088
 21
-660.2318511138092
 31
0.0
  0
LINE
  5
75
330
1F
100
AcDbEntity
  8
1-2
  6
Continuous
 62
     3
370
     9
100
AcDbLine
 10
-535.3646355706292
 20
-655.2324532173775
 30
0.0
 11
-931.8790332691088
 21
-655.2324532173775
 31
0.0
  0
LINE
  5
76
330
1F
100
AcDbEntity
  8
1-2
  6
Continuous
 62
     3
370
     9
100
AcDbLine
 10
-535.3646355706292
 20
-580.2320820576435
 30
0.0
 11
-931.8790332691088
 21
-580.2320820576435
 31
0.0
  0
LINE
  5
77
330
1F
100
AcDbEntity
  8
1-2
  6
Continuous
 62
     3
370
     9
100
AcDbLine
 10
-535.3646355706292
 20
-585.2319748337204
 30
0.0
 11
-931.8790332691088
 21
-585.2319748337204
 31
0.0
  0
LINE
  5
78
330
1F
100
AcDbEntity
  8
1-2
  6
Continuous
 62
     3
370
     9
100
AcDbLine
 10
-399.5864868164062
 20
-557.7318841057854
 30
0.0
 11
-374.586651776288
 21
-557.7318841057854
 31
0.0
  0
LINE
  5
79
330
1F
100
AcDbEntity
  8
1-2
  6
Continuous
 62
     3
370
     9
100
AcDbLine
 10
-374.586651776288
 20
-682.7322965054898
 30
0.0
 11
-399.5864868164062
 21
-682.7322965054898
 31
0.0
  0
LINE
  5
7A
330
1F
100
AcDbEntity
  8
1-2
  6
Continuous
 62
     3
370
     9
100
AcDbLine
 10
-374.586651776288
 20
-660.2318511138092
 30
0.0
 11
-374.586651776288
 21
-682.7322965054898
 31
0.0
  0
LINE
  5
7B
330
1F
100
AcDbEntity
  8
1-2
  6
Continuous
 62
     3
370
     9
100
AcDbLine
 10
-379.5869157120987
 20
-655.2319583377322
 30
0.0
 11
-374.586651776288
 21
-660.2318511138092
 31
0.0
  0
LINE
  5
7C
330
1F
100
AcDbEntity
  8
1-2
  6
Continuous
 62
     3
370
     9
100
AcDbLine
 10
-399.5864868164062
 20
-682.7322965054898
 30
0.0
 11
-399.5864868164062
 21
-660.2318511138092
 31
0.0
  0
LINE
  5
7D
330
1F
100
AcDbEntity
  8
1-2
  6
Continuous
 62
     3
370
     9
100
AcDbLine
 10
-399.5864868164062
 20
-660.2318511138092
 30
0.0
 11
-394.5867177602406
 21
-655.2319583377322
 31
0.0
  0
LINE
  5
7E
330
1F
100
AcDbEntity
  8
1-2
  6
Continuous
 62
     3
370
     9
100
AcDbLine
 10
-399.5864868164062
 20
-580.2320820576435
 30
0.0
 11
-399.5864868164062
 21
-550.2324779613598
 31
0.0
  0
LINE
  5
7F
330
1F
100
AcDbEntity
  8
1-2
  6
Continuous
 62
     3
370
     9
100
AcDbLine
 10
-399.5864868164062
 20
-580.2320820576435
 30
0.0
 11
-394.5867177602406
 21
-585.2319748337204
 31
0.0
  0
LINE
  5
80
330
1F
100
AcDbEntity
  8
1-2
  6
Continuous
 62
     3
370
     9
100
AcDbLine
 10
-394.5867177602406
 20
-655.2319583377322
 30
0.0
 11
-394.5867177602406
 21
-585.2319748337204
 31
0.0
  0
LINE
  5
81
330
1F
100
AcDbEntity
  8
1-2
  6
Continuous
 62
     3
370
     9
100
AcDbLine
 10
-379.5869157120987
 20
-585.2319748337204
 30
0.0
 11
-379.5869157120987
 21
-655.2319583377322
 31
0.0
  0
LINE
  5
82
330
1F
100
AcDbEntity
  8
1-2
  6
Continuous
 62
     3
370
     9
100
AcDbLine
 10
-379.5869157120987
 20
-585.2319748337204
 30
0.0
 11
-374.586651776288
 21
-580.2320820576435
 31
0.0
  0
LINE
  5
83
330
1F
100
AcDbEntity
  8
1-2
  6
Continuous
 62
     3
370
     9
100
AcDbLine
 10
-374.586651776288
 20
-550.2324779613598
 30
0.0
 11
-374.586651776288
 21
-580.2320820576435
 31
0.0
  0
LINE
  5
84
330
1F
100
AcDbEntity
  8
1-2
  6
Continuous
 62
     3
370
     9
100
AcDbLine
 10
-399.5864868164062
 20
-550.2324779613598
 30
0.0
 11
-374.586651776288
 21
-550.2324779613598
 31
0.0
  0
LINE
  5
85
330
1F
100
AcDbEntity
  8
1-4
  6
Continuous
 62
     7
370
     9
100
AcDbLine
 10
-252.1405606656461
 20
-682.7322965054898
 30
0.0
 11
-252.1405606656461
 21
-557.7318841057854
 31
0.0
  0
LINE
  5
86
330
1F
100
AcDbEntity
  8
1-4
  6
Continuous
 62
     7
370
     9
100
AcDbLine
 10
-355.8124026736698
 20
-682.7322965054898
 30
0.0
 11
-249.1406002560177
 21
-682.7322965054898
 31
0.0
  0
LINE
  5
87
330
1F
100
AcDbEntity
  8
1-4
  6
Continuous
 62
     7
370
     9
100
AcDbLine
 10
-355.8124026736698
 20
-557.7318841057854
 30
0.0
 11
-249.1406002560177
 21
-557.7318841057854
 31
0.0
  0
LINE
  5
88
330
1F
100
AcDbEntity
  8
1-4
  6
Continuous
 62
     7
370
     9
100
AcDbLine
 10
-252.1405606656461
 20
-682.7322965054898
 30
0.0
 11
-255.4037970465581
 21
-657.9457545924831
 31
0.0
  0
LINE
  5
89
330
1F
100
AcDbEntity
  8
1-4
  6
Continuous
 62
     7
370
     9
100
AcDbLine
 10
-252.1405606656461
 20
-682.7322965054898
 30
0.0
 11
-248.8779428842903
 21
-657.9457545924831
 31
0.0
  0
LINE
  5
8A
330
1F
100
AcDbEntity
  8
1-4
  6
Continuous
 62
     7
370
     9
100
AcDbLine
 10
-252.1405606656461
 20
-557.7318841057854
 30
0.0
 11
-255.4037970465581
 21
-582.5181785789696
 31
0.0
  0
LINE
  5
8B
330
1F
100
AcDbEntity
  8
1-4
  6
Continuous
 62
     7
370
     9
100
AcDbLine
 10
-252.1405606656461
 20
-557.7318841057854
 30
0.0
 11
-248.8779428842903
 21
-582.5181785789696
 31
0.0
  0
LINE
  5
8C
330
1F
100
AcDbEntity
  8
1-2
  6
Continuous
 62
     3
370
     9
100
AcDbLine
 10
-1058.165885306693
 20
-729.8294974662161
 30
0.0
 11
-1033.166050266575
 21
-735.1796413112331
 31
0.0
  0
LINE
  5
8D
330
1F
100
AcDbEntity
  8
1-2
  6
Continuous
 62
     3
370
     9
100
AcDbLine
 10
-1058.165885306693
 20
-727.27294921875
 30
0.0
 11
-1033.166050266575
 21
-732.6228456239443
 31
0.0
  0
LINE
  5
8E
330
1F
100
AcDbEntity
  8
1-2
  6
Continuous
 62
     3
370
     9
100
AcDbLine
 10
-1049.428785169447
 20
-530.9892066749366
 30
0.0
 11
-1033.166050266575
 21
-547.2520652977196
 31
0.0
  0
LINE
  5
8F
330
1F
100
AcDbEntity
  8
1-2
  6
Continuous
 62
     3
370
     9
100
AcDbLine
 10
-1040.692179911845
 20
-529.1196750950168
 30
0.0
 11
-1033.166050266575
 21
-536.6458047402871
 31
0.0
  0
LINE
  5
90
330
1F
100
AcDbEntity
  8
1-2
  6
Continuous
 62
     3
370
     9
100
AcDbLine
 10
-1058.165885306693
 20
-532.8588619747677
 30
0.0
 11
-1037.106776881862
 21
-553.9183415593327
 31
0.0
  0
LINE
  5
91
330
1F
100
AcDbEntity
  8
1-2
  6
Continuous
 62
     3
370
     9
100
AcDbLine
 10
-1058.165885306693
 20
-543.4656174118454
 30
0.0
 11
-1045.843382139464
 21
-555.7883680188978
 31
0.0
  0
LINE
  5
92
330
1F
100
AcDbEntity
  8
1-2
  6
Continuous
 62
     3
370
     9
100
AcDbLine
 10
-1058.165885306693
 20
-554.072372848923
 30
0.0
 11
-1054.58048227671
 21
-557.6574047191723
 31
0.0
  0
LINE
  5
93
330
1F
100
AcDbEntity
  8
1-2
  6
Continuous
 62
     3
370
     9
100
AcDbLine
 10
-1058.165885306693
 20
-606.7883135821367
 30
0.0
 11
-1052.628058356208
 21
-612.3261405326224
 31
0.0
  0
LINE
  5
94
330
1F
100
AcDbEntity
  8
1-2
  6
Continuous
 62
     3
370
     9
100
AcDbLine
 10
-1058.165885306693
 20
-596.1818055848818
 30
0.0
 11
-1039.133803908889
 21
-615.2135158229519
 31
0.0
  0
LINE
  5
95
330
1F
100
AcDbEntity
  8
1-2
  6
Continuous
 62
     3
370
     9
100
AcDbLine
 10
-1058.165885306693
 20
-585.5752975876267
 30
0.0
 11
-1033.166050266575
 21
-610.5746377480996
 31
0.0
  0
LINE
  5
96
330
1F
100
AcDbEntity
  8
1-2
  6
Continuous
 62
     3
370
     9
100
AcDbLine
 10
-1044.671507139464
 20
-588.46304403769
 30
0.0
 11
-1033.166050266575
 21
-599.9686246304898
 31
0.0
  0
LINE
  5
97
330
1F
100
AcDbEntity
  8
1-2
  6
Continuous
 62
     3
370
     9
100
AcDbLine
 10
-1049.428785169447
 20
-647.1212521114865
 30
0.0
 11
-1033.166050266575
 21
-663.3842344541807
 31
0.0
  0
LINE
  5
98
330
1F
100
AcDbEntity
  8
1-2
  6
Continuous
 62
     3
370
     9
100
AcDbLine
 10
-1040.692179911845
 20
-645.2515968116553
 30
0.0
 11
-1033.166050266575
 21
-652.777850176837
 31
0.0
  0
LINE
  5
99
330
1F
100
AcDbEntity
  8
1-2
  6
Continuous
 62
     3
370
     9
100
AcDbLine
 10
-1058.165885306693
 20
-648.9909074113176
 30
0.0
 11
-1037.106776881862
 21
-670.0502632759712
 31
0.0
  0
LINE
  5
9A
330
1F
100
AcDbEntity
  8
1-2
  6
Continuous
 62
     3
370
     9
100
AcDbLine
 10
-1058.165885306693
 20
-659.5976628483952
 30
0.0
 11
-1045.843382139464
 21
-671.920166015625
 31
0.0
  0
LINE
  5
9B
330
1F
100
AcDbEntity
  8
1-2
  6
Continuous
 62
     3
370
     9
100
AcDbLine
 10
-1058.165885306693
 20
-670.2042945655616
 30
0.0
 11
-1054.58048227671
 21
-673.7895738756334
 31
0.0
  0
LINE
  5
9C
330
1F
100
AcDbEntity
  8
1-2
  6
Continuous
 62
     3
370
     9
100
AcDbLine
 10
-1058.165885306693
 20
-722.9202352987752
 30
0.0
 11
-1052.628058356208
 21
-728.4579385293496
 31
0.0
  0
LINE
  5
9D
330
1F
100
AcDbEntity
  8
1-2
  6
Continuous
 62
     3
370
     9
100
AcDbLine
 10
-1058.165885306693
 20
-712.3137273015202
 30
0.0
 11
-1039.133803908889
 21
-731.3455612595017
 31
0.0
  0
LINE
  5
9E
330
1F
100
AcDbEntity
  8
1-2
  6
Continuous
 62
     3
370
     9
100
AcDbLine
 10
-1058.165885306693
 20
-701.7072193042651
 30
0.0
 11
-1033.166050266575
 21
-726.7065594647381
 31
0.0
  0
LINE
  5
9F
330
1F
100
AcDbEntity
  8
1-2
  6
Continuous
 62
     3
370
     9
100
AcDbLine
 10
-1044.671507139464
 20
-704.5948420344172
 30
0.0
 11
-1033.166050266575
 21
-716.1000514674831
 31
0.0
  0
LINE
  5
A0
330
1F
100
AcDbEntity
  8
1-2
  6
Continuous
 62
     3
370
     9
100
AcDbLine
 10
-1033.166050266575
 20
-472.2362291490708
 30
0.0
 11
-1058.165885306693
 21
-466.8864564637879
 31
0.0
  0
LINE
  5
A1
330
1F
100
AcDbEntity
  8
1-2
  6
Continuous
 62
     3
370
     9
100
AcDbLine
 10
-1033.166050266575
 20
-474.7926536766258
 30
0.0
 11
-1058.165885306693
 21
-469.4433758709881
 31
0.0
  0
LINE
  5
A2
330
1F
100
AcDbEntity
  8
1-2
  6
Continuous
 62
     3
370
     9
100
AcDbLine
 10
-1058.165885306693
 20
-497.5656540329392
 30
0.0
 11
-1033.166050266575
 21
-502.915797877956
 31
0.0
  0
LINE
  5
A3
330
1F
100
AcDbEntity
  8
1-2
  6
Continuous
 62
     3
370
     9
100
AcDbLine
 10
-1058.165885306693
 20
-495.0091057854729
 30
0.0
 11
-1033.166050266575
 21
-500.3588784707558
 31
0.0
  0
LINE
  5
A4
330
1F
100
AcDbEntity
  8
1-2
  6
Continuous
 62
     3
370
     9
100
AcDbLine
 10
-1058.165885306693
 20
-490.6563918654983
 30
0.0
 11
-1052.628058356208
 21
-496.1944662558065
 31
0.0
  0
LINE
  5
A5
330
1F
100
AcDbEntity
  8
1-2
  6
Continuous
 62
     3
370
     9
100
AcDbLine
 10
-1058.165885306693
 20
-480.0498838682432
 30
0.0
 11
-1039.133803908889
 21
-499.0818415461359
 31
0.0
  0
LINE
  5
A6
330
1F
100
AcDbEntity
  8
1-2
  6
Continuous
 62
     3
370
     9
100
AcDbLine
 10
-1058.165885306693
 20
-469.4433758709881
 30
0.0
 11
-1033.166050266575
 21
-494.4432109111063
 31
0.0
  0
LINE
  5
A7
330
1F
100
AcDbEntity
  8
1-2
  6
Continuous
 62
     3
370
     9
100
AcDbLine
 10
-1044.671507139464
 20
-472.3307511613176
 30
0.0
 11
-1033.166050266575
 21
-483.8367029138513
 31
0.0
  0
LINE
  5
A8
330
1F
100
AcDbEntity
  8
1-2
  6
Continuous
 62
     3
370
     9
100
AcDbLine
 10
-1033.166050266575
 20
-455.1084446262668
 30
0.0
 11
-1033.166050266575
 21
-746.5831529771959
 31
0.0
  0
LINE
  5
A9
330
1F
100
AcDbEntity
  8
1-2
  6
Continuous
 62
     3
370
     9
100
AcDbLine
 10
-1058.165885306693
 20
-455.1084446262668
 30
0.0
 11
-1058.165885306693
 21
-746.5831529771959
 31
0.0
  0
LINE
  5
AA
330
1F
100
AcDbEntity
  8
1-4
  6
Continuous
 62
     7
370
     9
100
AcDbLine
 10
-1075.102646286423
 20
-674.556884765625
 30
0.0
 11
-1128.797087798248
 21
-674.556884765625
 31
0.0
  0
LINE
  5
AB
330
1F
100
AcDbEntity
  8
1-4
  6
Continuous
 62
     7
370
     9
100
AcDbLine
 10
-1075.102646286423
 20
-701.7072193042651
 30
0.0
 11
-1128.797087798248
 21
-701.7072193042651
 31
0.0
  0
LINE
  5
AC
330
1F
100
AcDbEntity
  8
1-4
  6
Continuous
 62
     7
370
     9
100
AcDbLine
 10
-1125.797622268264
 20
-674.556884765625
 30
0.0
 11
-1129.060363769531
 21
-649.7709614521748
 31
0.0
  0
LINE
  5
AD
330
1F
100
AcDbEntity
  8
1-4
  6
Continuous
 62
     7
370
     9
100
AcDbLine
 10
-1125.797622268264
 20
-674.556884765625
 30
0.0
 11
-1122.533891007707
 21
-649.7709614521748
 31
0.0
  0
LINE
  5
AE
330
1F
100
AcDbEntity
  8
1-4
  6
Continuous
 62
     7
370
     9
100
AcDbLine
 10
-1125.797622268264
 20
-701.7072193042651
 30
0.0
 11
-1129.060363769531
 21
-726.4930188978041
 31
0.0
  0
LINE
  5
AF
330
1F
100
AcDbEntity
  8
1-4
  6
Continuous
 62
     7
370
     9
100
AcDbLine
 10
-1125.797622268264
 20
-701.7072193042651
 30
0.0
 11
-1122.533891007707
 21
-726.4930188978041
 31
0.0
  0
LINE
  5
B0
330
1F
100
AcDbEntity
  8
1-4
  6
Continuous
 62
     7
370
     9
100
AcDbLine
 10
-1075.102646286423
 20
-495.0091057854729
 30
0.0
 11
-1128.797087798248
 21
-495.0091057854729
 31
0.0
  0
LINE
  5
B1
330
1F
100
AcDbEntity
  8
1-4
  6
Continuous
 62
     7
370
     9
100
AcDbLine
 10
-1075.102646286423
 20
-532.8588619747677
 30
0.0
 11
-1128.797087798248
 21
-532.8588619747677
 31
0.0
  0
LINE
  5
B2
330
1F
100
AcDbEntity
  8
1-4
  6
Continuous
 62
     7
370
     9
100
AcDbLine
 10
-1125.797622268264
 20
-495.0091057854729
 30
0.0
 11
-1129.060363769531
 21
-470.2229350322001
 31
0.0
  0
LINE
  5
B3
330
1F
100
AcDbEntity
  8
1-4
  6
Continuous
 62
     7
370
     9
100
AcDbLine
 10
-1125.797622268264
 20
-495.0091057854729
 30
0.0
 11
-1122.533891007707
 21
-470.2229350322001
 31
0.0
  0
LINE
  5
B4
330
1F
100
AcDbEntity
  8
1-4
  6
Continuous
 62
     7
370
     9
100
AcDbLine
 10
-1125.797622268264
 20
-532.8588619747677
 30
0.0
 11
-1129.060363769531
 21
-557.6450327280405
 31
0.0
  0
LINE
  5
B5
330
1F
100
AcDbEntity
  8
1-4
  6
Continuous
 62
     7
370
     9
100
AcDbLine
 10
-1125.797622268264
 20
-532.8588619747677
 30
0.0
 11
-1122.533891007707
 21
-557.6450327280405
 31
0.0
  0
LINE
  5
B6
330
1F
100
AcDbEntity
  8
1-4
  6
Continuous
 62
     7
370
     9
100
AcDbLine
 10
-1125.797622268264
 20
-643.0570530247043
 30
0.0
 11
-1125.797622268264
 21
-740.9672587626688
 31
0.0
  0
LINE
  5
B7
330
1F
100
AcDbEntity
  8
1-4
  6
Continuous
 62
     7
370
     9
100
AcDbLine
 10
-1125.797622268264
 20
-460.5995054502745
 30
0.0
 11
-1125.797622268264
 21
-566.8173795133023
 31
0.0
  0
LINE
  5
B8
330
1F
100
AcDbEntity
  8
1-4
  6
Continuous
 62
     7
370
     9
100
AcDbLine
 10
-1021.274587270376
 20
-550.5300243480785
 30
0.0
 11
-989.2588434992609
 21
-543.6794054186021
 31
0.0
  0
LINE
  5
B9
330
1F
100
AcDbEntity
  8
1-4
  6
Continuous
 62
     7
370
     9
100
AcDbLine
 10
-1026.505960000528
 20
-526.0843307907517
 30
0.0
 11
-994.4907111090582
 21
-519.2329695418074
 31
0.0
  0
LINE
  5
BA
330
1F
100
AcDbEntity
  8
1-4
  6
Continuous
 62
     7
370
     9
100
AcDbLine
 10
-992.192490036423
 20
-544.3069128088048
 30
0.0
 11
-983.8146725216427
 21
-567.8618230046452
 31
0.0
  0
LINE
  5
BB
330
1F
100
AcDbEntity
  8
1-4
  6
Continuous
 62
     7
370
     9
100
AcDbLine
 10
-992.192490036423
 20
-544.3069128088048
 30
0.0
 11
-990.196640427048
 21
-569.2270722260346
 31
0.0
  0
LINE
  5
BC
330
1F
100
AcDbEntity
  8
1-4
  6
Continuous
 62
     7
370
     9
100
AcDbLine
 10
-997.4238627665751
 20
-519.8602294921875
 30
0.0
 11
-999.4197123759501
 21
-494.9399463550463
 31
0.0
  0
LINE
  5
BD
330
1F
100
AcDbEntity
  8
1-4
  6
Continuous
 62
     7
370
     9
100
AcDbLine
 10
-997.4238627665751
 20
-519.8602294921875
 30
0.0
 11
-1005.801680281355
 21
-496.3061853357263
 31
0.0
  0
LINE
  5
BE
330
1F
100
AcDbEntity
  8
1-4
  6
Continuous
 62
     7
370
     9
100
AcDbLine
 10
-985.9184058936866
 20
-573.6260573928421
 30
0.0
 11
-1004.274481696051
 21
-487.8473312790329
 31
0.0
  0
LINE
  5
BF
330
1F
100
AcDbEntity
  8
1-4
  6
Continuous
 62
     7
370
     9
100
AcDbLine
 10
-374.586651776288
 20
-538.648211504962
 30
0.0
 11
-374.586651776288
 21
-502.4782005516258
 31
0.0
  0
LINE
  5
C0
330
1F
100
AcDbEntity
  8
1-4
  6
Continuous
 62
     7
370
     9
100
AcDbLine
 10
-399.5864868164062
 20
-538.648211504962
 30
0.0
 11
-399.5864868164062
 21
-502.4782005516258
 31
0.0
  0
LINE
  5
C1
330
1F
100
AcDbEntity
  8
1-4
  6
Continuous
 62
     7
370
     9
100
AcDbLine
 10
-374.586651776288
 20
-505.4782846811655
 30
0.0
 11
-349.8006047429263
 21
-502.2144297006968
 31
0.0
  0
LINE
  5
C2
330
1F
100
AcDbEntity
  8
1-4
  6
Continuous
 62
     7
370
     9
100
AcDbLine
 10
-374.586651776288
 20
-505.4782846811655
 30
0.0
 11
-349.8006047429263
 21
-508.7415210620776
 31
0.0
  0
LINE
  5
C3
330
1F
100
AcDbEntity
  8
1-4
  6
Continuous
 62
     7
370
     9
100
AcDbLine
 10
-399.5864868164062
 20
-505.4782846811655
 30
0.0
 11
-424.3729050095016
 21
-502.2144297006968
 31
0.0
  0
LINE
  5
C4
330
1F
100
AcDbEntity
  8
1-4
  6
Continuous
 62
     7
370
     9
100
AcDbLine
 10
-399.5864868164062
 20
-505.4782846811655
 30
0.0
 11
-424.3729050095016
 21
-508.7415210620776
 31
0.0
  0
LINE
  5
C5
330
1F
100
AcDbEntity
  8
1-4
  6
Continuous
 62
     7
370
     9
100
AcDbLine
 10
-379.5869157120987
 20
-642.8973306191933
 30
0.0
 11
-354.8008686787372
 21
-639.6342179581926
 31
0.0
  0
LINE
  5
C6
330
1F
100
AcDbEntity
  8
1-4
  6
Continuous
 62
     7
370
     9
100
AcDbLine
 10
-379.5869157120987
 20
-642.8973306191933
 30
0.0
 11
-354.8008686787372
 21
-646.1606907200168
 31
0.0
  0
LINE
  5
C7
330
1F
100
AcDbEntity
  8
1-4
  6
Continuous
 62
     7
370
     9
100
AcDbLine
 10
-394.5867177602406
 20
-642.8973306191933
 30
0.0
 11
-419.3727647936021
 21
-639.6342179581926
 31
0.0
  0
LINE
  5
C8
330
1F
100
AcDbEntity
  8
1-4
  6
Continuous
 62
     7
370
     9
100
AcDbLine
 10
-394.5867177602406
 20
-642.8973306191933
 30
0.0
 11
-419.3727647936021
 21
-646.1606907200168
 31
0.0
  0
LINE
  5
C9
330
1F
100
AcDbEntity
  8
1-4
  6
Continuous
 62
     7
370
     9
100
AcDbLine
 10
-1033.166050266575
 20
-451.1353033942145
 30
0.0
 11
-1033.166050266575
 21
-415.1741316511824
 31
0.0
  0
LINE
  5
CA
330
1F
100
AcDbEntity
  8
1-4
  6
Continuous
 62
     7
370
     9
100
AcDbLine
 10
-1058.165885306693
 20
-451.1353033942145
 30
0.0
 11
-1058.165885306693
 21
-415.1741316511824
 31
0.0
  0
LINE
  5
CB
330
1F
100
AcDbEntity
  8
1-4
  6
Continuous
 62
     7
370
     9
100
AcDbLine
 10
-1033.166050266575
 20
-418.1739683408995
 30
0.0
 11
-1008.379508353568
 21
-414.9108556798985
 31
0.0
  0
LINE
  5
CC
330
1F
100
AcDbEntity
  8
1-4
  6
Continuous
 62
     7
370
     9
100
AcDbLine
 10
-1033.166050266575
 20
-418.1739683408995
 30
0.0
 11
-1008.379508353568
 21
-421.4373284417229
 31
0.0
  0
LINE
  5
CD
330
1F
100
AcDbEntity
  8
1-4
  6
Continuous
 62
     7
370
     9
100
AcDbLine
 10
-1058.165885306693
 20
-418.1739683408995
 30
0.0
 11
-1082.951932340055
 21
-414.9108556798985
 31
0.0
  0
LINE
  5
CE
330
1F
100
AcDbEntity
  8
1-4
  6
Continuous
 62
     7
370
     9
100
AcDbLine
 10
-1058.165885306693
 20
-418.1739683408995
 30
0.0
 11
-1082.951932340055
 21
-421.4373284417229
 31
0.0
  0
LINE
  5
CF
330
1F
100
AcDbEntity
  8
1-4
  6
Continuous
 62
     7
370
     9
100
AcDbLine
 10
-996.1653838286529
 20
-418.1739683408995
 30
0.0
 11
-1090.554273450697
 21
-418.1739683408995
 31
0.0
  0
LINE
  5
D0
330
1F
100
AcDbEntity
  8
1-4
  6
Continuous
 62
     7
370
     9
100
AcDbLine
 10
-308.6216694599872
 20
-782.7318841057854
 30
0.0
 11
-308.6216694599872
 21
-852.7321150496199
 31
0.0
  0
LINE
  5
D1
330
1F
100
AcDbEntity
  8
1-4
  6
Continuous
 62
     7
370
     9
100
AcDbLine
 10
-308.6216694599872
 20
-782.7318841057854
 30
0.0
 11
-1158.621504500105
 21
-782.7318841057854
 31
0.0
  0
LINE
  5
D2
330
1F
100
AcDbEntity
  8
1-4
  6
Continuous
 62
     7
370
     9
100
AcDbLine
 10
-308.6216694599872
 20
-852.7321150496199
 30
0.0
 11
-1158.621504500105
 21
-852.7321150496199
 31
0.0
  0
LINE
  5
D3
330
1F
100
AcDbEntity
  8
1-4
  6
Continuous
 62
     7
370
     9
100
AcDbLine
 10
-1158.621504500105
 20
-782.7318841057854
 30
0.0
 11
-1158.621504500105
 21
-852.7321150496199
 31
0.0
  0
LINE
  5
D4
330
1F
100
AcDbEntity
  8
1-4
  6
Continuous
 62
     7
370
     9
100
AcDbLine
 10
-336.50467331345
 20
-642.8973306191933
 30
0.0
 11
-424.3002814215581
 21
-642.8973306191933
 31
0.0
  0
LINE
  5
D5
330
1F
100
AcDbEntity
  8
1-4
  6
Continuous
 62
     7
370
     9
100
AcDbLine
 10
-336.073756862331
 20
-505.4782846811655
 30
0.0
 11
-438.6834634316932
 21
-505.4782846811655
 31
0.0
  0
LINE
  5
D6
330
1F
100
AcDbEntity
  8
1-4
  6
Continuous
 62
     7
370
     9
100
AcDbLine
 10
-978.9500056086359
 20
-434.5100691511824
 30
0.0
 11
-729.2563773490286
 21
-434.5100691511824
 31
0.0
  0
LINE
  5
D7
330
1F
100
AcDbEntity
  8
1-4
  6
Continuous
 62
     7
370
     9
100
AcDbLine
 10
-978.9500056086359
 20
-434.5100691511824
 30
0.0
 11
-1038.907643911001
 21
-516.9239848368876
 31
0.0
  0
LINE
  5
D8
330
1F
100
AcDbEntity
  8
1-4
  6
Continuous
 62
     7
370
     9
100
AcDbLine
 10
-1038.907643911001
 20
-516.9239848368876
 30
0.0
 11
-1026.964713431693
 21
-494.9608550200591
 31
0.0
  0
LINE
  5
D9
330
1F
100
AcDbEntity
  8
1-4
  6
Continuous
 62
     7
370
     9
100
AcDbLine
 10
-1038.907643911001
 20
-516.9239848368876
 30
0.0
 11
-1021.687316894531
 21
-498.8003787478884
 31
0.0
  0
LINE
  5
DA
330
1F
100
AcDbEntity
  8
1-2
  6
Continuous
 62
     3
370
     9
100
AcDbLine
 10
381.0810810810813
 20
5.810827306798956
 30
0.0
 11
-1608.918803447002
 21
5.810827306798956
 31
0.0
  0
LINE
  5
DB
330
1F
100
AcDbEntity
  8
1-2
  6
Continuous
 62
     3
370
     9
100
AcDbLine
 10
-1608.918803447002
 20
825.810810810811
 30
0.0
 11
381.0810810810813
 21
825.810810810811
 31
0.0
  0
LINE
  5
DC
330
1F
100
AcDbEntity
  8
1-2
  6
Continuous
 62
     3
370
     9
100
AcDbLine
 10
-1608.918803447002
 20
816.8101872624578
 30
0.0
 11
381.0810810810813
 21
816.8101872624578
 31
0.0
  0
LINE
  5
DD
330
1F
100
AcDbEntity
  8
1-2
  6
Continuous
 62
     3
370
     9
100
AcDbLine
 10
381.0810810810813
 20
14.81046109586146
 30
0.0
 11
-1608.918803447002
 21
14.81046109586146
 31
0.0
  0
LINE
  5
DE
330
1F
100
AcDbEntity
  8
1-2
  6
Continuous
 62
     3
370
     9
100
AcDbLine
 10
381.0810810810813
 20
709.8105270798144
 30
0.0
 11
-1608.918803447002
 21
709.8105270798144
 31
0.0
  0
LINE
  5
DF
330
1F
100
AcDbEntity
  8
1-2
  6
Continuous
 62
     3
370
     9
100
AcDbLine
 10
381.0810810810813
 20
309.8109394795188
 30
0.0
 11
-1608.918803447002
 21
309.8109394795188
 31
0.0
  0
LINE
  5
E0
330
1F
100
AcDbEntity
  8
1-2
  6
Continuous
 62
     3
370
     9
100
AcDbLine
 10
-1598.91827557538
 20
721.8103687183279
 30
0.0
 11
-1598.91827557538
 21
816.8101872624578
 31
0.0
  0
LINE
  5
E1
330
1F
100
AcDbEntity
  8
1-2
  6
Continuous
 62
     3
370
     9
100
AcDbLine
 10
-1578.917838431693
 20
721.8103687183279
 30
0.0
 11
-1578.917838431693
 21
816.8101872624578
 31
0.0
  0
LINE
  5
E2
330
1F
100
AcDbEntity
  8
1-2
  6
Continuous
 62
     3
370
     9
100
AcDbLine
 10
-1568.918300319362
 20
721.8103687183279
 30
0.0
 11
-1568.918300319362
 21
816.8101872624578
 31
0.0
  0
LINE
  5
E3
330
1F
100
AcDbEntity
  8
1-2
  6
Continuous
 62
     3
370
     9
100
AcDbLine
 10
-1598.91827557538
 20
721.8103687183279
 30
0.0
 11
-1598.91827557538
 21
816.8101872624578
 31
0.0
  0
LINE
  5
E4
330
1F
100
AcDbEntity
  8
1-2
  6
Continuous
 62
     3
370
     9
100
AcDbLine
 10
371.08154296875
 20
721.8103687183279
 30
0.0
 11
371.08154296875
 21
816.8101872624578
 31
0.0
  0
LINE
  5
E5
330
1F
100
AcDbEntity
  8
1-2
  6
Continuous
 62
     3
370
     9
100
AcDbLine
 10
381.0810810810813
 20
321.8106573981208
 30
0.0
 11
-1608.918803447002
 21
321.8106573981208
 31
0.0
  0
LINE
  5
E6
330
1F
100
AcDbEntity
  8
1-2
  6
Continuous
 62
     3
370
     9
100
AcDbLine
 10
810.5133881440037
 20
813.5014219541811
 30
0.0
 11
813.5135959934547
 21
814.5240907411318
 31
0.0
  0
LINE
  5
E7
330
1F
100
AcDbEntity
  8
1-2
  6
Continuous
 62
     3
370
     9
100
AcDbLine
 10
810.5133881440037
 20
813.5014219541811
 30
0.0
 11
810.5133881440037
 21
804.6866257126269
 31
0.0
  0
LINE
  5
E8
330
1F
100
AcDbEntity
  8
1-2
  6
Continuous
 62
     3
370
     9
100
AcDbLine
 10
810.5133881440037
 20
804.6866257126269
 30
0.0
 11
813.5135959934547
 21
803.6642043654984
 31
0.0
  0
LINE
  5
E9
330
1F
100
AcDbEntity
  8
1-2
  6
Continuous
 62
     3
370
     9
100
AcDbLine
 10
813.5135959934547
 20
803.6642043654984
 30
0.0
 11
813.5135959934547
 21
793.4375164959883
 31
0.0
  0
LINE
  5
EA
330
1F
100
AcDbEntity
  8
1-2
  6
Continuous
 62
     3
370
     9
100
AcDbLine
 10
810.5133881440037
 20
792.4150951488599
 30
0.0
 11
813.5135959934547
 21
793.4375164959883
 31
0.0
  0
LINE
  5
EB
330
1F
100
AcDbEntity
  8
1-2
  6
Continuous
 62
     3
370
     9
100
AcDbLine
 10
810.5133881440037
 20
792.4150951488599
 30
0.0
 11
810.5133881440037
 21
779.320332295186
 31
0.0
  0
LINE
  5
EC
330
1F
100
AcDbEntity
  8
1-2
  6
Continuous
 62
     3
370
     9
100
AcDbLine
 10
810.5133881440037
 20
779.320332295186
 30
0.0
 11
813.5135959934547
 21
778.2976635082349
 31
0.0
  0
LINE
  5
ED
330
1F
100
AcDbEntity
  8
1-2
  6
Continuous
 62
     3
370
     9
100
AcDbLine
 10
810.5133881440037
 20
767.048801731419
 30
0.0
 11
810.5133881440037
 21
758.2340054898651
 31
0.0
  0
LINE
  5
EE
330
1F
100
AcDbEntity
  8
1-2
  6
Continuous
 62
     3
370
     9
100
AcDbLine
 10
810.5133881440037
 20
758.2340054898651
 30
0.0
 11
813.5135959934547
 21
757.2113367029141
 31
0.0
  0
LINE
  5
EF
330
1F
100
AcDbEntity
  8
1-2
  6
Continuous
 62
     3
370
     9
100
AcDbLine
 10
813.5135959934547
 20
757.2113367029141
 30
0.0
 11
813.5135959934547
 21
746.9851437130492
 31
0.0
  0
LINE
  5
F0
330
1F
100
AcDbEntity
  8
1-2
  6
Continuous
 62
     3
370
     9
100
AcDbLine
 10
810.5133881440037
 20
745.9622274862755
 30
0.0
 11
813.5135959934547
 21
746.9851437130492
 31
0.0
  0
LINE
  5
F1
330
1F
100
AcDbEntity
  8
1-2
  6
Continuous
 62
     3
370
     9
100
AcDbLine
 10
810.5133881440037
 20
745.9622274862755
 30
0.0
 11
810.5133881440037
 21
732.8674646326016
 31
0.0
  0
LINE
  5
F2
330
1F
100
AcDbEntity
  8
1-2
  6
Continuous
 62
     3
370
     9
100
AcDbLine
 10
810.5133881440037
 20
732.8674646326016
 30
0.0
 11
813.5135959934547
 21
731.8450432854731
 31
0.0
  0
LINE
  5
F3
330
1F
100
AcDbEntity
  8
1-2
  6
Continuous
 62
     3
370
     9
100
AcDbLine
 10
810.5133881440037
 20
767.048801731419
 30
0.0
 11
813.5135959934547
 21
768.07147051837
 31
0.0
  0
LINE
  5
F4
330
1F
100
AcDbEntity
  8
1-2
  6
Continuous
 62
     3
370
     9
100
AcDbLine
 10
813.5135959934547
 20
778.2976635082349
 30
0.0
 11
813.5135959934547
 21
768.07147051837
 31
0.0
  0
LINE
  5
F5
330
1F
100
AcDbEntity
  8
1-2
  6
Continuous
 62
     3
370
     9
100
AcDbLine
 10
810.5133881440037
 20
720.5959340688346
 30
0.0
 11
810.5133881440037
 21
711.7811378272804
 31
0.0
  0
LINE
  5
F6
330
1F
100
AcDbEntity
  8
1-2
  6
Continuous
 62
     3
370
     9
100
AcDbLine
 10
810.5133881440037
 20
711.7811378272804
 30
0.0
 11
813.5135959934547
 21
710.7584690403294
 31
0.0
  0
LINE
  5
F7
330
1F
100
AcDbEntity
  8
1-2
  6
Continuous
 62
     3
370
     9
100
AcDbLine
 10
813.5135959934547
 20
710.7584690403294
 30
0.0
 11
813.5135959934547
 21
700.5322760504646
 31
0.0
  0
LINE
  5
F8
330
1F
100
AcDbEntity
  8
1-2
  6
Continuous
 62
     3
370
     9
100
AcDbLine
 10
810.5133881440037
 20
699.5093598236908
 30
0.0
 11
813.5135959934547
 21
700.5322760504646
 31
0.0
  0
LINE
  5
F9
330
1F
100
AcDbEntity
  8
1-2
  6
Continuous
 62
     3
370
     9
100
AcDbLine
 10
810.5133881440037
 20
699.5093598236908
 30
0.0
 11
810.5133881440037
 21
686.4148444098396
 31
0.0
  0
LINE
  5
FA
330
1F
100
AcDbEntity
  8
1-2
  6
Continuous
 62
     3
370
     9
100
AcDbLine
 10
810.5133881440037
 20
686.4148444098396
 30
0.0
 11
813.5135959934547
 21
685.3926705025339
 31
0.0
  0
LINE
  5
FB
330
1F
100
AcDbEntity
  8
1-2
  6
Continuous
 62
     3
370
     9
100
AcDbLine
 10
810.5133881440037
 20
720.5959340688346
 30
0.0
 11
813.5135959934547
 21
721.6186028557856
 31
0.0
  0
LINE
  5
FC
330
1F
100
AcDbEntity
  8
1-2
  6
Continuous
 62
     3
370
     9
100
AcDbLine
 10
813.5135959934547
 20
731.8450432854731
 30
0.0
 11
813.5135959934547
 21
721.6186028557856
 31
0.0
  0
LINE
  5
FD
330
1F
100
AcDbEntity
  8
1-2
  6
Continuous
 62
     3
370
     9
100
AcDbLine
 10
810.5133881440037
 20
674.1433138460727
 30
0.0
 11
810.5133881440037
 21
665.3285176045188
 31
0.0
  0
LINE
  5
FE
330
1F
100
AcDbEntity
  8
1-2
  6
Continuous
 62
     3
370
     9
100
AcDbLine
 10
810.5133881440037
 20
665.3285176045188
 30
0.0
 11
813.5135959934547
 21
664.3058488175677
 31
0.0
  0
LINE
  5
FF
330
1F
100
AcDbEntity
  8
1-2
  6
Continuous
 62
     3
370
     9
100
AcDbLine
 10
810.5133881440037
 20
674.1433138460727
 30
0.0
 11
813.5135959934547
 21
675.165735193201
 31
0.0
  0
LINE
  5
100
330
1F
100
AcDbEntity
  8
1-2
  6
Continuous
 62
     3
370
     9
100
AcDbLine
 10
813.5135959934547
 20
685.3926705025339
 30
0.0
 11
813.5135959934547
 21
675.165735193201
 31
0.0
  0
LINE
  5
101
330
1F
100
AcDbEntity
  8
1-2
  6
Continuous
 62
     3
370
     9
100
AcDbLine
 10
813.5135959934547
 20
825.810810810811
 30
0.0
 11
813.5135959934547
 21
814.5240907411318
 31
0.0
  0
LINE
  5
102
330
1F
100
AcDbEntity
  8
1-2
  6
Continuous
 62
     3
370
     9
100
AcDbLine
 10
813.5135959934547
 20
664.3058488175677
 30
0.0
 11
813.5135959934547
 21
654.0794083878802
 31
0.0
  0
LINE
  5
103
330
1F
100
AcDbEntity
  8
1-2
  6
Continuous
 62
     3
370
     9
100
AcDbLine
 10
810.5133881440037
 20
653.0567396009292
 30
0.0
 11
813.5135959934547
 21
654.0794083878802
 31
0.0
  0
LINE
  5
104
330
1F
100
AcDbEntity
  8
1-2
  6
Continuous
 62
     3
370
     9
100
AcDbLine
 10
810.5133881440037
 20
653.0567396009292
 30
0.0
 11
810.5133881440037
 21
639.9619767472552
 31
0.0
  0
LINE
  5
105
330
1F
100
AcDbEntity
  8
1-2
  6
Continuous
 62
     3
370
     9
100
AcDbLine
 10
810.5133881440037
 20
639.9619767472552
 30
0.0
 11
813.5135959934547
 21
638.9395554001269
 31
0.0
  0
LINE
  5
106
330
1F
100
AcDbEntity
  8
1-2
  6
Continuous
 62
     3
370
     9
100
AcDbLine
 10
810.5133881440037
 20
627.6904461834883
 30
0.0
 11
810.5133881440037
 21
618.8756499419342
 31
0.0
  0
LINE
  5
107
330
1F
100
AcDbEntity
  8
1-2
  6
Continuous
 62
     3
370
     9
100
AcDbLine
 10
810.5133881440037
 20
618.8756499419342
 30
0.0
 11
813.5135959934547
 21
617.8529811549834
 31
0.0
  0
LINE
  5
108
330
1F
100
AcDbEntity
  8
1-2
  6
Continuous
 62
     3
370
     9
100
AcDbLine
 10
810.5133881440037
 20
627.6904461834883
 30
0.0
 11
813.5135959934547
 21
628.7131149704394
 31
0.0
  0
LINE
  5
109
330
1F
100
AcDbEntity
  8
1-2
  6
Continuous
 62
     3
370
     9
100
AcDbLine
 10
813.5135959934547
 20
638.9395554001269
 30
0.0
 11
813.5135959934547
 21
628.7131149704394
 31
0.0
  0
LINE
  5
10A
330
1F
100
AcDbEntity
  8
1-2
  6
Continuous
 62
     3
370
     9
100
AcDbLine
 10
813.5135959934547
 20
617.8529811549834
 30
0.0
 11
813.5135959934547
 21
607.6267881651182
 31
0.0
  0
LINE
  5
10B
330
1F
100
AcDbEntity
  8
1-2
  6
Continuous
 62
     3
370
     9
100
AcDbLine
 10
810.5133881440037
 20
606.6038719383448
 30
0.0
 11
813.5135959934547
 21
607.6267881651182
 31
0.0
  0
LINE
  5
10C
330
1F
100
AcDbEntity
  8
1-2
  6
Continuous
 62
     3
370
     9
100
AcDbLine
 10
810.5133881440037
 20
606.6038719383448
 30
0.0
 11
810.5133881440037
 21
593.5091090846709
 31
0.0
  0
LINE
  5
10D
330
1F
100
AcDbEntity
  8
1-2
  6
Continuous
 62
     3
370
     9
100
AcDbLine
 10
810.5133881440037
 20
593.5091090846709
 30
0.0
 11
813.5135959934547
 21
592.4866877375425
 31
0.0
  0
LINE
  5
10E
330
1F
100
AcDbEntity
  8
1-2
  6
Continuous
 62
     3
370
     9
100
AcDbLine
 10
810.5133881440037
 20
581.237578520904
 30
0.0
 11
810.5133881440037
 21
572.4227822793498
 31
0.0
  0
LINE
  5
10F
330
1F
100
AcDbEntity
  8
1-2
  6
Continuous
 62
     3
370
     9
100
AcDbLine
 10
810.5133881440037
 20
572.4227822793498
 30
0.0
 11
813.5135959934547
 21
571.4001134923988
 31
0.0
  0
LINE
  5
110
330
1F
100
AcDbEntity
  8
1-2
  6
Continuous
 62
     3
370
     9
100
AcDbLine
 10
810.5133881440037
 20
581.237578520904
 30
0.0
 11
813.5135959934547
 21
582.260247307855
 31
0.0
  0
LINE
  5
111
330
1F
100
AcDbEntity
  8
1-2
  6
Continuous
 62
     3
370
     9
100
AcDbLine
 10
813.5135959934547
 20
592.4866877375425
 30
0.0
 11
813.5135959934547
 21
582.260247307855
 31
0.0
  0
LINE
  5
112
330
1F
100
AcDbEntity
  8
1-2
  6
Continuous
 62
     3
370
     9
100
AcDbLine
 10
813.5135959934547
 20
571.4001134923988
 30
0.0
 11
813.5135959934547
 21
561.1739205025339
 31
0.0
  0
LINE
  5
113
330
1F
100
AcDbEntity
  8
1-1
  6
Continuous
 62
     2
370
     9
100
AcDbLine
 10
990.7134184966219
 20
731.8108965899495
 30
0.0
 11
876.3135755384292
 21
731.8108965899495
 31
0.0
  0
LINE
  5
114
330
1F
100
AcDbEntity
  8
1-1
  6
Continuous
 62
     2
370
     9
100
AcDbLine
 10
990.713171056799
 20
805.41088207348
 30
0.0
 11
876.3130806587839
 21
805.41088207348
 31
0.0
  0
LINE
  5
115
330
1F
100
AcDbEntity
  8
1-1
  6
Continuous
 62
     2
370
     9
100
AcDbLine
 10
997.1134495090797
 20
744.6109586148651
 30
0.0
 11
997.1134495090797
 21
799.0106036211995
 31
0.0
  0
LINE
  5
116
330
1F
100
AcDbEntity
  8
1-1
  6
Continuous
 62
     2
370
     9
100
AcDbLine
 10
990.7134184966219
 20
811.8109130859375
 30
0.0
 11
876.3135755384292
 21
811.8109130859375
 31
0.0
  0
LINE
  5
117
330
1F
100
AcDbEntity
  8
1-1
  6
Continuous
 62
     2
370
     9
100
AcDbLine
 10
1003.513233081715
 20
744.6109586148651
 30
0.0
 11
1003.513233081715
 21
799.0110985008448
 31
0.0
  0
LINE
  5
118
330
1F
100
AcDbEntity
  8
1-1
  6
Continuous
 62
     2
370
     9
100
AcDbLine
 10
876.3135755384292
 20
738.21117504223
 30
0.0
 11
990.713171056799
 21
738.21117504223
 31
0.0
  0
LINE
  5
119
330
1F
100
AcDbEntity
  8
1-1
  6
Continuous
 62
     2
370
     9
100
AcDbLine
 10
869.913297086149
 20
744.6109586148651
 30
0.0
 11
869.913297086149
 21
799.0106036211995
 31
0.0
  0
LINE
  5
11A
330
1F
100
AcDbEntity
  8
1-1
  6
Continuous
 62
     2
370
     9
100
AcDbLine
 10
990.7134184966219
 20
99.8107415276607
 30
0.0
 11
876.3135755384292
 21
99.8107415276607
 31
0.0
  0
LINE
  5
11B
330
1F
100
AcDbEntity
  8
1-1
  6
Continuous
 62
     2
370
     9
100
AcDbLine
 10
990.713171056799
 20
26.21075604413022
 30
0.0
 11
876.3130806587839
 21
26.21075604413022
 31
0.0
  0
LINE
  5
11C
330
1F
100
AcDbEntity
  8
1-1
  6
Continuous
 62
     2
370
     9
100
AcDbLine
 10
997.1134495090797
 20
87.01067950274506
 30
0.0
 11
997.1134495090797
 21
32.61091077649922
 31
0.0
  0
LINE
  5
11D
330
1F
100
AcDbEntity
  8
1-1
  6
Continuous
 62
     2
370
     9
100
AcDbLine
 10
990.7134184966219
 20
19.8107250316724
 30
0.0
 11
876.3135755384292
 21
19.8107250316724
 31
0.0
  0
LINE
  5
11E
330
1F
100
AcDbEntity
  8
1-1
  6
Continuous
 62
     2
370
     9
100
AcDbLine
 10
1003.513233081715
 20
87.01067950274506
 30
0.0
 11
1003.513233081715
 21
32.61053961676538
 31
0.0
  0
LINE
  5
11F
330
1F
100
AcDbEntity
  8
1-1
  6
Continuous
 62
     2
370
     9
100
AcDbLine
 10
876.3135755384292
 20
93.41046307538022
 30
0.0
 11
990.713171056799
 21
93.41046307538022
 31
0.0
  0
LINE
  5
120
330
1F
100
AcDbEntity
  8
1-1
  6
Continuous
 62
     2
370
     9
100
AcDbLine
 10
869.913297086149
 20
87.01067950274506
 30
0.0
 11
869.913297086149
 21
32.61091077649922
 31
0.0
  0
LINE
  5
121
330
1F
100
AcDbEntity
  8
1-2
  6
Continuous
 62
     3
370
     9
100
AcDbLine
 10
854.5136322846287
 20
816.8106821421031
 30
0.0
 11
854.5136322846287
 21
14.81095597550677
 31
0.0
  0
LINE
  5
122
330
1F
100
AcDbEntity
  8
1-2
  6
Continuous
 62
     3
370
     9
100
AcDbLine
 10
852.5133287584464
 20
816.8106821421031
 30
0.0
 11
852.5133287584464
 21
14.81095597550677
 31
0.0
  0
LINE
  5
123
330
1F
100
AcDbEntity
  8
1-2
  6
Continuous
 62
     3
370
     9
100
AcDbLine
 10
810.5133881440037
 20
560.1510042757602
 30
0.0
 11
813.5135959934547
 21
561.1739205025339
 31
0.0
  0
LINE
  5
124
330
1F
100
AcDbEntity
  8
1-2
  6
Continuous
 62
     3
370
     9
100
AcDbLine
 10
810.5133881440037
 20
560.1510042757602
 30
0.0
 11
810.5133881440037
 21
547.0562414220863
 31
0.0
  0
LINE
  5
125
330
1F
100
AcDbEntity
  8
1-2
  6
Continuous
 62
     3
370
     9
100
AcDbLine
 10
810.5133881440037
 20
547.0562414220863
 30
0.0
 11
813.5135959934547
 21
546.0338200749578
 31
0.0
  0
LINE
  5
126
330
1F
100
AcDbEntity
  8
1-2
  6
Continuous
 62
     3
370
     9
100
AcDbLine
 10
810.5133881440037
 20
534.7847108583193
 30
0.0
 11
810.5133881440037
 21
525.9699146167654
 31
0.0
  0
LINE
  5
127
330
1F
100
AcDbEntity
  8
1-2
  6
Continuous
 62
     3
370
     9
100
AcDbLine
 10
810.5133881440037
 20
525.9699146167654
 30
0.0
 11
813.5135959934547
 21
524.9472458298144
 31
0.0
  0
LINE
  5
128
330
1F
100
AcDbEntity
  8
1-2
  6
Continuous
 62
     3
370
     9
100
AcDbLine
 10
810.5133881440037
 20
534.7847108583193
 30
0.0
 11
813.5135959934547
 21
535.8073796452703
 31
0.0
  0
LINE
  5
129
330
1F
100
AcDbEntity
  8
1-2
  6
Continuous
 62
     3
370
     9
100
AcDbLine
 10
813.5135959934547
 20
546.0338200749578
 30
0.0
 11
813.5135959934547
 21
535.8073796452703
 31
0.0
  0
LINE
  5
12A
330
1F
100
AcDbEntity
  8
1-2
  6
Continuous
 62
     3
370
     9
100
AcDbLine
 10
813.5135959934547
 20
524.9472458298144
 30
0.0
 11
813.5135959934547
 21
514.7210528399495
 31
0.0
  0
LINE
  5
12B
330
1F
100
AcDbEntity
  8
1-2
  6
Continuous
 62
     3
370
     9
100
AcDbLine
 10
810.5133881440037
 20
513.6981366131758
 30
0.0
 11
813.5135959934547
 21
514.7210528399495
 31
0.0
  0
LINE
  5
12C
330
1F
100
AcDbEntity
  8
1-2
  6
Continuous
 62
     3
370
     9
100
AcDbLine
 10
810.5133881440037
 20
513.6981366131758
 30
0.0
 11
810.5133881440037
 21
500.6033737595018
 31
0.0
  0
LINE
  5
12D
330
1F
100
AcDbEntity
  8
1-2
  6
Continuous
 62
     3
370
     9
100
AcDbLine
 10
810.5133881440037
 20
500.6033737595018
 30
0.0
 11
813.5135959934547
 21
499.5809524123734
 31
0.0
  0
LINE
  5
12E
330
1F
100
AcDbEntity
  8
1-2
  6
Continuous
 62
     3
370
     9
100
AcDbLine
 10
810.5133881440037
 20
488.3318431957349
 30
0.0
 11
810.5133881440037
 21
479.5170469541807
 31
0.0
  0
LINE
  5
12F
330
1F
100
AcDbEntity
  8
1-2
  6
Continuous
 62
     3
370
     9
100
AcDbLine
 10
810.5133881440037
 20
479.5170469541807
 30
0.0
 11
813.5135959934547
 21
478.49437816723
 31
0.0
  0
LINE
  5
130
330
1F
100
AcDbEntity
  8
1-2
  6
Continuous
 62
     3
370
     9
100
AcDbLine
 10
810.5133881440037
 20
488.3318431957349
 30
0.0
 11
813.5135959934547
 21
489.3545119826859
 31
0.0
  0
LINE
  5
131
330
1F
100
AcDbEntity
  8
1-2
  6
Continuous
 62
     3
370
     9
100
AcDbLine
 10
813.5135959934547
 20
499.5809524123734
 30
0.0
 11
813.5135959934547
 21
489.3545119826859
 31
0.0
  0
LINE
  5
132
330
1F
100
AcDbEntity
  8
1-2
  6
Continuous
 62
     3
370
     9
100
AcDbLine
 10
813.5135959934547
 20
478.49437816723
 30
0.0
 11
813.5135959934547
 21
468.2681851773648
 31
0.0
  0
LINE
  5
133
330
1F
100
AcDbEntity
  8
1-2
  6
Continuous
 62
     3
370
     9
100
AcDbLine
 10
810.5133881440037
 20
467.2452689505914
 30
0.0
 11
813.5135959934547
 21
468.2681851773648
 31
0.0
  0
LINE
  5
134
330
1F
100
AcDbEntity
  8
1-2
  6
Continuous
 62
     3
370
     9
100
AcDbLine
 10
810.5133881440037
 20
467.2452689505914
 30
0.0
 11
810.5133881440037
 21
454.1505060969175
 31
0.0
  0
LINE
  5
135
330
1F
100
AcDbEntity
  8
1-2
  6
Continuous
 62
     3
370
     9
100
AcDbLine
 10
810.5133881440037
 20
454.1505060969175
 30
0.0
 11
813.5135959934547
 21
453.1280847497891
 31
0.0
  0
LINE
  5
136
330
1F
100
AcDbEntity
  8
1-2
  6
Continuous
 62
     3
370
     9
100
AcDbLine
 10
810.5133881440037
 20
441.8789755331505
 30
0.0
 11
810.5133881440037
 21
433.0641792915964
 31
0.0
  0
LINE
  5
137
330
1F
100
AcDbEntity
  8
1-2
  6
Continuous
 62
     3
370
     9
100
AcDbLine
 10
810.5133881440037
 20
433.0641792915964
 30
0.0
 11
813.5135959934547
 21
432.0415105046453
 31
0.0
  0
LINE
  5
138
330
1F
100
AcDbEntity
  8
1-2
  6
Continuous
 62
     3
370
     9
100
AcDbLine
 10
810.5133881440037
 20
441.8789755331505
 30
0.0
 11
813.5135959934547
 21
442.9016443201016
 31
0.0
  0
LINE
  5
139
330
1F
100
AcDbEntity
  8
1-2
  6
Continuous
 62
     3
370
     9
100
AcDbLine
 10
813.5135959934547
 20
453.1280847497891
 30
0.0
 11
813.5135959934547
 21
442.9016443201016
 31
0.0
  0
LINE
  5
13A
330
1F
100
AcDbEntity
  8
1-2
  6
Continuous
 62
     3
370
     9
100
AcDbLine
 10
813.5135959934547
 20
432.0415105046453
 30
0.0
 11
813.5135959934547
 21
421.8153175147805
 31
0.0
  0
LINE
  5
13B
330
1F
100
AcDbEntity
  8
1-2
  6
Continuous
 62
     3
370
     9
100
AcDbLine
 10
810.5133881440037
 20
420.7924012880068
 30
0.0
 11
813.5135959934547
 21
421.8153175147805
 31
0.0
  0
LINE
  5
13C
330
1F
100
AcDbEntity
  8
1-2
  6
Continuous
 62
     3
370
     9
100
AcDbLine
 10
810.5133881440037
 20
420.7924012880068
 30
0.0
 11
810.5133881440037
 21
407.6976384343328
 31
0.0
  0
LINE
  5
13D
330
1F
100
AcDbEntity
  8
1-2
  6
Continuous
 62
     3
370
     9
100
AcDbLine
 10
810.5133881440037
 20
407.6976384343328
 30
0.0
 11
813.5135959934547
 21
406.6752170872044
 31
0.0
  0
LINE
  5
13E
330
1F
100
AcDbEntity
  8
1-2
  6
Continuous
 62
     3
370
     9
100
AcDbLine
 10
810.5133881440037
 20
395.4261078705659
 30
0.0
 11
810.5133881440037
 21
386.611311629012
 31
0.0
  0
LINE
  5
13F
330
1F
100
AcDbEntity
  8
1-2
  6
Continuous
 62
     3
370
     9
100
AcDbLine
 10
810.5133881440037
 20
386.611311629012
 30
0.0
 11
813.5135959934547
 21
385.5886428420609
 31
0.0
  0
LINE
  5
140
330
1F
100
AcDbEntity
  8
1-2
  6
Continuous
 62
     3
370
     9
100
AcDbLine
 10
810.5133881440037
 20
395.4261078705659
 30
0.0
 11
813.5135959934547
 21
396.4487766575169
 31
0.0
  0
LINE
  5
141
330
1F
100
AcDbEntity
  8
1-2
  6
Continuous
 62
     3
370
     9
100
AcDbLine
 10
813.5135959934547
 20
406.6752170872044
 30
0.0
 11
813.5135959934547
 21
396.4487766575169
 31
0.0
  0
LINE
  5
142
330
1F
100
AcDbEntity
  8
1-2
  6
Continuous
 62
     3
370
     9
100
AcDbLine
 10
813.5135959934547
 20
385.5886428420609
 30
0.0
 11
813.5135959934547
 21
375.3624498521961
 31
0.0
  0
LINE
  5
143
330
1F
100
AcDbEntity
  8
1-2
  6
Continuous
 62
     3
370
     9
100
AcDbLine
 10
810.5133881440037
 20
374.3395336254224
 30
0.0
 11
813.5135959934547
 21
375.3624498521961
 31
0.0
  0
LINE
  5
144
330
1F
100
AcDbEntity
  8
1-2
  6
Continuous
 62
     3
370
     9
100
AcDbLine
 10
810.5133881440037
 20
374.3395336254224
 30
0.0
 11
810.5133881440037
 21
361.2447707717484
 31
0.0
  0
LINE
  5
145
330
1F
100
AcDbEntity
  8
1-2
  6
Continuous
 62
     3
370
     9
100
AcDbLine
 10
810.5133881440037
 20
361.2447707717484
 30
0.0
 11
813.5135959934547
 21
360.2223494246201
 31
0.0
  0
LINE
  5
146
330
1F
100
AcDbEntity
  8
1-2
  6
Continuous
 62
     3
370
     9
100
AcDbLine
 10
810.5133881440037
 20
348.9732402079815
 30
0.0
 11
810.5133881440037
 21
340.1584439664273
 31
0.0
  0
LINE
  5
147
330
1F
100
AcDbEntity
  8
1-2
  6
Continuous
 62
     3
370
     9
100
AcDbLine
 10
810.5133881440037
 20
340.1584439664273
 30
0.0
 11
813.5135959934547
 21
339.1357751794766
 31
0.0
  0
LINE
  5
148
330
1F
100
AcDbEntity
  8
1-2
  6
Continuous
 62
     3
370
     9
100
AcDbLine
 10
810.5133881440037
 20
348.9732402079815
 30
0.0
 11
813.5135959934547
 21
349.9959089949326
 31
0.0
  0
LINE
  5
149
330
1F
100
AcDbEntity
  8
1-2
  6
Continuous
 62
     3
370
     9
100
AcDbLine
 10
813.5135959934547
 20
360.2223494246201
 30
0.0
 11
813.5135959934547
 21
349.9959089949326
 31
0.0
  0
LINE
  5
14A
330
1F
100
AcDbEntity
  8
1-2
  6
Continuous
 62
     3
370
     9
100
AcDbLine
 10
813.5135959934547
 20
339.1357751794766
 30
0.0
 11
813.5135959934547
 21
328.9095821896115
 31
0.0
  0
LINE
  5
14B
330
1F
100
AcDbEntity
  8
1-2
  6
Continuous
 62
     3
370
     9
100
AcDbLine
 10
810.5133881440037
 20
327.886665962838
 30
0.0
 11
813.5135959934547
 21
328.9095821896115
 31
0.0
  0
LINE
  5
14C
330
1F
100
AcDbEntity
  8
1-2
  6
Continuous
 62
     3
370
     9
100
AcDbLine
 10
810.5133881440037
 20
327.886665962838
 30
0.0
 11
810.5133881440037
 21
314.7919031091641
 31
0.0
  0
LINE
  5
14D
330
1F
100
AcDbEntity
  8
1-2
  6
Continuous
 62
     3
370
     9
100
AcDbLine
 10
810.5133881440037
 20
314.7919031091641
 30
0.0
 11
813.5135959934547
 21
313.7694817620357
 31
0.0
  0
LINE
  5
14E
330
1F
100
AcDbEntity
  8
1-2
  6
Continuous
 62
     3
370
     9
100
AcDbLine
 10
810.5133881440037
 20
302.5204962653083
 30
0.0
 11
810.5133881440037
 21
293.705576303843
 31
0.0
  0
LINE
  5
14F
330
1F
100
AcDbEntity
  8
1-2
  6
Continuous
 62
     3
370
     9
100
AcDbLine
 10
810.5133881440037
 20
293.705576303843
 30
0.0
 11
813.5135959934547
 21
292.6829075168919
 31
0.0
  0
LINE
  5
150
330
1F
100
AcDbEntity
  8
1-2
  6
Continuous
 62
     3
370
     9
100
AcDbLine
 10
810.5133881440037
 20
302.5204962653083
 30
0.0
 11
813.5135959934547
 21
303.5430413323482
 31
0.0
  0
LINE
  5
151
330
1F
100
AcDbEntity
  8
1-2
  6
Continuous
 62
     3
370
     9
100
AcDbLine
 10
813.5135959934547
 20
313.7694817620357
 30
0.0
 11
813.5135959934547
 21
303.5430413323482
 31
0.0
  0
LINE
  5
152
330
1F
100
AcDbEntity
  8
1-2
  6
Continuous
 62
     3
370
     9
100
AcDbLine
 10
813.5135959934547
 20
292.6829075168919
 30
0.0
 11
813.5135959934547
 21
282.4567145270271
 31
0.0
  0
LINE
  5
153
330
1F
100
AcDbEntity
  8
1-2
  6
Continuous
 62
     3
370
     9
100
AcDbLine
 10
810.5133881440037
 20
281.4337983002534
 30
0.0
 11
813.5135959934547
 21
282.4567145270271
 31
0.0
  0
LINE
  5
154
330
1F
100
AcDbEntity
  8
1-2
  6
Continuous
 62
     3
370
     9
100
AcDbLine
 10
810.5133881440037
 20
281.4337983002534
 30
0.0
 11
810.5133881440037
 21
268.3390354465794
 31
0.0
  0
LINE
  5
155
330
1F
100
AcDbEntity
  8
1-2
  6
Continuous
 62
     3
370
     9
100
AcDbLine
 10
810.5133881440037
 20
268.3390354465794
 30
0.0
 11
813.5135959934547
 21
267.316614099451
 31
0.0
  0
LINE
  5
156
330
1F
100
AcDbEntity
  8
1-2
  6
Continuous
 62
     3
370
     9
100
AcDbLine
 10
810.5133881440037
 20
256.0675048828125
 30
0.0
 11
810.5133881440037
 21
247.2527086412586
 31
0.0
  0
LINE
  5
157
330
1F
100
AcDbEntity
  8
1-2
  6
Continuous
 62
     3
370
     9
100
AcDbLine
 10
810.5133881440037
 20
247.2527086412586
 30
0.0
 11
813.5135959934547
 21
246.2300398543076
 31
0.0
  0
LINE
  5
158
330
1F
100
AcDbEntity
  8
1-2
  6
Continuous
 62
     3
370
     9
100
AcDbLine
 10
810.5133881440037
 20
256.0675048828125
 30
0.0
 11
813.5135959934547
 21
257.0901736697635
 31
0.0
  0
LINE
  5
159
330
1F
100
AcDbEntity
  8
1-2
  6
Continuous
 62
     3
370
     9
100
AcDbLine
 10
813.5135959934547
 20
267.316614099451
 30
0.0
 11
813.5135959934547
 21
257.0901736697635
 31
0.0
  0
LINE
  5
15A
330
1F
100
AcDbEntity
  8
1-2
  6
Continuous
 62
     3
370
     9
100
AcDbLine
 10
813.5135959934547
 20
246.2300398543076
 30
0.0
 11
813.5135959934547
 21
236.0038468644427
 31
0.0
  0
LINE
  5
15B
330
1F
100
AcDbEntity
  8
1-2
  6
Continuous
 62
     3
370
     9
100
AcDbLine
 10
810.5133881440037
 20
234.980930637669
 30
0.0
 11
813.5135959934547
 21
236.0038468644427
 31
0.0
  0
LINE
  5
15C
330
1F
100
AcDbEntity
  8
1-2
  6
Continuous
 62
     3
370
     9
100
AcDbLine
 10
810.5133881440037
 20
234.980930637669
 30
0.0
 11
810.5133881440037
 21
221.8861677839951
 31
0.0
  0
LINE
  5
15D
330
1F
100
AcDbEntity
  8
1-2
  6
Continuous
 62
     3
370
     9
100
AcDbLine
 10
810.5133881440037
 20
221.8861677839951
 30
0.0
 11
813.5135959934547
 21
220.8637464368667
 31
0.0
  0
LINE
  5
15E
330
1F
100
AcDbEntity
  8
1-2
  6
Continuous
 62
     3
370
     9
100
AcDbLine
 10
810.5133881440037
 20
209.6146372202281
 30
0.0
 11
810.5133881440037
 21
200.799840978674
 31
0.0
  0
LINE
  5
15F
330
1F
100
AcDbEntity
  8
1-2
  6
Continuous
 62
     3
370
     9
100
AcDbLine
 10
810.5133881440037
 20
200.799840978674
 30
0.0
 11
813.5135959934547
 21
199.7771721917232
 31
0.0
  0
LINE
  5
160
330
1F
100
AcDbEntity
  8
1-2
  6
Continuous
 62
     3
370
     9
100
AcDbLine
 10
810.5133881440037
 20
209.6146372202281
 30
0.0
 11
813.5135959934547
 21
210.6373060071792
 31
0.0
  0
LINE
  5
161
330
1F
100
AcDbEntity
  8
1-2
  6
Continuous
 62
     3
370
     9
100
AcDbLine
 10
813.5135959934547
 20
220.8637464368667
 30
0.0
 11
813.5135959934547
 21
210.6373060071792
 31
0.0
  0
LINE
  5
162
330
1F
100
AcDbEntity
  8
1-2
  6
Continuous
 62
     3
370
     9
100
AcDbLine
 10
813.5135959934547
 20
199.7771721917232
 30
0.0
 11
813.5135959934547
 21
189.5509792018581
 31
0.0
  0
LINE
  5
163
330
1F
100
AcDbEntity
  8
1-2
  6
Continuous
 62
     3
370
     9
100
AcDbLine
 10
810.5133881440037
 20
188.5280629750847
 30
0.0
 11
813.5135959934547
 21
189.5509792018581
 31
0.0
  0
LINE
  5
164
330
1F
100
AcDbEntity
  8
1-2
  6
Continuous
 62
     3
370
     9
100
AcDbLine
 10
810.5133881440037
 20
188.5280629750847
 30
0.0
 11
810.5133881440037
 21
175.4333001214107
 31
0.0
  0
LINE
  5
165
330
1F
100
AcDbEntity
  8
1-2
  6
Continuous
 62
     3
370
     9
100
AcDbLine
 10
810.5133881440037
 20
175.4333001214107
 30
0.0
 11
813.5135959934547
 21
174.4108787742823
 31
0.0
  0
LINE
  5
166
330
1F
100
AcDbEntity
  8
1-2
  6
Continuous
 62
     3
370
     9
100
AcDbLine
 10
810.5133881440037
 20
163.1617695576438
 30
0.0
 11
810.5133881440037
 21
154.3469733160896
 31
0.0
  0
LINE
  5
167
330
1F
100
AcDbEntity
  8
1-2
  6
Continuous
 62
     3
370
     9
100
AcDbLine
 10
810.5133881440037
 20
154.3469733160896
 30
0.0
 11
813.5135959934547
 21
153.3243045291385
 31
0.0
  0
LINE
  5
168
330
1F
100
AcDbEntity
  8
1-2
  6
Continuous
 62
     3
370
     9
100
AcDbLine
 10
810.5133881440037
 20
163.1617695576438
 30
0.0
 11
813.5135959934547
 21
164.1844383445948
 31
0.0
  0
LINE
  5
169
330
1F
100
AcDbEntity
  8
1-2
  6
Continuous
 62
     3
370
     9
100
AcDbLine
 10
813.5135959934547
 20
174.4108787742823
 30
0.0
 11
813.5135959934547
 21
164.1844383445948
 31
0.0
  0
LINE
  5
16A
330
1F
100
AcDbEntity
  8
1-2
  6
Continuous
 62
     3
370
     9
100
AcDbLine
 10
813.5135959934547
 20
153.3243045291385
 30
0.0
 11
813.5135959934547
 21
143.0981115392737
 31
0.0
  0
LINE
  5
16B
330
1F
100
AcDbEntity
  8
1-2
  6
Continuous
 62
     3
370
     9
100
AcDbLine
 10
810.5133881440037
 20
142.0751953125
 30
0.0
 11
813.5135959934547
 21
143.0981115392737
 31
0.0
  0
LINE
  5
16C
330
1F
100
AcDbEntity
  8
1-2
  6
Continuous
 62
     3
370
     9
100
AcDbLine
 10
810.5133881440037
 20
142.0751953125
 30
0.0
 11
810.5133881440037
 21
128.980432458826
 31
0.0
  0
LINE
  5
16D
330
1F
100
AcDbEntity
  8
1-2
  6
JWW_CENTER1
 62
     3
370
     9
100
AcDbLine
 10
775.5743903082771
 20
415.810819058805
 30
0.0
 11
893.5178189664276
 21
415.810819058805
 31
0.0
  0
LINE
  5
16E
330
1F
100
AcDbEntity
  8
1-1
  6
JWW_DASHED1
 62
     2
370
     9
100
AcDbLine
 10
-1598.918770455025
 20
731.8108965899495
 30
0.0
 11
-1598.918770455025
 21
811.8109130859375
 31
0.0
  0
LINE
  5
16F
330
1F
100
AcDbEntity
  8
1-1
  6
JWW_DASHED1
 62
     2
370
     9
100
AcDbLine
 10
-1598.918770455025
 20
731.8108965899495
 30
0.0
 11
371.081048089105
 21
731.8108965899495
 31
0.0
  0
LINE
  5
170
330
1F
100
AcDbEntity
  8
1-1
  6
JWW_DASHED1
 62
     2
370
     9
100
AcDbLine
 10
371.081048089105
 20
731.8108965899495
 30
0.0
 11
371.081048089105
 21
811.8109130859375
 31
0.0
  0
LINE
  5
171
330
1F
100
AcDbEntity
  8
1-1
  6
JWW_DASHED1
 62
     2
370
     9
100
AcDbLine
 10
-1598.918770455025
 20
811.8109130859375
 30
0.0
 11
371.081048089105
 21
811.8109130859375
 31
0.0
  0
LINE
  5
172
330
1F
100
AcDbEntity
  8
1-1
  6
JWW_DASHED1
 62
     2
370
     9
100
AcDbLine
 10
-1598.918770455025
 20
99.8107415276607
 30
0.0
 11
-1598.918770455025
 21
19.8107250316724
 31
0.0
  0
LINE
  5
173
330
1F
100
AcDbEntity
  8
1-1
  6
JWW_DASHED1
 62
     2
370
     9
100
AcDbLine
 10
-1598.918770455025
 20
99.8107415276607
 30
0.0
 11
371.081048089105
 21
99.8107415276607
 31
0.0
  0
LINE
  5
174
330
1F
100
AcDbEntity
  8
1-1
  6
JWW_DASHED1
 62
     2
370
     9
100
AcDbLine
 10
371.081048089105
 20
99.8107415276607
 30
0.0
 11
371.081048089105
 21
19.8107250316724
 31
0.0
  0
LINE
  5
175
330
1F
100
AcDbEntity
  8
1-1
  6
JWW_DASHED1
 62
     2
370
     9
100
AcDbLine
 10
-1598.918770455025
 20
19.8107250316724
 30
0.0
 11
371.081048089105
 21
19.8107250316724
 31
0.0
  0
LINE
  5
176
330
1F
100
AcDbEntity
  8
1-4
  6
Continuous
 62
     7
370
     9
100
AcDbLine
 10
-1608.918803447002
 20
-131.4858596389357
 30
0.0
 11
381.0810810810813
 21
-131.4858596389357
 31
0.0
  0
LINE
  5
177
330
1F
100
AcDbEntity
  8
1-4
  6
Continuous
 62
     7
370
     9
100
AcDbLine
 10
-1608.918803447002
 20
-19.18913145323046
 30
0.0
 11
-1608.918803447002
 21
-134.4858200485641
 31
0.0
  0
LINE
  5
178
330
1F
100
AcDbEntity
  8
1-4
  6
Continuous
 62
     7
370
     9
100
AcDbLine
 10
381.0810810810813
 20
-19.18913145323046
 30
0.0
 11
381.0810810810813
 21
-134.4858200485641
 31
0.0
  0
LINE
  5
179
330
1F
100
AcDbEntity
  8
1-4
  6
Continuous
 62
     7
370
     9
100
AcDbLine
 10
813.5135959934547
 20
-131.4858596389357
 30
0.0
 11
1003.513480521538
 21
-131.4858596389357
 31
0.0
  0
LINE
  5
17A
330
1F
100
AcDbEntity
  8
1-4
  6
Continuous
 62
     7
370
     9
100
AcDbLine
 10
813.5135959934547
 20
-19.18913145323046
 30
0.0
 11
813.5135959934547
 21
-214.4858365445523
 31
0.0
  0
LINE
  5
17B
330
1F
100
AcDbEntity
  8
1-4
  6
Continuous
 62
     7
370
     9
100
AcDbLine
 10
863.5135135135135
 20
-19.18913145323046
 30
0.0
 11
863.5135135135135
 21
-134.4858200485641
 31
0.0
  0
LINE
  5
17C
330
1F
100
AcDbEntity
  8
1-4
  6
Continuous
 62
     7
370
     9
100
AcDbLine
 10
1003.513480521538
 20
7.61058085673568
 30
0.0
 11
1003.513480521538
 21
-214.4858365445523
 31
0.0
  0
LINE
  5
17D
330
1F
100
AcDbEntity
  8
1-4
  6
Continuous
 62
     7
370
     9
100
AcDbLine
 10
813.5135959934547
 20
-211.4859998548353
 30
0.0
 11
1003.513233081715
 21
-211.4859998548353
 31
0.0
  0
LINE
  5
17E
330
1F
100
AcDbEntity
  8
1-4
  6
Continuous
 62
     7
370
     9
100
AcDbLine
 10
713.5135135135135
 20
5.810827306798956
 30
0.0
 11
713.5135135135135
 21
825.810810810811
 31
0.0
  0
LINE
  5
17F
330
1F
100
AcDbEntity
  8
1-4
  6
Continuous
 62
     7
370
     9
100
AcDbLine
 10
788.5135135135135
 20
5.810827306798956
 30
0.0
 11
710.5135531038854
 21
5.810827306798956
 31
0.0
  0
LINE
  5
180
330
1F
100
AcDbEntity
  8
1-4
  6
Continuous
 62
     7
370
     9
100
AcDbLine
 10
788.5135135135135
 20
825.810810810811
 30
0.0
 11
710.5135531038854
 21
825.810810810811
 31
0.0
  0
LINE
  5
181
330
1F
100
AcDbEntity
  8
1-4
  6
Continuous
 62
     7
370
     9
100
AcDbLine
 10
888.5135959934547
 20
5.810827306798956
 30
0.0
 11
1106.513275971284
 21
5.810827306798956
 31
0.0
  0
LINE
  5
182
330
1F
100
AcDbEntity
  8
1-4
  6
Continuous
 62
     7
370
     9
100
AcDbLine
 10
1015.713500976562
 20
19.81060131176093
 30
0.0
 11
1106.513275971284
 21
19.81060131176093
 31
0.0
  0
LINE
  5
183
330
1F
100
AcDbEntity
  8
1-4
  6
Continuous
 62
     7
370
     9
100
AcDbLine
 10
1015.713500976562
 20
99.81049408783804
 30
0.0
 11
1106.513275971284
 21
99.81049408783804
 31
0.0
  0
LINE
  5
184
330
1F
100
AcDbEntity
  8
1-4
  6
Continuous
 62
     7
370
     9
100
AcDbLine
 10
1015.713500976562
 20
731.8108965899495
 30
0.0
 11
1106.513275971284
 21
731.8108965899495
 31
0.0
  0
LINE
  5
185
330
1F
100
AcDbEntity
  8
1-4
  6
Continuous
 62
     7
370
     9
100
AcDbLine
 10
1015.713500976562
 20
811.8111605257602
 30
0.0
 11
1106.513275971284
 21
811.8111605257602
 31
0.0
  0
LINE
  5
186
330
1F
100
AcDbEntity
  8
1-4
  6
Continuous
 62
     7
370
     9
100
AcDbLine
 10
888.5135959934547
 20
825.810810810811
 30
0.0
 11
1106.513275971284
 21
825.810810810811
 31
0.0
  0
LINE
  5
187
330
1F
100
AcDbEntity
  8
1-4
  6
Continuous
 62
     7
370
     9
100
AcDbLine
 10
1103.513315561656
 20
-53.04050754856405
 30
0.0
 11
1103.513315561656
 21
878.3625752217063
 31
0.0
  0
LINE
  5
188
330
1F
100
AcDbEntity
  8
1-4
  6
Continuous
 62
     7
370
     9
100
AcDbLine
 10
928.5134805215375
 20
811.8109130859375
 30
0.0
 11
938.0804938239021
 21
834.9079358899917
 31
0.0
  0
LINE
  5
189
330
1F
100
AcDbEntity
  8
1-4
  6
Continuous
 62
     7
370
     9
100
AcDbLine
 10
928.5134805215375
 20
811.8109130859375
 30
0.0
 11
943.7327616923568
 21
831.6446995090794
 31
0.0
  0
LINE
  5
18A
330
1F
100
AcDbEntity
  8
1-4
  6
Continuous
 62
     7
370
     9
100
AcDbLine
 10
-1096.567803460198
 20
1085.810926282728
 30
0.0
 11
-630.8959548537794
 21
1085.810926282728
 31
0.0
  0
LINE
  5
18B
330
1F
100
AcDbEntity
  8
1-4
  6
Continuous
 62
     7
370
     9
100
AcDbLine
 10
-1028.936066498627
 20
1005.81090978674
 30
0.0
 11
-650.8664517789273
 21
1005.81090978674
 31
0.0
  0
LINE
  5
18C
330
1F
100
AcDbEntity
  8
1-4
  6
Continuous
 62
     7
370
     9
100
AcDbLine
 10
-959.2802717879011
 20
925.8108932907519
 30
0.0
 11
-499.6768848316088
 21
925.8108932907519
 31
0.0
  0
LINE
  5
18D
330
1F
100
AcDbEntity
  8
1-4
  6
Continuous
 62
     7
370
     9
100
AcDbLine
 10
928.5134805215375
 20
811.8109130859375
 30
0.0
 11
1040.519590635558
 21
1005.81090978674
 31
0.0
  0
LINE
  5
18E
330
1F
100
AcDbEntity
  8
1-4
  6
Continuous
 62
     7
370
     9
100
AcDbLine
 10
1040.519590635558
 20
1005.81090978674
 30
0.0
 11
1624.267000765414
 21
1005.81090978674
 31
0.0
  0
LINE
  5
18F
330
1F
100
AcDbEntity
  8
1-2
  6
Continuous
 62
     3
370
     9
100
AcDbLine
 10
381.0810810810813
 20
721.8103687183279
 30
0.0
 11
-1608.918803447002
 21
721.8103687183279
 31
0.0
  0
LINE
  5
190
330
1F
100
AcDbEntity
  8
1-2
  6
Continuous
 62
     3
370
     9
100
AcDbLine
 10
810.5133881440037
 20
128.980432458826
 30
0.0
 11
813.5135959934547
 21
127.9580111116977
 31
0.0
  0
LINE
  5
191
330
1F
100
AcDbEntity
  8
1-5
  6
Continuous
 62
     7
370
     9
100
AcDbLine
 10
-1028.936066498627
 20
1005.81090978674
 30
0.0
 11
-1109.722323031039
 21
721.8103687183279
 31
0.0
  0
LINE
  5
192
330
1F
100
AcDbEntity
  8
1-2
  6
Continuous
 62
     3
370
     9
100
AcDbLine
 10
813.5135959934547
 20
825.810810810811
 30
0.0
 11
851.513671875
 21
825.810810810811
 31
0.0
  0
LINE
  5
193
330
1F
100
AcDbEntity
  8
1-2
  6
Continuous
 62
     3
370
     9
100
AcDbLine
 10
813.5135959934547
 20
816.8106821421031
 30
0.0
 11
863.5135135135135
 21
816.8106821421031
 31
0.0
  0
LINE
  5
194
330
1F
100
AcDbEntity
  8
1-2
  6
Continuous
 62
     3
370
     9
100
AcDbLine
 10
851.513671875
 20
825.810810810811
 30
0.0
 11
851.513671875
 21
816.8106821421031
 31
0.0
  0
LINE
  5
195
330
1F
100
AcDbEntity
  8
1-2
  6
Continuous
 62
     3
370
     9
100
AcDbLine
 10
813.5135959934547
 20
5.810827306798956
 30
0.0
 11
851.513671875
 21
5.810827306798956
 31
0.0
  0
LINE
  5
196
330
1F
100
AcDbEntity
  8
1-2
  6
Continuous
 62
     3
370
     9
100
AcDbLine
 10
851.513671875
 20
14.81095597550677
 30
0.0
 11
851.513671875
 21
5.810827306798956
 31
0.0
  0
LINE
  5
197
330
1F
100
AcDbEntity
  8
1-2
  6
Continuous
 62
     3
370
     9
100
AcDbLine
 10
813.5135959934547
 20
14.81095597550677
 30
0.0
 11
863.5135135135135
 21
14.81095597550677
 31
0.0
  0
LINE
  5
198
330
1F
100
AcDbEntity
  8
1-2
  6
Continuous
 62
     3
370
     9
100
AcDbLine
 10
863.5135135135135
 20
816.8106821421031
 30
0.0
 11
863.5135135135135
 21
14.81095597550677
 31
0.0
  0
LINE
  5
199
330
1F
100
AcDbEntity
  8
1-4
  6
Continuous
 62
     7
370
     9
100
AcDbLine
 10
16.14099451013516
 20
869.8296129381336
 30
0.0
 11
46.02133261190886
 21
869.8296129381336
 31
0.0
  0
LINE
  5
19A
330
1F
100
AcDbEntity
  8
1-4
  6
Continuous
 62
     7
370
     9
100
AcDbLine
 10
16.14099451013516
 20
772.5894742398651
 30
0.0
 11
16.14099451013516
 21
872.829573347762
 31
0.0
  0
LINE
  5
19B
330
1F
100
AcDbEntity
  8
1-4
  6
Continuous
 62
     7
370
     9
100
AcDbLine
 10
46.02133261190886
 20
772.5894742398651
 30
0.0
 11
46.02133261190886
 21
872.829573347762
 31
0.0
  0
LINE
  5
19C
330
1F
100
AcDbEntity
  8
1-2
  6
Continuous
 62
     3
370
     9
100
AcDbLine
 10
381.0810810810813
 20
509.8109807194891
 30
0.0
 11
-1608.918803447002
 21
509.8109807194891
 31
0.0
  0
LINE
  5
19D
330
1F
100
AcDbEntity
  8
1-2
  6
Continuous
 62
     3
370
     9
100
AcDbLine
 10
381.0810810810813
 20
521.8108223580026
 30
0.0
 11
-1608.918803447002
 21
521.8108223580026
 31
0.0
  0
LINE
  5
19E
330
1F
100
AcDbEntity
  8
1-2
  6
Continuous
 62
     3
370
     9
100
AcDbLine
 10
-1598.91827557538
 20
321.8106573981208
 30
0.0
 11
-1598.91827557538
 21
509.8109807194891
 31
0.0
  0
LINE
  5
19F
330
1F
100
AcDbEntity
  8
1-2
  6
Continuous
 62
     3
370
     9
100
AcDbLine
 10
-1598.91827557538
 20
521.8108223580026
 30
0.0
 11
-1598.91827557538
 21
709.8105270798144
 31
0.0
  0
LINE
  5
1A0
330
1F
100
AcDbEntity
  8
1-2
  6
Continuous
 62
     3
370
     9
100
AcDbLine
 10
-1578.917838431693
 20
321.8106573981208
 30
0.0
 11
-1578.917838431693
 21
509.8109807194891
 31
0.0
  0
LINE
  5
1A1
330
1F
100
AcDbEntity
  8
1-2
  6
Continuous
 62
     3
370
     9
100
AcDbLine
 10
-1578.917838431693
 20
521.8108223580026
 30
0.0
 11
-1578.917838431693
 21
709.8105270798144
 31
0.0
  0
LINE
  5
1A2
330
1F
100
AcDbEntity
  8
1-2
  6
Continuous
 62
     3
370
     9
100
AcDbLine
 10
-1568.918300319362
 20
321.8106573981208
 30
0.0
 11
-1568.918300319362
 21
509.8109807194891
 31
0.0
  0
LINE
  5
1A3
330
1F
100
AcDbEntity
  8
1-2
  6
Continuous
 62
     3
370
     9
100
AcDbLine
 10
-1568.918300319362
 20
521.8108223580026
 30
0.0
 11
-1568.918300319362
 21
709.8105270798144
 31
0.0
  0
LINE
  5
1A4
330
1F
100
AcDbEntity
  8
1-2
  6
Continuous
 62
     3
370
     9
100
AcDbLine
 10
371.08154296875
 20
321.8106573981208
 30
0.0
 11
371.08154296875
 21
509.8109807194891
 31
0.0
  0
LINE
  5
1A5
330
1F
100
AcDbEntity
  8
1-2
  6
Continuous
 62
     3
370
     9
100
AcDbLine
 10
371.08154296875
 20
521.8108223580026
 30
0.0
 11
371.08154296875
 21
709.8105270798144
 31
0.0
  0
LINE
  5
1A6
330
1F
100
AcDbEntity
  8
1-5
  6
Continuous
 62
     7
370
     9
100
AcDbLine
 10
-959.2802717879011
 20
925.8108932907519
 30
0.0
 11
-1000.545316129117
 21
790.9611387510557
 31
0.0
  0
LINE
  5
1A7
330
1F
100
AcDbEntity
  8
1-5
  6
Continuous
 62
     7
370
     9
100
AcDbLine
 10
-1096.567803460198
 20
1085.810926282728
 30
0.0
 11
-1176.129851470123
 21
825.810810810811
 31
0.0
  0
LINE
  5
1A8
330
1F
100
AcDbEntity
  8
1-4
  6
Continuous
 62
     7
370
     9
100
AcDbLine
 10
-1176.129851470123
 20
825.810810810811
 30
0.0
 11
-1171.997358992293
 21
850.4669519372891
 31
0.0
  0
LINE
  5
1A9
330
1F
100
AcDbEntity
  8
1-4
  6
Continuous
 62
     7
370
     9
100
AcDbLine
 10
-1176.129851470123
 20
825.810810810811
 30
0.0
 11
-1165.756679225612
 21
848.5572113861908
 31
0.0
  0
LINE
  5
1AA
330
1F
100
AcDbEntity
  8
1-4
  6
Continuous
 62
     7
370
     9
100
AcDbLine
 10
-1000.545316129117
 20
790.9611387510557
 30
0.0
 11
-996.4128236512879
 21
815.6172798775339
 31
0.0
  0
LINE
  5
1AB
330
1F
100
AcDbEntity
  8
1-4
  6
Continuous
 62
     7
370
     9
100
AcDbLine
 10
-1000.545316129117
 20
790.9611387510557
 30
0.0
 11
-990.1722676045185
 21
813.707539326436
 31
0.0
  0
LINE
  5
1AC
330
1F
100
AcDbEntity
  8
1-2
  6
Continuous
 62
     3
370
     9
100
AcDbLine
 10
822.5137246621625
 20
816.8106821421031
 30
0.0
 11
822.5137246621625
 21
721.4674171241554
 31
0.0
  0
LINE
  5
1AD
330
1F
100
AcDbEntity
  8
1-2
  6
Continuous
 62
     3
370
     9
100
AcDbLine
 10
824.5135333086995
 20
816.8106821421031
 30
0.0
 11
824.5135333086995
 21
720.2826752533783
 31
0.0
  0
LINE
  5
1AE
330
1F
100
AcDbEntity
  8
1-2
  6
Continuous
 62
     3
370
     9
100
AcDbLine
 10
822.5137246621625
 20
710.1539735536318
 30
0.0
 11
822.5137246621625
 21
521.4672521642738
 31
0.0
  0
LINE
  5
1AF
330
1F
100
AcDbEntity
  8
1-2
  6
Continuous
 62
     3
370
     9
100
AcDbLine
 10
824.5135333086995
 20
711.3387154244089
 30
0.0
 11
824.5135333086995
 21
520.2825102934967
 31
0.0
  0
LINE
  5
1B0
330
1F
100
AcDbEntity
  8
1-2
  6
Continuous
 62
     3
370
     9
100
AcDbLine
 10
822.5137246621625
 20
510.15380859375
 30
0.0
 11
822.5137246621625
 21
321.4673346442146
 31
0.0
  0
LINE
  5
1B1
330
1F
100
AcDbEntity
  8
1-2
  6
Continuous
 62
     3
370
     9
100
AcDbLine
 10
824.5135333086995
 20
511.3385504645271
 30
0.0
 11
824.5135333086995
 21
320.282716493349
 31
0.0
  0
LINE
  5
1B2
330
1F
100
AcDbEntity
  8
1-2
  6
Continuous
 62
     3
370
     9
100
AcDbLine
 10
822.5137246621625
 20
310.1538910736909
 30
0.0
 11
822.5137246621625
 21
14.81095597550677
 31
0.0
  0
LINE
  5
1B3
330
1F
100
AcDbEntity
  8
1-2
  6
Continuous
 62
     3
370
     9
100
AcDbLine
 10
824.5135333086995
 20
311.338632944468
 30
0.0
 11
824.5135333086995
 21
14.81095597550677
 31
0.0
  0
LINE
  5
1B4
330
1F
100
AcDbEntity
  8
1-2
  6
Continuous
 62
     3
370
     9
100
AcDbLine
 10
-1608.918803447002
 20
5.810827306798956
 30
0.0
 11
-1608.918803447002
 21
825.810810810811
 31
0.0
  0
LINE
  5
1B5
330
1F
100
AcDbEntity
  8
1-2
  6
Continuous
 62
     3
370
     9
100
AcDbLine
 10
381.0810810810813
 20
5.810827306798956
 30
0.0
 11
381.0810810810813
 21
825.810810810811
 31
0.0
  0
LINE
  5
1B6
330
1F
100
AcDbEntity
  8
1-2
  6
Continuous
 62
     3
370
     9
100
AcDbLine
 10
813.5135959934547
 20
117.7315706820102
 30
0.0
 11
813.5135959934547
 21
114.8110384554477
 31
0.0
  0
LINE
  5
1B7
330
1F
100
AcDbEntity
  8
1-1
  6
JWW_DASHED1
 62
     2
370
     9
100
AcDbLine
 10
-1598.918770455025
 20
19.8107250316724
 30
0.0
 11
-1598.918770455025
 21
99.8107415276607
 31
0.0
  0
LINE
  5
1B8
330
1F
100
AcDbEntity
  8
1-1
  6
JWW_DASHED1
 62
     2
370
     9
100
AcDbLine
 10
371.081048089105
 20
19.8107250316724
 30
0.0
 11
371.081048089105
 21
99.8107415276607
 31
0.0
  0
LINE
  5
1B9
330
1F
100
AcDbEntity
  8
1-4
  6
Continuous
 62
     7
370
     9
100
AcDbLine
 10
-1109.722323031039
 20
721.8103687183279
 30
0.0
 11
-1107.06692257443
 21
746.669163059544
 31
0.0
  0
LINE
  5
1BA
330
1F
100
AcDbEntity
  8
1-4
  6
Continuous
 62
     7
370
     9
100
AcDbLine
 10
-1109.722323031039
 20
721.8103687183279
 30
0.0
 11
-1100.723555281355
 21
745.134541279561
 31
0.0
  0
LINE
  5
1BB
330
1F
100
AcDbEntity
  8
1-2
  6
Continuous
 62
     3
370
     9
100
AcDbLine
 10
-1548.917863175675
 20
721.8103687183279
 30
0.0
 11
-1548.917863175675
 21
816.8101872624578
 31
0.0
  0
LINE
  5
1BC
330
1F
100
AcDbEntity
  8
1-2
  6
Continuous
 62
     3
370
     9
100
AcDbLine
 10
-1538.918325063345
 20
721.8103687183279
 30
0.0
 11
-1538.918325063345
 21
816.8101872624578
 31
0.0
  0
LINE
  5
1BD
330
1F
100
AcDbEntity
  8
1-2
  6
Continuous
 62
     3
370
     9
100
AcDbLine
 10
-1548.917863175675
 20
321.8106573981208
 30
0.0
 11
-1548.917863175675
 21
509.8109807194891
 31
0.0
  0
LINE
  5
1BE
330
1F
100
AcDbEntity
  8
1-2
  6
Continuous
 62
     3
370
     9
100
AcDbLine
 10
-1548.917863175675
 20
521.8108223580026
 30
0.0
 11
-1548.917863175675
 21
709.8105270798144
 31
0.0
  0
LINE
  5
1BF
330
1F
100
AcDbEntity
  8
1-2
  6
Continuous
 62
     3
370
     9
100
AcDbLine
 10
-1538.918325063345
 20
321.8106573981208
 30
0.0
 11
-1538.918325063345
 21
509.8109807194891
 31
0.0
  0
LINE
  5
1C0
330
1F
100
AcDbEntity
  8
1-2
  6
Continuous
 62
     3
370
     9
100
AcDbLine
 10
-1538.918325063345
 20
521.8108223580026
 30
0.0
 11
-1538.918325063345
 21
709.8105270798144
 31
0.0
  0
LINE
  5
1C1
330
1F
100
AcDbEntity
  8
1-2
  6
Continuous
 62
     3
370
     9
100
AcDbLine
 10
-1518.917764199747
 20
721.8103687183279
 30
0.0
 11
-1518.917764199747
 21
816.8101872624578
 31
0.0
  0
LINE
  5
1C2
330
1F
100
AcDbEntity
  8
1-2
  6
Continuous
 62
     3
370
     9
100
AcDbLine
 10
-1508.918226087416
 20
721.8103687183279
 30
0.0
 11
-1508.918226087416
 21
816.8101872624578
 31
0.0
  0
LINE
  5
1C3
330
1F
100
AcDbEntity
  8
1-2
  6
Continuous
 62
     3
370
     9
100
AcDbLine
 10
-1518.917764199747
 20
321.8106573981208
 30
0.0
 11
-1518.917764199747
 21
509.8109807194891
 31
0.0
  0
LINE
  5
1C4
330
1F
100
AcDbEntity
  8
1-2
  6
Continuous
 62
     3
370
     9
100
AcDbLine
 10
-1518.917764199747
 20
521.8108223580026
 30
0.0
 11
-1518.917764199747
 21
709.8105270798144
 31
0.0
  0
LINE
  5
1C5
330
1F
100
AcDbEntity
  8
1-2
  6
Continuous
 62
     3
370
     9
100
AcDbLine
 10
-1508.918226087416
 20
321.8106573981208
 30
0.0
 11
-1508.918226087416
 21
509.8109807194891
 31
0.0
  0
LINE
  5
1C6
330
1F
100
AcDbEntity
  8
1-2
  6
Continuous
 62
     3
370
     9
100
AcDbLine
 10
-1508.918226087416
 20
521.8108223580026
 30
0.0
 11
-1508.918226087416
 21
709.8105270798144
 31
0.0
  0
LINE
  5
1C7
330
1F
100
AcDbEntity
  8
1-2
  6
Continuous
 62
     3
370
     9
100
AcDbLine
 10
-1488.917788943729
 20
721.8103687183279
 30
0.0
 11
-1488.917788943729
 21
816.8101872624578
 31
0.0
  0
LINE
  5
1C8
330
1F
100
AcDbEntity
  8
1-2
  6
Continuous
 62
     3
370
     9
100
AcDbLine
 10
-1478.918250831398
 20
721.8103687183279
 30
0.0
 11
-1478.918250831398
 21
816.8101872624578
 31
0.0
  0
LINE
  5
1C9
330
1F
100
AcDbEntity
  8
1-2
  6
Continuous
 62
     3
370
     9
100
AcDbLine
 10
-1488.917788943729
 20
321.8106573981208
 30
0.0
 11
-1488.917788943729
 21
509.8109807194891
 31
0.0
  0
LINE
  5
1CA
330
1F
100
AcDbEntity
  8
1-2
  6
Continuous
 62
     3
370
     9
100
AcDbLine
 10
-1488.917788943729
 20
521.8108223580026
 30
0.0
 11
-1488.917788943729
 21
709.8105270798144
 31
0.0
  0
LINE
  5
1CB
330
1F
100
AcDbEntity
  8
1-2
  6
Continuous
 62
     3
370
     9
100
AcDbLine
 10
-1478.918250831398
 20
321.8106573981208
 30
0.0
 11
-1478.918250831398
 21
509.8109807194891
 31
0.0
  0
LINE
  5
1CC
330
1F
100
AcDbEntity
  8
1-2
  6
Continuous
 62
     3
370
     9
100
AcDbLine
 10
-1478.918250831398
 20
521.8108223580026
 30
0.0
 11
-1478.918250831398
 21
709.8105270798144
 31
0.0
  0
LINE
  5
1CD
330
1F
100
AcDbEntity
  8
1-2
  6
Continuous
 62
     3
370
     9
100
AcDbLine
 10
-1458.917813687711
 20
721.8103687183279
 30
0.0
 11
-1458.917813687711
 21
816.8101872624578
 31
0.0
  0
LINE
  5
1CE
330
1F
100
AcDbEntity
  8
1-2
  6
Continuous
 62
     3
370
     9
100
AcDbLine
 10
-1448.91827557538
 20
721.8103687183279
 30
0.0
 11
-1448.91827557538
 21
816.8101872624578
 31
0.0
  0
LINE
  5
1CF
330
1F
100
AcDbEntity
  8
1-2
  6
Continuous
 62
     3
370
     9
100
AcDbLine
 10
-1458.917813687711
 20
321.8106573981208
 30
0.0
 11
-1458.917813687711
 21
509.8109807194891
 31
0.0
  0
LINE
  5
1D0
330
1F
100
AcDbEntity
  8
1-2
  6
Continuous
 62
     3
370
     9
100
AcDbLine
 10
-1458.917813687711
 20
521.8108223580026
 30
0.0
 11
-1458.917813687711
 21
709.8105270798144
 31
0.0
  0
LINE
  5
1D1
330
1F
100
AcDbEntity
  8
1-2
  6
Continuous
 62
     3
370
     9
100
AcDbLine
 10
-1448.91827557538
 20
321.8106573981208
 30
0.0
 11
-1448.91827557538
 21
509.8109807194891
 31
0.0
  0
LINE
  5
1D2
330
1F
100
AcDbEntity
  8
1-2
  6
Continuous
 62
     3
370
     9
100
AcDbLine
 10
-1448.91827557538
 20
521.8108223580026
 30
0.0
 11
-1448.91827557538
 21
709.8105270798144
 31
0.0
  0
LINE
  5
1D3
330
1F
100
AcDbEntity
  8
1-2
  6
Continuous
 62
     3
370
     9
100
AcDbLine
 10
-1428.917714711782
 20
721.8103687183279
 30
0.0
 11
-1428.917714711782
 21
816.8101872624578
 31
0.0
  0
LINE
  5
1D4
330
1F
100
AcDbEntity
  8
1-2
  6
Continuous
 62
     3
370
     9
100
AcDbLine
 10
-1418.918176599451
 20
721.8103687183279
 30
0.0
 11
-1418.918176599451
 21
816.8101872624578
 31
0.0
  0
LINE
  5
1D5
330
1F
100
AcDbEntity
  8
1-2
  6
Continuous
 62
     3
370
     9
100
AcDbLine
 10
-1428.917714711782
 20
321.8106573981208
 30
0.0
 11
-1428.917714711782
 21
509.8109807194891
 31
0.0
  0
LINE
  5
1D6
330
1F
100
AcDbEntity
  8
1-2
  6
Continuous
 62
     3
370
     9
100
AcDbLine
 10
-1428.917714711782
 20
521.8108223580026
 30
0.0
 11
-1428.917714711782
 21
709.8105270798144
 31
0.0
  0
LINE
  5
1D7
330
1F
100
AcDbEntity
  8
1-2
  6
Continuous
 62
     3
370
     9
100
AcDbLine
 10
-1418.918176599451
 20
321.8106573981208
 30
0.0
 11
-1418.918176599451
 21
509.8109807194891
 31
0.0
  0
LINE
  5
1D8
330
1F
100
AcDbEntity
  8
1-2
  6
Continuous
 62
     3
370
     9
100
AcDbLine
 10
-1418.918176599451
 20
521.8108223580026
 30
0.0
 11
-1418.918176599451
 21
709.8105270798144
 31
0.0
  0
LINE
  5
1D9
330
1F
100
AcDbEntity
  8
1-2
  6
Continuous
 62
     3
370
     9
100
AcDbLine
 10
-1398.917739455764
 20
721.8103687183279
 30
0.0
 11
-1398.917739455764
 21
816.8101872624578
 31
0.0
  0
LINE
  5
1DA
330
1F
100
AcDbEntity
  8
1-2
  6
Continuous
 62
     3
370
     9
100
AcDbLine
 10
-1388.918201343433
 20
721.8103687183279
 30
0.0
 11
-1388.918201343433
 21
816.8101872624578
 31
0.0
  0
LINE
  5
1DB
330
1F
100
AcDbEntity
  8
1-2
  6
Continuous
 62
     3
370
     9
100
AcDbLine
 10
-1398.917739455764
 20
321.8106573981208
 30
0.0
 11
-1398.917739455764
 21
509.8109807194891
 31
0.0
  0
LINE
  5
1DC
330
1F
100
AcDbEntity
  8
1-2
  6
Continuous
 62
     3
370
     9
100
AcDbLine
 10
-1398.917739455764
 20
521.8108223580026
 30
0.0
 11
-1398.917739455764
 21
709.8105270798144
 31
0.0
  0
LINE
  5
1DD
330
1F
100
AcDbEntity
  8
1-2
  6
Continuous
 62
     3
370
     9
100
AcDbLine
 10
-1388.918201343433
 20
321.8106573981208
 30
0.0
 11
-1388.918201343433
 21
509.8109807194891
 31
0.0
  0
LINE
  5
1DE
330
1F
100
AcDbEntity
  8
1-2
  6
Continuous
 62
     3
370
     9
100
AcDbLine
 10
-1388.918201343433
 20
521.8108223580026
 30
0.0
 11
-1388.918201343433
 21
709.8105270798144
 31
0.0
  0
LINE
  5
1DF
330
1F
100
AcDbEntity
  8
1-2
  6
Continuous
 62
     3
370
     9
100
AcDbLine
 10
-1368.917764199747
 20
721.8103687183279
 30
0.0
 11
-1368.917764199747
 21
816.8101872624578
 31
0.0
  0
LINE
  5
1E0
330
1F
100
AcDbEntity
  8
1-2
  6
Continuous
 62
     3
370
     9
100
AcDbLine
 10
-1358.918226087416
 20
721.8103687183279
 30
0.0
 11
-1358.918226087416
 21
816.8101872624578
 31
0.0
  0
LINE
  5
1E1
330
1F
100
AcDbEntity
  8
1-2
  6
Continuous
 62
     3
370
     9
100
AcDbLine
 10
-1368.917764199747
 20
321.8106573981208
 30
0.0
 11
-1368.917764199747
 21
509.8109807194891
 31
0.0
  0
LINE
  5
1E2
330
1F
100
AcDbEntity
  8
1-2
  6
Continuous
 62
     3
370
     9
100
AcDbLine
 10
-1368.917764199747
 20
521.8108223580026
 30
0.0
 11
-1368.917764199747
 21
709.8105270798144
 31
0.0
  0
LINE
  5
1E3
330
1F
100
AcDbEntity
  8
1-2
  6
Continuous
 62
     3
370
     9
100
AcDbLine
 10
-1358.918226087416
 20
321.8106573981208
 30
0.0
 11
-1358.918226087416
 21
509.8109807194891
 31
0.0
  0
LINE
  5
1E4
330
1F
100
AcDbEntity
  8
1-2
  6
Continuous
 62
     3
370
     9
100
AcDbLine
 10
-1358.918226087416
 20
521.8108223580026
 30
0.0
 11
-1358.918226087416
 21
709.8105270798144
 31
0.0
  0
LINE
  5
1E5
330
1F
100
AcDbEntity
  8
1-2
  6
Continuous
 62
     3
370
     9
100
AcDbLine
 10
-1338.917788943729
 20
721.8103687183279
 30
0.0
 11
-1338.917788943729
 21
816.8101872624578
 31
0.0
  0
LINE
  5
1E6
330
1F
100
AcDbEntity
  8
1-2
  6
Continuous
 62
     3
370
     9
100
AcDbLine
 10
-1328.918250831398
 20
721.8103687183279
 30
0.0
 11
-1328.918250831398
 21
816.8101872624578
 31
0.0
  0
LINE
  5
1E7
330
1F
100
AcDbEntity
  8
1-2
  6
Continuous
 62
     3
370
     9
100
AcDbLine
 10
-1338.917788943729
 20
321.8106573981208
 30
0.0
 11
-1338.917788943729
 21
509.8109807194891
 31
0.0
  0
LINE
  5
1E8
330
1F
100
AcDbEntity
  8
1-2
  6
Continuous
 62
     3
370
     9
100
AcDbLine
 10
-1338.917788943729
 20
521.8108223580026
 30
0.0
 11
-1338.917788943729
 21
709.8105270798144
 31
0.0
  0
LINE
  5
1E9
330
1F
100
AcDbEntity
  8
1-2
  6
Continuous
 62
     3
370
     9
100
AcDbLine
 10
-1328.918250831398
 20
321.8106573981208
 30
0.0
 11
-1328.918250831398
 21
509.8109807194891
 31
0.0
  0
LINE
  5
1EA
330
1F
100
AcDbEntity
  8
1-2
  6
Continuous
 62
     3
370
     9
100
AcDbLine
 10
-1328.918250831398
 20
521.8108223580026
 30
0.0
 11
-1328.918250831398
 21
709.8105270798144
 31
0.0
  0
LINE
  5
1EB
330
1F
100
AcDbEntity
  8
1-2
  6
Continuous
 62
     3
370
     9
100
AcDbLine
 10
-1308.917813687711
 20
721.8103687183279
 30
0.0
 11
-1308.917813687711
 21
816.8101872624578
 31
0.0
  0
LINE
  5
1EC
330
1F
100
AcDbEntity
  8
1-2
  6
Continuous
 62
     3
370
     9
100
AcDbLine
 10
-1298.91827557538
 20
721.8103687183279
 30
0.0
 11
-1298.91827557538
 21
816.8101872624578
 31
0.0
  0
LINE
  5
1ED
330
1F
100
AcDbEntity
  8
1-2
  6
Continuous
 62
     3
370
     9
100
AcDbLine
 10
-1308.917813687711
 20
321.8106573981208
 30
0.0
 11
-1308.917813687711
 21
509.8109807194891
 31
0.0
  0
LINE
  5
1EE
330
1F
100
AcDbEntity
  8
1-2
  6
Continuous
 62
     3
370
     9
100
AcDbLine
 10
-1308.917813687711
 20
521.8108223580026
 30
0.0
 11
-1308.917813687711
 21
709.8105270798144
 31
0.0
  0
LINE
  5
1EF
330
1F
100
AcDbEntity
  8
1-2
  6
Continuous
 62
     3
370
     9
100
AcDbLine
 10
-1298.91827557538
 20
321.8106573981208
 30
0.0
 11
-1298.91827557538
 21
509.8109807194891
 31
0.0
  0
LINE
  5
1F0
330
1F
100
AcDbEntity
  8
1-2
  6
Continuous
 62
     3
370
     9
100
AcDbLine
 10
-1298.91827557538
 20
521.8108223580026
 30
0.0
 11
-1298.91827557538
 21
709.8105270798144
 31
0.0
  0
LINE
  5
1F1
330
1F
100
AcDbEntity
  8
1-2
  6
Continuous
 62
     3
370
     9
100
AcDbLine
 10
-1278.917714711782
 20
721.8103687183279
 30
0.0
 11
-1278.917714711782
 21
816.8101872624578
 31
0.0
  0
LINE
  5
1F2
330
1F
100
AcDbEntity
  8
1-2
  6
Continuous
 62
     3
370
     9
100
AcDbLine
 10
-1268.918176599451
 20
721.8103687183279
 30
0.0
 11
-1268.918176599451
 21
816.8101872624578
 31
0.0
  0
LINE
  5
1F3
330
1F
100
AcDbEntity
  8
1-2
  6
Continuous
 62
     3
370
     9
100
AcDbLine
 10
-1278.917714711782
 20
321.8106573981208
 30
0.0
 11
-1278.917714711782
 21
509.8109807194891
 31
0.0
  0
LINE
  5
1F4
330
1F
100
AcDbEntity
  8
1-2
  6
Continuous
 62
     3
370
     9
100
AcDbLine
 10
-1278.917714711782
 20
521.8108223580026
 30
0.0
 11
-1278.917714711782
 21
709.8105270798144
 31
0.0
  0
LINE
  5
1F5
330
1F
100
AcDbEntity
  8
1-2
  6
Continuous
 62
     3
370
     9
100
AcDbLine
 10
-1268.918176599451
 20
321.8106573981208
 30
0.0
 11
-1268.918176599451
 21
509.8109807194891
 31
0.0
  0
LINE
  5
1F6
330
1F
100
AcDbEntity
  8
1-2
  6
Continuous
 62
     3
370
     9
100
AcDbLine
 10
-1268.918176599451
 20
521.8108223580026
 30
0.0
 11
-1268.918176599451
 21
709.8105270798144
 31
0.0
  0
LINE
  5
1F7
330
1F
100
AcDbEntity
  8
1-2
  6
Continuous
 62
     3
370
     9
100
AcDbLine
 10
-1248.917739455764
 20
721.8103687183279
 30
0.0
 11
-1248.917739455764
 21
816.8101872624578
 31
0.0
  0
LINE
  5
1F8
330
1F
100
AcDbEntity
  8
1-2
  6
Continuous
 62
     3
370
     9
100
AcDbLine
 10
-1238.918201343433
 20
721.8103687183279
 30
0.0
 11
-1238.918201343433
 21
816.8101872624578
 31
0.0
  0
LINE
  5
1F9
330
1F
100
AcDbEntity
  8
1-2
  6
Continuous
 62
     3
370
     9
100
AcDbLine
 10
-1248.917739455764
 20
321.8106573981208
 30
0.0
 11
-1248.917739455764
 21
509.8109807194891
 31
0.0
  0
LINE
  5
1FA
330
1F
100
AcDbEntity
  8
1-2
  6
Continuous
 62
     3
370
     9
100
AcDbLine
 10
-1248.917739455764
 20
521.8108223580026
 30
0.0
 11
-1248.917739455764
 21
709.8105270798144
 31
0.0
  0
LINE
  5
1FB
330
1F
100
AcDbEntity
  8
1-2
  6
Continuous
 62
     3
370
     9
100
AcDbLine
 10
-1238.918201343433
 20
321.8106573981208
 30
0.0
 11
-1238.918201343433
 21
509.8109807194891
 31
0.0
  0
LINE
  5
1FC
330
1F
100
AcDbEntity
  8
1-2
  6
Continuous
 62
     3
370
     9
100
AcDbLine
 10
-1238.918201343433
 20
521.8108223580026
 30
0.0
 11
-1238.918201343433
 21
709.8105270798144
 31
0.0
  0
LINE
  5
1FD
330
1F
100
AcDbEntity
  8
1-2
  6
Continuous
 62
     3
370
     9
100
AcDbLine
 10
-1218.917764199747
 20
721.8103687183279
 30
0.0
 11
-1218.917764199747
 21
816.8101872624578
 31
0.0
  0
LINE
  5
1FE
330
1F
100
AcDbEntity
  8
1-2
  6
Continuous
 62
     3
370
     9
100
AcDbLine
 10
-1208.918226087415
 20
721.8103687183279
 30
0.0
 11
-1208.918226087415
 21
816.8101872624578
 31
0.0
  0
LINE
  5
1FF
330
1F
100
AcDbEntity
  8
1-2
  6
Continuous
 62
     3
370
     9
100
AcDbLine
 10
-1218.917764199747
 20
321.8106573981208
 30
0.0
 11
-1218.917764199747
 21
509.8109807194891
 31
0.0
  0
LINE
  5
200
330
1F
100
AcDbEntity
  8
1-2
  6
Continuous
 62
     3
370
     9
100
AcDbLine
 10
-1218.917764199747
 20
521.8108223580026
 30
0.0
 11
-1218.917764199747
 21
709.8105270798144
 31
0.0
  0
LINE
  5
201
330
1F
100
AcDbEntity
  8
1-2
  6
Continuous
 62
     3
370
     9
100
AcDbLine
 10
-1208.918226087415
 20
321.8106573981208
 30
0.0
 11
-1208.918226087415
 21
509.8109807194891
 31
0.0
  0
LINE
  5
202
330
1F
100
AcDbEntity
  8
1-2
  6
Continuous
 62
     3
370
     9
100
AcDbLine
 10
-1208.918226087415
 20
521.8108223580026
 30
0.0
 11
-1208.918226087415
 21
709.8105270798144
 31
0.0
  0
LINE
  5
203
330
1F
100
AcDbEntity
  8
1-2
  6
Continuous
 62
     3
370
     9
100
AcDbLine
 10
-1188.917665223817
 20
721.8103687183279
 30
0.0
 11
-1188.917665223817
 21
816.8101872624578
 31
0.0
  0
LINE
  5
204
330
1F
100
AcDbEntity
  8
1-2
  6
Continuous
 62
     3
370
     9
100
AcDbLine
 10
-1178.918127111486
 20
721.8103687183279
 30
0.0
 11
-1178.918127111486
 21
816.8101872624578
 31
0.0
  0
LINE
  5
205
330
1F
100
AcDbEntity
  8
1-2
  6
Continuous
 62
     3
370
     9
100
AcDbLine
 10
-1188.917665223817
 20
321.8106573981208
 30
0.0
 11
-1188.917665223817
 21
509.8109807194891
 31
0.0
  0
LINE
  5
206
330
1F
100
AcDbEntity
  8
1-2
  6
Continuous
 62
     3
370
     9
100
AcDbLine
 10
-1188.917665223817
 20
521.8108223580026
 30
0.0
 11
-1188.917665223817
 21
709.8105270798144
 31
0.0
  0
LINE
  5
207
330
1F
100
AcDbEntity
  8
1-2
  6
Continuous
 62
     3
370
     9
100
AcDbLine
 10
-1178.918127111486
 20
321.8106573981208
 30
0.0
 11
-1178.918127111486
 21
509.8109807194891
 31
0.0
  0
LINE
  5
208
330
1F
100
AcDbEntity
  8
1-2
  6
Continuous
 62
     3
370
     9
100
AcDbLine
 10
-1178.918127111486
 20
521.8108223580026
 30
0.0
 11
-1178.918127111486
 21
709.8105270798144
 31
0.0
  0
LINE
  5
209
330
1F
100
AcDbEntity
  8
1-2
  6
Continuous
 62
     3
370
     9
100
AcDbLine
 10
-1158.9176899678
 20
721.8103687183279
 30
0.0
 11
-1158.9176899678
 21
816.8101872624578
 31
0.0
  0
LINE
  5
20A
330
1F
100
AcDbEntity
  8
1-2
  6
Continuous
 62
     3
370
     9
100
AcDbLine
 10
-1148.918151855469
 20
721.8103687183279
 30
0.0
 11
-1148.918151855469
 21
816.8101872624578
 31
0.0
  0
LINE
  5
20B
330
1F
100
AcDbEntity
  8
1-2
  6
Continuous
 62
     3
370
     9
100
AcDbLine
 10
-1158.9176899678
 20
321.8106573981208
 30
0.0
 11
-1158.9176899678
 21
509.8109807194891
 31
0.0
  0
LINE
  5
20C
330
1F
100
AcDbEntity
  8
1-2
  6
Continuous
 62
     3
370
     9
100
AcDbLine
 10
-1158.9176899678
 20
521.8108223580026
 30
0.0
 11
-1158.9176899678
 21
709.8105270798144
 31
0.0
  0
LINE
  5
20D
330
1F
100
AcDbEntity
  8
1-2
  6
Continuous
 62
     3
370
     9
100
AcDbLine
 10
-1148.918151855469
 20
321.8106573981208
 30
0.0
 11
-1148.918151855469
 21
509.8109807194891
 31
0.0
  0
LINE
  5
20E
330
1F
100
AcDbEntity
  8
1-2
  6
Continuous
 62
     3
370
     9
100
AcDbLine
 10
-1148.918151855469
 20
521.8108223580026
 30
0.0
 11
-1148.918151855469
 21
709.8105270798144
 31
0.0
  0
LINE
  5
20F
330
1F
100
AcDbEntity
  8
1-2
  6
Continuous
 62
     3
370
     9
100
AcDbLine
 10
-1128.917714711782
 20
721.8103687183279
 30
0.0
 11
-1128.917714711782
 21
816.8101872624578
 31
0.0
  0
LINE
  5
210
330
1F
100
AcDbEntity
  8
1-2
  6
Continuous
 62
     3
370
     9
100
AcDbLine
 10
-1118.918176599451
 20
721.8103687183279
 30
0.0
 11
-1118.918176599451
 21
816.8101872624578
 31
0.0
  0
LINE
  5
211
330
1F
100
AcDbEntity
  8
1-2
  6
Continuous
 62
     3
370
     9
100
AcDbLine
 10
-1128.917714711782
 20
321.8106573981208
 30
0.0
 11
-1128.917714711782
 21
509.8109807194891
 31
0.0
  0
LINE
  5
212
330
1F
100
AcDbEntity
  8
1-2
  6
Continuous
 62
     3
370
     9
100
AcDbLine
 10
-1128.917714711782
 20
521.8108223580026
 30
0.0
 11
-1128.917714711782
 21
709.8105270798144
 31
0.0
  0
LINE
  5
213
330
1F
100
AcDbEntity
  8
1-2
  6
Continuous
 62
     3
370
     9
100
AcDbLine
 10
-1118.918176599451
 20
321.8106573981208
 30
0.0
 11
-1118.918176599451
 21
509.8109807194891
 31
0.0
  0
LINE
  5
214
330
1F
100
AcDbEntity
  8
1-2
  6
Continuous
 62
     3
370
     9
100
AcDbLine
 10
-1118.918176599451
 20
521.8108223580026
 30
0.0
 11
-1118.918176599451
 21
709.8105270798144
 31
0.0
  0
LINE
  5
215
330
1F
100
AcDbEntity
  8
1-2
  6
Continuous
 62
     3
370
     9
100
AcDbLine
 10
-1098.917739455764
 20
721.8103687183279
 30
0.0
 11
-1098.917739455764
 21
816.8101872624578
 31
0.0
  0
LINE
  5
216
330
1F
100
AcDbEntity
  8
1-2
  6
Continuous
 62
     3
370
     9
100
AcDbLine
 10
-1088.918201343433
 20
721.8103687183279
 30
0.0
 11
-1088.918201343433
 21
816.8101872624578
 31
0.0
  0
LINE
  5
217
330
1F
100
AcDbEntity
  8
1-2
  6
Continuous
 62
     3
370
     9
100
AcDbLine
 10
-1098.917739455764
 20
321.8106573981208
 30
0.0
 11
-1098.917739455764
 21
509.8109807194891
 31
0.0
  0
LINE
  5
218
330
1F
100
AcDbEntity
  8
1-2
  6
Continuous
 62
     3
370
     9
100
AcDbLine
 10
-1098.917739455764
 20
521.8108223580026
 30
0.0
 11
-1098.917739455764
 21
709.8105270798144
 31
0.0
  0
LINE
  5
219
330
1F
100
AcDbEntity
  8
1-2
  6
Continuous
 62
     3
370
     9
100
AcDbLine
 10
-1088.918201343433
 20
321.8106573981208
 30
0.0
 11
-1088.918201343433
 21
509.8109807194891
 31
0.0
  0
LINE
  5
21A
330
1F
100
AcDbEntity
  8
1-2
  6
Continuous
 62
     3
370
     9
100
AcDbLine
 10
-1088.918201343433
 20
521.8108223580026
 30
0.0
 11
-1088.918201343433
 21
709.8105270798144
 31
0.0
  0
LINE
  5
21B
330
1F
100
AcDbEntity
  8
1-2
  6
Continuous
 62
     3
370
     9
100
AcDbLine
 10
-1068.917764199747
 20
721.8103687183279
 30
0.0
 11
-1068.917764199747
 21
816.8101872624578
 31
0.0
  0
LINE
  5
21C
330
1F
100
AcDbEntity
  8
1-2
  6
Continuous
 62
     3
370
     9
100
AcDbLine
 10
-1058.918226087415
 20
721.8103687183279
 30
0.0
 11
-1058.918226087415
 21
816.8101872624578
 31
0.0
  0
LINE
  5
21D
330
1F
100
AcDbEntity
  8
1-2
  6
Continuous
 62
     3
370
     9
100
AcDbLine
 10
-1068.917764199747
 20
321.8106573981208
 30
0.0
 11
-1068.917764199747
 21
509.8109807194891
 31
0.0
  0
LINE
  5
21E
330
1F
100
AcDbEntity
  8
1-2
  6
Continuous
 62
     3
370
     9
100
AcDbLine
 10
-1068.917764199747
 20
521.8108223580026
 30
0.0
 11
-1068.917764199747
 21
709.8105270798144
 31
0.0
  0
LINE
  5
21F
330
1F
100
AcDbEntity
  8
1-2
  6
Continuous
 62
     3
370
     9
100
AcDbLine
 10
-1058.918226087415
 20
321.8106573981208
 30
0.0
 11
-1058.918226087415
 21
509.8109807194891
 31
0.0
  0
LINE
  5
220
330
1F
100
AcDbEntity
  8
1-2
  6
Continuous
 62
     3
370
     9
100
AcDbLine
 10
-1058.918226087415
 20
521.8108223580026
 30
0.0
 11
-1058.918226087415
 21
709.8105270798144
 31
0.0
  0
LINE
  5
221
330
1F
100
AcDbEntity
  8
1-2
  6
Continuous
 62
     3
370
     9
100
AcDbLine
 10
-1038.917665223817
 20
721.8103687183279
 30
0.0
 11
-1038.917665223817
 21
816.8101872624578
 31
0.0
  0
LINE
  5
222
330
1F
100
AcDbEntity
  8
1-2
  6
Continuous
 62
     3
370
     9
100
AcDbLine
 10
-1028.918127111486
 20
721.8103687183279
 30
0.0
 11
-1028.918127111486
 21
816.8101872624578
 31
0.0
  0
LINE
  5
223
330
1F
100
AcDbEntity
  8
1-2
  6
Continuous
 62
     3
370
     9
100
AcDbLine
 10
-1038.917665223817
 20
321.8106573981208
 30
0.0
 11
-1038.917665223817
 21
509.8109807194891
 31
0.0
  0
LINE
  5
224
330
1F
100
AcDbEntity
  8
1-2
  6
Continuous
 62
     3
370
     9
100
AcDbLine
 10
-1038.917665223817
 20
521.8108223580026
 30
0.0
 11
-1038.917665223817
 21
709.8105270798144
 31
0.0
  0
LINE
  5
225
330
1F
100
AcDbEntity
  8
1-2
  6
Continuous
 62
     3
370
     9
100
AcDbLine
 10
-1028.918127111486
 20
321.8106573981208
 30
0.0
 11
-1028.918127111486
 21
509.8109807194891
 31
0.0
  0
LINE
  5
226
330
1F
100
AcDbEntity
  8
1-2
  6
Continuous
 62
     3
370
     9
100
AcDbLine
 10
-1028.918127111486
 20
521.8108223580026
 30
0.0
 11
-1028.918127111486
 21
709.8105270798144
 31
0.0
  0
LINE
  5
227
330
1F
100
AcDbEntity
  8
1-2
  6
Continuous
 62
     3
370
     9
100
AcDbLine
 10
-1008.9176899678
 20
721.8103687183279
 30
0.0
 11
-1008.9176899678
 21
816.8101872624578
 31
0.0
  0
LINE
  5
228
330
1F
100
AcDbEntity
  8
1-2
  6
Continuous
 62
     3
370
     9
100
AcDbLine
 10
-998.9181518554688
 20
721.8103687183279
 30
0.0
 11
-998.9181518554688
 21
816.8101872624578
 31
0.0
  0
LINE
  5
229
330
1F
100
AcDbEntity
  8
1-2
  6
Continuous
 62
     3
370
     9
100
AcDbLine
 10
-1008.9176899678
 20
321.8106573981208
 30
0.0
 11
-1008.9176899678
 21
509.8109807194891
 31
0.0
  0
LINE
  5
22A
330
1F
100
AcDbEntity
  8
1-2
  6
Continuous
 62
     3
370
     9
100
AcDbLine
 10
-1008.9176899678
 20
521.8108223580026
 30
0.0
 11
-1008.9176899678
 21
709.8105270798144
 31
0.0
  0
LINE
  5
22B
330
1F
100
AcDbEntity
  8
1-2
  6
Continuous
 62
     3
370
     9
100
AcDbLine
 10
-998.9181518554688
 20
321.8106573981208
 30
0.0
 11
-998.9181518554688
 21
509.8109807194891
 31
0.0
  0
LINE
  5
22C
330
1F
100
AcDbEntity
  8
1-2
  6
Continuous
 62
     3
370
     9
100
AcDbLine
 10
-998.9181518554688
 20
521.8108223580026
 30
0.0
 11
-998.9181518554688
 21
709.8105270798144
 31
0.0
  0
LINE
  5
22D
330
1F
100
AcDbEntity
  8
1-2
  6
Continuous
 62
     3
370
     9
100
AcDbLine
 10
-978.9177147117821
 20
721.8103687183279
 30
0.0
 11
-978.9177147117821
 21
816.8101872624578
 31
0.0
  0
LINE
  5
22E
330
1F
100
AcDbEntity
  8
1-2
  6
Continuous
 62
     3
370
     9
100
AcDbLine
 10
-968.9181765994509
 20
721.8103687183279
 30
0.0
 11
-968.9181765994509
 21
816.8101872624578
 31
0.0
  0
LINE
  5
22F
330
1F
100
AcDbEntity
  8
1-2
  6
Continuous
 62
     3
370
     9
100
AcDbLine
 10
-978.9177147117821
 20
321.8106573981208
 30
0.0
 11
-978.9177147117821
 21
509.8109807194891
 31
0.0
  0
LINE
  5
230
330
1F
100
AcDbEntity
  8
1-2
  6
Continuous
 62
     3
370
     9
100
AcDbLine
 10
-978.9177147117821
 20
521.8108223580026
 30
0.0
 11
-978.9177147117821
 21
709.8105270798144
 31
0.0
  0
LINE
  5
231
330
1F
100
AcDbEntity
  8
1-2
  6
Continuous
 62
     3
370
     9
100
AcDbLine
 10
-968.9181765994509
 20
321.8106573981208
 30
0.0
 11
-968.9181765994509
 21
509.8109807194891
 31
0.0
  0
LINE
  5
232
330
1F
100
AcDbEntity
  8
1-2
  6
Continuous
 62
     3
370
     9
100
AcDbLine
 10
-968.9181765994509
 20
521.8108223580026
 30
0.0
 11
-968.9181765994509
 21
709.8105270798144
 31
0.0
  0
LINE
  5
233
330
1F
100
AcDbEntity
  8
1-2
  6
Continuous
 62
     3
370
     9
100
AcDbLine
 10
-948.9177394557644
 20
721.8103687183279
 30
0.0
 11
-948.9177394557644
 21
816.8101872624578
 31
0.0
  0
LINE
  5
234
330
1F
100
AcDbEntity
  8
1-2
  6
Continuous
 62
     3
370
     9
100
AcDbLine
 10
-938.9182013434332
 20
721.8103687183279
 30
0.0
 11
-938.9182013434332
 21
816.8101872624578
 31
0.0
  0
LINE
  5
235
330
1F
100
AcDbEntity
  8
1-2
  6
Continuous
 62
     3
370
     9
100
AcDbLine
 10
-948.9177394557644
 20
321.8106573981208
 30
0.0
 11
-948.9177394557644
 21
509.8109807194891
 31
0.0
  0
LINE
  5
236
330
1F
100
AcDbEntity
  8
1-2
  6
Continuous
 62
     3
370
     9
100
AcDbLine
 10
-948.9177394557644
 20
521.8108223580026
 30
0.0
 11
-948.9177394557644
 21
709.8105270798144
 31
0.0
  0
LINE
  5
237
330
1F
100
AcDbEntity
  8
1-2
  6
Continuous
 62
     3
370
     9
100
AcDbLine
 10
-938.9182013434332
 20
321.8106573981208
 30
0.0
 11
-938.9182013434332
 21
509.8109807194891
 31
0.0
  0
LINE
  5
238
330
1F
100
AcDbEntity
  8
1-2
  6
Continuous
 62
     3
370
     9
100
AcDbLine
 10
-938.9182013434332
 20
521.8108223580026
 30
0.0
 11
-938.9182013434332
 21
709.8105270798144
 31
0.0
  0
LINE
  5
239
330
1F
100
AcDbEntity
  8
1-2
  6
Continuous
 62
     3
370
     9
100
AcDbLine
 10
-918.9177641997467
 20
721.8103687183279
 30
0.0
 11
-918.9177641997467
 21
816.8101872624578
 31
0.0
  0
LINE
  5
23A
330
1F
100
AcDbEntity
  8
1-2
  6
Continuous
 62
     3
370
     9
100
AcDbLine
 10
-908.9182260874155
 20
721.8103687183279
 30
0.0
 11
-908.9182260874155
 21
816.8101872624578
 31
0.0
  0
LINE
  5
23B
330
1F
100
AcDbEntity
  8
1-2
  6
Continuous
 62
     3
370
     9
100
AcDbLine
 10
-918.9177641997467
 20
321.8106573981208
 30
0.0
 11
-918.9177641997467
 21
509.8109807194891
 31
0.0
  0
LINE
  5
23C
330
1F
100
AcDbEntity
  8
1-2
  6
Continuous
 62
     3
370
     9
100
AcDbLine
 10
-918.9177641997467
 20
521.8108223580026
 30
0.0
 11
-918.9177641997467
 21
709.8105270798144
 31
0.0
  0
LINE
  5
23D
330
1F
100
AcDbEntity
  8
1-2
  6
Continuous
 62
     3
370
     9
100
AcDbLine
 10
-908.9182260874155
 20
321.8106573981208
 30
0.0
 11
-908.9182260874155
 21
509.8109807194891
 31
0.0
  0
LINE
  5
23E
330
1F
100
AcDbEntity
  8
1-2
  6
Continuous
 62
     3
370
     9
100
AcDbLine
 10
-908.9182260874155
 20
521.8108223580026
 30
0.0
 11
-908.9182260874155
 21
709.8105270798144
 31
0.0
  0
LINE
  5
23F
330
1F
100
AcDbEntity
  8
1-2
  6
Continuous
 62
     3
370
     9
100
AcDbLine
 10
-888.9177889437287
 20
721.8103687183279
 30
0.0
 11
-888.9177889437287
 21
816.8101872624578
 31
0.0
  0
LINE
  5
240
330
1F
100
AcDbEntity
  8
1-2
  6
Continuous
 62
     3
370
     9
100
AcDbLine
 10
-878.9182508313978
 20
721.8103687183279
 30
0.0
 11
-878.9182508313978
 21
816.8101872624578
 31
0.0
  0
LINE
  5
241
330
1F
100
AcDbEntity
  8
1-2
  6
Continuous
 62
     3
370
     9
100
AcDbLine
 10
-888.9177889437287
 20
321.8106573981208
 30
0.0
 11
-888.9177889437287
 21
509.8109807194891
 31
0.0
  0
LINE
  5
242
330
1F
100
AcDbEntity
  8
1-2
  6
Continuous
 62
     3
370
     9
100
AcDbLine
 10
-888.9177889437287
 20
521.8108223580026
 30
0.0
 11
-888.9177889437287
 21
709.8105270798144
 31
0.0
  0
LINE
  5
243
330
1F
100
AcDbEntity
  8
1-2
  6
Continuous
 62
     3
370
     9
100
AcDbLine
 10
-878.9182508313978
 20
321.8106573981208
 30
0.0
 11
-878.9182508313978
 21
509.8109807194891
 31
0.0
  0
LINE
  5
244
330
1F
100
AcDbEntity
  8
1-2
  6
Continuous
 62
     3
370
     9
100
AcDbLine
 10
-878.9182508313978
 20
521.8108223580026
 30
0.0
 11
-878.9182508313978
 21
709.8105270798144
 31
0.0
  0
LINE
  5
245
330
1F
100
AcDbEntity
  8
1-2
  6
Continuous
 62
     3
370
     9
100
AcDbLine
 10
-858.917813687711
 20
721.8103687183279
 30
0.0
 11
-858.917813687711
 21
816.8101872624578
 31
0.0
  0
LINE
  5
246
330
1F
100
AcDbEntity
  8
1-2
  6
Continuous
 62
     3
370
     9
100
AcDbLine
 10
-848.91827557538
 20
721.8103687183279
 30
0.0
 11
-848.91827557538
 21
816.8101872624578
 31
0.0
  0
LINE
  5
247
330
1F
100
AcDbEntity
  8
1-2
  6
Continuous
 62
     3
370
     9
100
AcDbLine
 10
-858.917813687711
 20
321.8106573981208
 30
0.0
 11
-858.917813687711
 21
509.8109807194891
 31
0.0
  0
LINE
  5
248
330
1F
100
AcDbEntity
  8
1-2
  6
Continuous
 62
     3
370
     9
100
AcDbLine
 10
-858.917813687711
 20
521.8108223580026
 30
0.0
 11
-858.917813687711
 21
709.8105270798144
 31
0.0
  0
LINE
  5
249
330
1F
100
AcDbEntity
  8
1-2
  6
Continuous
 62
     3
370
     9
100
AcDbLine
 10
-848.91827557538
 20
321.8106573981208
 30
0.0
 11
-848.91827557538
 21
509.8109807194891
 31
0.0
  0
LINE
  5
24A
330
1F
100
AcDbEntity
  8
1-2
  6
Continuous
 62
     3
370
     9
100
AcDbLine
 10
-848.91827557538
 20
521.8108223580026
 30
0.0
 11
-848.91827557538
 21
709.8105270798144
 31
0.0
  0
LINE
  5
24B
330
1F
100
AcDbEntity
  8
1-2
  6
Continuous
 62
     3
370
     9
100
AcDbLine
 10
-828.9178384316933
 20
721.8103687183279
 30
0.0
 11
-828.9178384316933
 21
816.8101872624578
 31
0.0
  0
LINE
  5
24C
330
1F
100
AcDbEntity
  8
1-2
  6
Continuous
 62
     3
370
     9
100
AcDbLine
 10
-818.9183003193623
 20
721.8103687183279
 30
0.0
 11
-818.9183003193623
 21
816.8101872624578
 31
0.0
  0
LINE
  5
24D
330
1F
100
AcDbEntity
  8
1-2
  6
Continuous
 62
     3
370
     9
100
AcDbLine
 10
-828.9178384316933
 20
321.8106573981208
 30
0.0
 11
-828.9178384316933
 21
509.8109807194891
 31
0.0
  0
LINE
  5
24E
330
1F
100
AcDbEntity
  8
1-2
  6
Continuous
 62
     3
370
     9
100
AcDbLine
 10
-828.9178384316933
 20
521.8108223580026
 30
0.0
 11
-828.9178384316933
 21
709.8105270798144
 31
0.0
  0
LINE
  5
24F
330
1F
100
AcDbEntity
  8
1-2
  6
Continuous
 62
     3
370
     9
100
AcDbLine
 10
-818.9183003193623
 20
321.8106573981208
 30
0.0
 11
-818.9183003193623
 21
509.8109807194891
 31
0.0
  0
LINE
  5
250
330
1F
100
AcDbEntity
  8
1-2
  6
Continuous
 62
     3
370
     9
100
AcDbLine
 10
-818.9183003193623
 20
521.8108223580026
 30
0.0
 11
-818.9183003193623
 21
709.8105270798144
 31
0.0
  0
LINE
  5
251
330
1F
100
AcDbEntity
  8
1-2
  6
Continuous
 62
     3
370
     9
100
AcDbLine
 10
-798.9178631756755
 20
721.8103687183279
 30
0.0
 11
-798.9178631756755
 21
816.8101872624578
 31
0.0
  0
LINE
  5
252
330
1F
100
AcDbEntity
  8
1-2
  6
Continuous
 62
     3
370
     9
100
AcDbLine
 10
-788.9183250633446
 20
721.8103687183279
 30
0.0
 11
-788.9183250633446
 21
816.8101872624578
 31
0.0
  0
LINE
  5
253
330
1F
100
AcDbEntity
  8
1-2
  6
Continuous
 62
     3
370
     9
100
AcDbLine
 10
-798.9178631756755
 20
321.8106573981208
 30
0.0
 11
-798.9178631756755
 21
509.8109807194891
 31
0.0
  0
LINE
  5
254
330
1F
100
AcDbEntity
  8
1-2
  6
Continuous
 62
     3
370
     9
100
AcDbLine
 10
-798.9178631756755
 20
521.8108223580026
 30
0.0
 11
-798.9178631756755
 21
709.8105270798144
 31
0.0
  0
LINE
  5
255
330
1F
100
AcDbEntity
  8
1-2
  6
Continuous
 62
     3
370
     9
100
AcDbLine
 10
-788.9183250633446
 20
321.8106573981208
 30
0.0
 11
-788.9183250633446
 21
509.8109807194891
 31
0.0
  0
LINE
  5
256
330
1F
100
AcDbEntity
  8
1-2
  6
Continuous
 62
     3
370
     9
100
AcDbLine
 10
-788.9183250633446
 20
521.8108223580026
 30
0.0
 11
-788.9183250633446
 21
709.8105270798144
 31
0.0
  0
LINE
  5
257
330
1F
100
AcDbEntity
  8
1-2
  6
Continuous
 62
     3
370
     9
100
AcDbLine
 10
-768.9178879196578
 20
721.8103687183279
 30
0.0
 11
-768.9178879196578
 21
816.8101872624578
 31
0.0
  0
LINE
  5
258
330
1F
100
AcDbEntity
  8
1-2
  6
Continuous
 62
     3
370
     9
100
AcDbLine
 10
-758.9183498073269
 20
721.8103687183279
 30
0.0
 11
-758.9183498073269
 21
816.8101872624578
 31
0.0
  0
LINE
  5
259
330
1F
100
AcDbEntity
  8
1-2
  6
Continuous
 62
     3
370
     9
100
AcDbLine
 10
-768.9178879196578
 20
321.8106573981208
 30
0.0
 11
-768.9178879196578
 21
509.8109807194891
 31
0.0
  0
LINE
  5
25A
330
1F
100
AcDbEntity
  8
1-2
  6
Continuous
 62
     3
370
     9
100
AcDbLine
 10
-768.9178879196578
 20
521.8108223580026
 30
0.0
 11
-768.9178879196578
 21
709.8105270798144
 31
0.0
  0
LINE
  5
25B
330
1F
100
AcDbEntity
  8
1-2
  6
Continuous
 62
     3
370
     9
100
AcDbLine
 10
-758.9183498073269
 20
321.8106573981208
 30
0.0
 11
-758.9183498073269
 21
509.8109807194891
 31
0.0
  0
LINE
  5
25C
330
1F
100
AcDbEntity
  8
1-2
  6
Continuous
 62
     3
370
     9
100
AcDbLine
 10
-758.9183498073269
 20
521.8108223580026
 30
0.0
 11
-758.9183498073269
 21
709.8105270798144
 31
0.0
  0
LINE
  5
25D
330
1F
100
AcDbEntity
  8
1-2
  6
Continuous
 62
     3
370
     9
100
AcDbLine
 10
-738.9179126636401
 20
721.8103687183279
 30
0.0
 11
-738.9179126636401
 21
816.8101872624578
 31
0.0
  0
LINE
  5
25E
330
1F
100
AcDbEntity
  8
1-2
  6
Continuous
 62
     3
370
     9
100
AcDbLine
 10
-728.9183745513092
 20
721.8103687183279
 30
0.0
 11
-728.9183745513092
 21
816.8101872624578
 31
0.0
  0
LINE
  5
25F
330
1F
100
AcDbEntity
  8
1-2
  6
Continuous
 62
     3
370
     9
100
AcDbLine
 10
-738.9179126636401
 20
321.8106573981208
 30
0.0
 11
-738.9179126636401
 21
509.8109807194891
 31
0.0
  0
LINE
  5
260
330
1F
100
AcDbEntity
  8
1-2
  6
Continuous
 62
     3
370
     9
100
AcDbLine
 10
-738.9179126636401
 20
521.8108223580026
 30
0.0
 11
-738.9179126636401
 21
709.8105270798144
 31
0.0
  0
LINE
  5
261
330
1F
100
AcDbEntity
  8
1-2
  6
Continuous
 62
     3
370
     9
100
AcDbLine
 10
-728.9183745513092
 20
321.8106573981208
 30
0.0
 11
-728.9183745513092
 21
509.8109807194891
 31
0.0
  0
LINE
  5
262
330
1F
100
AcDbEntity
  8
1-2
  6
Continuous
 62
     3
370
     9
100
AcDbLine
 10
-728.9183745513092
 20
521.8108223580026
 30
0.0
 11
-728.9183745513092
 21
709.8105270798144
 31
0.0
  0
LINE
  5
263
330
1F
100
AcDbEntity
  8
1-2
  6
Continuous
 62
     3
370
     9
100
AcDbLine
 10
-708.9179374076224
 20
721.8103687183279
 30
0.0
 11
-708.9179374076224
 21
816.8101872624578
 31
0.0
  0
LINE
  5
264
330
1F
100
AcDbEntity
  8
1-2
  6
Continuous
 62
     3
370
     9
100
AcDbLine
 10
-698.9183992952915
 20
721.8103687183279
 30
0.0
 11
-698.9183992952915
 21
816.8101872624578
 31
0.0
  0
LINE
  5
265
330
1F
100
AcDbEntity
  8
1-2
  6
Continuous
 62
     3
370
     9
100
AcDbLine
 10
-708.9179374076224
 20
321.8106573981208
 30
0.0
 11
-708.9179374076224
 21
509.8109807194891
 31
0.0
  0
LINE
  5
266
330
1F
100
AcDbEntity
  8
1-2
  6
Continuous
 62
     3
370
     9
100
AcDbLine
 10
-708.9179374076224
 20
521.8108223580026
 30
0.0
 11
-708.9179374076224
 21
709.8105270798144
 31
0.0
  0
LINE
  5
267
330
1F
100
AcDbEntity
  8
1-2
  6
Continuous
 62
     3
370
     9
100
AcDbLine
 10
-698.9183992952915
 20
321.8106573981208
 30
0.0
 11
-698.9183992952915
 21
509.8109807194891
 31
0.0
  0
LINE
  5
268
330
1F
100
AcDbEntity
  8
1-2
  6
Continuous
 62
     3
370
     9
100
AcDbLine
 10
-698.9183992952915
 20
521.8108223580026
 30
0.0
 11
-698.9183992952915
 21
709.8105270798144
 31
0.0
  0
LINE
  5
269
330
1F
100
AcDbEntity
  8
1-2
  6
Continuous
 62
     3
370
     9
100
AcDbLine
 10
-678.9179621516047
 20
721.8103687183279
 30
0.0
 11
-678.9179621516047
 21
816.8101872624578
 31
0.0
  0
LINE
  5
26A
330
1F
100
AcDbEntity
  8
1-2
  6
Continuous
 62
     3
370
     9
100
AcDbLine
 10
-668.9184240392738
 20
721.8103687183279
 30
0.0
 11
-668.9184240392738
 21
816.8101872624578
 31
0.0
  0
LINE
  5
26B
330
1F
100
AcDbEntity
  8
1-2
  6
Continuous
 62
     3
370
     9
100
AcDbLine
 10
-678.9179621516047
 20
321.8106573981208
 30
0.0
 11
-678.9179621516047
 21
509.8109807194891
 31
0.0
  0
LINE
  5
26C
330
1F
100
AcDbEntity
  8
1-2
  6
Continuous
 62
     3
370
     9
100
AcDbLine
 10
-678.9179621516047
 20
521.8108223580026
 30
0.0
 11
-678.9179621516047
 21
709.8105270798144
 31
0.0
  0
LINE
  5
26D
330
1F
100
AcDbEntity
  8
1-2
  6
Continuous
 62
     3
370
     9
100
AcDbLine
 10
-668.9184240392738
 20
321.8106573981208
 30
0.0
 11
-668.9184240392738
 21
509.8109807194891
 31
0.0
  0
LINE
  5
26E
330
1F
100
AcDbEntity
  8
1-2
  6
Continuous
 62
     3
370
     9
100
AcDbLine
 10
-668.9184240392738
 20
521.8108223580026
 30
0.0
 11
-668.9184240392738
 21
709.8105270798144
 31
0.0
  0
LINE
  5
26F
330
1F
100
AcDbEntity
  8
1-2
  6
Continuous
 62
     3
370
     9
100
AcDbLine
 10
-648.917986895587
 20
721.8103687183279
 30
0.0
 11
-648.917986895587
 21
816.8101872624578
 31
0.0
  0
LINE
  5
270
330
1F
100
AcDbEntity
  8
1-2
  6
Continuous
 62
     3
370
     9
100
AcDbLine
 10
-638.9184487832557
 20
721.8103687183279
 30
0.0
 11
-638.9184487832557
 21
816.8101872624578
 31
0.0
  0
LINE
  5
271
330
1F
100
AcDbEntity
  8
1-2
  6
Continuous
 62
     3
370
     9
100
AcDbLine
 10
-648.917986895587
 20
321.8106573981208
 30
0.0
 11
-648.917986895587
 21
509.8109807194891
 31
0.0
  0
LINE
  5
272
330
1F
100
AcDbEntity
  8
1-2
  6
Continuous
 62
     3
370
     9
100
AcDbLine
 10
-648.917986895587
 20
521.8108223580026
 30
0.0
 11
-648.917986895587
 21
709.8105270798144
 31
0.0
  0
LINE
  5
273
330
1F
100
AcDbEntity
  8
1-2
  6
Continuous
 62
     3
370
     9
100
AcDbLine
 10
-638.9184487832557
 20
321.8106573981208
 30
0.0
 11
-638.9184487832557
 21
509.8109807194891
 31
0.0
  0
LINE
  5
274
330
1F
100
AcDbEntity
  8
1-2
  6
Continuous
 62
     3
370
     9
100
AcDbLine
 10
-638.9184487832557
 20
521.8108223580026
 30
0.0
 11
-638.9184487832557
 21
709.8105270798144
 31
0.0
  0
LINE
  5
275
330
1F
100
AcDbEntity
  8
1-2
  6
Continuous
 62
     3
370
     9
100
AcDbLine
 10
-618.9180116395693
 20
721.8103687183279
 30
0.0
 11
-618.9180116395693
 21
816.8101872624578
 31
0.0
  0
LINE
  5
276
330
1F
100
AcDbEntity
  8
1-2
  6
Continuous
 62
     3
370
     9
100
AcDbLine
 10
-608.918473527238
 20
721.8103687183279
 30
0.0
 11
-608.918473527238
 21
816.8101872624578
 31
0.0
  0
LINE
  5
277
330
1F
100
AcDbEntity
  8
1-2
  6
Continuous
 62
     3
370
     9
100
AcDbLine
 10
-618.9180116395693
 20
321.8106573981208
 30
0.0
 11
-618.9180116395693
 21
509.8109807194891
 31
0.0
  0
LINE
  5
278
330
1F
100
AcDbEntity
  8
1-2
  6
Continuous
 62
     3
370
     9
100
AcDbLine
 10
-618.9180116395693
 20
521.8108223580026
 30
0.0
 11
-618.9180116395693
 21
709.8105270798144
 31
0.0
  0
LINE
  5
279
330
1F
100
AcDbEntity
  8
1-2
  6
Continuous
 62
     3
370
     9
100
AcDbLine
 10
-608.918473527238
 20
321.8106573981208
 30
0.0
 11
-608.918473527238
 21
509.8109807194891
 31
0.0
  0
LINE
  5
27A
330
1F
100
AcDbEntity
  8
1-2
  6
Continuous
 62
     3
370
     9
100
AcDbLine
 10
-608.918473527238
 20
521.8108223580026
 30
0.0
 11
-608.918473527238
 21
709.8105270798144
 31
0.0
  0
LINE
  5
27B
330
1F
100
AcDbEntity
  8
1-2
  6
Continuous
 62
     3
370
     9
100
AcDbLine
 10
-588.9180363835516
 20
721.8103687183279
 30
0.0
 11
-588.9180363835516
 21
816.8101872624578
 31
0.0
  0
LINE
  5
27C
330
1F
100
AcDbEntity
  8
1-2
  6
Continuous
 62
     3
370
     9
100
AcDbLine
 10
-578.9184982712203
 20
721.8103687183279
 30
0.0
 11
-578.9184982712203
 21
816.8101872624578
 31
0.0
  0
LINE
  5
27D
330
1F
100
AcDbEntity
  8
1-2
  6
Continuous
 62
     3
370
     9
100
AcDbLine
 10
-588.9180363835516
 20
321.8106573981208
 30
0.0
 11
-588.9180363835516
 21
509.8109807194891
 31
0.0
  0
LINE
  5
27E
330
1F
100
AcDbEntity
  8
1-2
  6
Continuous
 62
     3
370
     9
100
AcDbLine
 10
-588.9180363835516
 20
521.8108223580026
 30
0.0
 11
-588.9180363835516
 21
709.8105270798144
 31
0.0
  0
LINE
  5
27F
330
1F
100
AcDbEntity
  8
1-2
  6
Continuous
 62
     3
370
     9
100
AcDbLine
 10
-578.9184982712203
 20
321.8106573981208
 30
0.0
 11
-578.9184982712203
 21
509.8109807194891
 31
0.0
  0
LINE
  5
280
330
1F
100
AcDbEntity
  8
1-2
  6
Continuous
 62
     3
370
     9
100
AcDbLine
 10
-578.9184982712203
 20
521.8108223580026
 30
0.0
 11
-578.9184982712203
 21
709.8105270798144
 31
0.0
  0
LINE
  5
281
330
1F
100
AcDbEntity
  8
1-2
  6
Continuous
 62
     3
370
     9
100
AcDbLine
 10
-558.9180611275335
 20
721.8103687183279
 30
0.0
 11
-558.9180611275335
 21
816.8101872624578
 31
0.0
  0
LINE
  5
282
330
1F
100
AcDbEntity
  8
1-2
  6
Continuous
 62
     3
370
     9
100
AcDbLine
 10
-548.9185230152026
 20
721.8103687183279
 30
0.0
 11
-548.9185230152026
 21
816.8101872624578
 31
0.0
  0
LINE
  5
283
330
1F
100
AcDbEntity
  8
1-2
  6
Continuous
 62
     3
370
     9
100
AcDbLine
 10
-558.9180611275335
 20
321.8106573981208
 30
0.0
 11
-558.9180611275335
 21
509.8109807194891
 31
0.0
  0
LINE
  5
284
330
1F
100
AcDbEntity
  8
1-2
  6
Continuous
 62
     3
370
     9
100
AcDbLine
 10
-558.9180611275335
 20
521.8108223580026
 30
0.0
 11
-558.9180611275335
 21
709.8105270798144
 31
0.0
  0
LINE
  5
285
330
1F
100
AcDbEntity
  8
1-2
  6
Continuous
 62
     3
370
     9
100
AcDbLine
 10
-548.9185230152026
 20
321.8106573981208
 30
0.0
 11
-548.9185230152026
 21
509.8109807194891
 31
0.0
  0
LINE
  5
286
330
1F
100
AcDbEntity
  8
1-2
  6
Continuous
 62
     3
370
     9
100
AcDbLine
 10
-548.9185230152026
 20
521.8108223580026
 30
0.0
 11
-548.9185230152026
 21
709.8105270798144
 31
0.0
  0
LINE
  5
287
330
1F
100
AcDbEntity
  8
1-2
  6
Continuous
 62
     3
370
     9
100
AcDbLine
 10
-528.9180858715158
 20
721.8103687183279
 30
0.0
 11
-528.9180858715158
 21
816.8101872624578
 31
0.0
  0
LINE
  5
288
330
1F
100
AcDbEntity
  8
1-2
  6
Continuous
 62
     3
370
     9
100
AcDbLine
 10
-518.9185477591849
 20
721.8103687183279
 30
0.0
 11
-518.9185477591849
 21
816.8101872624578
 31
0.0
  0
LINE
  5
289
330
1F
100
AcDbEntity
  8
1-2
  6
Continuous
 62
     3
370
     9
100
AcDbLine
 10
-528.9180858715158
 20
321.8106573981208
 30
0.0
 11
-528.9180858715158
 21
509.8109807194891
 31
0.0
  0
LINE
  5
28A
330
1F
100
AcDbEntity
  8
1-2
  6
Continuous
 62
     3
370
     9
100
AcDbLine
 10
-528.9180858715158
 20
521.8108223580026
 30
0.0
 11
-528.9180858715158
 21
709.8105270798144
 31
0.0
  0
LINE
  5
28B
330
1F
100
AcDbEntity
  8
1-2
  6
Continuous
 62
     3
370
     9
100
AcDbLine
 10
-518.9185477591849
 20
321.8106573981208
 30
0.0
 11
-518.9185477591849
 21
509.8109807194891
 31
0.0
  0
LINE
  5
28C
330
1F
100
AcDbEntity
  8
1-2
  6
Continuous
 62
     3
370
     9
100
AcDbLine
 10
-518.9185477591849
 20
521.8108223580026
 30
0.0
 11
-518.9185477591849
 21
709.8105270798144
 31
0.0
  0
LINE
  5
28D
330
1F
100
AcDbEntity
  8
1-2
  6
Continuous
 62
     3
370
     9
100
AcDbLine
 10
-498.9181106154982
 20
721.8103687183279
 30
0.0
 11
-498.9181106154982
 21
816.8101872624578
 31
0.0
  0
LINE
  5
28E
330
1F
100
AcDbEntity
  8
1-2
  6
Continuous
 62
     3
370
     9
100
AcDbLine
 10
-488.9185725031672
 20
721.8103687183279
 30
0.0
 11
-488.9185725031672
 21
816.8101872624578
 31
0.0
  0
LINE
  5
28F
330
1F
100
AcDbEntity
  8
1-2
  6
Continuous
 62
     3
370
     9
100
AcDbLine
 10
-498.9181106154982
 20
321.8106573981208
 30
0.0
 11
-498.9181106154982
 21
509.8109807194891
 31
0.0
  0
LINE
  5
290
330
1F
100
AcDbEntity
  8
1-2
  6
Continuous
 62
     3
370
     9
100
AcDbLine
 10
-498.9181106154982
 20
521.8108223580026
 30
0.0
 11
-498.9181106154982
 21
709.8105270798144
 31
0.0
  0
LINE
  5
291
330
1F
100
AcDbEntity
  8
1-2
  6
Continuous
 62
     3
370
     9
100
AcDbLine
 10
-488.9185725031672
 20
321.8106573981208
 30
0.0
 11
-488.9185725031672
 21
509.8109807194891
 31
0.0
  0
LINE
  5
292
330
1F
100
AcDbEntity
  8
1-2
  6
Continuous
 62
     3
370
     9
100
AcDbLine
 10
-488.9185725031672
 20
521.8108223580026
 30
0.0
 11
-488.9185725031672
 21
709.8105270798144
 31
0.0
  0
LINE
  5
293
330
1F
100
AcDbEntity
  8
1-2
  6
Continuous
 62
     3
370
     9
100
AcDbLine
 10
-468.9181353594805
 20
721.8103687183279
 30
0.0
 11
-468.9181353594805
 21
816.8101872624578
 31
0.0
  0
LINE
  5
294
330
1F
100
AcDbEntity
  8
1-2
  6
Continuous
 62
     3
370
     9
100
AcDbLine
 10
-458.9185972471495
 20
721.8103687183279
 30
0.0
 11
-458.9185972471495
 21
816.8101872624578
 31
0.0
  0
LINE
  5
295
330
1F
100
AcDbEntity
  8
1-2
  6
Continuous
 62
     3
370
     9
100
AcDbLine
 10
-468.9181353594805
 20
321.8106573981208
 30
0.0
 11
-468.9181353594805
 21
509.8109807194891
 31
0.0
  0
LINE
  5
296
330
1F
100
AcDbEntity
  8
1-2
  6
Continuous
 62
     3
370
     9
100
AcDbLine
 10
-468.9181353594805
 20
521.8108223580026
 30
0.0
 11
-468.9181353594805
 21
709.8105270798144
 31
0.0
  0
LINE
  5
297
330
1F
100
AcDbEntity
  8
1-2
  6
Continuous
 62
     3
370
     9
100
AcDbLine
 10
-458.9185972471495
 20
321.8106573981208
 30
0.0
 11
-458.9185972471495
 21
509.8109807194891
 31
0.0
  0
LINE
  5
298
330
1F
100
AcDbEntity
  8
1-2
  6
Continuous
 62
     3
370
     9
100
AcDbLine
 10
-458.9185972471495
 20
521.8108223580026
 30
0.0
 11
-458.9185972471495
 21
709.8105270798144
 31
0.0
  0
LINE
  5
299
330
1F
100
AcDbEntity
  8
1-2
  6
Continuous
 62
     3
370
     9
100
AcDbLine
 10
-438.9181601034628
 20
721.8103687183279
 30
0.0
 11
-438.9181601034628
 21
816.8101872624578
 31
0.0
  0
LINE
  5
29A
330
1F
100
AcDbEntity
  8
1-2
  6
Continuous
 62
     3
370
     9
100
AcDbLine
 10
-428.9186219911318
 20
721.8103687183279
 30
0.0
 11
-428.9186219911318
 21
816.8101872624578
 31
0.0
  0
LINE
  5
29B
330
1F
100
AcDbEntity
  8
1-2
  6
Continuous
 62
     3
370
     9
100
AcDbLine
 10
-438.9181601034628
 20
321.8106573981208
 30
0.0
 11
-438.9181601034628
 21
509.8109807194891
 31
0.0
  0
LINE
  5
29C
330
1F
100
AcDbEntity
  8
1-2
  6
Continuous
 62
     3
370
     9
100
AcDbLine
 10
-438.9181601034628
 20
521.8108223580026
 30
0.0
 11
-438.9181601034628
 21
709.8105270798144
 31
0.0
  0
LINE
  5
29D
330
1F
100
AcDbEntity
  8
1-2
  6
Continuous
 62
     3
370
     9
100
AcDbLine
 10
-428.9186219911318
 20
321.8106573981208
 30
0.0
 11
-428.9186219911318
 21
509.8109807194891
 31
0.0
  0
LINE
  5
29E
330
1F
100
AcDbEntity
  8
1-2
  6
Continuous
 62
     3
370
     9
100
AcDbLine
 10
-428.9186219911318
 20
521.8108223580026
 30
0.0
 11
-428.9186219911318
 21
709.8105270798144
 31
0.0
  0
LINE
  5
29F
330
1F
100
AcDbEntity
  8
1-2
  6
Continuous
 62
     3
370
     9
100
AcDbLine
 10
-408.918184847445
 20
721.8103687183279
 30
0.0
 11
-408.918184847445
 21
816.8101872624578
 31
0.0
  0
LINE
  5
2A0
330
1F
100
AcDbEntity
  8
1-2
  6
Continuous
 62
     3
370
     9
100
AcDbLine
 10
-398.9186467351141
 20
721.8103687183279
 30
0.0
 11
-398.9186467351141
 21
816.8101872624578
 31
0.0
  0
LINE
  5
2A1
330
1F
100
AcDbEntity
  8
1-2
  6
Continuous
 62
     3
370
     9
100
AcDbLine
 10
-408.918184847445
 20
321.8106573981208
 30
0.0
 11
-408.918184847445
 21
509.8109807194891
 31
0.0
  0
LINE
  5
2A2
330
1F
100
AcDbEntity
  8
1-2
  6
Continuous
 62
     3
370
     9
100
AcDbLine
 10
-408.918184847445
 20
521.8108223580026
 30
0.0
 11
-408.918184847445
 21
709.8105270798144
 31
0.0
  0
LINE
  5
2A3
330
1F
100
AcDbEntity
  8
1-2
  6
Continuous
 62
     3
370
     9
100
AcDbLine
 10
-398.9186467351141
 20
321.8106573981208
 30
0.0
 11
-398.9186467351141
 21
509.8109807194891
 31
0.0
  0
LINE
  5
2A4
330
1F
100
AcDbEntity
  8
1-2
  6
Continuous
 62
     3
370
     9
100
AcDbLine
 10
-398.9186467351141
 20
521.8108223580026
 30
0.0
 11
-398.9186467351141
 21
709.8105270798144
 31
0.0
  0
LINE
  5
2A5
330
1F
100
AcDbEntity
  8
1-2
  6
Continuous
 62
     3
370
     9
100
AcDbLine
 10
-378.9182095914273
 20
721.8103687183279
 30
0.0
 11
-378.9182095914273
 21
816.8101872624578
 31
0.0
  0
LINE
  5
2A6
330
1F
100
AcDbEntity
  8
1-2
  6
Continuous
 62
     3
370
     9
100
AcDbLine
 10
-368.9186714790961
 20
721.8103687183279
 30
0.0
 11
-368.9186714790961
 21
816.8101872624578
 31
0.0
  0
LINE
  5
2A7
330
1F
100
AcDbEntity
  8
1-2
  6
Continuous
 62
     3
370
     9
100
AcDbLine
 10
-378.9182095914273
 20
321.8106573981208
 30
0.0
 11
-378.9182095914273
 21
509.8109807194891
 31
0.0
  0
LINE
  5
2A8
330
1F
100
AcDbEntity
  8
1-2
  6
Continuous
 62
     3
370
     9
100
AcDbLine
 10
-378.9182095914273
 20
521.8108223580026
 30
0.0
 11
-378.9182095914273
 21
709.8105270798144
 31
0.0
  0
LINE
  5
2A9
330
1F
100
AcDbEntity
  8
1-2
  6
Continuous
 62
     3
370
     9
100
AcDbLine
 10
-368.9186714790961
 20
321.8106573981208
 30
0.0
 11
-368.9186714790961
 21
509.8109807194891
 31
0.0
  0
LINE
  5
2AA
330
1F
100
AcDbEntity
  8
1-2
  6
Continuous
 62
     3
370
     9
100
AcDbLine
 10
-368.9186714790961
 20
521.8108223580026
 30
0.0
 11
-368.9186714790961
 21
709.8105270798144
 31
0.0
  0
LINE
  5
2AB
330
1F
100
AcDbEntity
  8
1-2
  6
Continuous
 62
     3
370
     9
100
AcDbLine
 10
-348.9182343354096
 20
721.8103687183279
 30
0.0
 11
-348.9182343354096
 21
816.8101872624578
 31
0.0
  0
LINE
  5
2AC
330
1F
100
AcDbEntity
  8
1-2
  6
Continuous
 62
     3
370
     9
100
AcDbLine
 10
-338.9186962230784
 20
721.8103687183279
 30
0.0
 11
-338.9186962230784
 21
816.8101872624578
 31
0.0
  0
LINE
  5
2AD
330
1F
100
AcDbEntity
  8
1-2
  6
Continuous
 62
     3
370
     9
100
AcDbLine
 10
-348.9182343354096
 20
321.8106573981208
 30
0.0
 11
-348.9182343354096
 21
509.8109807194891
 31
0.0
  0
LINE
  5
2AE
330
1F
100
AcDbEntity
  8
1-2
  6
Continuous
 62
     3
370
     9
100
AcDbLine
 10
-348.9182343354096
 20
521.8108223580026
 30
0.0
 11
-348.9182343354096
 21
709.8105270798144
 31
0.0
  0
LINE
  5
2AF
330
1F
100
AcDbEntity
  8
1-2
  6
Continuous
 62
     3
370
     9
100
AcDbLine
 10
-338.9186962230784
 20
321.8106573981208
 30
0.0
 11
-338.9186962230784
 21
509.8109807194891
 31
0.0
  0
LINE
  5
2B0
330
1F
100
AcDbEntity
  8
1-2
  6
Continuous
 62
     3
370
     9
100
AcDbLine
 10
-338.9186962230784
 20
521.8108223580026
 30
0.0
 11
-338.9186962230784
 21
709.8105270798144
 31
0.0
  0
LINE
  5
2B1
330
1F
100
AcDbEntity
  8
1-2
  6
Continuous
 62
     3
370
     9
100
AcDbLine
 10
-318.9182590793919
 20
721.8103687183279
 30
0.0
 11
-318.9182590793919
 21
816.8101872624578
 31
0.0
  0
LINE
  5
2B2
330
1F
100
AcDbEntity
  8
1-2
  6
Continuous
 62
     3
370
     9
100
AcDbLine
 10
-308.9187209670607
 20
721.8103687183279
 30
0.0
 11
-308.9187209670607
 21
816.8101872624578
 31
0.0
  0
LINE
  5
2B3
330
1F
100
AcDbEntity
  8
1-2
  6
Continuous
 62
     3
370
     9
100
AcDbLine
 10
-318.9182590793919
 20
321.8106573981208
 30
0.0
 11
-318.9182590793919
 21
509.8109807194891
 31
0.0
  0
LINE
  5
2B4
330
1F
100
AcDbEntity
  8
1-2
  6
Continuous
 62
     3
370
     9
100
AcDbLine
 10
-318.9182590793919
 20
521.8108223580026
 30
0.0
 11
-318.9182590793919
 21
709.8105270798144
 31
0.0
  0
LINE
  5
2B5
330
1F
100
AcDbEntity
  8
1-2
  6
Continuous
 62
     3
370
     9
100
AcDbLine
 10
-308.9187209670607
 20
321.8106573981208
 30
0.0
 11
-308.9187209670607
 21
509.8109807194891
 31
0.0
  0
LINE
  5
2B6
330
1F
100
AcDbEntity
  8
1-2
  6
Continuous
 62
     3
370
     9
100
AcDbLine
 10
-308.9187209670607
 20
521.8108223580026
 30
0.0
 11
-308.9187209670607
 21
709.8105270798144
 31
0.0
  0
LINE
  5
2B7
330
1F
100
AcDbEntity
  8
1-2
  6
Continuous
 62
     3
370
     9
100
AcDbLine
 10
-288.9182838233739
 20
721.8103687183279
 30
0.0
 11
-288.9182838233739
 21
816.8101872624578
 31
0.0
  0
LINE
  5
2B8
330
1F
100
AcDbEntity
  8
1-2
  6
Continuous
 62
     3
370
     9
100
AcDbLine
 10
-278.918745711043
 20
721.8103687183279
 30
0.0
 11
-278.918745711043
 21
816.8101872624578
 31
0.0
  0
LINE
  5
2B9
330
1F
100
AcDbEntity
  8
1-2
  6
Continuous
 62
     3
370
     9
100
AcDbLine
 10
-288.9182838233739
 20
321.8106573981208
 30
0.0
 11
-288.9182838233739
 21
509.8109807194891
 31
0.0
  0
LINE
  5
2BA
330
1F
100
AcDbEntity
  8
1-2
  6
Continuous
 62
     3
370
     9
100
AcDbLine
 10
-288.9182838233739
 20
521.8108223580026
 30
0.0
 11
-288.9182838233739
 21
709.8105270798144
 31
0.0
  0
LINE
  5
2BB
330
1F
100
AcDbEntity
  8
1-2
  6
Continuous
 62
     3
370
     9
100
AcDbLine
 10
-278.918745711043
 20
321.8106573981208
 30
0.0
 11
-278.918745711043
 21
509.8109807194891
 31
0.0
  0
LINE
  5
2BC
330
1F
100
AcDbEntity
  8
1-2
  6
Continuous
 62
     3
370
     9
100
AcDbLine
 10
-278.918745711043
 20
521.8108223580026
 30
0.0
 11
-278.918745711043
 21
709.8105270798144
 31
0.0
  0
LINE
  5
2BD
330
1F
100
AcDbEntity
  8
1-2
  6
Continuous
 62
     3
370
     9
100
AcDbLine
 10
-258.9183085673562
 20
721.8103687183279
 30
0.0
 11
-258.9183085673562
 21
816.8101872624578
 31
0.0
  0
LINE
  5
2BE
330
1F
100
AcDbEntity
  8
1-2
  6
Continuous
 62
     3
370
     9
100
AcDbLine
 10
-248.9187704550253
 20
721.8103687183279
 30
0.0
 11
-248.9187704550253
 21
816.8101872624578
 31
0.0
  0
LINE
  5
2BF
330
1F
100
AcDbEntity
  8
1-2
  6
Continuous
 62
     3
370
     9
100
AcDbLine
 10
-258.9183085673562
 20
321.8106573981208
 30
0.0
 11
-258.9183085673562
 21
509.8109807194891
 31
0.0
  0
LINE
  5
2C0
330
1F
100
AcDbEntity
  8
1-2
  6
Continuous
 62
     3
370
     9
100
AcDbLine
 10
-258.9183085673562
 20
521.8108223580026
 30
0.0
 11
-258.9183085673562
 21
709.8105270798144
 31
0.0
  0
LINE
  5
2C1
330
1F
100
AcDbEntity
  8
1-2
  6
Continuous
 62
     3
370
     9
100
AcDbLine
 10
-248.9187704550253
 20
321.8106573981208
 30
0.0
 11
-248.9187704550253
 21
509.8109807194891
 31
0.0
  0
LINE
  5
2C2
330
1F
100
AcDbEntity
  8
1-2
  6
Continuous
 62
     3
370
     9
100
AcDbLine
 10
-248.9187704550253
 20
521.8108223580026
 30
0.0
 11
-248.9187704550253
 21
709.8105270798144
 31
0.0
  0
LINE
  5
2C3
330
1F
100
AcDbEntity
  8
1-2
  6
Continuous
 62
     3
370
     9
100
AcDbLine
 10
-228.9183333113385
 20
721.8103687183279
 30
0.0
 11
-228.9183333113385
 21
816.8101872624578
 31
0.0
  0
LINE
  5
2C4
330
1F
100
AcDbEntity
  8
1-2
  6
Continuous
 62
     3
370
     9
100
AcDbLine
 10
-218.9187951990075
 20
721.8103687183279
 30
0.0
 11
-218.9187951990075
 21
816.8101872624578
 31
0.0
  0
LINE
  5
2C5
330
1F
100
AcDbEntity
  8
1-2
  6
Continuous
 62
     3
370
     9
100
AcDbLine
 10
-228.9183333113385
 20
321.8106573981208
 30
0.0
 11
-228.9183333113385
 21
509.8109807194891
 31
0.0
  0
LINE
  5
2C6
330
1F
100
AcDbEntity
  8
1-2
  6
Continuous
 62
     3
370
     9
100
AcDbLine
 10
-228.9183333113385
 20
521.8108223580026
 30
0.0
 11
-228.9183333113385
 21
709.8105270798144
 31
0.0
  0
LINE
  5
2C7
330
1F
100
AcDbEntity
  8
1-2
  6
Continuous
 62
     3
370
     9
100
AcDbLine
 10
-218.9187951990075
 20
321.8106573981208
 30
0.0
 11
-218.9187951990075
 21
509.8109807194891
 31
0.0
  0
LINE
  5
2C8
330
1F
100
AcDbEntity
  8
1-2
  6
Continuous
 62
     3
370
     9
100
AcDbLine
 10
-218.9187951990075
 20
521.8108223580026
 30
0.0
 11
-218.9187951990075
 21
709.8105270798144
 31
0.0
  0
LINE
  5
2C9
330
1F
100
AcDbEntity
  8
1-2
  6
Continuous
 62
     3
370
     9
100
AcDbLine
 10
-198.9183580553208
 20
721.8103687183279
 30
0.0
 11
-198.9183580553208
 21
816.8101872624578
 31
0.0
  0
LINE
  5
2CA
330
1F
100
AcDbEntity
  8
1-2
  6
Continuous
 62
     3
370
     9
100
AcDbLine
 10
-188.9188199429898
 20
721.8103687183279
 30
0.0
 11
-188.9188199429898
 21
816.8101872624578
 31
0.0
  0
LINE
  5
2CB
330
1F
100
AcDbEntity
  8
1-2
  6
Continuous
 62
     3
370
     9
100
AcDbLine
 10
-198.9183580553208
 20
321.8106573981208
 30
0.0
 11
-198.9183580553208
 21
509.8109807194891
 31
0.0
  0
LINE
  5
2CC
330
1F
100
AcDbEntity
  8
1-2
  6
Continuous
 62
     3
370
     9
100
AcDbLine
 10
-198.9183580553208
 20
521.8108223580026
 30
0.0
 11
-198.9183580553208
 21
709.8105270798144
 31
0.0
  0
LINE
  5
2CD
330
1F
100
AcDbEntity
  8
1-2
  6
Continuous
 62
     3
370
     9
100
AcDbLine
 10
-188.9188199429898
 20
321.8106573981208
 30
0.0
 11
-188.9188199429898
 21
509.8109807194891
 31
0.0
  0
LINE
  5
2CE
330
1F
100
AcDbEntity
  8
1-2
  6
Continuous
 62
     3
370
     9
100
AcDbLine
 10
-188.9188199429898
 20
521.8108223580026
 30
0.0
 11
-188.9188199429898
 21
709.8105270798144
 31
0.0
  0
LINE
  5
2CF
330
1F
100
AcDbEntity
  8
1-2
  6
Continuous
 62
     3
370
     9
100
AcDbLine
 10
-168.9183827993031
 20
721.8103687183279
 30
0.0
 11
-168.9183827993031
 21
816.8101872624578
 31
0.0
  0
LINE
  5
2D0
330
1F
100
AcDbEntity
  8
1-2
  6
Continuous
 62
     3
370
     9
100
AcDbLine
 10
-158.9188446869721
 20
721.8103687183279
 30
0.0
 11
-158.9188446869721
 21
816.8101872624578
 31
0.0
  0
LINE
  5
2D1
330
1F
100
AcDbEntity
  8
1-2
  6
Continuous
 62
     3
370
     9
100
AcDbLine
 10
-168.9183827993031
 20
321.8106573981208
 30
0.0
 11
-168.9183827993031
 21
509.8109807194891
 31
0.0
  0
LINE
  5
2D2
330
1F
100
AcDbEntity
  8
1-2
  6
Continuous
 62
     3
370
     9
100
AcDbLine
 10
-168.9183827993031
 20
521.8108223580026
 30
0.0
 11
-168.9183827993031
 21
709.8105270798144
 31
0.0
  0
LINE
  5
2D3
330
1F
100
AcDbEntity
  8
1-2
  6
Continuous
 62
     3
370
     9
100
AcDbLine
 10
-158.9188446869721
 20
321.8106573981208
 30
0.0
 11
-158.9188446869721
 21
509.8109807194891
 31
0.0
  0
LINE
  5
2D4
330
1F
100
AcDbEntity
  8
1-2
  6
Continuous
 62
     3
370
     9
100
AcDbLine
 10
-158.9188446869721
 20
521.8108223580026
 30
0.0
 11
-158.9188446869721
 21
709.8105270798144
 31
0.0
  0
LINE
  5
2D5
330
1F
100
AcDbEntity
  8
1-2
  6
Continuous
 62
     3
370
     9
100
AcDbLine
 10
-138.9184075432854
 20
721.8103687183279
 30
0.0
 11
-138.9184075432854
 21
816.8101872624578
 31
0.0
  0
LINE
  5
2D6
330
1F
100
AcDbEntity
  8
1-2
  6
Continuous
 62
     3
370
     9
100
AcDbLine
 10
-128.9188694309541
 20
721.8103687183279
 30
0.0
 11
-128.9188694309541
 21
816.8101872624578
 31
0.0
  0
LINE
  5
2D7
330
1F
100
AcDbEntity
  8
1-2
  6
Continuous
 62
     3
370
     9
100
AcDbLine
 10
-138.9184075432854
 20
321.8106573981208
 30
0.0
 11
-138.9184075432854
 21
509.8109807194891
 31
0.0
  0
LINE
  5
2D8
330
1F
100
AcDbEntity
  8
1-2
  6
Continuous
 62
     3
370
     9
100
AcDbLine
 10
-138.9184075432854
 20
521.8108223580026
 30
0.0
 11
-138.9184075432854
 21
709.8105270798144
 31
0.0
  0
LINE
  5
2D9
330
1F
100
AcDbEntity
  8
1-2
  6
Continuous
 62
     3
370
     9
100
AcDbLine
 10
-128.9188694309541
 20
321.8106573981208
 30
0.0
 11
-128.9188694309541
 21
509.8109807194891
 31
0.0
  0
LINE
  5
2DA
330
1F
100
AcDbEntity
  8
1-2
  6
Continuous
 62
     3
370
     9
100
AcDbLine
 10
-128.9188694309541
 20
521.8108223580026
 30
0.0
 11
-128.9188694309541
 21
709.8105270798144
 31
0.0
  0
LINE
  5
2DB
330
1F
100
AcDbEntity
  8
1-2
  6
Continuous
 62
     3
370
     9
100
AcDbLine
 10
-108.9184322872677
 20
721.8103687183279
 30
0.0
 11
-108.9184322872677
 21
816.8101872624578
 31
0.0
  0
LINE
  5
2DC
330
1F
100
AcDbEntity
  8
1-2
  6
Continuous
 62
     3
370
     9
100
AcDbLine
 10
-98.91889417493644
 20
721.8103687183279
 30
0.0
 11
-98.91889417493644
 21
816.8101872624578
 31
0.0
  0
LINE
  5
2DD
330
1F
100
AcDbEntity
  8
1-2
  6
Continuous
 62
     3
370
     9
100
AcDbLine
 10
-108.9184322872677
 20
321.8106573981208
 30
0.0
 11
-108.9184322872677
 21
509.8109807194891
 31
0.0
  0
LINE
  5
2DE
330
1F
100
AcDbEntity
  8
1-2
  6
Continuous
 62
     3
370
     9
100
AcDbLine
 10
-108.9184322872677
 20
521.8108223580026
 30
0.0
 11
-108.9184322872677
 21
709.8105270798144
 31
0.0
  0
LINE
  5
2DF
330
1F
100
AcDbEntity
  8
1-2
  6
Continuous
 62
     3
370
     9
100
AcDbLine
 10
-98.91889417493644
 20
321.8106573981208
 30
0.0
 11
-98.91889417493644
 21
509.8109807194891
 31
0.0
  0
LINE
  5
2E0
330
1F
100
AcDbEntity
  8
1-2
  6
Continuous
 62
     3
370
     9
100
AcDbLine
 10
-98.91889417493644
 20
521.8108223580026
 30
0.0
 11
-98.91889417493644
 21
709.8105270798144
 31
0.0
  0
LINE
  5
2E1
330
1F
100
AcDbEntity
  8
1-2
  6
Continuous
 62
     3
370
     9
100
AcDbLine
 10
-78.91845703125
 20
721.8103687183279
 30
0.0
 11
-78.91845703125
 21
816.8101872624578
 31
0.0
  0
LINE
  5
2E2
330
1F
100
AcDbEntity
  8
1-2
  6
Continuous
 62
     3
370
     9
100
AcDbLine
 10
-68.91891891891873
 20
721.8103687183279
 30
0.0
 11
-68.91891891891873
 21
816.8101872624578
 31
0.0
  0
LINE
  5
2E3
330
1F
100
AcDbEntity
  8
1-2
  6
Continuous
 62
     3
370
     9
100
AcDbLine
 10
-78.91845703125
 20
321.8106573981208
 30
0.0
 11
-78.91845703125
 21
509.8109807194891
 31
0.0
  0
LINE
  5
2E4
330
1F
100
AcDbEntity
  8
1-2
  6
Continuous
 62
     3
370
     9
100
AcDbLine
 10
-78.91845703125
 20
521.8108223580026
 30
0.0
 11
-78.91845703125
 21
709.8105270798144
 31
0.0
  0
LINE
  5
2E5
330
1F
100
AcDbEntity
  8
1-2
  6
Continuous
 62
     3
370
     9
100
AcDbLine
 10
-68.91891891891873
 20
321.8106573981208
 30
0.0
 11
-68.91891891891873
 21
509.8109807194891
 31
0.0
  0
LINE
  5
2E6
330
1F
100
AcDbEntity
  8
1-2
  6
Continuous
 62
     3
370
     9
100
AcDbLine
 10
-68.91891891891873
 20
521.8108223580026
 30
0.0
 11
-68.91891891891873
 21
709.8105270798144
 31
0.0
  0
LINE
  5
2E7
330
1F
100
AcDbEntity
  8
1-2
  6
Continuous
 62
     3
370
     9
100
AcDbLine
 10
-48.91848177523201
 20
721.8103687183279
 30
0.0
 11
-48.91848177523201
 21
816.8101872624578
 31
0.0
  0
LINE
  5
2E8
330
1F
100
AcDbEntity
  8
1-2
  6
Continuous
 62
     3
370
     9
100
AcDbLine
 10
-38.91894366290103
 20
721.8103687183279
 30
0.0
 11
-38.91894366290103
 21
816.8101872624578
 31
0.0
  0
LINE
  5
2E9
330
1F
100
AcDbEntity
  8
1-2
  6
Continuous
 62
     3
370
     9
100
AcDbLine
 10
-48.91848177523201
 20
321.8106573981208
 30
0.0
 11
-48.91848177523201
 21
509.8109807194891
 31
0.0
  0
LINE
  5
2EA
330
1F
100
AcDbEntity
  8
1-2
  6
Continuous
 62
     3
370
     9
100
AcDbLine
 10
-48.91848177523201
 20
521.8108223580026
 30
0.0
 11
-48.91848177523201
 21
709.8105270798144
 31
0.0
  0
LINE
  5
2EB
330
1F
100
AcDbEntity
  8
1-2
  6
Continuous
 62
     3
370
     9
100
AcDbLine
 10
-38.91894366290103
 20
321.8106573981208
 30
0.0
 11
-38.91894366290103
 21
509.8109807194891
 31
0.0
  0
LINE
  5
2EC
330
1F
100
AcDbEntity
  8
1-2
  6
Continuous
 62
     3
370
     9
100
AcDbLine
 10
-38.91894366290103
 20
521.8108223580026
 30
0.0
 11
-38.91894366290103
 21
709.8105270798144
 31
0.0
  0
LINE
  5
2ED
330
1F
100
AcDbEntity
  8
1-2
  6
Continuous
 62
     3
370
     9
100
AcDbLine
 10
-18.9185065192143
 20
721.8103687183279
 30
0.0
 11
-18.9185065192143
 21
816.8101872624578
 31
0.0
  0
LINE
  5
2EE
330
1F
100
AcDbEntity
  8
1-2
  6
Continuous
 62
     3
370
     9
100
AcDbLine
 10
-8.918968406883323
 20
721.8103687183279
 30
0.0
 11
-8.918968406883323
 21
816.8101872624578
 31
0.0
  0
LINE
  5
2EF
330
1F
100
AcDbEntity
  8
1-2
  6
Continuous
 62
     3
370
     9
100
AcDbLine
 10
-18.9185065192143
 20
321.8106573981208
 30
0.0
 11
-18.9185065192143
 21
509.8109807194891
 31
0.0
  0
LINE
  5
2F0
330
1F
100
AcDbEntity
  8
1-2
  6
Continuous
 62
     3
370
     9
100
AcDbLine
 10
-18.9185065192143
 20
521.8108223580026
 30
0.0
 11
-18.9185065192143
 21
709.8105270798144
 31
0.0
  0
LINE
  5
2F1
330
1F
100
AcDbEntity
  8
1-2
  6
Continuous
 62
     3
370
     9
100
AcDbLine
 10
-8.918968406883323
 20
321.8106573981208
 30
0.0
 11
-8.918968406883323
 21
509.8109807194891
 31
0.0
  0
LINE
  5
2F2
330
1F
100
AcDbEntity
  8
1-2
  6
Continuous
 62
     3
370
     9
100
AcDbLine
 10
-8.918968406883323
 20
521.8108223580026
 30
0.0
 11
-8.918968406883323
 21
709.8105270798144
 31
0.0
  0
LINE
  5
2F3
330
1F
100
AcDbEntity
  8
1-2
  6
Continuous
 62
     3
370
     9
100
AcDbLine
 10
11.08134501689193
 20
721.8103687183279
 30
0.0
 11
11.08134501689193
 21
816.8101872624578
 31
0.0
  0
LINE
  5
2F4
330
1F
100
AcDbEntity
  8
1-2
  6
Continuous
 62
     3
370
     9
100
AcDbLine
 10
21.0808831292232
 20
721.8103687183279
 30
0.0
 11
21.0808831292232
 21
816.8101872624578
 31
0.0
  0
LINE
  5
2F5
330
1F
100
AcDbEntity
  8
1-2
  6
Continuous
 62
     3
370
     9
100
AcDbLine
 10
11.08134501689193
 20
321.8106573981208
 30
0.0
 11
11.08134501689193
 21
509.8109807194891
 31
0.0
  0
LINE
  5
2F6
330
1F
100
AcDbEntity
  8
1-2
  6
Continuous
 62
     3
370
     9
100
AcDbLine
 10
11.08134501689193
 20
521.8108223580026
 30
0.0
 11
11.08134501689193
 21
709.8105270798144
 31
0.0
  0
LINE
  5
2F7
330
1F
100
AcDbEntity
  8
1-2
  6
Continuous
 62
     3
370
     9
100
AcDbLine
 10
21.0808831292232
 20
321.8106573981208
 30
0.0
 11
21.0808831292232
 21
509.8109807194891
 31
0.0
  0
LINE
  5
2F8
330
1F
100
AcDbEntity
  8
1-2
  6
Continuous
 62
     3
370
     9
100
AcDbLine
 10
21.0808831292232
 20
521.8108223580026
 30
0.0
 11
21.0808831292232
 21
709.8105270798144
 31
0.0
  0
LINE
  5
2F9
330
1F
100
AcDbEntity
  8
1-2
  6
Continuous
 62
     3
370
     9
100
AcDbLine
 10
41.08144399282111
 20
721.8103687183279
 30
0.0
 11
41.08144399282111
 21
816.8101872624578
 31
0.0
  0
LINE
  5
2FA
330
1F
100
AcDbEntity
  8
1-2
  6
Continuous
 62
     3
370
     9
100
AcDbLine
 10
51.08098210515209
 20
721.8103687183279
 30
0.0
 11
51.08098210515209
 21
816.8101872624578
 31
0.0
  0
LINE
  5
2FB
330
1F
100
AcDbEntity
  8
1-2
  6
Continuous
 62
     3
370
     9
100
AcDbLine
 10
41.08144399282111
 20
321.8106573981208
 30
0.0
 11
41.08144399282111
 21
509.8109807194891
 31
0.0
  0
LINE
  5
2FC
330
1F
100
AcDbEntity
  8
1-2
  6
Continuous
 62
     3
370
     9
100
AcDbLine
 10
41.08144399282111
 20
521.8108223580026
 30
0.0
 11
41.08144399282111
 21
709.8105270798144
 31
0.0
  0
LINE
  5
2FD
330
1F
100
AcDbEntity
  8
1-2
  6
Continuous
 62
     3
370
     9
100
AcDbLine
 10
51.08098210515209
 20
321.8106573981208
 30
0.0
 11
51.08098210515209
 21
509.8109807194891
 31
0.0
  0
LINE
  5
2FE
330
1F
100
AcDbEntity
  8
1-2
  6
Continuous
 62
     3
370
     9
100
AcDbLine
 10
51.08098210515209
 20
521.8108223580026
 30
0.0
 11
51.08098210515209
 21
709.8105270798144
 31
0.0
  0
LINE
  5
2FF
330
1F
100
AcDbEntity
  8
1-2
  6
Continuous
 62
     3
370
     9
100
AcDbLine
 10
71.08154296875
 20
721.8103687183279
 30
0.0
 11
71.08154296875
 21
816.8101872624578
 31
0.0
  0
LINE
  5
300
330
1F
100
AcDbEntity
  8
1-2
  6
Continuous
 62
     3
370
     9
100
AcDbLine
 10
81.08108108108127
 20
721.8103687183279
 30
0.0
 11
81.08108108108127
 21
816.8101872624578
 31
0.0
  0
LINE
  5
301
330
1F
100
AcDbEntity
  8
1-2
  6
Continuous
 62
     3
370
     9
100
AcDbLine
 10
71.08154296875
 20
321.8106573981208
 30
0.0
 11
71.08154296875
 21
509.8109807194891
 31
0.0
  0
LINE
  5
302
330
1F
100
AcDbEntity
  8
1-2
  6
Continuous
 62
     3
370
     9
100
AcDbLine
 10
71.08154296875
 20
521.8108223580026
 30
0.0
 11
71.08154296875
 21
709.8105270798144
 31
0.0
  0
LINE
  5
303
330
1F
100
AcDbEntity
  8
1-2
  6
Continuous
 62
     3
370
     9
100
AcDbLine
 10
81.08108108108127
 20
321.8106573981208
 30
0.0
 11
81.08108108108127
 21
509.8109807194891
 31
0.0
  0
LINE
  5
304
330
1F
100
AcDbEntity
  8
1-2
  6
Continuous
 62
     3
370
     9
100
AcDbLine
 10
81.08108108108127
 20
521.8108223580026
 30
0.0
 11
81.08108108108127
 21
709.8105270798144
 31
0.0
  0
LINE
  5
305
330
1F
100
AcDbEntity
  8
1-2
  6
Continuous
 62
     3
370
     9
100
AcDbLine
 10
101.0813945048565
 20
721.8103687183279
 30
0.0
 11
101.0813945048565
 21
816.8101872624578
 31
0.0
  0
LINE
  5
306
330
1F
100
AcDbEntity
  8
1-2
  6
Continuous
 62
     3
370
     9
100
AcDbLine
 10
111.0809326171875
 20
721.8103687183279
 30
0.0
 11
111.0809326171875
 21
816.8101872624578
 31
0.0
  0
LINE
  5
307
330
1F
100
AcDbEntity
  8
1-2
  6
Continuous
 62
     3
370
     9
100
AcDbLine
 10
101.0813945048565
 20
321.8106573981208
 30
0.0
 11
101.0813945048565
 21
509.8109807194891
 31
0.0
  0
LINE
  5
308
330
1F
100
AcDbEntity
  8
1-2
  6
Continuous
 62
     3
370
     9
100
AcDbLine
 10
101.0813945048565
 20
521.8108223580026
 30
0.0
 11
101.0813945048565
 21
709.8105270798144
 31
0.0
  0
LINE
  5
309
330
1F
100
AcDbEntity
  8
1-2
  6
Continuous
 62
     3
370
     9
100
AcDbLine
 10
111.0809326171875
 20
321.8106573981208
 30
0.0
 11
111.0809326171875
 21
509.8109807194891
 31
0.0
  0
LINE
  5
30A
330
1F
100
AcDbEntity
  8
1-2
  6
Continuous
 62
     3
370
     9
100
AcDbLine
 10
111.0809326171875
 20
521.8108223580026
 30
0.0
 11
111.0809326171875
 21
709.8105270798144
 31
0.0
  0
LINE
  5
30B
330
1F
100
AcDbEntity
  8
1-2
  6
Continuous
 62
     3
370
     9
100
AcDbLine
 10
131.0814934807857
 20
721.8103687183279
 30
0.0
 11
131.0814934807857
 21
816.8101872624578
 31
0.0
  0
LINE
  5
30C
330
1F
100
AcDbEntity
  8
1-2
  6
Continuous
 62
     3
370
     9
100
AcDbLine
 10
141.0810315931167
 20
721.8103687183279
 30
0.0
 11
141.0810315931167
 21
816.8101872624578
 31
0.0
  0
LINE
  5
30D
330
1F
100
AcDbEntity
  8
1-2
  6
Continuous
 62
     3
370
     9
100
AcDbLine
 10
131.0814934807857
 20
321.8106573981208
 30
0.0
 11
131.0814934807857
 21
509.8109807194891
 31
0.0
  0
LINE
  5
30E
330
1F
100
AcDbEntity
  8
1-2
  6
Continuous
 62
     3
370
     9
100
AcDbLine
 10
131.0814934807857
 20
521.8108223580026
 30
0.0
 11
131.0814934807857
 21
709.8105270798144
 31
0.0
  0
LINE
  5
30F
330
1F
100
AcDbEntity
  8
1-2
  6
Continuous
 62
     3
370
     9
100
AcDbLine
 10
141.0810315931167
 20
321.8106573981208
 30
0.0
 11
141.0810315931167
 21
509.8109807194891
 31
0.0
  0
LINE
  5
310
330
1F
100
AcDbEntity
  8
1-2
  6
Continuous
 62
     3
370
     9
100
AcDbLine
 10
141.0810315931167
 20
521.8108223580026
 30
0.0
 11
141.0810315931167
 21
709.8105270798144
 31
0.0
  0
LINE
  5
311
330
1F
100
AcDbEntity
  8
1-2
  6
Continuous
 62
     3
370
     9
100
AcDbLine
 10
161.0813450168919
 20
721.8103687183279
 30
0.0
 11
161.0813450168919
 21
816.8101872624578
 31
0.0
  0
LINE
  5
312
330
1F
100
AcDbEntity
  8
1-2
  6
Continuous
 62
     3
370
     9
100
AcDbLine
 10
171.0808831292232
 20
721.8103687183279
 30
0.0
 11
171.0808831292232
 21
816.8101872624578
 31
0.0
  0
LINE
  5
313
330
1F
100
AcDbEntity
  8
1-2
  6
Continuous
 62
     3
370
     9
100
AcDbLine
 10
161.0813450168919
 20
321.8106573981208
 30
0.0
 11
161.0813450168919
 21
509.8109807194891
 31
0.0
  0
LINE
  5
314
330
1F
100
AcDbEntity
  8
1-2
  6
Continuous
 62
     3
370
     9
100
AcDbLine
 10
161.0813450168919
 20
521.8108223580026
 30
0.0
 11
161.0813450168919
 21
709.8105270798144
 31
0.0
  0
LINE
  5
315
330
1F
100
AcDbEntity
  8
1-2
  6
Continuous
 62
     3
370
     9
100
AcDbLine
 10
171.0808831292232
 20
321.8106573981208
 30
0.0
 11
171.0808831292232
 21
509.8109807194891
 31
0.0
  0
LINE
  5
316
330
1F
100
AcDbEntity
  8
1-2
  6
Continuous
 62
     3
370
     9
100
AcDbLine
 10
171.0808831292232
 20
521.8108223580026
 30
0.0
 11
171.0808831292232
 21
709.8105270798144
 31
0.0
  0
LINE
  5
317
330
1F
100
AcDbEntity
  8
1-2
  6
Continuous
 62
     3
370
     9
100
AcDbLine
 10
191.0814439928211
 20
721.8103687183279
 30
0.0
 11
191.0814439928211
 21
816.8101872624578
 31
0.0
  0
LINE
  5
318
330
1F
100
AcDbEntity
  8
1-2
  6
Continuous
 62
     3
370
     9
100
AcDbLine
 10
201.0809821051521
 20
721.8103687183279
 30
0.0
 11
201.0809821051521
 21
816.8101872624578
 31
0.0
  0
LINE
  5
319
330
1F
100
AcDbEntity
  8
1-2
  6
Continuous
 62
     3
370
     9
100
AcDbLine
 10
191.0814439928211
 20
321.8106573981208
 30
0.0
 11
191.0814439928211
 21
509.8109807194891
 31
0.0
  0
LINE
  5
31A
330
1F
100
AcDbEntity
  8
1-2
  6
Continuous
 62
     3
370
     9
100
AcDbLine
 10
191.0814439928211
 20
521.8108223580026
 30
0.0
 11
191.0814439928211
 21
709.8105270798144
 31
0.0
  0
LINE
  5
31B
330
1F
100
AcDbEntity
  8
1-2
  6
Continuous
 62
     3
370
     9
100
AcDbLine
 10
201.0809821051521
 20
321.8106573981208
 30
0.0
 11
201.0809821051521
 21
509.8109807194891
 31
0.0
  0
LINE
  5
31C
330
1F
100
AcDbEntity
  8
1-2
  6
Continuous
 62
     3
370
     9
100
AcDbLine
 10
201.0809821051521
 20
521.8108223580026
 30
0.0
 11
201.0809821051521
 21
709.8105270798144
 31
0.0
  0
LINE
  5
31D
330
1F
100
AcDbEntity
  8
1-2
  6
Continuous
 62
     3
370
     9
100
AcDbLine
 10
221.0812955289276
 20
721.8103687183279
 30
0.0
 11
221.0812955289276
 21
816.8101872624578
 31
0.0
  0
LINE
  5
31E
330
1F
100
AcDbEntity
  8
1-2
  6
Continuous
 62
     3
370
     9
100
AcDbLine
 10
231.0808336412586
 20
721.8103687183279
 30
0.0
 11
231.0808336412586
 21
816.8101872624578
 31
0.0
  0
LINE
  5
31F
330
1F
100
AcDbEntity
  8
1-2
  6
Continuous
 62
     3
370
     9
100
AcDbLine
 10
221.0812955289276
 20
321.8106573981208
 30
0.0
 11
221.0812955289276
 21
509.8109807194891
 31
0.0
  0
LINE
  5
320
330
1F
100
AcDbEntity
  8
1-2
  6
Continuous
 62
     3
370
     9
100
AcDbLine
 10
221.0812955289276
 20
521.8108223580026
 30
0.0
 11
221.0812955289276
 21
709.8105270798144
 31
0.0
  0
LINE
  5
321
330
1F
100
AcDbEntity
  8
1-2
  6
Continuous
 62
     3
370
     9
100
AcDbLine
 10
231.0808336412586
 20
321.8106573981208
 30
0.0
 11
231.0808336412586
 21
509.8109807194891
 31
0.0
  0
LINE
  5
322
330
1F
100
AcDbEntity
  8
1-2
  6
Continuous
 62
     3
370
     9
100
AcDbLine
 10
231.0808336412586
 20
521.8108223580026
 30
0.0
 11
231.0808336412586
 21
709.8105270798144
 31
0.0
  0
LINE
  5
323
330
1F
100
AcDbEntity
  8
1-2
  6
Continuous
 62
     3
370
     9
100
AcDbLine
 10
251.0813945048565
 20
721.8103687183279
 30
0.0
 11
251.0813945048565
 21
816.8101872624578
 31
0.0
  0
LINE
  5
324
330
1F
100
AcDbEntity
  8
1-2
  6
Continuous
 62
     3
370
     9
100
AcDbLine
 10
261.0809326171875
 20
721.8103687183279
 30
0.0
 11
261.0809326171875
 21
816.8101872624578
 31
0.0
  0
LINE
  5
325
330
1F
100
AcDbEntity
  8
1-2
  6
Continuous
 62
     3
370
     9
100
AcDbLine
 10
251.0813945048565
 20
321.8106573981208
 30
0.0
 11
251.0813945048565
 21
509.8109807194891
 31
0.0
  0
LINE
  5
326
330
1F
100
AcDbEntity
  8
1-2
  6
Continuous
 62
     3
370
     9
100
AcDbLine
 10
251.0813945048565
 20
521.8108223580026
 30
0.0
 11
251.0813945048565
 21
709.8105270798144
 31
0.0
  0
LINE
  5
327
330
1F
100
AcDbEntity
  8
1-2
  6
Continuous
 62
     3
370
     9
100
AcDbLine
 10
261.0809326171875
 20
321.8106573981208
 30
0.0
 11
261.0809326171875
 21
509.8109807194891
 31
0.0
  0
LINE
  5
328
330
1F
100
AcDbEntity
  8
1-2
  6
Continuous
 62
     3
370
     9
100
AcDbLine
 10
261.0809326171875
 20
521.8108223580026
 30
0.0
 11
261.0809326171875
 21
709.8105270798144
 31
0.0
  0
LINE
  5
329
330
1F
100
AcDbEntity
  8
1-2
  6
Continuous
 62
     3
370
     9
100
AcDbLine
 10
281.081246040963
 20
721.8103687183279
 30
0.0
 11
281.081246040963
 21
816.8101872624578
 31
0.0
  0
LINE
  5
32A
330
1F
100
AcDbEntity
  8
1-2
  6
Continuous
 62
     3
370
     9
100
AcDbLine
 10
291.080784153294
 20
721.8103687183279
 30
0.0
 11
291.080784153294
 21
816.8101872624578
 31
0.0
  0
LINE
  5
32B
330
1F
100
AcDbEntity
  8
1-2
  6
Continuous
 62
     3
370
     9
100
AcDbLine
 10
281.081246040963
 20
321.8106573981208
 30
0.0
 11
281.081246040963
 21
509.8109807194891
 31
0.0
  0
LINE
  5
32C
330
1F
100
AcDbEntity
  8
1-2
  6
Continuous
 62
     3
370
     9
100
AcDbLine
 10
281.081246040963
 20
521.8108223580026
 30
0.0
 11
281.081246040963
 21
709.8105270798144
 31
0.0
  0
LINE
  5
32D
330
1F
100
AcDbEntity
  8
1-2
  6
Continuous
 62
     3
370
     9
100
AcDbLine
 10
291.080784153294
 20
321.8106573981208
 30
0.0
 11
291.080784153294
 21
509.8109807194891
 31
0.0
  0
LINE
  5
32E
330
1F
100
AcDbEntity
  8
1-2
  6
Continuous
 62
     3
370
     9
100
AcDbLine
 10
291.080784153294
 20
521.8108223580026
 30
0.0
 11
291.080784153294
 21
709.8105270798144
 31
0.0
  0
LINE
  5
32F
330
1F
100
AcDbEntity
  8
1-2
  6
Continuous
 62
     3
370
     9
100
AcDbLine
 10
311.0813450168919
 20
721.8103687183279
 30
0.0
 11
311.0813450168919
 21
816.8101872624578
 31
0.0
  0
LINE
  5
330
330
1F
100
AcDbEntity
  8
1-2
  6
Continuous
 62
     3
370
     9
100
AcDbLine
 10
321.0808831292232
 20
721.8103687183279
 30
0.0
 11
321.0808831292232
 21
816.8101872624578
 31
0.0
  0
LINE
  5
331
330
1F
100
AcDbEntity
  8
1-2
  6
Continuous
 62
     3
370
     9
100
AcDbLine
 10
311.0813450168919
 20
321.8106573981208
 30
0.0
 11
311.0813450168919
 21
509.8109807194891
 31
0.0
  0
LINE
  5
332
330
1F
100
AcDbEntity
  8
1-2
  6
Continuous
 62
     3
370
     9
100
AcDbLine
 10
311.0813450168919
 20
521.8108223580026
 30
0.0
 11
311.0813450168919
 21
709.8105270798144
 31
0.0
  0
LINE
  5
333
330
1F
100
AcDbEntity
  8
1-2
  6
Continuous
 62
     3
370
     9
100
AcDbLine
 10
321.0808831292232
 20
321.8106573981208
 30
0.0
 11
321.0808831292232
 21
509.8109807194891
 31
0.0
  0
LINE
  5
334
330
1F
100
AcDbEntity
  8
1-2
  6
Continuous
 62
     3
370
     9
100
AcDbLine
 10
321.0808831292232
 20
521.8108223580026
 30
0.0
 11
321.0808831292232
 21
709.8105270798144
 31
0.0
  0
LINE
  5
335
330
1F
100
AcDbEntity
  8
1-2
  6
Continuous
 62
     3
370
     9
100
AcDbLine
 10
341.0811965529984
 20
721.8103687183279
 30
0.0
 11
341.0811965529984
 21
816.8101872624578
 31
0.0
  0
LINE
  5
336
330
1F
100
AcDbEntity
  8
1-2
  6
Continuous
 62
     3
370
     9
100
AcDbLine
 10
351.0807346653294
 20
721.8103687183279
 30
0.0
 11
351.0807346653294
 21
816.8101872624578
 31
0.0
  0
LINE
  5
337
330
1F
100
AcDbEntity
  8
1-2
  6
Continuous
 62
     3
370
     9
100
AcDbLine
 10
341.0811965529984
 20
321.8106573981208
 30
0.0
 11
341.0811965529984
 21
509.8109807194891
 31
0.0
  0
LINE
  5
338
330
1F
100
AcDbEntity
  8
1-2
  6
Continuous
 62
     3
370
     9
100
AcDbLine
 10
341.0811965529984
 20
521.8108223580026
 30
0.0
 11
341.0811965529984
 21
709.8105270798144
 31
0.0
  0
LINE
  5
339
330
1F
100
AcDbEntity
  8
1-2
  6
Continuous
 62
     3
370
     9
100
AcDbLine
 10
351.0807346653294
 20
321.8106573981208
 30
0.0
 11
351.0807346653294
 21
509.8109807194891
 31
0.0
  0
LINE
  5
33A
330
1F
100
AcDbEntity
  8
1-2
  6
Continuous
 62
     3
370
     9
100
AcDbLine
 10
351.0807346653294
 20
521.8108223580026
 30
0.0
 11
351.0807346653294
 21
709.8105270798144
 31
0.0
  0
LINE
  5
33B
330
1F
100
AcDbEntity
  8
1-2
  6
Continuous
 62
     3
370
     9
100
AcDbLine
 10
810.5133881440037
 20
114.0527591189823
 30
0.0
 11
810.5133881440037
 21
100.9579962653083
 31
0.0
  0
LINE
  5
33C
330
1F
100
AcDbEntity
  8
1-2
  6
Continuous
 62
     3
370
     9
100
AcDbLine
 10
810.5133881440037
 20
100.9579962653083
 30
0.0
 11
813.5135959934547
 21
99.93557491817995
 31
0.0
  0
LINE
  5
33D
330
1F
100
AcDbEntity
  8
1-2
  6
Continuous
 62
     3
370
     9
100
AcDbLine
 10
810.5133881440037
 20
88.68646570154141
 30
0.0
 11
810.5133881440037
 21
79.87166945998752
 31
0.0
  0
LINE
  5
33E
330
1F
100
AcDbEntity
  8
1-2
  6
Continuous
 62
     3
370
     9
100
AcDbLine
 10
810.5133881440037
 20
79.87166945998752
 30
0.0
 11
813.5135959934547
 21
78.84900067303647
 31
0.0
  0
LINE
  5
33F
330
1F
100
AcDbEntity
  8
1-2
  6
Continuous
 62
     3
370
     9
100
AcDbLine
 10
810.5133881440037
 20
88.68646570154141
 30
0.0
 11
813.5135959934547
 21
89.70913448849245
 31
0.0
  0
LINE
  5
340
330
1F
100
AcDbEntity
  8
1-2
  6
Continuous
 62
     3
370
     9
100
AcDbLine
 10
813.5135959934547
 20
99.93557491817995
 30
0.0
 11
813.5135959934547
 21
89.70913448849245
 31
0.0
  0
LINE
  5
341
330
1F
100
AcDbEntity
  8
1-2
  6
Continuous
 62
     3
370
     9
100
AcDbLine
 10
813.5135959934547
 20
78.84900067303647
 30
0.0
 11
813.5135959934547
 21
68.62280768317163
 31
0.0
  0
LINE
  5
342
330
1F
100
AcDbEntity
  8
1-2
  6
Continuous
 62
     3
370
     9
100
AcDbLine
 10
810.5133881440037
 20
67.59989145639793
 30
0.0
 11
813.5135959934547
 21
68.62280768317163
 31
0.0
  0
LINE
  5
343
330
1F
100
AcDbEntity
  8
1-2
  6
Continuous
 62
     3
370
     9
100
AcDbLine
 10
810.5133881440037
 20
67.59989145639793
 30
0.0
 11
810.5133881440037
 21
54.50512860272397
 31
0.0
  0
LINE
  5
344
330
1F
100
AcDbEntity
  8
1-2
  6
Continuous
 62
     3
370
     9
100
AcDbLine
 10
810.5133881440037
 20
54.50512860272397
 30
0.0
 11
813.5135959934547
 21
53.48270725559559
 31
0.0
  0
LINE
  5
345
330
1F
100
AcDbEntity
  8
1-2
  6
Continuous
 62
     3
370
     9
100
AcDbLine
 10
813.5135959934547
 20
53.48270725559559
 30
0.0
 11
813.5135959934547
 21
43.25626682590809
 31
0.0
  0
LINE
  5
346
330
1F
100
AcDbEntity
  8
1-2
  6
Continuous
 62
     3
370
     9
100
AcDbLine
 10
813.5135959934547
 20
40.33573459934559
 30
0.0
 11
813.5135959934547
 21
40.1312255859375
 31
0.0
  0
LINE
  5
347
330
1F
100
AcDbEntity
  8
1-2
  6
Continuous
 62
     3
370
     9
100
AcDbLine
 10
813.5135959934547
 20
43.25626682590809
 30
0.0
 11
813.5135959934547
 21
40.33573459934559
 31
0.0
  0
LINE
  5
348
330
1F
100
AcDbEntity
  8
1-2
  6
Continuous
 62
     3
370
     9
100
AcDbLine
 10
810.5133881440037
 20
114.0527591189823
 30
0.0
 11
813.5135959934547
 21
115.075675345756
 31
0.0
  0
LINE
  5
349
330
1F
100
AcDbEntity
  8
1-2
  6
Continuous
 62
     3
370
     9
100
AcDbLine
 10
813.5135959934547
 20
127.9580111116977
 30
0.0
 11
813.5135959934547
 21
115.075675345756
 31
0.0
  0
LINE
  5
34A
330
1F
100
AcDbEntity
  8
1-2
  6
Continuous
 62
     3
370
     9
100
AcDbLine
 10
810.5133881440037
 20
39.1083093591638
 30
0.0
 11
813.5135959934547
 21
40.1312255859375
 31
0.0
  0
LINE
  5
34B
330
1F
100
AcDbEntity
  8
1-2
  6
Continuous
 62
     3
370
     9
100
AcDbLine
 10
810.5133881440037
 20
39.1083093591638
 30
0.0
 11
810.5133881440037
 21
26.01354650548984
 31
0.0
  0
LINE
  5
34C
330
1F
100
AcDbEntity
  8
1-2
  6
Continuous
 62
     3
370
     9
100
AcDbLine
 10
810.5133881440037
 20
26.01354650548984
 30
0.0
 11
813.5135959934547
 21
24.99112515836146
 31
0.0
  0
LINE
  5
34D
330
1F
100
AcDbEntity
  8
1-2
  6
Continuous
 62
     3
370
     9
100
AcDbLine
 10
813.5135959934547
 20
24.99112515836146
 30
0.0
 11
813.5135959934547
 21
14.76468472867396
 31
0.0
  0
LINE
  5
34E
330
1F
100
AcDbEntity
  8
1-2
  6
Continuous
 62
     3
370
     9
100
AcDbLine
 10
813.5135959934547
 20
5.810827306798956
 30
0.0
 11
813.5135959934547
 21
14.76468472867396
 31
0.0
  0
LINE
  5
34F
330
1F
100
AcDbEntity
  8
1-2
  6
Continuous
 62
     3
370
     9
100
AcDbLine
 10
381.0810810810813
 20
109.8108982395482
 30
0.0
 11
-1608.918803447002
 21
109.8108982395482
 31
0.0
  0
LINE
  5
350
330
1F
100
AcDbEntity
  8
1-2
  6
Continuous
 62
     3
370
     9
100
AcDbLine
 10
381.0810810810813
 20
121.8106161581505
 30
0.0
 11
-1608.918803447002
 21
121.8106161581505
 31
0.0
  0
LINE
  5
351
330
1F
100
AcDbEntity
  8
1-2
  6
Continuous
 62
     3
370
     9
100
AcDbLine
 10
-1578.917838431693
 20
14.81046109586146
 30
0.0
 11
-1578.917838431693
 21
109.8108982395482
 31
0.0
  0
LINE
  5
352
330
1F
100
AcDbEntity
  8
1-2
  6
Continuous
 62
     3
370
     9
100
AcDbLine
 10
-1578.917838431693
 20
121.8106161581505
 30
0.0
 11
-1578.917838431693
 21
309.8109394795188
 31
0.0
  0
LINE
  5
353
330
1F
100
AcDbEntity
  8
1-2
  6
Continuous
 62
     3
370
     9
100
AcDbLine
 10
-1568.918300319362
 20
14.81046109586146
 30
0.0
 11
-1568.918300319362
 21
109.8108982395482
 31
0.0
  0
LINE
  5
354
330
1F
100
AcDbEntity
  8
1-2
  6
Continuous
 62
     3
370
     9
100
AcDbLine
 10
-1568.918300319362
 20
121.8106161581505
 30
0.0
 11
-1568.918300319362
 21
309.8109394795188
 31
0.0
  0
LINE
  5
355
330
1F
100
AcDbEntity
  8
1-2
  6
Continuous
 62
     3
370
     9
100
AcDbLine
 10
-1598.91827557538
 20
14.81046109586146
 30
0.0
 11
-1598.91827557538
 21
109.8108982395482
 31
0.0
  0
LINE
  5
356
330
1F
100
AcDbEntity
  8
1-2
  6
Continuous
 62
     3
370
     9
100
AcDbLine
 10
-1598.91827557538
 20
121.8106161581505
 30
0.0
 11
-1598.91827557538
 21
309.8109394795188
 31
0.0
  0
LINE
  5
357
330
1F
100
AcDbEntity
  8
1-2
  6
Continuous
 62
     3
370
     9
100
AcDbLine
 10
371.08154296875
 20
14.81046109586146
 30
0.0
 11
371.08154296875
 21
109.8108982395482
 31
0.0
  0
LINE
  5
358
330
1F
100
AcDbEntity
  8
1-2
  6
Continuous
 62
     3
370
     9
100
AcDbLine
 10
371.08154296875
 20
121.8106161581505
 30
0.0
 11
371.08154296875
 21
309.8109394795188
 31
0.0
  0
LINE
  5
359
330
1F
100
AcDbEntity
  8
1-2
  6
Continuous
 62
     3
370
     9
100
AcDbLine
 10
-1548.917863175675
 20
14.81046109586146
 30
0.0
 11
-1548.917863175675
 21
109.8108982395482
 31
0.0
  0
LINE
  5
35A
330
1F
100
AcDbEntity
  8
1-2
  6
Continuous
 62
     3
370
     9
100
AcDbLine
 10
-1548.917863175675
 20
121.8106161581505
 30
0.0
 11
-1548.917863175675
 21
309.8109394795188
 31
0.0
  0
LINE
  5
35B
330
1F
100
AcDbEntity
  8
1-2
  6
Continuous
 62
     3
370
     9
100
AcDbLine
 10
-1538.918325063345
 20
14.81046109586146
 30
0.0
 11
-1538.918325063345
 21
109.8108982395482
 31
0.0
  0
LINE
  5
35C
330
1F
100
AcDbEntity
  8
1-2
  6
Continuous
 62
     3
370
     9
100
AcDbLine
 10
-1538.918325063345
 20
121.8106161581505
 30
0.0
 11
-1538.918325063345
 21
309.8109394795188
 31
0.0
  0
LINE
  5
35D
330
1F
100
AcDbEntity
  8
1-2
  6
Continuous
 62
     3
370
     9
100
AcDbLine
 10
-1518.917764199747
 20
14.81046109586146
 30
0.0
 11
-1518.917764199747
 21
109.8108982395482
 31
0.0
  0
LINE
  5
35E
330
1F
100
AcDbEntity
  8
1-2
  6
Continuous
 62
     3
370
     9
100
AcDbLine
 10
-1518.917764199747
 20
121.8106161581505
 30
0.0
 11
-1518.917764199747
 21
309.8109394795188
 31
0.0
  0
LINE
  5
35F
330
1F
100
AcDbEntity
  8
1-2
  6
Continuous
 62
     3
370
     9
100
AcDbLine
 10
-1508.918226087416
 20
14.81046109586146
 30
0.0
 11
-1508.918226087416
 21
109.8108982395482
 31
0.0
  0
LINE
  5
360
330
1F
100
AcDbEntity
  8
1-2
  6
Continuous
 62
     3
370
     9
100
AcDbLine
 10
-1508.918226087416
 20
121.8106161581505
 30
0.0
 11
-1508.918226087416
 21
309.8109394795188
 31
0.0
  0
LINE
  5
361
330
1F
100
AcDbEntity
  8
1-2
  6
Continuous
 62
     3
370
     9
100
AcDbLine
 10
-1488.917788943729
 20
14.81046109586146
 30
0.0
 11
-1488.917788943729
 21
109.8108982395482
 31
0.0
  0
LINE
  5
362
330
1F
100
AcDbEntity
  8
1-2
  6
Continuous
 62
     3
370
     9
100
AcDbLine
 10
-1488.917788943729
 20
121.8106161581505
 30
0.0
 11
-1488.917788943729
 21
309.8109394795188
 31
0.0
  0
LINE
  5
363
330
1F
100
AcDbEntity
  8
1-2
  6
Continuous
 62
     3
370
     9
100
AcDbLine
 10
-1478.918250831398
 20
14.81046109586146
 30
0.0
 11
-1478.918250831398
 21
109.8108982395482
 31
0.0
  0
LINE
  5
364
330
1F
100
AcDbEntity
  8
1-2
  6
Continuous
 62
     3
370
     9
100
AcDbLine
 10
-1478.918250831398
 20
121.8106161581505
 30
0.0
 11
-1478.918250831398
 21
309.8109394795188
 31
0.0
  0
LINE
  5
365
330
1F
100
AcDbEntity
  8
1-2
  6
Continuous
 62
     3
370
     9
100
AcDbLine
 10
-1458.917813687711
 20
14.81046109586146
 30
0.0
 11
-1458.917813687711
 21
109.8108982395482
 31
0.0
  0
LINE
  5
366
330
1F
100
AcDbEntity
  8
1-2
  6
Continuous
 62
     3
370
     9
100
AcDbLine
 10
-1458.917813687711
 20
121.8106161581505
 30
0.0
 11
-1458.917813687711
 21
309.8109394795188
 31
0.0
  0
LINE
  5
367
330
1F
100
AcDbEntity
  8
1-2
  6
Continuous
 62
     3
370
     9
100
AcDbLine
 10
-1448.91827557538
 20
14.81046109586146
 30
0.0
 11
-1448.91827557538
 21
109.8108982395482
 31
0.0
  0
LINE
  5
368
330
1F
100
AcDbEntity
  8
1-2
  6
Continuous
 62
     3
370
     9
100
AcDbLine
 10
-1448.91827557538
 20
121.8106161581505
 30
0.0
 11
-1448.91827557538
 21
309.8109394795188
 31
0.0
  0
LINE
  5
369
330
1F
100
AcDbEntity
  8
1-2
  6
Continuous
 62
     3
370
     9
100
AcDbLine
 10
-1428.917714711782
 20
14.81046109586146
 30
0.0
 11
-1428.917714711782
 21
109.8108982395482
 31
0.0
  0
LINE
  5
36A
330
1F
100
AcDbEntity
  8
1-2
  6
Continuous
 62
     3
370
     9
100
AcDbLine
 10
-1428.917714711782
 20
121.8106161581505
 30
0.0
 11
-1428.917714711782
 21
309.8109394795188
 31
0.0
  0
LINE
  5
36B
330
1F
100
AcDbEntity
  8
1-2
  6
Continuous
 62
     3
370
     9
100
AcDbLine
 10
-1418.918176599451
 20
14.81046109586146
 30
0.0
 11
-1418.918176599451
 21
109.8108982395482
 31
0.0
  0
LINE
  5
36C
330
1F
100
AcDbEntity
  8
1-2
  6
Continuous
 62
     3
370
     9
100
AcDbLine
 10
-1418.918176599451
 20
121.8106161581505
 30
0.0
 11
-1418.918176599451
 21
309.8109394795188
 31
0.0
  0
LINE
  5
36D
330
1F
100
AcDbEntity
  8
1-2
  6
Continuous
 62
     3
370
     9
100
AcDbLine
 10
-1398.917739455764
 20
14.81046109586146
 30
0.0
 11
-1398.917739455764
 21
109.8108982395482
 31
0.0
  0
LINE
  5
36E
330
1F
100
AcDbEntity
  8
1-2
  6
Continuous
 62
     3
370
     9
100
AcDbLine
 10
-1398.917739455764
 20
121.8106161581505
 30
0.0
 11
-1398.917739455764
 21
309.8109394795188
 31
0.0
  0
LINE
  5
36F
330
1F
100
AcDbEntity
  8
1-2
  6
Continuous
 62
     3
370
     9
100
AcDbLine
 10
-1388.918201343433
 20
14.81046109586146
 30
0.0
 11
-1388.918201343433
 21
109.8108982395482
 31
0.0
  0
LINE
  5
370
330
1F
100
AcDbEntity
  8
1-2
  6
Continuous
 62
     3
370
     9
100
AcDbLine
 10
-1388.918201343433
 20
121.8106161581505
 30
0.0
 11
-1388.918201343433
 21
309.8109394795188
 31
0.0
  0
LINE
  5
371
330
1F
100
AcDbEntity
  8
1-2
  6
Continuous
 62
     3
370
     9
100
AcDbLine
 10
-1368.917764199747
 20
14.81046109586146
 30
0.0
 11
-1368.917764199747
 21
109.8108982395482
 31
0.0
  0
LINE
  5
372
330
1F
100
AcDbEntity
  8
1-2
  6
Continuous
 62
     3
370
     9
100
AcDbLine
 10
-1368.917764199747
 20
121.8106161581505
 30
0.0
 11
-1368.917764199747
 21
309.8109394795188
 31
0.0
  0
LINE
  5
373
330
1F
100
AcDbEntity
  8
1-2
  6
Continuous
 62
     3
370
     9
100
AcDbLine
 10
-1358.918226087416
 20
14.81046109586146
 30
0.0
 11
-1358.918226087416
 21
109.8108982395482
 31
0.0
  0
LINE
  5
374
330
1F
100
AcDbEntity
  8
1-2
  6
Continuous
 62
     3
370
     9
100
AcDbLine
 10
-1358.918226087416
 20
121.8106161581505
 30
0.0
 11
-1358.918226087416
 21
309.8109394795188
 31
0.0
  0
LINE
  5
375
330
1F
100
AcDbEntity
  8
1-2
  6
Continuous
 62
     3
370
     9
100
AcDbLine
 10
-1338.917788943729
 20
14.81046109586146
 30
0.0
 11
-1338.917788943729
 21
109.8108982395482
 31
0.0
  0
LINE
  5
376
330
1F
100
AcDbEntity
  8
1-2
  6
Continuous
 62
     3
370
     9
100
AcDbLine
 10
-1338.917788943729
 20
121.8106161581505
 30
0.0
 11
-1338.917788943729
 21
309.8109394795188
 31
0.0
  0
LINE
  5
377
330
1F
100
AcDbEntity
  8
1-2
  6
Continuous
 62
     3
370
     9
100
AcDbLine
 10
-1328.918250831398
 20
14.81046109586146
 30
0.0
 11
-1328.918250831398
 21
109.8108982395482
 31
0.0
  0
LINE
  5
378
330
1F
100
AcDbEntity
  8
1-2
  6
Continuous
 62
     3
370
     9
100
AcDbLine
 10
-1328.918250831398
 20
121.8106161581505
 30
0.0
 11
-1328.918250831398
 21
309.8109394795188
 31
0.0
  0
LINE
  5
379
330
1F
100
AcDbEntity
  8
1-2
  6
Continuous
 62
     3
370
     9
100
AcDbLine
 10
-1308.917813687711
 20
14.81046109586146
 30
0.0
 11
-1308.917813687711
 21
109.8108982395482
 31
0.0
  0
LINE
  5
37A
330
1F
100
AcDbEntity
  8
1-2
  6
Continuous
 62
     3
370
     9
100
AcDbLine
 10
-1308.917813687711
 20
121.8106161581505
 30
0.0
 11
-1308.917813687711
 21
309.8109394795188
 31
0.0
  0
LINE
  5
37B
330
1F
100
AcDbEntity
  8
1-2
  6
Continuous
 62
     3
370
     9
100
AcDbLine
 10
-1298.91827557538
 20
14.81046109586146
 30
0.0
 11
-1298.91827557538
 21
109.8108982395482
 31
0.0
  0
LINE
  5
37C
330
1F
100
AcDbEntity
  8
1-2
  6
Continuous
 62
     3
370
     9
100
AcDbLine
 10
-1298.91827557538
 20
121.8106161581505
 30
0.0
 11
-1298.91827557538
 21
309.8109394795188
 31
0.0
  0
LINE
  5
37D
330
1F
100
AcDbEntity
  8
1-2
  6
Continuous
 62
     3
370
     9
100
AcDbLine
 10
-1278.917714711782
 20
14.81046109586146
 30
0.0
 11
-1278.917714711782
 21
109.8108982395482
 31
0.0
  0
LINE
  5
37E
330
1F
100
AcDbEntity
  8
1-2
  6
Continuous
 62
     3
370
     9
100
AcDbLine
 10
-1278.917714711782
 20
121.8106161581505
 30
0.0
 11
-1278.917714711782
 21
309.8109394795188
 31
0.0
  0
LINE
  5
37F
330
1F
100
AcDbEntity
  8
1-2
  6
Continuous
 62
     3
370
     9
100
AcDbLine
 10
-1268.918176599451
 20
14.81046109586146
 30
0.0
 11
-1268.918176599451
 21
109.8108982395482
 31
0.0
  0
LINE
  5
380
330
1F
100
AcDbEntity
  8
1-2
  6
Continuous
 62
     3
370
     9
100
AcDbLine
 10
-1268.918176599451
 20
121.8106161581505
 30
0.0
 11
-1268.918176599451
 21
309.8109394795188
 31
0.0
  0
LINE
  5
381
330
1F
100
AcDbEntity
  8
1-2
  6
Continuous
 62
     3
370
     9
100
AcDbLine
 10
-1248.917739455764
 20
14.81046109586146
 30
0.0
 11
-1248.917739455764
 21
109.8108982395482
 31
0.0
  0
LINE
  5
382
330
1F
100
AcDbEntity
  8
1-2
  6
Continuous
 62
     3
370
     9
100
AcDbLine
 10
-1248.917739455764
 20
121.8106161581505
 30
0.0
 11
-1248.917739455764
 21
309.8109394795188
 31
0.0
  0
LINE
  5
383
330
1F
100
AcDbEntity
  8
1-2
  6
Continuous
 62
     3
370
     9
100
AcDbLine
 10
-1238.918201343433
 20
14.81046109586146
 30
0.0
 11
-1238.918201343433
 21
109.8108982395482
 31
0.0
  0
LINE
  5
384
330
1F
100
AcDbEntity
  8
1-2
  6
Continuous
 62
     3
370
     9
100
AcDbLine
 10
-1238.918201343433
 20
121.8106161581505
 30
0.0
 11
-1238.918201343433
 21
309.8109394795188
 31
0.0
  0
LINE
  5
385
330
1F
100
AcDbEntity
  8
1-2
  6
Continuous
 62
     3
370
     9
100
AcDbLine
 10
-1218.917764199747
 20
14.81046109586146
 30
0.0
 11
-1218.917764199747
 21
109.8108982395482
 31
0.0
  0
LINE
  5
386
330
1F
100
AcDbEntity
  8
1-2
  6
Continuous
 62
     3
370
     9
100
AcDbLine
 10
-1218.917764199747
 20
121.8106161581505
 30
0.0
 11
-1218.917764199747
 21
309.8109394795188
 31
0.0
  0
LINE
  5
387
330
1F
100
AcDbEntity
  8
1-2
  6
Continuous
 62
     3
370
     9
100
AcDbLine
 10
-1208.918226087415
 20
14.81046109586146
 30
0.0
 11
-1208.918226087415
 21
109.8108982395482
 31
0.0
  0
LINE
  5
388
330
1F
100
AcDbEntity
  8
1-2
  6
Continuous
 62
     3
370
     9
100
AcDbLine
 10
-1208.918226087415
 20
121.8106161581505
 30
0.0
 11
-1208.918226087415
 21
309.8109394795188
 31
0.0
  0
LINE
  5
389
330
1F
100
AcDbEntity
  8
1-2
  6
Continuous
 62
     3
370
     9
100
AcDbLine
 10
-1188.917665223817
 20
14.81046109586146
 30
0.0
 11
-1188.917665223817
 21
109.8108982395482
 31
0.0
  0
LINE
  5
38A
330
1F
100
AcDbEntity
  8
1-2
  6
Continuous
 62
     3
370
     9
100
AcDbLine
 10
-1188.917665223817
 20
121.8106161581505
 30
0.0
 11
-1188.917665223817
 21
309.8109394795188
 31
0.0
  0
LINE
  5
38B
330
1F
100
AcDbEntity
  8
1-2
  6
Continuous
 62
     3
370
     9
100
AcDbLine
 10
-1178.918127111486
 20
14.81046109586146
 30
0.0
 11
-1178.918127111486
 21
109.8108982395482
 31
0.0
  0
LINE
  5
38C
330
1F
100
AcDbEntity
  8
1-2
  6
Continuous
 62
     3
370
     9
100
AcDbLine
 10
-1178.918127111486
 20
121.8106161581505
 30
0.0
 11
-1178.918127111486
 21
309.8109394795188
 31
0.0
  0
LINE
  5
38D
330
1F
100
AcDbEntity
  8
1-2
  6
Continuous
 62
     3
370
     9
100
AcDbLine
 10
-1158.9176899678
 20
14.81046109586146
 30
0.0
 11
-1158.9176899678
 21
109.8108982395482
 31
0.0
  0
LINE
  5
38E
330
1F
100
AcDbEntity
  8
1-2
  6
Continuous
 62
     3
370
     9
100
AcDbLine
 10
-1158.9176899678
 20
121.8106161581505
 30
0.0
 11
-1158.9176899678
 21
309.8109394795188
 31
0.0
  0
LINE
  5
38F
330
1F
100
AcDbEntity
  8
1-2
  6
Continuous
 62
     3
370
     9
100
AcDbLine
 10
-1148.918151855469
 20
14.81046109586146
 30
0.0
 11
-1148.918151855469
 21
109.8108982395482
 31
0.0
  0
LINE
  5
390
330
1F
100
AcDbEntity
  8
1-2
  6
Continuous
 62
     3
370
     9
100
AcDbLine
 10
-1148.918151855469
 20
121.8106161581505
 30
0.0
 11
-1148.918151855469
 21
309.8109394795188
 31
0.0
  0
LINE
  5
391
330
1F
100
AcDbEntity
  8
1-2
  6
Continuous
 62
     3
370
     9
100
AcDbLine
 10
-1128.917714711782
 20
14.81046109586146
 30
0.0
 11
-1128.917714711782
 21
109.8108982395482
 31
0.0
  0
LINE
  5
392
330
1F
100
AcDbEntity
  8
1-2
  6
Continuous
 62
     3
370
     9
100
AcDbLine
 10
-1128.917714711782
 20
121.8106161581505
 30
0.0
 11
-1128.917714711782
 21
309.8109394795188
 31
0.0
  0
LINE
  5
393
330
1F
100
AcDbEntity
  8
1-2
  6
Continuous
 62
     3
370
     9
100
AcDbLine
 10
-1118.918176599451
 20
14.81046109586146
 30
0.0
 11
-1118.918176599451
 21
109.8108982395482
 31
0.0
  0
LINE
  5
394
330
1F
100
AcDbEntity
  8
1-2
  6
Continuous
 62
     3
370
     9
100
AcDbLine
 10
-1118.918176599451
 20
121.8106161581505
 30
0.0
 11
-1118.918176599451
 21
309.8109394795188
 31
0.0
  0
LINE
  5
395
330
1F
100
AcDbEntity
  8
1-2
  6
Continuous
 62
     3
370
     9
100
AcDbLine
 10
-1098.917739455764
 20
14.81046109586146
 30
0.0
 11
-1098.917739455764
 21
109.8108982395482
 31
0.0
  0
LINE
  5
396
330
1F
100
AcDbEntity
  8
1-2
  6
Continuous
 62
     3
370
     9
100
AcDbLine
 10
-1098.917739455764
 20
121.8106161581505
 30
0.0
 11
-1098.917739455764
 21
309.8109394795188
 31
0.0
  0
LINE
  5
397
330
1F
100
AcDbEntity
  8
1-2
  6
Continuous
 62
     3
370
     9
100
AcDbLine
 10
-1088.918201343433
 20
14.81046109586146
 30
0.0
 11
-1088.918201343433
 21
109.8108982395482
 31
0.0
  0
LINE
  5
398
330
1F
100
AcDbEntity
  8
1-2
  6
Continuous
 62
     3
370
     9
100
AcDbLine
 10
-1088.918201343433
 20
121.8106161581505
 30
0.0
 11
-1088.918201343433
 21
309.8109394795188
 31
0.0
  0
LINE
  5
399
330
1F
100
AcDbEntity
  8
1-2
  6
Continuous
 62
     3
370
     9
100
AcDbLine
 10
-1068.917764199747
 20
14.81046109586146
 30
0.0
 11
-1068.917764199747
 21
109.8108982395482
 31
0.0
  0
LINE
  5
39A
330
1F
100
AcDbEntity
  8
1-2
  6
Continuous
 62
     3
370
     9
100
AcDbLine
 10
-1068.917764199747
 20
121.8106161581505
 30
0.0
 11
-1068.917764199747
 21
309.8109394795188
 31
0.0
  0
LINE
  5
39B
330
1F
100
AcDbEntity
  8
1-2
  6
Continuous
 62
     3
370
     9
100
AcDbLine
 10
-1058.918226087415
 20
14.81046109586146
 30
0.0
 11
-1058.918226087415
 21
109.8108982395482
 31
0.0
  0
LINE
  5
39C
330
1F
100
AcDbEntity
  8
1-2
  6
Continuous
 62
     3
370
     9
100
AcDbLine
 10
-1058.918226087415
 20
121.8106161581505
 30
0.0
 11
-1058.918226087415
 21
309.8109394795188
 31
0.0
  0
LINE
  5
39D
330
1F
100
AcDbEntity
  8
1-2
  6
Continuous
 62
     3
370
     9
100
AcDbLine
 10
-1038.917665223817
 20
14.81046109586146
 30
0.0
 11
-1038.917665223817
 21
109.8108982395482
 31
0.0
  0
LINE
  5
39E
330
1F
100
AcDbEntity
  8
1-2
  6
Continuous
 62
     3
370
     9
100
AcDbLine
 10
-1038.917665223817
 20
121.8106161581505
 30
0.0
 11
-1038.917665223817
 21
309.8109394795188
 31
0.0
  0
LINE
  5
39F
330
1F
100
AcDbEntity
  8
1-2
  6
Continuous
 62
     3
370
     9
100
AcDbLine
 10
-1028.918127111486
 20
14.81046109586146
 30
0.0
 11
-1028.918127111486
 21
109.8108982395482
 31
0.0
  0
LINE
  5
3A0
330
1F
100
AcDbEntity
  8
1-2
  6
Continuous
 62
     3
370
     9
100
AcDbLine
 10
-1028.918127111486
 20
121.8106161581505
 30
0.0
 11
-1028.918127111486
 21
309.8109394795188
 31
0.0
  0
LINE
  5
3A1
330
1F
100
AcDbEntity
  8
1-2
  6
Continuous
 62
     3
370
     9
100
AcDbLine
 10
-1008.9176899678
 20
14.81046109586146
 30
0.0
 11
-1008.9176899678
 21
109.8108982395482
 31
0.0
  0
LINE
  5
3A2
330
1F
100
AcDbEntity
  8
1-2
  6
Continuous
 62
     3
370
     9
100
AcDbLine
 10
-1008.9176899678
 20
121.8106161581505
 30
0.0
 11
-1008.9176899678
 21
309.8109394795188
 31
0.0
  0
LINE
  5
3A3
330
1F
100
AcDbEntity
  8
1-2
  6
Continuous
 62
     3
370
     9
100
AcDbLine
 10
-998.9181518554688
 20
14.81046109586146
 30
0.0
 11
-998.9181518554688
 21
109.8108982395482
 31
0.0
  0
LINE
  5
3A4
330
1F
100
AcDbEntity
  8
1-2
  6
Continuous
 62
     3
370
     9
100
AcDbLine
 10
-998.9181518554688
 20
121.8106161581505
 30
0.0
 11
-998.9181518554688
 21
309.8109394795188
 31
0.0
  0
LINE
  5
3A5
330
1F
100
AcDbEntity
  8
1-2
  6
Continuous
 62
     3
370
     9
100
AcDbLine
 10
-978.9177147117821
 20
14.81046109586146
 30
0.0
 11
-978.9177147117821
 21
109.8108982395482
 31
0.0
  0
LINE
  5
3A6
330
1F
100
AcDbEntity
  8
1-2
  6
Continuous
 62
     3
370
     9
100
AcDbLine
 10
-978.9177147117821
 20
121.8106161581505
 30
0.0
 11
-978.9177147117821
 21
309.8109394795188
 31
0.0
  0
LINE
  5
3A7
330
1F
100
AcDbEntity
  8
1-2
  6
Continuous
 62
     3
370
     9
100
AcDbLine
 10
-968.9181765994509
 20
14.81046109586146
 30
0.0
 11
-968.9181765994509
 21
109.8108982395482
 31
0.0
  0
LINE
  5
3A8
330
1F
100
AcDbEntity
  8
1-2
  6
Continuous
 62
     3
370
     9
100
AcDbLine
 10
-968.9181765994509
 20
121.8106161581505
 30
0.0
 11
-968.9181765994509
 21
309.8109394795188
 31
0.0
  0
LINE
  5
3A9
330
1F
100
AcDbEntity
  8
1-2
  6
Continuous
 62
     3
370
     9
100
AcDbLine
 10
-948.9177394557644
 20
14.81046109586146
 30
0.0
 11
-948.9177394557644
 21
109.8108982395482
 31
0.0
  0
LINE
  5
3AA
330
1F
100
AcDbEntity
  8
1-2
  6
Continuous
 62
     3
370
     9
100
AcDbLine
 10
-948.9177394557644
 20
121.8106161581505
 30
0.0
 11
-948.9177394557644
 21
309.8109394795188
 31
0.0
  0
LINE
  5
3AB
330
1F
100
AcDbEntity
  8
1-2
  6
Continuous
 62
     3
370
     9
100
AcDbLine
 10
-938.9182013434332
 20
14.81046109586146
 30
0.0
 11
-938.9182013434332
 21
109.8108982395482
 31
0.0
  0
LINE
  5
3AC
330
1F
100
AcDbEntity
  8
1-2
  6
Continuous
 62
     3
370
     9
100
AcDbLine
 10
-938.9182013434332
 20
121.8106161581505
 30
0.0
 11
-938.9182013434332
 21
309.8109394795188
 31
0.0
  0
LINE
  5
3AD
330
1F
100
AcDbEntity
  8
1-2
  6
Continuous
 62
     3
370
     9
100
AcDbLine
 10
-918.9177641997467
 20
14.81046109586146
 30
0.0
 11
-918.9177641997467
 21
109.8108982395482
 31
0.0
  0
LINE
  5
3AE
330
1F
100
AcDbEntity
  8
1-2
  6
Continuous
 62
     3
370
     9
100
AcDbLine
 10
-918.9177641997467
 20
121.8106161581505
 30
0.0
 11
-918.9177641997467
 21
309.8109394795188
 31
0.0
  0
LINE
  5
3AF
330
1F
100
AcDbEntity
  8
1-2
  6
Continuous
 62
     3
370
     9
100
AcDbLine
 10
-908.9182260874155
 20
14.81046109586146
 30
0.0
 11
-908.9182260874155
 21
109.8108982395482
 31
0.0
  0
LINE
  5
3B0
330
1F
100
AcDbEntity
  8
1-2
  6
Continuous
 62
     3
370
     9
100
AcDbLine
 10
-908.9182260874155
 20
121.8106161581505
 30
0.0
 11
-908.9182260874155
 21
309.8109394795188
 31
0.0
  0
LINE
  5
3B1
330
1F
100
AcDbEntity
  8
1-2
  6
Continuous
 62
     3
370
     9
100
AcDbLine
 10
-888.9177889437287
 20
14.81046109586146
 30
0.0
 11
-888.9177889437287
 21
109.8108982395482
 31
0.0
  0
LINE
  5
3B2
330
1F
100
AcDbEntity
  8
1-2
  6
Continuous
 62
     3
370
     9
100
AcDbLine
 10
-888.9177889437287
 20
121.8106161581505
 30
0.0
 11
-888.9177889437287
 21
309.8109394795188
 31
0.0
  0
LINE
  5
3B3
330
1F
100
AcDbEntity
  8
1-2
  6
Continuous
 62
     3
370
     9
100
AcDbLine
 10
-878.9182508313978
 20
14.81046109586146
 30
0.0
 11
-878.9182508313978
 21
109.8108982395482
 31
0.0
  0
LINE
  5
3B4
330
1F
100
AcDbEntity
  8
1-2
  6
Continuous
 62
     3
370
     9
100
AcDbLine
 10
-878.9182508313978
 20
121.8106161581505
 30
0.0
 11
-878.9182508313978
 21
309.8109394795188
 31
0.0
  0
LINE
  5
3B5
330
1F
100
AcDbEntity
  8
1-2
  6
Continuous
 62
     3
370
     9
100
AcDbLine
 10
-858.917813687711
 20
14.81046109586146
 30
0.0
 11
-858.917813687711
 21
109.8108982395482
 31
0.0
  0
LINE
  5
3B6
330
1F
100
AcDbEntity
  8
1-2
  6
Continuous
 62
     3
370
     9
100
AcDbLine
 10
-858.917813687711
 20
121.8106161581505
 30
0.0
 11
-858.917813687711
 21
309.8109394795188
 31
0.0
  0
LINE
  5
3B7
330
1F
100
AcDbEntity
  8
1-2
  6
Continuous
 62
     3
370
     9
100
AcDbLine
 10
-848.91827557538
 20
14.81046109586146
 30
0.0
 11
-848.91827557538
 21
109.8108982395482
 31
0.0
  0
LINE
  5
3B8
330
1F
100
AcDbEntity
  8
1-2
  6
Continuous
 62
     3
370
     9
100
AcDbLine
 10
-848.91827557538
 20
121.8106161581505
 30
0.0
 11
-848.91827557538
 21
309.8109394795188
 31
0.0
  0
LINE
  5
3B9
330
1F
100
AcDbEntity
  8
1-2
  6
Continuous
 62
     3
370
     9
100
AcDbLine
 10
-828.9178384316933
 20
14.81046109586146
 30
0.0
 11
-828.9178384316933
 21
109.8108982395482
 31
0.0
  0
LINE
  5
3BA
330
1F
100
AcDbEntity
  8
1-2
  6
Continuous
 62
     3
370
     9
100
AcDbLine
 10
-828.9178384316933
 20
121.8106161581505
 30
0.0
 11
-828.9178384316933
 21
309.8109394795188
 31
0.0
  0
LINE
  5
3BB
330
1F
100
AcDbEntity
  8
1-2
  6
Continuous
 62
     3
370
     9
100
AcDbLine
 10
-818.9183003193623
 20
14.81046109586146
 30
0.0
 11
-818.9183003193623
 21
109.8108982395482
 31
0.0
  0
LINE
  5
3BC
330
1F
100
AcDbEntity
  8
1-2
  6
Continuous
 62
     3
370
     9
100
AcDbLine
 10
-818.9183003193623
 20
121.8106161581505
 30
0.0
 11
-818.9183003193623
 21
309.8109394795188
 31
0.0
  0
LINE
  5
3BD
330
1F
100
AcDbEntity
  8
1-2
  6
Continuous
 62
     3
370
     9
100
AcDbLine
 10
-798.9178631756755
 20
14.81046109586146
 30
0.0
 11
-798.9178631756755
 21
109.8108982395482
 31
0.0
  0
LINE
  5
3BE
330
1F
100
AcDbEntity
  8
1-2
  6
Continuous
 62
     3
370
     9
100
AcDbLine
 10
-798.9178631756755
 20
121.8106161581505
 30
0.0
 11
-798.9178631756755
 21
309.8109394795188
 31
0.0
  0
LINE
  5
3BF
330
1F
100
AcDbEntity
  8
1-2
  6
Continuous
 62
     3
370
     9
100
AcDbLine
 10
-788.9183250633446
 20
14.81046109586146
 30
0.0
 11
-788.9183250633446
 21
109.8108982395482
 31
0.0
  0
LINE
  5
3C0
330
1F
100
AcDbEntity
  8
1-2
  6
Continuous
 62
     3
370
     9
100
AcDbLine
 10
-788.9183250633446
 20
121.8106161581505
 30
0.0
 11
-788.9183250633446
 21
309.8109394795188
 31
0.0
  0
LINE
  5
3C1
330
1F
100
AcDbEntity
  8
1-2
  6
Continuous
 62
     3
370
     9
100
AcDbLine
 10
-768.9178879196578
 20
14.81046109586146
 30
0.0
 11
-768.9178879196578
 21
109.8108982395482
 31
0.0
  0
LINE
  5
3C2
330
1F
100
AcDbEntity
  8
1-2
  6
Continuous
 62
     3
370
     9
100
AcDbLine
 10
-768.9178879196578
 20
121.8106161581505
 30
0.0
 11
-768.9178879196578
 21
309.8109394795188
 31
0.0
  0
LINE
  5
3C3
330
1F
100
AcDbEntity
  8
1-2
  6
Continuous
 62
     3
370
     9
100
AcDbLine
 10
-758.9183498073269
 20
14.81046109586146
 30
0.0
 11
-758.9183498073269
 21
109.8108982395482
 31
0.0
  0
LINE
  5
3C4
330
1F
100
AcDbEntity
  8
1-2
  6
Continuous
 62
     3
370
     9
100
AcDbLine
 10
-758.9183498073269
 20
121.8106161581505
 30
0.0
 11
-758.9183498073269
 21
309.8109394795188
 31
0.0
  0
LINE
  5
3C5
330
1F
100
AcDbEntity
  8
1-2
  6
Continuous
 62
     3
370
     9
100
AcDbLine
 10
-738.9179126636401
 20
14.81046109586146
 30
0.0
 11
-738.9179126636401
 21
109.8108982395482
 31
0.0
  0
LINE
  5
3C6
330
1F
100
AcDbEntity
  8
1-2
  6
Continuous
 62
     3
370
     9
100
AcDbLine
 10
-738.9179126636401
 20
121.8106161581505
 30
0.0
 11
-738.9179126636401
 21
309.8109394795188
 31
0.0
  0
LINE
  5
3C7
330
1F
100
AcDbEntity
  8
1-2
  6
Continuous
 62
     3
370
     9
100
AcDbLine
 10
-728.9183745513092
 20
14.81046109586146
 30
0.0
 11
-728.9183745513092
 21
109.8108982395482
 31
0.0
  0
LINE
  5
3C8
330
1F
100
AcDbEntity
  8
1-2
  6
Continuous
 62
     3
370
     9
100
AcDbLine
 10
-728.9183745513092
 20
121.8106161581505
 30
0.0
 11
-728.9183745513092
 21
309.8109394795188
 31
0.0
  0
LINE
  5
3C9
330
1F
100
AcDbEntity
  8
1-2
  6
Continuous
 62
     3
370
     9
100
AcDbLine
 10
-708.9179374076224
 20
14.81046109586146
 30
0.0
 11
-708.9179374076224
 21
109.8108982395482
 31
0.0
  0
LINE
  5
3CA
330
1F
100
AcDbEntity
  8
1-2
  6
Continuous
 62
     3
370
     9
100
AcDbLine
 10
-708.9179374076224
 20
121.8106161581505
 30
0.0
 11
-708.9179374076224
 21
309.8109394795188
 31
0.0
  0
LINE
  5
3CB
330
1F
100
AcDbEntity
  8
1-2
  6
Continuous
 62
     3
370
     9
100
AcDbLine
 10
-698.9183992952915
 20
14.81046109586146
 30
0.0
 11
-698.9183992952915
 21
109.8108982395482
 31
0.0
  0
LINE
  5
3CC
330
1F
100
AcDbEntity
  8
1-2
  6
Continuous
 62
     3
370
     9
100
AcDbLine
 10
-698.9183992952915
 20
121.8106161581505
 30
0.0
 11
-698.9183992952915
 21
309.8109394795188
 31
0.0
  0
LINE
  5
3CD
330
1F
100
AcDbEntity
  8
1-2
  6
Continuous
 62
     3
370
     9
100
AcDbLine
 10
-678.9179621516047
 20
14.81046109586146
 30
0.0
 11
-678.9179621516047
 21
109.8108982395482
 31
0.0
  0
LINE
  5
3CE
330
1F
100
AcDbEntity
  8
1-2
  6
Continuous
 62
     3
370
     9
100
AcDbLine
 10
-678.9179621516047
 20
121.8106161581505
 30
0.0
 11
-678.9179621516047
 21
309.8109394795188
 31
0.0
  0
LINE
  5
3CF
330
1F
100
AcDbEntity
  8
1-2
  6
Continuous
 62
     3
370
     9
100
AcDbLine
 10
-668.9184240392738
 20
14.81046109586146
 30
0.0
 11
-668.9184240392738
 21
109.8108982395482
 31
0.0
  0
LINE
  5
3D0
330
1F
100
AcDbEntity
  8
1-2
  6
Continuous
 62
     3
370
     9
100
AcDbLine
 10
-668.9184240392738
 20
121.8106161581505
 30
0.0
 11
-668.9184240392738
 21
309.8109394795188
 31
0.0
  0
LINE
  5
3D1
330
1F
100
AcDbEntity
  8
1-2
  6
Continuous
 62
     3
370
     9
100
AcDbLine
 10
-648.917986895587
 20
14.81046109586146
 30
0.0
 11
-648.917986895587
 21
109.8108982395482
 31
0.0
  0
LINE
  5
3D2
330
1F
100
AcDbEntity
  8
1-2
  6
Continuous
 62
     3
370
     9
100
AcDbLine
 10
-648.917986895587
 20
121.8106161581505
 30
0.0
 11
-648.917986895587
 21
309.8109394795188
 31
0.0
  0
LINE
  5
3D3
330
1F
100
AcDbEntity
  8
1-2
  6
Continuous
 62
     3
370
     9
100
AcDbLine
 10
-638.9184487832557
 20
14.81046109586146
 30
0.0
 11
-638.9184487832557
 21
109.8108982395482
 31
0.0
  0
LINE
  5
3D4
330
1F
100
AcDbEntity
  8
1-2
  6
Continuous
 62
     3
370
     9
100
AcDbLine
 10
-638.9184487832557
 20
121.8106161581505
 30
0.0
 11
-638.9184487832557
 21
309.8109394795188
 31
0.0
  0
LINE
  5
3D5
330
1F
100
AcDbEntity
  8
1-2
  6
Continuous
 62
     3
370
     9
100
AcDbLine
 10
-618.9180116395693
 20
14.81046109586146
 30
0.0
 11
-618.9180116395693
 21
109.8108982395482
 31
0.0
  0
LINE
  5
3D6
330
1F
100
AcDbEntity
  8
1-2
  6
Continuous
 62
     3
370
     9
100
AcDbLine
 10
-618.9180116395693
 20
121.8106161581505
 30
0.0
 11
-618.9180116395693
 21
309.8109394795188
 31
0.0
  0
LINE
  5
3D7
330
1F
100
AcDbEntity
  8
1-2
  6
Continuous
 62
     3
370
     9
100
AcDbLine
 10
-608.918473527238
 20
14.81046109586146
 30
0.0
 11
-608.918473527238
 21
109.8108982395482
 31
0.0
  0
LINE
  5
3D8
330
1F
100
AcDbEntity
  8
1-2
  6
Continuous
 62
     3
370
     9
100
AcDbLine
 10
-608.918473527238
 20
121.8106161581505
 30
0.0
 11
-608.918473527238
 21
309.8109394795188
 31
0.0
  0
LINE
  5
3D9
330
1F
100
AcDbEntity
  8
1-2
  6
Continuous
 62
     3
370
     9
100
AcDbLine
 10
-588.9180363835516
 20
14.81046109586146
 30
0.0
 11
-588.9180363835516
 21
109.8108982395482
 31
0.0
  0
LINE
  5
3DA
330
1F
100
AcDbEntity
  8
1-2
  6
Continuous
 62
     3
370
     9
100
AcDbLine
 10
-588.9180363835516
 20
121.8106161581505
 30
0.0
 11
-588.9180363835516
 21
309.8109394795188
 31
0.0
  0
LINE
  5
3DB
330
1F
100
AcDbEntity
  8
1-2
  6
Continuous
 62
     3
370
     9
100
AcDbLine
 10
-578.9184982712203
 20
14.81046109586146
 30
0.0
 11
-578.9184982712203
 21
109.8108982395482
 31
0.0
  0
LINE
  5
3DC
330
1F
100
AcDbEntity
  8
1-2
  6
Continuous
 62
     3
370
     9
100
AcDbLine
 10
-578.9184982712203
 20
121.8106161581505
 30
0.0
 11
-578.9184982712203
 21
309.8109394795188
 31
0.0
  0
LINE
  5
3DD
330
1F
100
AcDbEntity
  8
1-2
  6
Continuous
 62
     3
370
     9
100
AcDbLine
 10
-558.9180611275335
 20
14.81046109586146
 30
0.0
 11
-558.9180611275335
 21
109.8108982395482
 31
0.0
  0
LINE
  5
3DE
330
1F
100
AcDbEntity
  8
1-2
  6
Continuous
 62
     3
370
     9
100
AcDbLine
 10
-558.9180611275335
 20
121.8106161581505
 30
0.0
 11
-558.9180611275335
 21
309.8109394795188
 31
0.0
  0
LINE
  5
3DF
330
1F
100
AcDbEntity
  8
1-2
  6
Continuous
 62
     3
370
     9
100
AcDbLine
 10
-548.9185230152026
 20
14.81046109586146
 30
0.0
 11
-548.9185230152026
 21
109.8108982395482
 31
0.0
  0
LINE
  5
3E0
330
1F
100
AcDbEntity
  8
1-2
  6
Continuous
 62
     3
370
     9
100
AcDbLine
 10
-548.9185230152026
 20
121.8106161581505
 30
0.0
 11
-548.9185230152026
 21
309.8109394795188
 31
0.0
  0
LINE
  5
3E1
330
1F
100
AcDbEntity
  8
1-2
  6
Continuous
 62
     3
370
     9
100
AcDbLine
 10
-528.9180858715158
 20
14.81046109586146
 30
0.0
 11
-528.9180858715158
 21
109.8108982395482
 31
0.0
  0
LINE
  5
3E2
330
1F
100
AcDbEntity
  8
1-2
  6
Continuous
 62
     3
370
     9
100
AcDbLine
 10
-528.9180858715158
 20
121.8106161581505
 30
0.0
 11
-528.9180858715158
 21
309.8109394795188
 31
0.0
  0
LINE
  5
3E3
330
1F
100
AcDbEntity
  8
1-2
  6
Continuous
 62
     3
370
     9
100
AcDbLine
 10
-518.9185477591849
 20
14.81046109586146
 30
0.0
 11
-518.9185477591849
 21
109.8108982395482
 31
0.0
  0
LINE
  5
3E4
330
1F
100
AcDbEntity
  8
1-2
  6
Continuous
 62
     3
370
     9
100
AcDbLine
 10
-518.9185477591849
 20
121.8106161581505
 30
0.0
 11
-518.9185477591849
 21
309.8109394795188
 31
0.0
  0
LINE
  5
3E5
330
1F
100
AcDbEntity
  8
1-2
  6
Continuous
 62
     3
370
     9
100
AcDbLine
 10
-498.9181106154982
 20
14.81046109586146
 30
0.0
 11
-498.9181106154982
 21
109.8108982395482
 31
0.0
  0
LINE
  5
3E6
330
1F
100
AcDbEntity
  8
1-2
  6
Continuous
 62
     3
370
     9
100
AcDbLine
 10
-498.9181106154982
 20
121.8106161581505
 30
0.0
 11
-498.9181106154982
 21
309.8109394795188
 31
0.0
  0
LINE
  5
3E7
330
1F
100
AcDbEntity
  8
1-2
  6
Continuous
 62
     3
370
     9
100
AcDbLine
 10
-488.9185725031672
 20
14.81046109586146
 30
0.0
 11
-488.9185725031672
 21
109.8108982395482
 31
0.0
  0
LINE
  5
3E8
330
1F
100
AcDbEntity
  8
1-2
  6
Continuous
 62
     3
370
     9
100
AcDbLine
 10
-488.9185725031672
 20
121.8106161581505
 30
0.0
 11
-488.9185725031672
 21
309.8109394795188
 31
0.0
  0
LINE
  5
3E9
330
1F
100
AcDbEntity
  8
1-2
  6
Continuous
 62
     3
370
     9
100
AcDbLine
 10
-468.9181353594805
 20
14.81046109586146
 30
0.0
 11
-468.9181353594805
 21
109.8108982395482
 31
0.0
  0
LINE
  5
3EA
330
1F
100
AcDbEntity
  8
1-2
  6
Continuous
 62
     3
370
     9
100
AcDbLine
 10
-468.9181353594805
 20
121.8106161581505
 30
0.0
 11
-468.9181353594805
 21
309.8109394795188
 31
0.0
  0
LINE
  5
3EB
330
1F
100
AcDbEntity
  8
1-2
  6
Continuous
 62
     3
370
     9
100
AcDbLine
 10
-458.9185972471495
 20
14.81046109586146
 30
0.0
 11
-458.9185972471495
 21
109.8108982395482
 31
0.0
  0
LINE
  5
3EC
330
1F
100
AcDbEntity
  8
1-2
  6
Continuous
 62
     3
370
     9
100
AcDbLine
 10
-458.9185972471495
 20
121.8106161581505
 30
0.0
 11
-458.9185972471495
 21
309.8109394795188
 31
0.0
  0
LINE
  5
3ED
330
1F
100
AcDbEntity
  8
1-2
  6
Continuous
 62
     3
370
     9
100
AcDbLine
 10
-438.9181601034628
 20
14.81046109586146
 30
0.0
 11
-438.9181601034628
 21
109.8108982395482
 31
0.0
  0
LINE
  5
3EE
330
1F
100
AcDbEntity
  8
1-2
  6
Continuous
 62
     3
370
     9
100
AcDbLine
 10
-438.9181601034628
 20
121.8106161581505
 30
0.0
 11
-438.9181601034628
 21
309.8109394795188
 31
0.0
  0
LINE
  5
3EF
330
1F
100
AcDbEntity
  8
1-2
  6
Continuous
 62
     3
370
     9
100
AcDbLine
 10
-428.9186219911318
 20
14.81046109586146
 30
0.0
 11
-428.9186219911318
 21
109.8108982395482
 31
0.0
  0
LINE
  5
3F0
330
1F
100
AcDbEntity
  8
1-2
  6
Continuous
 62
     3
370
     9
100
AcDbLine
 10
-428.9186219911318
 20
121.8106161581505
 30
0.0
 11
-428.9186219911318
 21
309.8109394795188
 31
0.0
  0
LINE
  5
3F1
330
1F
100
AcDbEntity
  8
1-2
  6
Continuous
 62
     3
370
     9
100
AcDbLine
 10
-408.918184847445
 20
14.81046109586146
 30
0.0
 11
-408.918184847445
 21
109.8108982395482
 31
0.0
  0
LINE
  5
3F2
330
1F
100
AcDbEntity
  8
1-2
  6
Continuous
 62
     3
370
     9
100
AcDbLine
 10
-408.918184847445
 20
121.8106161581505
 30
0.0
 11
-408.918184847445
 21
309.8109394795188
 31
0.0
  0
LINE
  5
3F3
330
1F
100
AcDbEntity
  8
1-2
  6
Continuous
 62
     3
370
     9
100
AcDbLine
 10
-398.9186467351141
 20
14.81046109586146
 30
0.0
 11
-398.9186467351141
 21
109.8108982395482
 31
0.0
  0
LINE
  5
3F4
330
1F
100
AcDbEntity
  8
1-2
  6
Continuous
 62
     3
370
     9
100
AcDbLine
 10
-398.9186467351141
 20
121.8106161581505
 30
0.0
 11
-398.9186467351141
 21
309.8109394795188
 31
0.0
  0
LINE
  5
3F5
330
1F
100
AcDbEntity
  8
1-2
  6
Continuous
 62
     3
370
     9
100
AcDbLine
 10
-378.9182095914273
 20
14.81046109586146
 30
0.0
 11
-378.9182095914273
 21
109.8108982395482
 31
0.0
  0
LINE
  5
3F6
330
1F
100
AcDbEntity
  8
1-2
  6
Continuous
 62
     3
370
     9
100
AcDbLine
 10
-378.9182095914273
 20
121.8106161581505
 30
0.0
 11
-378.9182095914273
 21
309.8109394795188
 31
0.0
  0
LINE
  5
3F7
330
1F
100
AcDbEntity
  8
1-2
  6
Continuous
 62
     3
370
     9
100
AcDbLine
 10
-368.9186714790961
 20
14.81046109586146
 30
0.0
 11
-368.9186714790961
 21
109.8108982395482
 31
0.0
  0
LINE
  5
3F8
330
1F
100
AcDbEntity
  8
1-2
  6
Continuous
 62
     3
370
     9
100
AcDbLine
 10
-368.9186714790961
 20
121.8106161581505
 30
0.0
 11
-368.9186714790961
 21
309.8109394795188
 31
0.0
  0
LINE
  5
3F9
330
1F
100
AcDbEntity
  8
1-2
  6
Continuous
 62
     3
370
     9
100
AcDbLine
 10
-348.9182343354096
 20
14.81046109586146
 30
0.0
 11
-348.9182343354096
 21
109.8108982395482
 31
0.0
  0
LINE
  5
3FA
330
1F
100
AcDbEntity
  8
1-2
  6
Continuous
 62
     3
370
     9
100
AcDbLine
 10
-348.9182343354096
 20
121.8106161581505
 30
0.0
 11
-348.9182343354096
 21
309.8109394795188
 31
0.0
  0
LINE
  5
3FB
330
1F
100
AcDbEntity
  8
1-2
  6
Continuous
 62
     3
370
     9
100
AcDbLine
 10
-338.9186962230784
 20
14.81046109586146
 30
0.0
 11
-338.9186962230784
 21
109.8108982395482
 31
0.0
  0
LINE
  5
3FC
330
1F
100
AcDbEntity
  8
1-2
  6
Continuous
 62
     3
370
     9
100
AcDbLine
 10
-338.9186962230784
 20
121.8106161581505
 30
0.0
 11
-338.9186962230784
 21
309.8109394795188
 31
0.0
  0
LINE
  5
3FD
330
1F
100
AcDbEntity
  8
1-2
  6
Continuous
 62
     3
370
     9
100
AcDbLine
 10
-318.9182590793919
 20
14.81046109586146
 30
0.0
 11
-318.9182590793919
 21
109.8108982395482
 31
0.0
  0
LINE
  5
3FE
330
1F
100
AcDbEntity
  8
1-2
  6
Continuous
 62
     3
370
     9
100
AcDbLine
 10
-318.9182590793919
 20
121.8106161581505
 30
0.0
 11
-318.9182590793919
 21
309.8109394795188
 31
0.0
  0
LINE
  5
3FF
330
1F
100
AcDbEntity
  8
1-2
  6
Continuous
 62
     3
370
     9
100
AcDbLine
 10
-308.9187209670607
 20
14.81046109586146
 30
0.0
 11
-308.9187209670607
 21
109.8108982395482
 31
0.0
  0
LINE
  5
400
330
1F
100
AcDbEntity
  8
1-2
  6
Continuous
 62
     3
370
     9
100
AcDbLine
 10
-308.9187209670607
 20
121.8106161581505
 30
0.0
 11
-308.9187209670607
 21
309.8109394795188
 31
0.0
  0
LINE
  5
401
330
1F
100
AcDbEntity
  8
1-2
  6
Continuous
 62
     3
370
     9
100
AcDbLine
 10
-288.9182838233739
 20
14.81046109586146
 30
0.0
 11
-288.9182838233739
 21
109.8108982395482
 31
0.0
  0
LINE
  5
402
330
1F
100
AcDbEntity
  8
1-2
  6
Continuous
 62
     3
370
     9
100
AcDbLine
 10
-288.9182838233739
 20
121.8106161581505
 30
0.0
 11
-288.9182838233739
 21
309.8109394795188
 31
0.0
  0
LINE
  5
403
330
1F
100
AcDbEntity
  8
1-2
  6
Continuous
 62
     3
370
     9
100
AcDbLine
 10
-278.918745711043
 20
14.81046109586146
 30
0.0
 11
-278.918745711043
 21
109.8108982395482
 31
0.0
  0
LINE
  5
404
330
1F
100
AcDbEntity
  8
1-2
  6
Continuous
 62
     3
370
     9
100
AcDbLine
 10
-278.918745711043
 20
121.8106161581505
 30
0.0
 11
-278.918745711043
 21
309.8109394795188
 31
0.0
  0
LINE
  5
405
330
1F
100
AcDbEntity
  8
1-2
  6
Continuous
 62
     3
370
     9
100
AcDbLine
 10
-258.9183085673562
 20
14.81046109586146
 30
0.0
 11
-258.9183085673562
 21
109.8108982395482
 31
0.0
  0
LINE
  5
406
330
1F
100
AcDbEntity
  8
1-2
  6
Continuous
 62
     3
370
     9
100
AcDbLine
 10
-258.9183085673562
 20
121.8106161581505
 30
0.0
 11
-258.9183085673562
 21
309.8109394795188
 31
0.0
  0
LINE
  5
407
330
1F
100
AcDbEntity
  8
1-2
  6
Continuous
 62
     3
370
     9
100
AcDbLine
 10
-248.9187704550253
 20
14.81046109586146
 30
0.0
 11
-248.9187704550253
 21
109.8108982395482
 31
0.0
  0
LINE
  5
408
330
1F
100
AcDbEntity
  8
1-2
  6
Continuous
 62
     3
370
     9
100
AcDbLine
 10
-248.9187704550253
 20
121.8106161581505
 30
0.0
 11
-248.9187704550253
 21
309.8109394795188
 31
0.0
  0
LINE
  5
409
330
1F
100
AcDbEntity
  8
1-2
  6
Continuous
 62
     3
370
     9
100
AcDbLine
 10
-228.9183333113385
 20
14.81046109586146
 30
0.0
 11
-228.9183333113385
 21
109.8108982395482
 31
0.0
  0
LINE
  5
40A
330
1F
100
AcDbEntity
  8
1-2
  6
Continuous
 62
     3
370
     9
100
AcDbLine
 10
-228.9183333113385
 20
121.8106161581505
 30
0.0
 11
-228.9183333113385
 21
309.8109394795188
 31
0.0
  0
LINE
  5
40B
330
1F
100
AcDbEntity
  8
1-2
  6
Continuous
 62
     3
370
     9
100
AcDbLine
 10
-218.9187951990075
 20
14.81046109586146
 30
0.0
 11
-218.9187951990075
 21
109.8108982395482
 31
0.0
  0
LINE
  5
40C
330
1F
100
AcDbEntity
  8
1-2
  6
Continuous
 62
     3
370
     9
100
AcDbLine
 10
-218.9187951990075
 20
121.8106161581505
 30
0.0
 11
-218.9187951990075
 21
309.8109394795188
 31
0.0
  0
LINE
  5
40D
330
1F
100
AcDbEntity
  8
1-2
  6
Continuous
 62
     3
370
     9
100
AcDbLine
 10
-198.9183580553208
 20
14.81046109586146
 30
0.0
 11
-198.9183580553208
 21
109.8108982395482
 31
0.0
  0
LINE
  5
40E
330
1F
100
AcDbEntity
  8
1-2
  6
Continuous
 62
     3
370
     9
100
AcDbLine
 10
-198.9183580553208
 20
121.8106161581505
 30
0.0
 11
-198.9183580553208
 21
309.8109394795188
 31
0.0
  0
LINE
  5
40F
330
1F
100
AcDbEntity
  8
1-2
  6
Continuous
 62
     3
370
     9
100
AcDbLine
 10
-188.9188199429898
 20
14.81046109586146
 30
0.0
 11
-188.9188199429898
 21
109.8108982395482
 31
0.0
  0
LINE
  5
410
330
1F
100
AcDbEntity
  8
1-2
  6
Continuous
 62
     3
370
     9
100
AcDbLine
 10
-188.9188199429898
 20
121.8106161581505
 30
0.0
 11
-188.9188199429898
 21
309.8109394795188
 31
0.0
  0
LINE
  5
411
330
1F
100
AcDbEntity
  8
1-2
  6
Continuous
 62
     3
370
     9
100
AcDbLine
 10
-168.9183827993031
 20
14.81046109586146
 30
0.0
 11
-168.9183827993031
 21
109.8108982395482
 31
0.0
  0
LINE
  5
412
330
1F
100
AcDbEntity
  8
1-2
  6
Continuous
 62
     3
370
     9
100
AcDbLine
 10
-168.9183827993031
 20
121.8106161581505
 30
0.0
 11
-168.9183827993031
 21
309.8109394795188
 31
0.0
  0
LINE
  5
413
330
1F
100
AcDbEntity
  8
1-2
  6
Continuous
 62
     3
370
     9
100
AcDbLine
 10
-158.9188446869721
 20
14.81046109586146
 30
0.0
 11
-158.9188446869721
 21
109.8108982395482
 31
0.0
  0
LINE
  5
414
330
1F
100
AcDbEntity
  8
1-2
  6
Continuous
 62
     3
370
     9
100
AcDbLine
 10
-158.9188446869721
 20
121.8106161581505
 30
0.0
 11
-158.9188446869721
 21
309.8109394795188
 31
0.0
  0
LINE
  5
415
330
1F
100
AcDbEntity
  8
1-2
  6
Continuous
 62
     3
370
     9
100
AcDbLine
 10
-138.9184075432854
 20
14.81046109586146
 30
0.0
 11
-138.9184075432854
 21
109.8108982395482
 31
0.0
  0
LINE
  5
416
330
1F
100
AcDbEntity
  8
1-2
  6
Continuous
 62
     3
370
     9
100
AcDbLine
 10
-138.9184075432854
 20
121.8106161581505
 30
0.0
 11
-138.9184075432854
 21
309.8109394795188
 31
0.0
  0
LINE
  5
417
330
1F
100
AcDbEntity
  8
1-2
  6
Continuous
 62
     3
370
     9
100
AcDbLine
 10
-128.9188694309541
 20
14.81046109586146
 30
0.0
 11
-128.9188694309541
 21
109.8108982395482
 31
0.0
  0
LINE
  5
418
330
1F
100
AcDbEntity
  8
1-2
  6
Continuous
 62
     3
370
     9
100
AcDbLine
 10
-128.9188694309541
 20
121.8106161581505
 30
0.0
 11
-128.9188694309541
 21
309.8109394795188
 31
0.0
  0
LINE
  5
419
330
1F
100
AcDbEntity
  8
1-2
  6
Continuous
 62
     3
370
     9
100
AcDbLine
 10
-108.9184322872677
 20
14.81046109586146
 30
0.0
 11
-108.9184322872677
 21
109.8108982395482
 31
0.0
  0
LINE
  5
41A
330
1F
100
AcDbEntity
  8
1-2
  6
Continuous
 62
     3
370
     9
100
AcDbLine
 10
-108.9184322872677
 20
121.8106161581505
 30
0.0
 11
-108.9184322872677
 21
309.8109394795188
 31
0.0
  0
LINE
  5
41B
330
1F
100
AcDbEntity
  8
1-2
  6
Continuous
 62
     3
370
     9
100
AcDbLine
 10
-98.91889417493644
 20
14.81046109586146
 30
0.0
 11
-98.91889417493644
 21
109.8108982395482
 31
0.0
  0
LINE
  5
41C
330
1F
100
AcDbEntity
  8
1-2
  6
Continuous
 62
     3
370
     9
100
AcDbLine
 10
-98.91889417493644
 20
121.8106161581505
 30
0.0
 11
-98.91889417493644
 21
309.8109394795188
 31
0.0
  0
LINE
  5
41D
330
1F
100
AcDbEntity
  8
1-2
  6
Continuous
 62
     3
370
     9
100
AcDbLine
 10
-78.91845703125
 20
14.81046109586146
 30
0.0
 11
-78.91845703125
 21
109.8108982395482
 31
0.0
  0
LINE
  5
41E
330
1F
100
AcDbEntity
  8
1-2
  6
Continuous
 62
     3
370
     9
100
AcDbLine
 10
-78.91845703125
 20
121.8106161581505
 30
0.0
 11
-78.91845703125
 21
309.8109394795188
 31
0.0
  0
LINE
  5
41F
330
1F
100
AcDbEntity
  8
1-2
  6
Continuous
 62
     3
370
     9
100
AcDbLine
 10
-68.91891891891873
 20
14.81046109586146
 30
0.0
 11
-68.91891891891873
 21
109.8108982395482
 31
0.0
  0
LINE
  5
420
330
1F
100
AcDbEntity
  8
1-2
  6
Continuous
 62
     3
370
     9
100
AcDbLine
 10
-68.91891891891873
 20
121.8106161581505
 30
0.0
 11
-68.91891891891873
 21
309.8109394795188
 31
0.0
  0
LINE
  5
421
330
1F
100
AcDbEntity
  8
1-2
  6
Continuous
 62
     3
370
     9
100
AcDbLine
 10
-48.91848177523201
 20
14.81046109586146
 30
0.0
 11
-48.91848177523201
 21
109.8108982395482
 31
0.0
  0
LINE
  5
422
330
1F
100
AcDbEntity
  8
1-2
  6
Continuous
 62
     3
370
     9
100
AcDbLine
 10
-48.91848177523201
 20
121.8106161581505
 30
0.0
 11
-48.91848177523201
 21
309.8109394795188
 31
0.0
  0
LINE
  5
423
330
1F
100
AcDbEntity
  8
1-2
  6
Continuous
 62
     3
370
     9
100
AcDbLine
 10
-38.91894366290103
 20
14.81046109586146
 30
0.0
 11
-38.91894366290103
 21
109.8108982395482
 31
0.0
  0
LINE
  5
424
330
1F
100
AcDbEntity
  8
1-2
  6
Continuous
 62
     3
370
     9
100
AcDbLine
 10
-38.91894366290103
 20
121.8106161581505
 30
0.0
 11
-38.91894366290103
 21
309.8109394795188
 31
0.0
  0
LINE
  5
425
330
1F
100
AcDbEntity
  8
1-2
  6
Continuous
 62
     3
370
     9
100
AcDbLine
 10
-18.9185065192143
 20
14.81046109586146
 30
0.0
 11
-18.9185065192143
 21
109.8108982395482
 31
0.0
  0
LINE
  5
426
330
1F
100
AcDbEntity
  8
1-2
  6
Continuous
 62
     3
370
     9
100
AcDbLine
 10
-18.9185065192143
 20
121.8106161581505
 30
0.0
 11
-18.9185065192143
 21
309.8109394795188
 31
0.0
  0
LINE
  5
427
330
1F
100
AcDbEntity
  8
1-2
  6
Continuous
 62
     3
370
     9
100
AcDbLine
 10
-8.918968406883323
 20
14.81046109586146
 30
0.0
 11
-8.918968406883323
 21
109.8108982395482
 31
0.0
  0
LINE
  5
428
330
1F
100
AcDbEntity
  8
1-2
  6
Continuous
 62
     3
370
     9
100
AcDbLine
 10
-8.918968406883323
 20
121.8106161581505
 30
0.0
 11
-8.918968406883323
 21
309.8109394795188
 31
0.0
  0
LINE
  5
429
330
1F
100
AcDbEntity
  8
1-2
  6
Continuous
 62
     3
370
     9
100
AcDbLine
 10
11.08134501689193
 20
14.81046109586146
 30
0.0
 11
11.08134501689193
 21
109.8108982395482
 31
0.0
  0
LINE
  5
42A
330
1F
100
AcDbEntity
  8
1-2
  6
Continuous
 62
     3
370
     9
100
AcDbLine
 10
11.08134501689193
 20
121.8106161581505
 30
0.0
 11
11.08134501689193
 21
309.8109394795188
 31
0.0
  0
LINE
  5
42B
330
1F
100
AcDbEntity
  8
1-2
  6
Continuous
 62
     3
370
     9
100
AcDbLine
 10
21.0808831292232
 20
14.81046109586146
 30
0.0
 11
21.0808831292232
 21
109.8108982395482
 31
0.0
  0
LINE
  5
42C
330
1F
100
AcDbEntity
  8
1-2
  6
Continuous
 62
     3
370
     9
100
AcDbLine
 10
21.0808831292232
 20
121.8106161581505
 30
0.0
 11
21.0808831292232
 21
309.8109394795188
 31
0.0
  0
LINE
  5
42D
330
1F
100
AcDbEntity
  8
1-2
  6
Continuous
 62
     3
370
     9
100
AcDbLine
 10
41.08144399282111
 20
14.81046109586146
 30
0.0
 11
41.08144399282111
 21
109.8108982395482
 31
0.0
  0
LINE
  5
42E
330
1F
100
AcDbEntity
  8
1-2
  6
Continuous
 62
     3
370
     9
100
AcDbLine
 10
41.08144399282111
 20
121.8106161581505
 30
0.0
 11
41.08144399282111
 21
309.8109394795188
 31
0.0
  0
LINE
  5
42F
330
1F
100
AcDbEntity
  8
1-2
  6
Continuous
 62
     3
370
     9
100
AcDbLine
 10
51.08098210515209
 20
14.81046109586146
 30
0.0
 11
51.08098210515209
 21
109.8108982395482
 31
0.0
  0
LINE
  5
430
330
1F
100
AcDbEntity
  8
1-2
  6
Continuous
 62
     3
370
     9
100
AcDbLine
 10
51.08098210515209
 20
121.8106161581505
 30
0.0
 11
51.08098210515209
 21
309.8109394795188
 31
0.0
  0
LINE
  5
431
330
1F
100
AcDbEntity
  8
1-2
  6
Continuous
 62
     3
370
     9
100
AcDbLine
 10
71.08154296875
 20
14.81046109586146
 30
0.0
 11
71.08154296875
 21
109.8108982395482
 31
0.0
  0
LINE
  5
432
330
1F
100
AcDbEntity
  8
1-2
  6
Continuous
 62
     3
370
     9
100
AcDbLine
 10
71.08154296875
 20
121.8106161581505
 30
0.0
 11
71.08154296875
 21
309.8109394795188
 31
0.0
  0
LINE
  5
433
330
1F
100
AcDbEntity
  8
1-2
  6
Continuous
 62
     3
370
     9
100
AcDbLine
 10
81.08108108108127
 20
14.81046109586146
 30
0.0
 11
81.08108108108127
 21
109.8108982395482
 31
0.0
  0
LINE
  5
434
330
1F
100
AcDbEntity
  8
1-2
  6
Continuous
 62
     3
370
     9
100
AcDbLine
 10
81.08108108108127
 20
121.8106161581505
 30
0.0
 11
81.08108108108127
 21
309.8109394795188
 31
0.0
  0
LINE
  5
435
330
1F
100
AcDbEntity
  8
1-2
  6
Continuous
 62
     3
370
     9
100
AcDbLine
 10
101.0813945048565
 20
14.81046109586146
 30
0.0
 11
101.0813945048565
 21
109.8108982395482
 31
0.0
  0
LINE
  5
436
330
1F
100
AcDbEntity
  8
1-2
  6
Continuous
 62
     3
370
     9
100
AcDbLine
 10
101.0813945048565
 20
121.8106161581505
 30
0.0
 11
101.0813945048565
 21
309.8109394795188
 31
0.0
  0
LINE
  5
437
330
1F
100
AcDbEntity
  8
1-2
  6
Continuous
 62
     3
370
     9
100
AcDbLine
 10
111.0809326171875
 20
14.81046109586146
 30
0.0
 11
111.0809326171875
 21
109.8108982395482
 31
0.0
  0
LINE
  5
438
330
1F
100
AcDbEntity
  8
1-2
  6
Continuous
 62
     3
370
     9
100
AcDbLine
 10
111.0809326171875
 20
121.8106161581505
 30
0.0
 11
111.0809326171875
 21
309.8109394795188
 31
0.0
  0
LINE
  5
439
330
1F
100
AcDbEntity
  8
1-2
  6
Continuous
 62
     3
370
     9
100
AcDbLine
 10
131.0814934807857
 20
14.81046109586146
 30
0.0
 11
131.0814934807857
 21
109.8108982395482
 31
0.0
  0
LINE
  5
43A
330
1F
100
AcDbEntity
  8
1-2
  6
Continuous
 62
     3
370
     9
100
AcDbLine
 10
131.0814934807857
 20
121.8106161581505
 30
0.0
 11
131.0814934807857
 21
309.8109394795188
 31
0.0
  0
LINE
  5
43B
330
1F
100
AcDbEntity
  8
1-2
  6
Continuous
 62
     3
370
     9
100
AcDbLine
 10
141.0810315931167
 20
14.81046109586146
 30
0.0
 11
141.0810315931167
 21
109.8108982395482
 31
0.0
  0
LINE
  5
43C
330
1F
100
AcDbEntity
  8
1-2
  6
Continuous
 62
     3
370
     9
100
AcDbLine
 10
141.0810315931167
 20
121.8106161581505
 30
0.0
 11
141.0810315931167
 21
309.8109394795188
 31
0.0
  0
LINE
  5
43D
330
1F
100
AcDbEntity
  8
1-2
  6
Continuous
 62
     3
370
     9
100
AcDbLine
 10
161.0813450168919
 20
14.81046109586146
 30
0.0
 11
161.0813450168919
 21
109.8108982395482
 31
0.0
  0
LINE
  5
43E
330
1F
100
AcDbEntity
  8
1-2
  6
Continuous
 62
     3
370
     9
100
AcDbLine
 10
161.0813450168919
 20
121.8106161581505
 30
0.0
 11
161.0813450168919
 21
309.8109394795188
 31
0.0
  0
LINE
  5
43F
330
1F
100
AcDbEntity
  8
1-2
  6
Continuous
 62
     3
370
     9
100
AcDbLine
 10
171.0808831292232
 20
14.81046109586146
 30
0.0
 11
171.0808831292232
 21
109.8108982395482
 31
0.0
  0
LINE
  5
440
330
1F
100
AcDbEntity
  8
1-2
  6
Continuous
 62
     3
370
     9
100
AcDbLine
 10
171.0808831292232
 20
121.8106161581505
 30
0.0
 11
171.0808831292232
 21
309.8109394795188
 31
0.0
  0
LINE
  5
441
330
1F
100
AcDbEntity
  8
1-2
  6
Continuous
 62
     3
370
     9
100
AcDbLine
 10
191.0814439928211
 20
14.81046109586146
 30
0.0
 11
191.0814439928211
 21
109.8108982395482
 31
0.0
  0
LINE
  5
442
330
1F
100
AcDbEntity
  8
1-2
  6
Continuous
 62
     3
370
     9
100
AcDbLine
 10
191.0814439928211
 20
121.8106161581505
 30
0.0
 11
191.0814439928211
 21
309.8109394795188
 31
0.0
  0
LINE
  5
443
330
1F
100
AcDbEntity
  8
1-2
  6
Continuous
 62
     3
370
     9
100
AcDbLine
 10
201.0809821051521
 20
14.81046109586146
 30
0.0
 11
201.0809821051521
 21
109.8108982395482
 31
0.0
  0
LINE
  5
444
330
1F
100
AcDbEntity
  8
1-2
  6
Continuous
 62
     3
370
     9
100
AcDbLine
 10
201.0809821051521
 20
121.8106161581505
 30
0.0
 11
201.0809821051521
 21
309.8109394795188
 31
0.0
  0
LINE
  5
445
330
1F
100
AcDbEntity
  8
1-2
  6
Continuous
 62
     3
370
     9
100
AcDbLine
 10
221.0812955289276
 20
14.81046109586146
 30
0.0
 11
221.0812955289276
 21
109.8108982395482
 31
0.0
  0
LINE
  5
446
330
1F
100
AcDbEntity
  8
1-2
  6
Continuous
 62
     3
370
     9
100
AcDbLine
 10
221.0812955289276
 20
121.8106161581505
 30
0.0
 11
221.0812955289276
 21
309.8109394795188
 31
0.0
  0
LINE
  5
447
330
1F
100
AcDbEntity
  8
1-2
  6
Continuous
 62
     3
370
     9
100
AcDbLine
 10
231.0808336412586
 20
14.81046109586146
 30
0.0
 11
231.0808336412586
 21
109.8108982395482
 31
0.0
  0
LINE
  5
448
330
1F
100
AcDbEntity
  8
1-2
  6
Continuous
 62
     3
370
     9
100
AcDbLine
 10
231.0808336412586
 20
121.8106161581505
 30
0.0
 11
231.0808336412586
 21
309.8109394795188
 31
0.0
  0
LINE
  5
449
330
1F
100
AcDbEntity
  8
1-2
  6
Continuous
 62
     3
370
     9
100
AcDbLine
 10
251.0813945048565
 20
14.81046109586146
 30
0.0
 11
251.0813945048565
 21
109.8108982395482
 31
0.0
  0
LINE
  5
44A
330
1F
100
AcDbEntity
  8
1-2
  6
Continuous
 62
     3
370
     9
100
AcDbLine
 10
251.0813945048565
 20
121.8106161581505
 30
0.0
 11
251.0813945048565
 21
309.8109394795188
 31
0.0
  0
LINE
  5
44B
330
1F
100
AcDbEntity
  8
1-2
  6
Continuous
 62
     3
370
     9
100
AcDbLine
 10
261.0809326171875
 20
14.81046109586146
 30
0.0
 11
261.0809326171875
 21
109.8108982395482
 31
0.0
  0
LINE
  5
44C
330
1F
100
AcDbEntity
  8
1-2
  6
Continuous
 62
     3
370
     9
100
AcDbLine
 10
261.0809326171875
 20
121.8106161581505
 30
0.0
 11
261.0809326171875
 21
309.8109394795188
 31
0.0
  0
LINE
  5
44D
330
1F
100
AcDbEntity
  8
1-2
  6
Continuous
 62
     3
370
     9
100
AcDbLine
 10
281.081246040963
 20
14.81046109586146
 30
0.0
 11
281.081246040963
 21
109.8108982395482
 31
0.0
  0
LINE
  5
44E
330
1F
100
AcDbEntity
  8
1-2
  6
Continuous
 62
     3
370
     9
100
AcDbLine
 10
281.081246040963
 20
121.8106161581505
 30
0.0
 11
281.081246040963
 21
309.8109394795188
 31
0.0
  0
LINE
  5
44F
330
1F
100
AcDbEntity
  8
1-2
  6
Continuous
 62
     3
370
     9
100
AcDbLine
 10
291.080784153294
 20
14.81046109586146
 30
0.0
 11
291.080784153294
 21
109.8108982395482
 31
0.0
  0
LINE
  5
450
330
1F
100
AcDbEntity
  8
1-2
  6
Continuous
 62
     3
370
     9
100
AcDbLine
 10
291.080784153294
 20
121.8106161581505
 30
0.0
 11
291.080784153294
 21
309.8109394795188
 31
0.0
  0
LINE
  5
451
330
1F
100
AcDbEntity
  8
1-2
  6
Continuous
 62
     3
370
     9
100
AcDbLine
 10
311.0813450168919
 20
14.81046109586146
 30
0.0
 11
311.0813450168919
 21
109.8108982395482
 31
0.0
  0
LINE
  5
452
330
1F
100
AcDbEntity
  8
1-2
  6
Continuous
 62
     3
370
     9
100
AcDbLine
 10
311.0813450168919
 20
121.8106161581505
 30
0.0
 11
311.0813450168919
 21
309.8109394795188
 31
0.0
  0
LINE
  5
453
330
1F
100
AcDbEntity
  8
1-2
  6
Continuous
 62
     3
370
     9
100
AcDbLine
 10
321.0808831292232
 20
14.81046109586146
 30
0.0
 11
321.0808831292232
 21
109.8108982395482
 31
0.0
  0
LINE
  5
454
330
1F
100
AcDbEntity
  8
1-2
  6
Continuous
 62
     3
370
     9
100
AcDbLine
 10
321.0808831292232
 20
121.8106161581505
 30
0.0
 11
321.0808831292232
 21
309.8109394795188
 31
0.0
  0
LINE
  5
455
330
1F
100
AcDbEntity
  8
1-2
  6
Continuous
 62
     3
370
     9
100
AcDbLine
 10
341.0811965529984
 20
14.81046109586146
 30
0.0
 11
341.0811965529984
 21
109.8108982395482
 31
0.0
  0
LINE
  5
456
330
1F
100
AcDbEntity
  8
1-2
  6
Continuous
 62
     3
370
     9
100
AcDbLine
 10
341.0811965529984
 20
121.8106161581505
 30
0.0
 11
341.0811965529984
 21
309.8109394795188
 31
0.0
  0
LINE
  5
457
330
1F
100
AcDbEntity
  8
1-2
  6
Continuous
 62
     3
370
     9
100
AcDbLine
 10
351.0807346653294
 20
14.81046109586146
 30
0.0
 11
351.0807346653294
 21
109.8108982395482
 31
0.0
  0
LINE
  5
458
330
1F
100
AcDbEntity
  8
1-2
  6
Continuous
 62
     3
370
     9
100
AcDbLine
 10
351.0807346653294
 20
121.8106161581505
 30
0.0
 11
351.0807346653294
 21
309.8109394795188
 31
0.0
  0
ARC
  5
459
330
1F
100
AcDbEntity
  8
1-1
  6
Continuous
 62
     2
370
     9
100
AcDbCircle
 10
876.3135755384292
 20
744.6109586148651
 30
0.0
 40
12.79999919839808
100
AcDbArc
 50
180.0
 51
270.0
  0
ARC
  5
45A
330
1F
100
AcDbEntity
  8
1-1
  6
Continuous
 62
     2
370
     9
100
AcDbCircle
 10
990.7134184966219
 20
744.6109586148651
 30
0.0
 40
12.79999919839808
100
AcDbArc
 50
270.0
 51
0.0
  0
ARC
  5
45B
330
1F
100
AcDbEntity
  8
1-1
  6
Continuous
 62
     2
370
     9
100
AcDbCircle
 10
990.713171056799
 20
744.6109586148651
 30
0.0
 40
6.399999599199038
100
AcDbArc
 50
270.0
 51
0.0
  0
ARC
  5
45C
330
1F
100
AcDbEntity
  8
1-1
  6
Continuous
 62
     2
370
     9
100
AcDbCircle
 10
876.3135755384292
 20
799.0110985008448
 30
0.0
 40
12.79999919839808
100
AcDbArc
 50
90.0
 51
180.0
  0
ARC
  5
45D
330
1F
100
AcDbEntity
  8
1-1
  6
Continuous
 62
     2
370
     9
100
AcDbCircle
 10
876.3130806587839
 20
799.0106036211995
 30
0.0
 40
6.399999599199038
100
AcDbArc
 50
90.0
 51
180.0
  0
ARC
  5
45E
330
1F
100
AcDbEntity
  8
1-1
  6
Continuous
 62
     2
370
     9
100
AcDbCircle
 10
990.713171056799
 20
799.0106036211995
 30
0.0
 40
6.399999599199038
100
AcDbArc
 50
0.0
 51
90.0
  0
ARC
  5
45F
330
1F
100
AcDbEntity
  8
1-1
  6
Continuous
 62
     2
370
     9
100
AcDbCircle
 10
990.7134184966219
 20
799.0110985008448
 30
0.0
 40
12.79999919839808
100
AcDbArc
 50
0.0
 51
90.0
  0
ARC
  5
460
330
1F
100
AcDbEntity
  8
1-1
  6
Continuous
 62
     2
370
     9
100
AcDbCircle
 10
876.3135755384292
 20
744.6109586148651
 30
0.0
 40
6.399999599199038
100
AcDbArc
 50
180.0
 51
270.0
  0
ARC
  5
461
330
1F
100
AcDbEntity
  8
1-1
  6
Continuous
 62
     2
370
     9
100
AcDbCircle
 10
876.3135755384292
 20
87.01067950274506
 30
0.0
 40
12.79999919839808
100
AcDbArc
 50
90.0
 51
180.0
  0
ARC
  5
462
330
1F
100
AcDbEntity
  8
1-1
  6
Continuous
 62
     2
370
     9
100
AcDbCircle
 10
990.7134184966219
 20
87.01067950274506
 30
0.0
 40
12.79999919839808
100
AcDbArc
 50
0.0
 51
90.0
  0
ARC
  5
463
330
1F
100
AcDbEntity
  8
1-1
  6
Continuous
 62
     2
370
     9
100
AcDbCircle
 10
990.713171056799
 20
87.01067950274506
 30
0.0
 40
6.399999599199038
100
AcDbArc
 50
0.0
 51
90.0
  0
ARC
  5
464
330
1F
100
AcDbEntity
  8
1-1
  6
Continuous
 62
     2
370
     9
100
AcDbCircle
 10
876.3135755384292
 20
32.61053961676538
 30
0.0
 40
12.79999919839808
100
AcDbArc
 50
180.0
 51
270.0
  0
ARC
  5
465
330
1F
100
AcDbEntity
  8
1-1
  6
Continuous
 62
     2
370
     9
100
AcDbCircle
 10
876.3130806587839
 20
32.61091077649922
 30
0.0
 40
6.399999599199038
100
AcDbArc
 50
180.0
 51
270.0
  0
ARC
  5
466
330
1F
100
AcDbEntity
  8
1-1
  6
Continuous
 62
     2
370
     9
100
AcDbCircle
 10
990.713171056799
 20
32.61091077649922
 30
0.0
 40
6.399999599199038
100
AcDbArc
 50
270.0
 51
0.0
  0
ARC
  5
467
330
1F
100
AcDbEntity
  8
1-1
  6
Continuous
 62
     2
370
     9
100
AcDbCircle
 10
990.7134184966219
 20
32.61053961676538
 30
0.0
 40
12.79999919839808
100
AcDbArc
 50
270.0
 51
0.0
  0
ARC
  5
468
330
1F
100
AcDbEntity
  8
1-1
  6
Continuous
 62
     2
370
     9
100
AcDbCircle
 10
876.3135755384292
 20
87.01067950274506
 30
0.0
 40
6.399999599199038
100
AcDbArc
 50
90.0
 51
180.0
  0
CIRCLE
  5
469
330
1F
100
AcDbEntity
  8
1-2
  6
Continuous
 62
     3
370
     9
100
AcDbCircle
 10
820.5134211359797
 20
715.810447899071
 30
0.0
 40
5.999999594044041
  0
CIRCLE
  5
46A
330
1F
100
AcDbEntity
  8
1-2
  6
Continuous
 62
     3
370
     9
100
AcDbCircle
 10
820.5134211359797
 20
515.810530379012
 30
0.0
 40
5.999999594044041
  0
CIRCLE
  5
46B
330
1F
100
AcDbEntity
  8
1-2
  6
Continuous
 62
     3
370
     9
100
AcDbCircle
 10
820.5134211359797
 20
315.8106128589529
 30
0.0
 40
5.999999594044041
  0
CIRCLE
  5
46C
330
1F
100
AcDbEntity
  8
1-2
  6
Continuous
 62
     3
370
     9
100
AcDbCircle
 10
820.5134211359797
 20
115.8105716189823
 30
0.0
 40
5.999999594044041
  0
TEXT
  5
46D
330
1F
100
AcDbEntity
  8
1-4
  6
Continuous
 62
     2
370
     9
100
AcDbText
 10
385.9390341269004
 20
-623.1491779719172
 30
0.0
 40
30.48
  1
仕　様
 41
1.083333333333333
  7
ＭＳ ゴシック
100
AcDbText
  0
TEXT
  5
46E
330
1F
100
AcDbEntity
  8
1-4
  6
Continuous
 62
     2
370
     9
100
AcDbText
 10
500.2406682194894
 20
-851.0687204391891
 30
0.0
 40
30.48
  1
処理：溶融亜鉛めっき
 41
1.1125
  7
ＭＳ ゴシック
100
AcDbText
  0
TEXT
  5
46F
330
1F
100
AcDbEntity
  8
1-4
  6
Continuous
 62
     2
370
     9
100
AcDbText
 10
440.5282922693202
 20
-686.0696607105151
 30
0.0
 40
30.48
  1
ノンスリップタイプ
 41
1.111111111111111
  7
ＭＳ ゴシック
100
AcDbText
  0
TEXT
  5
470
330
1F
100
AcDbEntity
  8
1-4
  6
Continuous
 62
     2
370
     9
100
AcDbText
 10
500.24074440329
 20
-796.0675492240518
 30
0.0
 40
30.48
  1
材質：ＳＳ４００＋ＳＴＫＲ４００
 50
359.9999801716714
 41
1.1171875
  7
ＭＳ ゴシック
100
AcDbText
  0
TEXT
  5
471
330
1F
100
AcDbEntity
  8
1-4
  6
Continuous
 62
     7
370
     9
100
AcDbText
 10
-1116.121525120091
 20
-908.5020655616554
 30
0.0
 40
22.86
  1
※デルタパターンの配列は一定ではありません。
 41
1.159090909090909
  7
ＭＳ ゴシック
100
AcDbText
  0
TEXT
  5
472
330
1F
100
AcDbEntity
  8
1-4
  6
Continuous
 62
     2
370
     9
100
AcDbText
 10
-1141.437655260241
 20
-720.6321448248787
 30
0.0
 40
30.48
  1
5.4
 50
90.0
 41
1.083333333333333
  7
ＭＳ ゴシック
100
AcDbText
  0
TEXT
  5
473
330
1F
100
AcDbEntity
  8
1-4
  6
Continuous
 62
     2
370
     9
100
AcDbText
 10
-1141.437655260241
 20
-546.4337673702754
 30
0.0
 40
30.48
  1
7.6
 50
90.0
 41
1.083333333333333
  7
ＭＳ ゴシック
100
AcDbText
  0
TEXT
  5
474
330
1F
100
AcDbEntity
  8
1-4
  6
Continuous
 62
     2
370
     9
100
AcDbText
 10
-1055.665782206767
 20
-402.533935348923
 30
0.0
 40
30.48
  1
5
 41
0.9999999999999998
  7
ＭＳ ゴシック
100
AcDbText
  0
TEXT
  5
475
330
1F
100
AcDbEntity
  8
1-4
  6
Continuous
 62
     2
370
     9
100
AcDbText
 10
-981.6068213537142
 20
-519.0326105746706
 30
0.0
 40
30.48
  1
5
 50
282.0789760484706
 41
0.9999999999999991
  7
ＭＳ ゴシック
100
AcDbText
  0
TEXT
  5
476
330
1F
100
AcDbEntity
  8
1-4
  6
Continuous
 62
     2
370
     9
100
AcDbText
 10
-397.0865074363912
 20
-489.8382516891892
 30
0.0
 40
30.48
  1
5
 41
0.9999999999999998
  7
ＭＳ ゴシック
100
AcDbText
  0
TEXT
  5
477
330
1F
100
AcDbEntity
  8
1-4
  6
Continuous
 62
     2
370
     9
100
AcDbText
 10
-359.2187230289684
 20
-627.2575450673262
 30
0.0
 40
30.48
  1
3
 50
0.0003544324611818
 41
0.9999999999999982
  7
ＭＳ ゴシック
100
AcDbText
  0
TEXT
  5
478
330
1F
100
AcDbEntity
  8
1-4
  6
Continuous
 62
     2
370
     9
100
AcDbText
 10
-267.7805936576224
 20
-641.4817191459036
 30
0.0
 40
30.48
  1
25
 50
90.0
 41
1.0625
  7
ＭＳ ゴシック
100
AcDbText
  0
TEXT
  5
479
330
1F
100
AcDbEntity
  8
1-4
  6
Continuous
 62
     7
370
     9
100
AcDbText
 10
-968.73517010663
 20
-423.3390109665329
 30
0.0
 40
22.86
  1
デルタパターン
 41
1.142857142857143
  7
ＭＳ ゴシック
100
AcDbText
  0
TEXT
  5
47A
330
1F
100
AcDbEntity
  8
1-4
  6
Continuous
 62
     2
370
     9
100
AcDbText
 10
-1136.121772559913
 20
-832.0920655616553
 30
0.0
 40
30.48
  1
ＤⅠ－２５　バー形状詳細　Ｓ＝１：２
 41
1.118055555555555
  7
ＭＳ ゴシック
100
AcDbText
  0
TEXT
  5
47B
330
1F
100
AcDbEntity
  8
1-4
  6
Continuous
 62
     2
370
     9
100
AcDbText
 10
817.2635547534842
 20
-115.8458266469594
 30
0.0
 40
30.48
  1
25
 41
1.0625
  7
ＭＳ ゴシック
100
AcDbText
  0
TEXT
  5
47C
330
1F
100
AcDbEntity
  8
1-4
  6
Continuous
 62
     2
370
     9
100
AcDbText
 10
1087.873282569679
 20
-35.97139513170376
 30
0.0
 40
30.48
  1
7
 50
90.0
 41
0.9999999999999998
  7
ＭＳ ゴシック
100
AcDbText
  0
TEXT
  5
47D
330
1F
100
AcDbEntity
  8
1-4
  6
Continuous
 62
     2
370
     9
100
AcDbText
 10
1087.873282569679
 20
38.56060955975508
 30
0.0
 40
30.48
  1
40
 50
90.0
 41
1.0625
  7
ＭＳ ゴシック
100
AcDbText
  0
TEXT
  5
47E
330
1F
100
AcDbEntity
  8
1-4
  6
Continuous
 62
     2
370
     9
100
AcDbText
 10
1087.873282569679
 20
750.5611522777662
 30
0.0
 40
30.48
  1
40
 50
90.0
 41
1.0625
  7
ＭＳ ゴシック
100
AcDbText
  0
TEXT
  5
47F
330
1F
100
AcDbEntity
  8
1-4
  6
Continuous
 62
     2
370
     9
100
AcDbText
 10
1087.873282569679
 20
845.8230343380491
 30
0.0
 40
30.48
  1
7
 50
90.0
 41
0.9999999999999998
  7
ＭＳ ゴシック
100
AcDbText
  0
TEXT
  5
480
330
1F
100
AcDbEntity
  8
1-4
  6
Continuous
 62
     7
370
     9
100
AcDbText
 10
-1083.948120941987
 20
1103.467505938556
 30
0.0
 40
22.86
  1
エンドプレート ＦＢ19×4.5
 41
1.16025641025641
  7
ＭＳ ゴシック
100
AcDbText
  0
TEXT
  5
481
330
1F
100
AcDbEntity
  8
1-4
  6
Continuous
 62
     7
370
     9
100
AcDbText
 10
-1018.983805888408
 20
1022.019471600507
 30
0.0
 40
22.86
  1
クロスバー φ６ ＠100
 41
1.158730158730159
  7
ＭＳ ゴシック
100
AcDbText
  0
TEXT
  5
482
330
1F
100
AcDbEntity
  8
1-4
  6
Continuous
 62
     2
370
     9
100
AcDbText
 10
9.83128728093348
 20
881.4695337573904
 30
0.0
 40
30.48
  1
15
 41
1.0625
  7
ＭＳ ゴシック
100
AcDbText
  0
TEXT
  5
483
330
1F
100
AcDbEntity
  8
1-4
  6
Continuous
 62
     7
370
     9
100
AcDbText
 10
-951.3641728581609
 20
944.512163877745
 30
0.0
 40
22.86
  1
メインバー ＤⅠ－２５ ＠15
 41
1.16025641025641
  7
ＭＳ ゴシック
100
AcDbText
  0
TEXT
  5
484
330
1F
100
AcDbEntity
  8
F-5
  6
Continuous
 62
     7
370
     9
100
AcDbText
 10
-836.7004683211043
 20
-1330.292564862225
 30
0.0
 40
22.86
  1
ノンスリップタイプスチール製グレーチング
 41
1.158333333333333
  7
ＭＳ ゴシック
100
AcDbText
  0
TEXT
  5
485
330
1F
100
AcDbEntity
  8
1-4
  6
Continuous
 62
     2
370
     9
100
AcDbText
 10
-646.4188611829603
 20
-119.8458150997677
 30
0.0
 40
30.48
  1
995
 41
1.083333333333333
  7
ＭＳ ゴシック
100
AcDbText
  0
TEXT
  5
486
330
1F
100
AcDbEntity
  8
1-4
  6
Continuous
 62
     7
370
     9
100
AcDbText
 10
1206.527239825275
 20
969.8945408836573
 30
0.0
 40
22.86
  1
（Ｌ＝９８５）
 41
1.142857142857143
  7
ＭＳ ゴシック
100
AcDbText
  0
TEXT
  5
487
330
1F
100
AcDbEntity
  8
D-4
  6
Continuous
 62
     2
370
     9
100
AcDbText
 10
496.9438542546453
 20
-902.069965061497
 30
0.0
 40
30.48
  1
定尺：９９５
 41
1.104166666666667
  7
ＭＳ ゴシック
100
AcDbText
  0
TEXT
  5
488
330
1F
100
AcDbEntity
  8
1-4
  6
Continuous
 62
     2
370
     9
100
AcDbText
 10
701.8735926942568
 20
383.3108190588051
 30
0.0
 40
30.48
  1
410
 50
90.0
 41
1.083333333333333
  7
ＭＳ ゴシック
100
AcDbText
  0
TEXT
  5
489
330
1F
100
AcDbEntity
  8
1-4
  6
Continuous
 62
     2
370
     9
100
AcDbText
 10
1091.873394742399
 20
383.3106953388937
 30
0.0
 40
30.48
  1
316
 50
90.0
 41
1.083333333333333
  7
ＭＳ ゴシック
100
AcDbText
  0
TEXT
  5
48A
330
1F
100
AcDbEntity
  8
1-4
  6
Continuous
 62
     2
370
     9
100
AcDbText
 10
912.2636207374367
 20
-119.8458150997677
 30
0.0
 40
30.48
  1
70
 41
1.0625
  7
ＭＳ ゴシック
100
AcDbText
  0
TEXT
  5
48B
330
1F
100
AcDbEntity
  8
1-4
  6
Continuous
 62
     2
370
     9
100
AcDbText
 10
887.2635382574961
 20
-199.8459553156672
 30
0.0
 40
30.48
  1
95
 41
1.0625
  7
ＭＳ ゴシック
100
AcDbText
  0
TEXT
  5
48C
330
1F
100
AcDbEntity
  8
1-4
  6
Continuous
 62
     7
370
     9
100
AcDbText
 10
1058.891675794447
 20
1026.989795317779
 30
0.0
 40
22.86
  1
かさ上げ材：□７０×４０×３．２
 41
1.15625
  7
ＭＳ ゴシック
100
AcDbText
  0
TEXT
  5
48D
330
1F
100
AcDbEntity
  8
1-4
  6
Continuous
 62
     2
370
     9
100
AcDbText
 10
440.5281932933913
 20
-741.0708319256756
 30
0.0
 40
30.48
  1
圧接式細目グレーチング　ＱＸＪ　４１２５Ｂ
 41
1.119047619047619
  7
ＭＳ ゴシック
100
AcDbText
  0
TEXT
  5
48E
330
1F
100
AcDbEntity
  8
F-5
  6
Continuous
 62
     7
370
     9
100
AcDbText
 10
-366.7745188120247
 20
-1369.44001920133
 30
0.0
 40
22.86
  1
圧接式細目ＪＩＳ型側溝用　ＱＸＪ　４１２５Ｂ
 41
1.159090909090909
  7
ＭＳ ゴシック
100
AcDbText
  0
LWPOLYLINE
  5
48F
330
1F
100
AcDbEntity
  8
1-4
  6
Continuous
 62
     7
370
     9
100
AcDbPolyline
 90
        4
 70
     1
 43
1.0
 10
-1608.418803447001
 20
-131.4858596389357
 42
0.4142135623731
 10
-1608.918803447002
 20
-130.9858596389357
 42
0.4142135623731
 10
-1609.418803447002
 20
-131.4858596389357
 42
0.4142135623731
 10
-1608.918803447002
 20
-131.9858596389357
 42
0.4142135623731
  0
LWPOLYLINE
  5
490
330
1F
100
AcDbEntity
  8
1-4
  6
Continuous
 62
     7
370
     9
100
AcDbPolyline
 90
        4
 70
     1
 43
1.0
 10
381.5810810810813
 20
-131.4858596389357
 42
0.4142135623731
 10
381.0810810810813
 20
-130.9858596389357
 42
0.4142135623731
 10
380.5810810810813
 20
-131.4858596389357
 42
0.4142135623731
 10
381.0810810810813
 20
-131.9858596389357
 42
0.4142135623731
  0
LWPOLYLINE
  5
491
330
1F
100
AcDbEntity
  8
1-4
  6
Continuous
 62
     7
370
     9
100
AcDbPolyline
 90
        4
 70
     1
 43
1.0
 10
814.0135959934547
 20
-131.4858596389357
 42
0.4142135623731
 10
813.5135959934547
 20
-130.9858596389357
 42
0.4142135623731
 10
813.0135959934547
 20
-131.4858596389357
 42
0.4142135623731
 10
813.5135959934547
 20
-131.9858596389357
 42
0.4142135623731
  0
LWPOLYLINE
  5
492
330
1F
100
AcDbEntity
  8
1-4
  6
Continuous
 62
     7
370
     9
100
AcDbPolyline
 90
        4
 70
     1
 43
1.0
 10
864.0135135135135
 20
-131.4858596389357
 42
0.4142135623731
 10
863.5135135135135
 20
-130.9858596389357
 42
0.4142135623731
 10
863.0135135135135
 20
-131.4858596389357
 42
0.4142135623731
 10
863.5135135135135
 20
-131.9858596389357
 42
0.4142135623731
  0
LWPOLYLINE
  5
493
330
1F
100
AcDbEntity
  8
1-4
  6
Continuous
 62
     7
370
     9
100
AcDbPolyline
 90
        4
 70
     1
 43
1.0
 10
1004.013480521538
 20
-131.4858596389357
 42
0.4142135623731
 10
1003.513480521538
 20
-130.9858596389357
 42
0.4142135623731
 10
1003.013480521538
 20
-131.4858596389357
 42
0.4142135623731
 10
1003.513480521538
 20
-131.9858596389357
 42
0.4142135623731
  0
LWPOLYLINE
  5
494
330
1F
100
AcDbEntity
  8
1-4
  6
Continuous
 62
     7
370
     9
100
AcDbPolyline
 90
        4
 70
     1
 43
1.0
 10
814.0135959934547
 20
-211.4859998548353
 42
0.4142135623731
 10
813.5135959934547
 20
-210.9859998548353
 42
0.4142135623731
 10
813.0135959934547
 20
-211.4859998548353
 42
0.4142135623731
 10
813.5135959934547
 20
-211.9859998548353
 42
0.4142135623731
  0
LWPOLYLINE
  5
495
330
1F
100
AcDbEntity
  8
1-4
  6
Continuous
 62
     7
370
     9
100
AcDbPolyline
 90
        4
 70
     1
 43
1.0
 10
1004.013233081715
 20
-211.4859998548353
 42
0.4142135623731
 10
1003.513233081715
 20
-210.9859998548353
 42
0.4142135623731
 10
1003.013233081715
 20
-211.4859998548353
 42
0.4142135623731
 10
1003.513233081715
 20
-211.9859998548353
 42
0.4142135623731
  0
LWPOLYLINE
  5
496
330
1F
100
AcDbEntity
  8
1-4
  6
Continuous
 62
     7
370
     9
100
AcDbPolyline
 90
        4
 70
     1
 43
1.0
 10
714.0135135135135
 20
5.810827306798956
 42
0.4142135623731
 10
713.5135135135135
 20
6.310827306798956
 42
0.4142135623731
 10
713.0135135135135
 20
5.810827306798956
 42
0.4142135623731
 10
713.5135135135135
 20
5.310827306798956
 42
0.4142135623731
  0
LWPOLYLINE
  5
497
330
1F
100
AcDbEntity
  8
1-4
  6
Continuous
 62
     7
370
     9
100
AcDbPolyline
 90
        4
 70
     1
 43
1.0
 10
714.0135135135135
 20
825.810810810811
 42
0.4142135623731
 10
713.5135135135135
 20
826.310810810811
 42
0.4142135623731
 10
713.0135135135135
 20
825.810810810811
 42
0.4142135623731
 10
713.5135135135135
 20
825.310810810811
 42
0.4142135623731
  0
LWPOLYLINE
  5
498
330
1F
100
AcDbEntity
  8
1-4
  6
Continuous
 62
     7
370
     9
100
AcDbPolyline
 90
        4
 70
     1
 43
1.0
 10
1104.013315561656
 20
5.810827306798956
 42
0.4142135623731
 10
1103.513315561656
 20
6.310827306798956
 42
0.4142135623731
 10
1103.013315561656
 20
5.810827306798956
 42
0.4142135623731
 10
1103.513315561656
 20
5.310827306798956
 42
0.4142135623731
  0
LWPOLYLINE
  5
499
330
1F
100
AcDbEntity
  8
1-4
  6
Continuous
 62
     7
370
     9
100
AcDbPolyline
 90
        4
 70
     1
 43
1.0
 10
1104.013315561656
 20
19.81060131176093
 42
0.4142135623731
 10
1103.513315561656
 20
20.31060131176093
 42
0.4142135623731
 10
1103.013315561656
 20
19.81060131176093
 42
0.4142135623731
 10
1103.513315561656
 20
19.31060131176093
 42
0.4142135623731
  0
LWPOLYLINE
  5
49A
330
1F
100
AcDbEntity
  8
1-4
  6
Continuous
 62
     7
370
     9
100
AcDbPolyline
 90
        4
 70
     1
 43
1.0
 10
1104.013315561656
 20
99.81049408783804
 42
0.4142135623731
 10
1103.513315561656
 20
100.310494087838
 42
0.4142135623731
 10
1103.013315561656
 20
99.81049408783804
 42
0.4142135623731
 10
1103.513315561656
 20
99.31049408783804
 42
0.4142135623731
  0
LWPOLYLINE
  5
49B
330
1F
100
AcDbEntity
  8
1-4
  6
Continuous
 62
     7
370
     9
100
AcDbPolyline
 90
        4
 70
     1
 43
1.0
 10
1104.013315561656
 20
731.8108965899495
 42
0.4142135623731
 10
1103.513315561656
 20
732.3108965899495
 42
0.4142135623731
 10
1103.013315561656
 20
731.8108965899495
 42
0.4142135623731
 10
1103.513315561656
 20
731.3108965899495
 42
0.4142135623731
  0
LWPOLYLINE
  5
49C
330
1F
100
AcDbEntity
  8
1-4
  6
Continuous
 62
     7
370
     9
100
AcDbPolyline
 90
        4
 70
     1
 43
1.0
 10
1104.013315561656
 20
811.8111605257602
 42
0.4142135623731
 10
1103.513315561656
 20
812.3111605257601
 42
0.4142135623731
 10
1103.013315561656
 20
811.8111605257602
 42
0.4142135623731
 10
1103.513315561656
 20
811.3111605257602
 42
0.4142135623731
  0
LWPOLYLINE
  5
49D
330
1F
100
AcDbEntity
  8
1-4
  6
Continuous
 62
     7
370
     9
100
AcDbPolyline
 90
        4
 70
     1
 43
1.0
 10
1104.013315561656
 20
825.810810810811
 42
0.4142135623731
 10
1103.513315561656
 20
826.310810810811
 42
0.4142135623731
 10
1103.013315561656
 20
825.810810810811
 42
0.4142135623731
 10
1103.513315561656
 20
825.310810810811
 42
0.4142135623731
  0
LWPOLYLINE
  5
49E
330
1F
100
AcDbEntity
  8
1-4
  6
Continuous
 62
     7
370
     9
100
AcDbPolyline
 90
        4
 70
     1
 43
1.0
 10
16.64099451013516
 20
869.8296129381336
 42
0.4142135623731
 10
16.14099451013516
 20
870.3296129381336
 42
0.4142135623731
 10
15.64099451013516
 20
869.8296129381336
 42
0.4142135623731
 10
16.14099451013516
 20
869.3296129381337
 42
0.4142135623731
  0
LWPOLYLINE
  5
49F
330
1F
100
AcDbEntity
  8
1-4
  6
Continuous
 62
     7
370
     9
100
AcDbPolyline
 90
        4
 70
     1
 43
1.0
 10
46.52133261190886
 20
869.8296129381336
 42
0.4142135623731
 10
46.02133261190886
 20
870.3296129381336
 42
0.4142135623731
 10
45.52133261190886
 20
869.8296129381336
 42
0.4142135623731
 10
46.02133261190886
 20
869.3296129381337
 42
0.4142135623731
  0
ENDSEC
  0
SECTION
  2
OBJECTS
  0
DICTIONARY
  5
C
330
0
100
AcDbDictionary
281
     1
  3
ACAD_GROUP
350
D
  3
ACAD_LAYOUT
350
1A
  3
ACAD_MLEADERSTYLE
350
4A1
  3
ACAD_MLINESTYLE
350
17
  3
ACAD_PLOTSETTINGS
350
19
  3
ACAD_PLOTSTYLENAME
350
E
  3
ACAD_TABLESTYLE
350
4A0
  3
ACAD_VISUALSTYLE
350
2A
  0
DICTIONARY
  5
D
102
{ACAD_REACTORS
330
C
102
}
330
C
100
AcDbDictionary
281
     1
  0
DICTIONARY
  5
1A
102
{ACAD_REACTORS
330
C
102
}
330
C
100
AcDbDictionary
281
     1
  3
Layout1
350
1E
  3
Layout2
350
26
  3
Model
350
22
  0
DICTIONARY
  5
4A1
102
{ACAD_REACTORS
330
C
102
}
330
C
100
AcDbDictionary
281
     1
  0
DICTIONARY
  5
17
102
{ACAD_REACTORS
330
C
102
}
330
C
100
AcDbDictionary
281
     1
  3
Standard
350
18
  0
DICTIONARY
  5
19
102
{ACAD_REACTORS
330
C
102
}
330
C
100
AcDbDictionary
281
     1
  0
ACDBDICTIONARYWDFLT
  5
E
102
{ACAD_REACTORS
330
C
102
}
330
C
100
AcDbDictionary
281
     1
  3
Normal
350
F
100
AcDbDictionaryWithDefault
340
F
  0
DICTIONARY
  5
4A0
102
{ACAD_REACTORS
330
C
102
}
330
C
100
AcDbDictionary
281
     1
  0
DICTIONARY
  5
2A
102
{ACAD_REACTORS
330
C
102
}
330
C
100
AcDbDictionary
281
     1
  3
2dWireframe
350
2F
  3
3D Hidden
350
31
  3
3dWireframe
350
30
  3
Basic
350
32
  3
Brighten
350
36
  3
ColorChange
350
3A
  3
Conceptual
350
34
  3
Dim
350
35
  3
Facepattern
350
39
  3
Flat
350
2B
  3
FlatWithEdges
350
2C
  3
Gouraud
350
2D
  3
GouraudWithEdges
350
2E
  3
Linepattern
350
38
  3
Realistic
350
33
  3
Thicken
350
37
  0
LAYOUT
  5
1E
102
{ACAD_REACTORS
330
1A
102
}
330
1A
100
AcDbPlotSettings
  1

  2
none_device
  4

  6

 40
0.0
 41
0.0
 42
0.0
 43
0.0
 44
0.0
 45
0.0
 46
0.0
 47
0.0
 48
0.0
 49
0.0
140
0.0
141
0.0
142
1.0
143
1.0
 70
   688
 72
     0
 73
     0
 74
     5
  7

 75
    16
 76
     0
 77
     5
 78
   300
147
1.0
148
0.0
149
0.0
100
AcDbLayout
  1
Layout1
 70
     1
 71
     1
 10
0.0
 20
0.0
 11
420.0
 21
297.0
 12
0.0
 22
0.0
 32
0.0
 14
1.000000000000000E+20
 24
1.000000000000000E+20
 34
1.000000000000000E+20
 15
-1.000000000000000E+20
 25
-1.000000000000000E+20
 35
-1.000000000000000E+20
146
0.0
 13
0.0
 23
0.0
 33
0.0
 16
1.0
 26
0.0
 36
0.0
 17
0.0
 27
1.0
 37
0.0
 76
     0
330
1B
  0
LAYOUT
  5
26
102
{ACAD_REACTORS
330
1A
102
}
330
1A
100
AcDbPlotSettings
  1

  2
none_device
  4

  6

 40
0.0
 41
0.0
 42
0.0
 43
0.0
 44
0.0
 45
0.0
 46
0.0
 47
0.0
 48
0.0
 49
0.0
140
0.0
141
0.0
142
1.0
143
1.0
 70
   688
 72
     0
 73
     0
 74
     5
  7

 75
    16
 76
     0
 77
     5
 78
   300
147
1.0
148
0.0
149
0.0
100
AcDbLayout
  1
Layout2
 70
     1
 71
     2
 10
0.0
 20
0.0
 11
0.0
 21
0.0
 12
0.0
 22
0.0
 32
0.0
 14
0.0
 24
0.0
 34
0.0
 15
0.0
 25
0.0
 35
0.0
146
0.0
 13
0.0
 23
0.0
 33
0.0
 16
1.0
 26
0.0
 36
0.0
 17
0.0
 27
1.0
 37
0.0
 76
     0
330
23
  0
LAYOUT
  5
22
102
{ACAD_REACTORS
330
1A
102
}
330
1A
100
AcDbPlotSettings
  1

  2
none_device
  4

  6

 40
0.0
 41
0.0
 42
0.0
 43
0.0
 44
0.0
 45
0.0
 46
0.0
 47
0.0
 48
0.0
 49
0.0
140
0.0
141
0.0
142
1.0
143
1.0
 70
  1712
 72
     0
 73
     0
 74
     0
  7

 75
     0
 76
     0
 77
     5
 78
   300
147
1.0
148
0.0
149
0.0
100
AcDbLayout
  1
Model
 70
     1
 71
     0
 10
-2100.0
 20
-1485.0
 11
2100.0
 21
1485.0
 12
0.0
 22
0.0
 32
0.0
 14
-2100.0
 24
-1485.0
 34
0.0
 15
2100.0
 25
1485.0
 35
0.0
146
0.0
 13
0.0
 23
0.0
 33
0.0
 16
1.0
 26
0.0
 36
0.0
 17
0.0
 27
1.0
 37
0.0
 76
     0
330
1F
331
29
  0
MLINESTYLE
  5
18
102
{ACAD_REACTORS
330
17
102
}
330
17
100
AcDbMlineStyle
  2
Standard
 70
     0
  3

 62
   256
 51
90.0
 52
90.0
 71
     2
 49
0.5
 62
   256
  6
BYLAYER
 49
-0.5
 62
   256
  6
BYLAYER
  0
ACDBPLACEHOLDER
  5
F
102
{ACAD_REACTORS
330
E
102
}
330
E
  0
VISUALSTYLE
  5
2F
102
{ACAD_REACTORS
330
2A
102
}
330
2A
100
AcDbVisualStyle
  2
2dWireframe
 70
     4
 71
     0
 72
     2
 73
     0
 90
        0
 40
-0.6
 41
-30.0
 62
     5
 63
     7
421
 16777215
 74
     1
 91
        4
 64
     7
 65
   257
 75
     1
175
     1
 42
1.0
 92
        0
 66
   257
 43
1.0
 76
     1
 77
     6
 78
     2
 67
     7
 79
     5
170
     0
171
     0
290
     0
174
     0
 93
        1
 44
0.0
173
     0
291
     0
 45
0.0
1001
ACAD
1000
AcDbSavedByObjectVersion
1070
     0
  0
VISUALSTYLE
  5
31
102
{ACAD_REACTORS
330
2A
102
}
330
2A
100
AcDbVisualStyle
  2
3D Hidden
 70
     6
 71
     1
 72
     2
 73
     2
 90
        0
 40
-0.6
 41
-30.0
 62
     5
 63
     7
421
 16777215
 74
     2
 91
        2
 64
     7
 65
   257
 75
     2
175
     1
 42
40.0
 92
        0
 66
   257
 43
1.0
 76
     1
 77
     6
 78
     2
 67
     7
 79
     3
170
     0
171
     0
290
     0
174
     0
 93
        1
 44
0.0
173
     0
291
     0
 45
0.0
1001
ACAD
1000
AcDbSavedByObjectVersion
1070
     0
  0
VISUALSTYLE
  5
30
102
{ACAD_REACTORS
330
2A
102
}
330
2A
100
AcDbVisualStyle
  2
3dWireframe
 70
     5
 71
     0
 72
     2
 73
     0
 90
        0
 40
-0.6
 41
-30.0
 62
     5
 63
     7
421
 16777215
 74
     1
 91
        4
 64
     7
 65
   257
 75
     1
175
     1
 42
1.0
 92
        0
 66
   257
 43
1.0
 76
     1
 77
     6
 78
     2
 67
     7
 79
     5
170
     0
171
     0
290
     0
174
     0
 93
        1
 44
0.0
173
     0
291
     0
 45
0.0
1001
ACAD
1000
AcDbSavedByObjectVersion
1070
     0
  0
VISUALSTYLE
  5
32
102
{ACAD_REACTORS
330
2A
102
}
330
2A
100
AcDbVisualStyle
  2
Basic
 70
     7
 71
     1
 72
     0
 73
     1
 90
        0
 40
-0.6
 41
-30.0
 62
     5
 63
     7
421
 16777215
 74
     0
 91
        4
 64
     7
 65
   257
 75
     1
175
     1
 42
1.0
 92
        8
 66
     7
 43
1.0
 76
     1
 77
     6
 78
     2
 67
     7
 79
     5
170
     0
171
     0
290
     0
174
     0
 93
        1
 44
0.0
173
     0
291
     1
 45
0.0
1001
ACAD
1000
AcDbSavedByObjectVersion
1070
     0
  0
VISUALSTYLE
  5
36
102
{ACAD_REACTORS
330
2A
102
}
330
2A
100
AcDbVisualStyle
  2
Brighten
 70
    12
 71
     2
 72
     2
 73
     0
 90
        0
 40
-0.6
 41
-30.0
 62
     5
 63
     7
421
 16777215
 74
     1
 91
        4
 64
     7
 65
   257
 75
     1
175
     1
 42
1.0
 92
        8
 66
     7
 43
1.0
 76
     1
 77
     6
 78
     2
 67
     7
 79
     5
170
     0
171
     0
290
     0
174
     0
 93
        1
 44
50.0
173
     0
291
     1
 45
0.0
1001
ACAD
1000
AcDbSavedByObjectVersion
1070
     0
  0
VISUALSTYLE
  5
3A
102
{ACAD_REACTORS
330
2A
102
}
330
2A
100
AcDbVisualStyle
  2
ColorChange
 70
    16
 71
     2
 72
     2
 73
     3
 90
        0
 40
-0.6
 41
-30.0
 62
     5
 63
     8
421
  8421504
 74
     1
 91
        4
 64
     7
 65
   257
 75
     1
175
     1
 42
1.0
 92
        8
 66
     8
424
  8421504
 43
1.0
 76
     1
 77
     6
 78
     2
 67
     7
 79
     5
170
     0
171
     0
290
     0
174
     0
 93
        1
 44
0.0
173
     0
291
     1
 45
0.0
1001
ACAD
1000
AcDbSavedByObjectVersion
1070
     0
  0
VISUALSTYLE
  5
34
102
{ACAD_REACTORS
330
2A
102
}
330
2A
100
AcDbVisualStyle
  2
Conceptual
 70
     9
 71
     3
 72
     2
 73
     0
 90
        0
 40
-0.6
 41
-30.0
 62
     5
 63
     7
421
 16777215
 74
     2
 91
        2
 64
     7
 65
   257
 75
     1
175
     1
 42
40.0
 92
        8
 66
     7
 43
1.0
 76
     1
 77
     6
 78
     2
 67
     7
 79
     3
170
     0
171
     0
290
     0
174
     0
 93
        1
 44
0.0
173
     0
291
     0
 45
0.0
1001
ACAD
1000
AcDbSavedByObjectVersion
1070
     0
  0
VISUALSTYLE
  5
35
102
{ACAD_REACTORS
330
2A
102
}
330
2A
100
AcDbVisualStyle
  2
Dim
 70
    11
 71
     2
 72
     2
 73
     0
 90
        0
 40
-0.6
 41
-30.0
 62
     5
 63
     7
421
 16777215
 74
     1
 91
        4
 64
     7
 65
   257
 75
     1
175
     1
 42
1.0
 92
        8
 66
     7
 43
1.0
 76
     1
 77
     6
 78
     2
 67
     7
 79
     5
170
     0
171
     0
290
     0
174
     0
 93
        1
 44
-50.0
173
     0
291
     1
 45
0.0
1001
ACAD
1000
AcDbSavedByObjectVersion
1070
     0
  0
VISUALSTYLE
  5
39
102
{ACAD_REACTORS
330
2A
102
}
330
2A
100
AcDbVisualStyle
  2
Facepattern
 70
    15
 71
     2
 72
     2
 73
     0
 90
        0
 40
-0.6
 41
-30.0
 62
     5
 63
     7
421
 16777215
 74
     1
 91
        4
 64
     7
 65
   257
 75
     1
175
     1
 42
1.0
 92
        8
 66
     7
 43
1.0
 76
     1
 77
     6
 78
     2
 67
     7
 79
     5
170
     0
171
     0
290
     0
174
     0
 93
        1
 44
0.0
173
     0
291
     1
 45
0.0
1001
ACAD
1000
AcDbSavedByObjectVersion
1070
     0
  0
VISUALSTYLE
  5
2B
102
{ACAD_REACTORS
330
2A
102
}
330
2A
100
AcDbVisualStyle
  2
Flat
 70
     0
 71
     2
 72
     1
 73
     1
 90
        2
 40
-0.6
 41
30.0
 62
     5
 63
     7
421
 16777215
 74
     0
 91
        4
 64
     7
 65
   257
 75
     1
175
     1
 42
1.0
 92
        8
 66
     7
 43
1.0
 76
     1
 77
     6
 78
     2
 67
     7
 79
     5
170
     0
171
     0
290
     0
174
     0
 93
       13
 44
0.0
173
     0
291
     1
 45
0.0
1001
ACAD
1000
AcDbSavedByObjectVersion
1070
     0
  0
VISUALSTYLE
  5
2C
102
{ACAD_REACTORS
330
2A
102
}
330
2A
100
AcDbVisualStyle
  2
FlatWithEdges
 70
     1
 71
     2
 72
     1
 73
     1
 90
        2
 40
-0.6
 41
30.0
 62
     5
 63
     7
421
 16777215
 74
     1
 91
        4
 64
     7
 65
   257
 75
     1
175
     1
 42
1.0
 92
        0
 66
   257
 43
1.0
 76
     1
 77
     6
 78
     2
 67
     7
 79
     5
170
     0
171
     0
290
     0
174
     0
 93
       13
 44
0.0
173
     0
291
     1
 45
0.0
1001
ACAD
1000
AcDbSavedByObjectVersion
1070
     0
  0
VISUALSTYLE
  5
2D
102
{ACAD_REACTORS
330
2A
102
}
330
2A
100
AcDbVisualStyle
  2
Gouraud
 70
     2
 71
     2
 72
     2
 73
     1
 90
        2
 40
-0.6
 41
30.0
 62
     5
 63
     7
421
 16777215
 74
     0
 91
        4
 64
     7
 65
   257
 75
     1
175
     1
 42
1.0
 92
        0
 66
     7
 43
1.0
 76
     1
 77
     6
 78
     2
 67
     7
 79
     5
170
     0
171
     0
290
     0
174
     0
 93
       13
 44
0.0
173
     0
291
     1
 45
0.0
1001
ACAD
1000
AcDbSavedByObjectVersion
1070
     0
  0
VISUALSTYLE
  5
2E
102
{ACAD_REACTORS
330
2A
102
}
330
2A
100
AcDbVisualStyle
  2
GouraudWithEdges
 70
     3
 71
     2
 72
     2
 73
     1
 90
        2
 40
-0.6
 41
30.0
 62
     5
 63
     7
421
 16777215
 74
     1
 91
        4
 64
     7
 65
   257
 75
     1
175
     1
 42
1.0
 92
        0
 66
   257
 43
1.0
 76
     1
 77
     6
 78
     2
 67
     7
 79
     5
170
     0
171
     0
290
     0
174
     0
 93
       13
 44
0.0
173
     0
291
     1
 45
0.0
1001
ACAD
1000
AcDbSavedByObjectVersion
1070
     0
  0
VISUALSTYLE
  5
38
102
{ACAD_REACTORS
330
2A
102
}
330
2A
100
AcDbVisualStyle
  2
Linepattern
 70
    14
 71
     2
 72
     2
 73
     0
 90
        0
 40
-0.6
 41
-30.0
 62
     5
 63
     7
421
 16777215
 74
     1
 91
        4
 64
     7
 65
   257
 75
     7
175
     7
 42
1.0
 92
        8
 66
     7
 43
1.0
 76
     1
 77
     6
 78
     2
 67
     7
 79
     5
170
     0
171
     0
290
     0
174
     0
 93
        1
 44
0.0
173
     0
291
     1
 45
0.0
1001
ACAD
1000
AcDbSavedByObjectVersion
1070
     0
  0
VISUALSTYLE
  5
33
102
{ACAD_REACTORS
330
2A
102
}
330
2A
100
AcDbVisualStyle
  2
Realistic
 70
     8
 71
     2
 72
     2
 73
     0
 90
        0
 40
-0.6
 41
-30.0
 62
     5
 63
     7
421
 16777215
 74
     1
 91
        0
 64
     7
 65
   257
 75
     1
175
     1
 42
1.0
 92
        8
 66
     8
424
  7895160
 43
1.0
 76
     1
 77
     6
 78
     2
 67
     7
 79
     5
170
     0
171
     0
290
     0
174
     0
 93
       13
 44
0.0
173
     0
291
     0
 45
0.0
1001
ACAD
1000
AcDbSavedByObjectVersion
1070
     0
  0
VISUALSTYLE
  5
37
102
{ACAD_REACTORS
330
2A
102
}
330
2A
100
AcDbVisualStyle
  2
Thicken
 70
    13
 71
     2
 72
     2
 73
     0
 90
        0
 40
-0.6
 41
-30.0
 62
     5
 63
     7
421
 16777215
 74
     1
 91
        4
 64
     7
 65
   257
 75
     1
175
     1
 42
1.0
 92
       12
 66
     7
 43
1.0
 76
     1
 77
     6
 78
     2
 67
     7
 79
     5
170
     0
171
     0
290
     0
174
     0
 93
        1
 44
0.0
173
     0
291
     1
 45
0.0
1001
ACAD
1000
AcDbSavedByObjectVersion
1070
     0
  0
ENDSEC
  0
EOF
