  0
SECTION
  2
HEADER
  9
$ACADVER
  1
AC1018
  9
$ACADMAINTVER
 70
     0
  9
$DWGCODEPAGE
  3
ANSI_932
  9
$INSBASE
 10
0.0
 20
0.0
 30
0.0
  9
$EXTMIN
 10
-10500.0
 20
-7425.0
 30
0.0
  9
$EXTMAX
 10
10500.0
 20
7425.0
 30
0.0
  9
$LIMMIN
 10
-10500.0
 20
-7425.0
  9
$LIMMAX
 10
10500.0
 20
7425.0
  9
$ORTHOMODE
 70
     0
  9
$REGENMODE
 70
     1
  9
$FILLMODE
 70
     1
  9
$QTEXTMODE
 70
     0
  9
$MIRRTEXT
 70
     1
  9
$LTSCALE
 40
50.0
  9
$ATTMODE
 70
     1
  9
$TEXTSIZE
 40
2.5
  9
$TRACEWID
 40
1.0
  9
$TEXTSTYLE
  7
Standard
  9
$CLAYER
  8
0
  9
$CELTYPE
  6
ByLayer
  9
$CECOLOR
 62
   256
  9
$CELTSCALE
 40
1.0
  9
$DISPSILH
 70
     0
  9
$DIMSCALE
 40
1.0
  9
$DIMASZ
 40
2.5
  9
$DIMEXO
 40
0.625
  9
$DIMDLI
 40
3.75
  9
$DIMRND
 40
0.0
  9
$DIMDLE
 40
0.0
  9
$DIMEXE
 40
1.25
  9
$DIMTP
 40
0.0
  9
$DIMTM
 40
0.0
  9
$DIMTXT
 40
2.5
  9
$DIMCEN
 40
2.5
  9
$DIMTSZ
 40
0.0
  9
$DIMTOL
 70
     0
  9
$DIMLIM
 70
     0
  9
$DIMTIH
 70
     0
  9
$DIMTOH
 70
     0
  9
$DIMSE1
 70
     0
  9
$DIMSE2
 70
     0
  9
$DIMTAD
 70
     1
  9
$DIMZIN
 70
     8
  9
$DIMBLK
  1

  9
$DIMASO
 70
     1
  9
$DIMSHO
 70
     1
  9
$DIMPOST
  1

  9
$DIMAPOST
  1

  9
$DIMALT
 70
     0
  9
$DIMALTD
 70
     3
  9
$DIMALTF
 40
0.03937007874016
  9
$DIMLFAC
 40
1.0
  9
$DIMTOFL
 70
     1
  9
$DIMTVP
 40
0.0
  9
$DIMTIX
 70
     0
  9
$DIMSOXD
 70
     0
  9
$DIMSAH
 70
     0
  9
$DIMBLK1
  1

  9
$DIMBLK2
  1

  9
$DIMSTYLE
  2
ISO-25
  9
$DIMCLRD
 70
     0
  9
$DIMCLRE
 70
     0
  9
$DIMCLRT
 70
     0
  9
$DIMTFAC
 40
1.0
  9
$DIMGAP
 40
0.625
  9
$DIMJUST
 70
     0
  9
$DIMSD1
 70
     0
  9
$DIMSD2
 70
     0
  9
$DIMTOLJ
 70
     0
  9
$DIMTZIN
 70
     8
  9
$DIMALTZ
 70
     0
  9
$DIMALTTZ
 70
     0
  9
$DIMUPT
 70
     0
  9
$DIMDEC
 70
     2
  9
$DIMTDEC
 70
     2
  9
$DIMALTU
 70
     2
  9
$DIMALTTD
 70
     3
  9
$DIMTXSTY
  7
Standard
  9
$DIMAUNIT
 70
     0
  9
$DIMADEC
 70
     0
  9
$DIMALTRND
 40
0.0
  9
$DIMAZIN
 70
     0
  9
$DIMDSEP
 70
    44
  9
$DIMATFIT
 70
     3
  9
$DIMFRAC
 70
     0
  9
$DIMLDRBLK
  1

  9
$DIMLUNIT
 70
     2
  9
$DIMLWD
 70
    -2
  9
$DIMLWE
 70
    -2
  9
$DIMTMOVE
 70
     0
  9
$LUNITS
 70
     2
  9
$LUPREC
 70
     4
  9
$SKETCHINC
 40
1.0
  9
$FILLETRAD
 40
10.0
  9
$AUNITS
 70
     0
  9
$AUPREC
 70
     0
  9
$MENU
  1
.
  9
$ELEVATION
 40
0.0
  9
$PELEVATION
 40
0.0
  9
$THICKNESS
 40
0.0
  9
$LIMCHECK
 70
     0
  9
$CHAMFERA
 40
10.0
  9
$CHAMFERB
 40
10.0
  9
$CHAMFERC
 40
20.0
  9
$CHAMFERD
 40
0.0
  9
$SKPOLY
 70
     0
  9
$TDCREATE
 40
2456499.582797292
  9
$TDUCREATE
 40
2456499.207797292
  9
$TDUPDATE
 40
2456499.582797303
  9
$TDUUPDATE
 40
2456499.207797303
  9
$TDINDWG
 40
0.0000000116
  9
$TDUSRTIMER
 40
0.0000000116
  9
$USRTIMER
 70
     1
  9
$ANGBASE
 50
0.0
  9
$ANGDIR
 70
     0
  9
$PDMODE
 70
     0
  9
$PDSIZE
 40
0.0
  9
$PLINEWID
 40
0.0
  9
$SPLFRAME
 70
     0
  9
$SPLINETYPE
 70
     6
  9
$SPLINESEGS
 70
     8
  9
$HANDSEED
  5
34F
  9
$SURFTAB1
 70
     6
  9
$SURFTAB2
 70
     6
  9
$SURFTYPE
 70
     6
  9
$SURFU
 70
     6
  9
$SURFV
 70
     6
  9
$UCSBASE
  2

  9
$UCSNAME
  2

  9
$UCSORG
 10
0.0
 20
0.0
 30
0.0
  9
$UCSXDIR
 10
1.0
 20
0.0
 30
0.0
  9
$UCSYDIR
 10
0.0
 20
1.0
 30
0.0
  9
$UCSORTHOREF
  2

  9
$UCSORTHOVIEW
 70
     0
  9
$UCSORGTOP
 10
0.0
 20
0.0
 30
0.0
  9
$UCSORGBOTTOM
 10
0.0
 20
0.0
 30
0.0
  9
$UCSORGLEFT
 10
0.0
 20
0.0
 30
0.0
  9
$UCSORGRIGHT
 10
0.0
 20
0.0
 30
0.0
  9
$UCSORGFRONT
 10
0.0
 20
0.0
 30
0.0
  9
$UCSORGBACK
 10
0.0
 20
0.0
 30
0.0
  9
$PUCSBASE
  2

  9
$PUCSNAME
  2

  9
$PUCSORG
 10
0.0
 20
0.0
 30
0.0
  9
$PUCSXDIR
 10
1.0
 20
0.0
 30
0.0
  9
$PUCSYDIR
 10
0.0
 20
1.0
 30
0.0
  9
$PUCSORTHOREF
  2

  9
$PUCSORTHOVIEW
 70
     0
  9
$PUCSORGTOP
 10
0.0
 20
0.0
 30
0.0
  9
$PUCSORGBOTTOM
 10
0.0
 20
0.0
 30
0.0
  9
$PUCSORGLEFT
 10
0.0
 20
0.0
 30
0.0
  9
$PUCSORGRIGHT
 10
0.0
 20
0.0
 30
0.0
  9
$PUCSORGFRONT
 10
0.0
 20
0.0
 30
0.0
  9
$PUCSORGBACK
 10
0.0
 20
0.0
 30
0.0
  9
$USERI1
 70
     0
  9
$USERI2
 70
     0
  9
$USERI3
 70
     0
  9
$USERI4
 70
     0
  9
$USERI5
 70
     0
  9
$USERR1
 40
0.0
  9
$USERR2
 40
0.0
  9
$USERR3
 40
0.0
  9
$USERR4
 40
0.0
  9
$USERR5
 40
0.0
  9
$WORLDVIEW
 70
     1
  9
$SHADEDGE
 70
     3
  9
$SHADEDIF
 70
    70
  9
$TILEMODE
 70
     1
  9
$MAXACTVP
 70
    64
  9
$PINSBASE
 10
0.0
 20
0.0
 30
0.0
  9
$PLIMCHECK
 70
     0
  9
$PEXTMIN
 10
1.000000000000000E+20
 20
1.000000000000000E+20
 30
1.000000000000000E+20
  9
$PEXTMAX
 10
-1.000000000000000E+20
 20
-1.000000000000000E+20
 30
-1.000000000000000E+20
  9
$PLIMMIN
 10
0.0
 20
0.0
  9
$PLIMMAX
 10
420.0
 20
297.0
  9
$UNITMODE
 70
     0
  9
$VISRETAIN
 70
     1
  9
$PLINEGEN
 70
     0
  9
$PSLTSCALE
 70
     1
  9
$TREEDEPTH
 70
  3020
  9
$CMLSTYLE
  2
Standard
  9
$CMLJUST
 70
     0
  9
$CMLSCALE
 40
20.0
  9
$PROXYGRAPHICS
 70
     1
  9
$MEASUREMENT
 70
     1
  9
$CELWEIGHT
370
    -1
  9
$ENDCAPS
280
     0
  9
$JOINSTYLE
280
     0
  9
$LWDISPLAY
290
     0
  9
$INSUNITS
 70
     4
  9
$HYPERLINKBASE
  1

  9
$STYLESHEET
  1

  9
$XEDIT
290
     1
  9
$CEPSNTYPE
380
     0
  9
$PSTYLEMODE
290
     1
  9
$FINGERPRINTGUID
  2
{CC2444FA-F65E-4C1A-93C1-4BFD238C2AEE}
  9
$VERSIONGUID
  2
{FAEB1C32-E019-11D5-929B-00C0DF256EC4}
  9
$EXTNAMES
290
     1
  9
$PSVPSCALE
 40
0.0
  9
$OLESTARTUP
290
     0
  9
$SORTENTS
280
   127
  9
$INDEXCTL
280
     0
  9
$HIDETEXT
280
     1
  9
$XCLIPFRAME
290
     0
  9
$HALOGAP
280
     0
  9
$OBSCOLOR
 70
   257
  9
$OBSLTYPE
280
     0
  9
$INTERSECTIONDISPLAY
280
     0
  9
$INTERSECTIONCOLOR
 70
   257
  9
$DIMASSOC
280
     2
  9
$PROJECTNAME
  1

  0
ENDSEC
  0
SECTION
  2
CLASSES
  0
CLASS
  1
ACDBDICTIONARYWDFLT
  2
AcDbDictionaryWithDefault
  3
ObjectDBX Classes
 90
        0
 91
        4
280
     0
281
     0
  0
CLASS
  1
VISUALSTYLE
  2
AcDbVisualStyle
  3
ObjectDBX Classes
 90
     4095
 91
        4
280
     0
281
     0
  0
ENDSEC
  0
SECTION
  2
TABLES
  0
TABLE
  2
VPORT
  5
8
330
0
100
AcDbSymbolTable
 70
     1
  0
VPORT
  5
29
330
8
100
AcDbSymbolTableRecord
100
AcDbViewportTableRecord
  2
*Active
 70
     0
 10
0.0
 20
0.0
 11
1.0
 21
1.0
 12
0.0
 22
0.0
 13
0.0
 23
0.0
 14
10.0
 24
10.0
 15
10.0
 25
10.0
 16
0.0
 26
0.0
 36
1.0
 17
0.0
 27
0.0
 37
0.0
 40
16335.0
 41
1.414141414141414
 42
50.0
 43
0.0
 44
0.0
 50
0.0
 51
0.0
 71
     0
 72
 10000
 73
     1
 74
     3
 75
     0
 76
     0
 77
     0
 78
     0
281
     0
 65
     1
110
0.0
120
0.0
130
0.0
111
1.0
121
0.0
131
0.0
112
0.0
122
1.0
132
0.0
 79
     0
146
0.0
  0
ENDTAB
  0
TABLE
  2
LTYPE
  5
5
330
0
100
AcDbSymbolTable
 70
     3
  0
LTYPE
  5
14
330
5
100
AcDbSymbolTableRecord
100
AcDbLinetypeTableRecord
  2
ByBlock
 70
     0
  3

 72
    65
 73
     0
 40
0.0
  0
LTYPE
  5
15
330
5
100
AcDbSymbolTableRecord
100
AcDbLinetypeTableRecord
  2
ByLayer
 70
     0
  3

 72
    65
 73
     0
 40
0.0
  0
LTYPE
  5
16
330
5
100
AcDbSymbolTableRecord
100
AcDbLinetypeTableRecord
  2
Continuous
 70
     0
  3
Solid line
 72
    65
 73
     0
 40
0.0
  0
LTYPE
  5
3C
330
5
100
AcDbSymbolTableRecord
100
AcDbLinetypeTableRecord
  2
JWW_CENTER1
 70
     0
  3
-----  --  ----------  --  -----
 72
    65
 73
     4
 40
6.773333333333333
 49
4.233333333333333
 74
     0
 49
-0.8466666666666667
 74
     0
 49
0.8466666666666667
 74
     0
 49
-0.8466666666666667
 74
     0
  0
LTYPE
  5
3D
330
5
100
AcDbSymbolTableRecord
100
AcDbLinetypeTableRecord
  2
JWW_DASHED1
 70
     0
  3
-  --  --  --  --  --  --  --  -
 72
    65
 73
     2
 40
0.508
 49
0.254
 74
     0
 49
-0.254
 74
     0
  0
ENDTAB
  0
TABLE
  2
LAYER
  5
2
330
0
100
AcDbSymbolTable
 70
     5
  0
LAYER
  5
10
330
2
100
AcDbSymbolTableRecord
100
AcDbLayerTableRecord
  2
0
 70
     0
 62
     7
  6
Continuous
370
    -3
390
F
  0
LAYER
  5
3E
330
2
100
AcDbSymbolTableRecord
100
AcDbLayerTableRecord
  2
A-2_蓋
 70
     0
 62
     7
  6
Continuous
370
    -3
390
F
  0
LAYER
  5
3F
330
2
100
AcDbSymbolTableRecord
100
AcDbLayerTableRecord
  2
A-4_寸法
 70
     0
 62
     7
  6
Continuous
370
    -3
390
F
  0
LAYER
  5
40
330
2
100
AcDbSymbolTableRecord
100
AcDbLayerTableRecord
  2
A-1_ピット
 70
     0
 62
     7
  6
Continuous
370
    -3
390
F
  0
LAYER
  5
41
330
2
100
AcDbSymbolTableRecord
100
AcDbLayerTableRecord
  2
A-5_仕様文
 70
     0
 62
     7
  6
Continuous
370
    -3
390
F
  0
ENDTAB
  0
TABLE
  2
STYLE
  5
3
330
0
100
AcDbSymbolTable
 70
     2
  0
STYLE
  5
11
330
3
100
AcDbSymbolTableRecord
100
AcDbTextStyleTableRecord
  2
Standard
 70
     0
 40
0.0
 41
1.0
 50
0.0
 71
     0
 42
2.5
  3
txt
  4

1001
ACAD
1000

1071
        0
  0
STYLE
  5
3B
330
3
100
AcDbSymbolTableRecord
100
AcDbTextStyleTableRecord
  2
ＭＳ ゴシック
 70
     0
 40
1.0
 41
1.0
 50
0.0
 71
     0
 42
10.0
  3

  4

1001
ACAD
1000
MS Gothic
1071
    32817
  0
ENDTAB
  0
TABLE
  2
VIEW
  5
6
330
0
100
AcDbSymbolTable
 70
     0
  0
ENDTAB
  0
TABLE
  2
UCS
  5
7
330
0
100
AcDbSymbolTable
 70
     0
  0
ENDTAB
  0
TABLE
  2
APPID
  5
9
330
0
100
AcDbSymbolTable
 70
     1
  0
APPID
  5
12
330
9
100
AcDbSymbolTableRecord
100
AcDbRegAppTableRecord
  2
ACAD
 70
     0
  0
ENDTAB
  0
TABLE
  2
DIMSTYLE
  5
A
330
0
100
AcDbSymbolTable
 70
     1
100
AcDbDimStyleTable
  0
DIMSTYLE
105
27
330
A
100
AcDbSymbolTableRecord
100
AcDbDimStyleTableRecord
  2
ISO-25
 70
     0
 41
2.5
 42
0.625
 43
3.75
 44
1.25
 73
     0
 74
     0
 77
     1
 78
     8
140
2.5
141
2.5
143
0.03937007874016
147
0.625
171
     3
172
     1
271
     2
272
     2
274
     3
278
    44
283
     0
284
     8
340
11
  0
ENDTAB
  0
TABLE
  2
BLOCK_RECORD
  5
1
330
0
100
AcDbSymbolTable
 70
     1
  0
BLOCK_RECORD
  5
1F
330
1
100
AcDbSymbolTableRecord
100
AcDbBlockTableRecord
  2
*Model_Space
340
22
  0
BLOCK_RECORD
  5
1B
330
1
100
AcDbSymbolTableRecord
100
AcDbBlockTableRecord
  2
*Paper_Space
340
1E
  0
BLOCK_RECORD
  5
23
330
1
100
AcDbSymbolTableRecord
100
AcDbBlockTableRecord
  2
*Paper_Space0
340
26
  0
ENDTAB
  0
ENDSEC
  0
SECTION
  2
BLOCKS
  0
BLOCK
  5
20
330
1F
100
AcDbEntity
  8
0
100
AcDbBlockBegin
  2
*Model_Space
 70
     0
 10
0.0
 20
0.0
 30
0.0
  3
*Model_Space
  1

  0
ENDBLK
  5
21
330
1F
100
AcDbEntity
  8
0
100
AcDbBlockEnd
  0
BLOCK
  5
1C
330
1B
100
AcDbEntity
 67
     1
  8
0
100
AcDbBlockBegin
  2
*Paper_Space
 70
     0
 10
0.0
 20
0.0
 30
0.0
  3
*Paper_Space
  1

  0
ENDBLK
  5
1D
330
1B
100
AcDbEntity
 67
     1
  8
0
100
AcDbBlockEnd
  0
BLOCK
  5
24
330
23
100
AcDbEntity
  8
0
100
AcDbBlockBegin
  2
*Paper_Space0
 70
     0
 10
0.0
 20
0.0
 30
0.0
  3
*Paper_Space0
  1

  0
ENDBLK
  5
25
330
23
100
AcDbEntity
  8
0
100
AcDbBlockEnd
  0
ENDSEC
  0
SECTION
  2
ENTITIES
  0
LINE
  5
42
330
1F
100
AcDbEntity
  8
A-2_蓋
  6
Continuous
 62
     3
370
     9
100
AcDbLine
 10
-5862.42964461043
 20
1306.355821764147
 30
0.0
 11
-5862.42964461043
 21
2246.356819771432
 31
0.0
  0
LINE
  5
43
330
1F
100
AcDbEntity
  8
A-2_蓋
  6
Continuous
 62
     3
370
     9
100
AcDbLine
 10
-5862.42964461043
 20
1306.355821764147
 30
0.0
 11
-5862.42964461043
 21
2246.356819771432
 31
0.0
  0
LINE
  5
44
330
1F
100
AcDbEntity
  8
A-2_蓋
  6
Continuous
 62
     3
370
     9
100
AcDbLine
 10
-5862.42964461043
 20
2306.356027964
 30
0.0
 11
-5862.42964461043
 21
3246.354551573059
 31
0.0
  0
LINE
  5
45
330
1F
100
AcDbEntity
  8
A-2_蓋
  6
Continuous
 62
     3
370
     9
100
AcDbLine
 10
-5862.42964461043
 20
3306.356234163852
 30
0.0
 11
-5862.42964461043
 21
3781.351615287163
 31
0.0
  0
LINE
  5
46
330
1F
100
AcDbEntity
  8
A-4_寸法
  6
Continuous
 62
     7
370
     9
100
AcDbLine
 10
-5912.432283968538
 20
-398.6443596917226
 30
0.0
 11
-5912.432283968538
 21
-915.6717248865078
 31
0.0
  0
LINE
  5
47
330
1F
100
AcDbEntity
  8
A-2_蓋
  6
Continuous
 62
     3
370
     9
100
AcDbLine
 10
2957.972346125422
 20
3764.810263144004
 30
0.0
 11
2972.973385372677
 21
3769.923607078759
 31
0.0
  0
LINE
  5
48
330
1F
100
AcDbEntity
  8
A-2_蓋
  6
Continuous
 62
     3
370
     9
100
AcDbLine
 10
2957.972346125422
 20
3764.810263144004
 30
0.0
 11
2957.972346125422
 21
3720.736281936233
 31
0.0
  0
LINE
  5
49
330
1F
100
AcDbEntity
  8
A-2_蓋
  6
Continuous
 62
     3
370
     9
100
AcDbLine
 10
2957.972346125422
 20
3720.736281936233
 30
0.0
 11
2972.973385372677
 21
3715.624175200591
 31
0.0
  0
LINE
  5
4A
330
1F
100
AcDbEntity
  8
A-2_蓋
  6
Continuous
 62
     3
370
     9
100
AcDbLine
 10
2972.973385372677
 20
3715.624175200591
 30
0.0
 11
2972.973385372677
 21
3664.490735853042
 31
0.0
  0
LINE
  5
4B
330
1F
100
AcDbEntity
  8
A-2_蓋
  6
Continuous
 62
     3
370
     9
100
AcDbLine
 10
2957.972346125422
 20
3659.3786291174
 30
0.0
 11
2972.973385372677
 21
3664.490735853042
 31
0.0
  0
LINE
  5
4C
330
1F
100
AcDbEntity
  8
A-2_蓋
  6
Continuous
 62
     3
370
     9
100
AcDbLine
 10
2957.972346125422
 20
3659.3786291174
 30
0.0
 11
2957.972346125422
 21
3593.906052048142
 31
0.0
  0
LINE
  5
4D
330
1F
100
AcDbEntity
  8
A-2_蓋
  6
Continuous
 62
     3
370
     9
100
AcDbLine
 10
2957.972346125422
 20
3593.906052048142
 30
0.0
 11
2972.973385372677
 21
3588.791470914275
 31
0.0
  0
LINE
  5
4E
330
1F
100
AcDbEntity
  8
A-2_蓋
  6
Continuous
 62
     3
370
     9
100
AcDbLine
 10
2957.972346125422
 20
3532.547162030196
 30
0.0
 11
2957.972346125422
 21
3488.473180822425
 31
0.0
  0
LINE
  5
4F
330
1F
100
AcDbEntity
  8
A-2_蓋
  6
Continuous
 62
     3
370
     9
100
AcDbLine
 10
2957.972346125422
 20
3488.473180822425
 30
0.0
 11
2972.973385372677
 21
3483.359836887669
 31
0.0
  0
LINE
  5
50
330
1F
100
AcDbEntity
  8
A-2_蓋
  6
Continuous
 62
     3
370
     9
100
AcDbLine
 10
2972.973385372677
 20
3483.359836887669
 30
0.0
 11
2972.973385372677
 21
3432.228871938345
 31
0.0
  0
LINE
  5
51
330
1F
100
AcDbEntity
  8
A-2_蓋
  6
Continuous
 62
     3
370
     9
100
AcDbLine
 10
2957.972346125422
 20
3427.11552800359
 30
0.0
 11
2972.973385372677
 21
3432.228871938345
 31
0.0
  0
LINE
  5
52
330
1F
100
AcDbEntity
  8
A-2_蓋
  6
Continuous
 62
     3
370
     9
100
AcDbLine
 10
2957.972346125422
 20
3427.11552800359
 30
0.0
 11
2957.972346125422
 21
3361.64171373522
 31
0.0
  0
LINE
  5
53
330
1F
100
AcDbEntity
  8
A-2_蓋
  6
Continuous
 62
     3
370
     9
100
AcDbLine
 10
2957.972346125422
 20
3361.64171373522
 30
0.0
 11
2972.973385372677
 21
3356.528369800465
 31
0.0
  0
LINE
  5
54
330
1F
100
AcDbEntity
  8
A-2_蓋
  6
Continuous
 62
     3
370
     9
100
AcDbLine
 10
2957.972346125422
 20
3532.547162030196
 30
0.0
 11
2972.973385372677
 21
3537.660505964951
 31
0.0
  0
LINE
  5
55
330
1F
100
AcDbEntity
  8
A-2_蓋
  6
Continuous
 62
     3
370
     9
100
AcDbLine
 10
2972.973385372677
 20
3588.791470914275
 30
0.0
 11
2972.973385372677
 21
3537.660505964951
 31
0.0
  0
LINE
  5
56
330
1F
100
AcDbEntity
  8
A-2_蓋
  6
Continuous
 62
     3
370
     9
100
AcDbLine
 10
2957.972346125422
 20
3300.282823717272
 30
0.0
 11
2957.972346125422
 21
3256.208842509503
 31
0.0
  0
LINE
  5
57
330
1F
100
AcDbEntity
  8
A-2_蓋
  6
Continuous
 62
     3
370
     9
100
AcDbLine
 10
2957.972346125422
 20
3256.208842509503
 30
0.0
 11
2972.973385372677
 21
3251.096735773861
 31
0.0
  0
LINE
  5
58
330
1F
100
AcDbEntity
  8
A-2_蓋
  6
Continuous
 62
     3
370
     9
100
AcDbLine
 10
2972.973385372677
 20
3251.096735773861
 30
0.0
 11
2972.973385372677
 21
3199.964533625423
 31
0.0
  0
LINE
  5
59
330
1F
100
AcDbEntity
  8
A-2_蓋
  6
Continuous
 62
     3
370
     9
100
AcDbLine
 10
2957.972346125422
 20
3194.851189690668
 30
0.0
 11
2972.973385372677
 21
3199.964533625423
 31
0.0
  0
LINE
  5
5A
330
1F
100
AcDbEntity
  8
A-2_蓋
  6
Continuous
 62
     3
370
     9
100
AcDbLine
 10
2957.972346125422
 20
3194.851189690668
 30
0.0
 11
2957.972346125422
 21
3129.378612621412
 31
0.0
  0
LINE
  5
5B
330
1F
100
AcDbEntity
  8
A-2_蓋
  6
Continuous
 62
     3
370
     9
100
AcDbLine
 10
2957.972346125422
 20
3129.378612621412
 30
0.0
 11
2972.973385372677
 21
3124.265268686656
 31
0.0
  0
LINE
  5
5C
330
1F
100
AcDbEntity
  8
A-2_蓋
  6
Continuous
 62
     3
370
     9
100
AcDbLine
 10
2957.972346125422
 20
3300.282823717272
 30
0.0
 11
2972.973385372677
 21
3305.396167652028
 31
0.0
  0
LINE
  5
5D
330
1F
100
AcDbEntity
  8
A-2_蓋
  6
Continuous
 62
     3
370
     9
100
AcDbLine
 10
2972.973385372677
 20
3356.528369800465
 30
0.0
 11
2972.973385372677
 21
3305.396167652028
 31
0.0
  0
LINE
  5
5E
330
1F
100
AcDbEntity
  8
A-2_蓋
  6
Continuous
 62
     3
370
     9
100
AcDbLine
 10
2957.972346125422
 20
3068.019722603463
 30
0.0
 11
2957.972346125422
 21
3023.945741395692
 31
0.0
  0
LINE
  5
5F
330
1F
100
AcDbEntity
  8
A-2_蓋
  6
Continuous
 62
     3
370
     9
100
AcDbLine
 10
2957.972346125422
 20
3023.945741395692
 30
0.0
 11
2972.973385372677
 21
3018.832397460938
 31
0.0
  0
LINE
  5
60
330
1F
100
AcDbEntity
  8
A-2_蓋
  6
Continuous
 62
     3
370
     9
100
AcDbLine
 10
2957.972346125422
 20
3068.019722603463
 30
0.0
 11
2972.973385372677
 21
3073.131829339105
 31
0.0
  0
LINE
  5
61
330
1F
100
AcDbEntity
  8
A-2_蓋
  6
Continuous
 62
     3
370
     9
100
AcDbLine
 10
2972.973385372677
 20
3124.265268686656
 30
0.0
 11
2972.973385372677
 21
3073.131829339105
 31
0.0
  0
LINE
  5
62
330
1F
100
AcDbEntity
  8
A-2_蓋
  6
Continuous
 62
     3
370
     9
100
AcDbLine
 10
2972.973385372677
 20
3826.355970228042
 30
0.0
 11
2972.973385372677
 21
3769.923607078759
 31
0.0
  0
LINE
  5
63
330
1F
100
AcDbEntity
  8
A-2_蓋
  6
Continuous
 62
     3
370
     9
100
AcDbLine
 10
2972.973385372677
 20
3018.832397460938
 30
0.0
 11
2972.973385372677
 21
2967.7001953125
 31
0.0
  0
LINE
  5
64
330
1F
100
AcDbEntity
  8
A-2_蓋
  6
Continuous
 62
     3
370
     9
100
AcDbLine
 10
2957.972346125422
 20
2962.585614178633
 30
0.0
 11
2972.973385372677
 21
2967.7001953125
 31
0.0
  0
LINE
  5
65
330
1F
100
AcDbEntity
  8
A-2_蓋
  6
Continuous
 62
     3
370
     9
100
AcDbLine
 10
2957.972346125422
 20
2962.585614178633
 30
0.0
 11
2957.972346125422
 21
2897.114274308488
 31
0.0
  0
LINE
  5
66
330
1F
100
AcDbEntity
  8
A-2_蓋
  6
Continuous
 62
     3
370
     9
100
AcDbLine
 10
2957.972346125422
 20
2897.114274308488
 30
0.0
 11
2972.973385372677
 21
2892.000930373733
 31
0.0
  0
LINE
  5
67
330
1F
100
AcDbEntity
  8
A-2_蓋
  6
Continuous
 62
     3
370
     9
100
AcDbLine
 10
2957.972346125422
 20
2835.755384290542
 30
0.0
 11
2957.972346125422
 21
2791.681403082771
 31
0.0
  0
LINE
  5
68
330
1F
100
AcDbEntity
  8
A-2_蓋
  6
Continuous
 62
     3
370
     9
100
AcDbLine
 10
2957.972346125422
 20
2791.681403082771
 30
0.0
 11
2972.973385372677
 21
2786.569296347129
 31
0.0
  0
LINE
  5
69
330
1F
100
AcDbEntity
  8
A-2_蓋
  6
Continuous
 62
     3
370
     9
100
AcDbLine
 10
2957.972346125422
 20
2835.755384290542
 30
0.0
 11
2972.973385372677
 21
2840.868728225295
 31
0.0
  0
LINE
  5
6A
330
1F
100
AcDbEntity
  8
A-2_蓋
  6
Continuous
 62
     3
370
     9
100
AcDbLine
 10
2972.973385372677
 20
2892.000930373733
 30
0.0
 11
2972.973385372677
 21
2840.868728225295
 31
0.0
  0
LINE
  5
6B
330
1F
100
AcDbEntity
  8
A-2_蓋
  6
Continuous
 62
     3
370
     9
100
AcDbLine
 10
2972.973385372677
 20
2786.569296347129
 30
0.0
 11
2972.973385372677
 21
2735.437094198691
 31
0.0
  0
LINE
  5
6C
330
1F
100
AcDbEntity
  8
A-2_蓋
  6
Continuous
 62
     3
370
     9
100
AcDbLine
 10
2957.972346125422
 20
2730.323750263936
 30
0.0
 11
2972.973385372677
 21
2735.437094198691
 31
0.0
  0
LINE
  5
6D
330
1F
100
AcDbEntity
  8
A-2_蓋
  6
Continuous
 62
     3
370
     9
100
AcDbLine
 10
2957.972346125422
 20
2730.323750263936
 30
0.0
 11
2957.972346125422
 21
2664.849935995566
 31
0.0
  0
LINE
  5
6E
330
1F
100
AcDbEntity
  8
A-2_蓋
  6
Continuous
 62
     3
370
     9
100
AcDbLine
 10
2957.972346125422
 20
2664.849935995566
 30
0.0
 11
2972.973385372677
 21
2659.736592060811
 31
0.0
  0
LINE
  5
6F
330
1F
100
AcDbEntity
  8
A-2_蓋
  6
Continuous
 62
     3
370
     9
100
AcDbLine
 10
2957.972346125422
 20
2603.491045977618
 30
0.0
 11
2957.972346125422
 21
2559.417064769849
 31
0.0
  0
LINE
  5
70
330
1F
100
AcDbEntity
  8
A-2_蓋
  6
Continuous
 62
     3
370
     9
100
AcDbLine
 10
2957.972346125422
 20
2559.417064769849
 30
0.0
 11
2972.973385372677
 21
2554.304958034207
 31
0.0
  0
LINE
  5
71
330
1F
100
AcDbEntity
  8
A-2_蓋
  6
Continuous
 62
     3
370
     9
100
AcDbLine
 10
2957.972346125422
 20
2603.491045977618
 30
0.0
 11
2972.973385372677
 21
2608.604389912374
 31
0.0
  0
LINE
  5
72
330
1F
100
AcDbEntity
  8
A-2_蓋
  6
Continuous
 62
     3
370
     9
100
AcDbLine
 10
2972.973385372677
 20
2659.736592060811
 30
0.0
 11
2972.973385372677
 21
2608.604389912374
 31
0.0
  0
LINE
  5
73
330
1F
100
AcDbEntity
  8
A-2_蓋
  6
Continuous
 62
     3
370
     9
100
AcDbLine
 10
2972.973385372677
 20
2554.304958034207
 30
0.0
 11
2972.973385372677
 21
2503.17275588577
 31
0.0
  0
LINE
  5
74
330
1F
100
AcDbEntity
  8
A-2_蓋
  6
Continuous
 62
     3
370
     9
100
AcDbLine
 10
2957.972346125422
 20
2498.059411951014
 30
0.0
 11
2972.973385372677
 21
2503.17275588577
 31
0.0
  0
LINE
  5
75
330
1F
100
AcDbEntity
  8
A-2_蓋
  6
Continuous
 62
     3
370
     9
100
AcDbLine
 10
2957.972346125422
 20
2498.059411951014
 30
0.0
 11
2957.972346125422
 21
2432.585597682645
 31
0.0
  0
LINE
  5
76
330
1F
100
AcDbEntity
  8
A-2_蓋
  6
Continuous
 62
     3
370
     9
100
AcDbLine
 10
2957.972346125422
 20
2432.585597682645
 30
0.0
 11
2972.973385372677
 21
2427.472253747889
 31
0.0
  0
LINE
  5
77
330
1F
100
AcDbEntity
  8
A-2_蓋
  6
Continuous
 62
     3
370
     9
100
AcDbLine
 10
2957.972346125422
 20
2371.226707664697
 30
0.0
 11
2957.972346125422
 21
2327.152726456926
 31
0.0
  0
LINE
  5
78
330
1F
100
AcDbEntity
  8
A-2_蓋
  6
Continuous
 62
     3
370
     9
100
AcDbLine
 10
2957.972346125422
 20
2327.152726456926
 30
0.0
 11
2972.973385372677
 21
2322.040619721284
 31
0.0
  0
LINE
  5
79
330
1F
100
AcDbEntity
  8
A-2_蓋
  6
Continuous
 62
     3
370
     9
100
AcDbLine
 10
2957.972346125422
 20
2371.226707664697
 30
0.0
 11
2972.973385372677
 21
2376.340051599452
 31
0.0
  0
LINE
  5
7A
330
1F
100
AcDbEntity
  8
A-2_蓋
  6
Continuous
 62
     3
370
     9
100
AcDbLine
 10
2972.973385372677
 20
2427.472253747889
 30
0.0
 11
2972.973385372677
 21
2376.340051599452
 31
0.0
  0
LINE
  5
7B
330
1F
100
AcDbEntity
  8
A-2_蓋
  6
Continuous
 62
     3
370
     9
100
AcDbLine
 10
2972.973385372677
 20
2322.040619721284
 30
0.0
 11
2972.973385372677
 21
2270.908417572846
 31
0.0
  0
LINE
  5
7C
330
1F
100
AcDbEntity
  8
A-2_蓋
  6
Continuous
 62
     3
370
     9
100
AcDbLine
 10
2957.972346125422
 20
2265.795073638091
 30
0.0
 11
2972.973385372677
 21
2270.908417572846
 31
0.0
  0
LINE
  5
7D
330
1F
100
AcDbEntity
  8
A-2_蓋
  6
Continuous
 62
     3
370
     9
100
AcDbLine
 10
2957.972346125422
 20
2265.795073638091
 30
0.0
 11
2957.972346125422
 21
2200.321259369721
 31
0.0
  0
LINE
  5
7E
330
1F
100
AcDbEntity
  8
A-2_蓋
  6
Continuous
 62
     3
370
     9
100
AcDbLine
 10
2957.972346125422
 20
2200.321259369721
 30
0.0
 11
2972.973385372677
 21
2195.207915434966
 31
0.0
  0
LINE
  5
7F
330
1F
100
AcDbEntity
  8
A-2_蓋
  6
Continuous
 62
     3
370
     9
100
AcDbLine
 10
2957.972346125422
 20
2138.962369351775
 30
0.0
 11
2957.972346125422
 21
2094.888388144004
 31
0.0
  0
LINE
  5
80
330
1F
100
AcDbEntity
  8
A-2_蓋
  6
Continuous
 62
     3
370
     9
100
AcDbLine
 10
2957.972346125422
 20
2094.888388144004
 30
0.0
 11
2972.973385372677
 21
2089.776281408362
 31
0.0
  0
LINE
  5
81
330
1F
100
AcDbEntity
  8
A-2_蓋
  6
Continuous
 62
     3
370
     9
100
AcDbLine
 10
2957.972346125422
 20
2138.962369351775
 30
0.0
 11
2972.973385372677
 21
2144.075713286529
 31
0.0
  0
LINE
  5
82
330
1F
100
AcDbEntity
  8
A-2_蓋
  6
Continuous
 62
     3
370
     9
100
AcDbLine
 10
2972.973385372677
 20
2195.207915434966
 30
0.0
 11
2972.973385372677
 21
2144.075713286529
 31
0.0
  0
LINE
  5
83
330
1F
100
AcDbEntity
  8
A-2_蓋
  6
Continuous
 62
     3
370
     9
100
AcDbLine
 10
2972.973385372677
 20
2089.776281408362
 30
0.0
 11
2972.973385372677
 21
2038.644079259925
 31
0.0
  0
LINE
  5
84
330
1F
100
AcDbEntity
  8
A-2_蓋
  6
Continuous
 62
     3
370
     9
100
AcDbLine
 10
2957.972346125422
 20
2033.530735325169
 30
0.0
 11
2972.973385372677
 21
2038.644079259925
 31
0.0
  0
LINE
  5
85
330
1F
100
AcDbEntity
  8
A-2_蓋
  6
Continuous
 62
     3
370
     9
100
AcDbLine
 10
2957.972346125422
 20
2033.530735325169
 30
0.0
 11
2957.972346125422
 21
1968.0569210568
 31
0.0
  0
LINE
  5
86
330
1F
100
AcDbEntity
  8
A-2_蓋
  6
Continuous
 62
     3
370
     9
100
AcDbLine
 10
2957.972346125422
 20
1968.0569210568
 30
0.0
 11
2972.973385372677
 21
1962.943577122044
 31
0.0
  0
LINE
  5
87
330
1F
100
AcDbEntity
  8
A-2_蓋
  6
Continuous
 62
     3
370
     9
100
AcDbLine
 10
2957.972346125422
 20
1906.698031038852
 30
0.0
 11
2957.972346125422
 21
1862.624049831082
 31
0.0
  0
LINE
  5
88
330
1F
100
AcDbEntity
  8
A-2_蓋
  6
Continuous
 62
     3
370
     9
100
AcDbLine
 10
2957.972346125422
 20
1862.624049831082
 30
0.0
 11
2972.973385372677
 21
1857.51194309544
 31
0.0
  0
LINE
  5
89
330
1F
100
AcDbEntity
  8
A-2_蓋
  6
Continuous
 62
     3
370
     9
100
AcDbLine
 10
2957.972346125422
 20
1906.698031038852
 30
0.0
 11
2972.973385372677
 21
1911.811374973607
 31
0.0
  0
LINE
  5
8A
330
1F
100
AcDbEntity
  8
A-2_蓋
  6
Continuous
 62
     3
370
     9
100
AcDbLine
 10
2972.973385372677
 20
1962.943577122044
 30
0.0
 11
2972.973385372677
 21
1911.811374973607
 31
0.0
  0
LINE
  5
8B
330
1F
100
AcDbEntity
  8
A-2_蓋
  6
Continuous
 62
     3
370
     9
100
AcDbLine
 10
2972.973385372677
 20
1857.51194309544
 30
0.0
 11
2972.973385372677
 21
1806.379740947003
 31
0.0
  0
LINE
  5
8C
330
1F
100
AcDbEntity
  8
A-2_蓋
  6
Continuous
 62
     3
370
     9
100
AcDbLine
 10
2957.972346125422
 20
1801.266397012248
 30
0.0
 11
2972.973385372677
 21
1806.379740947003
 31
0.0
  0
LINE
  5
8D
330
1F
100
AcDbEntity
  8
A-2_蓋
  6
Continuous
 62
     3
370
     9
100
AcDbLine
 10
2957.972346125422
 20
1801.266397012248
 30
0.0
 11
2957.972346125422
 21
1735.792582743878
 31
0.0
  0
LINE
  5
8E
330
1F
100
AcDbEntity
  8
A-2_蓋
  6
Continuous
 62
     3
370
     9
100
AcDbLine
 10
2957.972346125422
 20
1735.792582743878
 30
0.0
 11
2972.973385372677
 21
1730.679238809123
 31
0.0
  0
LINE
  5
8F
330
1F
100
AcDbEntity
  8
A-2_蓋
  6
Continuous
 62
     3
370
     9
100
AcDbLine
 10
2957.972346125422
 20
1674.43369272593
 30
0.0
 11
2957.972346125422
 21
1630.359711518159
 31
0.0
  0
LINE
  5
90
330
1F
100
AcDbEntity
  8
A-2_蓋
  6
Continuous
 62
     3
370
     9
100
AcDbLine
 10
2957.972346125422
 20
1630.359711518159
 30
0.0
 11
2972.973385372677
 21
1625.247604782517
 31
0.0
  0
LINE
  5
91
330
1F
100
AcDbEntity
  8
A-2_蓋
  6
Continuous
 62
     3
370
     9
100
AcDbLine
 10
2957.972346125422
 20
1674.43369272593
 30
0.0
 11
2972.973385372677
 21
1679.547036660685
 31
0.0
  0
LINE
  5
92
330
1F
100
AcDbEntity
  8
A-2_蓋
  6
Continuous
 62
     3
370
     9
100
AcDbLine
 10
2972.973385372677
 20
1730.679238809123
 30
0.0
 11
2972.973385372677
 21
1679.547036660685
 31
0.0
  0
LINE
  5
93
330
1F
100
AcDbEntity
  8
A-2_蓋
  6
Continuous
 62
     3
370
     9
100
AcDbLine
 10
2972.973385372677
 20
1625.247604782517
 30
0.0
 11
2972.973385372677
 21
1574.115402634079
 31
0.0
  0
LINE
  5
94
330
1F
100
AcDbEntity
  8
A-2_蓋
  6
Continuous
 62
     3
370
     9
100
AcDbLine
 10
2957.972346125422
 20
1569.002058699324
 30
0.0
 11
2972.973385372677
 21
1574.115402634079
 31
0.0
  0
LINE
  5
95
330
1F
100
AcDbEntity
  8
A-2_蓋
  6
Continuous
 62
     3
370
     9
100
AcDbLine
 10
2957.972346125422
 20
1569.002058699324
 30
0.0
 11
2957.972346125422
 21
1503.528244430954
 31
0.0
  0
LINE
  5
96
330
1F
100
AcDbEntity
  8
A-2_蓋
  6
Continuous
 62
     3
370
     9
100
AcDbLine
 10
2957.972346125422
 20
1503.528244430954
 30
0.0
 11
2972.973385372677
 21
1498.414900496199
 31
0.0
  0
LINE
  5
97
330
1F
100
AcDbEntity
  8
A-2_蓋
  6
Continuous
 62
     3
370
     9
100
AcDbLine
 10
2957.972346125422
 20
1442.169354413008
 30
0.0
 11
2957.972346125422
 21
1398.095373205237
 31
0.0
  0
LINE
  5
98
330
1F
100
AcDbEntity
  8
A-2_蓋
  6
Continuous
 62
     3
370
     9
100
AcDbLine
 10
2957.972346125422
 20
1398.095373205237
 30
0.0
 11
2972.973385372677
 21
1392.983266469595
 31
0.0
  0
LINE
  5
99
330
1F
100
AcDbEntity
  8
A-2_蓋
  6
Continuous
 62
     3
370
     9
100
AcDbLine
 10
2957.972346125422
 20
1442.169354413008
 30
0.0
 11
2972.973385372677
 21
1447.282698347762
 31
0.0
  0
LINE
  5
9A
330
1F
100
AcDbEntity
  8
A-2_蓋
  6
Continuous
 62
     3
370
     9
100
AcDbLine
 10
2972.973385372677
 20
1498.414900496199
 30
0.0
 11
2972.973385372677
 21
1447.282698347762
 31
0.0
  0
LINE
  5
9B
330
1F
100
AcDbEntity
  8
A-2_蓋
  6
Continuous
 62
     3
370
     9
100
AcDbLine
 10
2972.973385372677
 20
1392.983266469595
 30
0.0
 11
2972.973385372677
 21
1341.851064321158
 31
0.0
  0
LINE
  5
9C
330
1F
100
AcDbEntity
  8
A-2_蓋
  6
Continuous
 62
     3
370
     9
100
AcDbLine
 10
2957.972346125422
 20
1336.737720386402
 30
0.0
 11
2972.973385372677
 21
1341.851064321158
 31
0.0
  0
LINE
  5
9D
330
1F
100
AcDbEntity
  8
A-2_蓋
  6
Continuous
 62
     3
370
     9
100
AcDbLine
 10
2957.972346125422
 20
1336.737720386402
 30
0.0
 11
2957.972346125422
 21
1271.263906118033
 31
0.0
  0
LINE
  5
9E
330
1F
100
AcDbEntity
  8
A-2_蓋
  6
Continuous
 62
     3
370
     9
100
AcDbLine
 10
2957.972346125422
 20
1271.263906118033
 30
0.0
 11
2972.973385372677
 21
1266.150562183277
 31
0.0
  0
LINE
  5
9F
330
1F
100
AcDbEntity
  8
A-2_蓋
  6
Continuous
 62
     3
370
     9
100
AcDbLine
 10
2957.972346125422
 20
1209.905016100085
 30
0.0
 11
2957.972346125422
 21
1165.831034892315
 31
0.0
  0
LINE
  5
A0
330
1F
100
AcDbEntity
  8
A-2_蓋
  6
Continuous
 62
     3
370
     9
100
AcDbLine
 10
2957.972346125422
 20
1165.831034892315
 30
0.0
 11
2972.973385372677
 21
1160.718928156673
 31
0.0
  0
LINE
  5
A1
330
1F
100
AcDbEntity
  8
A-2_蓋
  6
Continuous
 62
     3
370
     9
100
AcDbLine
 10
2957.972346125422
 20
1209.905016100085
 30
0.0
 11
2972.973385372677
 21
1215.01836003484
 31
0.0
  0
LINE
  5
A2
330
1F
100
AcDbEntity
  8
A-2_蓋
  6
Continuous
 62
     3
370
     9
100
AcDbLine
 10
2972.973385372677
 20
1266.150562183277
 30
0.0
 11
2972.973385372677
 21
1215.01836003484
 31
0.0
  0
LINE
  5
A3
330
1F
100
AcDbEntity
  8
A-2_蓋
  6
Continuous
 62
     3
370
     9
100
AcDbLine
 10
2972.973385372677
 20
1160.718928156673
 30
0.0
 11
2972.973385372677
 21
1109.586726008236
 31
0.0
  0
LINE
  5
A4
330
1F
100
AcDbEntity
  8
A-2_蓋
  6
Continuous
 62
     3
370
     9
100
AcDbLine
 10
2957.972346125422
 20
1104.47338207348
 30
0.0
 11
2972.973385372677
 21
1109.586726008236
 31
0.0
  0
LINE
  5
A5
330
1F
100
AcDbEntity
  8
A-2_蓋
  6
Continuous
 62
     3
370
     9
100
AcDbLine
 10
2957.972346125422
 20
1104.47338207348
 30
0.0
 11
2957.972346125422
 21
1038.999567805111
 31
0.0
  0
LINE
  5
A6
330
1F
100
AcDbEntity
  8
A-2_蓋
  6
Continuous
 62
     3
370
     9
100
AcDbLine
 10
2957.972346125422
 20
1038.999567805111
 30
0.0
 11
2972.973385372677
 21
1033.886223870355
 31
0.0
  0
LINE
  5
A7
330
1F
100
AcDbEntity
  8
A-2_蓋
  6
Continuous
 62
     3
370
     9
100
AcDbLine
 10
2957.972346125422
 20
977.6406777871628
 30
0.0
 11
2957.972346125422
 21
933.5666965793919
 31
0.0
  0
LINE
  5
A8
330
1F
100
AcDbEntity
  8
A-2_蓋
  6
Continuous
 62
     3
370
     9
100
AcDbLine
 10
2957.972346125422
 20
933.5666965793919
 30
0.0
 11
2972.973385372677
 21
928.45458984375
 31
0.0
  0
LINE
  5
A9
330
1F
100
AcDbEntity
  8
A-2_蓋
  6
Continuous
 62
     3
370
     9
100
AcDbLine
 10
2957.972346125422
 20
977.6406777871628
 30
0.0
 11
2972.973385372677
 21
982.754021721918
 31
0.0
  0
LINE
  5
AA
330
1F
100
AcDbEntity
  8
A-2_蓋
  6
Continuous
 62
     3
370
     9
100
AcDbLine
 10
2972.973385372677
 20
1033.886223870355
 30
0.0
 11
2972.973385372677
 21
982.754021721918
 31
0.0
  0
LINE
  5
AB
330
1F
100
AcDbEntity
  8
A-2_蓋
  6
Continuous
 62
     3
370
     9
100
AcDbLine
 10
2972.973385372677
 20
928.45458984375
 30
0.0
 11
2972.973385372677
 21
877.3223876953125
 31
0.0
  0
LINE
  5
AC
330
1F
100
AcDbEntity
  8
A-2_蓋
  6
Continuous
 62
     3
370
     9
100
AcDbLine
 10
2957.972346125422
 20
872.2090437605573
 30
0.0
 11
2972.973385372677
 21
877.3223876953125
 31
0.0
  0
LINE
  5
AD
330
1F
100
AcDbEntity
  8
A-2_蓋
  6
Continuous
 62
     3
370
     9
100
AcDbLine
 10
2957.972346125422
 20
872.2090437605573
 30
0.0
 11
2957.972346125422
 21
806.7352294921875
 31
0.0
  0
LINE
  5
AE
330
1F
100
AcDbEntity
  8
A-2_蓋
  6
Continuous
 62
     3
370
     9
100
AcDbLine
 10
2957.972346125422
 20
806.7352294921875
 30
0.0
 11
2972.973385372677
 21
801.6218855574323
 31
0.0
  0
LINE
  5
AF
330
1F
100
AcDbEntity
  8
A-2_蓋
  6
Continuous
 62
     3
370
     9
100
AcDbLine
 10
2957.972346125422
 20
745.3763394742409
 30
0.0
 11
2957.972346125422
 21
701.30235826647
 31
0.0
  0
LINE
  5
B0
330
1F
100
AcDbEntity
  8
A-2_蓋
  6
Continuous
 62
     3
370
     9
100
AcDbLine
 10
2957.972346125422
 20
701.30235826647
 30
0.0
 11
2972.973385372677
 21
696.1902515308282
 31
0.0
  0
LINE
  5
B1
330
1F
100
AcDbEntity
  8
A-2_蓋
  6
Continuous
 62
     3
370
     9
100
AcDbLine
 10
2957.972346125422
 20
745.3763394742409
 30
0.0
 11
2972.973385372677
 21
750.4896834089948
 31
0.0
  0
LINE
  5
B2
330
1F
100
AcDbEntity
  8
A-2_蓋
  6
Continuous
 62
     3
370
     9
100
AcDbLine
 10
2972.973385372677
 20
801.6218855574323
 30
0.0
 11
2972.973385372677
 21
750.4896834089948
 31
0.0
  0
LINE
  5
B3
330
1F
100
AcDbEntity
  8
A-2_蓋
  6
Continuous
 62
     3
370
     9
100
AcDbLine
 10
2972.973385372677
 20
696.1902515308282
 30
0.0
 11
2972.973385372677
 21
645.0580493823907
 31
0.0
  0
LINE
  5
B4
330
1F
100
AcDbEntity
  8
A-2_蓋
  6
Continuous
 62
     3
370
     9
100
AcDbLine
 10
2957.972346125422
 20
639.9447054476354
 30
0.0
 11
2972.973385372677
 21
645.0580493823907
 31
0.0
  0
LINE
  5
B5
330
1F
100
AcDbEntity
  8
A-2_蓋
  6
Continuous
 62
     3
370
     9
100
AcDbLine
 10
2957.972346125422
 20
639.9447054476354
 30
0.0
 11
2957.972346125422
 21
574.4708911792657
 31
0.0
  0
LINE
  5
B6
330
1F
100
AcDbEntity
  8
A-2_蓋
  6
Continuous
 62
     3
370
     9
100
AcDbLine
 10
2957.972346125422
 20
574.4708911792657
 30
0.0
 11
2972.973385372677
 21
569.3575472445104
 31
0.0
  0
LINE
  5
B7
330
1F
100
AcDbEntity
  8
A-2_蓋
  6
Continuous
 62
     3
370
     9
100
AcDbLine
 10
2957.972346125422
 20
513.1120011613177
 30
0.0
 11
2957.972346125422
 21
469.0380199535483
 31
0.0
  0
LINE
  5
B8
330
1F
100
AcDbEntity
  8
A-2_蓋
  6
Continuous
 62
     3
370
     9
100
AcDbLine
 10
2957.972346125422
 20
469.0380199535483
 30
0.0
 11
2972.973385372677
 21
463.9259132179063
 31
0.0
  0
LINE
  5
B9
330
1F
100
AcDbEntity
  8
A-2_蓋
  6
Continuous
 62
     3
370
     9
100
AcDbLine
 10
2957.972346125422
 20
513.1120011613177
 30
0.0
 11
2972.973385372677
 21
518.2253450960729
 31
0.0
  0
LINE
  5
BA
330
1F
100
AcDbEntity
  8
A-2_蓋
  6
Continuous
 62
     3
370
     9
100
AcDbLine
 10
2972.973385372677
 20
569.3575472445104
 30
0.0
 11
2972.973385372677
 21
518.2253450960729
 31
0.0
  0
LINE
  5
BB
330
1F
100
AcDbEntity
  8
A-2_蓋
  6
Continuous
 62
     3
370
     9
100
AcDbLine
 10
2972.973385372677
 20
463.9259132179063
 30
0.0
 11
2972.973385372677
 21
412.7937110694688
 31
0.0
  0
LINE
  5
BC
330
1F
100
AcDbEntity
  8
A-2_蓋
  6
Continuous
 62
     3
370
     9
100
AcDbLine
 10
2957.972346125422
 20
407.6803671347136
 30
0.0
 11
2972.973385372677
 21
412.7937110694688
 31
0.0
  0
LINE
  5
BD
330
1F
100
AcDbEntity
  8
A-2_蓋
  6
Continuous
 62
     3
370
     9
100
AcDbLine
 10
2957.972346125422
 20
407.6803671347136
 30
0.0
 11
2957.972346125422
 21
342.2065528663438
 31
0.0
  0
LINE
  5
BE
330
1F
100
AcDbEntity
  8
A-2_蓋
  6
Continuous
 62
     3
370
     9
100
AcDbLine
 10
2957.972346125422
 20
342.2065528663438
 30
0.0
 11
2972.973385372677
 21
337.0932089315886
 31
0.0
  0
LINE
  5
BF
330
1F
100
AcDbEntity
  8
A-2_蓋
  6
Continuous
 62
     3
370
     9
100
AcDbLine
 10
2972.973385372677
 20
337.0932089315886
 30
0.0
 11
2972.973385372677
 21
271.355871252112
 31
0.0
  0
LINE
  5
C0
330
1F
100
AcDbEntity
  8
A-4_寸法
  6
Continuous
 62
     7
370
     9
100
AcDbLine
 10
2972.973385372677
 20
-900.6713042388085
 30
0.0
 11
3892.971966717696
 21
-900.6713042388085
 31
0.0
  0
LINE
  5
C1
330
1F
100
AcDbEntity
  8
A-4_寸法
  6
Continuous
 62
     7
370
     9
100
AcDbLine
 10
2972.973385372677
 20
-398.6437410921667
 30
0.0
 11
2972.973385372677
 21
-1315.671807366448
 31
0.0
  0
LINE
  5
C2
330
1F
100
AcDbEntity
  8
A-4_寸法
  6
Continuous
 62
     7
370
     9
100
AcDbLine
 10
3292.973698796453
 20
-398.6437410921667
 30
0.0
 11
3292.973698796453
 21
-915.6711062869505
 31
0.0
  0
LINE
  5
C3
330
1F
100
AcDbEntity
  8
A-4_寸法
  6
Continuous
 62
     7
370
     9
100
AcDbLine
 10
2972.973385372677
 20
-1300.67138671875
 30
0.0
 11
3892.971966717696
 21
-1300.67138671875
 31
0.0
  0
LINE
  5
C4
330
1F
100
AcDbEntity
  8
A-4_寸法
  6
Continuous
 62
     7
370
     9
100
AcDbLine
 10
2472.972972972974
 20
-273.6439472920182
 30
0.0
 11
2472.972972972974
 21
3826.355970228042
 31
0.0
  0
LINE
  5
C5
330
1F
100
AcDbEntity
  8
A-4_寸法
  6
Continuous
 62
     7
370
     9
100
AcDbLine
 10
2847.972972972974
 20
-273.6439472920182
 30
0.0
 11
2457.973170924831
 21
-273.6439472920182
 31
0.0
  0
LINE
  5
C6
330
1F
100
AcDbEntity
  8
A-4_寸法
  6
Continuous
 62
     7
370
     9
100
AcDbLine
 10
2847.972972972974
 20
3826.355970228042
 30
0.0
 11
2457.973170924831
 21
3826.355970228042
 31
0.0
  0
LINE
  5
C7
330
1F
100
AcDbEntity
  8
A-4_寸法
  6
Continuous
 62
     7
370
     9
100
AcDbLine
 10
3467.974276156039
 20
-273.6439472920182
 30
0.0
 11
4407.970943966428
 21
-273.6439472920182
 31
0.0
  0
LINE
  5
C8
330
1F
100
AcDbEntity
  8
A-4_寸法
  6
Continuous
 62
     7
370
     9
100
AcDbLine
 10
3923.972464896539
 20
-203.644458667651
 30
0.0
 11
4407.970943966428
 21
-203.644458667651
 31
0.0
  0
LINE
  5
C9
330
1F
100
AcDbEntity
  8
A-4_寸法
  6
Continuous
 62
     7
370
     9
100
AcDbLine
 10
3923.972464896539
 20
196.3568610114024
 30
0.0
 11
4407.970943966428
 21
196.3568610114024
 31
0.0
  0
LINE
  5
CA
330
1F
100
AcDbEntity
  8
A-4_寸法
  6
Continuous
 62
     7
370
     9
100
AcDbLine
 10
3923.972464896539
 20
3356.355161924621
 30
0.0
 11
4407.970943966428
 21
3356.355161924621
 31
0.0
  0
LINE
  5
CB
330
1F
100
AcDbEntity
  8
A-4_寸法
  6
Continuous
 62
     7
370
     9
100
AcDbLine
 10
3923.972464896539
 20
3756.356481603675
 30
0.0
 11
4407.970943966428
 21
3756.356481603675
 31
0.0
  0
LINE
  5
CC
330
1F
100
AcDbEntity
  8
A-4_寸法
  6
Continuous
 62
     7
370
     9
100
AcDbLine
 10
3467.974276156039
 20
3826.355970228042
 30
0.0
 11
4407.970943966428
 21
3826.355970228042
 31
0.0
  0
LINE
  5
CD
330
1F
100
AcDbEntity
  8
A-4_寸法
  6
Continuous
 62
     7
370
     9
100
AcDbLine
 10
4392.971141918287
 20
-495.3636375633437
 30
0.0
 11
4392.971141918287
 21
4087.607883762669
 31
0.0
  0
LINE
  5
CE
330
1F
100
AcDbEntity
  8
A-2_蓋
  6
JWW_CENTER1
 62
     3
370
     9
100
AcDbLine
 10
2731.937305347341
 20
1776.356011468012
 30
0.0
 11
3491.250940271325
 21
1776.356011468012
 31
0.0
  0
LINE
  5
CF
330
1F
100
AcDbEntity
  8
A-2_蓋
  6
Continuous
 62
     3
370
     9
100
AcDbLine
 10
3222.972972972974
 20
3781.356564083616
 30
0.0
 11
3222.972972972974
 21
-228.6445411475924
 31
0.0
  0
LINE
  5
D0
330
1F
100
AcDbEntity
  8
A-2_蓋
  6
Continuous
 62
     3
370
     9
100
AcDbLine
 10
3232.973253404773
 20
3781.356564083616
 30
0.0
 11
3232.973253404773
 21
-228.6445411475924
 31
0.0
  0
LINE
  5
D1
330
1F
100
AcDbEntity
  8
A-1_ピット
  6
Continuous
 62
     2
370
     9
100
AcDbLine
 10
3828.971656593117
 20
3356.357636322846
 30
0.0
 11
3356.974008921031
 21
3356.357636322846
 31
0.0
  0
LINE
  5
D2
330
1F
100
AcDbEntity
  8
A-1_ピット
  6
Continuous
 62
     2
370
     9
100
AcDbLine
 10
3828.970419394005
 20
3724.357563740499
 30
0.0
 11
3356.971534522805
 21
3724.357563740499
 31
0.0
  0
LINE
  5
D3
330
1F
100
AcDbEntity
  8
A-1_ピット
  6
Continuous
 62
     2
370
     9
100
AcDbLine
 10
3860.971811655406
 20
3420.357946447425
 30
0.0
 11
3860.971811655406
 21
3692.356171479096
 31
0.0
  0
LINE
  5
D4
330
1F
100
AcDbEntity
  8
A-1_ピット
  6
Continuous
 62
     2
370
     9
100
AcDbLine
 10
3828.971656593117
 20
3756.357718802788
 30
0.0
 11
3356.974008921031
 21
3756.357718802788
 31
0.0
  0
LINE
  5
D5
330
1F
100
AcDbEntity
  8
A-1_ピット
  6
Continuous
 62
     2
370
     9
100
AcDbLine
 10
3892.970729518581
 20
3420.357946447425
 30
0.0
 11
3892.970729518581
 21
3692.358645877323
 31
0.0
  0
LINE
  5
D6
330
1F
100
AcDbEntity
  8
A-1_ピット
  6
Continuous
 62
     2
370
     9
100
AcDbLine
 10
3356.974008921031
 20
3388.359028584249
 30
0.0
 11
3828.970419394005
 21
3388.359028584249
 31
0.0
  0
LINE
  5
D7
330
1F
100
AcDbEntity
  8
A-1_ピット
  6
Continuous
 62
     2
370
     9
100
AcDbLine
 10
3324.97261665963
 20
3420.357946447425
 30
0.0
 11
3324.97261665963
 21
3692.356171479096
 31
0.0
  0
LINE
  5
D8
330
1F
100
AcDbEntity
  8
A-2_蓋
  6
Continuous
 62
     3
370
     9
100
AcDbLine
 10
2972.973385372677
 20
3826.355970228042
 30
0.0
 11
3222.972972972974
 21
3826.355970228042
 31
0.0
  0
LINE
  5
D9
330
1F
100
AcDbEntity
  8
A-2_蓋
  6
Continuous
 62
     3
370
     9
100
AcDbLine
 10
3222.972972972974
 20
3826.355970228042
 30
0.0
 11
3222.972972972974
 21
3769.923607078759
 31
0.0
  0
LINE
  5
DA
330
1F
100
AcDbEntity
  8
A-2_蓋
  6
Continuous
 62
     3
370
     9
100
AcDbLine
 10
2972.973385372677
 20
3781.356564083616
 30
0.0
 11
3292.973698796453
 21
3781.356564083616
 31
0.0
  0
LINE
  5
DB
330
1F
100
AcDbEntity
  8
A-2_蓋
  6
Continuous
 62
     3
370
     9
100
AcDbLine
 10
2972.973385372677
 20
-273.6439472920182
 30
0.0
 11
3222.972972972974
 21
-273.6439472920182
 31
0.0
  0
LINE
  5
DC
330
1F
100
AcDbEntity
  8
A-2_蓋
  6
Continuous
 62
     3
370
     9
100
AcDbLine
 10
3222.972972972974
 20
-200.598474451013
 30
0.0
 11
3222.972972972974
 21
-273.6439472920182
 31
0.0
  0
LINE
  5
DD
330
1F
100
AcDbEntity
  8
A-2_蓋
  6
Continuous
 62
     3
370
     9
100
AcDbLine
 10
2972.973385372677
 20
-228.6445411475924
 30
0.0
 11
3292.973698796453
 21
-228.6445411475924
 31
0.0
  0
LINE
  5
DE
330
1F
100
AcDbEntity
  8
A-2_蓋
  6
Continuous
 62
     3
370
     9
100
AcDbLine
 10
3292.973698796453
 20
3781.356564083616
 30
0.0
 11
3292.973698796453
 21
-228.6445411475924
 31
0.0
  0
LINE
  5
DF
330
1F
100
AcDbEntity
  8
A-2_蓋
  6
Continuous
 62
     3
370
     9
100
AcDbLine
 10
-5197.381921716638
 20
-2657.968510808171
 30
0.0
 11
-5072.381509316933
 21
-2631.220265981313
 31
0.0
  0
LINE
  5
E0
330
1F
100
AcDbEntity
  8
A-2_蓋
  6
Continuous
 62
     3
370
     9
100
AcDbLine
 10
-5197.381921716638
 20
-2670.751252045502
 30
0.0
 11
-5072.381509316933
 21
-2644.001151419975
 31
0.0
  0
LINE
  5
E1
330
1F
100
AcDbEntity
  8
A-2_蓋
  6
Continuous
 62
     3
370
     9
100
AcDbLine
 10
-5197.381921716638
 20
-2798.582376016152
 30
0.0
 11
-5072.381509316933
 21
-2771.832275390625
 31
0.0
  0
LINE
  5
E2
330
1F
100
AcDbEntity
  8
A-2_蓋
  6
Continuous
 62
     3
370
     9
100
AcDbLine
 10
-5197.381921716638
 20
-2811.36573585304
 30
0.0
 11
-5072.381509316933
 21
-2784.615016627956
 31
0.0
  0
LINE
  5
E3
330
1F
100
AcDbEntity
  8
A-2_蓋
  6
Continuous
 62
     3
370
     9
100
AcDbLine
 10
-5072.381509316933
 20
-2948.297696500211
 30
0.0
 11
-5197.381921716638
 21
-2921.55007027291
 31
0.0
  0
LINE
  5
E4
330
1F
100
AcDbEntity
  8
A-2_蓋
  6
Continuous
 62
     3
370
     9
100
AcDbLine
 10
-5072.381509316933
 20
-2961.081056337098
 30
0.0
 11
-5197.381921716638
 21
-2934.330955711571
 31
0.0
  0
LINE
  5
E5
330
1F
100
AcDbEntity
  8
A-2_蓋
  6
Continuous
 62
     3
370
     9
100
AcDbLine
 10
-2624.741425385346
 20
-2680.742253483952
 30
0.0
 11
-2611.958065548458
 21
-2718.244233002534
 31
0.0
  0
LINE
  5
E6
330
1F
100
AcDbEntity
  8
A-2_蓋
  6
Continuous
 62
     3
370
     9
100
AcDbLine
 10
-2583.376291635874
 20
-2718.244233002534
 30
0.0
 11
-2611.958065548458
 21
-2718.244233002534
 31
0.0
  0
LINE
  5
E7
330
1F
100
AcDbEntity
  8
A-2_蓋
  6
Continuous
 62
     3
370
     9
100
AcDbLine
 10
-2624.741425385346
 20
-2680.742253483952
 30
0.0
 11
-2734.925759805215
 21
-2680.742253483952
 31
0.0
  0
LINE
  5
E8
330
1F
100
AcDbEntity
  8
A-2_蓋
  6
Continuous
 62
     3
370
     9
100
AcDbLine
 10
-2734.925759805215
 20
-2680.742253483952
 30
0.0
 11
-2747.706645243876
 21
-2718.244233002534
 31
0.0
  0
LINE
  5
E9
330
1F
100
AcDbEntity
  8
A-2_蓋
  6
Continuous
 62
     3
370
     9
100
AcDbLine
 10
-2747.706645243876
 20
-2718.244233002534
 30
0.0
 11
-2875.537769214526
 21
-2718.244233002534
 31
0.0
  0
LINE
  5
EA
330
1F
100
AcDbEntity
  8
A-2_蓋
  6
Continuous
 62
     3
370
     9
100
AcDbLine
 10
-2888.320510451858
 20
-2680.742253483952
 30
0.0
 11
-2875.537769214526
 21
-2718.244233002534
 31
0.0
  0
LINE
  5
EB
330
1F
100
AcDbEntity
  8
A-2_蓋
  6
Continuous
 62
     3
370
     9
100
AcDbLine
 10
-2888.320510451858
 20
-2680.742253483952
 30
0.0
 11
-3052.003808923669
 21
-2680.742253483952
 31
0.0
  0
LINE
  5
EC
330
1F
100
AcDbEntity
  8
A-2_蓋
  6
Continuous
 62
     3
370
     9
100
AcDbLine
 10
-3052.003808923669
 20
-2680.742253483952
 30
0.0
 11
-3064.787168760558
 21
-2718.244233002534
 31
0.0
  0
LINE
  5
ED
330
1F
100
AcDbEntity
  8
A-2_蓋
  6
Continuous
 62
     3
370
     9
100
AcDbLine
 10
-5197.381921716638
 20
-3238.627500791808
 30
0.0
 11
-5072.381509316933
 21
-3211.880493164062
 31
0.0
  0
LINE
  5
EE
330
1F
100
AcDbEntity
  8
A-2_蓋
  6
Continuous
 62
     3
370
     9
100
AcDbLine
 10
-5197.381921716638
 20
-3074.944820919552
 30
0.0
 11
-5072.381509316933
 21
-3101.69306574641
 31
0.0
  0
LINE
  5
EF
330
1F
100
AcDbEntity
  8
A-2_蓋
  6
Continuous
 62
     3
370
     9
100
AcDbLine
 10
-5197.381921716638
 20
-3062.162079682221
 30
0.0
 11
-5072.381509316933
 21
-3088.912180307749
 31
0.0
  0
LINE
  5
F0
330
1F
100
AcDbEntity
  8
A-2_蓋
  6
Continuous
 62
     3
370
     9
100
AcDbLine
 10
-5197.381921716638
 20
-3251.410860628695
 30
0.0
 11
-5072.381509316933
 21
-3224.660760003168
 31
0.0
  0
LINE
  5
F1
330
1F
100
AcDbEntity
  8
A-2_蓋
  6
Continuous
 62
     3
370
     9
100
AcDbLine
 10
-5197.381921716638
 20
-3379.241984599345
 30
0.0
 11
-5072.381509316933
 21
-3352.491883973817
 31
0.0
  0
LINE
  5
F2
330
1F
100
AcDbEntity
  8
A-2_蓋
  6
Continuous
 62
     3
370
     9
100
AcDbLine
 10
-5197.381921716638
 20
-3392.025344436233
 30
0.0
 11
-5072.381509316933
 21
-3365.274625211148
 31
0.0
  0
LINE
  5
F3
330
1F
100
AcDbEntity
  8
A-2_蓋
  6
Continuous
 62
     3
370
     9
100
AcDbLine
 10
-5072.381509316933
 20
-3528.957305083404
 30
0.0
 11
-5197.381921716638
 21
-3502.210297455659
 31
0.0
  0
LINE
  5
F4
330
1F
100
AcDbEntity
  8
A-2_蓋
  6
Continuous
 62
     3
370
     9
100
AcDbLine
 10
-5072.381509316933
 20
-3541.741283519847
 30
0.0
 11
-5197.381921716638
 21
-3514.990564294763
 31
0.0
  0
LINE
  5
F5
330
1F
100
AcDbEntity
  8
A-2_蓋
  6
Continuous
 62
     3
370
     9
100
AcDbLine
 10
-3205.399796769426
 20
-2680.742253483952
 30
0.0
 11
-3315.585368388407
 21
-2680.742253483952
 31
0.0
  0
LINE
  5
F6
330
1F
100
AcDbEntity
  8
A-2_蓋
  6
Continuous
 62
     3
370
     9
100
AcDbLine
 10
-3315.585368388407
 20
-2680.742253483952
 30
0.0
 11
-3328.368728225295
 21
-2718.244233002534
 31
0.0
  0
LINE
  5
F7
330
1F
100
AcDbEntity
  8
A-2_蓋
  6
Continuous
 62
     3
370
     9
100
AcDbLine
 10
-3328.368728225295
 20
-2718.244233002534
 30
0.0
 11
-3456.196759198163
 21
-2718.244233002534
 31
0.0
  0
LINE
  5
F8
330
1F
100
AcDbEntity
  8
A-2_蓋
  6
Continuous
 62
     3
370
     9
100
AcDbLine
 10
-3468.980119035051
 20
-2680.742253483952
 30
0.0
 11
-3456.196759198163
 21
-2718.244233002534
 31
0.0
  0
LINE
  5
F9
330
1F
100
AcDbEntity
  8
A-2_蓋
  6
Continuous
 62
     3
370
     9
100
AcDbLine
 10
-3468.980119035051
 20
-2680.742253483952
 30
0.0
 11
-3632.663417506862
 21
-2680.742253483952
 31
0.0
  0
LINE
  5
FA
330
1F
100
AcDbEntity
  8
A-2_蓋
  6
Continuous
 62
     3
370
     9
100
AcDbLine
 10
-3632.663417506862
 20
-2680.742253483952
 30
0.0
 11
-3645.44677734375
 21
-2718.244233002534
 31
0.0
  0
LINE
  5
FB
330
1F
100
AcDbEntity
  8
A-2_蓋
  6
Continuous
 62
     3
370
     9
100
AcDbLine
 10
-3205.399796769426
 20
-2680.742253483952
 30
0.0
 11
-3192.617674131651
 21
-2718.244233002534
 31
0.0
  0
LINE
  5
FC
330
1F
100
AcDbEntity
  8
A-2_蓋
  6
Continuous
 62
     3
370
     9
100
AcDbLine
 10
-3064.787168760558
 20
-2718.244233002534
 30
0.0
 11
-3192.617674131651
 21
-2718.244233002534
 31
0.0
  0
LINE
  5
FD
330
1F
100
AcDbEntity
  8
A-2_蓋
  6
Continuous
 62
     3
370
     9
100
AcDbLine
 10
-3786.060023952175
 20
-2680.742253483952
 30
0.0
 11
-3896.244358372043
 21
-2680.742253483952
 31
0.0
  0
LINE
  5
FE
330
1F
100
AcDbEntity
  8
A-2_蓋
  6
Continuous
 62
     3
370
     9
100
AcDbLine
 10
-3896.244358372043
 20
-2680.742253483952
 30
0.0
 11
-3909.028336808488
 21
-2718.244233002534
 31
0.0
  0
LINE
  5
FF
330
1F
100
AcDbEntity
  8
A-2_蓋
  6
Continuous
 62
     3
370
     9
100
AcDbLine
 10
-3909.028336808488
 20
-2718.244233002534
 30
0.0
 11
-4036.856986380912
 21
-2718.244233002534
 31
0.0
  0
LINE
  5
100
330
1F
100
AcDbEntity
  8
A-2_蓋
  6
Continuous
 62
     3
370
     9
100
AcDbLine
 10
-4049.639727618243
 20
-2680.742253483952
 30
0.0
 11
-4036.856986380912
 21
-2718.244233002534
 31
0.0
  0
LINE
  5
101
330
1F
100
AcDbEntity
  8
A-2_蓋
  6
Continuous
 62
     3
370
     9
100
AcDbLine
 10
-4049.639727618243
 20
-2680.742253483952
 30
0.0
 11
-4213.323026090055
 21
-2680.742253483952
 31
0.0
  0
LINE
  5
102
330
1F
100
AcDbEntity
  8
A-2_蓋
  6
Continuous
 62
     3
370
     9
100
AcDbLine
 10
-4213.323026090055
 20
-2680.742253483952
 30
0.0
 11
-4226.106385926942
 21
-2718.244233002534
 31
0.0
  0
LINE
  5
103
330
1F
100
AcDbEntity
  8
A-2_蓋
  6
Continuous
 62
     3
370
     9
100
AcDbLine
 10
-3786.060023952175
 20
-2680.742253483952
 30
0.0
 11
-3773.277282714844
 21
-2718.244233002534
 31
0.0
  0
LINE
  5
104
330
1F
100
AcDbEntity
  8
A-2_蓋
  6
Continuous
 62
     3
370
     9
100
AcDbLine
 10
-3645.44677734375
 20
-2718.244233002534
 30
0.0
 11
-3773.277282714844
 21
-2718.244233002534
 31
0.0
  0
LINE
  5
105
330
1F
100
AcDbEntity
  8
A-2_蓋
  6
Continuous
 62
     3
370
     9
100
AcDbLine
 10
-4366.720251134924
 20
-2680.742253483952
 30
0.0
 11
-4476.90520415435
 21
-2680.742253483952
 31
0.0
  0
LINE
  5
106
330
1F
100
AcDbEntity
  8
A-2_蓋
  6
Continuous
 62
     3
370
     9
100
AcDbLine
 10
-4476.90520415435
 20
-2680.742253483952
 30
0.0
 11
-4489.685470993454
 21
-2718.244233002534
 31
0.0
  0
LINE
  5
107
330
1F
100
AcDbEntity
  8
A-2_蓋
  6
Continuous
 62
     3
370
     9
100
AcDbLine
 10
-4366.720251134924
 20
-2680.742253483952
 30
0.0
 11
-4353.936891298035
 21
-2718.244233002534
 31
0.0
  0
LINE
  5
108
330
1F
100
AcDbEntity
  8
A-2_蓋
  6
Continuous
 62
     3
370
     9
100
AcDbLine
 10
-4226.106385926942
 20
-2718.244233002534
 30
0.0
 11
-4353.936891298035
 21
-2718.244233002534
 31
0.0
  0
LINE
  5
109
330
1F
100
AcDbEntity
  8
A-2_蓋
  6
Continuous
 62
     3
370
     9
100
AcDbLine
 10
-4489.685470993454
 20
-2718.244233002534
 30
0.0
 11
-4565.948280128273
 21
-2718.244233002534
 31
0.0
  0
LINE
  5
10A
330
1F
100
AcDbEntity
  8
A-2_蓋
  6
Continuous
 62
     3
370
     9
100
AcDbLine
 10
-2583.376291635874
 20
-3518.243160763302
 30
0.0
 11
-4565.948280128273
 21
-3518.243160763302
 31
0.0
  0
LINE
  5
10B
330
1F
100
AcDbEntity
  8
A-2_蓋
  6
Continuous
 62
     3
370
     9
100
AcDbLine
 10
-2583.376291635874
 20
-3368.242665883657
 30
0.0
 11
-4565.948280128273
 21
-3368.242665883657
 31
0.0
  0
LINE
  5
10C
330
1F
100
AcDbEntity
  8
A-2_蓋
  6
Continuous
 62
     3
370
     9
100
AcDbLine
 10
-2583.376291635874
 20
-3343.24382060283
 30
0.0
 11
-4565.948280128273
 21
-3343.24382060283
 31
0.0
  0
LINE
  5
10D
330
1F
100
AcDbEntity
  8
A-2_蓋
  6
Continuous
 62
     3
370
     9
100
AcDbLine
 10
-2583.376291635874
 20
-2868.242872083509
 30
0.0
 11
-4565.948280128273
 21
-2868.242872083509
 31
0.0
  0
LINE
  5
10E
330
1F
100
AcDbEntity
  8
A-2_蓋
  6
Continuous
 62
     3
370
     9
100
AcDbLine
 10
-2583.376291635874
 20
-2893.244191762563
 30
0.0
 11
-4565.948280128273
 21
-2893.244191762563
 31
0.0
  0
LINE
  5
10F
330
1F
100
AcDbEntity
  8
A-2_蓋
  6
Continuous
 62
     3
370
     9
100
AcDbLine
 10
-1904.486166464315
 20
-2718.244233002534
 30
0.0
 11
-1779.485754064611
 21
-2718.244233002534
 31
0.0
  0
LINE
  5
110
330
1F
100
AcDbEntity
  8
A-2_蓋
  6
Continuous
 62
     3
370
     9
100
AcDbLine
 10
-1779.485754064611
 20
-3518.243160763302
 30
0.0
 11
-1904.486166464315
 21
-3518.243160763302
 31
0.0
  0
LINE
  5
111
330
1F
100
AcDbEntity
  8
A-2_蓋
  6
Continuous
 62
     3
370
     9
100
AcDbLine
 10
-1779.485754064611
 20
-3365.742905075486
 30
0.0
 11
-1779.485754064611
 21
-3518.243160763302
 31
0.0
  0
LINE
  5
112
330
1F
100
AcDbEntity
  8
A-2_蓋
  6
Continuous
 62
     3
370
     9
100
AcDbLine
 10
-1804.487692343221
 20
-3340.741585396432
 30
0.0
 11
-1779.485754064611
 21
-3365.742905075486
 31
0.0
  0
LINE
  5
113
330
1F
100
AcDbEntity
  8
A-2_蓋
  6
Continuous
 62
     3
370
     9
100
AcDbLine
 10
-1904.486166464315
 20
-3518.243160763302
 30
0.0
 11
-1904.486166464315
 21
-3365.742905075486
 31
0.0
  0
LINE
  5
114
330
1F
100
AcDbEntity
  8
A-2_蓋
  6
Continuous
 62
     3
370
     9
100
AcDbLine
 10
-1904.486166464315
 20
-3365.742905075486
 30
0.0
 11
-1879.487321183488
 21
-3340.741585396432
 31
0.0
  0
LINE
  5
115
330
1F
100
AcDbEntity
  8
A-2_蓋
  6
Continuous
 62
     3
370
     9
100
AcDbLine
 10
-1904.486166464315
 20
-2870.745107289907
 30
0.0
 11
-1904.486166464315
 21
-2680.744727882179
 31
0.0
  0
LINE
  5
116
330
1F
100
AcDbEntity
  8
A-2_蓋
  6
Continuous
 62
     3
370
     9
100
AcDbLine
 10
-1904.486166464315
 20
-2870.745107289907
 30
0.0
 11
-1879.487321183488
 21
-2895.743952570734
 31
0.0
  0
LINE
  5
117
330
1F
100
AcDbEntity
  8
A-2_蓋
  6
Continuous
 62
     3
370
     9
100
AcDbLine
 10
-1879.487321183488
 20
-3340.741585396432
 30
0.0
 11
-1879.487321183488
 21
-2895.743952570734
 31
0.0
  0
LINE
  5
118
330
1F
100
AcDbEntity
  8
A-2_蓋
  6
Continuous
 62
     3
370
     9
100
AcDbLine
 10
-1804.487692343221
 20
-2895.743952570734
 30
0.0
 11
-1804.487692343221
 21
-3340.741585396432
 31
0.0
  0
LINE
  5
119
330
1F
100
AcDbEntity
  8
A-2_蓋
  6
Continuous
 62
     3
370
     9
100
AcDbLine
 10
-1804.487692343221
 20
-2895.743952570734
 30
0.0
 11
-1779.485754064611
 21
-2870.745107289907
 31
0.0
  0
LINE
  5
11A
330
1F
100
AcDbEntity
  8
A-2_蓋
  6
Continuous
 62
     3
370
     9
100
AcDbLine
 10
-1779.485754064611
 20
-2680.744727882179
 30
0.0
 11
-1779.485754064611
 21
-2870.745107289907
 31
0.0
  0
LINE
  5
11B
330
1F
100
AcDbEntity
  8
A-2_蓋
  6
Continuous
 62
     3
370
     9
100
AcDbLine
 10
-1904.486166464315
 20
-2680.744727882179
 30
0.0
 11
-1779.485754064611
 21
-2680.744727882179
 31
0.0
  0
LINE
  5
11C
330
1F
100
AcDbEntity
  8
A-4_寸法
  6
Continuous
 62
     7
370
     9
100
AcDbLine
 10
-1167.255298511401
 20
-3518.243160763302
 30
0.0
 11
-1167.255298511401
 21
-2718.244233002534
 31
0.0
  0
LINE
  5
11D
330
1F
100
AcDbEntity
  8
A-4_寸法
  6
Continuous
 62
     7
370
     9
100
AcDbLine
 10
-1685.615127151077
 20
-3518.243160763302
 30
0.0
 11
-1152.255496463259
 21
-3518.243160763302
 31
0.0
  0
LINE
  5
11E
330
1F
100
AcDbEntity
  8
A-4_寸法
  6
Continuous
 62
     7
370
     9
100
AcDbLine
 10
-1685.615127151077
 20
-2718.244233002534
 30
0.0
 11
-1152.255496463259
 21
-2718.244233002534
 31
0.0
  0
LINE
  5
11F
330
1F
100
AcDbEntity
  8
A-4_寸法
  6
Continuous
 62
     7
370
     9
100
AcDbLine
 10
-1167.255298511401
 20
-3518.243160763302
 30
0.0
 11
-1183.571480415962
 21
-3394.314162795608
 31
0.0
  0
LINE
  5
120
330
1F
100
AcDbEntity
  8
A-4_寸法
  6
Continuous
 62
     7
370
     9
100
AcDbLine
 10
-1167.255298511401
 20
-3518.243160763302
 30
0.0
 11
-1150.939116606841
 21
-3394.314162795608
 31
0.0
  0
LINE
  5
121
330
1F
100
AcDbEntity
  8
A-4_寸法
  6
Continuous
 62
     7
370
     9
100
AcDbLine
 10
-1167.255298511401
 20
-2718.244233002534
 30
0.0
 11
-1183.571480415962
 21
-2842.173849569785
 31
0.0
  0
LINE
  5
122
330
1F
100
AcDbEntity
  8
A-4_寸法
  6
Continuous
 62
     7
370
     9
100
AcDbLine
 10
-1167.255298511401
 20
-2718.244233002534
 30
0.0
 11
-1150.939116606841
 21
-2842.173849569785
 31
0.0
  0
LINE
  5
123
330
1F
100
AcDbEntity
  8
A-2_蓋
  6
Continuous
 62
     3
370
     9
100
AcDbLine
 10
-5197.381921716638
 20
-3655.604429502745
 30
0.0
 11
-5072.381509316933
 21
-3682.352674329603
 31
0.0
  0
LINE
  5
124
330
1F
100
AcDbEntity
  8
A-2_蓋
  6
Continuous
 62
     3
370
     9
100
AcDbLine
 10
-5197.381921716638
 20
-3642.821688265413
 30
0.0
 11
-5072.381509316933
 21
-3669.571788890941
 31
0.0
  0
LINE
  5
125
330
1F
100
AcDbEntity
  8
A-2_蓋
  6
Continuous
 62
     3
370
     9
100
AcDbLine
 10
-5153.696421030405
 20
-2661.40421274546
 30
0.0
 11
-5072.381509316933
 21
-2742.717887259818
 31
0.0
  0
LINE
  5
126
330
1F
100
AcDbEntity
  8
A-2_蓋
  6
Continuous
 62
     3
370
     9
100
AcDbLine
 10
-5110.012157543285
 20
-2652.054699047191
 30
0.0
 11
-5072.381509316933
 21
-2689.6859658731
 31
0.0
  0
LINE
  5
127
330
1F
100
AcDbEntity
  8
A-2_蓋
  6
Continuous
 62
     3
370
     9
100
AcDbLine
 10
-5197.381921716638
 20
-2670.751252045502
 30
0.0
 11
-5092.08514239337
 21
-2776.048649968327
 31
0.0
  0
LINE
  5
128
330
1F
100
AcDbEntity
  8
A-2_蓋
  6
Continuous
 62
     3
370
     9
100
AcDbLine
 10
-5197.381921716638
 20
-2723.786266430004
 30
0.0
 11
-5135.76940588049
 21
-2785.39568926837
 31
0.0
  0
LINE
  5
129
330
1F
100
AcDbEntity
  8
A-2_蓋
  6
Continuous
 62
     3
370
     9
100
AcDbLine
 10
-5197.381921716638
 20
-2776.818806416279
 30
0.0
 11
-5179.454906566722
 21
-2794.745202966638
 31
0.0
  0
LINE
  5
12A
330
1F
100
AcDbEntity
  8
A-2_蓋
  6
Continuous
 62
     3
370
     9
100
AcDbLine
 10
-5197.381921716638
 20
-3040.398510082347
 30
0.0
 11
-5169.69278696421
 21
-3068.087644834776
 31
0.0
  0
LINE
  5
12B
330
1F
100
AcDbEntity
  8
A-2_蓋
  6
Continuous
 62
     3
370
     9
100
AcDbLine
 10
-5197.381921716638
 20
-2987.365970096072
 30
0.0
 11
-5102.221514727617
 21
-3082.52513988598
 31
0.0
  0
LINE
  5
12C
330
1F
100
AcDbEntity
  8
A-2_蓋
  6
Continuous
 62
     3
370
     9
100
AcDbLine
 10
-5197.381921716638
 20
-2934.330955711571
 30
0.0
 11
-5072.381509316933
 21
-3059.330130912162
 31
0.0
  0
LINE
  5
12D
330
1F
100
AcDbEntity
  8
A-2_蓋
  6
Continuous
 62
     3
370
     9
100
AcDbLine
 10
-5129.910649480046
 20
-2948.771543760558
 30
0.0
 11
-5072.381509316933
 21
-3006.297590925887
 31
0.0
  0
LINE
  5
12E
330
1F
100
AcDbEntity
  8
A-2_蓋
  6
Continuous
 62
     3
370
     9
100
AcDbLine
 10
-5153.696421030405
 20
-3242.063821328652
 30
0.0
 11
-5072.381509316933
 21
-3323.378114442567
 31
0.0
  0
LINE
  5
12F
330
1F
100
AcDbEntity
  8
A-2_蓋
  6
Continuous
 62
     3
370
     9
100
AcDbLine
 10
-5110.012157543285
 20
-3232.714926229941
 30
0.0
 11
-5072.381509316933
 21
-3270.343100058066
 31
0.0
  0
LINE
  5
130
330
1F
100
AcDbEntity
  8
A-2_蓋
  6
Continuous
 62
     3
370
     9
100
AcDbLine
 10
-5197.381921716638
 20
-3251.410860628695
 30
0.0
 11
-5092.08514239337
 21
-3356.70825855152
 31
0.0
  0
LINE
  5
131
330
1F
100
AcDbEntity
  8
A-2_蓋
  6
Continuous
 62
     3
370
     9
100
AcDbLine
 10
-5197.381921716638
 20
-3304.445875013197
 30
0.0
 11
-5135.76940588049
 21
-3366.055297851562
 31
0.0
  0
LINE
  5
132
330
1F
100
AcDbEntity
  8
A-2_蓋
  6
Continuous
 62
     3
370
     9
100
AcDbLine
 10
-5197.381921716638
 20
-3357.478414999472
 30
0.0
 11
-5179.454906566722
 21
-3375.404811549831
 31
0.0
  0
LINE
  5
133
330
1F
100
AcDbEntity
  8
A-2_蓋
  6
Continuous
 62
     3
370
     9
100
AcDbLine
 10
-5197.381921716638
 20
-3621.05811866554
 30
0.0
 11
-5169.69278696421
 21
-3648.747253417969
 31
0.0
  0
LINE
  5
134
330
1F
100
AcDbEntity
  8
A-2_蓋
  6
Continuous
 62
     3
370
     9
100
AcDbLine
 10
-5197.381921716638
 20
-3568.025578679265
 30
0.0
 11
-5102.221514727617
 21
-3663.185367068728
 31
0.0
  0
LINE
  5
135
330
1F
100
AcDbEntity
  8
A-2_蓋
  6
Continuous
 62
     3
370
     9
100
AcDbLine
 10
-5197.381921716638
 20
-3514.990564294763
 30
0.0
 11
-5072.381509316933
 21
-3639.989739495355
 31
0.0
  0
LINE
  5
136
330
1F
100
AcDbEntity
  8
A-2_蓋
  6
Continuous
 62
     3
370
     9
100
AcDbLine
 10
-5129.910649480046
 20
-3529.43115234375
 30
0.0
 11
-5072.381509316933
 21
-3586.95719950908
 31
0.0
  0
LINE
  5
137
330
1F
100
AcDbEntity
  8
A-2_蓋
  6
Continuous
 62
     3
370
     9
100
AcDbLine
 10
-5072.381509316933
 20
-2367.638087917018
 30
0.0
 11
-5197.381921716638
 21
-2340.890461689717
 31
0.0
  0
LINE
  5
138
330
1F
100
AcDbEntity
  8
A-2_蓋
  6
Continuous
 62
     3
370
     9
100
AcDbLine
 10
-5072.381509316933
 20
-2380.421447753906
 30
0.0
 11
-5197.381921716638
 21
-2353.673821526604
 31
0.0
  0
LINE
  5
139
330
1F
100
AcDbEntity
  8
A-2_蓋
  6
Continuous
 62
     3
370
     9
100
AcDbLine
 10
-5197.381921716638
 20
-2494.285212336359
 30
0.0
 11
-5072.381509316933
 21
-2521.032838563661
 31
0.0
  0
LINE
  5
13A
330
1F
100
AcDbEntity
  8
A-2_蓋
  6
Continuous
 62
     3
370
     9
100
AcDbLine
 10
-5197.381921716638
 20
-2481.502471099029
 30
0.0
 11
-5072.381509316933
 21
-2508.252571724557
 31
0.0
  0
LINE
  5
13B
330
1F
100
AcDbEntity
  8
A-2_蓋
  6
Continuous
 62
     3
370
     9
100
AcDbLine
 10
-5197.381921716638
 20
-2459.738901499155
 30
0.0
 11
-5169.69278696421
 21
-2487.428036251583
 31
0.0
  0
LINE
  5
13C
330
1F
100
AcDbEntity
  8
A-2_蓋
  6
Continuous
 62
     3
370
     9
100
AcDbLine
 10
-5197.381921716638
 20
-2406.70636151288
 30
0.0
 11
-5102.221514727617
 21
-2501.866149902344
 31
0.0
  0
LINE
  5
13D
330
1F
100
AcDbEntity
  8
A-2_蓋
  6
Continuous
 62
     3
370
     9
100
AcDbLine
 10
-5197.381921716638
 20
-2353.673821526604
 30
0.0
 11
-5072.381509316933
 21
-2478.67052232897
 31
0.0
  0
LINE
  5
13E
330
1F
100
AcDbEntity
  8
A-2_蓋
  6
Continuous
 62
     3
370
     9
100
AcDbLine
 10
-5129.910649480046
 20
-2368.111935177365
 30
0.0
 11
-5072.381509316933
 21
-2425.637982342694
 31
0.0
  0
LINE
  5
13F
330
1F
100
AcDbEntity
  8
A-2_蓋
  6
Continuous
 62
     3
370
     9
100
AcDbLine
 10
-5072.381509316933
 20
-2281.999165302998
 30
0.0
 11
-5072.381509316933
 21
-3739.3733256572
 31
0.0
  0
LINE
  5
140
330
1F
100
AcDbEntity
  8
A-2_蓋
  6
Continuous
 62
     3
370
     9
100
AcDbLine
 10
-5197.381921716638
 20
-2281.999165302998
 30
0.0
 11
-5197.381921716638
 21
-3739.3733256572
 31
0.0
  0
LINE
  5
141
330
1F
100
AcDbEntity
  8
A-4_寸法
  6
Continuous
 62
     7
370
     9
100
AcDbLine
 10
-5282.06510801573
 20
-3379.241984599345
 30
0.0
 11
-5550.539171373522
 21
-3379.241984599345
 31
0.0
  0
LINE
  5
142
330
1F
100
AcDbEntity
  8
A-4_寸法
  6
Continuous
 62
     7
370
     9
100
AcDbLine
 10
-5282.06510801573
 20
-3514.990564294763
 30
0.0
 11
-5550.539171373522
 21
-3514.990564294763
 31
0.0
  0
LINE
  5
143
330
1F
100
AcDbEntity
  8
A-4_寸法
  6
Continuous
 62
     7
370
     9
100
AcDbLine
 10
-5535.539369325379
 20
-3379.241984599345
 30
0.0
 11
-5551.855551229941
 21
-3255.310512233425
 31
0.0
  0
LINE
  5
144
330
1F
100
AcDbEntity
  8
A-4_寸法
  6
Continuous
 62
     7
370
     9
100
AcDbLine
 10
-5535.539369325379
 20
-3379.241984599345
 30
0.0
 11
-5519.222568821262
 21
-3255.310512233425
 31
0.0
  0
LINE
  5
145
330
1F
100
AcDbEntity
  8
A-4_寸法
  6
Continuous
 62
     7
370
     9
100
AcDbLine
 10
-5535.539369325379
 20
-3514.990564294763
 30
0.0
 11
-5551.855551229941
 21
-3638.922036660684
 31
0.0
  0
LINE
  5
146
330
1F
100
AcDbEntity
  8
A-4_寸法
  6
Continuous
 62
     7
370
     9
100
AcDbLine
 10
-5535.539369325379
 20
-3514.990564294763
 30
0.0
 11
-5519.222568821262
 21
-3638.922036660684
 31
0.0
  0
LINE
  5
147
330
1F
100
AcDbEntity
  8
A-4_寸法
  6
Continuous
 62
     7
370
     9
100
AcDbLine
 10
-5282.06510801573
 20
-2481.502471099029
 30
0.0
 11
-5550.539171373522
 21
-2481.502471099029
 31
0.0
  0
LINE
  5
148
330
1F
100
AcDbEntity
  8
A-4_寸法
  6
Continuous
 62
     7
370
     9
100
AcDbLine
 10
-5282.06510801573
 20
-2670.751252045502
 30
0.0
 11
-5550.539171373522
 21
-2670.751252045502
 31
0.0
  0
LINE
  5
149
330
1F
100
AcDbEntity
  8
A-4_寸法
  6
Continuous
 62
     7
370
     9
100
AcDbLine
 10
-5535.539369325379
 20
-2481.502471099029
 30
0.0
 11
-5551.855551229941
 21
-2357.572854531777
 31
0.0
  0
LINE
  5
14A
330
1F
100
AcDbEntity
  8
A-4_寸法
  6
Continuous
 62
     7
370
     9
100
AcDbLine
 10
-5535.539369325379
 20
-2481.502471099029
 30
0.0
 11
-5519.222568821262
 21
-2357.572854531777
 31
0.0
  0
LINE
  5
14B
330
1F
100
AcDbEntity
  8
A-4_寸法
  6
Continuous
 62
     7
370
     9
100
AcDbLine
 10
-5535.539369325379
 20
-2670.751252045502
 30
0.0
 11
-5551.855551229941
 21
-2794.680250013197
 31
0.0
  0
LINE
  5
14C
330
1F
100
AcDbEntity
  8
A-4_寸法
  6
Continuous
 62
     7
370
     9
100
AcDbLine
 10
-5535.539369325379
 20
-2670.751252045502
 30
0.0
 11
-5519.222568821262
 21
-2794.680250013197
 31
0.0
  0
LINE
  5
14D
330
1F
100
AcDbEntity
  8
A-4_寸法
  6
Continuous
 62
     7
370
     9
100
AcDbLine
 10
-5535.539369325379
 20
-3221.742207295185
 30
0.0
 11
-5535.539369325379
 21
-3711.292617385452
 31
0.0
  0
LINE
  5
14E
330
1F
100
AcDbEntity
  8
A-4_寸法
  6
Continuous
 62
     7
370
     9
100
AcDbLine
 10
-5535.539369325379
 20
-2309.455088022592
 30
0.0
 11
-5535.539369325379
 21
-2840.543839738175
 31
0.0
  0
LINE
  5
14F
330
1F
100
AcDbEntity
  8
A-4_寸法
  6
Continuous
 62
     7
370
     9
100
AcDbLine
 10
-5012.92543153505
 20
-2759.108301111169
 30
0.0
 11
-4852.846712679476
 21
-2724.853969264675
 31
0.0
  0
LINE
  5
150
330
1F
100
AcDbEntity
  8
A-4_寸法
  6
Continuous
 62
     7
370
     9
100
AcDbLine
 10
-5039.082295185811
 20
-2636.876121727196
 30
0.0
 11
-4879.00481352935
 21
-2602.619315482475
 31
0.0
  0
LINE
  5
151
330
1F
100
AcDbEntity
  8
A-4_寸法
  6
Continuous
 62
     7
370
     9
100
AcDbLine
 10
-4867.514945365288
 20
-2727.992743414801
 30
0.0
 11
-4825.627094990498
 21
-2845.763582796663
 31
0.0
  0
LINE
  5
152
330
1F
100
AcDbEntity
  8
A-4_寸法
  6
Continuous
 62
     7
370
     9
100
AcDbLine
 10
-4867.514945365288
 20
-2727.992743414801
 30
0.0
 11
-4857.535078718855
 21
-2852.592921901393
 31
0.0
  0
LINE
  5
153
330
1F
100
AcDbEntity
  8
A-4_寸法
  6
Continuous
 62
     7
370
     9
100
AcDbLine
 10
-4893.672427615604
 20
-2605.758089632601
 30
0.0
 11
-4903.651057062922
 21
-2481.157292546452
 31
0.0
  0
LINE
  5
154
330
1F
100
AcDbEntity
  8
A-4_寸法
  6
Continuous
 62
     7
370
     9
100
AcDbLine
 10
-4893.672427615604
 20
-2605.758089632601
 30
0.0
 11
-4935.560277990393
 21
-2487.985394452069
 31
0.0
  0
LINE
  5
155
330
1F
100
AcDbEntity
  8
A-4_寸法
  6
Continuous
 62
     7
370
     9
100
AcDbLine
 10
-4836.144524651604
 20
-2874.587229135874
 30
0.0
 11
-4927.924903663429
 21
-2445.694217166385
 31
0.0
  0
LINE
  5
156
330
1F
100
AcDbEntity
  8
A-4_寸法
  6
Continuous
 62
     7
370
     9
100
AcDbLine
 10
-1779.485754064611
 20
-2622.824632799303
 30
0.0
 11
-1779.485754064611
 21
-2441.973959433066
 31
0.0
  0
LINE
  5
157
330
1F
100
AcDbEntity
  8
A-4_寸法
  6
Continuous
 62
     7
370
     9
100
AcDbLine
 10
-1904.486166464315
 20
-2622.824632799303
 30
0.0
 11
-1904.486166464315
 21
-2441.973959433066
 31
0.0
  0
LINE
  5
158
330
1F
100
AcDbEntity
  8
A-4_寸法
  6
Continuous
 62
     7
370
     9
100
AcDbLine
 10
-1779.485754064611
 20
-2456.973761481207
 30
0.0
 11
-1655.55428169869
 21
-2440.658198176203
 31
0.0
  0
LINE
  5
159
330
1F
100
AcDbEntity
  8
A-4_寸法
  6
Continuous
 62
     7
370
     9
100
AcDbLine
 10
-1779.485754064611
 20
-2456.973761481207
 30
0.0
 11
-1655.55428169869
 21
-2473.289943385768
 31
0.0
  0
LINE
  5
15A
330
1F
100
AcDbEntity
  8
A-4_寸法
  6
Continuous
 62
     7
370
     9
100
AcDbLine
 10
-1904.486166464315
 20
-2456.973761481207
 30
0.0
 11
-2028.417638830236
 21
-2440.658198176203
 31
0.0
  0
LINE
  5
15B
330
1F
100
AcDbEntity
  8
A-4_寸法
  6
Continuous
 62
     7
370
     9
100
AcDbLine
 10
-1904.486166464315
 20
-2456.973761481207
 30
0.0
 11
-2028.417638830236
 21
-2473.289943385768
 31
0.0
  0
LINE
  5
15C
330
1F
100
AcDbEntity
  8
A-4_寸法
  6
Continuous
 62
     7
370
     9
100
AcDbLine
 10
-1640.123315759607
 20
-2456.973761481207
 30
0.0
 11
-2042.902147447741
 21
-2456.973761481207
 31
0.0
  0
LINE
  5
15D
330
1F
100
AcDbEntity
  8
A-4_寸法
  6
Continuous
 62
     7
370
     9
100
AcDbLine
 10
-1804.487692343221
 20
-3239.690873429582
 30
0.0
 11
-1680.556219977301
 21
-3223.375310124577
 31
0.0
  0
LINE
  5
15E
330
1F
100
AcDbEntity
  8
A-4_寸法
  6
Continuous
 62
     7
370
     9
100
AcDbLine
 10
-1804.487692343221
 20
-3239.690873429582
 30
0.0
 11
-1680.556219977301
 21
-3256.006436734586
 31
0.0
  0
LINE
  5
15F
330
1F
100
AcDbEntity
  8
A-4_寸法
  6
Continuous
 62
     7
370
     9
100
AcDbLine
 10
-1879.487321183488
 20
-3239.690873429582
 30
0.0
 11
-2003.415700551625
 21
-3223.375310124577
 31
0.0
  0
LINE
  5
160
330
1F
100
AcDbEntity
  8
A-4_寸法
  6
Continuous
 62
     7
370
     9
100
AcDbLine
 10
-1879.487321183488
 20
-3239.690873429582
 30
0.0
 11
-2003.415700551625
 21
-3256.006436734586
 31
0.0
  0
LINE
  5
161
330
1F
100
AcDbEntity
  8
A-4_寸法
  6
Continuous
 62
     7
370
     9
100
AcDbLine
 10
-1625.700048498204
 20
-3239.690873429582
 30
0.0
 11
-2028.052665091849
 21
-3239.690873429582
 31
0.0
  0
LINE
  5
162
330
1F
100
AcDbEntity
  8
A-4_寸法
  6
Continuous
 62
     7
370
     9
100
AcDbLine
 10
-5072.381509316933
 20
-2262.133459142736
 30
0.0
 11
-5072.381509316933
 21
-2082.327600427575
 31
0.0
  0
LINE
  5
163
330
1F
100
AcDbEntity
  8
A-4_寸法
  6
Continuous
 62
     7
370
     9
100
AcDbLine
 10
-5197.381921716638
 20
-2262.133459142736
 30
0.0
 11
-5197.381921716638
 21
-2082.327600427575
 31
0.0
  0
LINE
  5
164
330
1F
100
AcDbEntity
  8
A-4_寸法
  6
Continuous
 62
     7
370
     9
100
AcDbLine
 10
-5072.381509316933
 20
-2097.328021075274
 30
0.0
 11
-4948.451274150127
 21
-2081.01245777027
 31
0.0
  0
LINE
  5
165
330
1F
100
AcDbEntity
  8
A-4_寸法
  6
Continuous
 62
     7
370
     9
100
AcDbLine
 10
-5072.381509316933
 20
-2097.328021075274
 30
0.0
 11
-4948.451274150127
 21
-2113.643584380279
 31
0.0
  0
LINE
  5
166
330
1F
100
AcDbEntity
  8
A-4_寸法
  6
Continuous
 62
     7
370
     9
100
AcDbLine
 10
-5197.381921716638
 20
-2097.328021075274
 30
0.0
 11
-5321.312775483002
 21
-2081.01245777027
 31
0.0
  0
LINE
  5
167
330
1F
100
AcDbEntity
  8
A-4_寸法
  6
Continuous
 62
     7
370
     9
100
AcDbLine
 10
-5197.381921716638
 20
-2097.328021075274
 30
0.0
 11
-5321.312775483002
 21
-2113.643584380279
 31
0.0
  0
LINE
  5
168
330
1F
100
AcDbEntity
  8
A-4_寸法
  6
Continuous
 62
     7
370
     9
100
AcDbLine
 10
-4887.379414326436
 20
-2097.328021075274
 30
0.0
 11
-5359.323862436655
 21
-2097.328021075274
 31
0.0
  0
LINE
  5
169
330
1F
100
AcDbEntity
  8
A-4_寸法
  6
Continuous
 62
     7
370
     9
100
AcDbLine
 10
-1449.662079682221
 20
-4018.241717364337
 30
0.0
 11
-1449.662079682221
 21
-4368.242253483952
 31
0.0
  0
LINE
  5
16A
330
1F
100
AcDbEntity
  8
A-4_寸法
  6
Continuous
 62
     7
370
     9
100
AcDbLine
 10
-1449.662079682221
 20
-4018.241717364337
 30
0.0
 11
-5699.662492081925
 21
-4018.241717364337
 31
0.0
  0
LINE
  5
16B
330
1F
100
AcDbEntity
  8
A-4_寸法
  6
Continuous
 62
     7
370
     9
100
AcDbLine
 10
-5699.662492081925
 20
-4018.241717364337
 30
0.0
 11
-5699.662492081925
 21
-4368.242253483952
 31
0.0
  0
LINE
  5
16C
330
1F
100
AcDbEntity
  8
A-4_寸法
  6
Continuous
 62
     7
370
     9
100
AcDbLine
 10
-1449.662079682221
 20
-4368.242253483952
 30
0.0
 11
-5699.662492081925
 21
-4368.242253483952
 31
0.0
  0
LINE
  5
16D
330
1F
100
AcDbEntity
  8
A-4_寸法
  6
Continuous
 62
     7
370
     9
100
AcDbLine
 10
-4801.298811629012
 20
-2179.00481352935
 30
0.0
 11
-3552.831288930531
 21
-2179.00481352935
 31
0.0
  0
LINE
  5
16E
330
1F
100
AcDbEntity
  8
A-4_寸法
  6
Continuous
 62
     7
370
     9
100
AcDbLine
 10
-4801.298811629012
 20
-2179.00481352935
 30
0.0
 11
-5101.087003140836
 21
-2591.073773358319
 31
0.0
  0
LINE
  5
16F
330
1F
100
AcDbEntity
  8
A-4_寸法
  6
Continuous
 62
     7
370
     9
100
AcDbLine
 10
-5101.087003140836
 20
-2591.073773358319
 30
0.0
 11
-5041.372350744299
 21
-2481.258124274176
 31
0.0
  0
LINE
  5
170
330
1F
100
AcDbEntity
  8
A-4_寸法
  6
Continuous
 62
     7
370
     9
100
AcDbLine
 10
-5101.087003140836
 20
-2591.073773358319
 30
0.0
 11
-5014.985368058487
 21
-2500.45636151288
 31
0.0
  0
LINE
  5
171
330
1F
100
AcDbEntity
  8
A-4_寸法
  6
Continuous
 62
     2
370
     9
100
AcDbLine
 10
1175.675675675676
 20
-3215.544458337732
 30
0.0
 11
1175.675675675676
 21
-2965.54054054054
 31
0.0
  0
LINE
  5
172
330
1F
100
AcDbEntity
  8
A-4_寸法
  6
Continuous
 62
     2
370
     9
100
AcDbLine
 10
1175.675675675676
 20
-2965.54054054054
 30
0.0
 11
2300.675675675677
 21
-2965.54054054054
 31
0.0
  0
LINE
  5
173
330
1F
100
AcDbEntity
  8
A-4_寸法
  6
Continuous
 62
     2
370
     9
100
AcDbLine
 10
2300.675675675677
 20
-2965.54054054054
 30
0.0
 11
2300.675675675677
 21
-3215.544458337732
 31
0.0
  0
LINE
  5
174
330
1F
100
AcDbEntity
  8
A-4_寸法
  6
Continuous
 62
     2
370
     9
100
AcDbLine
 10
2300.675675675677
 20
-3215.544458337732
 30
0.0
 11
1175.675675675676
 21
-3215.544458337732
 31
0.0
  0
LINE
  5
175
330
1F
100
AcDbEntity
  8
A-2_蓋
  6
Continuous
 62
     3
370
     9
100
AcDbLine
 10
3032.972593565245
 20
3781.356564083616
 30
0.0
 11
3032.972593565245
 21
3292.940046980574
 31
0.0
  0
LINE
  5
176
330
1F
100
AcDbEntity
  8
A-2_蓋
  6
Continuous
 62
     3
370
     9
100
AcDbLine
 10
3032.972593565245
 20
3259.773213154561
 30
0.0
 11
3032.972593565245
 21
2292.939840780723
 31
0.0
  0
LINE
  5
177
330
1F
100
AcDbEntity
  8
A-2_蓋
  6
Continuous
 62
     3
370
     9
100
AcDbLine
 10
3032.972593565245
 20
2259.77300695471
 30
0.0
 11
3032.972593565245
 21
1292.939015981314
 31
0.0
  0
LINE
  5
178
330
1F
100
AcDbEntity
  8
A-2_蓋
  6
Continuous
 62
     3
370
     9
100
AcDbLine
 10
-5912.432283968538
 20
-273.6439472920182
 30
0.0
 11
-5912.432283968538
 21
3826.355970228042
 31
0.0
  0
LINE
  5
179
330
1F
100
AcDbEntity
  8
A-2_蓋
  6
Continuous
 62
     3
370
     9
100
AcDbLine
 10
3042.972873997044
 20
3781.356564083616
 30
0.0
 11
3042.972873997044
 21
-228.6445411475924
 31
0.0
  0
LINE
  5
17A
330
1F
100
AcDbEntity
  8
A-2_蓋
  6
Continuous
 62
     3
370
     9
100
AcDbLine
 10
3032.972593565245
 20
1259.773419354414
 30
0.0
 11
3032.972593565245
 21
-228.6445411475924
 31
0.0
  0
LINE
  5
17B
330
1F
100
AcDbEntity
  8
A-2_蓋
  6
Continuous
 62
     3
370
     9
100
AcDbLine
 10
2957.972346125422
 20
266.2425273173568
 30
0.0
 11
2957.972346125422
 21
222.1685461095859
 31
0.0
  0
LINE
  5
17C
330
1F
100
AcDbEntity
  8
A-2_蓋
  6
Continuous
 62
     3
370
     9
100
AcDbLine
 10
2957.972346125422
 20
222.1685461095859
 30
0.0
 11
2972.973385372677
 21
217.056439373944
 31
0.0
  0
LINE
  5
17D
330
1F
100
AcDbEntity
  8
A-2_蓋
  6
Continuous
 62
     3
370
     9
100
AcDbLine
 10
2957.972346125422
 20
266.2425273173568
 30
0.0
 11
2972.973385372677
 21
271.355871252112
 31
0.0
  0
LINE
  5
17E
330
1F
100
AcDbEntity
  8
A-2_蓋
  6
Continuous
 62
     3
370
     9
100
AcDbLine
 10
2972.973385372677
 20
217.056439373944
 30
0.0
 11
2972.973385372677
 21
165.9242372255065
 31
0.0
  0
LINE
  5
17F
330
1F
100
AcDbEntity
  8
A-2_蓋
  6
Continuous
 62
     3
370
     9
100
AcDbLine
 10
2957.972346125422
 20
160.8108932907527
 30
0.0
 11
2972.973385372677
 21
165.9242372255065
 31
0.0
  0
LINE
  5
180
330
1F
100
AcDbEntity
  8
A-2_蓋
  6
Continuous
 62
     3
370
     9
100
AcDbLine
 10
2957.972346125422
 20
160.8108932907527
 30
0.0
 11
2957.972346125422
 21
95.33707902238149
 31
0.0
  0
LINE
  5
181
330
1F
100
AcDbEntity
  8
A-2_蓋
  6
Continuous
 62
     3
370
     9
100
AcDbLine
 10
2957.972346125422
 20
95.33707902238149
 30
0.0
 11
2972.973385372677
 21
90.22373508762769
 31
0.0
  0
LINE
  5
182
330
1F
100
AcDbEntity
  8
A-2_蓋
  6
Continuous
 62
     3
370
     9
100
AcDbLine
 10
2972.973385372677
 20
90.22373508762769
 30
0.0
 11
2972.973385372677
 21
24.48639740815111
 31
0.0
  0
LINE
  5
183
330
1F
100
AcDbEntity
  8
A-2_蓋
  6
Continuous
 62
     3
370
     9
100
AcDbLine
 10
2957.972346125422
 20
19.37305347339588
 30
0.0
 11
2957.972346125422
 21
-24.700927734375
 31
0.0
  0
LINE
  5
184
330
1F
100
AcDbEntity
  8
A-2_蓋
  6
Continuous
 62
     3
370
     9
100
AcDbLine
 10
2957.972346125422
 20
-24.700927734375
 30
0.0
 11
2972.973385372677
 21
-29.81303447001693
 31
0.0
  0
LINE
  5
185
330
1F
100
AcDbEntity
  8
A-2_蓋
  6
Continuous
 62
     3
370
     9
100
AcDbLine
 10
2957.972346125422
 20
19.37305347339588
 30
0.0
 11
2972.973385372677
 21
24.48639740815111
 31
0.0
  0
LINE
  5
186
330
1F
100
AcDbEntity
  8
A-2_蓋
  6
Continuous
 62
     3
370
     9
100
AcDbLine
 10
2972.973385372677
 20
-29.81303447001693
 30
0.0
 11
2972.973385372677
 21
-80.94523661845443
 31
0.0
  0
LINE
  5
187
330
1F
100
AcDbEntity
  8
A-2_蓋
  6
Continuous
 62
     3
370
     9
100
AcDbLine
 10
2957.972346125422
 20
-86.05858055320965
 30
0.0
 11
2972.973385372677
 21
-80.94523661845443
 31
0.0
  0
LINE
  5
188
330
1F
100
AcDbEntity
  8
A-2_蓋
  6
Continuous
 62
     3
370
     9
100
AcDbLine
 10
2957.972346125422
 20
-86.05858055320965
 30
0.0
 11
2957.972346125422
 21
-151.5323948215794
 31
0.0
  0
LINE
  5
189
330
1F
100
AcDbEntity
  8
A-2_蓋
  6
Continuous
 62
     3
370
     9
100
AcDbLine
 10
2957.972346125422
 20
-151.5323948215794
 30
0.0
 11
2972.973385372677
 21
-156.6457387563347
 31
0.0
  0
LINE
  5
18A
330
1F
100
AcDbEntity
  8
A-2_蓋
  6
Continuous
 62
     3
370
     9
100
AcDbLine
 10
2972.973385372677
 20
-156.6457387563347
 30
0.0
 11
2972.973385372677
 21
-273.6439472920182
 31
0.0
  0
LINE
  5
18B
330
1F
100
AcDbEntity
  8
A-2_蓋
  6
Continuous
 62
     3
370
     9
100
AcDbLine
 10
-5862.42964461043
 20
-228.6457783467057
 30
0.0
 11
-5862.42964461043
 21
246.3557887721706
 31
0.0
  0
LINE
  5
18C
330
1F
100
AcDbEntity
  8
A-2_蓋
  6
Continuous
 62
     3
370
     9
100
AcDbLine
 10
-5862.42964461043
 20
306.3556155642956
 30
0.0
 11
-5862.42964461043
 21
1246.355994972023
 31
0.0
  0
ARC
  5
18D
330
1F
100
AcDbEntity
  8
A-1_ピット
  6
Continuous
 62
     2
370
     9
100
AcDbCircle
 10
3356.974008921031
 20
3420.357946447425
 30
0.0
 40
63.99999599199037
100
AcDbArc
 50
180.0
 51
270.0
  0
ARC
  5
18E
330
1F
100
AcDbEntity
  8
A-1_ピット
  6
Continuous
 62
     2
370
     9
100
AcDbCircle
 10
3828.971656593117
 20
3420.357946447425
 30
0.0
 40
63.99999599199037
100
AcDbArc
 50
270.0
 51
0.0
  0
ARC
  5
18F
330
1F
100
AcDbEntity
  8
A-1_ピット
  6
Continuous
 62
     2
370
     9
100
AcDbCircle
 10
3828.970419394005
 20
3420.357946447425
 30
0.0
 40
31.99999799599519
100
AcDbArc
 50
270.0
 51
0.0
  0
ARC
  5
190
330
1F
100
AcDbEntity
  8
A-1_ピット
  6
Continuous
 62
     2
370
     9
100
AcDbCircle
 10
3356.974008921031
 20
3692.358645877323
 30
0.0
 40
63.99999599199037
100
AcDbArc
 50
90.0
 51
180.0
  0
ARC
  5
191
330
1F
100
AcDbEntity
  8
A-1_ピット
  6
Continuous
 62
     2
370
     9
100
AcDbCircle
 10
3356.971534522805
 20
3692.356171479096
 30
0.0
 40
31.99999799599519
100
AcDbArc
 50
90.0
 51
180.0
  0
ARC
  5
192
330
1F
100
AcDbEntity
  8
A-1_ピット
  6
Continuous
 62
     2
370
     9
100
AcDbCircle
 10
3828.970419394005
 20
3692.356171479096
 30
0.0
 40
31.99999799599519
100
AcDbArc
 50
0.0
 51
90.0
  0
ARC
  5
193
330
1F
100
AcDbEntity
  8
A-1_ピット
  6
Continuous
 62
     2
370
     9
100
AcDbCircle
 10
3828.971656593117
 20
3692.358645877323
 30
0.0
 40
63.99999599199037
100
AcDbArc
 50
0.0
 51
90.0
  0
ARC
  5
194
330
1F
100
AcDbEntity
  8
A-1_ピット
  6
Continuous
 62
     2
370
     9
100
AcDbCircle
 10
3356.974008921031
 20
3420.357946447425
 30
0.0
 40
31.99999799599519
100
AcDbArc
 50
180.0
 51
270.0
  0
CIRCLE
  5
195
330
1F
100
AcDbEntity
  8
A-2_蓋
  6
Continuous
 62
     3
370
     9
100
AcDbCircle
 10
3007.972511085305
 20
3276.356630067567
 30
0.0
 40
29.9999979702202
  0
CIRCLE
  5
196
330
1F
100
AcDbEntity
  8
A-2_蓋
  6
Continuous
 62
     3
370
     9
100
AcDbCircle
 10
3007.972511085305
 20
2276.356423867716
 30
0.0
 40
29.9999979702202
  0
CIRCLE
  5
197
330
1F
100
AcDbEntity
  8
A-2_蓋
  6
Continuous
 62
     3
370
     9
100
AcDbCircle
 10
3007.972511085305
 20
1276.356217667863
 30
0.0
 40
29.9999979702202
  0
CIRCLE
  5
198
330
1F
100
AcDbEntity
  8
A-2_蓋
  6
Continuous
 62
     3
370
     9
100
AcDbCircle
 10
3007.972511085305
 20
276.3560114680118
 30
0.0
 40
29.9999979702202
  0
TEXT
  5
199
330
1F
100
AcDbEntity
  8
A-4_寸法
  6
Continuous
 62
     2
370
     9
100
AcDbText
 10
4314.770976958403
 20
-463.607355066248
 30
0.0
 40
152.4
  1
7
 50
90.0
  7
ＭＳ ゴシック
100
AcDbText
  0
TEXT
  5
19A
330
1F
100
AcDbEntity
  8
A-4_寸法
  6
Continuous
 62
     2
370
     9
100
AcDbText
 10
4314.770976958403
 20
-109.8937988281243
 30
0.0
 40
152.4
  1
40
 50
90.0
 41
1.0625
  7
ＭＳ ゴシック
100
AcDbText
  0
TEXT
  5
19B
330
1F
100
AcDbEntity
  8
A-4_寸法
  6
Continuous
 62
     2
370
     9
100
AcDbText
 10
4314.770976958403
 20
3450.106440363704
 30
0.0
 40
152.4
  1
40
 50
90.0
 41
1.0625
  7
ＭＳ ゴシック
100
AcDbText
  0
TEXT
  5
19C
330
1F
100
AcDbEntity
  8
A-4_寸法
  6
Continuous
 62
     2
370
     9
100
AcDbText
 10
4314.770976958403
 20
3938.88681772593
 30
0.0
 40
152.4
  1
7
 50
90.0
  7
ＭＳ ゴシック
100
AcDbText
  0
TEXT
  5
19D
330
1F
100
AcDbEntity
  8
A-4_寸法
  6
Continuous
 62
     7
370
     9
100
AcDbText
 10
-5487.162285882073
 20
-4647.093243243244
 30
0.0
 40
114.3
  1
※デルタパターンの配列は一定ではありません。
 41
1.159090909090909
  7
ＭＳ ゴシック
100
AcDbText
  0
TEXT
  5
19E
330
1F
100
AcDbEntity
  8
A-4_寸法
  6
Continuous
 62
     2
370
     9
100
AcDbText
 10
-5613.739534285261
 20
-2738.627016222154
 30
0.0
 40
152.4
  1
7.6
 50
90.0
 41
1.083333333333333
  7
ＭＳ ゴシック
100
AcDbText
  0
TEXT
  5
19F
330
1F
100
AcDbEntity
  8
A-4_寸法
  6
Continuous
 62
     2
370
     9
100
AcDbText
 10
-5613.739534285261
 20
-3609.616429096944
 30
0.0
 40
152.4
  1
5.4
 50
90.0
 41
1.083333333333333
  7
ＭＳ ゴシック
100
AcDbText
  0
TEXT
  5
1A0
330
1F
100
AcDbEntity
  8
A-4_寸法
  6
Continuous
 62
     2
370
     9
100
AcDbText
 10
-5184.882024816565
 20
-2019.127856115392
 30
0.0
 40
152.4
  1
5
  7
ＭＳ ゴシック
100
AcDbText
  0
TEXT
  5
1A1
330
1F
100
AcDbEntity
  8
A-4_寸法
  6
Continuous
 62
     2
370
     9
100
AcDbText
 10
-4814.587816998886
 20
-2601.618861362165
 30
0.0
 40
152.4
  1
5
 50
282.0786294638209
 41
0.9999999999999989
  7
ＭＳ ゴシック
100
AcDbText
  0
TEXT
  5
1A2
330
1F
100
AcDbEntity
  8
A-4_寸法
  6
Continuous
 62
     2
370
     9
100
AcDbText
 10
-1891.986269564241
 20
-2378.773596521326
 30
0.0
 40
152.4
  1
5
  7
ＭＳ ゴシック
100
AcDbText
  0
TEXT
  5
1A3
330
1F
100
AcDbEntity
  8
A-4_寸法
  6
Continuous
 62
     2
370
     9
100
AcDbText
 10
-1652.882075954127
 20
-3161.490089870143
 30
0.0
 40
152.4
  1
3
  7
ＭＳ ゴシック
100
AcDbText
  0
TEXT
  5
1A4
330
1F
100
AcDbEntity
  8
A-4_寸法
  6
Continuous
 62
     2
370
     9
100
AcDbText
 10
-1245.455463471284
 20
-3224.493696882918
 30
0.0
 40
152.4
  1
32
 50
90.0
 41
1.0625
  7
ＭＳ ゴシック
100
AcDbText
  0
TEXT
  5
1A5
330
1F
100
AcDbEntity
  8
A-4_寸法
  6
Continuous
 62
     7
370
     9
100
AcDbText
 10
-4750.224634118982
 20
-2123.148285406989
 30
0.0
 40
114.3
  1
デルタパターン
 41
1.142857142857143
  7
ＭＳ ゴシック
100
AcDbText
  0
TEXT
  5
1A6
330
1F
100
AcDbEntity
  8
A-4_寸法
  6
Continuous
 62
     2
370
     9
100
AcDbText
 10
-5587.16290448163
 20
-4265.04200604413
 30
0.0
 40
152.4
  1
ＤⅠ－３２　バー形状詳細　Ｓ＝１：２
 41
1.118055555555555
  7
ＭＳ ゴシック
100
AcDbText
  0
TEXT
  5
1A7
330
1F
100
AcDbEntity
  8
A-4_寸法
  6
Continuous
 62
     2
370
     9
100
AcDbText
 10
3026.723542084566
 20
-842.4710815429687
 30
0.0
 40
152.4
  1
32
 41
1.0625
  7
ＭＳ ゴシック
100
AcDbText
  0
TEXT
  5
1A8
330
1F
100
AcDbEntity
  8
A-4_寸法
  6
Continuous
 62
     2
370
     9
100
AcDbText
 10
1413.176912874789
 20
-3162.343138658678
 30
0.0
 40
152.4
  1
仕　様
 41
1.083333333333333
  7
ＭＳ ゴシック
100
AcDbText
  0
TEXT
  5
1A9
330
1F
100
AcDbEntity
  8
A-4_寸法
  6
Continuous
 62
     2
370
     9
100
AcDbText
 10
1984.685083337733
 20
-4301.940850995038
 30
0.0
 40
152.4
  1
処理：溶融亜鉛めっき
 41
1.1125
  7
ＭＳ ゴシック
100
AcDbText
  0
TEXT
  5
1AA
330
1F
100
AcDbEntity
  8
A-4_寸法
  6
Continuous
 62
     2
370
     9
100
AcDbText
 10
1686.123203586888
 20
-3476.946170951225
 30
0.0
 40
152.4
  1
ノンスリップタイプ
 41
1.111111111111111
  7
ＭＳ ゴシック
100
AcDbText
  0
TEXT
  5
1AB
330
1F
100
AcDbEntity
  8
A-4_寸法
  6
Continuous
 62
     2
370
     9
100
AcDbText
 10
1984.685454497468
 20
-4026.935613518793
 30
0.0
 40
152.4
  1
材質：ＳＳ４００＋ＳＴＫＲ４００
 41
1.1171875
  7
ＭＳ ゴシック
100
AcDbText
  0
TEXT
  5
1AC
330
1F
100
AcDbEntity
  8
A-4_寸法
  6
Continuous
 62
     2
370
     9
100
AcDbText
 10
2414.77336887669
 20
1613.856011468011
 30
0.0
 40
152.4
  1
410
 50
90.0
 41
1.083333333333333
  7
ＭＳ ゴシック
100
AcDbText
  0
TEXT
  5
1AD
330
1F
100
AcDbEntity
  8
A-4_寸法
  6
Continuous
 62
     2
370
     9
100
AcDbText
 10
4334.771537822003
 20
1613.856011468011
 30
0.0
 40
152.4
  1
316
 50
90.0
 41
1.083333333333333
  7
ＭＳ ゴシック
100
AcDbText
  0
TEXT
  5
1AE
330
1F
100
AcDbEntity
  8
A-4_寸法
  6
Continuous
 62
     2
370
     9
100
AcDbText
 10
3486.722832757074
 20
-842.4710815429687
 30
0.0
 40
152.4
  1
60
 41
1.0625
  7
ＭＳ ゴシック
100
AcDbText
  0
TEXT
  5
1AF
330
1F
100
AcDbEntity
  8
A-4_寸法
  6
Continuous
 62
     2
370
     9
100
AcDbText
 10
3326.723294644743
 20
-1242.47116402291
 30
0.0
 40
152.4
  1
92
 41
1.0625
  7
ＭＳ ゴシック
100
AcDbText
  0
TEXT
  5
1B0
330
1F
100
AcDbEntity
  8
A-4_寸法
  6
Continuous
 62
     2
370
     9
100
AcDbText
 10
1686.122708707244
 20
-3751.950789827913
 30
0.0
 40
152.4
  1
圧接式細目グレーチング　ＱＸＪ　４１３２Ａ
 41
1.119047619047619
  7
ＭＳ ゴシック
100
AcDbText
  0
LWPOLYLINE
  5
1B1
330
1F
100
AcDbEntity
  8
A-4_寸法
  6
Continuous
 62
     7
370
     9
100
AcDbPolyline
 90
        4
 70
     1
 43
5.0
 10
-5909.932283968538
 20
-900.6719228383658
 42
0.4142135623731
 10
-5912.432283968538
 20
-898.1719228383658
 42
0.4142135623731
 10
-5914.932283968538
 20
-900.6719228383658
 42
0.4142135623731
 10
-5912.432283968538
 20
-903.171922838366
 42
0.4142135623731
  0
LWPOLYLINE
  5
1B2
330
1F
100
AcDbEntity
  8
A-4_寸法
  6
Continuous
 62
     7
370
     9
100
AcDbPolyline
 90
        4
 70
     1
 43
5.0
 10
2975.473385372677
 20
-900.6713042388085
 42
0.4142135623731
 10
2972.973385372677
 20
-898.1713042388085
 42
0.4142135623731
 10
2970.473385372677
 20
-900.6713042388085
 42
0.4142135623731
 10
2972.973385372677
 20
-903.1713042388086
 42
0.4142135623731
  0
LWPOLYLINE
  5
1B3
330
1F
100
AcDbEntity
  8
A-4_寸法
  6
Continuous
 62
     7
370
     9
100
AcDbPolyline
 90
        4
 70
     1
 43
5.0
 10
3295.473698796453
 20
-900.6713042388085
 42
0.4142135623731
 10
3292.973698796453
 20
-898.1713042388085
 42
0.4142135623731
 10
3290.473698796453
 20
-900.6713042388085
 42
0.4142135623731
 10
3292.973698796453
 20
-903.1713042388086
 42
0.4142135623731
  0
LWPOLYLINE
  5
1B4
330
1F
100
AcDbEntity
  8
A-4_寸法
  6
Continuous
 62
     7
370
     9
100
AcDbPolyline
 90
        4
 70
     1
 43
5.0
 10
3895.471966717695
 20
-900.6713042388085
 42
0.4142135623731
 10
3892.971966717696
 20
-898.1713042388085
 42
0.4142135623731
 10
3890.471966717696
 20
-900.6713042388085
 42
0.4142135623731
 10
3892.971966717696
 20
-903.1713042388086
 42
0.4142135623731
  0
LWPOLYLINE
  5
1B5
330
1F
100
AcDbEntity
  8
A-4_寸法
  6
Continuous
 62
     7
370
     9
100
AcDbPolyline
 90
        4
 70
     1
 43
5.0
 10
2975.473385372677
 20
-1300.67138671875
 42
0.4142135623731
 10
2972.973385372677
 20
-1298.17138671875
 42
0.4142135623731
 10
2970.473385372677
 20
-1300.67138671875
 42
0.4142135623731
 10
2972.973385372677
 20
-1303.17138671875
 42
0.4142135623731
  0
LWPOLYLINE
  5
1B6
330
1F
100
AcDbEntity
  8
A-4_寸法
  6
Continuous
 62
     7
370
     9
100
AcDbPolyline
 90
        4
 70
     1
 43
5.0
 10
3895.471966717695
 20
-1300.67138671875
 42
0.4142135623731
 10
3892.971966717696
 20
-1298.17138671875
 42
0.4142135623731
 10
3890.471966717696
 20
-1300.67138671875
 42
0.4142135623731
 10
3892.971966717696
 20
-1303.17138671875
 42
0.4142135623731
  0
LWPOLYLINE
  5
1B7
330
1F
100
AcDbEntity
  8
A-4_寸法
  6
Continuous
 62
     7
370
     9
100
AcDbPolyline
 90
        4
 70
     1
 43
5.0
 10
2475.472972972974
 20
-273.6439472920182
 42
0.4142135623731
 10
2472.972972972974
 20
-271.1439472920182
 42
0.4142135623731
 10
2470.472972972974
 20
-273.6439472920182
 42
0.4142135623731
 10
2472.972972972974
 20
-276.1439472920182
 42
0.4142135623731
  0
LWPOLYLINE
  5
1B8
330
1F
100
AcDbEntity
  8
A-4_寸法
  6
Continuous
 62
     7
370
     9
100
AcDbPolyline
 90
        4
 70
     1
 43
5.0
 10
2475.472972972974
 20
3826.355970228042
 42
0.4142135623731
 10
2472.972972972974
 20
3828.855970228042
 42
0.4142135623731
 10
2470.472972972974
 20
3826.355970228042
 42
0.4142135623731
 10
2472.972972972974
 20
3823.855970228042
 42
0.4142135623731
  0
LWPOLYLINE
  5
1B9
330
1F
100
AcDbEntity
  8
A-4_寸法
  6
Continuous
 62
     7
370
     9
100
AcDbPolyline
 90
        4
 70
     1
 43
5.0
 10
4395.471141918287
 20
-273.6439472920182
 42
0.4142135623731
 10
4392.971141918287
 20
-271.1439472920182
 42
0.4142135623731
 10
4390.471141918287
 20
-273.6439472920182
 42
0.4142135623731
 10
4392.971141918287
 20
-276.1439472920182
 42
0.4142135623731
  0
LWPOLYLINE
  5
1BA
330
1F
100
AcDbEntity
  8
A-4_寸法
  6
Continuous
 62
     7
370
     9
100
AcDbPolyline
 90
        4
 70
     1
 43
5.0
 10
4395.471141918287
 20
-203.644458667651
 42
0.4142135623731
 10
4392.971141918287
 20
-201.144458667651
 42
0.4142135623731
 10
4390.471141918287
 20
-203.644458667651
 42
0.4142135623731
 10
4392.971141918287
 20
-206.144458667651
 42
0.4142135623731
  0
LWPOLYLINE
  5
1BB
330
1F
100
AcDbEntity
  8
A-4_寸法
  6
Continuous
 62
     7
370
     9
100
AcDbPolyline
 90
        4
 70
     1
 43
5.0
 10
4395.471141918287
 20
196.3568610114024
 42
0.4142135623731
 10
4392.971141918287
 20
198.8568610114024
 42
0.4142135623731
 10
4390.471141918287
 20
196.3568610114024
 42
0.4142135623731
 10
4392.971141918287
 20
193.8568610114024
 42
0.4142135623731
  0
LWPOLYLINE
  5
1BC
330
1F
100
AcDbEntity
  8
A-4_寸法
  6
Continuous
 62
     7
370
     9
100
AcDbPolyline
 90
        4
 70
     1
 43
5.0
 10
4395.471141918287
 20
3356.355161924621
 42
0.4142135623731
 10
4392.971141918287
 20
3358.855161924621
 42
0.4142135623731
 10
4390.471141918287
 20
3356.355161924621
 42
0.4142135623731
 10
4392.971141918287
 20
3353.855161924621
 42
0.4142135623731
  0
LWPOLYLINE
  5
1BD
330
1F
100
AcDbEntity
  8
A-4_寸法
  6
Continuous
 62
     7
370
     9
100
AcDbPolyline
 90
        4
 70
     1
 43
5.0
 10
4395.471141918287
 20
3756.356481603675
 42
0.4142135623731
 10
4392.971141918287
 20
3758.856481603674
 42
0.4142135623731
 10
4390.471141918287
 20
3756.356481603675
 42
0.4142135623731
 10
4392.971141918287
 20
3753.856481603675
 42
0.4142135623731
  0
LWPOLYLINE
  5
1BE
330
1F
100
AcDbEntity
  8
A-4_寸法
  6
Continuous
 62
     7
370
     9
100
AcDbPolyline
 90
        4
 70
     1
 43
5.0
 10
4395.471141918287
 20
3826.355970228042
 42
0.4142135623731
 10
4392.971141918287
 20
3828.855970228042
 42
0.4142135623731
 10
4390.471141918287
 20
3826.355970228042
 42
0.4142135623731
 10
4392.971141918287
 20
3823.855970228042
 42
0.4142135623731
  0
LINE
  5
1BF
330
1F
100
AcDbEntity
  8
A-5_仕様文
  6
Continuous
 62
     7
370
     9
100
AcDbLine
 10
3617.973533836573
 20
3756.357718802788
 30
0.0
 11
3665.808600348396
 21
3871.842832823059
 31
0.0
  0
LINE
  5
1C0
330
1F
100
AcDbEntity
  8
A-5_仕様文
  6
Continuous
 62
     7
370
     9
100
AcDbLine
 10
3617.973533836573
 20
3756.357718802788
 30
0.0
 11
3694.068702491555
 21
3855.526650918498
 31
0.0
  0
LINE
  5
1C1
330
1F
100
AcDbEntity
  8
A-5_仕様文
  6
Continuous
 62
     7
370
     9
100
AcDbLine
 10
3617.973533836573
 20
3756.357718802788
 30
0.0
 11
4178.004084406672
 21
4726.357702306799
 31
0.0
  0
LINE
  5
1C2
330
1F
100
AcDbEntity
  8
A-5_仕様文
  6
Continuous
 62
     7
370
     9
100
AcDbLine
 10
4178.004084406672
 20
4726.357702306799
 30
0.0
 11
7096.741135055956
 21
4726.357702306799
 31
0.0
  0
TEXT
  5
1C3
330
1F
100
AcDbEntity
  8
A-5_仕様文
  6
Continuous
 62
     7
370
     9
100
AcDbText
 10
4269.863891601562
 20
4832.252129961993
 30
0.0
 40
114.3
  1
かさ上げ材：□６０×４０×３．２
 41
1.15625
  7
ＭＳ ゴシック
100
AcDbText
  0
LINE
  5
1C4
330
1F
100
AcDbEntity
  8
A-1_ピット
  6
JWW_DASHED1
 62
     2
370
     9
100
AcDbLine
 10
-5862.42964461043
 20
3356.356399123733
 30
0.0
 11
-5862.42964461043
 21
3756.356481603675
 31
0.0
  0
LINE
  5
1C5
330
1F
100
AcDbEntity
  8
A-1_ピット
  6
JWW_DASHED1
 62
     2
370
     9
100
AcDbLine
 10
-5862.42964461043
 20
196.3550052127331
 30
0.0
 11
-5862.42964461043
 21
56.35540936444272
 31
0.0
  0
LINE
  5
1C6
330
1F
100
AcDbEntity
  8
A-1_ピット
  6
JWW_DASHED1
 62
     2
370
     9
100
AcDbLine
 10
-5862.42964461043
 20
-3.644417427680935
 30
0.0
 11
-5862.42964461043
 21
-203.6450772672083
 31
0.0
  0
LINE
  5
1C7
330
1F
100
AcDbEntity
  8
A-2_蓋
  6
Continuous
 62
     3
370
     9
100
AcDbLine
 10
-912.4322839685384
 20
-273.6439472920182
 30
0.0
 11
-5912.432283968538
 21
-273.6439472920182
 31
0.0
  0
LINE
  5
1C8
330
1F
100
AcDbEntity
  8
A-2_蓋
  6
Continuous
 62
     3
370
     9
100
AcDbLine
 10
-5912.432283968538
 20
3826.355970228042
 30
0.0
 11
-912.4322839685384
 21
3826.355970228042
 31
0.0
  0
LINE
  5
1C9
330
1F
100
AcDbEntity
  8
A-2_蓋
  6
Continuous
 62
     3
370
     9
100
AcDbLine
 10
-5912.432283968538
 20
3781.351615287163
 30
0.0
 11
-912.4322839685384
 21
3781.351615287163
 31
0.0
  0
LINE
  5
1CA
330
1F
100
AcDbEntity
  8
A-2_蓋
  6
Continuous
 62
     3
370
     9
100
AcDbLine
 10
-912.4322839685384
 20
-228.6457783467057
 30
0.0
 11
-5912.432283968538
 21
-228.6457783467057
 31
0.0
  0
LINE
  5
1CB
330
1F
100
AcDbEntity
  8
A-2_蓋
  6
Continuous
 62
     3
370
     9
100
AcDbLine
 10
-912.4322839685384
 20
2246.356819771432
 30
0.0
 11
-5912.432283968538
 21
2246.356819771432
 31
0.0
  0
LINE
  5
1CC
330
1F
100
AcDbEntity
  8
A-2_蓋
  6
Continuous
 62
     3
370
     9
100
AcDbLine
 10
-912.4322839685384
 20
2306.356027964
 30
0.0
 11
-5912.432283968538
 21
2306.356027964
 31
0.0
  0
LINE
  5
1CD
330
1F
100
AcDbEntity
  8
A-2_蓋
  6
Continuous
 62
     3
370
     9
100
AcDbLine
 10
-912.4322839685384
 20
1306.355821764147
 30
0.0
 11
-5912.432283968538
 21
1306.355821764147
 31
0.0
  0
LINE
  5
1CE
330
1F
100
AcDbEntity
  8
A-2_蓋
  6
Continuous
 62
     3
370
     9
100
AcDbLine
 10
-912.4322839685384
 20
1246.355994972023
 30
0.0
 11
-5912.432283968538
 21
1246.355994972023
 31
0.0
  0
LINE
  5
1CF
330
1F
100
AcDbEntity
  8
A-2_蓋
  6
Continuous
 62
     3
370
     9
100
AcDbLine
 10
-962.4299745301932
 20
1306.355821764147
 30
0.0
 11
-962.4299745301932
 21
2246.356819771432
 31
0.0
  0
LINE
  5
1D0
330
1F
100
AcDbEntity
  8
A-2_蓋
  6
Continuous
 62
     3
370
     9
100
AcDbLine
 10
-962.4299745301932
 20
2306.356027964
 30
0.0
 11
-962.4299745301932
 21
3246.354551573059
 31
0.0
  0
LINE
  5
1D1
330
1F
100
AcDbEntity
  8
A-2_蓋
  6
Continuous
 62
     3
370
     9
100
AcDbLine
 10
-962.4299745301932
 20
3306.356234163852
 30
0.0
 11
-962.4299745301932
 21
3781.351615287163
 31
0.0
  0
LINE
  5
1D2
330
1F
100
AcDbEntity
  8
A-2_蓋
  6
Continuous
 62
     3
370
     9
100
AcDbLine
 10
-912.4322839685384
 20
3306.356234163852
 30
0.0
 11
-5912.432283968538
 21
3306.356234163852
 31
0.0
  0
LINE
  5
1D3
330
1F
100
AcDbEntity
  8
A-2_蓋
  6
Continuous
 62
     3
370
     9
100
AcDbLine
 10
-912.4322839685384
 20
3246.354551573059
 30
0.0
 11
-5912.432283968538
 21
3246.354551573059
 31
0.0
  0
LINE
  5
1D4
330
1F
100
AcDbEntity
  8
A-4_寸法
  6
Continuous
 62
     7
370
     9
100
AcDbLine
 10
-912.4322839685384
 20
-398.6443596917226
 30
0.0
 11
-912.4322839685384
 21
-915.6717248865078
 31
0.0
  0
LINE
  5
1D5
330
1F
100
AcDbEntity
  8
A-2_蓋
  6
Continuous
 62
     3
370
     9
100
AcDbLine
 10
-912.4322839685384
 20
-273.6439472920182
 30
0.0
 11
-912.4322839685384
 21
3826.355970228042
 31
0.0
  0
LINE
  5
1D6
330
1F
100
AcDbEntity
  8
A-2_蓋
  6
Continuous
 62
     3
370
     9
100
AcDbLine
 10
-912.4322839685384
 20
306.3556155642956
 30
0.0
 11
-5912.432283968538
 21
306.3556155642956
 31
0.0
  0
LINE
  5
1D7
330
1F
100
AcDbEntity
  8
A-2_蓋
  6
Continuous
 62
     3
370
     9
100
AcDbLine
 10
-912.4322839685384
 20
246.3557887721706
 30
0.0
 11
-5912.432283968538
 21
246.3557887721706
 31
0.0
  0
LINE
  5
1D8
330
1F
100
AcDbEntity
  8
A-2_蓋
  6
Continuous
 62
     3
370
     9
100
AcDbLine
 10
-962.4299745301932
 20
-228.6457783467057
 30
0.0
 11
-962.4299745301932
 21
246.3557887721706
 31
0.0
  0
LINE
  5
1D9
330
1F
100
AcDbEntity
  8
A-2_蓋
  6
Continuous
 62
     3
370
     9
100
AcDbLine
 10
-962.4299745301932
 20
306.3556155642956
 30
0.0
 11
-962.4299745301932
 21
1246.355994972023
 31
0.0
  0
LWPOLYLINE
  5
1DA
330
1F
100
AcDbEntity
  8
A-4_寸法
  6
Continuous
 62
     7
370
     9
100
AcDbPolyline
 90
        4
 70
     1
 43
5.0
 10
-909.9322839685383
 20
-900.6719228383658
 42
0.4142135623731
 10
-912.4322839685384
 20
-898.1719228383658
 42
0.4142135623731
 10
-914.9322839685384
 20
-900.6719228383658
 42
0.4142135623731
 10
-912.4322839685384
 20
-903.171922838366
 42
0.4142135623731
  0
LINE
  5
1DB
330
1F
100
AcDbEntity
  8
A-1_ピット
  6
JWW_DASHED1
 62
     2
370
     9
100
AcDbLine
 10
-5862.42964461043
 20
3356.356399123733
 30
0.0
 11
-962.4299745301932
 21
3356.356399123733
 31
0.0
  0
LINE
  5
1DC
330
1F
100
AcDbEntity
  8
A-1_ピット
  6
JWW_DASHED1
 62
     2
370
     9
100
AcDbLine
 10
-5862.42964461043
 20
3756.356481603675
 30
0.0
 11
-962.4299745301932
 21
3756.356481603675
 31
0.0
  0
LINE
  5
1DD
330
1F
100
AcDbEntity
  8
A-1_ピット
  6
JWW_DASHED1
 62
     2
370
     9
100
AcDbLine
 10
-962.4299745301932
 20
3356.356399123733
 30
0.0
 11
-962.4299745301932
 21
3756.356481603675
 31
0.0
  0
LINE
  5
1DE
330
1F
100
AcDbEntity
  8
A-1_ピット
  6
JWW_DASHED1
 62
     2
370
     9
100
AcDbLine
 10
-5862.42964461043
 20
196.3550052127331
 30
0.0
 11
-962.4299745301932
 21
196.3550052127331
 31
0.0
  0
LINE
  5
1DF
330
1F
100
AcDbEntity
  8
A-1_ピット
  6
JWW_DASHED1
 62
     2
370
     9
100
AcDbLine
 10
-5862.42964461043
 20
-203.6450772672083
 30
0.0
 11
-962.4299745301932
 21
-203.6450772672083
 31
0.0
  0
LINE
  5
1E0
330
1F
100
AcDbEntity
  8
A-1_ピット
  6
JWW_DASHED1
 62
     2
370
     9
100
AcDbLine
 10
-962.4299745301932
 20
196.3550052127331
 30
0.0
 11
-962.4299745301932
 21
56.35540936444272
 31
0.0
  0
LINE
  5
1E1
330
1F
100
AcDbEntity
  8
A-1_ピット
  6
JWW_DASHED1
 62
     2
370
     9
100
AcDbLine
 10
-962.4299745301932
 20
-3.644417427680935
 30
0.0
 11
-962.4299745301932
 21
-203.6450772672083
 31
0.0
  0
LINE
  5
1E2
330
1F
100
AcDbEntity
  8
A-2_蓋
  6
Continuous
 62
     3
370
     9
100
AcDbLine
 10
-5762.432283968538
 20
1306.355821764147
 30
0.0
 11
-5762.432283968538
 21
2246.356819771432
 31
0.0
  0
LINE
  5
1E3
330
1F
100
AcDbEntity
  8
A-2_蓋
  6
Continuous
 62
     3
370
     9
100
AcDbLine
 10
-5712.435830605996
 20
1306.355821764147
 30
0.0
 11
-5712.435830605996
 21
2246.356819771432
 31
0.0
  0
LINE
  5
1E4
330
1F
100
AcDbEntity
  8
A-2_蓋
  6
Continuous
 62
     3
370
     9
100
AcDbLine
 10
-5762.432283968538
 20
2306.356027964
 30
0.0
 11
-5762.432283968538
 21
3246.354551573059
 31
0.0
  0
LINE
  5
1E5
330
1F
100
AcDbEntity
  8
A-2_蓋
  6
Continuous
 62
     3
370
     9
100
AcDbLine
 10
-5762.432283968538
 20
3306.356234163852
 30
0.0
 11
-5762.432283968538
 21
3781.351615287163
 31
0.0
  0
LINE
  5
1E6
330
1F
100
AcDbEntity
  8
A-2_蓋
  6
Continuous
 62
     3
370
     9
100
AcDbLine
 10
-5712.435830605996
 20
2306.356027964
 30
0.0
 11
-5712.435830605996
 21
3246.354551573059
 31
0.0
  0
LINE
  5
1E7
330
1F
100
AcDbEntity
  8
A-2_蓋
  6
Continuous
 62
     3
370
     9
100
AcDbLine
 10
-5712.435830605996
 20
3306.356234163852
 30
0.0
 11
-5712.435830605996
 21
3781.351615287163
 31
0.0
  0
LINE
  5
1E8
330
1F
100
AcDbEntity
  8
A-2_蓋
  6
Continuous
 62
     3
370
     9
100
AcDbLine
 10
-5762.432283968538
 20
-228.6457783467057
 30
0.0
 11
-5762.432283968538
 21
246.3557887721706
 31
0.0
  0
LINE
  5
1E9
330
1F
100
AcDbEntity
  8
A-2_蓋
  6
Continuous
 62
     3
370
     9
100
AcDbLine
 10
-5762.432283968538
 20
306.3556155642956
 30
0.0
 11
-5762.432283968538
 21
1246.355994972023
 31
0.0
  0
LINE
  5
1EA
330
1F
100
AcDbEntity
  8
A-2_蓋
  6
Continuous
 62
     3
370
     9
100
AcDbLine
 10
-5712.435830605996
 20
-228.6457783467057
 30
0.0
 11
-5712.435830605996
 21
246.3557887721706
 31
0.0
  0
LINE
  5
1EB
330
1F
100
AcDbEntity
  8
A-2_蓋
  6
Continuous
 62
     3
370
     9
100
AcDbLine
 10
-5712.435830605996
 20
306.3556155642956
 30
0.0
 11
-5712.435830605996
 21
1246.355994972023
 31
0.0
  0
LINE
  5
1EC
330
1F
100
AcDbEntity
  8
A-2_蓋
  6
Continuous
 62
     3
370
     9
100
AcDbLine
 10
-5612.432283968538
 20
1306.355821764147
 30
0.0
 11
-5612.432283968538
 21
2246.356819771432
 31
0.0
  0
LINE
  5
1ED
330
1F
100
AcDbEntity
  8
A-2_蓋
  6
Continuous
 62
     3
370
     9
100
AcDbLine
 10
-5562.435830605996
 20
1306.355821764147
 30
0.0
 11
-5562.435830605996
 21
2246.356819771432
 31
0.0
  0
LINE
  5
1EE
330
1F
100
AcDbEntity
  8
A-2_蓋
  6
Continuous
 62
     3
370
     9
100
AcDbLine
 10
-5612.432283968538
 20
2306.356027964
 30
0.0
 11
-5612.432283968538
 21
3246.354551573059
 31
0.0
  0
LINE
  5
1EF
330
1F
100
AcDbEntity
  8
A-2_蓋
  6
Continuous
 62
     3
370
     9
100
AcDbLine
 10
-5612.432283968538
 20
3306.356234163852
 30
0.0
 11
-5612.432283968538
 21
3781.351615287163
 31
0.0
  0
LINE
  5
1F0
330
1F
100
AcDbEntity
  8
A-2_蓋
  6
Continuous
 62
     3
370
     9
100
AcDbLine
 10
-5562.435830605996
 20
2306.356027964
 30
0.0
 11
-5562.435830605996
 21
3246.354551573059
 31
0.0
  0
LINE
  5
1F1
330
1F
100
AcDbEntity
  8
A-2_蓋
  6
Continuous
 62
     3
370
     9
100
AcDbLine
 10
-5562.435830605996
 20
3306.356234163852
 30
0.0
 11
-5562.435830605996
 21
3781.351615287163
 31
0.0
  0
LINE
  5
1F2
330
1F
100
AcDbEntity
  8
A-2_蓋
  6
Continuous
 62
     3
370
     9
100
AcDbLine
 10
-5612.432283968538
 20
-228.6457783467057
 30
0.0
 11
-5612.432283968538
 21
246.3557887721706
 31
0.0
  0
LINE
  5
1F3
330
1F
100
AcDbEntity
  8
A-2_蓋
  6
Continuous
 62
     3
370
     9
100
AcDbLine
 10
-5612.432283968538
 20
306.3556155642956
 30
0.0
 11
-5612.432283968538
 21
1246.355994972023
 31
0.0
  0
LINE
  5
1F4
330
1F
100
AcDbEntity
  8
A-2_蓋
  6
Continuous
 62
     3
370
     9
100
AcDbLine
 10
-5562.435830605996
 20
-228.6457783467057
 30
0.0
 11
-5562.435830605996
 21
246.3557887721706
 31
0.0
  0
LINE
  5
1F5
330
1F
100
AcDbEntity
  8
A-2_蓋
  6
Continuous
 62
     3
370
     9
100
AcDbLine
 10
-5562.435830605996
 20
306.3556155642956
 30
0.0
 11
-5562.435830605996
 21
1246.355994972023
 31
0.0
  0
LINE
  5
1F6
330
1F
100
AcDbEntity
  8
A-2_蓋
  6
Continuous
 62
     3
370
     9
100
AcDbLine
 10
-5462.432283968538
 20
1306.355821764147
 30
0.0
 11
-5462.432283968538
 21
2246.356819771432
 31
0.0
  0
LINE
  5
1F7
330
1F
100
AcDbEntity
  8
A-2_蓋
  6
Continuous
 62
     3
370
     9
100
AcDbLine
 10
-5412.435830605996
 20
1306.355821764147
 30
0.0
 11
-5412.435830605996
 21
2246.356819771432
 31
0.0
  0
LINE
  5
1F8
330
1F
100
AcDbEntity
  8
A-2_蓋
  6
Continuous
 62
     3
370
     9
100
AcDbLine
 10
-5462.432283968538
 20
2306.356027964
 30
0.0
 11
-5462.432283968538
 21
3246.354551573059
 31
0.0
  0
LINE
  5
1F9
330
1F
100
AcDbEntity
  8
A-2_蓋
  6
Continuous
 62
     3
370
     9
100
AcDbLine
 10
-5462.432283968538
 20
3306.356234163852
 30
0.0
 11
-5462.432283968538
 21
3781.351615287163
 31
0.0
  0
LINE
  5
1FA
330
1F
100
AcDbEntity
  8
A-2_蓋
  6
Continuous
 62
     3
370
     9
100
AcDbLine
 10
-5412.435830605996
 20
2306.356027964
 30
0.0
 11
-5412.435830605996
 21
3246.354551573059
 31
0.0
  0
LINE
  5
1FB
330
1F
100
AcDbEntity
  8
A-2_蓋
  6
Continuous
 62
     3
370
     9
100
AcDbLine
 10
-5412.435830605996
 20
3306.356234163852
 30
0.0
 11
-5412.435830605996
 21
3781.351615287163
 31
0.0
  0
LINE
  5
1FC
330
1F
100
AcDbEntity
  8
A-2_蓋
  6
Continuous
 62
     3
370
     9
100
AcDbLine
 10
-5462.432283968538
 20
-228.6457783467057
 30
0.0
 11
-5462.432283968538
 21
246.3557887721706
 31
0.0
  0
LINE
  5
1FD
330
1F
100
AcDbEntity
  8
A-2_蓋
  6
Continuous
 62
     3
370
     9
100
AcDbLine
 10
-5462.432283968538
 20
306.3556155642956
 30
0.0
 11
-5462.432283968538
 21
1246.355994972023
 31
0.0
  0
LINE
  5
1FE
330
1F
100
AcDbEntity
  8
A-2_蓋
  6
Continuous
 62
     3
370
     9
100
AcDbLine
 10
-5412.435830605996
 20
-228.6457783467057
 30
0.0
 11
-5412.435830605996
 21
246.3557887721706
 31
0.0
  0
LINE
  5
1FF
330
1F
100
AcDbEntity
  8
A-2_蓋
  6
Continuous
 62
     3
370
     9
100
AcDbLine
 10
-5412.435830605996
 20
306.3556155642956
 30
0.0
 11
-5412.435830605996
 21
1246.355994972023
 31
0.0
  0
LINE
  5
200
330
1F
100
AcDbEntity
  8
A-2_蓋
  6
Continuous
 62
     3
370
     9
100
AcDbLine
 10
-5312.432283968538
 20
1306.355821764147
 30
0.0
 11
-5312.432283968538
 21
2246.356819771432
 31
0.0
  0
LINE
  5
201
330
1F
100
AcDbEntity
  8
A-2_蓋
  6
Continuous
 62
     3
370
     9
100
AcDbLine
 10
-5262.435830605996
 20
1306.355821764147
 30
0.0
 11
-5262.435830605996
 21
2246.356819771432
 31
0.0
  0
LINE
  5
202
330
1F
100
AcDbEntity
  8
A-2_蓋
  6
Continuous
 62
     3
370
     9
100
AcDbLine
 10
-5312.432283968538
 20
2306.356027964
 30
0.0
 11
-5312.432283968538
 21
3246.354551573059
 31
0.0
  0
LINE
  5
203
330
1F
100
AcDbEntity
  8
A-2_蓋
  6
Continuous
 62
     3
370
     9
100
AcDbLine
 10
-5312.432283968538
 20
3306.356234163852
 30
0.0
 11
-5312.432283968538
 21
3781.351615287163
 31
0.0
  0
LINE
  5
204
330
1F
100
AcDbEntity
  8
A-2_蓋
  6
Continuous
 62
     3
370
     9
100
AcDbLine
 10
-5262.435830605996
 20
2306.356027964
 30
0.0
 11
-5262.435830605996
 21
3246.354551573059
 31
0.0
  0
LINE
  5
205
330
1F
100
AcDbEntity
  8
A-2_蓋
  6
Continuous
 62
     3
370
     9
100
AcDbLine
 10
-5262.435830605996
 20
3306.356234163852
 30
0.0
 11
-5262.435830605996
 21
3781.351615287163
 31
0.0
  0
LINE
  5
206
330
1F
100
AcDbEntity
  8
A-2_蓋
  6
Continuous
 62
     3
370
     9
100
AcDbLine
 10
-5312.432283968538
 20
-228.6457783467057
 30
0.0
 11
-5312.432283968538
 21
246.3557887721706
 31
0.0
  0
LINE
  5
207
330
1F
100
AcDbEntity
  8
A-2_蓋
  6
Continuous
 62
     3
370
     9
100
AcDbLine
 10
-5312.432283968538
 20
306.3556155642956
 30
0.0
 11
-5312.432283968538
 21
1246.355994972023
 31
0.0
  0
LINE
  5
208
330
1F
100
AcDbEntity
  8
A-2_蓋
  6
Continuous
 62
     3
370
     9
100
AcDbLine
 10
-5262.435830605996
 20
-228.6457783467057
 30
0.0
 11
-5262.435830605996
 21
246.3557887721706
 31
0.0
  0
LINE
  5
209
330
1F
100
AcDbEntity
  8
A-2_蓋
  6
Continuous
 62
     3
370
     9
100
AcDbLine
 10
-5262.435830605996
 20
306.3556155642956
 30
0.0
 11
-5262.435830605996
 21
1246.355994972023
 31
0.0
  0
LINE
  5
20A
330
1F
100
AcDbEntity
  8
A-2_蓋
  6
Continuous
 62
     3
370
     9
100
AcDbLine
 10
-5162.432283968538
 20
1306.355821764147
 30
0.0
 11
-5162.432283968538
 21
2246.356819771432
 31
0.0
  0
LINE
  5
20B
330
1F
100
AcDbEntity
  8
A-2_蓋
  6
Continuous
 62
     3
370
     9
100
AcDbLine
 10
-5112.435830605996
 20
1306.355821764147
 30
0.0
 11
-5112.435830605996
 21
2246.356819771432
 31
0.0
  0
LINE
  5
20C
330
1F
100
AcDbEntity
  8
A-2_蓋
  6
Continuous
 62
     3
370
     9
100
AcDbLine
 10
-5162.432283968538
 20
2306.356027964
 30
0.0
 11
-5162.432283968538
 21
3246.354551573059
 31
0.0
  0
LINE
  5
20D
330
1F
100
AcDbEntity
  8
A-2_蓋
  6
Continuous
 62
     3
370
     9
100
AcDbLine
 10
-5162.432283968538
 20
3306.356234163852
 30
0.0
 11
-5162.432283968538
 21
3781.351615287163
 31
0.0
  0
LINE
  5
20E
330
1F
100
AcDbEntity
  8
A-2_蓋
  6
Continuous
 62
     3
370
     9
100
AcDbLine
 10
-5112.435830605996
 20
2306.356027964
 30
0.0
 11
-5112.435830605996
 21
3246.354551573059
 31
0.0
  0
LINE
  5
20F
330
1F
100
AcDbEntity
  8
A-2_蓋
  6
Continuous
 62
     3
370
     9
100
AcDbLine
 10
-5112.435830605996
 20
3306.356234163852
 30
0.0
 11
-5112.435830605996
 21
3781.351615287163
 31
0.0
  0
LINE
  5
210
330
1F
100
AcDbEntity
  8
A-2_蓋
  6
Continuous
 62
     3
370
     9
100
AcDbLine
 10
-5162.432283968538
 20
-228.6457783467057
 30
0.0
 11
-5162.432283968538
 21
246.3557887721706
 31
0.0
  0
LINE
  5
211
330
1F
100
AcDbEntity
  8
A-2_蓋
  6
Continuous
 62
     3
370
     9
100
AcDbLine
 10
-5162.432283968538
 20
306.3556155642956
 30
0.0
 11
-5162.432283968538
 21
1246.355994972023
 31
0.0
  0
LINE
  5
212
330
1F
100
AcDbEntity
  8
A-2_蓋
  6
Continuous
 62
     3
370
     9
100
AcDbLine
 10
-5112.435830605996
 20
-228.6457783467057
 30
0.0
 11
-5112.435830605996
 21
246.3557887721706
 31
0.0
  0
LINE
  5
213
330
1F
100
AcDbEntity
  8
A-2_蓋
  6
Continuous
 62
     3
370
     9
100
AcDbLine
 10
-5112.435830605996
 20
306.3556155642956
 30
0.0
 11
-5112.435830605996
 21
1246.355994972023
 31
0.0
  0
LINE
  5
214
330
1F
100
AcDbEntity
  8
A-2_蓋
  6
Continuous
 62
     3
370
     9
100
AcDbLine
 10
-5012.432283968538
 20
1306.355821764147
 30
0.0
 11
-5012.432283968538
 21
2246.356819771432
 31
0.0
  0
LINE
  5
215
330
1F
100
AcDbEntity
  8
A-2_蓋
  6
Continuous
 62
     3
370
     9
100
AcDbLine
 10
-4962.435830605996
 20
1306.355821764147
 30
0.0
 11
-4962.435830605996
 21
2246.356819771432
 31
0.0
  0
LINE
  5
216
330
1F
100
AcDbEntity
  8
A-2_蓋
  6
Continuous
 62
     3
370
     9
100
AcDbLine
 10
-5012.432283968538
 20
2306.356027964
 30
0.0
 11
-5012.432283968538
 21
3246.354551573059
 31
0.0
  0
LINE
  5
217
330
1F
100
AcDbEntity
  8
A-2_蓋
  6
Continuous
 62
     3
370
     9
100
AcDbLine
 10
-5012.432283968538
 20
3306.356234163852
 30
0.0
 11
-5012.432283968538
 21
3781.351615287163
 31
0.0
  0
LINE
  5
218
330
1F
100
AcDbEntity
  8
A-2_蓋
  6
Continuous
 62
     3
370
     9
100
AcDbLine
 10
-4962.435830605996
 20
2306.356027964
 30
0.0
 11
-4962.435830605996
 21
3246.354551573059
 31
0.0
  0
LINE
  5
219
330
1F
100
AcDbEntity
  8
A-2_蓋
  6
Continuous
 62
     3
370
     9
100
AcDbLine
 10
-4962.435830605996
 20
3306.356234163852
 30
0.0
 11
-4962.435830605996
 21
3781.351615287163
 31
0.0
  0
LINE
  5
21A
330
1F
100
AcDbEntity
  8
A-2_蓋
  6
Continuous
 62
     3
370
     9
100
AcDbLine
 10
-5012.432283968538
 20
-228.6457783467057
 30
0.0
 11
-5012.432283968538
 21
246.3557887721706
 31
0.0
  0
LINE
  5
21B
330
1F
100
AcDbEntity
  8
A-2_蓋
  6
Continuous
 62
     3
370
     9
100
AcDbLine
 10
-5012.432283968538
 20
306.3556155642956
 30
0.0
 11
-5012.432283968538
 21
1246.355994972023
 31
0.0
  0
LINE
  5
21C
330
1F
100
AcDbEntity
  8
A-2_蓋
  6
Continuous
 62
     3
370
     9
100
AcDbLine
 10
-4962.435830605996
 20
-228.6457783467057
 30
0.0
 11
-4962.435830605996
 21
246.3557887721706
 31
0.0
  0
LINE
  5
21D
330
1F
100
AcDbEntity
  8
A-2_蓋
  6
Continuous
 62
     3
370
     9
100
AcDbLine
 10
-4962.435830605996
 20
306.3556155642956
 30
0.0
 11
-4962.435830605996
 21
1246.355994972023
 31
0.0
  0
LINE
  5
21E
330
1F
100
AcDbEntity
  8
A-2_蓋
  6
Continuous
 62
     3
370
     9
100
AcDbLine
 10
-4862.432283968538
 20
1306.355821764147
 30
0.0
 11
-4862.432283968538
 21
2246.356819771432
 31
0.0
  0
LINE
  5
21F
330
1F
100
AcDbEntity
  8
A-2_蓋
  6
Continuous
 62
     3
370
     9
100
AcDbLine
 10
-4812.435830605996
 20
1306.355821764147
 30
0.0
 11
-4812.435830605996
 21
2246.356819771432
 31
0.0
  0
LINE
  5
220
330
1F
100
AcDbEntity
  8
A-2_蓋
  6
Continuous
 62
     3
370
     9
100
AcDbLine
 10
-4862.432283968538
 20
2306.356027964
 30
0.0
 11
-4862.432283968538
 21
3246.354551573059
 31
0.0
  0
LINE
  5
221
330
1F
100
AcDbEntity
  8
A-2_蓋
  6
Continuous
 62
     3
370
     9
100
AcDbLine
 10
-4862.432283968538
 20
3306.356234163852
 30
0.0
 11
-4862.432283968538
 21
3781.351615287163
 31
0.0
  0
LINE
  5
222
330
1F
100
AcDbEntity
  8
A-2_蓋
  6
Continuous
 62
     3
370
     9
100
AcDbLine
 10
-4812.435830605996
 20
2306.356027964
 30
0.0
 11
-4812.435830605996
 21
3246.354551573059
 31
0.0
  0
LINE
  5
223
330
1F
100
AcDbEntity
  8
A-2_蓋
  6
Continuous
 62
     3
370
     9
100
AcDbLine
 10
-4812.435830605996
 20
3306.356234163852
 30
0.0
 11
-4812.435830605996
 21
3781.351615287163
 31
0.0
  0
LINE
  5
224
330
1F
100
AcDbEntity
  8
A-2_蓋
  6
Continuous
 62
     3
370
     9
100
AcDbLine
 10
-4862.432283968538
 20
-228.6457783467057
 30
0.0
 11
-4862.432283968538
 21
246.3557887721706
 31
0.0
  0
LINE
  5
225
330
1F
100
AcDbEntity
  8
A-2_蓋
  6
Continuous
 62
     3
370
     9
100
AcDbLine
 10
-4862.432283968538
 20
306.3556155642956
 30
0.0
 11
-4862.432283968538
 21
1246.355994972023
 31
0.0
  0
LINE
  5
226
330
1F
100
AcDbEntity
  8
A-2_蓋
  6
Continuous
 62
     3
370
     9
100
AcDbLine
 10
-4812.435830605996
 20
-228.6457783467057
 30
0.0
 11
-4812.435830605996
 21
246.3557887721706
 31
0.0
  0
LINE
  5
227
330
1F
100
AcDbEntity
  8
A-2_蓋
  6
Continuous
 62
     3
370
     9
100
AcDbLine
 10
-4812.435830605996
 20
306.3556155642956
 30
0.0
 11
-4812.435830605996
 21
1246.355994972023
 31
0.0
  0
LINE
  5
228
330
1F
100
AcDbEntity
  8
A-2_蓋
  6
Continuous
 62
     3
370
     9
100
AcDbLine
 10
-4712.432283968538
 20
1306.355821764147
 30
0.0
 11
-4712.432283968538
 21
2246.356819771432
 31
0.0
  0
LINE
  5
229
330
1F
100
AcDbEntity
  8
A-2_蓋
  6
Continuous
 62
     3
370
     9
100
AcDbLine
 10
-4662.435830605996
 20
1306.355821764147
 30
0.0
 11
-4662.435830605996
 21
2246.356819771432
 31
0.0
  0
LINE
  5
22A
330
1F
100
AcDbEntity
  8
A-2_蓋
  6
Continuous
 62
     3
370
     9
100
AcDbLine
 10
-4712.432283968538
 20
2306.356027964
 30
0.0
 11
-4712.432283968538
 21
3246.354551573059
 31
0.0
  0
LINE
  5
22B
330
1F
100
AcDbEntity
  8
A-2_蓋
  6
Continuous
 62
     3
370
     9
100
AcDbLine
 10
-4712.432283968538
 20
3306.356234163852
 30
0.0
 11
-4712.432283968538
 21
3781.351615287163
 31
0.0
  0
LINE
  5
22C
330
1F
100
AcDbEntity
  8
A-2_蓋
  6
Continuous
 62
     3
370
     9
100
AcDbLine
 10
-4662.435830605996
 20
2306.356027964
 30
0.0
 11
-4662.435830605996
 21
3246.354551573059
 31
0.0
  0
LINE
  5
22D
330
1F
100
AcDbEntity
  8
A-2_蓋
  6
Continuous
 62
     3
370
     9
100
AcDbLine
 10
-4662.435830605996
 20
3306.356234163852
 30
0.0
 11
-4662.435830605996
 21
3781.351615287163
 31
0.0
  0
LINE
  5
22E
330
1F
100
AcDbEntity
  8
A-2_蓋
  6
Continuous
 62
     3
370
     9
100
AcDbLine
 10
-4712.432283968538
 20
-228.6457783467057
 30
0.0
 11
-4712.432283968538
 21
246.3557887721706
 31
0.0
  0
LINE
  5
22F
330
1F
100
AcDbEntity
  8
A-2_蓋
  6
Continuous
 62
     3
370
     9
100
AcDbLine
 10
-4712.432283968538
 20
306.3556155642956
 30
0.0
 11
-4712.432283968538
 21
1246.355994972023
 31
0.0
  0
LINE
  5
230
330
1F
100
AcDbEntity
  8
A-2_蓋
  6
Continuous
 62
     3
370
     9
100
AcDbLine
 10
-4662.435830605996
 20
-228.6457783467057
 30
0.0
 11
-4662.435830605996
 21
246.3557887721706
 31
0.0
  0
LINE
  5
231
330
1F
100
AcDbEntity
  8
A-2_蓋
  6
Continuous
 62
     3
370
     9
100
AcDbLine
 10
-4662.435830605996
 20
306.3556155642956
 30
0.0
 11
-4662.435830605996
 21
1246.355994972023
 31
0.0
  0
LINE
  5
232
330
1F
100
AcDbEntity
  8
A-2_蓋
  6
Continuous
 62
     3
370
     9
100
AcDbLine
 10
-4562.432283968538
 20
1306.355821764147
 30
0.0
 11
-4562.432283968538
 21
2246.356819771432
 31
0.0
  0
LINE
  5
233
330
1F
100
AcDbEntity
  8
A-2_蓋
  6
Continuous
 62
     3
370
     9
100
AcDbLine
 10
-4512.435830605996
 20
1306.355821764147
 30
0.0
 11
-4512.435830605996
 21
2246.356819771432
 31
0.0
  0
LINE
  5
234
330
1F
100
AcDbEntity
  8
A-2_蓋
  6
Continuous
 62
     3
370
     9
100
AcDbLine
 10
-4562.432283968538
 20
2306.356027964
 30
0.0
 11
-4562.432283968538
 21
3246.354551573059
 31
0.0
  0
LINE
  5
235
330
1F
100
AcDbEntity
  8
A-2_蓋
  6
Continuous
 62
     3
370
     9
100
AcDbLine
 10
-4562.432283968538
 20
3306.356234163852
 30
0.0
 11
-4562.432283968538
 21
3781.351615287163
 31
0.0
  0
LINE
  5
236
330
1F
100
AcDbEntity
  8
A-2_蓋
  6
Continuous
 62
     3
370
     9
100
AcDbLine
 10
-4512.435830605996
 20
2306.356027964
 30
0.0
 11
-4512.435830605996
 21
3246.354551573059
 31
0.0
  0
LINE
  5
237
330
1F
100
AcDbEntity
  8
A-2_蓋
  6
Continuous
 62
     3
370
     9
100
AcDbLine
 10
-4512.435830605996
 20
3306.356234163852
 30
0.0
 11
-4512.435830605996
 21
3781.351615287163
 31
0.0
  0
LINE
  5
238
330
1F
100
AcDbEntity
  8
A-2_蓋
  6
Continuous
 62
     3
370
     9
100
AcDbLine
 10
-4562.432283968538
 20
-228.6457783467057
 30
0.0
 11
-4562.432283968538
 21
246.3557887721706
 31
0.0
  0
LINE
  5
239
330
1F
100
AcDbEntity
  8
A-2_蓋
  6
Continuous
 62
     3
370
     9
100
AcDbLine
 10
-4562.432283968538
 20
306.3556155642956
 30
0.0
 11
-4562.432283968538
 21
1246.355994972023
 31
0.0
  0
LINE
  5
23A
330
1F
100
AcDbEntity
  8
A-2_蓋
  6
Continuous
 62
     3
370
     9
100
AcDbLine
 10
-4512.435830605996
 20
-228.6457783467057
 30
0.0
 11
-4512.435830605996
 21
246.3557887721706
 31
0.0
  0
LINE
  5
23B
330
1F
100
AcDbEntity
  8
A-2_蓋
  6
Continuous
 62
     3
370
     9
100
AcDbLine
 10
-4512.435830605996
 20
306.3556155642956
 30
0.0
 11
-4512.435830605996
 21
1246.355994972023
 31
0.0
  0
LINE
  5
23C
330
1F
100
AcDbEntity
  8
A-2_蓋
  6
Continuous
 62
     3
370
     9
100
AcDbLine
 10
-4412.432283968538
 20
1306.355821764147
 30
0.0
 11
-4412.432283968538
 21
2246.356819771432
 31
0.0
  0
LINE
  5
23D
330
1F
100
AcDbEntity
  8
A-2_蓋
  6
Continuous
 62
     3
370
     9
100
AcDbLine
 10
-4362.435830605996
 20
1306.355821764147
 30
0.0
 11
-4362.435830605996
 21
2246.356819771432
 31
0.0
  0
LINE
  5
23E
330
1F
100
AcDbEntity
  8
A-2_蓋
  6
Continuous
 62
     3
370
     9
100
AcDbLine
 10
-4412.432283968538
 20
2306.356027964
 30
0.0
 11
-4412.432283968538
 21
3246.354551573059
 31
0.0
  0
LINE
  5
23F
330
1F
100
AcDbEntity
  8
A-2_蓋
  6
Continuous
 62
     3
370
     9
100
AcDbLine
 10
-4412.432283968538
 20
3306.356234163852
 30
0.0
 11
-4412.432283968538
 21
3781.351615287163
 31
0.0
  0
LINE
  5
240
330
1F
100
AcDbEntity
  8
A-2_蓋
  6
Continuous
 62
     3
370
     9
100
AcDbLine
 10
-4362.435830605996
 20
2306.356027964
 30
0.0
 11
-4362.435830605996
 21
3246.354551573059
 31
0.0
  0
LINE
  5
241
330
1F
100
AcDbEntity
  8
A-2_蓋
  6
Continuous
 62
     3
370
     9
100
AcDbLine
 10
-4362.435830605996
 20
3306.356234163852
 30
0.0
 11
-4362.435830605996
 21
3781.351615287163
 31
0.0
  0
LINE
  5
242
330
1F
100
AcDbEntity
  8
A-2_蓋
  6
Continuous
 62
     3
370
     9
100
AcDbLine
 10
-4412.432283968538
 20
-228.6457783467057
 30
0.0
 11
-4412.432283968538
 21
246.3557887721706
 31
0.0
  0
LINE
  5
243
330
1F
100
AcDbEntity
  8
A-2_蓋
  6
Continuous
 62
     3
370
     9
100
AcDbLine
 10
-4412.432283968538
 20
306.3556155642956
 30
0.0
 11
-4412.432283968538
 21
1246.355994972023
 31
0.0
  0
LINE
  5
244
330
1F
100
AcDbEntity
  8
A-2_蓋
  6
Continuous
 62
     3
370
     9
100
AcDbLine
 10
-4362.435830605996
 20
-228.6457783467057
 30
0.0
 11
-4362.435830605996
 21
246.3557887721706
 31
0.0
  0
LINE
  5
245
330
1F
100
AcDbEntity
  8
A-2_蓋
  6
Continuous
 62
     3
370
     9
100
AcDbLine
 10
-4362.435830605996
 20
306.3556155642956
 30
0.0
 11
-4362.435830605996
 21
1246.355994972023
 31
0.0
  0
LINE
  5
246
330
1F
100
AcDbEntity
  8
A-2_蓋
  6
Continuous
 62
     3
370
     9
100
AcDbLine
 10
-4262.432283968538
 20
1306.355821764147
 30
0.0
 11
-4262.432283968538
 21
2246.356819771432
 31
0.0
  0
LINE
  5
247
330
1F
100
AcDbEntity
  8
A-2_蓋
  6
Continuous
 62
     3
370
     9
100
AcDbLine
 10
-4212.435830605996
 20
1306.355821764147
 30
0.0
 11
-4212.435830605996
 21
2246.356819771432
 31
0.0
  0
LINE
  5
248
330
1F
100
AcDbEntity
  8
A-2_蓋
  6
Continuous
 62
     3
370
     9
100
AcDbLine
 10
-4262.432283968538
 20
2306.356027964
 30
0.0
 11
-4262.432283968538
 21
3246.354551573059
 31
0.0
  0
LINE
  5
249
330
1F
100
AcDbEntity
  8
A-2_蓋
  6
Continuous
 62
     3
370
     9
100
AcDbLine
 10
-4262.432283968538
 20
3306.356234163852
 30
0.0
 11
-4262.432283968538
 21
3781.351615287163
 31
0.0
  0
LINE
  5
24A
330
1F
100
AcDbEntity
  8
A-2_蓋
  6
Continuous
 62
     3
370
     9
100
AcDbLine
 10
-4212.435830605996
 20
2306.356027964
 30
0.0
 11
-4212.435830605996
 21
3246.354551573059
 31
0.0
  0
LINE
  5
24B
330
1F
100
AcDbEntity
  8
A-2_蓋
  6
Continuous
 62
     3
370
     9
100
AcDbLine
 10
-4212.435830605996
 20
3306.356234163852
 30
0.0
 11
-4212.435830605996
 21
3781.351615287163
 31
0.0
  0
LINE
  5
24C
330
1F
100
AcDbEntity
  8
A-2_蓋
  6
Continuous
 62
     3
370
     9
100
AcDbLine
 10
-4262.432283968538
 20
-228.6457783467057
 30
0.0
 11
-4262.432283968538
 21
246.3557887721706
 31
0.0
  0
LINE
  5
24D
330
1F
100
AcDbEntity
  8
A-2_蓋
  6
Continuous
 62
     3
370
     9
100
AcDbLine
 10
-4262.432283968538
 20
306.3556155642956
 30
0.0
 11
-4262.432283968538
 21
1246.355994972023
 31
0.0
  0
LINE
  5
24E
330
1F
100
AcDbEntity
  8
A-2_蓋
  6
Continuous
 62
     3
370
     9
100
AcDbLine
 10
-4212.435830605996
 20
-228.6457783467057
 30
0.0
 11
-4212.435830605996
 21
246.3557887721706
 31
0.0
  0
LINE
  5
24F
330
1F
100
AcDbEntity
  8
A-2_蓋
  6
Continuous
 62
     3
370
     9
100
AcDbLine
 10
-4212.435830605996
 20
306.3556155642956
 30
0.0
 11
-4212.435830605996
 21
1246.355994972023
 31
0.0
  0
LINE
  5
250
330
1F
100
AcDbEntity
  8
A-2_蓋
  6
Continuous
 62
     3
370
     9
100
AcDbLine
 10
-4112.432283968538
 20
1306.355821764147
 30
0.0
 11
-4112.432283968538
 21
2246.356819771432
 31
0.0
  0
LINE
  5
251
330
1F
100
AcDbEntity
  8
A-2_蓋
  6
Continuous
 62
     3
370
     9
100
AcDbLine
 10
-4062.435830605996
 20
1306.355821764147
 30
0.0
 11
-4062.435830605996
 21
2246.356819771432
 31
0.0
  0
LINE
  5
252
330
1F
100
AcDbEntity
  8
A-2_蓋
  6
Continuous
 62
     3
370
     9
100
AcDbLine
 10
-4112.432283968538
 20
2306.356027964
 30
0.0
 11
-4112.432283968538
 21
3246.354551573059
 31
0.0
  0
LINE
  5
253
330
1F
100
AcDbEntity
  8
A-2_蓋
  6
Continuous
 62
     3
370
     9
100
AcDbLine
 10
-4112.432283968538
 20
3306.356234163852
 30
0.0
 11
-4112.432283968538
 21
3781.351615287163
 31
0.0
  0
LINE
  5
254
330
1F
100
AcDbEntity
  8
A-2_蓋
  6
Continuous
 62
     3
370
     9
100
AcDbLine
 10
-4062.435830605996
 20
2306.356027964
 30
0.0
 11
-4062.435830605996
 21
3246.354551573059
 31
0.0
  0
LINE
  5
255
330
1F
100
AcDbEntity
  8
A-2_蓋
  6
Continuous
 62
     3
370
     9
100
AcDbLine
 10
-4062.435830605996
 20
3306.356234163852
 30
0.0
 11
-4062.435830605996
 21
3781.351615287163
 31
0.0
  0
LINE
  5
256
330
1F
100
AcDbEntity
  8
A-2_蓋
  6
Continuous
 62
     3
370
     9
100
AcDbLine
 10
-4112.432283968538
 20
-228.6457783467057
 30
0.0
 11
-4112.432283968538
 21
246.3557887721706
 31
0.0
  0
LINE
  5
257
330
1F
100
AcDbEntity
  8
A-2_蓋
  6
Continuous
 62
     3
370
     9
100
AcDbLine
 10
-4112.432283968538
 20
306.3556155642956
 30
0.0
 11
-4112.432283968538
 21
1246.355994972023
 31
0.0
  0
LINE
  5
258
330
1F
100
AcDbEntity
  8
A-2_蓋
  6
Continuous
 62
     3
370
     9
100
AcDbLine
 10
-4062.435830605996
 20
-228.6457783467057
 30
0.0
 11
-4062.435830605996
 21
246.3557887721706
 31
0.0
  0
LINE
  5
259
330
1F
100
AcDbEntity
  8
A-2_蓋
  6
Continuous
 62
     3
370
     9
100
AcDbLine
 10
-4062.435830605996
 20
306.3556155642956
 30
0.0
 11
-4062.435830605996
 21
1246.355994972023
 31
0.0
  0
LINE
  5
25A
330
1F
100
AcDbEntity
  8
A-2_蓋
  6
Continuous
 62
     3
370
     9
100
AcDbLine
 10
-3962.432283968538
 20
1306.355821764147
 30
0.0
 11
-3962.432283968538
 21
2246.356819771432
 31
0.0
  0
LINE
  5
25B
330
1F
100
AcDbEntity
  8
A-2_蓋
  6
Continuous
 62
     3
370
     9
100
AcDbLine
 10
-3912.435830605996
 20
1306.355821764147
 30
0.0
 11
-3912.435830605996
 21
2246.356819771432
 31
0.0
  0
LINE
  5
25C
330
1F
100
AcDbEntity
  8
A-2_蓋
  6
Continuous
 62
     3
370
     9
100
AcDbLine
 10
-3962.432283968538
 20
2306.356027964
 30
0.0
 11
-3962.432283968538
 21
3246.354551573059
 31
0.0
  0
LINE
  5
25D
330
1F
100
AcDbEntity
  8
A-2_蓋
  6
Continuous
 62
     3
370
     9
100
AcDbLine
 10
-3962.432283968538
 20
3306.356234163852
 30
0.0
 11
-3962.432283968538
 21
3781.351615287163
 31
0.0
  0
LINE
  5
25E
330
1F
100
AcDbEntity
  8
A-2_蓋
  6
Continuous
 62
     3
370
     9
100
AcDbLine
 10
-3912.435830605996
 20
2306.356027964
 30
0.0
 11
-3912.435830605996
 21
3246.354551573059
 31
0.0
  0
LINE
  5
25F
330
1F
100
AcDbEntity
  8
A-2_蓋
  6
Continuous
 62
     3
370
     9
100
AcDbLine
 10
-3912.435830605996
 20
3306.356234163852
 30
0.0
 11
-3912.435830605996
 21
3781.351615287163
 31
0.0
  0
LINE
  5
260
330
1F
100
AcDbEntity
  8
A-2_蓋
  6
Continuous
 62
     3
370
     9
100
AcDbLine
 10
-3962.432283968538
 20
-228.6457783467057
 30
0.0
 11
-3962.432283968538
 21
246.3557887721706
 31
0.0
  0
LINE
  5
261
330
1F
100
AcDbEntity
  8
A-2_蓋
  6
Continuous
 62
     3
370
     9
100
AcDbLine
 10
-3962.432283968538
 20
306.3556155642956
 30
0.0
 11
-3962.432283968538
 21
1246.355994972023
 31
0.0
  0
LINE
  5
262
330
1F
100
AcDbEntity
  8
A-2_蓋
  6
Continuous
 62
     3
370
     9
100
AcDbLine
 10
-3912.435830605996
 20
-228.6457783467057
 30
0.0
 11
-3912.435830605996
 21
246.3557887721706
 31
0.0
  0
LINE
  5
263
330
1F
100
AcDbEntity
  8
A-2_蓋
  6
Continuous
 62
     3
370
     9
100
AcDbLine
 10
-3912.435830605996
 20
306.3556155642956
 30
0.0
 11
-3912.435830605996
 21
1246.355994972023
 31
0.0
  0
LINE
  5
264
330
1F
100
AcDbEntity
  8
A-2_蓋
  6
Continuous
 62
     3
370
     9
100
AcDbLine
 10
-3812.432283968538
 20
1306.355821764147
 30
0.0
 11
-3812.432283968538
 21
2246.356819771432
 31
0.0
  0
LINE
  5
265
330
1F
100
AcDbEntity
  8
A-2_蓋
  6
Continuous
 62
     3
370
     9
100
AcDbLine
 10
-3762.435830605996
 20
1306.355821764147
 30
0.0
 11
-3762.435830605996
 21
2246.356819771432
 31
0.0
  0
LINE
  5
266
330
1F
100
AcDbEntity
  8
A-2_蓋
  6
Continuous
 62
     3
370
     9
100
AcDbLine
 10
-3812.432283968538
 20
2306.356027964
 30
0.0
 11
-3812.432283968538
 21
3246.354551573059
 31
0.0
  0
LINE
  5
267
330
1F
100
AcDbEntity
  8
A-2_蓋
  6
Continuous
 62
     3
370
     9
100
AcDbLine
 10
-3812.432283968538
 20
3306.356234163852
 30
0.0
 11
-3812.432283968538
 21
3781.351615287163
 31
0.0
  0
LINE
  5
268
330
1F
100
AcDbEntity
  8
A-2_蓋
  6
Continuous
 62
     3
370
     9
100
AcDbLine
 10
-3762.435830605996
 20
2306.356027964
 30
0.0
 11
-3762.435830605996
 21
3246.354551573059
 31
0.0
  0
LINE
  5
269
330
1F
100
AcDbEntity
  8
A-2_蓋
  6
Continuous
 62
     3
370
     9
100
AcDbLine
 10
-3762.435830605996
 20
3306.356234163852
 30
0.0
 11
-3762.435830605996
 21
3781.351615287163
 31
0.0
  0
LINE
  5
26A
330
1F
100
AcDbEntity
  8
A-2_蓋
  6
Continuous
 62
     3
370
     9
100
AcDbLine
 10
-3812.432283968538
 20
-228.6457783467057
 30
0.0
 11
-3812.432283968538
 21
246.3557887721706
 31
0.0
  0
LINE
  5
26B
330
1F
100
AcDbEntity
  8
A-2_蓋
  6
Continuous
 62
     3
370
     9
100
AcDbLine
 10
-3812.432283968538
 20
306.3556155642956
 30
0.0
 11
-3812.432283968538
 21
1246.355994972023
 31
0.0
  0
LINE
  5
26C
330
1F
100
AcDbEntity
  8
A-2_蓋
  6
Continuous
 62
     3
370
     9
100
AcDbLine
 10
-3762.435830605996
 20
-228.6457783467057
 30
0.0
 11
-3762.435830605996
 21
246.3557887721706
 31
0.0
  0
LINE
  5
26D
330
1F
100
AcDbEntity
  8
A-2_蓋
  6
Continuous
 62
     3
370
     9
100
AcDbLine
 10
-3762.435830605996
 20
306.3556155642956
 30
0.0
 11
-3762.435830605996
 21
1246.355994972023
 31
0.0
  0
LINE
  5
26E
330
1F
100
AcDbEntity
  8
A-2_蓋
  6
Continuous
 62
     3
370
     9
100
AcDbLine
 10
-3662.432283968538
 20
1306.355821764147
 30
0.0
 11
-3662.432283968538
 21
2246.356819771432
 31
0.0
  0
LINE
  5
26F
330
1F
100
AcDbEntity
  8
A-2_蓋
  6
Continuous
 62
     3
370
     9
100
AcDbLine
 10
-3612.435830605996
 20
1306.355821764147
 30
0.0
 11
-3612.435830605996
 21
2246.356819771432
 31
0.0
  0
LINE
  5
270
330
1F
100
AcDbEntity
  8
A-2_蓋
  6
Continuous
 62
     3
370
     9
100
AcDbLine
 10
-3662.432283968538
 20
2306.356027964
 30
0.0
 11
-3662.432283968538
 21
3246.354551573059
 31
0.0
  0
LINE
  5
271
330
1F
100
AcDbEntity
  8
A-2_蓋
  6
Continuous
 62
     3
370
     9
100
AcDbLine
 10
-3662.432283968538
 20
3306.356234163852
 30
0.0
 11
-3662.432283968538
 21
3781.351615287163
 31
0.0
  0
LINE
  5
272
330
1F
100
AcDbEntity
  8
A-2_蓋
  6
Continuous
 62
     3
370
     9
100
AcDbLine
 10
-3612.435830605996
 20
2306.356027964
 30
0.0
 11
-3612.435830605996
 21
3246.354551573059
 31
0.0
  0
LINE
  5
273
330
1F
100
AcDbEntity
  8
A-2_蓋
  6
Continuous
 62
     3
370
     9
100
AcDbLine
 10
-3612.435830605996
 20
3306.356234163852
 30
0.0
 11
-3612.435830605996
 21
3781.351615287163
 31
0.0
  0
LINE
  5
274
330
1F
100
AcDbEntity
  8
A-2_蓋
  6
Continuous
 62
     3
370
     9
100
AcDbLine
 10
-3662.432283968538
 20
-228.6457783467057
 30
0.0
 11
-3662.432283968538
 21
246.3557887721706
 31
0.0
  0
LINE
  5
275
330
1F
100
AcDbEntity
  8
A-2_蓋
  6
Continuous
 62
     3
370
     9
100
AcDbLine
 10
-3662.432283968538
 20
306.3556155642956
 30
0.0
 11
-3662.432283968538
 21
1246.355994972023
 31
0.0
  0
LINE
  5
276
330
1F
100
AcDbEntity
  8
A-2_蓋
  6
Continuous
 62
     3
370
     9
100
AcDbLine
 10
-3612.435830605996
 20
-228.6457783467057
 30
0.0
 11
-3612.435830605996
 21
246.3557887721706
 31
0.0
  0
LINE
  5
277
330
1F
100
AcDbEntity
  8
A-2_蓋
  6
Continuous
 62
     3
370
     9
100
AcDbLine
 10
-3612.435830605996
 20
306.3556155642956
 30
0.0
 11
-3612.435830605996
 21
1246.355994972023
 31
0.0
  0
LINE
  5
278
330
1F
100
AcDbEntity
  8
A-2_蓋
  6
Continuous
 62
     3
370
     9
100
AcDbLine
 10
-3512.432283968538
 20
1306.355821764147
 30
0.0
 11
-3512.432283968538
 21
2246.356819771432
 31
0.0
  0
LINE
  5
279
330
1F
100
AcDbEntity
  8
A-2_蓋
  6
Continuous
 62
     3
370
     9
100
AcDbLine
 10
-3462.435830605996
 20
1306.355821764147
 30
0.0
 11
-3462.435830605996
 21
2246.356819771432
 31
0.0
  0
LINE
  5
27A
330
1F
100
AcDbEntity
  8
A-2_蓋
  6
Continuous
 62
     3
370
     9
100
AcDbLine
 10
-3512.432283968538
 20
2306.356027964
 30
0.0
 11
-3512.432283968538
 21
3246.354551573059
 31
0.0
  0
LINE
  5
27B
330
1F
100
AcDbEntity
  8
A-2_蓋
  6
Continuous
 62
     3
370
     9
100
AcDbLine
 10
-3512.432283968538
 20
3306.356234163852
 30
0.0
 11
-3512.432283968538
 21
3781.351615287163
 31
0.0
  0
LINE
  5
27C
330
1F
100
AcDbEntity
  8
A-2_蓋
  6
Continuous
 62
     3
370
     9
100
AcDbLine
 10
-3462.435830605996
 20
2306.356027964
 30
0.0
 11
-3462.435830605996
 21
3246.354551573059
 31
0.0
  0
LINE
  5
27D
330
1F
100
AcDbEntity
  8
A-2_蓋
  6
Continuous
 62
     3
370
     9
100
AcDbLine
 10
-3462.435830605996
 20
3306.356234163852
 30
0.0
 11
-3462.435830605996
 21
3781.351615287163
 31
0.0
  0
LINE
  5
27E
330
1F
100
AcDbEntity
  8
A-2_蓋
  6
Continuous
 62
     3
370
     9
100
AcDbLine
 10
-3512.432283968538
 20
-228.6457783467057
 30
0.0
 11
-3512.432283968538
 21
246.3557887721706
 31
0.0
  0
LINE
  5
27F
330
1F
100
AcDbEntity
  8
A-2_蓋
  6
Continuous
 62
     3
370
     9
100
AcDbLine
 10
-3512.432283968538
 20
306.3556155642956
 30
0.0
 11
-3512.432283968538
 21
1246.355994972023
 31
0.0
  0
LINE
  5
280
330
1F
100
AcDbEntity
  8
A-2_蓋
  6
Continuous
 62
     3
370
     9
100
AcDbLine
 10
-3462.435830605996
 20
-228.6457783467057
 30
0.0
 11
-3462.435830605996
 21
246.3557887721706
 31
0.0
  0
LINE
  5
281
330
1F
100
AcDbEntity
  8
A-2_蓋
  6
Continuous
 62
     3
370
     9
100
AcDbLine
 10
-3462.435830605996
 20
306.3556155642956
 30
0.0
 11
-3462.435830605996
 21
1246.355994972023
 31
0.0
  0
LINE
  5
282
330
1F
100
AcDbEntity
  8
A-2_蓋
  6
Continuous
 62
     3
370
     9
100
AcDbLine
 10
-3362.432283968538
 20
1306.355821764147
 30
0.0
 11
-3362.432283968538
 21
2246.356819771432
 31
0.0
  0
LINE
  5
283
330
1F
100
AcDbEntity
  8
A-2_蓋
  6
Continuous
 62
     3
370
     9
100
AcDbLine
 10
-3312.435830605996
 20
1306.355821764147
 30
0.0
 11
-3312.435830605996
 21
2246.356819771432
 31
0.0
  0
LINE
  5
284
330
1F
100
AcDbEntity
  8
A-2_蓋
  6
Continuous
 62
     3
370
     9
100
AcDbLine
 10
-3362.432283968538
 20
2306.356027964
 30
0.0
 11
-3362.432283968538
 21
3246.354551573059
 31
0.0
  0
LINE
  5
285
330
1F
100
AcDbEntity
  8
A-2_蓋
  6
Continuous
 62
     3
370
     9
100
AcDbLine
 10
-3362.432283968538
 20
3306.356234163852
 30
0.0
 11
-3362.432283968538
 21
3781.351615287163
 31
0.0
  0
LINE
  5
286
330
1F
100
AcDbEntity
  8
A-2_蓋
  6
Continuous
 62
     3
370
     9
100
AcDbLine
 10
-3312.435830605996
 20
2306.356027964
 30
0.0
 11
-3312.435830605996
 21
3246.354551573059
 31
0.0
  0
LINE
  5
287
330
1F
100
AcDbEntity
  8
A-2_蓋
  6
Continuous
 62
     3
370
     9
100
AcDbLine
 10
-3312.435830605996
 20
3306.356234163852
 30
0.0
 11
-3312.435830605996
 21
3781.351615287163
 31
0.0
  0
LINE
  5
288
330
1F
100
AcDbEntity
  8
A-2_蓋
  6
Continuous
 62
     3
370
     9
100
AcDbLine
 10
-3362.432283968538
 20
-228.6457783467057
 30
0.0
 11
-3362.432283968538
 21
246.3557887721706
 31
0.0
  0
LINE
  5
289
330
1F
100
AcDbEntity
  8
A-2_蓋
  6
Continuous
 62
     3
370
     9
100
AcDbLine
 10
-3362.432283968538
 20
306.3556155642956
 30
0.0
 11
-3362.432283968538
 21
1246.355994972023
 31
0.0
  0
LINE
  5
28A
330
1F
100
AcDbEntity
  8
A-2_蓋
  6
Continuous
 62
     3
370
     9
100
AcDbLine
 10
-3312.435830605996
 20
-228.6457783467057
 30
0.0
 11
-3312.435830605996
 21
246.3557887721706
 31
0.0
  0
LINE
  5
28B
330
1F
100
AcDbEntity
  8
A-2_蓋
  6
Continuous
 62
     3
370
     9
100
AcDbLine
 10
-3312.435830605996
 20
306.3556155642956
 30
0.0
 11
-3312.435830605996
 21
1246.355994972023
 31
0.0
  0
LINE
  5
28C
330
1F
100
AcDbEntity
  8
A-2_蓋
  6
Continuous
 62
     3
370
     9
100
AcDbLine
 10
-3212.432283968538
 20
1306.355821764147
 30
0.0
 11
-3212.432283968538
 21
2246.356819771432
 31
0.0
  0
LINE
  5
28D
330
1F
100
AcDbEntity
  8
A-2_蓋
  6
Continuous
 62
     3
370
     9
100
AcDbLine
 10
-3162.435830605996
 20
1306.355821764147
 30
0.0
 11
-3162.435830605996
 21
2246.356819771432
 31
0.0
  0
LINE
  5
28E
330
1F
100
AcDbEntity
  8
A-2_蓋
  6
Continuous
 62
     3
370
     9
100
AcDbLine
 10
-3212.432283968538
 20
2306.356027964
 30
0.0
 11
-3212.432283968538
 21
3246.354551573059
 31
0.0
  0
LINE
  5
28F
330
1F
100
AcDbEntity
  8
A-2_蓋
  6
Continuous
 62
     3
370
     9
100
AcDbLine
 10
-3212.432283968538
 20
3306.356234163852
 30
0.0
 11
-3212.432283968538
 21
3781.351615287163
 31
0.0
  0
LINE
  5
290
330
1F
100
AcDbEntity
  8
A-2_蓋
  6
Continuous
 62
     3
370
     9
100
AcDbLine
 10
-3162.435830605996
 20
2306.356027964
 30
0.0
 11
-3162.435830605996
 21
3246.354551573059
 31
0.0
  0
LINE
  5
291
330
1F
100
AcDbEntity
  8
A-2_蓋
  6
Continuous
 62
     3
370
     9
100
AcDbLine
 10
-3162.435830605996
 20
3306.356234163852
 30
0.0
 11
-3162.435830605996
 21
3781.351615287163
 31
0.0
  0
LINE
  5
292
330
1F
100
AcDbEntity
  8
A-2_蓋
  6
Continuous
 62
     3
370
     9
100
AcDbLine
 10
-3212.432283968538
 20
-228.6457783467057
 30
0.0
 11
-3212.432283968538
 21
246.3557887721706
 31
0.0
  0
LINE
  5
293
330
1F
100
AcDbEntity
  8
A-2_蓋
  6
Continuous
 62
     3
370
     9
100
AcDbLine
 10
-3212.432283968538
 20
306.3556155642956
 30
0.0
 11
-3212.432283968538
 21
1246.355994972023
 31
0.0
  0
LINE
  5
294
330
1F
100
AcDbEntity
  8
A-2_蓋
  6
Continuous
 62
     3
370
     9
100
AcDbLine
 10
-3162.435830605996
 20
-228.6457783467057
 30
0.0
 11
-3162.435830605996
 21
246.3557887721706
 31
0.0
  0
LINE
  5
295
330
1F
100
AcDbEntity
  8
A-2_蓋
  6
Continuous
 62
     3
370
     9
100
AcDbLine
 10
-3162.435830605996
 20
306.3556155642956
 30
0.0
 11
-3162.435830605996
 21
1246.355994972023
 31
0.0
  0
LINE
  5
296
330
1F
100
AcDbEntity
  8
A-2_蓋
  6
Continuous
 62
     3
370
     9
100
AcDbLine
 10
-3062.432283968538
 20
1306.355821764147
 30
0.0
 11
-3062.432283968538
 21
2246.356819771432
 31
0.0
  0
LINE
  5
297
330
1F
100
AcDbEntity
  8
A-2_蓋
  6
Continuous
 62
     3
370
     9
100
AcDbLine
 10
-3012.435830605996
 20
1306.355821764147
 30
0.0
 11
-3012.435830605996
 21
2246.356819771432
 31
0.0
  0
LINE
  5
298
330
1F
100
AcDbEntity
  8
A-2_蓋
  6
Continuous
 62
     3
370
     9
100
AcDbLine
 10
-3062.432283968538
 20
2306.356027964
 30
0.0
 11
-3062.432283968538
 21
3246.354551573059
 31
0.0
  0
LINE
  5
299
330
1F
100
AcDbEntity
  8
A-2_蓋
  6
Continuous
 62
     3
370
     9
100
AcDbLine
 10
-3062.432283968538
 20
3306.356234163852
 30
0.0
 11
-3062.432283968538
 21
3781.351615287163
 31
0.0
  0
LINE
  5
29A
330
1F
100
AcDbEntity
  8
A-2_蓋
  6
Continuous
 62
     3
370
     9
100
AcDbLine
 10
-3012.435830605996
 20
2306.356027964
 30
0.0
 11
-3012.435830605996
 21
3246.354551573059
 31
0.0
  0
LINE
  5
29B
330
1F
100
AcDbEntity
  8
A-2_蓋
  6
Continuous
 62
     3
370
     9
100
AcDbLine
 10
-3012.435830605996
 20
3306.356234163852
 30
0.0
 11
-3012.435830605996
 21
3781.351615287163
 31
0.0
  0
LINE
  5
29C
330
1F
100
AcDbEntity
  8
A-2_蓋
  6
Continuous
 62
     3
370
     9
100
AcDbLine
 10
-3062.432283968538
 20
-228.6457783467057
 30
0.0
 11
-3062.432283968538
 21
246.3557887721706
 31
0.0
  0
LINE
  5
29D
330
1F
100
AcDbEntity
  8
A-2_蓋
  6
Continuous
 62
     3
370
     9
100
AcDbLine
 10
-3062.432283968538
 20
306.3556155642956
 30
0.0
 11
-3062.432283968538
 21
1246.355994972023
 31
0.0
  0
LINE
  5
29E
330
1F
100
AcDbEntity
  8
A-2_蓋
  6
Continuous
 62
     3
370
     9
100
AcDbLine
 10
-3012.435830605996
 20
-228.6457783467057
 30
0.0
 11
-3012.435830605996
 21
246.3557887721706
 31
0.0
  0
LINE
  5
29F
330
1F
100
AcDbEntity
  8
A-2_蓋
  6
Continuous
 62
     3
370
     9
100
AcDbLine
 10
-3012.435830605996
 20
306.3556155642956
 30
0.0
 11
-3012.435830605996
 21
1246.355994972023
 31
0.0
  0
LINE
  5
2A0
330
1F
100
AcDbEntity
  8
A-2_蓋
  6
Continuous
 62
     3
370
     9
100
AcDbLine
 10
-2912.432283968538
 20
1306.355821764147
 30
0.0
 11
-2912.432283968538
 21
2246.356819771432
 31
0.0
  0
LINE
  5
2A1
330
1F
100
AcDbEntity
  8
A-2_蓋
  6
Continuous
 62
     3
370
     9
100
AcDbLine
 10
-2862.435830605996
 20
1306.355821764147
 30
0.0
 11
-2862.435830605996
 21
2246.356819771432
 31
0.0
  0
LINE
  5
2A2
330
1F
100
AcDbEntity
  8
A-2_蓋
  6
Continuous
 62
     3
370
     9
100
AcDbLine
 10
-2912.432283968538
 20
2306.356027964
 30
0.0
 11
-2912.432283968538
 21
3246.354551573059
 31
0.0
  0
LINE
  5
2A3
330
1F
100
AcDbEntity
  8
A-2_蓋
  6
Continuous
 62
     3
370
     9
100
AcDbLine
 10
-2912.432283968538
 20
3306.356234163852
 30
0.0
 11
-2912.432283968538
 21
3781.351615287163
 31
0.0
  0
LINE
  5
2A4
330
1F
100
AcDbEntity
  8
A-2_蓋
  6
Continuous
 62
     3
370
     9
100
AcDbLine
 10
-2862.435830605996
 20
2306.356027964
 30
0.0
 11
-2862.435830605996
 21
3246.354551573059
 31
0.0
  0
LINE
  5
2A5
330
1F
100
AcDbEntity
  8
A-2_蓋
  6
Continuous
 62
     3
370
     9
100
AcDbLine
 10
-2862.435830605996
 20
3306.356234163852
 30
0.0
 11
-2862.435830605996
 21
3781.351615287163
 31
0.0
  0
LINE
  5
2A6
330
1F
100
AcDbEntity
  8
A-2_蓋
  6
Continuous
 62
     3
370
     9
100
AcDbLine
 10
-2912.432283968538
 20
-228.6457783467057
 30
0.0
 11
-2912.432283968538
 21
246.3557887721706
 31
0.0
  0
LINE
  5
2A7
330
1F
100
AcDbEntity
  8
A-2_蓋
  6
Continuous
 62
     3
370
     9
100
AcDbLine
 10
-2912.432283968538
 20
306.3556155642956
 30
0.0
 11
-2912.432283968538
 21
1246.355994972023
 31
0.0
  0
LINE
  5
2A8
330
1F
100
AcDbEntity
  8
A-2_蓋
  6
Continuous
 62
     3
370
     9
100
AcDbLine
 10
-2862.435830605996
 20
-228.6457783467057
 30
0.0
 11
-2862.435830605996
 21
246.3557887721706
 31
0.0
  0
LINE
  5
2A9
330
1F
100
AcDbEntity
  8
A-2_蓋
  6
Continuous
 62
     3
370
     9
100
AcDbLine
 10
-2862.435830605996
 20
306.3556155642956
 30
0.0
 11
-2862.435830605996
 21
1246.355994972023
 31
0.0
  0
LINE
  5
2AA
330
1F
100
AcDbEntity
  8
A-2_蓋
  6
Continuous
 62
     3
370
     9
100
AcDbLine
 10
-2762.432283968538
 20
1306.355821764147
 30
0.0
 11
-2762.432283968538
 21
2246.356819771432
 31
0.0
  0
LINE
  5
2AB
330
1F
100
AcDbEntity
  8
A-2_蓋
  6
Continuous
 62
     3
370
     9
100
AcDbLine
 10
-2712.435830605996
 20
1306.355821764147
 30
0.0
 11
-2712.435830605996
 21
2246.356819771432
 31
0.0
  0
LINE
  5
2AC
330
1F
100
AcDbEntity
  8
A-2_蓋
  6
Continuous
 62
     3
370
     9
100
AcDbLine
 10
-2762.432283968538
 20
2306.356027964
 30
0.0
 11
-2762.432283968538
 21
3246.354551573059
 31
0.0
  0
LINE
  5
2AD
330
1F
100
AcDbEntity
  8
A-2_蓋
  6
Continuous
 62
     3
370
     9
100
AcDbLine
 10
-2762.432283968538
 20
3306.356234163852
 30
0.0
 11
-2762.432283968538
 21
3781.351615287163
 31
0.0
  0
LINE
  5
2AE
330
1F
100
AcDbEntity
  8
A-2_蓋
  6
Continuous
 62
     3
370
     9
100
AcDbLine
 10
-2712.435830605996
 20
2306.356027964
 30
0.0
 11
-2712.435830605996
 21
3246.354551573059
 31
0.0
  0
LINE
  5
2AF
330
1F
100
AcDbEntity
  8
A-2_蓋
  6
Continuous
 62
     3
370
     9
100
AcDbLine
 10
-2712.435830605996
 20
3306.356234163852
 30
0.0
 11
-2712.435830605996
 21
3781.351615287163
 31
0.0
  0
LINE
  5
2B0
330
1F
100
AcDbEntity
  8
A-2_蓋
  6
Continuous
 62
     3
370
     9
100
AcDbLine
 10
-2762.432283968538
 20
-228.6457783467057
 30
0.0
 11
-2762.432283968538
 21
246.3557887721706
 31
0.0
  0
LINE
  5
2B1
330
1F
100
AcDbEntity
  8
A-2_蓋
  6
Continuous
 62
     3
370
     9
100
AcDbLine
 10
-2762.432283968538
 20
306.3556155642956
 30
0.0
 11
-2762.432283968538
 21
1246.355994972023
 31
0.0
  0
LINE
  5
2B2
330
1F
100
AcDbEntity
  8
A-2_蓋
  6
Continuous
 62
     3
370
     9
100
AcDbLine
 10
-2712.435830605996
 20
-228.6457783467057
 30
0.0
 11
-2712.435830605996
 21
246.3557887721706
 31
0.0
  0
LINE
  5
2B3
330
1F
100
AcDbEntity
  8
A-2_蓋
  6
Continuous
 62
     3
370
     9
100
AcDbLine
 10
-2712.435830605996
 20
306.3556155642956
 30
0.0
 11
-2712.435830605996
 21
1246.355994972023
 31
0.0
  0
LINE
  5
2B4
330
1F
100
AcDbEntity
  8
A-2_蓋
  6
Continuous
 62
     3
370
     9
100
AcDbLine
 10
-2612.432283968538
 20
1306.355821764147
 30
0.0
 11
-2612.432283968538
 21
2246.356819771432
 31
0.0
  0
LINE
  5
2B5
330
1F
100
AcDbEntity
  8
A-2_蓋
  6
Continuous
 62
     3
370
     9
100
AcDbLine
 10
-2562.435830605996
 20
1306.355821764147
 30
0.0
 11
-2562.435830605996
 21
2246.356819771432
 31
0.0
  0
LINE
  5
2B6
330
1F
100
AcDbEntity
  8
A-2_蓋
  6
Continuous
 62
     3
370
     9
100
AcDbLine
 10
-2612.432283968538
 20
2306.356027964
 30
0.0
 11
-2612.432283968538
 21
3246.354551573059
 31
0.0
  0
LINE
  5
2B7
330
1F
100
AcDbEntity
  8
A-2_蓋
  6
Continuous
 62
     3
370
     9
100
AcDbLine
 10
-2612.432283968538
 20
3306.356234163852
 30
0.0
 11
-2612.432283968538
 21
3781.351615287163
 31
0.0
  0
LINE
  5
2B8
330
1F
100
AcDbEntity
  8
A-2_蓋
  6
Continuous
 62
     3
370
     9
100
AcDbLine
 10
-2562.435830605996
 20
2306.356027964
 30
0.0
 11
-2562.435830605996
 21
3246.354551573059
 31
0.0
  0
LINE
  5
2B9
330
1F
100
AcDbEntity
  8
A-2_蓋
  6
Continuous
 62
     3
370
     9
100
AcDbLine
 10
-2562.435830605996
 20
3306.356234163852
 30
0.0
 11
-2562.435830605996
 21
3781.351615287163
 31
0.0
  0
LINE
  5
2BA
330
1F
100
AcDbEntity
  8
A-2_蓋
  6
Continuous
 62
     3
370
     9
100
AcDbLine
 10
-2612.432283968538
 20
-228.6457783467057
 30
0.0
 11
-2612.432283968538
 21
246.3557887721706
 31
0.0
  0
LINE
  5
2BB
330
1F
100
AcDbEntity
  8
A-2_蓋
  6
Continuous
 62
     3
370
     9
100
AcDbLine
 10
-2612.432283968538
 20
306.3556155642956
 30
0.0
 11
-2612.432283968538
 21
1246.355994972023
 31
0.0
  0
LINE
  5
2BC
330
1F
100
AcDbEntity
  8
A-2_蓋
  6
Continuous
 62
     3
370
     9
100
AcDbLine
 10
-2562.435830605996
 20
-228.6457783467057
 30
0.0
 11
-2562.435830605996
 21
246.3557887721706
 31
0.0
  0
LINE
  5
2BD
330
1F
100
AcDbEntity
  8
A-2_蓋
  6
Continuous
 62
     3
370
     9
100
AcDbLine
 10
-2562.435830605996
 20
306.3556155642956
 30
0.0
 11
-2562.435830605996
 21
1246.355994972023
 31
0.0
  0
LINE
  5
2BE
330
1F
100
AcDbEntity
  8
A-2_蓋
  6
Continuous
 62
     3
370
     9
100
AcDbLine
 10
-2462.432283968538
 20
1306.355821764147
 30
0.0
 11
-2462.432283968538
 21
2246.356819771432
 31
0.0
  0
LINE
  5
2BF
330
1F
100
AcDbEntity
  8
A-2_蓋
  6
Continuous
 62
     3
370
     9
100
AcDbLine
 10
-2412.435830605996
 20
1306.355821764147
 30
0.0
 11
-2412.435830605996
 21
2246.356819771432
 31
0.0
  0
LINE
  5
2C0
330
1F
100
AcDbEntity
  8
A-2_蓋
  6
Continuous
 62
     3
370
     9
100
AcDbLine
 10
-2462.432283968538
 20
2306.356027964
 30
0.0
 11
-2462.432283968538
 21
3246.354551573059
 31
0.0
  0
LINE
  5
2C1
330
1F
100
AcDbEntity
  8
A-2_蓋
  6
Continuous
 62
     3
370
     9
100
AcDbLine
 10
-2462.432283968538
 20
3306.356234163852
 30
0.0
 11
-2462.432283968538
 21
3781.351615287163
 31
0.0
  0
LINE
  5
2C2
330
1F
100
AcDbEntity
  8
A-2_蓋
  6
Continuous
 62
     3
370
     9
100
AcDbLine
 10
-2412.435830605996
 20
2306.356027964
 30
0.0
 11
-2412.435830605996
 21
3246.354551573059
 31
0.0
  0
LINE
  5
2C3
330
1F
100
AcDbEntity
  8
A-2_蓋
  6
Continuous
 62
     3
370
     9
100
AcDbLine
 10
-2412.435830605996
 20
3306.356234163852
 30
0.0
 11
-2412.435830605996
 21
3781.351615287163
 31
0.0
  0
LINE
  5
2C4
330
1F
100
AcDbEntity
  8
A-2_蓋
  6
Continuous
 62
     3
370
     9
100
AcDbLine
 10
-2462.432283968538
 20
-228.6457783467057
 30
0.0
 11
-2462.432283968538
 21
246.3557887721706
 31
0.0
  0
LINE
  5
2C5
330
1F
100
AcDbEntity
  8
A-2_蓋
  6
Continuous
 62
     3
370
     9
100
AcDbLine
 10
-2462.432283968538
 20
306.3556155642956
 30
0.0
 11
-2462.432283968538
 21
1246.355994972023
 31
0.0
  0
LINE
  5
2C6
330
1F
100
AcDbEntity
  8
A-2_蓋
  6
Continuous
 62
     3
370
     9
100
AcDbLine
 10
-2412.435830605996
 20
-228.6457783467057
 30
0.0
 11
-2412.435830605996
 21
246.3557887721706
 31
0.0
  0
LINE
  5
2C7
330
1F
100
AcDbEntity
  8
A-2_蓋
  6
Continuous
 62
     3
370
     9
100
AcDbLine
 10
-2412.435830605996
 20
306.3556155642956
 30
0.0
 11
-2412.435830605996
 21
1246.355994972023
 31
0.0
  0
LINE
  5
2C8
330
1F
100
AcDbEntity
  8
A-2_蓋
  6
Continuous
 62
     3
370
     9
100
AcDbLine
 10
-2312.432283968538
 20
1306.355821764147
 30
0.0
 11
-2312.432283968538
 21
2246.356819771432
 31
0.0
  0
LINE
  5
2C9
330
1F
100
AcDbEntity
  8
A-2_蓋
  6
Continuous
 62
     3
370
     9
100
AcDbLine
 10
-2262.435830605996
 20
1306.355821764147
 30
0.0
 11
-2262.435830605996
 21
2246.356819771432
 31
0.0
  0
LINE
  5
2CA
330
1F
100
AcDbEntity
  8
A-2_蓋
  6
Continuous
 62
     3
370
     9
100
AcDbLine
 10
-2312.432283968538
 20
2306.356027964
 30
0.0
 11
-2312.432283968538
 21
3246.354551573059
 31
0.0
  0
LINE
  5
2CB
330
1F
100
AcDbEntity
  8
A-2_蓋
  6
Continuous
 62
     3
370
     9
100
AcDbLine
 10
-2312.432283968538
 20
3306.356234163852
 30
0.0
 11
-2312.432283968538
 21
3781.351615287163
 31
0.0
  0
LINE
  5
2CC
330
1F
100
AcDbEntity
  8
A-2_蓋
  6
Continuous
 62
     3
370
     9
100
AcDbLine
 10
-2262.435830605996
 20
2306.356027964
 30
0.0
 11
-2262.435830605996
 21
3246.354551573059
 31
0.0
  0
LINE
  5
2CD
330
1F
100
AcDbEntity
  8
A-2_蓋
  6
Continuous
 62
     3
370
     9
100
AcDbLine
 10
-2262.435830605996
 20
3306.356234163852
 30
0.0
 11
-2262.435830605996
 21
3781.351615287163
 31
0.0
  0
LINE
  5
2CE
330
1F
100
AcDbEntity
  8
A-2_蓋
  6
Continuous
 62
     3
370
     9
100
AcDbLine
 10
-2312.432283968538
 20
-228.6457783467057
 30
0.0
 11
-2312.432283968538
 21
246.3557887721706
 31
0.0
  0
LINE
  5
2CF
330
1F
100
AcDbEntity
  8
A-2_蓋
  6
Continuous
 62
     3
370
     9
100
AcDbLine
 10
-2312.432283968538
 20
306.3556155642956
 30
0.0
 11
-2312.432283968538
 21
1246.355994972023
 31
0.0
  0
LINE
  5
2D0
330
1F
100
AcDbEntity
  8
A-2_蓋
  6
Continuous
 62
     3
370
     9
100
AcDbLine
 10
-2262.435830605996
 20
-228.6457783467057
 30
0.0
 11
-2262.435830605996
 21
246.3557887721706
 31
0.0
  0
LINE
  5
2D1
330
1F
100
AcDbEntity
  8
A-2_蓋
  6
Continuous
 62
     3
370
     9
100
AcDbLine
 10
-2262.435830605996
 20
306.3556155642956
 30
0.0
 11
-2262.435830605996
 21
1246.355994972023
 31
0.0
  0
LINE
  5
2D2
330
1F
100
AcDbEntity
  8
A-2_蓋
  6
Continuous
 62
     3
370
     9
100
AcDbLine
 10
-2162.432283968538
 20
1306.355821764147
 30
0.0
 11
-2162.432283968538
 21
2246.356819771432
 31
0.0
  0
LINE
  5
2D3
330
1F
100
AcDbEntity
  8
A-2_蓋
  6
Continuous
 62
     3
370
     9
100
AcDbLine
 10
-2112.435830605996
 20
1306.355821764147
 30
0.0
 11
-2112.435830605996
 21
2246.356819771432
 31
0.0
  0
LINE
  5
2D4
330
1F
100
AcDbEntity
  8
A-2_蓋
  6
Continuous
 62
     3
370
     9
100
AcDbLine
 10
-2162.432283968538
 20
2306.356027964
 30
0.0
 11
-2162.432283968538
 21
3246.354551573059
 31
0.0
  0
LINE
  5
2D5
330
1F
100
AcDbEntity
  8
A-2_蓋
  6
Continuous
 62
     3
370
     9
100
AcDbLine
 10
-2162.432283968538
 20
3306.356234163852
 30
0.0
 11
-2162.432283968538
 21
3781.351615287163
 31
0.0
  0
LINE
  5
2D6
330
1F
100
AcDbEntity
  8
A-2_蓋
  6
Continuous
 62
     3
370
     9
100
AcDbLine
 10
-2112.435830605996
 20
2306.356027964
 30
0.0
 11
-2112.435830605996
 21
3246.354551573059
 31
0.0
  0
LINE
  5
2D7
330
1F
100
AcDbEntity
  8
A-2_蓋
  6
Continuous
 62
     3
370
     9
100
AcDbLine
 10
-2112.435830605996
 20
3306.356234163852
 30
0.0
 11
-2112.435830605996
 21
3781.351615287163
 31
0.0
  0
LINE
  5
2D8
330
1F
100
AcDbEntity
  8
A-2_蓋
  6
Continuous
 62
     3
370
     9
100
AcDbLine
 10
-2162.432283968538
 20
-228.6457783467057
 30
0.0
 11
-2162.432283968538
 21
246.3557887721706
 31
0.0
  0
LINE
  5
2D9
330
1F
100
AcDbEntity
  8
A-2_蓋
  6
Continuous
 62
     3
370
     9
100
AcDbLine
 10
-2162.432283968538
 20
306.3556155642956
 30
0.0
 11
-2162.432283968538
 21
1246.355994972023
 31
0.0
  0
LINE
  5
2DA
330
1F
100
AcDbEntity
  8
A-2_蓋
  6
Continuous
 62
     3
370
     9
100
AcDbLine
 10
-2112.435830605996
 20
-228.6457783467057
 30
0.0
 11
-2112.435830605996
 21
246.3557887721706
 31
0.0
  0
LINE
  5
2DB
330
1F
100
AcDbEntity
  8
A-2_蓋
  6
Continuous
 62
     3
370
     9
100
AcDbLine
 10
-2112.435830605996
 20
306.3556155642956
 30
0.0
 11
-2112.435830605996
 21
1246.355994972023
 31
0.0
  0
LINE
  5
2DC
330
1F
100
AcDbEntity
  8
A-2_蓋
  6
Continuous
 62
     3
370
     9
100
AcDbLine
 10
-2012.432283968538
 20
1306.355821764147
 30
0.0
 11
-2012.432283968538
 21
2246.356819771432
 31
0.0
  0
LINE
  5
2DD
330
1F
100
AcDbEntity
  8
A-2_蓋
  6
Continuous
 62
     3
370
     9
100
AcDbLine
 10
-1962.435830605996
 20
1306.355821764147
 30
0.0
 11
-1962.435830605996
 21
2246.356819771432
 31
0.0
  0
LINE
  5
2DE
330
1F
100
AcDbEntity
  8
A-2_蓋
  6
Continuous
 62
     3
370
     9
100
AcDbLine
 10
-2012.432283968538
 20
2306.356027964
 30
0.0
 11
-2012.432283968538
 21
3246.354551573059
 31
0.0
  0
LINE
  5
2DF
330
1F
100
AcDbEntity
  8
A-2_蓋
  6
Continuous
 62
     3
370
     9
100
AcDbLine
 10
-2012.432283968538
 20
3306.356234163852
 30
0.0
 11
-2012.432283968538
 21
3781.351615287163
 31
0.0
  0
LINE
  5
2E0
330
1F
100
AcDbEntity
  8
A-2_蓋
  6
Continuous
 62
     3
370
     9
100
AcDbLine
 10
-1962.435830605996
 20
2306.356027964
 30
0.0
 11
-1962.435830605996
 21
3246.354551573059
 31
0.0
  0
LINE
  5
2E1
330
1F
100
AcDbEntity
  8
A-2_蓋
  6
Continuous
 62
     3
370
     9
100
AcDbLine
 10
-1962.435830605996
 20
3306.356234163852
 30
0.0
 11
-1962.435830605996
 21
3781.351615287163
 31
0.0
  0
LINE
  5
2E2
330
1F
100
AcDbEntity
  8
A-2_蓋
  6
Continuous
 62
     3
370
     9
100
AcDbLine
 10
-2012.432283968538
 20
-228.6457783467057
 30
0.0
 11
-2012.432283968538
 21
246.3557887721706
 31
0.0
  0
LINE
  5
2E3
330
1F
100
AcDbEntity
  8
A-2_蓋
  6
Continuous
 62
     3
370
     9
100
AcDbLine
 10
-2012.432283968538
 20
306.3556155642956
 30
0.0
 11
-2012.432283968538
 21
1246.355994972023
 31
0.0
  0
LINE
  5
2E4
330
1F
100
AcDbEntity
  8
A-2_蓋
  6
Continuous
 62
     3
370
     9
100
AcDbLine
 10
-1962.435830605996
 20
-228.6457783467057
 30
0.0
 11
-1962.435830605996
 21
246.3557887721706
 31
0.0
  0
LINE
  5
2E5
330
1F
100
AcDbEntity
  8
A-2_蓋
  6
Continuous
 62
     3
370
     9
100
AcDbLine
 10
-1962.435830605996
 20
306.3556155642956
 30
0.0
 11
-1962.435830605996
 21
1246.355994972023
 31
0.0
  0
LINE
  5
2E6
330
1F
100
AcDbEntity
  8
A-2_蓋
  6
Continuous
 62
     3
370
     9
100
AcDbLine
 10
-1862.432283968538
 20
1306.355821764147
 30
0.0
 11
-1862.432283968538
 21
2246.356819771432
 31
0.0
  0
LINE
  5
2E7
330
1F
100
AcDbEntity
  8
A-2_蓋
  6
Continuous
 62
     3
370
     9
100
AcDbLine
 10
-1812.435830605996
 20
1306.355821764147
 30
0.0
 11
-1812.435830605996
 21
2246.356819771432
 31
0.0
  0
LINE
  5
2E8
330
1F
100
AcDbEntity
  8
A-2_蓋
  6
Continuous
 62
     3
370
     9
100
AcDbLine
 10
-1862.432283968538
 20
2306.356027964
 30
0.0
 11
-1862.432283968538
 21
3246.354551573059
 31
0.0
  0
LINE
  5
2E9
330
1F
100
AcDbEntity
  8
A-2_蓋
  6
Continuous
 62
     3
370
     9
100
AcDbLine
 10
-1862.432283968538
 20
3306.356234163852
 30
0.0
 11
-1862.432283968538
 21
3781.351615287163
 31
0.0
  0
LINE
  5
2EA
330
1F
100
AcDbEntity
  8
A-2_蓋
  6
Continuous
 62
     3
370
     9
100
AcDbLine
 10
-1812.435830605996
 20
2306.356027964
 30
0.0
 11
-1812.435830605996
 21
3246.354551573059
 31
0.0
  0
LINE
  5
2EB
330
1F
100
AcDbEntity
  8
A-2_蓋
  6
Continuous
 62
     3
370
     9
100
AcDbLine
 10
-1812.435830605996
 20
3306.356234163852
 30
0.0
 11
-1812.435830605996
 21
3781.351615287163
 31
0.0
  0
LINE
  5
2EC
330
1F
100
AcDbEntity
  8
A-2_蓋
  6
Continuous
 62
     3
370
     9
100
AcDbLine
 10
-1862.432283968538
 20
-228.6457783467057
 30
0.0
 11
-1862.432283968538
 21
246.3557887721706
 31
0.0
  0
LINE
  5
2ED
330
1F
100
AcDbEntity
  8
A-2_蓋
  6
Continuous
 62
     3
370
     9
100
AcDbLine
 10
-1862.432283968538
 20
306.3556155642956
 30
0.0
 11
-1862.432283968538
 21
1246.355994972023
 31
0.0
  0
LINE
  5
2EE
330
1F
100
AcDbEntity
  8
A-2_蓋
  6
Continuous
 62
     3
370
     9
100
AcDbLine
 10
-1812.435830605996
 20
-228.6457783467057
 30
0.0
 11
-1812.435830605996
 21
246.3557887721706
 31
0.0
  0
LINE
  5
2EF
330
1F
100
AcDbEntity
  8
A-2_蓋
  6
Continuous
 62
     3
370
     9
100
AcDbLine
 10
-1812.435830605996
 20
306.3556155642956
 30
0.0
 11
-1812.435830605996
 21
1246.355994972023
 31
0.0
  0
LINE
  5
2F0
330
1F
100
AcDbEntity
  8
A-2_蓋
  6
Continuous
 62
     3
370
     9
100
AcDbLine
 10
-1712.432283968538
 20
1306.355821764147
 30
0.0
 11
-1712.432283968538
 21
2246.356819771432
 31
0.0
  0
LINE
  5
2F1
330
1F
100
AcDbEntity
  8
A-2_蓋
  6
Continuous
 62
     3
370
     9
100
AcDbLine
 10
-1662.435830605996
 20
1306.355821764147
 30
0.0
 11
-1662.435830605996
 21
2246.356819771432
 31
0.0
  0
LINE
  5
2F2
330
1F
100
AcDbEntity
  8
A-2_蓋
  6
Continuous
 62
     3
370
     9
100
AcDbLine
 10
-1712.432283968538
 20
2306.356027964
 30
0.0
 11
-1712.432283968538
 21
3246.354551573059
 31
0.0
  0
LINE
  5
2F3
330
1F
100
AcDbEntity
  8
A-2_蓋
  6
Continuous
 62
     3
370
     9
100
AcDbLine
 10
-1712.432283968538
 20
3306.356234163852
 30
0.0
 11
-1712.432283968538
 21
3781.351615287163
 31
0.0
  0
LINE
  5
2F4
330
1F
100
AcDbEntity
  8
A-2_蓋
  6
Continuous
 62
     3
370
     9
100
AcDbLine
 10
-1662.435830605996
 20
2306.356027964
 30
0.0
 11
-1662.435830605996
 21
3246.354551573059
 31
0.0
  0
LINE
  5
2F5
330
1F
100
AcDbEntity
  8
A-2_蓋
  6
Continuous
 62
     3
370
     9
100
AcDbLine
 10
-1662.435830605996
 20
3306.356234163852
 30
0.0
 11
-1662.435830605996
 21
3781.351615287163
 31
0.0
  0
LINE
  5
2F6
330
1F
100
AcDbEntity
  8
A-2_蓋
  6
Continuous
 62
     3
370
     9
100
AcDbLine
 10
-1712.432283968538
 20
-228.6457783467057
 30
0.0
 11
-1712.432283968538
 21
246.3557887721706
 31
0.0
  0
LINE
  5
2F7
330
1F
100
AcDbEntity
  8
A-2_蓋
  6
Continuous
 62
     3
370
     9
100
AcDbLine
 10
-1712.432283968538
 20
306.3556155642956
 30
0.0
 11
-1712.432283968538
 21
1246.355994972023
 31
0.0
  0
LINE
  5
2F8
330
1F
100
AcDbEntity
  8
A-2_蓋
  6
Continuous
 62
     3
370
     9
100
AcDbLine
 10
-1662.435830605996
 20
-228.6457783467057
 30
0.0
 11
-1662.435830605996
 21
246.3557887721706
 31
0.0
  0
LINE
  5
2F9
330
1F
100
AcDbEntity
  8
A-2_蓋
  6
Continuous
 62
     3
370
     9
100
AcDbLine
 10
-1662.435830605996
 20
306.3556155642956
 30
0.0
 11
-1662.435830605996
 21
1246.355994972023
 31
0.0
  0
LINE
  5
2FA
330
1F
100
AcDbEntity
  8
A-2_蓋
  6
Continuous
 62
     3
370
     9
100
AcDbLine
 10
-1562.432283968538
 20
1306.355821764147
 30
0.0
 11
-1562.432283968538
 21
2246.356819771432
 31
0.0
  0
LINE
  5
2FB
330
1F
100
AcDbEntity
  8
A-2_蓋
  6
Continuous
 62
     3
370
     9
100
AcDbLine
 10
-1512.435830605996
 20
1306.355821764147
 30
0.0
 11
-1512.435830605996
 21
2246.356819771432
 31
0.0
  0
LINE
  5
2FC
330
1F
100
AcDbEntity
  8
A-2_蓋
  6
Continuous
 62
     3
370
     9
100
AcDbLine
 10
-1562.432283968538
 20
2306.356027964
 30
0.0
 11
-1562.432283968538
 21
3246.354551573059
 31
0.0
  0
LINE
  5
2FD
330
1F
100
AcDbEntity
  8
A-2_蓋
  6
Continuous
 62
     3
370
     9
100
AcDbLine
 10
-1562.432283968538
 20
3306.356234163852
 30
0.0
 11
-1562.432283968538
 21
3781.351615287163
 31
0.0
  0
LINE
  5
2FE
330
1F
100
AcDbEntity
  8
A-2_蓋
  6
Continuous
 62
     3
370
     9
100
AcDbLine
 10
-1512.435830605996
 20
2306.356027964
 30
0.0
 11
-1512.435830605996
 21
3246.354551573059
 31
0.0
  0
LINE
  5
2FF
330
1F
100
AcDbEntity
  8
A-2_蓋
  6
Continuous
 62
     3
370
     9
100
AcDbLine
 10
-1512.435830605996
 20
3306.356234163852
 30
0.0
 11
-1512.435830605996
 21
3781.351615287163
 31
0.0
  0
LINE
  5
300
330
1F
100
AcDbEntity
  8
A-2_蓋
  6
Continuous
 62
     3
370
     9
100
AcDbLine
 10
-1562.432283968538
 20
-228.6457783467057
 30
0.0
 11
-1562.432283968538
 21
246.3557887721706
 31
0.0
  0
LINE
  5
301
330
1F
100
AcDbEntity
  8
A-2_蓋
  6
Continuous
 62
     3
370
     9
100
AcDbLine
 10
-1562.432283968538
 20
306.3556155642956
 30
0.0
 11
-1562.432283968538
 21
1246.355994972023
 31
0.0
  0
LINE
  5
302
330
1F
100
AcDbEntity
  8
A-2_蓋
  6
Continuous
 62
     3
370
     9
100
AcDbLine
 10
-1512.435830605996
 20
-228.6457783467057
 30
0.0
 11
-1512.435830605996
 21
246.3557887721706
 31
0.0
  0
LINE
  5
303
330
1F
100
AcDbEntity
  8
A-2_蓋
  6
Continuous
 62
     3
370
     9
100
AcDbLine
 10
-1512.435830605996
 20
306.3556155642956
 30
0.0
 11
-1512.435830605996
 21
1246.355994972023
 31
0.0
  0
LINE
  5
304
330
1F
100
AcDbEntity
  8
A-2_蓋
  6
Continuous
 62
     3
370
     9
100
AcDbLine
 10
-1412.432283968538
 20
1306.355821764147
 30
0.0
 11
-1412.432283968538
 21
2246.356819771432
 31
0.0
  0
LINE
  5
305
330
1F
100
AcDbEntity
  8
A-2_蓋
  6
Continuous
 62
     3
370
     9
100
AcDbLine
 10
-1362.435830605996
 20
1306.355821764147
 30
0.0
 11
-1362.435830605996
 21
2246.356819771432
 31
0.0
  0
LINE
  5
306
330
1F
100
AcDbEntity
  8
A-2_蓋
  6
Continuous
 62
     3
370
     9
100
AcDbLine
 10
-1412.432283968538
 20
2306.356027964
 30
0.0
 11
-1412.432283968538
 21
3246.354551573059
 31
0.0
  0
LINE
  5
307
330
1F
100
AcDbEntity
  8
A-2_蓋
  6
Continuous
 62
     3
370
     9
100
AcDbLine
 10
-1412.432283968538
 20
3306.356234163852
 30
0.0
 11
-1412.432283968538
 21
3781.351615287163
 31
0.0
  0
LINE
  5
308
330
1F
100
AcDbEntity
  8
A-2_蓋
  6
Continuous
 62
     3
370
     9
100
AcDbLine
 10
-1362.435830605996
 20
2306.356027964
 30
0.0
 11
-1362.435830605996
 21
3246.354551573059
 31
0.0
  0
LINE
  5
309
330
1F
100
AcDbEntity
  8
A-2_蓋
  6
Continuous
 62
     3
370
     9
100
AcDbLine
 10
-1362.435830605996
 20
3306.356234163852
 30
0.0
 11
-1362.435830605996
 21
3781.351615287163
 31
0.0
  0
LINE
  5
30A
330
1F
100
AcDbEntity
  8
A-2_蓋
  6
Continuous
 62
     3
370
     9
100
AcDbLine
 10
-1412.432283968538
 20
-228.6457783467057
 30
0.0
 11
-1412.432283968538
 21
246.3557887721706
 31
0.0
  0
LINE
  5
30B
330
1F
100
AcDbEntity
  8
A-2_蓋
  6
Continuous
 62
     3
370
     9
100
AcDbLine
 10
-1412.432283968538
 20
306.3556155642956
 30
0.0
 11
-1412.432283968538
 21
1246.355994972023
 31
0.0
  0
LINE
  5
30C
330
1F
100
AcDbEntity
  8
A-2_蓋
  6
Continuous
 62
     3
370
     9
100
AcDbLine
 10
-1362.435830605996
 20
-228.6457783467057
 30
0.0
 11
-1362.435830605996
 21
246.3557887721706
 31
0.0
  0
LINE
  5
30D
330
1F
100
AcDbEntity
  8
A-2_蓋
  6
Continuous
 62
     3
370
     9
100
AcDbLine
 10
-1362.435830605996
 20
306.3556155642956
 30
0.0
 11
-1362.435830605996
 21
1246.355994972023
 31
0.0
  0
LINE
  5
30E
330
1F
100
AcDbEntity
  8
A-2_蓋
  6
Continuous
 62
     3
370
     9
100
AcDbLine
 10
-1262.432283968538
 20
1306.355821764147
 30
0.0
 11
-1262.432283968538
 21
2246.356819771432
 31
0.0
  0
LINE
  5
30F
330
1F
100
AcDbEntity
  8
A-2_蓋
  6
Continuous
 62
     3
370
     9
100
AcDbLine
 10
-1212.435830605996
 20
1306.355821764147
 30
0.0
 11
-1212.435830605996
 21
2246.356819771432
 31
0.0
  0
LINE
  5
310
330
1F
100
AcDbEntity
  8
A-2_蓋
  6
Continuous
 62
     3
370
     9
100
AcDbLine
 10
-1262.432283968538
 20
2306.356027964
 30
0.0
 11
-1262.432283968538
 21
3246.354551573059
 31
0.0
  0
LINE
  5
311
330
1F
100
AcDbEntity
  8
A-2_蓋
  6
Continuous
 62
     3
370
     9
100
AcDbLine
 10
-1262.432283968538
 20
3306.356234163852
 30
0.0
 11
-1262.432283968538
 21
3781.351615287163
 31
0.0
  0
LINE
  5
312
330
1F
100
AcDbEntity
  8
A-2_蓋
  6
Continuous
 62
     3
370
     9
100
AcDbLine
 10
-1212.435830605996
 20
2306.356027964
 30
0.0
 11
-1212.435830605996
 21
3246.354551573059
 31
0.0
  0
LINE
  5
313
330
1F
100
AcDbEntity
  8
A-2_蓋
  6
Continuous
 62
     3
370
     9
100
AcDbLine
 10
-1212.435830605996
 20
3306.356234163852
 30
0.0
 11
-1212.435830605996
 21
3781.351615287163
 31
0.0
  0
LINE
  5
314
330
1F
100
AcDbEntity
  8
A-2_蓋
  6
Continuous
 62
     3
370
     9
100
AcDbLine
 10
-1262.432283968538
 20
-228.6457783467057
 30
0.0
 11
-1262.432283968538
 21
246.3557887721706
 31
0.0
  0
LINE
  5
315
330
1F
100
AcDbEntity
  8
A-2_蓋
  6
Continuous
 62
     3
370
     9
100
AcDbLine
 10
-1262.432283968538
 20
306.3556155642956
 30
0.0
 11
-1262.432283968538
 21
1246.355994972023
 31
0.0
  0
LINE
  5
316
330
1F
100
AcDbEntity
  8
A-2_蓋
  6
Continuous
 62
     3
370
     9
100
AcDbLine
 10
-1212.435830605996
 20
-228.6457783467057
 30
0.0
 11
-1212.435830605996
 21
246.3557887721706
 31
0.0
  0
LINE
  5
317
330
1F
100
AcDbEntity
  8
A-2_蓋
  6
Continuous
 62
     3
370
     9
100
AcDbLine
 10
-1212.435830605996
 20
306.3556155642956
 30
0.0
 11
-1212.435830605996
 21
1246.355994972023
 31
0.0
  0
LINE
  5
318
330
1F
100
AcDbEntity
  8
A-2_蓋
  6
Continuous
 62
     3
370
     9
100
AcDbLine
 10
-1112.432283968538
 20
1306.355821764147
 30
0.0
 11
-1112.432283968538
 21
2246.356819771432
 31
0.0
  0
LINE
  5
319
330
1F
100
AcDbEntity
  8
A-2_蓋
  6
Continuous
 62
     3
370
     9
100
AcDbLine
 10
-1062.435830605996
 20
1306.355821764147
 30
0.0
 11
-1062.435830605996
 21
2246.356819771432
 31
0.0
  0
LINE
  5
31A
330
1F
100
AcDbEntity
  8
A-2_蓋
  6
Continuous
 62
     3
370
     9
100
AcDbLine
 10
-1112.432283968538
 20
2306.356027964
 30
0.0
 11
-1112.432283968538
 21
3246.354551573059
 31
0.0
  0
LINE
  5
31B
330
1F
100
AcDbEntity
  8
A-2_蓋
  6
Continuous
 62
     3
370
     9
100
AcDbLine
 10
-1112.432283968538
 20
3306.356234163852
 30
0.0
 11
-1112.432283968538
 21
3781.351615287163
 31
0.0
  0
LINE
  5
31C
330
1F
100
AcDbEntity
  8
A-2_蓋
  6
Continuous
 62
     3
370
     9
100
AcDbLine
 10
-1062.435830605996
 20
2306.356027964
 30
0.0
 11
-1062.435830605996
 21
3246.354551573059
 31
0.0
  0
LINE
  5
31D
330
1F
100
AcDbEntity
  8
A-2_蓋
  6
Continuous
 62
     3
370
     9
100
AcDbLine
 10
-1062.435830605996
 20
3306.356234163852
 30
0.0
 11
-1062.435830605996
 21
3781.351615287163
 31
0.0
  0
LINE
  5
31E
330
1F
100
AcDbEntity
  8
A-2_蓋
  6
Continuous
 62
     3
370
     9
100
AcDbLine
 10
-1112.432283968538
 20
-228.6457783467057
 30
0.0
 11
-1112.432283968538
 21
246.3557887721706
 31
0.0
  0
LINE
  5
31F
330
1F
100
AcDbEntity
  8
A-2_蓋
  6
Continuous
 62
     3
370
     9
100
AcDbLine
 10
-1112.432283968538
 20
306.3556155642956
 30
0.0
 11
-1112.432283968538
 21
1246.355994972023
 31
0.0
  0
LINE
  5
320
330
1F
100
AcDbEntity
  8
A-2_蓋
  6
Continuous
 62
     3
370
     9
100
AcDbLine
 10
-1062.435830605996
 20
-228.6457783467057
 30
0.0
 11
-1062.435830605996
 21
246.3557887721706
 31
0.0
  0
LINE
  5
321
330
1F
100
AcDbEntity
  8
A-2_蓋
  6
Continuous
 62
     3
370
     9
100
AcDbLine
 10
-1062.435830605996
 20
306.3556155642956
 30
0.0
 11
-1062.435830605996
 21
1246.355994972023
 31
0.0
  0
LINE
  5
322
330
1F
100
AcDbEntity
  8
A-5_仕様文
  6
Continuous
 62
     7
370
     9
100
AcDbLine
 10
-4763.176747914907
 20
3826.355970228042
 30
0.0
 11
-4746.861184609902
 21
3950.286205394849
 31
0.0
  0
LINE
  5
323
330
1F
100
AcDbEntity
  8
A-5_仕様文
  6
Continuous
 62
     7
370
     9
100
AcDbLine
 10
-4763.176747914907
 20
3826.355970228042
 30
0.0
 11
-4715.341062803526
 21
3941.841084248311
 31
0.0
  0
LINE
  5
324
330
1F
100
AcDbEntity
  8
A-5_仕様文
  6
Continuous
 62
     7
370
     9
100
AcDbLine
 10
-4062.435830605996
 20
3456.359203441724
 30
0.0
 11
-3794.405921729835
 21
4603.683224239866
 31
0.0
  0
LINE
  5
325
330
1F
100
AcDbEntity
  8
A-5_仕様文
  6
Continuous
 62
     7
370
     9
100
AcDbLine
 10
-4763.176747914907
 20
3826.355970228042
 30
0.0
 11
-4353.133701633762
 21
5403.683389199748
 31
0.0
  0
LINE
  5
326
330
1F
100
AcDbEntity
  8
A-5_仕様文
  6
Continuous
 62
     7
370
     9
100
AcDbLine
 10
-4353.133701633762
 20
5403.683389199748
 30
0.0
 11
-2046.111194507495
 21
5403.683389199748
 31
0.0
  0
LINE
  5
327
330
1F
100
AcDbEntity
  8
A-5_仕様文
  6
Continuous
 62
     7
370
     9
100
AcDbLine
 10
-3794.405921729835
 20
4603.683224239866
 30
0.0
 11
-1463.120702795079
 21
4603.683224239866
 31
0.0
  0
LINE
  5
328
330
1F
100
AcDbEntity
  8
A-5_仕様文
  6
Continuous
 62
     7
370
     9
100
AcDbLine
 10
-4046.86753556535
 20
5003.684543918919
 30
0.0
 11
-2154.072282120988
 21
5003.684543918919
 31
0.0
  0
LINE
  5
329
330
1F
100
AcDbEntity
  8
A-5_仕様文
  6
Continuous
 62
     7
370
     9
100
AcDbLine
 10
-4460.930860364759
 20
3311.356992979309
 30
0.0
 11
-4046.86753556535
 21
5003.684543918919
 31
0.0
  0
LINE
  5
32A
330
1F
100
AcDbEntity
  8
A-5_仕様文
  6
Continuous
 62
     7
370
     9
100
AcDbLine
 10
-4460.930860364759
 20
3311.356992979309
 30
0.0
 11
-4451.049351047825
 21
3435.965213260135
 31
0.0
  0
LINE
  5
32B
330
1F
100
AcDbEntity
  8
A-5_仕様文
  6
Continuous
 62
     7
370
     9
100
AcDbLine
 10
-4460.930860364759
 20
3311.356992979309
 30
0.0
 11
-4419.134562724345
 21
3429.160618137669
 31
0.0
  0
LINE
  5
32C
330
1F
100
AcDbEntity
  8
A-5_仕様文
  6
Continuous
 62
     7
370
     9
100
AcDbLine
 10
-4062.435830605996
 20
3456.359203441724
 30
0.0
 11
-4055.113467654667
 21
3581.143105996623
 31
0.0
  0
LINE
  5
32D
330
1F
100
AcDbEntity
  8
A-5_仕様文
  6
Continuous
 62
     7
370
     9
100
AcDbLine
 10
-4062.435830605996
 20
3456.359203441724
 30
0.0
 11
-4023.06568042652
 21
3574.996700802366
 31
0.0
  0
TEXT
  5
32E
330
1F
100
AcDbEntity
  8
A-5_仕様文
  6
Continuous
 62
     7
370
     9
100
AcDbText
 10
-4324.092906230205
 20
5491.967524678
 30
0.0
 40
114.3
  1
エンドプレート ＦＢ25×4.5
 41
1.16025641025641
  7
ＭＳ ゴシック
100
AcDbText
  0
TEXT
  5
32F
330
1F
100
AcDbEntity
  8
A-5_仕様文
  6
Continuous
 62
     7
370
     9
100
AcDbText
 10
-4016.480137688864
 20
5062.993476166648
 30
0.0
 40
114.3
  1
クロスバー φ６ ＠100
 50
359.999961158195
 41
1.158730158730159
  7
ＭＳ ゴシック
100
AcDbText
  0
TEXT
  5
330
330
1F
100
AcDbEntity
  8
A-5_仕様文
  6
Continuous
 62
     7
370
     9
100
AcDbText
 10
-3767.992937242662
 20
4655.474934675888
 30
0.0
 40
114.3
  1
メインバー ＤⅠ－３２ ＠15
 41
1.16025641025641
  7
ＭＳ ゴシック
100
AcDbText
  0
LINE
  5
331
330
1F
100
AcDbEntity
  8
A-4_寸法
  6
Continuous
 62
     7
370
     9
100
AcDbLine
 10
-2587.434057287267
 20
4026.21740207317
 30
0.0
 11
-2437.434057287267
 21
4026.21740207317
 31
0.0
  0
LWPOLYLINE
  5
332
330
1F
100
AcDbEntity
  8
A-4_寸法
  6
Continuous
 62
     7
370
     9
100
AcDbPolyline
 90
        4
 70
     1
 43
5.0
 10
-2584.934057287267
 20
4026.21740207317
 42
0.4142135623731
 10
-2587.434057287267
 20
4028.71740207317
 42
0.4142135623731
 10
-2589.934057287267
 20
4026.21740207317
 42
0.4142135623731
 10
-2587.434057287267
 20
4023.71740207317
 42
0.4142135623731
  0
LWPOLYLINE
  5
333
330
1F
100
AcDbEntity
  8
A-4_寸法
  6
Continuous
 62
     7
370
     9
100
AcDbPolyline
 90
        4
 70
     1
 43
5.0
 10
-2434.934057287267
 20
4026.21740207317
 42
0.4142135623731
 10
-2437.434057287267
 20
4028.71740207317
 42
0.4142135623731
 10
-2439.934057287267
 20
4026.21740207317
 42
0.4142135623731
 10
-2437.434057287267
 20
4023.71740207317
 42
0.4142135623731
  0
TEXT
  5
334
330
1F
100
AcDbEntity
  8
A-4_寸法
  6
Continuous
 62
     2
370
   211
100
AcDbText
 10
-2618.684057287267
 20
4084.417402073169
 30
0.0
 40
152.4
  1
15
 41
1.0625
  7
ＭＳ ゴシック
100
AcDbText
  0
LINE
  5
335
330
1F
100
AcDbEntity
  8
A-4_寸法
  6
Continuous
 62
     7
370
     9
100
AcDbLine
 10
-2587.434057287267
 20
4041.21740207317
 30
0.0
 11
-2587.434057287267
 21
3641.942954765014
 31
0.0
  0
LINE
  5
336
330
1F
100
AcDbEntity
  8
A-4_寸法
  6
Continuous
 62
     7
370
     9
100
AcDbLine
 10
-2437.434057287267
 20
4041.21740207317
 30
0.0
 11
-2437.434057287267
 21
3641.942954765014
 31
0.0
  0
TEXT
  5
337
330
1F
100
AcDbEntity
  8
A-5_仕様文
  6
Continuous
 62
     7
370
     9
100
AcDbText
 10
5008.043567554372
 20
4546.775857791385
 30
0.0
 40
114.3
  1
（Ｌ＝４９０）
 41
1.142857142857143
  7
ＭＳ ゴシック
100
AcDbText
  0
TEXT
  5
338
330
1F
100
AcDbEntity
  8
A-4_寸法
  6
Continuous
 62
     2
370
     9
100
AcDbText
 10
1984.685454497466
 20
-4576.946088471284
 30
0.0
 40
152.4
  1
定尺：５００
 41
1.104166666666667
  7
ＭＳ ゴシック
100
AcDbText
  0
TEXT
  5
339
330
1F
100
AcDbEntity
  8
A-5_仕様文
  6
Continuous
 62
     7
370
     9
100
AcDbText
 10
-4215.188437040066
 20
-6612.2145382443
 30
0.0
 40
114.3
  1
かさあげ型　細目ノンスリップタイプ　
 41
1.157407407407407
  7
ＭＳ ゴシック
100
AcDbText
  0
TEXT
  5
33A
330
1F
100
AcDbEntity
  8
A-5_仕様文
  6
Continuous
 62
     7
370
     9
100
AcDbText
 10
-3141.253145419452
 20
-6807.951809939823
 30
0.0
 40
114.3
  1
ＪＩＳ型側溝用　スチール製グレーチング　ＱＸＪ　４１３２Ａ
 41
1.160919540229885
  7
ＭＳ ゴシック
100
AcDbText
  0
LINE
  5
33B
330
1F
100
AcDbEntity
  8
A-4_寸法
  6
Continuous
 62
     7
370
     9
100
AcDbLine
 10
3892.971966717696
 20
-398.6437410921667
 30
0.0
 11
3892.971966717696
 21
-1315.671807366448
 31
0.0
  0
LINE
  5
33C
330
1F
100
AcDbEntity
  8
A-1_ピット
  6
Continuous
 62
     2
370
     9
100
AcDbLine
 10
3828.971656593117
 20
196.3556238122891
 30
0.0
 11
3356.974008921031
 21
196.3556238122891
 31
0.0
  0
LINE
  5
33D
330
1F
100
AcDbEntity
  8
A-1_ピット
  6
Continuous
 62
     2
370
     9
100
AcDbLine
 10
3828.970419394005
 20
-171.6443036053619
 30
0.0
 11
3356.971534522805
 21
-171.6443036053619
 31
0.0
  0
LINE
  5
33E
330
1F
100
AcDbEntity
  8
A-1_ピット
  6
Continuous
 62
     2
370
     9
100
AcDbLine
 10
3860.971811655406
 20
132.3553136877123
 30
0.0
 11
3860.971811655406
 21
-139.6429113439609
 31
0.0
  0
LINE
  5
33F
330
1F
100
AcDbEntity
  8
A-1_ピット
  6
Continuous
 62
     2
370
     9
100
AcDbLine
 10
3828.971656593117
 20
-203.644458667651
 30
0.0
 11
3356.974008921031
 21
-203.644458667651
 31
0.0
  0
LINE
  5
340
330
1F
100
AcDbEntity
  8
A-1_ピット
  6
Continuous
 62
     2
370
     9
100
AcDbLine
 10
3892.970729518581
 20
132.3553136877123
 30
0.0
 11
3892.970729518581
 21
-139.6453857421861
 31
0.0
  0
LINE
  5
341
330
1F
100
AcDbEntity
  8
A-1_ピット
  6
Continuous
 62
     2
370
     9
100
AcDbLine
 10
3356.974008921031
 20
164.3542315508881
 30
0.0
 11
3828.970419394005
 21
164.3542315508881
 31
0.0
  0
LINE
  5
342
330
1F
100
AcDbEntity
  8
A-1_ピット
  6
Continuous
 62
     2
370
     9
100
AcDbLine
 10
3324.97261665963
 20
132.3553136877123
 30
0.0
 11
3324.97261665963
 21
-139.6429113439609
 31
0.0
  0
ARC
  5
343
330
1F
100
AcDbEntity
  8
A-1_ピット
  6
Continuous
 62
     2
370
     9
100
AcDbCircle
 10
3356.974008921031
 20
132.3553136877123
 30
0.0
 40
63.99999599199037
100
AcDbArc
 50
90.0
 51
180.0
  0
ARC
  5
344
330
1F
100
AcDbEntity
  8
A-1_ピット
  6
Continuous
 62
     2
370
     9
100
AcDbCircle
 10
3828.971656593117
 20
132.3553136877123
 30
0.0
 40
63.99999599199037
100
AcDbArc
 50
0.0
 51
90.0
  0
ARC
  5
345
330
1F
100
AcDbEntity
  8
A-1_ピット
  6
Continuous
 62
     2
370
     9
100
AcDbCircle
 10
3828.970419394005
 20
132.3553136877123
 30
0.0
 40
31.99999799599519
100
AcDbArc
 50
0.0
 51
90.0
  0
ARC
  5
346
330
1F
100
AcDbEntity
  8
A-1_ピット
  6
Continuous
 62
     2
370
     9
100
AcDbCircle
 10
3356.974008921031
 20
-139.6453857421861
 30
0.0
 40
63.99999599199037
100
AcDbArc
 50
180.0
 51
270.0
  0
ARC
  5
347
330
1F
100
AcDbEntity
  8
A-1_ピット
  6
Continuous
 62
     2
370
     9
100
AcDbCircle
 10
3356.971534522805
 20
-139.6429113439609
 30
0.0
 40
31.99999799599519
100
AcDbArc
 50
180.0
 51
270.0
  0
ARC
  5
348
330
1F
100
AcDbEntity
  8
A-1_ピット
  6
Continuous
 62
     2
370
     9
100
AcDbCircle
 10
3828.970419394005
 20
-139.6429113439609
 30
0.0
 40
31.99999799599519
100
AcDbArc
 50
270.0
 51
0.0
  0
ARC
  5
349
330
1F
100
AcDbEntity
  8
A-1_ピット
  6
Continuous
 62
     2
370
     9
100
AcDbCircle
 10
3828.971656593117
 20
-139.6453857421861
 30
0.0
 40
63.99999599199037
100
AcDbArc
 50
270.0
 51
0.0
  0
ARC
  5
34A
330
1F
100
AcDbEntity
  8
A-1_ピット
  6
Continuous
 62
     2
370
     9
100
AcDbCircle
 10
3356.974008921031
 20
132.3553136877123
 30
0.0
 40
31.99999799599519
100
AcDbArc
 50
90.0
 51
180.0
  0
LINE
  5
34B
330
1F
100
AcDbEntity
  8
A-4_寸法
  6
Continuous
 62
     7
370
     9
100
AcDbLine
 10
-5912.432283968538
 20
-900.6719228383658
 30
0.0
 11
-912.4322839685384
 21
-900.6719228383658
 31
0.0
  0
TEXT
  5
34C
330
1F
100
AcDbEntity
  8
A-4_寸法
  6
Continuous
 62
     2
370
   211
100
AcDbText
 10
-3574.932283968538
 20
-842.4717001425247
 30
0.0
 40
152.4
  1
500
 41
1.083333333333333
  7
ＭＳ ゴシック
100
AcDbText
  0
ENDSEC
  0
SECTION
  2
OBJECTS
  0
DICTIONARY
  5
C
330
0
100
AcDbDictionary
281
     1
  3
ACAD_GROUP
350
D
  3
ACAD_LAYOUT
350
1A
  3
ACAD_MLEADERSTYLE
350
34E
  3
ACAD_MLINESTYLE
350
17
  3
ACAD_PLOTSETTINGS
350
19
  3
ACAD_PLOTSTYLENAME
350
E
  3
ACAD_TABLESTYLE
350
34D
  3
ACAD_VISUALSTYLE
350
2A
  0
DICTIONARY
  5
D
102
{ACAD_REACTORS
330
C
102
}
330
C
100
AcDbDictionary
281
     1
  0
DICTIONARY
  5
1A
102
{ACAD_REACTORS
330
C
102
}
330
C
100
AcDbDictionary
281
     1
  3
Layout1
350
1E
  3
Layout2
350
26
  3
Model
350
22
  0
DICTIONARY
  5
34E
102
{ACAD_REACTORS
330
C
102
}
330
C
100
AcDbDictionary
281
     1
  0
DICTIONARY
  5
17
102
{ACAD_REACTORS
330
C
102
}
330
C
100
AcDbDictionary
281
     1
  3
Standard
350
18
  0
DICTIONARY
  5
19
102
{ACAD_REACTORS
330
C
102
}
330
C
100
AcDbDictionary
281
     1
  0
ACDBDICTIONARYWDFLT
  5
E
102
{ACAD_REACTORS
330
C
102
}
330
C
100
AcDbDictionary
281
     1
  3
Normal
350
F
100
AcDbDictionaryWithDefault
340
F
  0
DICTIONARY
  5
34D
102
{ACAD_REACTORS
330
C
102
}
330
C
100
AcDbDictionary
281
     1
  0
DICTIONARY
  5
2A
102
{ACAD_REACTORS
330
C
102
}
330
C
100
AcDbDictionary
281
     1
  3
2dWireframe
350
2F
  3
3D Hidden
350
31
  3
3dWireframe
350
30
  3
Basic
350
32
  3
Brighten
350
36
  3
ColorChange
350
3A
  3
Conceptual
350
34
  3
Dim
350
35
  3
Facepattern
350
39
  3
Flat
350
2B
  3
FlatWithEdges
350
2C
  3
Gouraud
350
2D
  3
GouraudWithEdges
350
2E
  3
Linepattern
350
38
  3
Realistic
350
33
  3
Thicken
350
37
  0
LAYOUT
  5
1E
102
{ACAD_REACTORS
330
1A
102
}
330
1A
100
AcDbPlotSettings
  1

  2
none_device
  4

  6

 40
0.0
 41
0.0
 42
0.0
 43
0.0
 44
0.0
 45
0.0
 46
0.0
 47
0.0
 48
0.0
 49
0.0
140
0.0
141
0.0
142
1.0
143
1.0
 70
   688
 72
     0
 73
     0
 74
     5
  7

 75
    16
 76
     0
 77
     5
 78
   300
147
1.0
148
0.0
149
0.0
100
AcDbLayout
  1
Layout1
 70
     1
 71
     1
 10
0.0
 20
0.0
 11
420.0
 21
297.0
 12
0.0
 22
0.0
 32
0.0
 14
1.000000000000000E+20
 24
1.000000000000000E+20
 34
1.000000000000000E+20
 15
-1.000000000000000E+20
 25
-1.000000000000000E+20
 35
-1.000000000000000E+20
146
0.0
 13
0.0
 23
0.0
 33
0.0
 16
1.0
 26
0.0
 36
0.0
 17
0.0
 27
1.0
 37
0.0
 76
     0
330
1B
  0
LAYOUT
  5
26
102
{ACAD_REACTORS
330
1A
102
}
330
1A
100
AcDbPlotSettings
  1

  2
none_device
  4

  6

 40
0.0
 41
0.0
 42
0.0
 43
0.0
 44
0.0
 45
0.0
 46
0.0
 47
0.0
 48
0.0
 49
0.0
140
0.0
141
0.0
142
1.0
143
1.0
 70
   688
 72
     0
 73
     0
 74
     5
  7

 75
    16
 76
     0
 77
     5
 78
   300
147
1.0
148
0.0
149
0.0
100
AcDbLayout
  1
Layout2
 70
     1
 71
     2
 10
0.0
 20
0.0
 11
0.0
 21
0.0
 12
0.0
 22
0.0
 32
0.0
 14
0.0
 24
0.0
 34
0.0
 15
0.0
 25
0.0
 35
0.0
146
0.0
 13
0.0
 23
0.0
 33
0.0
 16
1.0
 26
0.0
 36
0.0
 17
0.0
 27
1.0
 37
0.0
 76
     0
330
23
  0
LAYOUT
  5
22
102
{ACAD_REACTORS
330
1A
102
}
330
1A
100
AcDbPlotSettings
  1

  2
none_device
  4

  6

 40
0.0
 41
0.0
 42
0.0
 43
0.0
 44
0.0
 45
0.0
 46
0.0
 47
0.0
 48
0.0
 49
0.0
140
0.0
141
0.0
142
1.0
143
1.0
 70
  1712
 72
     0
 73
     0
 74
     0
  7

 75
     0
 76
     0
 77
     5
 78
   300
147
1.0
148
0.0
149
0.0
100
AcDbLayout
  1
Model
 70
     1
 71
     0
 10
-10500.0
 20
-7425.0
 11
10500.0
 21
7425.0
 12
0.0
 22
0.0
 32
0.0
 14
-10500.0
 24
-7425.0
 34
0.0
 15
10500.0
 25
7425.0
 35
0.0
146
0.0
 13
0.0
 23
0.0
 33
0.0
 16
1.0
 26
0.0
 36
0.0
 17
0.0
 27
1.0
 37
0.0
 76
     0
330
1F
331
29
  0
MLINESTYLE
  5
18
102
{ACAD_REACTORS
330
17
102
}
330
17
100
AcDbMlineStyle
  2
Standard
 70
     0
  3

 62
   256
 51
90.0
 52
90.0
 71
     2
 49
0.5
 62
   256
  6
BYLAYER
 49
-0.5
 62
   256
  6
BYLAYER
  0
ACDBPLACEHOLDER
  5
F
102
{ACAD_REACTORS
330
E
102
}
330
E
  0
VISUALSTYLE
  5
2F
102
{ACAD_REACTORS
330
2A
102
}
330
2A
100
AcDbVisualStyle
  2
2dWireframe
 70
     4
 71
     0
 72
     2
 73
     0
 90
        0
 40
-0.6
 41
-30.0
 62
     5
 63
     7
421
 16777215
 74
     1
 91
        4
 64
     7
 65
   257
 75
     1
175
     1
 42
1.0
 92
        0
 66
   257
 43
1.0
 76
     1
 77
     6
 78
     2
 67
     7
 79
     5
170
     0
171
     0
290
     0
174
     0
 93
        1
 44
0.0
173
     0
291
     0
 45
0.0
1001
ACAD
1000
AcDbSavedByObjectVersion
1070
     0
  0
VISUALSTYLE
  5
31
102
{ACAD_REACTORS
330
2A
102
}
330
2A
100
AcDbVisualStyle
  2
3D Hidden
 70
     6
 71
     1
 72
     2
 73
     2
 90
        0
 40
-0.6
 41
-30.0
 62
     5
 63
     7
421
 16777215
 74
     2
 91
        2
 64
     7
 65
   257
 75
     2
175
     1
 42
40.0
 92
        0
 66
   257
 43
1.0
 76
     1
 77
     6
 78
     2
 67
     7
 79
     3
170
     0
171
     0
290
     0
174
     0
 93
        1
 44
0.0
173
     0
291
     0
 45
0.0
1001
ACAD
1000
AcDbSavedByObjectVersion
1070
     0
  0
VISUALSTYLE
  5
30
102
{ACAD_REACTORS
330
2A
102
}
330
2A
100
AcDbVisualStyle
  2
3dWireframe
 70
     5
 71
     0
 72
     2
 73
     0
 90
        0
 40
-0.6
 41
-30.0
 62
     5
 63
     7
421
 16777215
 74
     1
 91
        4
 64
     7
 65
   257
 75
     1
175
     1
 42
1.0
 92
        0
 66
   257
 43
1.0
 76
     1
 77
     6
 78
     2
 67
     7
 79
     5
170
     0
171
     0
290
     0
174
     0
 93
        1
 44
0.0
173
     0
291
     0
 45
0.0
1001
ACAD
1000
AcDbSavedByObjectVersion
1070
     0
  0
VISUALSTYLE
  5
32
102
{ACAD_REACTORS
330
2A
102
}
330
2A
100
AcDbVisualStyle
  2
Basic
 70
     7
 71
     1
 72
     0
 73
     1
 90
        0
 40
-0.6
 41
-30.0
 62
     5
 63
     7
421
 16777215
 74
     0
 91
        4
 64
     7
 65
   257
 75
     1
175
     1
 42
1.0
 92
        8
 66
     7
 43
1.0
 76
     1
 77
     6
 78
     2
 67
     7
 79
     5
170
     0
171
     0
290
     0
174
     0
 93
        1
 44
0.0
173
     0
291
     1
 45
0.0
1001
ACAD
1000
AcDbSavedByObjectVersion
1070
     0
  0
VISUALSTYLE
  5
36
102
{ACAD_REACTORS
330
2A
102
}
330
2A
100
AcDbVisualStyle
  2
Brighten
 70
    12
 71
     2
 72
     2
 73
     0
 90
        0
 40
-0.6
 41
-30.0
 62
     5
 63
     7
421
 16777215
 74
     1
 91
        4
 64
     7
 65
   257
 75
     1
175
     1
 42
1.0
 92
        8
 66
     7
 43
1.0
 76
     1
 77
     6
 78
     2
 67
     7
 79
     5
170
     0
171
     0
290
     0
174
     0
 93
        1
 44
50.0
173
     0
291
     1
 45
0.0
1001
ACAD
1000
AcDbSavedByObjectVersion
1070
     0
  0
VISUALSTYLE
  5
3A
102
{ACAD_REACTORS
330
2A
102
}
330
2A
100
AcDbVisualStyle
  2
ColorChange
 70
    16
 71
     2
 72
     2
 73
     3
 90
        0
 40
-0.6
 41
-30.0
 62
     5
 63
     8
421
  8421504
 74
     1
 91
        4
 64
     7
 65
   257
 75
     1
175
     1
 42
1.0
 92
        8
 66
     8
424
  8421504
 43
1.0
 76
     1
 77
     6
 78
     2
 67
     7
 79
     5
170
     0
171
     0
290
     0
174
     0
 93
        1
 44
0.0
173
     0
291
     1
 45
0.0
1001
ACAD
1000
AcDbSavedByObjectVersion
1070
     0
  0
VISUALSTYLE
  5
34
102
{ACAD_REACTORS
330
2A
102
}
330
2A
100
AcDbVisualStyle
  2
Conceptual
 70
     9
 71
     3
 72
     2
 73
     0
 90
        0
 40
-0.6
 41
-30.0
 62
     5
 63
     7
421
 16777215
 74
     2
 91
        2
 64
     7
 65
   257
 75
     1
175
     1
 42
40.0
 92
        8
 66
     7
 43
1.0
 76
     1
 77
     6
 78
     2
 67
     7
 79
     3
170
     0
171
     0
290
     0
174
     0
 93
        1
 44
0.0
173
     0
291
     0
 45
0.0
1001
ACAD
1000
AcDbSavedByObjectVersion
1070
     0
  0
VISUALSTYLE
  5
35
102
{ACAD_REACTORS
330
2A
102
}
330
2A
100
AcDbVisualStyle
  2
Dim
 70
    11
 71
     2
 72
     2
 73
     0
 90
        0
 40
-0.6
 41
-30.0
 62
     5
 63
     7
421
 16777215
 74
     1
 91
        4
 64
     7
 65
   257
 75
     1
175
     1
 42
1.0
 92
        8
 66
     7
 43
1.0
 76
     1
 77
     6
 78
     2
 67
     7
 79
     5
170
     0
171
     0
290
     0
174
     0
 93
        1
 44
-50.0
173
     0
291
     1
 45
0.0
1001
ACAD
1000
AcDbSavedByObjectVersion
1070
     0
  0
VISUALSTYLE
  5
39
102
{ACAD_REACTORS
330
2A
102
}
330
2A
100
AcDbVisualStyle
  2
Facepattern
 70
    15
 71
     2
 72
     2
 73
     0
 90
        0
 40
-0.6
 41
-30.0
 62
     5
 63
     7
421
 16777215
 74
     1
 91
        4
 64
     7
 65
   257
 75
     1
175
     1
 42
1.0
 92
        8
 66
     7
 43
1.0
 76
     1
 77
     6
 78
     2
 67
     7
 79
     5
170
     0
171
     0
290
     0
174
     0
 93
        1
 44
0.0
173
     0
291
     1
 45
0.0
1001
ACAD
1000
AcDbSavedByObjectVersion
1070
     0
  0
VISUALSTYLE
  5
2B
102
{ACAD_REACTORS
330
2A
102
}
330
2A
100
AcDbVisualStyle
  2
Flat
 70
     0
 71
     2
 72
     1
 73
     1
 90
        2
 40
-0.6
 41
30.0
 62
     5
 63
     7
421
 16777215
 74
     0
 91
        4
 64
     7
 65
   257
 75
     1
175
     1
 42
1.0
 92
        8
 66
     7
 43
1.0
 76
     1
 77
     6
 78
     2
 67
     7
 79
     5
170
     0
171
     0
290
     0
174
     0
 93
       13
 44
0.0
173
     0
291
     1
 45
0.0
1001
ACAD
1000
AcDbSavedByObjectVersion
1070
     0
  0
VISUALSTYLE
  5
2C
102
{ACAD_REACTORS
330
2A
102
}
330
2A
100
AcDbVisualStyle
  2
FlatWithEdges
 70
     1
 71
     2
 72
     1
 73
     1
 90
        2
 40
-0.6
 41
30.0
 62
     5
 63
     7
421
 16777215
 74
     1
 91
        4
 64
     7
 65
   257
 75
     1
175
     1
 42
1.0
 92
        0
 66
   257
 43
1.0
 76
     1
 77
     6
 78
     2
 67
     7
 79
     5
170
     0
171
     0
290
     0
174
     0
 93
       13
 44
0.0
173
     0
291
     1
 45
0.0
1001
ACAD
1000
AcDbSavedByObjectVersion
1070
     0
  0
VISUALSTYLE
  5
2D
102
{ACAD_REACTORS
330
2A
102
}
330
2A
100
AcDbVisualStyle
  2
Gouraud
 70
     2
 71
     2
 72
     2
 73
     1
 90
        2
 40
-0.6
 41
30.0
 62
     5
 63
     7
421
 16777215
 74
     0
 91
        4
 64
     7
 65
   257
 75
     1
175
     1
 42
1.0
 92
        0
 66
     7
 43
1.0
 76
     1
 77
     6
 78
     2
 67
     7
 79
     5
170
     0
171
     0
290
     0
174
     0
 93
       13
 44
0.0
173
     0
291
     1
 45
0.0
1001
ACAD
1000
AcDbSavedByObjectVersion
1070
     0
  0
VISUALSTYLE
  5
2E
102
{ACAD_REACTORS
330
2A
102
}
330
2A
100
AcDbVisualStyle
  2
GouraudWithEdges
 70
     3
 71
     2
 72
     2
 73
     1
 90
        2
 40
-0.6
 41
30.0
 62
     5
 63
     7
421
 16777215
 74
     1
 91
        4
 64
     7
 65
   257
 75
     1
175
     1
 42
1.0
 92
        0
 66
   257
 43
1.0
 76
     1
 77
     6
 78
     2
 67
     7
 79
     5
170
     0
171
     0
290
     0
174
     0
 93
       13
 44
0.0
173
     0
291
     1
 45
0.0
1001
ACAD
1000
AcDbSavedByObjectVersion
1070
     0
  0
VISUALSTYLE
  5
38
102
{ACAD_REACTORS
330
2A
102
}
330
2A
100
AcDbVisualStyle
  2
Linepattern
 70
    14
 71
     2
 72
     2
 73
     0
 90
        0
 40
-0.6
 41
-30.0
 62
     5
 63
     7
421
 16777215
 74
     1
 91
        4
 64
     7
 65
   257
 75
     7
175
     7
 42
1.0
 92
        8
 66
     7
 43
1.0
 76
     1
 77
     6
 78
     2
 67
     7
 79
     5
170
     0
171
     0
290
     0
174
     0
 93
        1
 44
0.0
173
     0
291
     1
 45
0.0
1001
ACAD
1000
AcDbSavedByObjectVersion
1070
     0
  0
VISUALSTYLE
  5
33
102
{ACAD_REACTORS
330
2A
102
}
330
2A
100
AcDbVisualStyle
  2
Realistic
 70
     8
 71
     2
 72
     2
 73
     0
 90
        0
 40
-0.6
 41
-30.0
 62
     5
 63
     7
421
 16777215
 74
     1
 91
        0
 64
     7
 65
   257
 75
     1
175
     1
 42
1.0
 92
        8
 66
     8
424
  7895160
 43
1.0
 76
     1
 77
     6
 78
     2
 67
     7
 79
     5
170
     0
171
     0
290
     0
174
     0
 93
       13
 44
0.0
173
     0
291
     0
 45
0.0
1001
ACAD
1000
AcDbSavedByObjectVersion
1070
     0
  0
VISUALSTYLE
  5
37
102
{ACAD_REACTORS
330
2A
102
}
330
2A
100
AcDbVisualStyle
  2
Thicken
 70
    13
 71
     2
 72
     2
 73
     0
 90
        0
 40
-0.6
 41
-30.0
 62
     5
 63
     7
421
 16777215
 74
     1
 91
        4
 64
     7
 65
   257
 75
     1
175
     1
 42
1.0
 92
       12
 66
     7
 43
1.0
 76
     1
 77
     6
 78
     2
 67
     7
 79
     5
170
     0
171
     0
290
     0
174
     0
 93
        1
 44
0.0
173
     0
291
     1
 45
0.0
1001
ACAD
1000
AcDbSavedByObjectVersion
1070
     0
  0
ENDSEC
  0
EOF
