  0
SECTION
  2
HEADER
  9
$ACADVER
  1
AC1018
  9
$ACADMAINTVER
 70
     0
  9
$DWGCODEPAGE
  3
ANSI_932
  9
$INSBASE
 10
0.0
 20
0.0
 30
0.0
  9
$EXTMIN
 10
-10500.0
 20
-7425.0
 30
0.0
  9
$EXTMAX
 10
10500.0
 20
7425.0
 30
0.0
  9
$LIMMIN
 10
-10500.0
 20
-7425.0
  9
$LIMMAX
 10
10500.0
 20
7425.0
  9
$ORTHOMODE
 70
     0
  9
$REGENMODE
 70
     1
  9
$FILLMODE
 70
     1
  9
$QTEXTMODE
 70
     0
  9
$MIRRTEXT
 70
     1
  9
$LTSCALE
 40
50.0
  9
$ATTMODE
 70
     1
  9
$TEXTSIZE
 40
2.5
  9
$TRACEWID
 40
1.0
  9
$TEXTSTYLE
  7
Standard
  9
$CLAYER
  8
0
  9
$CELTYPE
  6
ByLayer
  9
$CECOLOR
 62
   256
  9
$CELTSCALE
 40
1.0
  9
$DISPSILH
 70
     0
  9
$DIMSCALE
 40
1.0
  9
$DIMASZ
 40
2.5
  9
$DIMEXO
 40
0.625
  9
$DIMDLI
 40
3.75
  9
$DIMRND
 40
0.0
  9
$DIMDLE
 40
0.0
  9
$DIMEXE
 40
1.25
  9
$DIMTP
 40
0.0
  9
$DIMTM
 40
0.0
  9
$DIMTXT
 40
2.5
  9
$DIMCEN
 40
2.5
  9
$DIMTSZ
 40
0.0
  9
$DIMTOL
 70
     0
  9
$DIMLIM
 70
     0
  9
$DIMTIH
 70
     0
  9
$DIMTOH
 70
     0
  9
$DIMSE1
 70
     0
  9
$DIMSE2
 70
     0
  9
$DIMTAD
 70
     1
  9
$DIMZIN
 70
     8
  9
$DIMBLK
  1

  9
$DIMASO
 70
     1
  9
$DIMSHO
 70
     1
  9
$DIMPOST
  1

  9
$DIMAPOST
  1

  9
$DIMALT
 70
     0
  9
$DIMALTD
 70
     3
  9
$DIMALTF
 40
0.03937007874016
  9
$DIMLFAC
 40
1.0
  9
$DIMTOFL
 70
     1
  9
$DIMTVP
 40
0.0
  9
$DIMTIX
 70
     0
  9
$DIMSOXD
 70
     0
  9
$DIMSAH
 70
     0
  9
$DIMBLK1
  1

  9
$DIMBLK2
  1

  9
$DIMSTYLE
  2
ISO-25
  9
$DIMCLRD
 70
     0
  9
$DIMCLRE
 70
     0
  9
$DIMCLRT
 70
     0
  9
$DIMTFAC
 40
1.0
  9
$DIMGAP
 40
0.625
  9
$DIMJUST
 70
     0
  9
$DIMSD1
 70
     0
  9
$DIMSD2
 70
     0
  9
$DIMTOLJ
 70
     0
  9
$DIMTZIN
 70
     8
  9
$DIMALTZ
 70
     0
  9
$DIMALTTZ
 70
     0
  9
$DIMUPT
 70
     0
  9
$DIMDEC
 70
     2
  9
$DIMTDEC
 70
     2
  9
$DIMALTU
 70
     2
  9
$DIMALTTD
 70
     3
  9
$DIMTXSTY
  7
Standard
  9
$DIMAUNIT
 70
     0
  9
$DIMADEC
 70
     0
  9
$DIMALTRND
 40
0.0
  9
$DIMAZIN
 70
     0
  9
$DIMDSEP
 70
    44
  9
$DIMATFIT
 70
     3
  9
$DIMFRAC
 70
     0
  9
$DIMLDRBLK
  1

  9
$DIMLUNIT
 70
     2
  9
$DIMLWD
 70
    -2
  9
$DIMLWE
 70
    -2
  9
$DIMTMOVE
 70
     0
  9
$LUNITS
 70
     2
  9
$LUPREC
 70
     4
  9
$SKETCHINC
 40
1.0
  9
$FILLETRAD
 40
10.0
  9
$AUNITS
 70
     0
  9
$AUPREC
 70
     0
  9
$MENU
  1
.
  9
$ELEVATION
 40
0.0
  9
$PELEVATION
 40
0.0
  9
$THICKNESS
 40
0.0
  9
$LIMCHECK
 70
     0
  9
$CHAMFERA
 40
10.0
  9
$CHAMFERB
 40
10.0
  9
$CHAMFERC
 40
20.0
  9
$CHAMFERD
 40
0.0
  9
$SKPOLY
 70
     0
  9
$TDCREATE
 40
2456499.582801261
  9
$TDUCREATE
 40
2456499.207801261
  9
$TDUPDATE
 40
2456499.582801273
  9
$TDUUPDATE
 40
2456499.207801273
  9
$TDINDWG
 40
0.0000000116
  9
$TDUSRTIMER
 40
0.0000000116
  9
$USRTIMER
 70
     1
  9
$ANGBASE
 50
0.0
  9
$ANGDIR
 70
     0
  9
$PDMODE
 70
     0
  9
$PDSIZE
 40
0.0
  9
$PLINEWID
 40
0.0
  9
$SPLFRAME
 70
     0
  9
$SPLINETYPE
 70
     6
  9
$SPLINESEGS
 70
     8
  9
$HANDSEED
  5
358
  9
$SURFTAB1
 70
     6
  9
$SURFTAB2
 70
     6
  9
$SURFTYPE
 70
     6
  9
$SURFU
 70
     6
  9
$SURFV
 70
     6
  9
$UCSBASE
  2

  9
$UCSNAME
  2

  9
$UCSORG
 10
0.0
 20
0.0
 30
0.0
  9
$UCSXDIR
 10
1.0
 20
0.0
 30
0.0
  9
$UCSYDIR
 10
0.0
 20
1.0
 30
0.0
  9
$UCSORTHOREF
  2

  9
$UCSORTHOVIEW
 70
     0
  9
$UCSORGTOP
 10
0.0
 20
0.0
 30
0.0
  9
$UCSORGBOTTOM
 10
0.0
 20
0.0
 30
0.0
  9
$UCSORGLEFT
 10
0.0
 20
0.0
 30
0.0
  9
$UCSORGRIGHT
 10
0.0
 20
0.0
 30
0.0
  9
$UCSORGFRONT
 10
0.0
 20
0.0
 30
0.0
  9
$UCSORGBACK
 10
0.0
 20
0.0
 30
0.0
  9
$PUCSBASE
  2

  9
$PUCSNAME
  2

  9
$PUCSORG
 10
0.0
 20
0.0
 30
0.0
  9
$PUCSXDIR
 10
1.0
 20
0.0
 30
0.0
  9
$PUCSYDIR
 10
0.0
 20
1.0
 30
0.0
  9
$PUCSORTHOREF
  2

  9
$PUCSORTHOVIEW
 70
     0
  9
$PUCSORGTOP
 10
0.0
 20
0.0
 30
0.0
  9
$PUCSORGBOTTOM
 10
0.0
 20
0.0
 30
0.0
  9
$PUCSORGLEFT
 10
0.0
 20
0.0
 30
0.0
  9
$PUCSORGRIGHT
 10
0.0
 20
0.0
 30
0.0
  9
$PUCSORGFRONT
 10
0.0
 20
0.0
 30
0.0
  9
$PUCSORGBACK
 10
0.0
 20
0.0
 30
0.0
  9
$USERI1
 70
     0
  9
$USERI2
 70
     0
  9
$USERI3
 70
     0
  9
$USERI4
 70
     0
  9
$USERI5
 70
     0
  9
$USERR1
 40
0.0
  9
$USERR2
 40
0.0
  9
$USERR3
 40
0.0
  9
$USERR4
 40
0.0
  9
$USERR5
 40
0.0
  9
$WORLDVIEW
 70
     1
  9
$SHADEDGE
 70
     3
  9
$SHADEDIF
 70
    70
  9
$TILEMODE
 70
     1
  9
$MAXACTVP
 70
    64
  9
$PINSBASE
 10
0.0
 20
0.0
 30
0.0
  9
$PLIMCHECK
 70
     0
  9
$PEXTMIN
 10
1.000000000000000E+20
 20
1.000000000000000E+20
 30
1.000000000000000E+20
  9
$PEXTMAX
 10
-1.000000000000000E+20
 20
-1.000000000000000E+20
 30
-1.000000000000000E+20
  9
$PLIMMIN
 10
0.0
 20
0.0
  9
$PLIMMAX
 10
420.0
 20
297.0
  9
$UNITMODE
 70
     0
  9
$VISRETAIN
 70
     1
  9
$PLINEGEN
 70
     0
  9
$PSLTSCALE
 70
     1
  9
$TREEDEPTH
 70
  3020
  9
$CMLSTYLE
  2
Standard
  9
$CMLJUST
 70
     0
  9
$CMLSCALE
 40
20.0
  9
$PROXYGRAPHICS
 70
     1
  9
$MEASUREMENT
 70
     1
  9
$CELWEIGHT
370
    -1
  9
$ENDCAPS
280
     0
  9
$JOINSTYLE
280
     0
  9
$LWDISPLAY
290
     0
  9
$INSUNITS
 70
     4
  9
$HYPERLINKBASE
  1

  9
$STYLESHEET
  1

  9
$XEDIT
290
     1
  9
$CEPSNTYPE
380
     0
  9
$PSTYLEMODE
290
     1
  9
$FINGERPRINTGUID
  2
{6BD26966-4A27-4593-BD37-41B166A05465}
  9
$VERSIONGUID
  2
{FAEB1C32-E019-11D5-929B-00C0DF256EC4}
  9
$EXTNAMES
290
     1
  9
$PSVPSCALE
 40
0.0
  9
$OLESTARTUP
290
     0
  9
$SORTENTS
280
   127
  9
$INDEXCTL
280
     0
  9
$HIDETEXT
280
     1
  9
$XCLIPFRAME
290
     0
  9
$HALOGAP
280
     0
  9
$OBSCOLOR
 70
   257
  9
$OBSLTYPE
280
     0
  9
$INTERSECTIONDISPLAY
280
     0
  9
$INTERSECTIONCOLOR
 70
   257
  9
$DIMASSOC
280
     2
  9
$PROJECTNAME
  1

  0
ENDSEC
  0
SECTION
  2
CLASSES
  0
CLASS
  1
ACDBDICTIONARYWDFLT
  2
AcDbDictionaryWithDefault
  3
ObjectDBX Classes
 90
        0
 91
        4
280
     0
281
     0
  0
CLASS
  1
VISUALSTYLE
  2
AcDbVisualStyle
  3
ObjectDBX Classes
 90
     4095
 91
        4
280
     0
281
     0
  0
ENDSEC
  0
SECTION
  2
TABLES
  0
TABLE
  2
VPORT
  5
8
330
0
100
AcDbSymbolTable
 70
     1
  0
VPORT
  5
29
330
8
100
AcDbSymbolTableRecord
100
AcDbViewportTableRecord
  2
*Active
 70
     0
 10
0.0
 20
0.0
 11
1.0
 21
1.0
 12
0.0
 22
0.0
 13
0.0
 23
0.0
 14
10.0
 24
10.0
 15
10.0
 25
10.0
 16
0.0
 26
0.0
 36
1.0
 17
0.0
 27
0.0
 37
0.0
 40
16335.0
 41
1.414141414141414
 42
50.0
 43
0.0
 44
0.0
 50
0.0
 51
0.0
 71
     0
 72
 10000
 73
     1
 74
     3
 75
     0
 76
     0
 77
     0
 78
     0
281
     0
 65
     1
110
0.0
120
0.0
130
0.0
111
1.0
121
0.0
131
0.0
112
0.0
122
1.0
132
0.0
 79
     0
146
0.0
  0
ENDTAB
  0
TABLE
  2
LTYPE
  5
5
330
0
100
AcDbSymbolTable
 70
     4
  0
LTYPE
  5
14
330
5
100
AcDbSymbolTableRecord
100
AcDbLinetypeTableRecord
  2
ByBlock
 70
     0
  3

 72
    65
 73
     0
 40
0.0
  0
LTYPE
  5
15
330
5
100
AcDbSymbolTableRecord
100
AcDbLinetypeTableRecord
  2
ByLayer
 70
     0
  3

 72
    65
 73
     0
 40
0.0
  0
LTYPE
  5
16
330
5
100
AcDbSymbolTableRecord
100
AcDbLinetypeTableRecord
  2
Continuous
 70
     0
  3
Solid line
 72
    65
 73
     0
 40
0.0
  0
LTYPE
  5
3C
330
5
100
AcDbSymbolTableRecord
100
AcDbLinetypeTableRecord
  2
JWW_HOJO
 70
     0
  3
  -   -   -   -   -   -   -   - 
 72
    65
 73
     2
 40
1.693333333333333
 49
-1.27
 74
     0
 49
0.4233333333333333
 74
     0
  0
LTYPE
  5
3D
330
5
100
AcDbSymbolTableRecord
100
AcDbLinetypeTableRecord
  2
JWW_CENTER1
 70
     0
  3
-----  --  ----------  --  -----
 72
    65
 73
     4
 40
6.773333333333333
 49
4.233333333333333
 74
     0
 49
-0.8466666666666667
 74
     0
 49
0.8466666666666667
 74
     0
 49
-0.8466666666666667
 74
     0
  0
LTYPE
  5
3E
330
5
100
AcDbSymbolTableRecord
100
AcDbLinetypeTableRecord
  2
JWW_DASHED1
 70
     0
  3
-  --  --  --  --  --  --  --  -
 72
    65
 73
     2
 40
0.508
 49
0.254
 74
     0
 49
-0.254
 74
     0
  0
ENDTAB
  0
TABLE
  2
LAYER
  5
2
330
0
100
AcDbSymbolTable
 70
     7
  0
LAYER
  5
10
330
2
100
AcDbSymbolTableRecord
100
AcDbLayerTableRecord
  2
0
 70
     0
 62
     7
  6
Continuous
370
    -3
390
F
  0
LAYER
  5
3F
330
2
100
AcDbSymbolTableRecord
100
AcDbLayerTableRecord
  2
A-2_蓋
 70
     0
 62
     7
  6
Continuous
370
    -3
390
F
  0
LAYER
  5
40
330
2
100
AcDbSymbolTableRecord
100
AcDbLayerTableRecord
  2
A-1_ピット
 70
     0
 62
     7
  6
Continuous
370
    -3
390
F
  0
LAYER
  5
41
330
2
100
AcDbSymbolTableRecord
100
AcDbLayerTableRecord
  2
A-4_寸法
 70
     0
 62
     7
  6
Continuous
370
    -3
390
F
  0
LAYER
  5
42
330
2
100
AcDbSymbolTableRecord
100
AcDbLayerTableRecord
  2
A-0_通り芯
 70
     0
 62
     7
  6
Continuous
370
    -3
390
F
  0
LAYER
  5
43
330
2
100
AcDbSymbolTableRecord
100
AcDbLayerTableRecord
  2
D-4_寸法
 70
     0
 62
     7
  6
Continuous
370
    -3
390
F
  0
LAYER
  5
44
330
2
100
AcDbSymbolTableRecord
100
AcDbLayerTableRecord
  2
A-5_仕様文
 70
     0
 62
     7
  6
Continuous
370
    -3
390
F
  0
ENDTAB
  0
TABLE
  2
STYLE
  5
3
330
0
100
AcDbSymbolTable
 70
     2
  0
STYLE
  5
11
330
3
100
AcDbSymbolTableRecord
100
AcDbTextStyleTableRecord
  2
Standard
 70
     0
 40
0.0
 41
1.0
 50
0.0
 71
     0
 42
2.5
  3
txt
  4

1001
ACAD
1000

1071
        0
  0
STYLE
  5
3B
330
3
100
AcDbSymbolTableRecord
100
AcDbTextStyleTableRecord
  2
ＭＳ ゴシック
 70
     0
 40
1.0
 41
1.0
 50
0.0
 71
     0
 42
10.0
  3

  4

1001
ACAD
1000
MS Gothic
1071
    32817
  0
ENDTAB
  0
TABLE
  2
VIEW
  5
6
330
0
100
AcDbSymbolTable
 70
     0
  0
ENDTAB
  0
TABLE
  2
UCS
  5
7
330
0
100
AcDbSymbolTable
 70
     0
  0
ENDTAB
  0
TABLE
  2
APPID
  5
9
330
0
100
AcDbSymbolTable
 70
     1
  0
APPID
  5
12
330
9
100
AcDbSymbolTableRecord
100
AcDbRegAppTableRecord
  2
ACAD
 70
     0
  0
ENDTAB
  0
TABLE
  2
DIMSTYLE
  5
A
330
0
100
AcDbSymbolTable
 70
     1
100
AcDbDimStyleTable
  0
DIMSTYLE
105
27
330
A
100
AcDbSymbolTableRecord
100
AcDbDimStyleTableRecord
  2
ISO-25
 70
     0
 41
2.5
 42
0.625
 43
3.75
 44
1.25
 73
     0
 74
     0
 77
     1
 78
     8
140
2.5
141
2.5
143
0.03937007874016
147
0.625
171
     3
172
     1
271
     2
272
     2
274
     3
278
    44
283
     0
284
     8
340
11
  0
ENDTAB
  0
TABLE
  2
BLOCK_RECORD
  5
1
330
0
100
AcDbSymbolTable
 70
     1
  0
BLOCK_RECORD
  5
1F
330
1
100
AcDbSymbolTableRecord
100
AcDbBlockTableRecord
  2
*Model_Space
340
22
  0
BLOCK_RECORD
  5
1B
330
1
100
AcDbSymbolTableRecord
100
AcDbBlockTableRecord
  2
*Paper_Space
340
1E
  0
BLOCK_RECORD
  5
23
330
1
100
AcDbSymbolTableRecord
100
AcDbBlockTableRecord
  2
*Paper_Space0
340
26
  0
ENDTAB
  0
ENDSEC
  0
SECTION
  2
BLOCKS
  0
BLOCK
  5
20
330
1F
100
AcDbEntity
  8
0
100
AcDbBlockBegin
  2
*Model_Space
 70
     0
 10
0.0
 20
0.0
 30
0.0
  3
*Model_Space
  1

  0
ENDBLK
  5
21
330
1F
100
AcDbEntity
  8
0
100
AcDbBlockEnd
  0
BLOCK
  5
1C
330
1B
100
AcDbEntity
 67
     1
  8
0
100
AcDbBlockBegin
  2
*Paper_Space
 70
     0
 10
0.0
 20
0.0
 30
0.0
  3
*Paper_Space
  1

  0
ENDBLK
  5
1D
330
1B
100
AcDbEntity
 67
     1
  8
0
100
AcDbBlockEnd
  0
BLOCK
  5
24
330
23
100
AcDbEntity
  8
0
100
AcDbBlockBegin
  2
*Paper_Space0
 70
     0
 10
0.0
 20
0.0
 30
0.0
  3
*Paper_Space0
  1

  0
ENDBLK
  5
25
330
23
100
AcDbEntity
  8
0
100
AcDbBlockEnd
  0
ENDSEC
  0
SECTION
  2
ENTITIES
  0
LINE
  5
45
330
1F
100
AcDbEntity
  8
A-2_蓋
  6
Continuous
 62
     3
370
     9
100
AcDbLine
 10
2460.036819045609
 20
4121.568999419343
 30
0.0
 11
2475.03662109375
 21
4126.681106154983
 31
0.0
  0
LINE
  5
46
330
1F
100
AcDbEntity
  8
A-2_蓋
  6
Continuous
 62
     3
370
     9
100
AcDbLine
 10
2460.036819045609
 20
4121.568999419343
 30
0.0
 11
2460.036819045609
 21
4077.495018211572
 31
0.0
  0
LINE
  5
47
330
1F
100
AcDbEntity
  8
A-2_蓋
  6
Continuous
 62
     3
370
     9
100
AcDbLine
 10
2460.036819045609
 20
4077.495018211572
 30
0.0
 11
2475.03662109375
 21
4072.380437077703
 31
0.0
  0
LINE
  5
48
330
1F
100
AcDbEntity
  8
A-2_蓋
  6
Continuous
 62
     3
370
     9
100
AcDbLine
 10
2475.03662109375
 20
4072.380437077703
 30
0.0
 11
2475.03662109375
 21
4021.249472128379
 31
0.0
  0
LINE
  5
49
330
1F
100
AcDbEntity
  8
A-2_蓋
  6
Continuous
 62
     3
370
     9
100
AcDbLine
 10
2460.036819045609
 20
4016.137365392737
 30
0.0
 11
2475.03662109375
 21
4021.249472128379
 31
0.0
  0
LINE
  5
4A
330
1F
100
AcDbEntity
  8
A-2_蓋
  6
Continuous
 62
     3
370
     9
100
AcDbLine
 10
2460.036819045609
 20
4016.137365392737
 30
0.0
 11
2460.036819045609
 21
3950.662313925254
 31
0.0
  0
LINE
  5
4B
330
1F
100
AcDbEntity
  8
A-2_蓋
  6
Continuous
 62
     3
370
     9
100
AcDbLine
 10
2460.036819045609
 20
3950.662313925254
 30
0.0
 11
2475.03662109375
 21
3945.550207189612
 31
0.0
  0
LINE
  5
4C
330
1F
100
AcDbEntity
  8
A-2_蓋
  6
Continuous
 62
     3
370
     9
100
AcDbLine
 10
2460.036819045609
 20
3889.304661106419
 30
0.0
 11
2460.036819045609
 21
3845.23067989865
 31
0.0
  0
LINE
  5
4D
330
1F
100
AcDbEntity
  8
A-2_蓋
  6
Continuous
 62
     3
370
     9
100
AcDbLine
 10
2460.036819045609
 20
3845.23067989865
 30
0.0
 11
2475.03662109375
 21
3840.117335963895
 31
0.0
  0
LINE
  5
4E
330
1F
100
AcDbEntity
  8
A-2_蓋
  6
Continuous
 62
     3
370
     9
100
AcDbLine
 10
2475.03662109375
 20
3840.117335963895
 30
0.0
 11
2475.03662109375
 21
3788.985133815457
 31
0.0
  0
LINE
  5
4F
330
1F
100
AcDbEntity
  8
A-2_蓋
  6
Continuous
 62
     3
370
     9
100
AcDbLine
 10
2460.036819045609
 20
3783.873027079815
 30
0.0
 11
2475.03662109375
 21
3788.985133815457
 31
0.0
  0
LINE
  5
50
330
1F
100
AcDbEntity
  8
A-2_蓋
  6
Continuous
 62
     3
370
     9
100
AcDbLine
 10
2460.036819045609
 20
3783.873027079815
 30
0.0
 11
2460.036819045609
 21
3718.397975612332
 31
0.0
  0
LINE
  5
51
330
1F
100
AcDbEntity
  8
A-2_蓋
  6
Continuous
 62
     3
370
     9
100
AcDbLine
 10
2460.036819045609
 20
3718.397975612332
 30
0.0
 11
2475.03662109375
 21
3713.28586887669
 31
0.0
  0
LINE
  5
52
330
1F
100
AcDbEntity
  8
A-2_蓋
  6
Continuous
 62
     3
370
     9
100
AcDbLine
 10
2460.036819045609
 20
3889.304661106419
 30
0.0
 11
2475.03662109375
 21
3894.416767842061
 31
0.0
  0
LINE
  5
53
330
1F
100
AcDbEntity
  8
A-2_蓋
  6
Continuous
 62
     3
370
     9
100
AcDbLine
 10
2475.03662109375
 20
3945.550207189612
 30
0.0
 11
2475.03662109375
 21
3894.416767842061
 31
0.0
  0
LINE
  5
54
330
1F
100
AcDbEntity
  8
A-2_蓋
  6
Continuous
 62
     3
370
     9
100
AcDbLine
 10
2460.036819045609
 20
3657.040322793498
 30
0.0
 11
2460.036819045609
 21
3612.966341585727
 31
0.0
  0
LINE
  5
55
330
1F
100
AcDbEntity
  8
A-2_蓋
  6
Continuous
 62
     3
370
     9
100
AcDbLine
 10
2460.036819045609
 20
3612.966341585727
 30
0.0
 11
2475.03662109375
 21
3607.854234850085
 31
0.0
  0
LINE
  5
56
330
1F
100
AcDbEntity
  8
A-2_蓋
  6
Continuous
 62
     3
370
     9
100
AcDbLine
 10
2475.03662109375
 20
3607.854234850085
 30
0.0
 11
2475.03662109375
 21
3556.722032701647
 31
0.0
  0
LINE
  5
57
330
1F
100
AcDbEntity
  8
A-2_蓋
  6
Continuous
 62
     3
370
     9
100
AcDbLine
 10
2460.036819045609
 20
3551.608688766892
 30
0.0
 11
2475.03662109375
 21
3556.722032701647
 31
0.0
  0
LINE
  5
58
330
1F
100
AcDbEntity
  8
A-2_蓋
  6
Continuous
 62
     3
370
     9
100
AcDbLine
 10
2460.036819045609
 20
3551.608688766892
 30
0.0
 11
2460.036819045609
 21
3486.134874498522
 31
0.0
  0
LINE
  5
59
330
1F
100
AcDbEntity
  8
A-2_蓋
  6
Continuous
 62
     3
370
     9
100
AcDbLine
 10
2460.036819045609
 20
3486.134874498522
 30
0.0
 11
2475.03662109375
 21
3481.02276776288
 31
0.0
  0
LINE
  5
5A
330
1F
100
AcDbEntity
  8
A-2_蓋
  6
Continuous
 62
     3
370
     9
100
AcDbLine
 10
2460.036819045609
 20
3657.040322793498
 30
0.0
 11
2475.03662109375
 21
3662.153666728253
 31
0.0
  0
LINE
  5
5B
330
1F
100
AcDbEntity
  8
A-2_蓋
  6
Continuous
 62
     3
370
     9
100
AcDbLine
 10
2475.03662109375
 20
3713.28586887669
 30
0.0
 11
2475.03662109375
 21
3662.153666728253
 31
0.0
  0
LINE
  5
5C
330
1F
100
AcDbEntity
  8
A-2_蓋
  6
Continuous
 62
     3
370
     9
100
AcDbLine
 10
2460.036819045609
 20
3424.777221679688
 30
0.0
 11
2460.036819045609
 21
3380.703240471918
 31
0.0
  0
LINE
  5
5D
330
1F
100
AcDbEntity
  8
A-2_蓋
  6
Continuous
 62
     3
370
     9
100
AcDbLine
 10
2460.036819045609
 20
3380.703240471918
 30
0.0
 11
2475.03662109375
 21
3375.589896537163
 31
0.0
  0
LINE
  5
5E
330
1F
100
AcDbEntity
  8
A-2_蓋
  6
Continuous
 62
     3
370
     9
100
AcDbLine
 10
2460.036819045609
 20
3424.777221679688
 30
0.0
 11
2475.03662109375
 21
3429.88932841533
 31
0.0
  0
LINE
  5
5F
330
1F
100
AcDbEntity
  8
A-2_蓋
  6
Continuous
 62
     3
370
     9
100
AcDbLine
 10
2475.03662109375
 20
3481.02276776288
 30
0.0
 11
2475.03662109375
 21
3429.88932841533
 31
0.0
  0
LINE
  5
60
330
1F
100
AcDbEntity
  8
A-2_蓋
  6
Continuous
 62
     3
370
     9
100
AcDbLine
 10
2475.03662109375
 20
4183.113469304266
 30
0.0
 11
2475.03662109375
 21
4126.681106154983
 31
0.0
  0
LINE
  5
61
330
1F
100
AcDbEntity
  8
A-2_蓋
  6
Continuous
 62
     3
370
     9
100
AcDbLine
 10
2475.03662109375
 20
3375.589896537163
 30
0.0
 11
2475.03662109375
 21
3324.457694388725
 31
0.0
  0
LINE
  5
62
330
1F
100
AcDbEntity
  8
A-2_蓋
  6
Continuous
 62
     3
370
     9
100
AcDbLine
 10
2460.036819045609
 20
3319.34435045397
 30
0.0
 11
2475.03662109375
 21
3324.457694388725
 31
0.0
  0
LINE
  5
63
330
1F
100
AcDbEntity
  8
A-2_蓋
  6
Continuous
 62
     3
370
     9
100
AcDbLine
 10
2460.036819045609
 20
3319.34435045397
 30
0.0
 11
2460.036819045609
 21
3253.8705361856
 31
0.0
  0
LINE
  5
64
330
1F
100
AcDbEntity
  8
A-2_蓋
  6
Continuous
 62
     3
370
     9
100
AcDbLine
 10
2460.036819045609
 20
3253.8705361856
 30
0.0
 11
2475.03662109375
 21
3248.758429449958
 31
0.0
  0
LINE
  5
65
330
1F
100
AcDbEntity
  8
A-2_蓋
  6
Continuous
 62
     3
370
     9
100
AcDbLine
 10
2460.036819045609
 20
3192.512883366766
 30
0.0
 11
2460.036819045609
 21
3148.438902158996
 31
0.0
  0
LINE
  5
66
330
1F
100
AcDbEntity
  8
A-2_蓋
  6
Continuous
 62
     3
370
     9
100
AcDbLine
 10
2460.036819045609
 20
3148.438902158996
 30
0.0
 11
2475.03662109375
 21
3143.326795423354
 31
0.0
  0
LINE
  5
67
330
1F
100
AcDbEntity
  8
A-2_蓋
  6
Continuous
 62
     3
370
     9
100
AcDbLine
 10
2460.036819045609
 20
3192.512883366766
 30
0.0
 11
2475.03662109375
 21
3197.624990102408
 31
0.0
  0
LINE
  5
68
330
1F
100
AcDbEntity
  8
A-2_蓋
  6
Continuous
 62
     3
370
     9
100
AcDbLine
 10
2475.03662109375
 20
3248.758429449958
 30
0.0
 11
2475.03662109375
 21
3197.624990102408
 31
0.0
  0
LINE
  5
69
330
1F
100
AcDbEntity
  8
A-2_蓋
  6
Continuous
 62
     3
370
     9
100
AcDbLine
 10
2475.03662109375
 20
3143.326795423354
 30
0.0
 11
2475.03662109375
 21
3092.193356075803
 31
0.0
  0
LINE
  5
6A
330
1F
100
AcDbEntity
  8
A-2_蓋
  6
Continuous
 62
     3
370
     9
100
AcDbLine
 10
2460.036819045609
 20
3087.081249340162
 30
0.0
 11
2475.03662109375
 21
3092.193356075803
 31
0.0
  0
LINE
  5
6B
330
1F
100
AcDbEntity
  8
A-2_蓋
  6
Continuous
 62
     3
370
     9
100
AcDbLine
 10
2460.036819045609
 20
3087.081249340162
 30
0.0
 11
2460.036819045609
 21
3021.606197872678
 31
0.0
  0
LINE
  5
6C
330
1F
100
AcDbEntity
  8
A-2_蓋
  6
Continuous
 62
     3
370
     9
100
AcDbLine
 10
2460.036819045609
 20
3021.606197872678
 30
0.0
 11
2475.03662109375
 21
3016.494091137037
 31
0.0
  0
LINE
  5
6D
330
1F
100
AcDbEntity
  8
A-2_蓋
  6
Continuous
 62
     3
370
     9
100
AcDbLine
 10
2460.036819045609
 20
2960.248545053844
 30
0.0
 11
2460.036819045609
 21
2916.174563846073
 31
0.0
  0
LINE
  5
6E
330
1F
100
AcDbEntity
  8
A-2_蓋
  6
Continuous
 62
     3
370
     9
100
AcDbLine
 10
2460.036819045609
 20
2916.174563846073
 30
0.0
 11
2475.03662109375
 21
2911.062457110431
 31
0.0
  0
LINE
  5
6F
330
1F
100
AcDbEntity
  8
A-2_蓋
  6
Continuous
 62
     3
370
     9
100
AcDbLine
 10
2460.036819045609
 20
2960.248545053844
 30
0.0
 11
2475.03662109375
 21
2965.361888988599
 31
0.0
  0
LINE
  5
70
330
1F
100
AcDbEntity
  8
A-2_蓋
  6
Continuous
 62
     3
370
     9
100
AcDbLine
 10
2475.03662109375
 20
3016.494091137037
 30
0.0
 11
2475.03662109375
 21
2965.361888988599
 31
0.0
  0
LINE
  5
71
330
1F
100
AcDbEntity
  8
A-2_蓋
  6
Continuous
 62
     3
370
     9
100
AcDbLine
 10
2475.03662109375
 20
2911.062457110431
 30
0.0
 11
2475.03662109375
 21
2859.930254961993
 31
0.0
  0
LINE
  5
72
330
1F
100
AcDbEntity
  8
A-1_ピット
  6
Continuous
 62
     2
370
     9
100
AcDbLine
 10
3341.03517274599
 20
3713.113898199958
 30
0.0
 11
2919.037690033784
 21
3713.113898199958
 31
0.0
  0
LINE
  5
73
330
1F
100
AcDbEntity
  8
A-1_ピット
  6
Continuous
 62
     2
370
     9
100
AcDbLine
 10
3341.03517274599
 20
4081.113825617611
 30
0.0
 11
2919.036452834672
 21
4081.113825617611
 31
0.0
  0
LINE
  5
74
330
1F
100
AcDbEntity
  8
A-1_ピット
  6
Continuous
 62
     2
370
     9
100
AcDbLine
 10
3373.036565007391
 20
3777.114208324537
 30
0.0
 11
3373.036565007391
 21
4049.113670555322
 31
0.0
  0
LINE
  5
75
330
1F
100
AcDbEntity
  8
A-1_ピット
  6
Continuous
 62
     2
370
     9
100
AcDbLine
 10
3341.03517274599
 20
4113.1139806799
 30
0.0
 11
2919.037690033784
 21
4113.1139806799
 31
0.0
  0
LINE
  5
76
330
1F
100
AcDbEntity
  8
A-1_ピット
  6
Continuous
 62
     2
370
     9
100
AcDbLine
 10
3405.035482870568
 20
3777.112971125423
 30
0.0
 11
3405.035482870568
 21
4049.113670555322
 31
0.0
  0
LINE
  5
77
330
1F
100
AcDbEntity
  8
A-1_ピット
  6
Continuous
 62
     2
370
     9
100
AcDbLine
 10
2919.037690033784
 20
3745.114053262248
 30
0.0
 11
3341.03517274599
 21
3745.114053262248
 31
0.0
  0
LINE
  5
78
330
1F
100
AcDbEntity
  8
A-1_ピット
  6
Continuous
 62
     2
370
     9
100
AcDbLine
 10
2887.036297772383
 20
3777.114208324537
 30
0.0
 11
2887.036297772383
 21
4049.113670555322
 31
0.0
  0
LINE
  5
79
330
1F
100
AcDbEntity
  8
A-1_ピット
  6
Continuous
 62
     2
370
     9
100
AcDbLine
 10
3341.03517274599
 20
553.1131228885145
 30
0.0
 11
2919.037690033784
 21
553.1131228885145
 31
0.0
  0
LINE
  5
7A
330
1F
100
AcDbEntity
  8
A-1_ピット
  6
Continuous
 62
     2
370
     9
100
AcDbLine
 10
3341.03517274599
 20
185.113195470862
 30
0.0
 11
2919.036452834672
 21
185.113195470862
 31
0.0
  0
LINE
  5
7B
330
1F
100
AcDbEntity
  8
A-1_ピット
  6
Continuous
 62
     2
370
     9
100
AcDbLine
 10
3373.036565007391
 20
489.1128127639362
 30
0.0
 11
3373.036565007391
 21
217.1133505331511
 31
0.0
  0
LINE
  5
7C
330
1F
100
AcDbEntity
  8
A-1_ピット
  6
Continuous
 62
     2
370
     9
100
AcDbLine
 10
3341.03517274599
 20
153.1130404085729
 30
0.0
 11
2919.037690033784
 21
153.1130404085729
 31
0.0
  0
LINE
  5
7D
330
1F
100
AcDbEntity
  8
A-1_ピット
  6
Continuous
 62
     2
370
     9
100
AcDbLine
 10
3405.035482870568
 20
489.1140499630495
 30
0.0
 11
3405.035482870568
 21
217.1133505331511
 31
0.0
  0
LINE
  5
7E
330
1F
100
AcDbEntity
  8
A-1_ピット
  6
Continuous
 62
     2
370
     9
100
AcDbLine
 10
2919.037690033784
 20
521.1129678262253
 30
0.0
 11
3341.03517274599
 21
521.1129678262253
 31
0.0
  0
LINE
  5
7F
330
1F
100
AcDbEntity
  8
A-1_ピット
  6
Continuous
 62
     2
370
     9
100
AcDbLine
 10
2887.036297772383
 20
489.1128127639362
 30
0.0
 11
2887.036297772383
 21
217.1133505331511
 31
0.0
  0
LINE
  5
80
330
1F
100
AcDbEntity
  8
A-2_蓋
  6
Continuous
 62
     3
370
     9
100
AcDbLine
 10
2460.036819045609
 20
2854.816911027238
 30
0.0
 11
2475.03662109375
 21
2859.930254961993
 31
0.0
  0
LINE
  5
81
330
1F
100
AcDbEntity
  8
A-2_蓋
  6
Continuous
 62
     3
370
     9
100
AcDbLine
 10
2460.036819045609
 20
2854.816911027238
 30
0.0
 11
2460.036819045609
 21
2789.343096758868
 31
0.0
  0
LINE
  5
82
330
1F
100
AcDbEntity
  8
A-2_蓋
  6
Continuous
 62
     3
370
     9
100
AcDbLine
 10
2460.036819045609
 20
2789.343096758868
 30
0.0
 11
2475.03662109375
 21
2784.230990023227
 31
0.0
  0
LINE
  5
83
330
1F
100
AcDbEntity
  8
A-2_蓋
  6
Continuous
 62
     3
370
     9
100
AcDbLine
 10
2460.036819045609
 20
2727.985443940034
 30
0.0
 11
2460.036819045609
 21
2683.911462732264
 31
0.0
  0
LINE
  5
84
330
1F
100
AcDbEntity
  8
A-2_蓋
  6
Continuous
 62
     3
370
     9
100
AcDbLine
 10
2460.036819045609
 20
2683.911462732264
 30
0.0
 11
2475.03662109375
 21
2678.798118797509
 31
0.0
  0
LINE
  5
85
330
1F
100
AcDbEntity
  8
A-2_蓋
  6
Continuous
 62
     3
370
     9
100
AcDbLine
 10
2460.036819045609
 20
2727.985443940034
 30
0.0
 11
2475.03662109375
 21
2733.098787874789
 31
0.0
  0
LINE
  5
86
330
1F
100
AcDbEntity
  8
A-2_蓋
  6
Continuous
 62
     3
370
     9
100
AcDbLine
 10
2475.03662109375
 20
2784.230990023227
 30
0.0
 11
2475.03662109375
 21
2733.098787874789
 31
0.0
  0
LINE
  5
87
330
1F
100
AcDbEntity
  8
A-2_蓋
  6
Continuous
 62
     3
370
     9
100
AcDbLine
 10
2475.03662109375
 20
2678.798118797509
 30
0.0
 11
2475.03662109375
 21
2627.667153848185
 31
0.0
  0
LINE
  5
88
330
1F
100
AcDbEntity
  8
A-2_蓋
  6
Continuous
 62
     3
370
     9
100
AcDbLine
 10
2460.036819045609
 20
2622.552572714316
 30
0.0
 11
2475.03662109375
 21
2627.667153848185
 31
0.0
  0
LINE
  5
89
330
1F
100
AcDbEntity
  8
A-2_蓋
  6
Continuous
 62
     3
370
     9
100
AcDbLine
 10
2460.036819045609
 20
2622.552572714316
 30
0.0
 11
2460.036819045609
 21
2557.07999564506
 31
0.0
  0
LINE
  5
8A
330
1F
100
AcDbEntity
  8
A-2_蓋
  6
Continuous
 62
     3
370
     9
100
AcDbLine
 10
2460.036819045609
 20
2557.07999564506
 30
0.0
 11
2475.03662109375
 21
2551.968507508974
 31
0.0
  0
LINE
  5
8B
330
1F
100
AcDbEntity
  8
A-2_蓋
  6
Continuous
 62
     3
370
     9
100
AcDbLine
 10
2460.036819045609
 20
2495.722342826225
 30
0.0
 11
2460.036819045609
 21
2451.648361618455
 31
0.0
  0
LINE
  5
8C
330
1F
100
AcDbEntity
  8
A-2_蓋
  6
Continuous
 62
     3
370
     9
100
AcDbLine
 10
2460.036819045609
 20
2451.648361618455
 30
0.0
 11
2475.03662109375
 21
2446.535017683699
 31
0.0
  0
LINE
  5
8D
330
1F
100
AcDbEntity
  8
A-2_蓋
  6
Continuous
 62
     3
370
     9
100
AcDbLine
 10
2460.036819045609
 20
2495.722342826225
 30
0.0
 11
2475.03662109375
 21
2500.834449561867
 31
0.0
  0
LINE
  5
8E
330
1F
100
AcDbEntity
  8
A-2_蓋
  6
Continuous
 62
     3
370
     9
100
AcDbLine
 10
2475.03662109375
 20
2551.968507508974
 30
0.0
 11
2475.03662109375
 21
2500.834449561867
 31
0.0
  0
LINE
  5
8F
330
1F
100
AcDbEntity
  8
A-2_蓋
  6
Continuous
 62
     3
370
     9
100
AcDbLine
 10
2475.03662109375
 20
2446.535017683699
 30
0.0
 11
2475.03662109375
 21
2395.402815535262
 31
0.0
  0
LINE
  5
90
330
1F
100
AcDbEntity
  8
A-2_蓋
  6
Continuous
 62
     3
370
     9
100
AcDbLine
 10
2460.036819045609
 20
2390.289471600508
 30
0.0
 11
2475.03662109375
 21
2395.402815535262
 31
0.0
  0
LINE
  5
91
330
1F
100
AcDbEntity
  8
A-2_蓋
  6
Continuous
 62
     3
370
     9
100
AcDbLine
 10
2460.036819045609
 20
2390.289471600508
 30
0.0
 11
2460.036819045609
 21
2324.815657332137
 31
0.0
  0
LINE
  5
92
330
1F
100
AcDbEntity
  8
A-2_蓋
  6
Continuous
 62
     3
370
     9
100
AcDbLine
 10
2460.036819045609
 20
2324.815657332137
 30
0.0
 11
2475.03662109375
 21
2319.703550596495
 31
0.0
  0
LINE
  5
93
330
1F
100
AcDbEntity
  8
A-2_蓋
  6
Continuous
 62
     3
370
     9
100
AcDbLine
 10
2460.036819045609
 20
2263.458004513303
 30
0.0
 11
2460.036819045609
 21
2219.384023305533
 31
0.0
  0
LINE
  5
94
330
1F
100
AcDbEntity
  8
A-2_蓋
  6
Continuous
 62
     3
370
     9
100
AcDbLine
 10
2460.036819045609
 20
2219.384023305533
 30
0.0
 11
2475.03662109375
 21
2214.270679370778
 31
0.0
  0
LINE
  5
95
330
1F
100
AcDbEntity
  8
A-2_蓋
  6
Continuous
 62
     3
370
     9
100
AcDbLine
 10
2460.036819045609
 20
2263.458004513303
 30
0.0
 11
2475.03662109375
 21
2268.570111248946
 31
0.0
  0
LINE
  5
96
330
1F
100
AcDbEntity
  8
A-2_蓋
  6
Continuous
 62
     3
370
     9
100
AcDbLine
 10
2475.03662109375
 20
2319.703550596495
 30
0.0
 11
2475.03662109375
 21
2268.570111248946
 31
0.0
  0
LINE
  5
97
330
1F
100
AcDbEntity
  8
A-2_蓋
  6
Continuous
 62
     3
370
     9
100
AcDbLine
 10
2475.03662109375
 20
2214.270679370778
 30
0.0
 11
2475.03662109375
 21
2163.13847722234
 31
0.0
  0
LINE
  5
98
330
1F
100
AcDbEntity
  8
A-2_蓋
  6
Continuous
 62
     3
370
     9
100
AcDbLine
 10
2460.036819045609
 20
2158.025133287585
 30
0.0
 11
2475.03662109375
 21
2163.13847722234
 31
0.0
  0
LINE
  5
99
330
1F
100
AcDbEntity
  8
A-2_蓋
  6
Continuous
 62
     3
370
     9
100
AcDbLine
 10
2460.036819045609
 20
2158.025133287585
 30
0.0
 11
2460.036819045609
 21
2092.551319019215
 31
0.0
  0
LINE
  5
9A
330
1F
100
AcDbEntity
  8
A-2_蓋
  6
Continuous
 62
     3
370
     9
100
AcDbLine
 10
2460.036819045609
 20
2092.551319019215
 30
0.0
 11
2475.03662109375
 21
2087.439212283573
 31
0.0
  0
LINE
  5
9B
330
1F
100
AcDbEntity
  8
A-2_蓋
  6
Continuous
 62
     3
370
     9
100
AcDbLine
 10
2460.036819045609
 20
2031.19366620038
 30
0.0
 11
2460.036819045609
 21
1987.119684992611
 31
0.0
  0
LINE
  5
9C
330
1F
100
AcDbEntity
  8
A-2_蓋
  6
Continuous
 62
     3
370
     9
100
AcDbLine
 10
2460.036819045609
 20
1987.119684992611
 30
0.0
 11
2475.03662109375
 21
1982.007578256969
 31
0.0
  0
LINE
  5
9D
330
1F
100
AcDbEntity
  8
A-2_蓋
  6
Continuous
 62
     3
370
     9
100
AcDbLine
 10
2460.036819045609
 20
2031.19366620038
 30
0.0
 11
2475.03662109375
 21
2036.307010135135
 31
0.0
  0
LINE
  5
9E
330
1F
100
AcDbEntity
  8
A-2_蓋
  6
Continuous
 62
     3
370
     9
100
AcDbLine
 10
2475.03662109375
 20
2087.439212283573
 30
0.0
 11
2475.03662109375
 21
2036.307010135135
 31
0.0
  0
LINE
  5
9F
330
1F
100
AcDbEntity
  8
A-2_蓋
  6
Continuous
 62
     3
370
     9
100
AcDbLine
 10
2475.03662109375
 20
1982.007578256969
 30
0.0
 11
2475.03662109375
 21
1930.875376108531
 31
0.0
  0
LINE
  5
A0
330
1F
100
AcDbEntity
  8
A-2_蓋
  6
Continuous
 62
     3
370
     9
100
AcDbLine
 10
2460.036819045609
 20
1925.762032173776
 30
0.0
 11
2475.03662109375
 21
1930.875376108531
 31
0.0
  0
LINE
  5
A1
330
1F
100
AcDbEntity
  8
A-2_蓋
  6
Continuous
 62
     3
370
     9
100
AcDbLine
 10
2460.036819045609
 20
1925.762032173776
 30
0.0
 11
2460.036819045609
 21
1860.288217905406
 31
0.0
  0
LINE
  5
A2
330
1F
100
AcDbEntity
  8
A-2_蓋
  6
Continuous
 62
     3
370
     9
100
AcDbLine
 10
2460.036819045609
 20
1860.288217905406
 30
0.0
 11
2475.03662109375
 21
1855.176111169764
 31
0.0
  0
LINE
  5
A3
330
1F
100
AcDbEntity
  8
A-2_蓋
  6
Continuous
 62
     3
370
     9
100
AcDbLine
 10
2460.036819045609
 20
1798.930565086572
 30
0.0
 11
2460.036819045609
 21
1754.856583878801
 31
0.0
  0
LINE
  5
A4
330
1F
100
AcDbEntity
  8
A-2_蓋
  6
Continuous
 62
     3
370
     9
100
AcDbLine
 10
2460.036819045609
 20
1754.856583878801
 30
0.0
 11
2475.03662109375
 21
1749.743239944046
 31
0.0
  0
LINE
  5
A5
330
1F
100
AcDbEntity
  8
A-2_蓋
  6
Continuous
 62
     3
370
     9
100
AcDbLine
 10
2460.036819045609
 20
1798.930565086572
 30
0.0
 11
2475.03662109375
 21
1804.042671822214
 31
0.0
  0
LINE
  5
A6
330
1F
100
AcDbEntity
  8
A-2_蓋
  6
Continuous
 62
     3
370
     9
100
AcDbLine
 10
2475.03662109375
 20
1855.176111169764
 30
0.0
 11
2475.03662109375
 21
1804.042671822214
 31
0.0
  0
LINE
  5
A7
330
1F
100
AcDbEntity
  8
A-2_蓋
  6
Continuous
 62
     3
370
     9
100
AcDbLine
 10
2475.03662109375
 20
1749.743239944046
 30
0.0
 11
2475.03662109375
 21
1698.611037795608
 31
0.0
  0
LINE
  5
A8
330
1F
100
AcDbEntity
  8
A-2_蓋
  6
Continuous
 62
     3
370
     9
100
AcDbLine
 10
2460.036819045609
 20
1693.497693860853
 30
0.0
 11
2475.03662109375
 21
1698.611037795608
 31
0.0
  0
LINE
  5
A9
330
1F
100
AcDbEntity
  8
A-2_蓋
  6
Continuous
 62
     3
370
     9
100
AcDbLine
 10
2460.036819045609
 20
1693.497693860853
 30
0.0
 11
2460.036819045609
 21
1628.023879592483
 31
0.0
  0
LINE
  5
AA
330
1F
100
AcDbEntity
  8
A-2_蓋
  6
Continuous
 62
     3
370
     9
100
AcDbLine
 10
2460.036819045609
 20
1628.023879592483
 30
0.0
 11
2475.03662109375
 21
1622.911772856841
 31
0.0
  0
LINE
  5
AB
330
1F
100
AcDbEntity
  8
A-2_蓋
  6
Continuous
 62
     3
370
     9
100
AcDbLine
 10
2460.036819045609
 20
1566.66622677365
 30
0.0
 11
2460.036819045609
 21
1522.592245565879
 31
0.0
  0
LINE
  5
AC
330
1F
100
AcDbEntity
  8
A-2_蓋
  6
Continuous
 62
     3
370
     9
100
AcDbLine
 10
2460.036819045609
 20
1522.592245565879
 30
0.0
 11
2475.03662109375
 21
1517.480138830237
 31
0.0
  0
LINE
  5
AD
330
1F
100
AcDbEntity
  8
A-2_蓋
  6
Continuous
 62
     3
370
     9
100
AcDbLine
 10
2460.036819045609
 20
1566.66622677365
 30
0.0
 11
2475.03662109375
 21
1571.779570708404
 31
0.0
  0
LINE
  5
AE
330
1F
100
AcDbEntity
  8
A-2_蓋
  6
Continuous
 62
     3
370
     9
100
AcDbLine
 10
2475.03662109375
 20
1622.911772856841
 30
0.0
 11
2475.03662109375
 21
1571.779570708404
 31
0.0
  0
LINE
  5
AF
330
1F
100
AcDbEntity
  8
A-2_蓋
  6
Continuous
 62
     3
370
     9
100
AcDbLine
 10
2475.03662109375
 20
1517.480138830237
 30
0.0
 11
2475.03662109375
 21
1466.3479366818
 31
0.0
  0
LINE
  5
B0
330
1F
100
AcDbEntity
  8
A-2_蓋
  6
Continuous
 62
     3
370
     9
100
AcDbLine
 10
2460.036819045609
 20
1461.233974147488
 30
0.0
 11
2475.03662109375
 21
1466.3479366818
 31
0.0
  0
LINE
  5
B1
330
1F
100
AcDbEntity
  8
A-2_蓋
  6
Continuous
 62
     3
370
     9
100
AcDbLine
 10
2460.036819045609
 20
1461.233974147488
 30
0.0
 11
2460.036819045609
 21
1395.760778478675
 31
0.0
  0
LINE
  5
B2
330
1F
100
AcDbEntity
  8
A-2_蓋
  6
Continuous
 62
     3
370
     9
100
AcDbLine
 10
2460.036819045609
 20
1395.760778478675
 30
0.0
 11
2475.03662109375
 21
1390.648671743033
 31
0.0
  0
LINE
  5
B3
330
1F
100
AcDbEntity
  8
A-2_蓋
  6
Continuous
 62
     3
370
     9
100
AcDbLine
 10
2460.036819045609
 20
1334.40312565984
 30
0.0
 11
2460.036819045609
 21
1290.329144452071
 31
0.0
  0
LINE
  5
B4
330
1F
100
AcDbEntity
  8
A-2_蓋
  6
Continuous
 62
     3
370
     9
100
AcDbLine
 10
2460.036819045609
 20
1290.329144452071
 30
0.0
 11
2475.03662109375
 21
1285.215800517315
 31
0.0
  0
LINE
  5
B5
330
1F
100
AcDbEntity
  8
A-2_蓋
  6
Continuous
 62
     3
370
     9
100
AcDbLine
 10
2460.036819045609
 20
1334.40312565984
 30
0.0
 11
2475.03662109375
 21
1339.515232395482
 31
0.0
  0
LINE
  5
B6
330
1F
100
AcDbEntity
  8
A-2_蓋
  6
Continuous
 62
     3
370
     9
100
AcDbLine
 10
2475.03662109375
 20
1390.648671743033
 30
0.0
 11
2475.03662109375
 21
1339.515232395482
 31
0.0
  0
LINE
  5
B7
330
1F
100
AcDbEntity
  8
A-2_蓋
  6
Continuous
 62
     3
370
     9
100
AcDbLine
 10
2475.03662109375
 20
1285.215800517315
 30
0.0
 11
2475.03662109375
 21
1234.083598368878
 31
0.0
  0
LINE
  5
B8
330
1F
100
AcDbEntity
  8
A-2_蓋
  6
Continuous
 62
     3
370
     9
100
AcDbLine
 10
2460.036819045609
 20
1228.970254434123
 30
0.0
 11
2475.03662109375
 21
1234.083598368878
 31
0.0
  0
LINE
  5
B9
330
1F
100
AcDbEntity
  8
A-2_蓋
  6
Continuous
 62
     3
370
     9
100
AcDbLine
 10
2460.036819045609
 20
1228.970254434123
 30
0.0
 11
2460.036819045609
 21
1163.496440165753
 31
0.0
  0
LINE
  5
BA
330
1F
100
AcDbEntity
  8
A-2_蓋
  6
Continuous
 62
     3
370
     9
100
AcDbLine
 10
2460.036819045609
 20
1163.496440165753
 30
0.0
 11
2475.03662109375
 21
1158.384333430111
 31
0.0
  0
LINE
  5
BB
330
1F
100
AcDbEntity
  8
A-2_蓋
  6
Continuous
 62
     3
370
     9
100
AcDbLine
 10
2460.036819045609
 20
1102.138787346918
 30
0.0
 11
2460.036819045609
 21
1058.064806139147
 31
0.0
  0
LINE
  5
BC
330
1F
100
AcDbEntity
  8
A-2_蓋
  6
Continuous
 62
     3
370
     9
100
AcDbLine
 10
2460.036819045609
 20
1058.064806139147
 30
0.0
 11
2475.03662109375
 21
1052.952699403505
 31
0.0
  0
LINE
  5
BD
330
1F
100
AcDbEntity
  8
A-2_蓋
  6
Continuous
 62
     3
370
     9
100
AcDbLine
 10
2460.036819045609
 20
1102.138787346918
 30
0.0
 11
2475.03662109375
 21
1107.252131281673
 31
0.0
  0
LINE
  5
BE
330
1F
100
AcDbEntity
  8
A-2_蓋
  6
Continuous
 62
     3
370
     9
100
AcDbLine
 10
2475.03662109375
 20
1158.384333430111
 30
0.0
 11
2475.03662109375
 21
1107.252131281673
 31
0.0
  0
LINE
  5
BF
330
1F
100
AcDbEntity
  8
A-2_蓋
  6
Continuous
 62
     3
370
     9
100
AcDbLine
 10
2475.03662109375
 20
1052.952699403505
 30
0.0
 11
2475.03662109375
 21
1001.820497255068
 31
0.0
  0
LINE
  5
C0
330
1F
100
AcDbEntity
  8
A-4_寸法
  6
Continuous
 62
     7
370
     9
100
AcDbLine
 10
2475.03662109375
 20
-416.8856234163854
 30
0.0
 11
3405.035482870568
 21
-416.8856234163854
 31
0.0
  0
LINE
  5
C1
330
1F
100
AcDbEntity
  8
A-4_寸法
  6
Continuous
 62
     7
370
     9
100
AcDbLine
 10
2475.03662109375
 20
-41.88562341638402
 30
0.0
 11
2475.03662109375
 21
-831.8855079444675
 31
0.0
  0
LINE
  5
C2
330
1F
100
AcDbEntity
  8
A-4_寸法
  6
Continuous
 62
     7
370
     9
100
AcDbLine
 10
2855.037379909206
 20
-41.88562341638402
 30
0.0
 11
2855.037379909206
 21
-431.885425464526
 31
0.0
  0
LINE
  5
C3
330
1F
100
AcDbEntity
  8
A-4_寸法
  6
Continuous
 62
     7
370
     9
100
AcDbLine
 10
3405.035482870568
 20
92.11417533255997
 30
0.0
 11
3405.035482870568
 21
-831.8855079444675
 31
0.0
  0
LINE
  5
C4
330
1F
100
AcDbEntity
  8
A-4_寸法
  6
Continuous
 62
     7
370
     9
100
AcDbLine
 10
2475.03662109375
 20
-816.8857058963255
 30
0.0
 11
3405.035482870568
 21
-816.8857058963255
 31
0.0
  0
LINE
  5
C5
330
1F
100
AcDbEntity
  8
A-4_寸法
  6
Continuous
 62
     7
370
     9
100
AcDbLine
 10
1975.036208694047
 20
83.11355178420712
 30
0.0
 11
1975.036208694047
 21
4183.113469304266
 31
0.0
  0
LINE
  5
C6
330
1F
100
AcDbEntity
  8
A-4_寸法
  6
Continuous
 62
     7
370
     9
100
AcDbLine
 10
2350.036208694047
 20
83.11355178420712
 30
0.0
 11
1960.036406645905
 21
83.11355178420712
 31
0.0
  0
LINE
  5
C7
330
1F
100
AcDbEntity
  8
A-4_寸法
  6
Continuous
 62
     7
370
     9
100
AcDbLine
 10
2350.036208694047
 20
4183.113469304266
 30
0.0
 11
1960.036406645905
 21
4183.113469304266
 31
0.0
  0
LINE
  5
C8
330
1F
100
AcDbEntity
  8
A-4_寸法
  6
Continuous
 62
     7
370
     9
100
AcDbLine
 10
2980.037792308912
 20
83.11355178420712
 30
0.0
 11
3920.035697318414
 21
83.11355178420712
 31
0.0
  0
LINE
  5
C9
330
1F
100
AcDbEntity
  8
A-4_寸法
  6
Continuous
 62
     7
370
     9
100
AcDbLine
 10
3446.035024282096
 20
153.1130404085729
 30
0.0
 11
3920.035697318414
 21
153.1130404085729
 31
0.0
  0
LINE
  5
CA
330
1F
100
AcDbEntity
  8
A-4_寸法
  6
Continuous
 62
     7
370
     9
100
AcDbLine
 10
3446.035024282096
 20
553.1143600876277
 30
0.0
 11
3920.035697318414
 21
553.1143600876277
 31
0.0
  0
LINE
  5
CB
330
1F
100
AcDbEntity
  8
A-4_寸法
  6
Continuous
 62
     7
370
     9
100
AcDbLine
 10
3446.035024282096
 20
3713.112661000845
 30
0.0
 11
3920.035697318414
 21
3713.112661000845
 31
0.0
  0
LINE
  5
CC
330
1F
100
AcDbEntity
  8
A-4_寸法
  6
Continuous
 62
     7
370
     9
100
AcDbLine
 10
3446.035024282096
 20
4113.1139806799
 30
0.0
 11
3920.035697318414
 21
4113.1139806799
 31
0.0
  0
LINE
  5
CD
330
1F
100
AcDbEntity
  8
A-4_寸法
  6
Continuous
 62
     7
370
     9
100
AcDbLine
 10
2980.037792308912
 20
4183.113469304266
 30
0.0
 11
3920.035697318414
 21
4183.113469304266
 31
0.0
  0
LINE
  5
CE
330
1F
100
AcDbEntity
  8
A-4_寸法
  6
Continuous
 62
     7
370
     9
100
AcDbLine
 10
3905.035895270271
 20
-118.8944636164479
 30
0.0
 11
3905.035895270271
 21
4407.312506598396
 31
0.0
  0
LINE
  5
CF
330
1F
100
AcDbEntity
  8
A-0_通り芯
  6
Continuous
 62
     3
370
     9
100
AcDbLine
 10
-5390.173422323691
 20
-3007.889247584987
 30
0.0
 11
-5265.1742471231
 21
-2981.141312057908
 31
0.0
  0
LINE
  5
D0
330
1F
100
AcDbEntity
  8
A-0_通り芯
  6
Continuous
 62
     3
370
     9
100
AcDbLine
 10
-5390.173422323691
 20
-3020.672298122096
 30
0.0
 11
-5265.1742471231
 21
-2993.924671894795
 31
0.0
  0
LINE
  5
D1
330
1F
100
AcDbEntity
  8
A-0_通り芯
  6
Continuous
 62
     3
370
     9
100
AcDbLine
 10
-5390.173422323691
 20
-3148.503422092747
 30
0.0
 11
-5265.1742471231
 21
-3121.752702867662
 31
0.0
  0
LINE
  5
D2
330
1F
100
AcDbEntity
  8
A-0_通り芯
  6
Continuous
 62
     3
370
     9
100
AcDbLine
 10
-5390.173422323691
 20
-3161.286163330078
 30
0.0
 11
-5265.1742471231
 21
-3134.538537102777
 31
0.0
  0
LINE
  5
D3
330
1F
100
AcDbEntity
  8
A-0_通り芯
  6
Continuous
 62
     3
370
     9
100
AcDbLine
 10
-5265.1742471231
 20
-3298.219051876583
 30
0.0
 11
-5390.173422323691
 21
-3271.471116349504
 31
0.0
  0
LINE
  5
D4
330
1F
100
AcDbEntity
  8
A-0_通り芯
  6
Continuous
 62
     3
370
     9
100
AcDbLine
 10
-5265.1742471231
 20
-3311.002102413693
 30
0.0
 11
-5390.173422323691
 21
-3284.254476186391
 31
0.0
  0
LINE
  5
D5
330
1F
100
AcDbEntity
  8
A-0_通り芯
  6
Continuous
 62
     3
370
     9
100
AcDbLine
 10
-2817.534163191512
 20
-3030.663299560547
 30
0.0
 11
-2804.750803354624
 21
-3068.165279079128
 31
0.0
  0
LINE
  5
D6
330
1F
100
AcDbEntity
  8
A-0_通り芯
  6
Continuous
 62
     3
370
     9
100
AcDbLine
 10
-2776.169648041596
 20
-3068.165279079128
 30
0.0
 11
-2804.750803354624
 21
-3068.165279079128
 31
0.0
  0
LINE
  5
D7
330
1F
100
AcDbEntity
  8
A-0_通り芯
  6
Continuous
 62
     3
370
     9
100
AcDbLine
 10
-2817.534163191512
 20
-3030.663299560547
 30
0.0
 11
-2927.71849761138
 21
-3030.663299560547
 31
0.0
  0
LINE
  5
D8
330
1F
100
AcDbEntity
  8
A-0_通り芯
  6
Continuous
 62
     3
370
     9
100
AcDbLine
 10
-2927.71849761138
 20
-3030.663299560547
 30
0.0
 11
-2940.499383050042
 21
-3068.165279079128
 31
0.0
  0
LINE
  5
D9
330
1F
100
AcDbEntity
  8
A-0_通り芯
  6
Continuous
 62
     3
370
     9
100
AcDbLine
 10
-2940.499383050042
 20
-3068.165279079128
 30
0.0
 11
-3068.330507020692
 21
-3068.165279079128
 31
0.0
  0
LINE
  5
DA
330
1F
100
AcDbEntity
  8
A-0_通り芯
  6
Continuous
 62
     3
370
     9
100
AcDbLine
 10
-3081.113248258023
 20
-3030.663299560547
 30
0.0
 11
-3068.330507020692
 21
-3068.165279079128
 31
0.0
  0
LINE
  5
DB
330
1F
100
AcDbEntity
  8
A-0_通り芯
  6
Continuous
 62
     3
370
     9
100
AcDbLine
 10
-3081.113248258023
 20
-3030.663299560547
 30
0.0
 11
-3244.795928130279
 21
-3030.663299560547
 31
0.0
  0
LINE
  5
DC
330
1F
100
AcDbEntity
  8
A-0_通り芯
  6
Continuous
 62
     3
370
     9
100
AcDbLine
 10
-3244.795928130279
 20
-3030.663299560547
 30
0.0
 11
-3257.579287967167
 21
-3068.165279079128
 31
0.0
  0
LINE
  5
DD
330
1F
100
AcDbEntity
  8
A-0_通り芯
  6
JWW_HOJO
 62
     3
370
     9
100
AcDbLine
 10
-5291.332347972972
 20
-3433.236756195893
 30
0.0
 11
-5416.33214177312
 21
-3406.486655570365
 31
0.0
  0
LINE
  5
DE
330
1F
100
AcDbEntity
  8
A-0_通り芯
  6
Continuous
 62
     3
370
     9
100
AcDbLine
 10
-5390.173422323691
 20
-3588.54885616818
 30
0.0
 11
-5265.1742471231
 21
-3561.8009206411
 31
0.0
  0
LINE
  5
DF
330
1F
100
AcDbEntity
  8
A-0_通り芯
  6
Continuous
 62
     3
370
     9
100
AcDbLine
 10
-5390.173422323691
 20
-3424.865866996146
 30
0.0
 11
-5265.1742471231
 21
-3451.616276921452
 31
0.0
  0
LINE
  5
E0
330
1F
100
AcDbEntity
  8
A-0_通り芯
  6
Continuous
 62
     3
370
     9
100
AcDbLine
 10
-5390.173422323691
 20
-3412.082816459037
 30
0.0
 11
-5265.1742471231
 21
-3438.833226384343
 31
0.0
  0
LINE
  5
E1
330
1F
100
AcDbEntity
  8
A-0_通り芯
  6
Continuous
 62
     3
370
     9
100
AcDbLine
 10
-5390.173422323691
 20
-3601.331906705289
 30
0.0
 11
-5265.1742471231
 21
-3574.584280477988
 31
0.0
  0
LINE
  5
E2
330
1F
100
AcDbEntity
  8
A-0_通り芯
  6
Continuous
 62
     3
370
     9
100
AcDbLine
 10
-5390.173422323691
 20
-3729.163030675939
 30
0.0
 11
-5265.1742471231
 21
-3702.412620750633
 31
0.0
  0
LINE
  5
E3
330
1F
100
AcDbEntity
  8
A-0_通り芯
  6
Continuous
 62
     3
370
     9
100
AcDbLine
 10
-5390.173422323691
 20
-3741.946081213049
 30
0.0
 11
-5265.1742471231
 21
-3715.198145685968
 31
0.0
  0
LINE
  5
E4
330
1F
100
AcDbEntity
  8
A-0_通り芯
  6
Continuous
 62
     3
370
     9
100
AcDbLine
 10
-5265.1742471231
 20
-3878.878660459776
 30
0.0
 11
-5390.173422323691
 21
-3852.130724932696
 31
0.0
  0
LINE
  5
E5
330
1F
100
AcDbEntity
  8
A-0_通り芯
  6
Continuous
 62
     3
370
     9
100
AcDbLine
 10
-5265.1742471231
 20
-3891.661710996886
 30
0.0
 11
-5390.173422323691
 21
-3864.914084769584
 31
0.0
  0
LINE
  5
E6
330
1F
100
AcDbEntity
  8
A-0_通り芯
  6
Continuous
 62
     3
370
     9
100
AcDbLine
 10
-3398.193771774705
 20
-3030.663299560547
 30
0.0
 11
-3508.378106194573
 21
-3030.663299560547
 31
0.0
  0
LINE
  5
E7
330
1F
100
AcDbEntity
  8
A-0_通り芯
  6
Continuous
 62
     3
370
     9
100
AcDbLine
 10
-3508.378106194573
 20
-3030.663299560547
 30
0.0
 11
-3521.161466031461
 21
-3068.165279079128
 31
0.0
  0
LINE
  5
E8
330
1F
100
AcDbEntity
  8
A-0_通り芯
  6
Continuous
 62
     3
370
     9
100
AcDbLine
 10
-3521.161466031461
 20
-3068.165279079128
 30
0.0
 11
-3648.990115603885
 21
-3068.165279079128
 31
0.0
  0
LINE
  5
E9
330
1F
100
AcDbEntity
  8
A-0_通り芯
  6
Continuous
 62
     3
370
     9
100
AcDbLine
 10
-3661.772856841216
 20
-3030.663299560547
 30
0.0
 11
-3648.990115603885
 21
-3068.165279079128
 31
0.0
  0
LINE
  5
EA
330
1F
100
AcDbEntity
  8
A-0_通り芯
  6
Continuous
 62
     3
370
     9
100
AcDbLine
 10
-3661.772856841216
 20
-3030.663299560547
 30
0.0
 11
-3825.456155313027
 21
-3030.663299560547
 31
0.0
  0
LINE
  5
EB
330
1F
100
AcDbEntity
  8
A-0_通り芯
  6
Continuous
 62
     3
370
     9
100
AcDbLine
 10
-3825.456155313027
 20
-3030.663299560547
 30
0.0
 11
-3838.239515149915
 21
-3068.165279079128
 31
0.0
  0
LINE
  5
EC
330
1F
100
AcDbEntity
  8
A-0_通り芯
  6
Continuous
 62
     3
370
     9
100
AcDbLine
 10
-3398.193771774705
 20
-3030.663299560547
 30
0.0
 11
-3385.410411937816
 21
-3068.165279079128
 31
0.0
  0
LINE
  5
ED
330
1F
100
AcDbEntity
  8
A-0_通り芯
  6
Continuous
 62
     3
370
     9
100
AcDbLine
 10
-3257.579287967167
 20
-3068.165279079128
 30
0.0
 11
-3385.410411937816
 21
-3068.165279079128
 31
0.0
  0
LINE
  5
EE
330
1F
100
AcDbEntity
  8
A-0_通り芯
  6
Continuous
 62
     3
370
     9
100
AcDbLine
 10
-3978.853380357897
 20
-3030.663299560547
 30
0.0
 11
-4089.038333377323
 21
-3030.663299560547
 31
0.0
  0
LINE
  5
EF
330
1F
100
AcDbEntity
  8
A-0_通り芯
  6
Continuous
 62
     3
370
     9
100
AcDbLine
 10
-4089.038333377323
 20
-3030.663299560547
 30
0.0
 11
-4101.821074614653
 21
-3068.165279079128
 31
0.0
  0
LINE
  5
F0
330
1F
100
AcDbEntity
  8
A-0_通り芯
  6
Continuous
 62
     3
370
     9
100
AcDbLine
 10
-4101.821074614653
 20
-3068.165279079128
 30
0.0
 11
-4229.649724187077
 21
-3068.165279079128
 31
0.0
  0
LINE
  5
F1
330
1F
100
AcDbEntity
  8
A-0_通り芯
  6
Continuous
 62
     3
370
     9
100
AcDbLine
 10
-4242.432465424408
 20
-3030.663299560547
 30
0.0
 11
-4229.649724187077
 21
-3068.165279079128
 31
0.0
  0
LINE
  5
F2
330
1F
100
AcDbEntity
  8
A-0_通り芯
  6
Continuous
 62
     3
370
     9
100
AcDbLine
 10
-4242.432465424408
 20
-3030.663299560547
 30
0.0
 11
-4406.11576389622
 21
-3030.663299560547
 31
0.0
  0
LINE
  5
F3
330
1F
100
AcDbEntity
  8
A-0_通り芯
  6
Continuous
 62
     3
370
     9
100
AcDbLine
 10
-4406.11576389622
 20
-3030.663299560547
 30
0.0
 11
-4418.899123733108
 21
-3068.165279079128
 31
0.0
  0
LINE
  5
F4
330
1F
100
AcDbEntity
  8
A-0_通り芯
  6
Continuous
 62
     3
370
     9
100
AcDbLine
 10
-3978.853380357897
 20
-3030.663299560547
 30
0.0
 11
-3966.070020521009
 21
-3068.165279079128
 31
0.0
  0
LINE
  5
F5
330
1F
100
AcDbEntity
  8
A-0_通り芯
  6
Continuous
 62
     3
370
     9
100
AcDbLine
 10
-3838.239515149915
 20
-3068.165279079128
 30
0.0
 11
-3966.070020521009
 21
-3068.165279079128
 31
0.0
  0
LINE
  5
F6
330
1F
100
AcDbEntity
  8
A-0_通り芯
  6
Continuous
 62
     3
370
     9
100
AcDbLine
 10
-4559.512988941089
 20
-3030.663299560547
 30
0.0
 11
-4669.697941960515
 21
-3030.663299560547
 31
0.0
  0
LINE
  5
F7
330
1F
100
AcDbEntity
  8
A-0_通り芯
  6
Continuous
 62
     3
370
     9
100
AcDbLine
 10
-4669.697941960515
 20
-3030.663299560547
 30
0.0
 11
-4682.47820879962
 21
-3068.165279079128
 31
0.0
  0
LINE
  5
F8
330
1F
100
AcDbEntity
  8
A-0_通り芯
  6
Continuous
 62
     3
370
     9
100
AcDbLine
 10
-4559.512988941089
 20
-3030.663299560547
 30
0.0
 11
-4546.729629104202
 21
-3068.165279079128
 31
0.0
  0
LINE
  5
F9
330
1F
100
AcDbEntity
  8
A-0_通り芯
  6
Continuous
 62
     3
370
     9
100
AcDbLine
 10
-4418.899123733108
 20
-3068.165279079128
 30
0.0
 11
-4546.729629104202
 21
-3068.165279079128
 31
0.0
  0
LINE
  5
FA
330
1F
100
AcDbEntity
  8
A-0_通り芯
  6
Continuous
 62
     3
370
     9
100
AcDbLine
 10
-4682.47820879962
 20
-3068.165279079128
 30
0.0
 11
-4758.741017934438
 21
-3068.165279079128
 31
0.0
  0
LINE
  5
FB
330
1F
100
AcDbEntity
  8
A-0_通り芯
  6
Continuous
 62
     3
370
     9
100
AcDbLine
 10
-2776.169648041596
 20
-4018.16501101932
 30
0.0
 11
-4758.741017934438
 21
-4018.16501101932
 31
0.0
  0
LINE
  5
FC
330
1F
100
AcDbEntity
  8
A-0_通り芯
  6
Continuous
 62
     3
370
     9
100
AcDbLine
 10
-2776.169648041596
 20
-3843.165361559069
 30
0.0
 11
-4758.741017934438
 21
-3843.165361559069
 31
0.0
  0
LINE
  5
FD
330
1F
100
AcDbEntity
  8
A-0_通り芯
  6
Continuous
 62
     3
370
     9
100
AcDbLine
 10
-2776.169648041596
 20
-3818.164041880014
 30
0.0
 11
-4758.741017934438
 21
-3818.164041880014
 31
0.0
  0
LINE
  5
FE
330
1F
100
AcDbEntity
  8
A-0_通り芯
  6
Continuous
 62
     3
370
     9
100
AcDbLine
 10
-2776.169648041596
 20
-3243.165237839158
 30
0.0
 11
-4758.741017934438
 21
-3243.165237839158
 31
0.0
  0
LINE
  5
FF
330
1F
100
AcDbEntity
  8
A-0_通り芯
  6
Continuous
 62
     3
370
     9
100
AcDbLine
 10
-2776.169648041596
 20
-3268.166557518211
 30
0.0
 11
-4758.741017934438
 21
-3268.166557518211
 31
0.0
  0
LINE
  5
100
330
1F
100
AcDbEntity
  8
A-0_通り芯
  6
Continuous
 62
     3
370
     9
100
AcDbLine
 10
-2097.277667071367
 20
-3068.165279079128
 30
0.0
 11
-1972.278491870776
 21
-3068.165279079128
 31
0.0
  0
LINE
  5
101
330
1F
100
AcDbEntity
  8
A-0_通り芯
  6
Continuous
 62
     3
370
     9
100
AcDbLine
 10
-1972.278491870776
 20
-4018.16501101932
 30
0.0
 11
-2097.277667071367
 21
-4018.16501101932
 31
0.0
  0
LINE
  5
102
330
1F
100
AcDbEntity
  8
A-0_通り芯
  6
Continuous
 62
     3
370
     9
100
AcDbLine
 10
-1972.278491870776
 20
-3843.165361559069
 30
0.0
 11
-1972.278491870776
 21
-4018.16501101932
 31
0.0
  0
LINE
  5
103
330
1F
100
AcDbEntity
  8
A-0_通り芯
  6
Continuous
 62
     3
370
     9
100
AcDbLine
 10
-1997.280430149387
 20
-3818.164041880014
 30
0.0
 11
-1972.278491870776
 21
-3843.165361559069
 31
0.0
  0
LINE
  5
104
330
1F
100
AcDbEntity
  8
A-0_通り芯
  6
Continuous
 62
     3
370
     9
100
AcDbLine
 10
-2097.277667071367
 20
-4018.16501101932
 30
0.0
 11
-2097.277667071367
 21
-3843.165361559069
 31
0.0
  0
LINE
  5
105
330
1F
100
AcDbEntity
  8
A-0_通り芯
  6
Continuous
 62
     3
370
     9
100
AcDbLine
 10
-2097.277667071367
 20
-3843.165361559069
 30
0.0
 11
-2072.27882179054
 21
-3818.164041880014
 31
0.0
  0
LINE
  5
106
330
1F
100
AcDbEntity
  8
A-0_通り芯
  6
Continuous
 62
     3
370
     9
100
AcDbLine
 10
-2097.277667071367
 20
-3243.165237839158
 30
0.0
 11
-2097.277667071367
 21
-3068.165279079128
 31
0.0
  0
LINE
  5
107
330
1F
100
AcDbEntity
  8
A-0_通り芯
  6
Continuous
 62
     3
370
     9
100
AcDbLine
 10
-2097.277667071367
 20
-3243.165237839158
 30
0.0
 11
-2072.27882179054
 21
-3268.164083119985
 31
0.0
  0
LINE
  5
108
330
1F
100
AcDbEntity
  8
A-0_通り芯
  6
Continuous
 62
     3
370
     9
100
AcDbLine
 10
-2072.27882179054
 20
-3818.164041880014
 30
0.0
 11
-2072.27882179054
 21
-3268.164083119985
 31
0.0
  0
LINE
  5
109
330
1F
100
AcDbEntity
  8
A-0_通り芯
  6
Continuous
 62
     3
370
     9
100
AcDbLine
 10
-1997.280430149387
 20
-3268.164083119985
 30
0.0
 11
-1997.280430149387
 21
-3818.164041880014
 31
0.0
  0
LINE
  5
10A
330
1F
100
AcDbEntity
  8
A-0_通り芯
  6
Continuous
 62
     3
370
     9
100
AcDbLine
 10
-1997.280430149387
 20
-3268.164083119985
 30
0.0
 11
-1972.278491870776
 21
-3243.165237839158
 31
0.0
  0
LINE
  5
10B
330
1F
100
AcDbEntity
  8
A-0_通り芯
  6
Continuous
 62
     3
370
     9
100
AcDbLine
 10
-1972.278491870776
 20
-3068.165279079128
 30
0.0
 11
-1972.278491870776
 21
-3243.165237839158
 31
0.0
  0
LINE
  5
10C
330
1F
100
AcDbEntity
  8
A-0_通り芯
  6
Continuous
 62
     3
370
     9
100
AcDbLine
 10
-2097.277667071367
 20
-3068.165279079128
 30
0.0
 11
-1972.278491870776
 21
-3068.165279079128
 31
0.0
  0
LINE
  5
10D
330
1F
100
AcDbEntity
  8
A-0_通り芯
  6
Continuous
 62
     3
370
     9
100
AcDbLine
 10
-2097.277667071367
 20
-3030.665773958773
 30
0.0
 11
-1972.278491870776
 21
-3030.665773958773
 31
0.0
  0
LINE
  5
10E
330
1F
100
AcDbEntity
  8
A-0_通り芯
  6
Continuous
 62
     3
370
     9
100
AcDbLine
 10
-2097.277667071367
 20
-3030.665773958773
 30
0.0
 11
-2097.277667071367
 21
-3068.165279079128
 31
0.0
  0
LINE
  5
10F
330
1F
100
AcDbEntity
  8
A-0_通り芯
  6
Continuous
 62
     3
370
     9
100
AcDbLine
 10
-1972.278491870776
 20
-3030.665773958773
 30
0.0
 11
-1972.278491870776
 21
-3068.165279079128
 31
0.0
  0
LINE
  5
110
330
1F
100
AcDbEntity
  8
A-0_通り芯
  6
Continuous
 62
     7
370
     9
100
AcDbLine
 10
-1360.048654917124
 20
-4018.16501101932
 30
0.0
 11
-1360.048654917124
 21
-3068.165279079128
 31
0.0
  0
LINE
  5
111
330
1F
100
AcDbEntity
  8
A-0_通り芯
  6
Continuous
 62
     7
370
     9
100
AcDbLine
 10
-1878.407246357685
 20
-4018.16501101932
 30
0.0
 11
-1345.047615669868
 21
-4018.16501101932
 31
0.0
  0
LINE
  5
112
330
1F
100
AcDbEntity
  8
A-0_通り芯
  6
Continuous
 62
     7
370
     9
100
AcDbLine
 10
-1878.407246357685
 20
-3068.165279079128
 30
0.0
 11
-1345.047615669868
 21
-3068.165279079128
 31
0.0
  0
LINE
  5
113
330
1F
100
AcDbEntity
  8
A-0_通り芯
  6
Continuous
 62
     7
370
     9
100
AcDbLine
 10
-1360.048654917124
 20
-4018.16501101932
 30
0.0
 11
-1376.363599622572
 21
-3894.233229353621
 31
0.0
  0
LINE
  5
114
330
1F
100
AcDbEntity
  8
A-0_通り芯
  6
Continuous
 62
     7
370
     9
100
AcDbLine
 10
-1360.048654917124
 20
-4018.16501101932
 30
0.0
 11
-1343.732473012562
 21
-3894.233229353621
 31
0.0
  0
LINE
  5
115
330
1F
100
AcDbEntity
  8
A-0_通り芯
  6
Continuous
 62
     7
370
     9
100
AcDbLine
 10
-1360.048654917124
 20
-3068.165279079128
 30
0.0
 11
-1376.363599622572
 21
-3192.0945863466
 31
0.0
  0
LINE
  5
116
330
1F
100
AcDbEntity
  8
A-0_通り芯
  6
Continuous
 62
     7
370
     9
100
AcDbLine
 10
-1360.048654917124
 20
-3068.165279079128
 30
0.0
 11
-1343.732473012562
 21
-3192.0945863466
 31
0.0
  0
LINE
  5
117
330
1F
100
AcDbEntity
  8
A-0_通り芯
  6
JWW_HOJO
 62
     3
370
     9
100
AcDbLine
 10
-5291.332347972972
 20
-4013.893890380859
 30
0.0
 11
-5416.33214177312
 21
-3987.146264153558
 31
0.0
  0
LINE
  5
118
330
1F
100
AcDbEntity
  8
A-0_通り芯
  6
Continuous
 62
     3
370
     9
100
AcDbLine
 10
-5390.173422323691
 20
-4005.525475579339
 30
0.0
 11
-5265.1742471231
 21
-4032.275885504645
 31
0.0
  0
LINE
  5
119
330
1F
100
AcDbEntity
  8
A-0_通り芯
  6
Continuous
 62
     3
370
     9
100
AcDbLine
 10
-5390.173422323691
 20
-3992.74242504223
 30
0.0
 11
-5265.1742471231
 21
-4019.492834967536
 31
0.0
  0
LINE
  5
11A
330
1F
100
AcDbEntity
  8
A-0_通り芯
  6
Continuous
 62
     3
370
     9
100
AcDbLine
 10
-5346.487921637457
 20
-3011.325258822054
 30
0.0
 11
-5265.1742471231
 21
-3092.638933336412
 31
0.0
  0
LINE
  5
11B
330
1F
100
AcDbEntity
  8
A-0_通り芯
  6
Continuous
 62
     3
370
     9
100
AcDbLine
 10
-5302.804895349451
 20
-3001.975745123786
 30
0.0
 11
-5265.1742471231
 21
-3039.606393350137
 31
0.0
  0
LINE
  5
11C
330
1F
100
AcDbEntity
  8
A-0_通り芯
  6
Continuous
 62
     3
370
     9
100
AcDbLine
 10
-5390.173422323691
 20
-3020.672298122096
 30
0.0
 11
-5284.879117398648
 21
-3125.969386745143
 31
0.0
  0
LINE
  5
11D
330
1F
100
AcDbEntity
  8
A-0_通り芯
  6
Continuous
 62
     3
370
     9
100
AcDbLine
 10
-5390.173422323691
 20
-3073.707312506598
 30
0.0
 11
-5328.562143686655
 21
-3135.318900443412
 31
0.0
  0
LINE
  5
11E
330
1F
100
AcDbEntity
  8
A-0_通り芯
  6
Continuous
 62
     3
370
     9
100
AcDbLine
 10
-5390.173422323691
 20
-3126.739852492874
 30
0.0
 11
-5372.247644372888
 21
-3144.665630443676
 31
0.0
  0
LINE
  5
11F
330
1F
100
AcDbEntity
  8
A-0_通り芯
  6
Continuous
 62
     3
370
     9
100
AcDbLine
 10
-5390.173422323691
 20
-3390.319246859163
 30
0.0
 11
-5362.486761969489
 21
-3418.008690911371
 31
0.0
  0
LINE
  5
120
330
1F
100
AcDbEntity
  8
A-0_通り芯
  6
Continuous
 62
     3
370
     9
100
AcDbLine
 10
-5390.173422323691
 20
-3337.286706872888
 30
0.0
 11
-5295.014252533783
 21
-3432.446495262352
 31
0.0
  0
LINE
  5
121
330
1F
100
AcDbEntity
  8
A-0_通り芯
  6
Continuous
 62
     3
370
     9
100
AcDbLine
 10
-5390.173422323691
 20
-3284.254476186391
 30
0.0
 11
-5265.1742471231
 21
-3409.251176988756
 31
0.0
  0
LINE
  5
122
330
1F
100
AcDbEntity
  8
A-0_通り芯
  6
Continuous
 62
     3
370
     9
100
AcDbLine
 10
-5322.703387286211
 20
-3298.692280537373
 30
0.0
 11
-5265.1742471231
 21
-3356.221111400707
 31
0.0
  0
LINE
  5
123
330
1F
100
AcDbEntity
  8
A-0_通り芯
  6
Continuous
 62
     3
370
     9
100
AcDbLine
 10
-5346.487921637457
 20
-3591.984867405247
 30
0.0
 11
-5265.1742471231
 21
-3673.298851219383
 31
0.0
  0
LINE
  5
124
330
1F
100
AcDbEntity
  8
A-0_通り芯
  6
Continuous
 62
     3
370
     9
100
AcDbLine
 10
-5302.804895349451
 20
-3582.635353706979
 30
0.0
 11
-5265.1742471231
 21
-3620.266311233108
 31
0.0
  0
LINE
  5
125
330
1F
100
AcDbEntity
  8
A-0_通り芯
  6
Continuous
 62
     3
370
     9
100
AcDbLine
 10
-5390.173422323691
 20
-3601.331906705289
 30
0.0
 11
-5284.879117398648
 21
-3706.628995328336
 31
0.0
  0
LINE
  5
126
330
1F
100
AcDbEntity
  8
A-0_通り芯
  6
Continuous
 62
     3
370
     9
100
AcDbLine
 10
-5390.173422323691
 20
-3654.366921089791
 30
0.0
 11
-5328.562143686655
 21
-3715.978509026605
 31
0.0
  0
LINE
  5
127
330
1F
100
AcDbEntity
  8
A-0_通り芯
  6
Continuous
 62
     3
370
     9
100
AcDbLine
 10
-5390.173422323691
 20
-3707.399461076066
 30
0.0
 11
-5372.247644372888
 21
-3725.325548326647
 31
0.0
  0
LINE
  5
128
330
1F
100
AcDbEntity
  8
A-0_通り芯
  6
Continuous
 62
     3
370
     9
100
AcDbLine
 10
-5390.173422323691
 20
-3970.978855442356
 30
0.0
 11
-5362.486761969489
 21
-3998.668299494562
 31
0.0
  0
LINE
  5
129
330
1F
100
AcDbEntity
  8
A-0_通り芯
  6
Continuous
 62
     3
370
     9
100
AcDbLine
 10
-5390.173422323691
 20
-3917.946624755859
 30
0.0
 11
-5295.014252533783
 21
-4013.106103845544
 31
0.0
  0
LINE
  5
12A
330
1F
100
AcDbEntity
  8
A-0_通り芯
  6
Continuous
 62
     3
370
     9
100
AcDbLine
 10
-5390.173422323691
 20
-3864.914084769584
 30
0.0
 11
-5265.1742471231
 21
-3989.910785571949
 31
0.0
  0
LINE
  5
12B
330
1F
100
AcDbEntity
  8
A-0_通り芯
  6
Continuous
 62
     3
370
     9
100
AcDbLine
 10
-5322.703387286211
 20
-3879.351889120566
 30
0.0
 11
-5265.1742471231
 21
-3936.878245585673
 31
0.0
  0
LINE
  5
12C
330
1F
100
AcDbEntity
  8
A-0_通り芯
  6
Continuous
 62
     3
370
     9
100
AcDbLine
 10
-5265.1742471231
 20
-2717.559133993613
 30
0.0
 11
-5390.173422323691
 21
-2690.811507766311
 31
0.0
  0
LINE
  5
12D
330
1F
100
AcDbEntity
  8
A-0_通り芯
  6
Continuous
 62
     3
370
     9
100
AcDbLine
 10
-5265.1742471231
 20
-2730.3424938305
 30
0.0
 11
-5390.173422323691
 21
-2703.59455830342
 31
0.0
  0
LINE
  5
12E
330
1F
100
AcDbEntity
  8
A-0_通り芯
  6
JWW_HOJO
 62
     3
370
     9
100
AcDbLine
 10
-5291.332347972972
 20
-2852.577147612701
 30
0.0
 11
-5416.33214177312
 21
-2825.826737687394
 31
0.0
  0
LINE
  5
12F
330
1F
100
AcDbEntity
  8
A-0_通り芯
  6
Continuous
 62
     3
370
     9
100
AcDbLine
 10
-5390.173422323691
 20
-2844.206258412954
 30
0.0
 11
-5265.1742471231
 21
-2870.956359038482
 31
0.0
  0
LINE
  5
130
330
1F
100
AcDbEntity
  8
A-0_通り芯
  6
Continuous
 62
     3
370
     9
100
AcDbLine
 10
-5390.173422323691
 20
-2831.422898576066
 30
0.0
 11
-5265.1742471231
 21
-2858.17361780115
 31
0.0
  0
LINE
  5
131
330
1F
100
AcDbEntity
  8
A-0_通り芯
  6
Continuous
 62
     3
370
     9
100
AcDbLine
 10
-5390.173422323691
 20
-2809.659638275971
 30
0.0
 11
-5362.486761969489
 21
-2837.349082328178
 31
0.0
  0
LINE
  5
132
330
1F
100
AcDbEntity
  8
A-0_通り芯
  6
Continuous
 62
     3
370
     9
100
AcDbLine
 10
-5390.173422323691
 20
-2756.626788989917
 30
0.0
 11
-5295.014252533783
 21
-2851.78688667916
 31
0.0
  0
LINE
  5
133
330
1F
100
AcDbEntity
  8
A-0_通り芯
  6
Continuous
 62
     3
370
     9
100
AcDbLine
 10
-5390.173422323691
 20
-2703.59455830342
 30
0.0
 11
-5265.1742471231
 21
-2828.59404280379
 31
0.0
  0
LINE
  5
134
330
1F
100
AcDbEntity
  8
A-0_通り芯
  6
Continuous
 62
     3
370
     9
100
AcDbLine
 10
-5322.703387286211
 20
-2718.032362654402
 30
0.0
 11
-5265.1742471231
 21
-2775.561502817514
 31
0.0
  0
LINE
  5
135
330
1F
100
AcDbEntity
  8
A-0_通り芯
  6
Continuous
 62
     3
370
     9
100
AcDbLine
 10
-5265.1742471231
 20
-2631.920211379592
 30
0.0
 11
-5265.1742471231
 21
-4089.294371733794
 31
0.0
  0
LINE
  5
136
330
1F
100
AcDbEntity
  8
A-0_通り芯
  6
Continuous
 62
     3
370
     9
100
AcDbLine
 10
-5390.173422323691
 20
-2631.920211379592
 30
0.0
 11
-5390.173422323691
 21
-4089.294371733794
 31
0.0
  0
LINE
  5
137
330
1F
100
AcDbEntity
  8
A-0_通り芯
  6
Continuous
 62
     7
370
     9
100
AcDbLine
 10
-5474.859083021009
 20
-3729.163030675939
 30
0.0
 11
-5743.331290580131
 21
-3729.163030675939
 31
0.0
  0
LINE
  5
138
330
1F
100
AcDbEntity
  8
A-0_通り芯
  6
Continuous
 62
     7
370
     9
100
AcDbLine
 10
-5474.859083021009
 20
-3864.914084769584
 30
0.0
 11
-5743.331290580131
 21
-3864.914084769584
 31
0.0
  0
LINE
  5
139
330
1F
100
AcDbEntity
  8
A-0_通り芯
  6
Continuous
 62
     7
370
     9
100
AcDbLine
 10
-5728.330869932433
 20
-3729.163030675939
 30
0.0
 11
-5744.649526235219
 21
-3605.23124901024
 31
0.0
  0
LINE
  5
13A
330
1F
100
AcDbEntity
  8
A-0_通り芯
  6
Continuous
 62
     7
370
     9
100
AcDbLine
 10
-5728.330869932433
 20
-3729.163030675939
 30
0.0
 11
-5712.015306627428
 21
-3605.23124901024
 31
0.0
  0
LINE
  5
13B
330
1F
100
AcDbEntity
  8
A-0_通り芯
  6
Continuous
 62
     7
370
     9
100
AcDbLine
 10
-5728.330869932433
 20
-3864.914084769584
 30
0.0
 11
-5744.649526235219
 21
-3988.843082737278
 31
0.0
  0
LINE
  5
13C
330
1F
100
AcDbEntity
  8
A-0_通り芯
  6
Continuous
 62
     7
370
     9
100
AcDbLine
 10
-5728.330869932433
 20
-3864.914084769584
 30
0.0
 11
-5712.015306627428
 21
-3988.843082737278
 31
0.0
  0
LINE
  5
13D
330
1F
100
AcDbEntity
  8
A-0_通り芯
  6
Continuous
 62
     7
370
     9
100
AcDbLine
 10
-5474.859083021009
 20
-2831.422898576066
 30
0.0
 11
-5743.331290580131
 21
-2831.422898576066
 31
0.0
  0
LINE
  5
13E
330
1F
100
AcDbEntity
  8
A-0_通り芯
  6
Continuous
 62
     7
370
     9
100
AcDbLine
 10
-5474.859083021009
 20
-3020.672298122096
 30
0.0
 11
-5743.331290580131
 21
-3020.672298122096
 31
0.0
  0
LINE
  5
13F
330
1F
100
AcDbEntity
  8
A-0_通り芯
  6
Continuous
 62
     7
370
     9
100
AcDbLine
 10
-5728.330869932433
 20
-2831.422898576066
 30
0.0
 11
-5744.649526235219
 21
-2707.493900608372
 31
0.0
  0
LINE
  5
140
330
1F
100
AcDbEntity
  8
A-0_通り芯
  6
Continuous
 62
     7
370
     9
100
AcDbLine
 10
-5728.330869932433
 20
-2831.422898576066
 30
0.0
 11
-5712.015306627428
 21
-2707.493900608372
 31
0.0
  0
LINE
  5
141
330
1F
100
AcDbEntity
  8
A-0_通り芯
  6
Continuous
 62
     7
370
     9
100
AcDbLine
 10
-5728.330869932433
 20
-3020.672298122096
 30
0.0
 11
-5744.649526235219
 21
-3144.603770488017
 31
0.0
  0
LINE
  5
142
330
1F
100
AcDbEntity
  8
A-0_通り芯
  6
Continuous
 62
     7
370
     9
100
AcDbLine
 10
-5728.330869932433
 20
-3020.672298122096
 30
0.0
 11
-5712.015306627428
 21
-3144.603770488017
 31
0.0
  0
LINE
  5
143
330
1F
100
AcDbEntity
  8
A-0_通り芯
  6
Continuous
 62
     7
370
     9
100
AcDbLine
 10
-5728.330869932433
 20
-3571.66325337178
 30
0.0
 11
-5728.330869932433
 21
-4061.213663462046
 31
0.0
  0
LINE
  5
144
330
1F
100
AcDbEntity
  8
A-0_通り芯
  6
Continuous
 62
     7
370
     9
100
AcDbLine
 10
-5728.330869932433
 20
-2659.376443398965
 30
0.0
 11
-5728.330869932433
 21
-3190.464576514992
 31
0.0
  0
LINE
  5
145
330
1F
100
AcDbEntity
  8
A-0_通り芯
  6
Continuous
 62
     7
370
     9
100
AcDbLine
 10
-5205.718169341216
 20
-3109.029347187764
 30
0.0
 11
-5045.639450485642
 21
-3074.775015341269
 31
0.0
  0
LINE
  5
146
330
1F
100
AcDbEntity
  8
A-0_通り芯
  6
Continuous
 62
     7
370
     9
100
AcDbLine
 10
-5231.873795792862
 20
-2986.799642202016
 30
0.0
 11
-5071.797551335515
 21
-2952.542835957295
 31
0.0
  0
LINE
  5
147
330
1F
100
AcDbEntity
  8
A-0_通り芯
  6
Continuous
 62
     7
370
     9
100
AcDbLine
 10
-5060.307683171452
 20
-3077.913789491395
 30
0.0
 11
-5018.421069995777
 21
-3195.686793971706
 31
0.0
  0
LINE
  5
148
330
1F
100
AcDbEntity
  8
A-0_通り芯
  6
Continuous
 62
     7
370
     9
100
AcDbLine
 10
-5060.307683171452
 20
-3077.913789491395
 30
0.0
 11
-5050.329053724134
 21
-3202.514277277765
 31
0.0
  0
LINE
  5
149
330
1F
100
AcDbEntity
  8
A-0_通り芯
  6
Continuous
 62
     7
370
     9
100
AcDbLine
 10
-5086.463928222656
 20
-2955.679135709195
 30
0.0
 11
-5096.445032068201
 21
-2831.078647922825
 31
0.0
  0
LINE
  5
14A
330
1F
100
AcDbEntity
  8
A-0_通り芯
  6
Continuous
 62
     7
370
     9
100
AcDbLine
 10
-5086.463928222656
 20
-2955.679135709195
 30
0.0
 11
-5128.353015796558
 21
-2837.908605627111
 31
0.0
  0
LINE
  5
14B
330
1F
100
AcDbEntity
  8
A-0_通り芯
  6
Continuous
 62
     7
370
     9
100
AcDbLine
 10
-5028.93726245777
 20
-3224.508275212468
 30
0.0
 11
-5120.717641469594
 21
-2795.615572542757
 31
0.0
  0
LINE
  5
14C
330
1F
100
AcDbEntity
  8
A-0_通り芯
  6
Continuous
 62
     7
370
     9
100
AcDbLine
 10
-1972.278491870776
 20
-2972.745678875897
 30
0.0
 11
-1972.278491870776
 21
-2791.894696209882
 31
0.0
  0
LINE
  5
14D
330
1F
100
AcDbEntity
  8
A-0_通り芯
  6
Continuous
 62
     7
370
     9
100
AcDbLine
 10
-2097.277667071367
 20
-2972.745678875897
 30
0.0
 11
-2097.277667071367
 21
-2791.894696209882
 31
0.0
  0
LINE
  5
14E
330
1F
100
AcDbEntity
  8
A-0_通り芯
  6
Continuous
 62
     7
370
     9
100
AcDbLine
 10
-1972.278491870776
 20
-2806.894807557801
 30
0.0
 11
-1848.347019504855
 21
-2790.579244252798
 31
0.0
  0
LINE
  5
14F
330
1F
100
AcDbEntity
  8
A-0_通り芯
  6
Continuous
 62
     7
370
     9
100
AcDbLine
 10
-1972.278491870776
 20
-2806.894807557801
 30
0.0
 11
-1848.347019504855
 21
-2823.210680162584
 31
0.0
  0
LINE
  5
150
330
1F
100
AcDbEntity
  8
A-0_通り芯
  6
Continuous
 62
     7
370
     9
100
AcDbLine
 10
-2097.277667071367
 20
-2806.894807557801
 30
0.0
 11
-2221.210376636401
 21
-2790.579244252798
 31
0.0
  0
LINE
  5
151
330
1F
100
AcDbEntity
  8
A-0_通り芯
  6
Continuous
 62
     7
370
     9
100
AcDbLine
 10
-2097.277667071367
 20
-2806.894807557801
 30
0.0
 11
-2221.210376636401
 21
-2823.210680162584
 31
0.0
  0
LINE
  5
152
330
1F
100
AcDbEntity
  8
A-0_通り芯
  6
Continuous
 62
     7
370
     9
100
AcDbLine
 10
-1832.915434966216
 20
-2806.894807557801
 30
0.0
 11
-2235.694885253906
 21
-2806.894807557801
 31
0.0
  0
LINE
  5
153
330
1F
100
AcDbEntity
  8
A-0_通り芯
  6
Continuous
 62
     7
370
     9
100
AcDbLine
 10
-1997.280430149387
 20
-3608.736852697424
 30
0.0
 11
-1997.280430149387
 21
-3623.734489647118
 31
0.0
  0
LINE
  5
154
330
1F
100
AcDbEntity
  8
A-0_通り芯
  6
Continuous
 62
     7
370
     9
100
AcDbLine
 10
-2072.27882179054
 20
-3608.736852697424
 30
0.0
 11
-2072.27882179054
 21
-3623.734489647118
 31
0.0
  0
LINE
  5
155
330
1F
100
AcDbEntity
  8
A-0_通り芯
  6
Continuous
 62
     7
370
     9
100
AcDbLine
 10
-1997.280430149387
 20
-3608.736852697424
 30
0.0
 11
-1873.34833918391
 21
-3592.420980092641
 31
0.0
  0
LINE
  5
156
330
1F
100
AcDbEntity
  8
A-0_通り芯
  6
Continuous
 62
     7
370
     9
100
AcDbLine
 10
-1997.280430149387
 20
-3608.736852697424
 30
0.0
 11
-1873.34833918391
 21
-3625.052725302206
 31
0.0
  0
LINE
  5
157
330
1F
100
AcDbEntity
  8
A-0_通り芯
  6
Continuous
 62
     7
370
     9
100
AcDbLine
 10
-2072.27882179054
 20
-3608.736852697424
 30
0.0
 11
-2196.20843835779
 21
-3592.420980092641
 31
0.0
  0
LINE
  5
158
330
1F
100
AcDbEntity
  8
A-0_通り芯
  6
Continuous
 62
     7
370
     9
100
AcDbLine
 10
-2072.27882179054
 20
-3608.736852697424
 30
0.0
 11
-2196.20843835779
 21
-3625.052725302206
 31
0.0
  0
LINE
  5
159
330
1F
100
AcDbEntity
  8
A-0_通り芯
  6
Continuous
 62
     7
370
     9
100
AcDbLine
 10
-1818.49278630437
 20
-3608.736852697424
 30
0.0
 11
-2220.845402898014
 21
-3608.736852697424
 31
0.0
  0
LINE
  5
15A
330
1F
100
AcDbEntity
  8
A-0_通り芯
  6
Continuous
 62
     7
370
     9
100
AcDbLine
 10
-5719.787391456398
 20
-4450.47887853674
 30
0.0
 11
-5719.787391456398
 21
-4782.735195675412
 31
0.0
  0
LINE
  5
15B
330
1F
100
AcDbEntity
  8
A-0_通り芯
  6
Continuous
 62
     7
370
     9
100
AcDbLine
 10
-5719.787391456398
 20
-4782.735195675412
 30
0.0
 11
-1528.248348751583
 21
-4782.735195675412
 31
0.0
  0
LINE
  5
15C
330
1F
100
AcDbEntity
  8
A-0_通り芯
  6
Continuous
 62
     7
370
     9
100
AcDbLine
 10
-1528.248348751583
 20
-4782.735195675412
 30
0.0
 11
-1528.248348751583
 21
-4450.47887853674
 31
0.0
  0
LINE
  5
15D
330
1F
100
AcDbEntity
  8
A-0_通り芯
  6
Continuous
 62
     7
370
     9
100
AcDbLine
 10
-1528.248348751583
 20
-4450.47887853674
 30
0.0
 11
-5719.787391456398
 21
-4450.47887853674
 31
0.0
  0
LINE
  5
15E
330
1F
100
AcDbEntity
  8
A-0_通り芯
  6
Continuous
 62
     7
370
     9
100
AcDbLine
 10
-5265.1742471231
 20
-2612.054195919552
 30
0.0
 11
-5265.1742471231
 21
-2432.24864650417
 31
0.0
  0
LINE
  5
15F
330
1F
100
AcDbEntity
  8
A-0_通り芯
  6
Continuous
 62
     7
370
     9
100
AcDbLine
 10
-5390.173422323691
 20
-2612.054195919552
 30
0.0
 11
-5390.173422323691
 21
-2432.24864650417
 31
0.0
  0
LINE
  5
160
330
1F
100
AcDbEntity
  8
A-0_通り芯
  6
Continuous
 62
     7
370
     9
100
AcDbLine
 10
-5265.1742471231
 20
-2447.249067151869
 30
0.0
 11
-5141.245249155405
 21
-2430.932885247307
 31
0.0
  0
LINE
  5
161
330
1F
100
AcDbEntity
  8
A-0_通り芯
  6
Continuous
 62
     7
370
     9
100
AcDbLine
 10
-5265.1742471231
 20
-2447.249067151869
 30
0.0
 11
-5141.245249155405
 21
-2463.564630456872
 31
0.0
  0
LINE
  5
162
330
1F
100
AcDbEntity
  8
A-0_通り芯
  6
Continuous
 62
     7
370
     9
100
AcDbLine
 10
-5390.173422323691
 20
-2447.249067151869
 30
0.0
 11
-5514.105513289168
 21
-2430.932885247307
 31
0.0
  0
LINE
  5
163
330
1F
100
AcDbEntity
  8
A-0_通り芯
  6
Continuous
 62
     7
370
     9
100
AcDbLine
 10
-5390.173422323691
 20
-2447.249067151869
 30
0.0
 11
-5514.105513289168
 21
-2463.564630456872
 31
0.0
  0
LINE
  5
164
330
1F
100
AcDbEntity
  8
A-0_通り芯
  6
Continuous
 62
     7
370
     9
100
AcDbLine
 10
-5080.171533533045
 20
-2447.249067151869
 30
0.0
 11
-5552.117837441933
 21
-2447.249067151869
 31
0.0
  0
LINE
  5
165
330
1F
100
AcDbEntity
  8
A-2_蓋
  6
Continuous
 62
     3
370
     9
100
AcDbLine
 10
2555.037627349029
 20
4138.11406315984
 30
0.0
 11
2555.037627349029
 21
128.1203811233112
 31
0.0
  0
LINE
  5
166
330
1F
100
AcDbEntity
  8
A-2_蓋
  6
Continuous
 62
     3
370
     9
100
AcDbLine
 10
2775.037610853042
 20
4138.11406315984
 30
0.0
 11
2775.037610853042
 21
128.1203811233112
 31
0.0
  0
LINE
  5
167
330
1F
100
AcDbEntity
  8
A-2_蓋
  6
Continuous
 62
     3
370
     9
100
AcDbLine
 10
2785.037891284841
 20
4138.11406315984
 30
0.0
 11
2785.037891284841
 21
128.1203811233112
 31
0.0
  0
LINE
  5
168
330
1F
100
AcDbEntity
  8
A-2_蓋
  6
Continuous
 62
     3
370
     9
100
AcDbLine
 10
2545.037346917229
 20
4138.11406315984
 30
0.0
 11
2545.037346917229
 21
128.1203811233112
 31
0.0
  0
LINE
  5
169
330
1F
100
AcDbEntity
  8
A-2_蓋
  6
JWW_CENTER1
 62
     3
370
     9
100
AcDbLine
 10
2273.568643105998
 20
2133.117222141575
 30
0.0
 11
3006.823153109164
 21
2133.117222141575
 31
0.0
  0
LINE
  5
16A
330
1F
100
AcDbEntity
  8
A-2_蓋
  6
Continuous
 62
     3
370
     9
100
AcDbLine
 10
-6065.132347313133
 20
1663.112702240815
 30
0.0
 11
-6065.132347313133
 21
2603.114318847656
 31
0.0
  0
LINE
  5
16B
330
1F
100
AcDbEntity
  8
A-2_蓋
  6
Continuous
 62
     3
370
     9
100
AcDbLine
 10
-6065.132347313133
 20
2663.113527040224
 30
0.0
 11
-6065.132347313133
 21
3603.113287848396
 31
0.0
  0
LINE
  5
16C
330
1F
100
AcDbEntity
  8
A-2_蓋
  6
Continuous
 62
     3
370
     9
100
AcDbLine
 10
-6065.132347313133
 20
3663.11497043919
 30
0.0
 11
-6065.132347313133
 21
4138.109114363388
 31
0.0
  0
LINE
  5
16D
330
1F
100
AcDbEntity
  8
A-4_寸法
  6
Continuous
 62
     7
370
     9
100
AcDbLine
 10
-6115.134986671242
 20
-41.88686061549731
 30
0.0
 11
-6115.134986671242
 21
-558.9142258102825
 31
0.0
  0
LINE
  5
16E
330
1F
100
AcDbEntity
  8
A-2_蓋
  6
Continuous
 62
     3
370
     9
100
AcDbLine
 10
-6065.132347313133
 20
663.1131146405196
 30
0.0
 11
-6065.132347313133
 21
1603.113494048248
 31
0.0
  0
LINE
  5
16F
330
1F
100
AcDbEntity
  8
A-2_蓋
  6
Continuous
 62
     3
370
     9
100
AcDbLine
 10
2460.036819045609
 20
996.7071533203125
 30
0.0
 11
2475.03662109375
 21
1001.820497255068
 31
0.0
  0
LINE
  5
170
330
1F
100
AcDbEntity
  8
A-2_蓋
  6
Continuous
 62
     3
370
     9
100
AcDbLine
 10
2460.036819045609
 20
996.7071533203125
 30
0.0
 11
2460.036819045609
 21
931.2333390519427
 31
0.0
  0
LINE
  5
171
330
1F
100
AcDbEntity
  8
A-2_蓋
  6
Continuous
 62
     3
370
     9
100
AcDbLine
 10
2460.036819045609
 20
931.2333390519427
 30
0.0
 11
2475.03662109375
 21
926.1212323163008
 31
0.0
  0
LINE
  5
172
330
1F
100
AcDbEntity
  8
A-2_蓋
  6
Continuous
 62
     3
370
     9
100
AcDbLine
 10
2460.036819045609
 20
869.8756862331081
 30
0.0
 11
2460.036819045609
 21
825.8017050253386
 31
0.0
  0
LINE
  5
173
330
1F
100
AcDbEntity
  8
A-2_蓋
  6
Continuous
 62
     3
370
     9
100
AcDbLine
 10
2460.036819045609
 20
825.8017050253386
 30
0.0
 11
2475.03662109375
 21
820.6895982896967
 31
0.0
  0
LINE
  5
174
330
1F
100
AcDbEntity
  8
A-2_蓋
  6
Continuous
 62
     3
370
     9
100
AcDbLine
 10
2460.036819045609
 20
869.8756862331081
 30
0.0
 11
2475.03662109375
 21
874.9890301678633
 31
0.0
  0
LINE
  5
175
330
1F
100
AcDbEntity
  8
A-2_蓋
  6
Continuous
 62
     3
370
     9
100
AcDbLine
 10
2475.03662109375
 20
926.1212323163008
 30
0.0
 11
2475.03662109375
 21
874.9890301678633
 31
0.0
  0
LINE
  5
176
330
1F
100
AcDbEntity
  8
A-2_蓋
  6
Continuous
 62
     3
370
     9
100
AcDbLine
 10
2475.03662109375
 20
820.6895982896967
 30
0.0
 11
2475.03662109375
 21
769.5573961412592
 31
0.0
  0
LINE
  5
177
330
1F
100
AcDbEntity
  8
A-2_蓋
  6
Continuous
 62
     3
370
     9
100
AcDbLine
 10
2460.036819045609
 20
764.444052206504
 30
0.0
 11
2475.03662109375
 21
769.5573961412592
 31
0.0
  0
LINE
  5
178
330
1F
100
AcDbEntity
  8
A-2_蓋
  6
Continuous
 62
     3
370
     9
100
AcDbLine
 10
2460.036819045609
 20
764.444052206504
 30
0.0
 11
2460.036819045609
 21
698.9702379381342
 31
0.0
  0
LINE
  5
179
330
1F
100
AcDbEntity
  8
A-2_蓋
  6
Continuous
 62
     3
370
     9
100
AcDbLine
 10
2460.036819045609
 20
698.9702379381342
 30
0.0
 11
2475.03662109375
 21
693.8581312024922
 31
0.0
  0
LINE
  5
17A
330
1F
100
AcDbEntity
  8
A-2_蓋
  6
Continuous
 62
     3
370
     9
100
AcDbLine
 10
2460.036819045609
 20
637.6125851192995
 30
0.0
 11
2460.036819045609
 21
593.5386039115286
 31
0.0
  0
LINE
  5
17B
330
1F
100
AcDbEntity
  8
A-2_蓋
  6
Continuous
 62
     3
370
     9
100
AcDbLine
 10
2460.036819045609
 20
593.5386039115286
 30
0.0
 11
2475.03662109375
 21
588.4264971758867
 31
0.0
  0
LINE
  5
17C
330
1F
100
AcDbEntity
  8
A-2_蓋
  6
Continuous
 62
     3
370
     9
100
AcDbLine
 10
2460.036819045609
 20
637.6125851192995
 30
0.0
 11
2475.03662109375
 21
642.7259290540547
 31
0.0
  0
LINE
  5
17D
330
1F
100
AcDbEntity
  8
A-2_蓋
  6
Continuous
 62
     3
370
     9
100
AcDbLine
 10
2475.03662109375
 20
693.8581312024922
 30
0.0
 11
2475.03662109375
 21
642.7259290540547
 31
0.0
  0
LINE
  5
17E
330
1F
100
AcDbEntity
  8
A-2_蓋
  6
Continuous
 62
     3
370
     9
100
AcDbLine
 10
2475.03662109375
 20
588.4264971758867
 30
0.0
 11
2475.03662109375
 21
537.2942950274492
 31
0.0
  0
LINE
  5
17F
330
1F
100
AcDbEntity
  8
A-2_蓋
  6
Continuous
 62
     3
370
     9
100
AcDbLine
 10
2460.036819045609
 20
532.1809510926954
 30
0.0
 11
2475.03662109375
 21
537.2942950274492
 31
0.0
  0
LINE
  5
180
330
1F
100
AcDbEntity
  8
A-2_蓋
  6
Continuous
 62
     3
370
     9
100
AcDbLine
 10
2460.036819045609
 20
532.1809510926954
 30
0.0
 11
2460.036819045609
 21
466.7071368243242
 31
0.0
  0
LINE
  5
181
330
1F
100
AcDbEntity
  8
A-2_蓋
  6
Continuous
 62
     3
370
     9
100
AcDbLine
 10
2460.036819045609
 20
466.7071368243242
 30
0.0
 11
2475.03662109375
 21
461.5950300886823
 31
0.0
  0
LINE
  5
182
330
1F
100
AcDbEntity
  8
A-2_蓋
  6
Continuous
 62
     3
370
     9
100
AcDbLine
 10
2460.036819045609
 20
405.349484005491
 30
0.0
 11
2460.036819045609
 21
361.2755027977201
 31
0.0
  0
LINE
  5
183
330
1F
100
AcDbEntity
  8
A-2_蓋
  6
Continuous
 62
     3
370
     9
100
AcDbLine
 10
2460.036819045609
 20
361.2755027977201
 30
0.0
 11
2475.03662109375
 21
356.1633960620782
 31
0.0
  0
LINE
  5
184
330
1F
100
AcDbEntity
  8
A-2_蓋
  6
Continuous
 62
     3
370
     9
100
AcDbLine
 10
2460.036819045609
 20
405.349484005491
 30
0.0
 11
2475.03662109375
 21
410.4628279402448
 31
0.0
  0
LINE
  5
185
330
1F
100
AcDbEntity
  8
A-2_蓋
  6
Continuous
 62
     3
370
     9
100
AcDbLine
 10
2475.03662109375
 20
461.5950300886823
 30
0.0
 11
2475.03662109375
 21
410.4628279402448
 31
0.0
  0
LINE
  5
186
330
1F
100
AcDbEntity
  8
A-2_蓋
  6
Continuous
 62
     3
370
     9
100
AcDbLine
 10
2475.03662109375
 20
356.1633960620782
 30
0.0
 11
2475.03662109375
 21
305.0311939136407
 31
0.0
  0
LINE
  5
187
330
1F
100
AcDbEntity
  8
A-2_蓋
  6
Continuous
 62
     3
370
     9
100
AcDbLine
 10
2460.036819045609
 20
299.9178499788854
 30
0.0
 11
2475.03662109375
 21
305.0311939136407
 31
0.0
  0
LINE
  5
188
330
1F
100
AcDbEntity
  8
A-2_蓋
  6
Continuous
 62
     3
370
     9
100
AcDbLine
 10
2460.036819045609
 20
299.9178499788854
 30
0.0
 11
2460.036819045609
 21
234.4440357105157
 31
0.0
  0
LINE
  5
189
330
1F
100
AcDbEntity
  8
A-2_蓋
  6
Continuous
 62
     3
370
     9
100
AcDbLine
 10
2460.036819045609
 20
234.4440357105157
 30
0.0
 11
2475.03662109375
 21
229.3319289748737
 31
0.0
  0
LINE
  5
18A
330
1F
100
AcDbEntity
  8
A-2_蓋
  6
Continuous
 62
     3
370
     9
100
AcDbLine
 10
2460.036819045609
 20
173.086382891681
 30
0.0
 11
2460.036819045609
 21
133.2324878589532
 31
0.0
  0
LINE
  5
18B
330
1F
100
AcDbEntity
  8
A-2_蓋
  6
Continuous
 62
     3
370
     9
100
AcDbLine
 10
2460.036819045609
 20
133.2324878589532
 30
0.0
 11
2475.03662109375
 21
128.1203811233112
 31
0.0
  0
LINE
  5
18C
330
1F
100
AcDbEntity
  8
A-2_蓋
  6
Continuous
 62
     3
370
     9
100
AcDbLine
 10
2460.036819045609
 20
173.086382891681
 30
0.0
 11
2475.03662109375
 21
178.1997268264362
 31
0.0
  0
LINE
  5
18D
330
1F
100
AcDbEntity
  8
A-2_蓋
  6
Continuous
 62
     3
370
     9
100
AcDbLine
 10
2475.03662109375
 20
229.3319289748737
 30
0.0
 11
2475.03662109375
 21
178.1997268264362
 31
0.0
  0
LINE
  5
18E
330
1F
100
AcDbEntity
  8
A-2_蓋
  6
Continuous
 62
     3
370
     9
100
AcDbLine
 10
2475.03662109375
 20
4183.113469304266
 30
0.0
 11
2795.036934517526
 21
4183.113469304266
 31
0.0
  0
LINE
  5
18F
330
1F
100
AcDbEntity
  8
A-2_蓋
  6
Continuous
 62
     3
370
     9
100
AcDbLine
 10
2475.03662109375
 20
4138.11406315984
 30
0.0
 11
2855.037379909206
 21
4138.11406315984
 31
0.0
  0
LINE
  5
190
330
1F
100
AcDbEntity
  8
A-2_蓋
  6
Continuous
 62
     3
370
     9
100
AcDbLine
 10
2795.036934517526
 20
4183.113469304266
 30
0.0
 11
2795.036934517526
 21
4138.11406315984
 31
0.0
  0
LINE
  5
191
330
1F
100
AcDbEntity
  8
A-2_蓋
  6
Continuous
 62
     3
370
     9
100
AcDbLine
 10
2795.036934517526
 20
128.1203811233112
 30
0.0
 11
2795.036934517526
 21
83.12097497888544
 31
0.0
  0
LINE
  5
192
330
1F
100
AcDbEntity
  8
A-2_蓋
  6
Continuous
 62
     3
370
     9
100
AcDbLine
 10
2855.037379909206
 20
4138.11406315984
 30
0.0
 11
2855.037379909206
 21
128.1203811233112
 31
0.0
  0
LINE
  5
193
330
1F
100
AcDbEntity
  8
D-4_寸法
  6
Continuous
 62
     7
370
     9
100
AcDbLine
 10
-4896.490148595862
 20
-2405.134190739812
 30
0.0
 11
-3648.022625897382
 21
-2405.134190739812
 31
0.0
  0
LINE
  5
194
330
1F
100
AcDbEntity
  8
D-4_寸法
  6
Continuous
 62
     7
370
     9
100
AcDbLine
 10
-4896.490148595862
 20
-2405.134190739812
 30
0.0
 11
-5293.879122347445
 21
-2940.993272936022
 31
0.0
  0
LINE
  5
195
330
1F
100
AcDbEntity
  8
D-4_寸法
  6
Continuous
 62
     7
370
     9
100
AcDbLine
 10
-5293.879122347445
 20
-2940.993272936022
 30
0.0
 11
-5234.165088550464
 21
-2831.179479650549
 31
0.0
  0
LINE
  5
196
330
1F
100
AcDbEntity
  8
D-4_寸法
  6
Continuous
 62
     7
370
     9
100
AcDbLine
 10
-5293.879122347445
 20
-2940.993272936022
 30
0.0
 11
-5207.778105864653
 21
-2850.377098289696
 31
0.0
  0
LINE
  5
197
330
1F
100
AcDbEntity
  8
A-4_寸法
  6
Continuous
 62
     2
370
     9
100
AcDbLine
 10
1117.83909153294
 20
-3493.732390532623
 30
0.0
 11
1117.83909153294
 21
-3243.72847273543
 31
0.0
  0
LINE
  5
198
330
1F
100
AcDbEntity
  8
A-4_寸法
  6
Continuous
 62
     2
370
     9
100
AcDbLine
 10
1117.83909153294
 20
-3243.72847273543
 30
0.0
 11
2242.83909153294
 21
-3243.72847273543
 31
0.0
  0
LINE
  5
199
330
1F
100
AcDbEntity
  8
A-4_寸法
  6
Continuous
 62
     2
370
     9
100
AcDbLine
 10
2242.83909153294
 20
-3243.72847273543
 30
0.0
 11
2242.83909153294
 21
-3493.732390532623
 31
0.0
  0
LINE
  5
19A
330
1F
100
AcDbEntity
  8
A-4_寸法
  6
Continuous
 62
     2
370
     9
100
AcDbLine
 10
2242.83909153294
 20
-3493.732390532623
 30
0.0
 11
1117.83909153294
 21
-3493.732390532623
 31
0.0
  0
LINE
  5
19B
330
1F
100
AcDbEntity
  8
A-2_蓋
  6
Continuous
 62
     3
370
     9
100
AcDbLine
 10
-6115.134986671242
 20
83.11355178420712
 30
0.0
 11
-6115.134986671242
 21
4183.113469304266
 31
0.0
  0
LINE
  5
19C
330
1F
100
AcDbEntity
  8
A-2_蓋
  6
Continuous
 62
     3
370
     9
100
AcDbLine
 10
-6065.132347313133
 20
128.1117207295196
 30
0.0
 11
-6065.132347313133
 21
603.1132878483959
 31
0.0
  0
LINE
  5
19D
330
1F
100
AcDbEntity
  8
A-2_蓋
  6
Continuous
 62
     3
370
     9
100
AcDbLine
 10
2475.03662109375
 20
83.12097497888544
 30
0.0
 11
2795.036934517526
 21
83.12097497888544
 31
0.0
  0
LINE
  5
19E
330
1F
100
AcDbEntity
  8
A-2_蓋
  6
Continuous
 62
     3
370
     9
100
AcDbLine
 10
2475.03662109375
 20
128.1203811233112
 30
0.0
 11
2855.037379909206
 21
128.1203811233112
 31
0.0
  0
LINE
  5
19F
330
1F
100
AcDbEntity
  8
A-2_蓋
  6
Continuous
 62
     3
370
     9
100
AcDbLine
 10
2475.03662109375
 20
128.1203811233112
 30
0.0
 11
2475.03662109375
 21
83.12097497888544
 31
0.0
  0
ARC
  5
1A0
330
1F
100
AcDbEntity
  8
A-1_ピット
  6
Continuous
 62
     2
370
     9
100
AcDbCircle
 10
2919.037690033784
 20
3777.112971125423
 30
0.0
 40
64.00000082479941
100
AcDbArc
 50
180.0
 51
270.0
  0
ARC
  5
1A1
330
1F
100
AcDbEntity
  8
A-1_ピット
  6
Continuous
 62
     2
370
     9
100
AcDbCircle
 10
3341.03517274599
 20
3777.112971125423
 30
0.0
 40
64.00000082479941
100
AcDbArc
 50
270.0
 51
0.0
  0
ARC
  5
1A2
330
1F
100
AcDbEntity
  8
A-1_ピット
  6
Continuous
 62
     2
370
     9
100
AcDbCircle
 10
3341.03517274599
 20
3777.114208324537
 30
0.0
 40
32.00000041239971
100
AcDbArc
 50
270.0
 51
0.0
  0
ARC
  5
1A3
330
1F
100
AcDbEntity
  8
A-1_ピット
  6
Continuous
 62
     2
370
     9
100
AcDbCircle
 10
2919.037690033784
 20
4049.113670555322
 30
0.0
 40
64.00000082479941
100
AcDbArc
 50
90.0
 51
180.0
  0
ARC
  5
1A4
330
1F
100
AcDbEntity
  8
A-1_ピット
  6
Continuous
 62
     2
370
     9
100
AcDbCircle
 10
2919.036452834672
 20
4049.113670555322
 30
0.0
 40
32.00000041239971
100
AcDbArc
 50
90.0
 51
180.0
  0
ARC
  5
1A5
330
1F
100
AcDbEntity
  8
A-1_ピット
  6
Continuous
 62
     2
370
     9
100
AcDbCircle
 10
3341.03517274599
 20
4049.113670555322
 30
0.0
 40
32.00000041239971
100
AcDbArc
 50
0.0
 51
90.0
  0
ARC
  5
1A6
330
1F
100
AcDbEntity
  8
A-1_ピット
  6
Continuous
 62
     2
370
     9
100
AcDbCircle
 10
3341.03517274599
 20
4049.113670555322
 30
0.0
 40
64.00000082479941
100
AcDbArc
 50
0.0
 51
90.0
  0
ARC
  5
1A7
330
1F
100
AcDbEntity
  8
A-1_ピット
  6
Continuous
 62
     2
370
     9
100
AcDbCircle
 10
2919.037690033784
 20
3777.114208324537
 30
0.0
 40
32.00000041239971
100
AcDbArc
 50
180.0
 51
270.0
  0
ARC
  5
1A8
330
1F
100
AcDbEntity
  8
A-1_ピット
  6
Continuous
 62
     2
370
     9
100
AcDbCircle
 10
2919.037690033784
 20
489.1140499630495
 30
0.0
 40
64.00000082479941
100
AcDbArc
 50
90.0
 51
180.0
  0
ARC
  5
1A9
330
1F
100
AcDbEntity
  8
A-1_ピット
  6
Continuous
 62
     2
370
     9
100
AcDbCircle
 10
3341.03517274599
 20
489.1140499630495
 30
0.0
 40
64.00000082479941
100
AcDbArc
 50
0.0
 51
90.0
  0
ARC
  5
1AA
330
1F
100
AcDbEntity
  8
A-1_ピット
  6
Continuous
 62
     2
370
     9
100
AcDbCircle
 10
3341.03517274599
 20
489.1128127639362
 30
0.0
 40
32.00000041239971
100
AcDbArc
 50
0.0
 51
90.0
  0
ARC
  5
1AB
330
1F
100
AcDbEntity
  8
A-1_ピット
  6
Continuous
 62
     2
370
     9
100
AcDbCircle
 10
2919.037690033784
 20
217.1133505331511
 30
0.0
 40
64.00000082479941
100
AcDbArc
 50
180.0
 51
270.0
  0
ARC
  5
1AC
330
1F
100
AcDbEntity
  8
A-1_ピット
  6
Continuous
 62
     2
370
     9
100
AcDbCircle
 10
2919.036452834672
 20
217.1133505331511
 30
0.0
 40
32.00000041239971
100
AcDbArc
 50
180.0
 51
270.0
  0
ARC
  5
1AD
330
1F
100
AcDbEntity
  8
A-1_ピット
  6
Continuous
 62
     2
370
     9
100
AcDbCircle
 10
3341.03517274599
 20
217.1133505331511
 30
0.0
 40
32.00000041239971
100
AcDbArc
 50
270.0
 51
0.0
  0
ARC
  5
1AE
330
1F
100
AcDbEntity
  8
A-1_ピット
  6
Continuous
 62
     2
370
     9
100
AcDbCircle
 10
3341.03517274599
 20
217.1133505331511
 30
0.0
 40
64.00000082479941
100
AcDbArc
 50
270.0
 51
0.0
  0
ARC
  5
1AF
330
1F
100
AcDbEntity
  8
A-1_ピット
  6
Continuous
 62
     2
370
     9
100
AcDbCircle
 10
2919.037690033784
 20
489.1128127639362
 30
0.0
 40
32.00000041239971
100
AcDbArc
 50
90.0
 51
180.0
  0
CIRCLE
  5
1B0
330
1F
100
AcDbEntity
  8
A-2_蓋
  6
Continuous
 62
     3
370
     9
100
AcDbCircle
 10
2510.03698400549
 20
3633.115366342906
 30
0.0
 40
29.9999979702202
  0
CIRCLE
  5
1B1
330
1F
100
AcDbEntity
  8
A-2_蓋
  6
Continuous
 62
     3
370
     9
100
AcDbCircle
 10
2510.03698400549
 20
2633.11392294394
 30
0.0
 40
29.9999979702202
  0
CIRCLE
  5
1B2
330
1F
100
AcDbEntity
  8
A-2_蓋
  6
Continuous
 62
     3
370
     9
100
AcDbCircle
 10
2510.03698400549
 20
1633.114335343645
 30
0.0
 40
29.9999979702202
  0
CIRCLE
  5
1B3
330
1F
100
AcDbEntity
  8
A-2_蓋
  6
Continuous
 62
     3
370
     9
100
AcDbCircle
 10
2510.03698400549
 20
633.114129143793
 30
0.0
 40
29.9999979702202
  0
TEXT
  5
1B4
330
1F
100
AcDbEntity
  8
A-4_寸法
  6
Continuous
 62
     2
370
     9
100
AcDbText
 10
3826.835730310388
 20
-112.9727544011295
 30
0.0
 40
152.4
  1
7
 50
90.0
  7
ＭＳ ゴシック
100
AcDbText
  0
TEXT
  5
1B5
330
1F
100
AcDbEntity
  8
A-4_寸法
  6
Continuous
 62
     2
370
     9
100
AcDbText
 10
3826.835730310388
 20
246.864318847657
 30
0.0
 40
152.4
  1
40
 50
90.0
 41
1.0625
  7
ＭＳ ゴシック
100
AcDbText
  0
TEXT
  5
1B6
330
1F
100
AcDbEntity
  8
A-4_寸法
  6
Continuous
 62
     2
370
     9
100
AcDbText
 10
3826.835730310388
 20
3806.863939439929
 30
0.0
 40
152.4
  1
40
 50
90.0
 41
1.0625
  7
ＭＳ ゴシック
100
AcDbText
  0
TEXT
  5
1B7
330
1F
100
AcDbEntity
  8
A-4_寸法
  6
Continuous
 62
     2
370
     9
100
AcDbText
 10
3826.835730310388
 20
4283.890925226986
 30
0.0
 40
152.4
  1
7
 50
90.0
  7
ＭＳ ゴシック
100
AcDbText
  0
TEXT
  5
1B8
330
1F
100
AcDbEntity
  8
A-0_通り芯
  6
Continuous
 62
     2
370
     9
100
AcDbText
 10
-5781.532189611487
 20
-3959.538403072872
 30
0.0
 40
152.4
  1
5.4
 50
90.0
 41
1.083333333333333
  7
ＭＳ ゴシック
100
AcDbText
  0
TEXT
  5
1B9
330
1F
100
AcDbEntity
  8
A-0_通り芯
  6
Continuous
 62
     2
370
     9
100
AcDbText
 10
-5781.532189611487
 20
-3088.549299497862
 30
0.0
 40
152.4
  1
7.6
 50
90.0
 41
1.083333333333333
  7
ＭＳ ゴシック
100
AcDbText
  0
TEXT
  5
1BA
330
1F
100
AcDbEntity
  8
A-0_通り芯
  6
Continuous
 62
     2
370
     9
100
AcDbText
 10
-5031.828307650738
 20
-2956.771340432359
 30
0.0
 40
152.4
  1
5
 50
282.0793597174381
 41
1.000000000000002
  7
ＭＳ ゴシック
100
AcDbText
  0
TEXT
  5
1BB
330
1F
100
AcDbEntity
  8
A-0_通り芯
  6
Continuous
 62
     2
370
     9
100
AcDbText
 10
-2084.780863169077
 20
-2753.693487878747
 30
0.0
 40
152.4
  1
5
  7
ＭＳ ゴシック
100
AcDbText
  0
TEXT
  5
1BC
330
1F
100
AcDbEntity
  8
A-0_通り芯
  6
Continuous
 62
     2
370
     9
100
AcDbText
 10
-1968.158763163798
 20
-3539.923008109428
 30
0.0
 40
152.4
  1
3
  7
ＭＳ ゴシック
100
AcDbText
  0
TEXT
  5
1BD
330
1F
100
AcDbEntity
  8
A-0_通り芯
  6
Continuous
 62
     2
370
     9
100
AcDbText
 10
-5668.67205645587
 20
-4677.861327135241
 30
0.0
 40
152.4
  1
ＤＩ－３８　バー形状詳細　Ｓ＝１：２
 41
1.118055555555555
  7
ＭＳ ゴシック
100
AcDbText
  0
TEXT
  5
1BE
330
1F
100
AcDbEntity
  8
A-0_通り芯
  6
Continuous
 62
     2
370
     9
100
AcDbText
 10
-1413.249974596178
 20
-3649.414681099556
 30
0.0
 40
152.4
  1
38
 50
90.0
 41
1.0625
  7
ＭＳ ゴシック
100
AcDbText
  0
TEXT
  5
1BF
330
1F
100
AcDbEntity
  8
A-0_通り芯
  6
Continuous
 62
     2
370
     9
100
AcDbText
 10
-5377.67290682406
 20
-2394.047747472815
 30
0.0
 40
152.4
  1
5
  7
ＭＳ ゴシック
100
AcDbText
  0
TEXT
  5
1C0
330
1F
100
AcDbEntity
  8
A-0_通り芯
  6
Continuous
 62
     7
370
     9
100
AcDbText
 10
-5536.517869248866
 20
-5120.368917599245
 30
0.0
 40
114.3
  1
※デルタパターンの配列は一定ではありません。
 50
359.9999976834548
 41
1.159090909090909
  7
ＭＳ ゴシック
100
AcDbText
  0
TEXT
  5
1C1
330
1F
100
AcDbEntity
  8
A-4_寸法
  6
Continuous
 62
     2
370
     9
100
AcDbText
 10
2558.787619101035
 20
-358.6854007205442
 30
0.0
 40
152.4
  1
38
 41
1.0625
  7
ＭＳ ゴシック
100
AcDbText
  0
TEXT
  5
1C2
330
1F
100
AcDbEntity
  8
D-4_寸法
  6
Continuous
 62
     7
370
     9
100
AcDbText
 10
-4845.415971085832
 20
-2349.278281217008
 30
0.0
 40
114.3
  1
デルタパターン
 41
1.142857142857143
  7
ＭＳ ゴシック
100
AcDbText
  0
TEXT
  5
1C3
330
1F
100
AcDbEntity
  8
A-4_寸法
  6
Continuous
 62
     2
370
     9
100
AcDbText
 10
1355.340328732053
 20
-3440.531070853569
 30
0.0
 40
152.4
  1
仕　様
 41
1.083333333333333
  7
ＭＳ ゴシック
100
AcDbText
  0
TEXT
  5
1C4
330
1F
100
AcDbEntity
  8
A-4_寸法
  6
Continuous
 62
     2
370
     9
100
AcDbText
 10
1926.848499194997
 20
-4580.128783189929
 30
0.0
 40
152.4
  1
処理：溶融亜鉛めっき
 41
1.1125
  7
ＭＳ ゴシック
100
AcDbText
  0
TEXT
  5
1C5
330
1F
100
AcDbEntity
  8
A-4_寸法
  6
Continuous
 62
     2
370
     9
100
AcDbText
 10
1628.286619444152
 20
-3755.134103146115
 30
0.0
 40
152.4
  1
ノンスリップタイプ
 41
1.111111111111111
  7
ＭＳ ゴシック
100
AcDbText
  0
TEXT
  5
1C6
330
1F
100
AcDbEntity
  8
A-4_寸法
  6
Continuous
 62
     2
370
     9
100
AcDbText
 10
1926.848870354731
 20
-4305.123545713683
 30
0.0
 40
152.4
  1
材質：ＳＳ４００＋ＳＴＫＲ４００
 41
1.1171875
  7
ＭＳ ゴシック
100
AcDbText
  0
TEXT
  5
1C7
330
1F
100
AcDbEntity
  8
A-4_寸法
  6
Continuous
 62
     2
370
     9
100
AcDbText
 10
3023.786431389887
 20
-358.6854007205442
 30
0.0
 40
152.4
  1
55
 41
1.0625
  7
ＭＳ ゴシック
100
AcDbText
  0
TEXT
  5
1C8
330
1F
100
AcDbEntity
  8
A-4_寸法
  6
Continuous
 62
     2
370
     9
100
AcDbText
 10
2833.786051982159
 20
-758.6854832004856
 30
0.0
 40
152.4
  1
93
 41
1.0625
  7
ＭＳ ゴシック
100
AcDbText
  0
TEXT
  5
1C9
330
1F
100
AcDbEntity
  8
A-4_寸法
  6
Continuous
 62
     2
370
     9
100
AcDbText
 10
1916.836604597763
 20
1970.613510544236
 30
0.0
 40
152.4
  1
410
 50
90.0
 41
1.083333333333333
  7
ＭＳ ゴシック
100
AcDbText
  0
TEXT
  5
1CA
330
1F
100
AcDbEntity
  8
A-4_寸法
  6
Continuous
 62
     2
370
     9
100
AcDbText
 10
3846.836291173987
 20
1970.613510544236
 30
0.0
 40
152.4
  1
316
 50
90.0
 41
1.083333333333333
  7
ＭＳ ゴシック
100
AcDbText
  0
TEXT
  5
1CB
330
1F
100
AcDbEntity
  8
A-4_寸法
  6
Continuous
 62
     2
370
     9
100
AcDbText
 10
1628.286124564507
 20
-4030.138722022804
 30
0.0
 40
152.4
  1
圧接式細目グレーチング　ＱＸＪ　４１３８Ａ
 41
1.119047619047619
  7
ＭＳ ゴシック
100
AcDbText
  0
LWPOLYLINE
  5
1CC
330
1F
100
AcDbEntity
  8
A-4_寸法
  6
Continuous
 62
     7
370
     9
100
AcDbPolyline
 90
        4
 70
     1
 43
5.0
 10
2477.53662109375
 20
-416.8856234163854
 42
0.4142135623731
 10
2475.03662109375
 20
-414.3856234163854
 42
0.4142135623731
 10
2472.53662109375
 20
-416.8856234163854
 42
0.4142135623731
 10
2475.03662109375
 20
-419.3856234163855
 42
0.4142135623731
  0
LWPOLYLINE
  5
1CD
330
1F
100
AcDbEntity
  8
A-4_寸法
  6
Continuous
 62
     7
370
     9
100
AcDbPolyline
 90
        4
 70
     1
 43
5.0
 10
2857.537379909205
 20
-416.8856234163854
 42
0.4142135623731
 10
2855.037379909206
 20
-414.3856234163854
 42
0.4142135623731
 10
2852.537379909206
 20
-416.8856234163854
 42
0.4142135623731
 10
2855.037379909206
 20
-419.3856234163855
 42
0.4142135623731
  0
LWPOLYLINE
  5
1CE
330
1F
100
AcDbEntity
  8
A-4_寸法
  6
Continuous
 62
     7
370
     9
100
AcDbPolyline
 90
        4
 70
     1
 43
5.0
 10
3407.535482870568
 20
-416.8856234163854
 42
0.4142135623731
 10
3405.035482870568
 20
-414.3856234163854
 42
0.4142135623731
 10
3402.535482870568
 20
-416.8856234163854
 42
0.4142135623731
 10
3405.035482870568
 20
-419.3856234163855
 42
0.4142135623731
  0
LWPOLYLINE
  5
1CF
330
1F
100
AcDbEntity
  8
A-4_寸法
  6
Continuous
 62
     7
370
     9
100
AcDbPolyline
 90
        4
 70
     1
 43
5.0
 10
2477.53662109375
 20
-816.8857058963255
 42
0.4142135623731
 10
2475.03662109375
 20
-814.3857058963255
 42
0.4142135623731
 10
2472.53662109375
 20
-816.8857058963255
 42
0.4142135623731
 10
2475.03662109375
 20
-819.3857058963255
 42
0.4142135623731
  0
LWPOLYLINE
  5
1D0
330
1F
100
AcDbEntity
  8
A-4_寸法
  6
Continuous
 62
     7
370
     9
100
AcDbPolyline
 90
        4
 70
     1
 43
5.0
 10
3407.535482870568
 20
-816.8857058963255
 42
0.4142135623731
 10
3405.035482870568
 20
-814.3857058963255
 42
0.4142135623731
 10
3402.535482870568
 20
-816.8857058963255
 42
0.4142135623731
 10
3405.035482870568
 20
-819.3857058963255
 42
0.4142135623731
  0
LWPOLYLINE
  5
1D1
330
1F
100
AcDbEntity
  8
A-4_寸法
  6
Continuous
 62
     7
370
     9
100
AcDbPolyline
 90
        4
 70
     1
 43
5.0
 10
1977.536208694047
 20
83.11355178420712
 42
0.4142135623731
 10
1975.036208694047
 20
85.61355178420712
 42
0.4142135623731
 10
1972.536208694047
 20
83.11355178420712
 42
0.4142135623731
 10
1975.036208694047
 20
80.61355178420712
 42
0.4142135623731
  0
LWPOLYLINE
  5
1D2
330
1F
100
AcDbEntity
  8
A-4_寸法
  6
Continuous
 62
     7
370
     9
100
AcDbPolyline
 90
        4
 70
     1
 43
5.0
 10
1977.536208694047
 20
4183.113469304266
 42
0.4142135623731
 10
1975.036208694047
 20
4185.613469304266
 42
0.4142135623731
 10
1972.536208694047
 20
4183.113469304266
 42
0.4142135623731
 10
1975.036208694047
 20
4180.613469304266
 42
0.4142135623731
  0
LWPOLYLINE
  5
1D3
330
1F
100
AcDbEntity
  8
A-4_寸法
  6
Continuous
 62
     7
370
     9
100
AcDbPolyline
 90
        4
 70
     1
 43
5.0
 10
3907.535895270271
 20
83.11355178420712
 42
0.4142135623731
 10
3905.035895270271
 20
85.61355178420712
 42
0.4142135623731
 10
3902.535895270271
 20
83.11355178420712
 42
0.4142135623731
 10
3905.035895270271
 20
80.61355178420712
 42
0.4142135623731
  0
LWPOLYLINE
  5
1D4
330
1F
100
AcDbEntity
  8
A-4_寸法
  6
Continuous
 62
     7
370
     9
100
AcDbPolyline
 90
        4
 70
     1
 43
5.0
 10
3907.535895270271
 20
153.1130404085729
 42
0.4142135623731
 10
3905.035895270271
 20
155.6130404085729
 42
0.4142135623731
 10
3902.535895270271
 20
153.1130404085729
 42
0.4142135623731
 10
3905.035895270271
 20
150.6130404085729
 42
0.4142135623731
  0
LWPOLYLINE
  5
1D5
330
1F
100
AcDbEntity
  8
A-4_寸法
  6
Continuous
 62
     7
370
     9
100
AcDbPolyline
 90
        4
 70
     1
 43
5.0
 10
3907.535895270271
 20
553.1143600876277
 42
0.4142135623731
 10
3905.035895270271
 20
555.6143600876277
 42
0.4142135623731
 10
3902.535895270271
 20
553.1143600876277
 42
0.4142135623731
 10
3905.035895270271
 20
550.6143600876277
 42
0.4142135623731
  0
LWPOLYLINE
  5
1D6
330
1F
100
AcDbEntity
  8
A-4_寸法
  6
Continuous
 62
     7
370
     9
100
AcDbPolyline
 90
        4
 70
     1
 43
5.0
 10
3907.535895270271
 20
3713.112661000845
 42
0.4142135623731
 10
3905.035895270271
 20
3715.612661000845
 42
0.4142135623731
 10
3902.535895270271
 20
3713.112661000845
 42
0.4142135623731
 10
3905.035895270271
 20
3710.612661000845
 42
0.4142135623731
  0
LWPOLYLINE
  5
1D7
330
1F
100
AcDbEntity
  8
A-4_寸法
  6
Continuous
 62
     7
370
     9
100
AcDbPolyline
 90
        4
 70
     1
 43
5.0
 10
3907.535895270271
 20
4113.1139806799
 42
0.4142135623731
 10
3905.035895270271
 20
4115.6139806799
 42
0.4142135623731
 10
3902.535895270271
 20
4113.1139806799
 42
0.4142135623731
 10
3905.035895270271
 20
4110.6139806799
 42
0.4142135623731
  0
LWPOLYLINE
  5
1D8
330
1F
100
AcDbEntity
  8
A-4_寸法
  6
Continuous
 62
     7
370
     9
100
AcDbPolyline
 90
        4
 70
     1
 43
5.0
 10
3907.535895270271
 20
4183.113469304266
 42
0.4142135623731
 10
3905.035895270271
 20
4185.613469304266
 42
0.4142135623731
 10
3902.535895270271
 20
4183.113469304266
 42
0.4142135623731
 10
3905.035895270271
 20
4180.613469304266
 42
0.4142135623731
  0
LWPOLYLINE
  5
1D9
330
1F
100
AcDbEntity
  8
A-4_寸法
  6
Continuous
 62
     7
370
     9
100
AcDbPolyline
 90
        4
 70
     1
 43
5.0
 10
-6112.634986671242
 20
-543.9144237621406
 42
0.4142135623731
 10
-6115.134986671242
 20
-541.4144237621406
 42
0.4142135623731
 10
-6117.634986671242
 20
-543.9144237621406
 42
0.4142135623731
 10
-6115.134986671242
 20
-546.4144237621406
 42
0.4142135623731
  0
LINE
  5
1DA
330
1F
100
AcDbEntity
  8
A-1_ピット
  6
JWW_DASHED1
 62
     2
370
     9
100
AcDbLine
 10
-6065.132347313133
 20
3713.113898199958
 30
0.0
 11
-6065.132347313133
 21
4113.1139806799
 31
0.0
  0
LINE
  5
1DB
330
1F
100
AcDbEntity
  8
A-1_ピット
  6
JWW_DASHED1
 62
     2
370
     9
100
AcDbLine
 10
-6065.132347313133
 20
553.1125042889571
 30
0.0
 11
-6065.132347313133
 21
153.112421809017
 31
0.0
  0
LINE
  5
1DC
330
1F
100
AcDbEntity
  8
A-2_蓋
  6
Continuous
 62
     3
370
     9
100
AcDbLine
 10
-1115.134986671241
 20
83.11355178420712
 30
0.0
 11
-6115.134986671242
 21
83.11355178420712
 31
0.0
  0
LINE
  5
1DD
330
1F
100
AcDbEntity
  8
A-2_蓋
  6
Continuous
 62
     3
370
     9
100
AcDbLine
 10
-6115.134986671242
 20
4183.113469304266
 30
0.0
 11
-1115.134986671241
 21
4183.113469304266
 31
0.0
  0
LINE
  5
1DE
330
1F
100
AcDbEntity
  8
A-2_蓋
  6
Continuous
 62
     3
370
     9
100
AcDbLine
 10
-6115.134986671242
 20
4138.109114363388
 30
0.0
 11
-1115.134986671241
 21
4138.109114363388
 31
0.0
  0
LINE
  5
1DF
330
1F
100
AcDbEntity
  8
A-2_蓋
  6
Continuous
 62
     3
370
     9
100
AcDbLine
 10
-1115.134986671241
 20
128.1117207295196
 30
0.0
 11
-6115.134986671242
 21
128.1117207295196
 31
0.0
  0
LINE
  5
1E0
330
1F
100
AcDbEntity
  8
A-2_蓋
  6
Continuous
 62
     3
370
     9
100
AcDbLine
 10
-1115.134986671241
 20
2603.114318847656
 30
0.0
 11
-6115.134986671242
 21
2603.114318847656
 31
0.0
  0
LINE
  5
1E1
330
1F
100
AcDbEntity
  8
A-2_蓋
  6
Continuous
 62
     3
370
     9
100
AcDbLine
 10
-1115.134986671241
 20
2663.113527040224
 30
0.0
 11
-6115.134986671242
 21
2663.113527040224
 31
0.0
  0
LINE
  5
1E2
330
1F
100
AcDbEntity
  8
A-2_蓋
  6
Continuous
 62
     3
370
     9
100
AcDbLine
 10
-1115.134986671241
 20
1663.112702240815
 30
0.0
 11
-6115.134986671242
 21
1663.112702240815
 31
0.0
  0
LINE
  5
1E3
330
1F
100
AcDbEntity
  8
A-2_蓋
  6
Continuous
 62
     3
370
     9
100
AcDbLine
 10
-1115.134986671241
 20
1603.113494048248
 30
0.0
 11
-6115.134986671242
 21
1603.113494048248
 31
0.0
  0
LINE
  5
1E4
330
1F
100
AcDbEntity
  8
A-2_蓋
  6
Continuous
 62
     3
370
     9
100
AcDbLine
 10
-1115.134986671241
 20
3663.11497043919
 30
0.0
 11
-6115.134986671242
 21
3663.11497043919
 31
0.0
  0
LINE
  5
1E5
330
1F
100
AcDbEntity
  8
A-2_蓋
  6
Continuous
 62
     3
370
     9
100
AcDbLine
 10
-1115.134986671241
 20
3603.113287848396
 30
0.0
 11
-6115.134986671242
 21
3603.113287848396
 31
0.0
  0
LINE
  5
1E6
330
1F
100
AcDbEntity
  8
A-4_寸法
  6
Continuous
 62
     7
370
     9
100
AcDbLine
 10
-1115.134986671241
 20
-41.88686061549731
 30
0.0
 11
-1115.134986671241
 21
-558.9142258102825
 31
0.0
  0
LINE
  5
1E7
330
1F
100
AcDbEntity
  8
A-2_蓋
  6
Continuous
 62
     3
370
     9
100
AcDbLine
 10
-1115.134986671241
 20
663.1131146405196
 30
0.0
 11
-6115.134986671242
 21
663.1131146405196
 31
0.0
  0
LINE
  5
1E8
330
1F
100
AcDbEntity
  8
A-2_蓋
  6
Continuous
 62
     3
370
     9
100
AcDbLine
 10
-1115.134986671241
 20
603.1132878483959
 30
0.0
 11
-6115.134986671242
 21
603.1132878483959
 31
0.0
  0
LINE
  5
1E9
330
1F
100
AcDbEntity
  8
A-2_蓋
  6
Continuous
 62
     3
370
     9
100
AcDbLine
 10
-1115.134986671241
 20
83.11355178420712
 30
0.0
 11
-1115.134986671241
 21
4183.113469304266
 31
0.0
  0
LWPOLYLINE
  5
1EA
330
1F
100
AcDbEntity
  8
A-4_寸法
  6
Continuous
 62
     7
370
     9
100
AcDbPolyline
 90
        4
 70
     1
 43
5.0
 10
-1112.634986671241
 20
-543.9144237621406
 42
0.4142135623731
 10
-1115.134986671241
 20
-541.4144237621406
 42
0.4142135623731
 10
-1117.634986671242
 20
-543.9144237621406
 42
0.4142135623731
 10
-1115.134986671241
 20
-546.4144237621406
 42
0.4142135623731
  0
LINE
  5
1EB
330
1F
100
AcDbEntity
  8
A-4_寸法
  6
Continuous
 62
     7
370
     9
100
AcDbLine
 10
-6115.134986671242
 20
-543.9144237621406
 30
0.0
 11
-1115.134986671241
 21
-543.9144237621406
 31
0.0
  0
TEXT
  5
1EC
330
1F
100
AcDbEntity
  8
A-4_寸法
  6
Continuous
 62
     2
370
   211
100
AcDbText
 10
-3777.634986671242
 20
-485.7142010663009
 30
0.0
 40
152.4
  1
500
 41
1.083333333333333
  7
ＭＳ ゴシック
100
AcDbText
  0
LINE
  5
1ED
330
1F
100
AcDbEntity
  8
A-2_蓋
  6
Continuous
 62
     3
370
     9
100
AcDbLine
 10
-1165.134986671241
 20
1663.112702240815
 30
0.0
 11
-1165.134986671241
 21
2603.114318847656
 31
0.0
  0
LINE
  5
1EE
330
1F
100
AcDbEntity
  8
A-2_蓋
  6
Continuous
 62
     3
370
     9
100
AcDbLine
 10
-1165.134986671241
 20
2663.113527040224
 30
0.0
 11
-1165.134986671241
 21
3603.113287848396
 31
0.0
  0
LINE
  5
1EF
330
1F
100
AcDbEntity
  8
A-2_蓋
  6
Continuous
 62
     3
370
     9
100
AcDbLine
 10
-1165.134986671241
 20
3663.11497043919
 30
0.0
 11
-1165.134986671241
 21
4138.109114363388
 31
0.0
  0
LINE
  5
1F0
330
1F
100
AcDbEntity
  8
A-2_蓋
  6
Continuous
 62
     3
370
     9
100
AcDbLine
 10
-1165.134986671241
 20
663.1131146405196
 30
0.0
 11
-1165.134986671241
 21
1603.113494048248
 31
0.0
  0
LINE
  5
1F1
330
1F
100
AcDbEntity
  8
A-2_蓋
  6
Continuous
 62
     3
370
     9
100
AcDbLine
 10
-1165.134986671241
 20
128.1117207295196
 30
0.0
 11
-1165.134986671241
 21
603.1132878483959
 31
0.0
  0
LINE
  5
1F2
330
1F
100
AcDbEntity
  8
A-2_蓋
  6
Continuous
 62
     3
370
     9
100
AcDbLine
 10
-5965.134986671242
 20
1663.112702240815
 30
0.0
 11
-5965.134986671242
 21
2603.114318847656
 31
0.0
  0
LINE
  5
1F3
330
1F
100
AcDbEntity
  8
A-2_蓋
  6
Continuous
 62
     3
370
     9
100
AcDbLine
 10
-5915.1385333087
 20
1663.112702240815
 30
0.0
 11
-5915.1385333087
 21
2603.114318847656
 31
0.0
  0
LINE
  5
1F4
330
1F
100
AcDbEntity
  8
A-2_蓋
  6
Continuous
 62
     3
370
     9
100
AcDbLine
 10
-5965.134986671242
 20
2663.113527040224
 30
0.0
 11
-5965.134986671242
 21
3603.113287848396
 31
0.0
  0
LINE
  5
1F5
330
1F
100
AcDbEntity
  8
A-2_蓋
  6
Continuous
 62
     3
370
     9
100
AcDbLine
 10
-5965.134986671242
 20
3663.11497043919
 30
0.0
 11
-5965.134986671242
 21
4138.109114363388
 31
0.0
  0
LINE
  5
1F6
330
1F
100
AcDbEntity
  8
A-2_蓋
  6
Continuous
 62
     3
370
     9
100
AcDbLine
 10
-5915.1385333087
 20
2663.113527040224
 30
0.0
 11
-5915.1385333087
 21
3603.113287848396
 31
0.0
  0
LINE
  5
1F7
330
1F
100
AcDbEntity
  8
A-2_蓋
  6
Continuous
 62
     3
370
     9
100
AcDbLine
 10
-5915.1385333087
 20
3663.11497043919
 30
0.0
 11
-5915.1385333087
 21
4138.109114363388
 31
0.0
  0
LINE
  5
1F8
330
1F
100
AcDbEntity
  8
A-2_蓋
  6
Continuous
 62
     3
370
     9
100
AcDbLine
 10
-5965.134986671242
 20
663.1131146405196
 30
0.0
 11
-5965.134986671242
 21
1603.113494048248
 31
0.0
  0
LINE
  5
1F9
330
1F
100
AcDbEntity
  8
A-2_蓋
  6
Continuous
 62
     3
370
     9
100
AcDbLine
 10
-5915.1385333087
 20
663.1131146405196
 30
0.0
 11
-5915.1385333087
 21
1603.113494048248
 31
0.0
  0
LINE
  5
1FA
330
1F
100
AcDbEntity
  8
A-2_蓋
  6
Continuous
 62
     3
370
     9
100
AcDbLine
 10
-5965.134986671242
 20
128.1117207295196
 30
0.0
 11
-5965.134986671242
 21
603.1132878483959
 31
0.0
  0
LINE
  5
1FB
330
1F
100
AcDbEntity
  8
A-2_蓋
  6
Continuous
 62
     3
370
     9
100
AcDbLine
 10
-5915.1385333087
 20
128.1117207295196
 30
0.0
 11
-5915.1385333087
 21
603.1132878483959
 31
0.0
  0
LINE
  5
1FC
330
1F
100
AcDbEntity
  8
A-2_蓋
  6
Continuous
 62
     3
370
     9
100
AcDbLine
 10
-5815.134986671242
 20
1663.112702240815
 30
0.0
 11
-5815.134986671242
 21
2603.114318847656
 31
0.0
  0
LINE
  5
1FD
330
1F
100
AcDbEntity
  8
A-2_蓋
  6
Continuous
 62
     3
370
     9
100
AcDbLine
 10
-5765.1385333087
 20
1663.112702240815
 30
0.0
 11
-5765.1385333087
 21
2603.114318847656
 31
0.0
  0
LINE
  5
1FE
330
1F
100
AcDbEntity
  8
A-2_蓋
  6
Continuous
 62
     3
370
     9
100
AcDbLine
 10
-5815.134986671242
 20
2663.113527040224
 30
0.0
 11
-5815.134986671242
 21
3603.113287848396
 31
0.0
  0
LINE
  5
1FF
330
1F
100
AcDbEntity
  8
A-2_蓋
  6
Continuous
 62
     3
370
     9
100
AcDbLine
 10
-5815.134986671242
 20
3663.11497043919
 30
0.0
 11
-5815.134986671242
 21
4138.109114363388
 31
0.0
  0
LINE
  5
200
330
1F
100
AcDbEntity
  8
A-2_蓋
  6
Continuous
 62
     3
370
     9
100
AcDbLine
 10
-5765.1385333087
 20
2663.113527040224
 30
0.0
 11
-5765.1385333087
 21
3603.113287848396
 31
0.0
  0
LINE
  5
201
330
1F
100
AcDbEntity
  8
A-2_蓋
  6
Continuous
 62
     3
370
     9
100
AcDbLine
 10
-5765.1385333087
 20
3663.11497043919
 30
0.0
 11
-5765.1385333087
 21
4138.109114363388
 31
0.0
  0
LINE
  5
202
330
1F
100
AcDbEntity
  8
A-2_蓋
  6
Continuous
 62
     3
370
     9
100
AcDbLine
 10
-5815.134986671242
 20
663.1131146405196
 30
0.0
 11
-5815.134986671242
 21
1603.113494048248
 31
0.0
  0
LINE
  5
203
330
1F
100
AcDbEntity
  8
A-2_蓋
  6
Continuous
 62
     3
370
     9
100
AcDbLine
 10
-5765.1385333087
 20
663.1131146405196
 30
0.0
 11
-5765.1385333087
 21
1603.113494048248
 31
0.0
  0
LINE
  5
204
330
1F
100
AcDbEntity
  8
A-2_蓋
  6
Continuous
 62
     3
370
     9
100
AcDbLine
 10
-5815.134986671242
 20
128.1117207295196
 30
0.0
 11
-5815.134986671242
 21
603.1132878483959
 31
0.0
  0
LINE
  5
205
330
1F
100
AcDbEntity
  8
A-2_蓋
  6
Continuous
 62
     3
370
     9
100
AcDbLine
 10
-5765.1385333087
 20
128.1117207295196
 30
0.0
 11
-5765.1385333087
 21
603.1132878483959
 31
0.0
  0
LINE
  5
206
330
1F
100
AcDbEntity
  8
A-2_蓋
  6
Continuous
 62
     3
370
     9
100
AcDbLine
 10
-5665.134986671242
 20
1663.112702240815
 30
0.0
 11
-5665.134986671242
 21
2603.114318847656
 31
0.0
  0
LINE
  5
207
330
1F
100
AcDbEntity
  8
A-2_蓋
  6
Continuous
 62
     3
370
     9
100
AcDbLine
 10
-5615.1385333087
 20
1663.112702240815
 30
0.0
 11
-5615.1385333087
 21
2603.114318847656
 31
0.0
  0
LINE
  5
208
330
1F
100
AcDbEntity
  8
A-2_蓋
  6
Continuous
 62
     3
370
     9
100
AcDbLine
 10
-5665.134986671242
 20
2663.113527040224
 30
0.0
 11
-5665.134986671242
 21
3603.113287848396
 31
0.0
  0
LINE
  5
209
330
1F
100
AcDbEntity
  8
A-2_蓋
  6
Continuous
 62
     3
370
     9
100
AcDbLine
 10
-5665.134986671242
 20
3663.11497043919
 30
0.0
 11
-5665.134986671242
 21
4138.109114363388
 31
0.0
  0
LINE
  5
20A
330
1F
100
AcDbEntity
  8
A-2_蓋
  6
Continuous
 62
     3
370
     9
100
AcDbLine
 10
-5615.1385333087
 20
2663.113527040224
 30
0.0
 11
-5615.1385333087
 21
3603.113287848396
 31
0.0
  0
LINE
  5
20B
330
1F
100
AcDbEntity
  8
A-2_蓋
  6
Continuous
 62
     3
370
     9
100
AcDbLine
 10
-5615.1385333087
 20
3663.11497043919
 30
0.0
 11
-5615.1385333087
 21
4138.109114363388
 31
0.0
  0
LINE
  5
20C
330
1F
100
AcDbEntity
  8
A-2_蓋
  6
Continuous
 62
     3
370
     9
100
AcDbLine
 10
-5665.134986671242
 20
663.1131146405196
 30
0.0
 11
-5665.134986671242
 21
1603.113494048248
 31
0.0
  0
LINE
  5
20D
330
1F
100
AcDbEntity
  8
A-2_蓋
  6
Continuous
 62
     3
370
     9
100
AcDbLine
 10
-5615.1385333087
 20
663.1131146405196
 30
0.0
 11
-5615.1385333087
 21
1603.113494048248
 31
0.0
  0
LINE
  5
20E
330
1F
100
AcDbEntity
  8
A-2_蓋
  6
Continuous
 62
     3
370
     9
100
AcDbLine
 10
-5665.134986671242
 20
128.1117207295196
 30
0.0
 11
-5665.134986671242
 21
603.1132878483959
 31
0.0
  0
LINE
  5
20F
330
1F
100
AcDbEntity
  8
A-2_蓋
  6
Continuous
 62
     3
370
     9
100
AcDbLine
 10
-5615.1385333087
 20
128.1117207295196
 30
0.0
 11
-5615.1385333087
 21
603.1132878483959
 31
0.0
  0
LINE
  5
210
330
1F
100
AcDbEntity
  8
A-2_蓋
  6
Continuous
 62
     3
370
     9
100
AcDbLine
 10
-5515.134986671242
 20
1663.112702240815
 30
0.0
 11
-5515.134986671242
 21
2603.114318847656
 31
0.0
  0
LINE
  5
211
330
1F
100
AcDbEntity
  8
A-2_蓋
  6
Continuous
 62
     3
370
     9
100
AcDbLine
 10
-5465.1385333087
 20
1663.112702240815
 30
0.0
 11
-5465.1385333087
 21
2603.114318847656
 31
0.0
  0
LINE
  5
212
330
1F
100
AcDbEntity
  8
A-2_蓋
  6
Continuous
 62
     3
370
     9
100
AcDbLine
 10
-5515.134986671242
 20
2663.113527040224
 30
0.0
 11
-5515.134986671242
 21
3603.113287848396
 31
0.0
  0
LINE
  5
213
330
1F
100
AcDbEntity
  8
A-2_蓋
  6
Continuous
 62
     3
370
     9
100
AcDbLine
 10
-5515.134986671242
 20
3663.11497043919
 30
0.0
 11
-5515.134986671242
 21
4138.109114363388
 31
0.0
  0
LINE
  5
214
330
1F
100
AcDbEntity
  8
A-2_蓋
  6
Continuous
 62
     3
370
     9
100
AcDbLine
 10
-5465.1385333087
 20
2663.113527040224
 30
0.0
 11
-5465.1385333087
 21
3603.113287848396
 31
0.0
  0
LINE
  5
215
330
1F
100
AcDbEntity
  8
A-2_蓋
  6
Continuous
 62
     3
370
     9
100
AcDbLine
 10
-5465.1385333087
 20
3663.11497043919
 30
0.0
 11
-5465.1385333087
 21
4138.109114363388
 31
0.0
  0
LINE
  5
216
330
1F
100
AcDbEntity
  8
A-2_蓋
  6
Continuous
 62
     3
370
     9
100
AcDbLine
 10
-5515.134986671242
 20
663.1131146405196
 30
0.0
 11
-5515.134986671242
 21
1603.113494048248
 31
0.0
  0
LINE
  5
217
330
1F
100
AcDbEntity
  8
A-2_蓋
  6
Continuous
 62
     3
370
     9
100
AcDbLine
 10
-5465.1385333087
 20
663.1131146405196
 30
0.0
 11
-5465.1385333087
 21
1603.113494048248
 31
0.0
  0
LINE
  5
218
330
1F
100
AcDbEntity
  8
A-2_蓋
  6
Continuous
 62
     3
370
     9
100
AcDbLine
 10
-5515.134986671242
 20
128.1117207295196
 30
0.0
 11
-5515.134986671242
 21
603.1132878483959
 31
0.0
  0
LINE
  5
219
330
1F
100
AcDbEntity
  8
A-2_蓋
  6
Continuous
 62
     3
370
     9
100
AcDbLine
 10
-5465.1385333087
 20
128.1117207295196
 30
0.0
 11
-5465.1385333087
 21
603.1132878483959
 31
0.0
  0
LINE
  5
21A
330
1F
100
AcDbEntity
  8
A-2_蓋
  6
Continuous
 62
     3
370
     9
100
AcDbLine
 10
-5365.134986671242
 20
1663.112702240815
 30
0.0
 11
-5365.134986671242
 21
2603.114318847656
 31
0.0
  0
LINE
  5
21B
330
1F
100
AcDbEntity
  8
A-2_蓋
  6
Continuous
 62
     3
370
     9
100
AcDbLine
 10
-5315.1385333087
 20
1663.112702240815
 30
0.0
 11
-5315.1385333087
 21
2603.114318847656
 31
0.0
  0
LINE
  5
21C
330
1F
100
AcDbEntity
  8
A-2_蓋
  6
Continuous
 62
     3
370
     9
100
AcDbLine
 10
-5365.134986671242
 20
2663.113527040224
 30
0.0
 11
-5365.134986671242
 21
3603.113287848396
 31
0.0
  0
LINE
  5
21D
330
1F
100
AcDbEntity
  8
A-2_蓋
  6
Continuous
 62
     3
370
     9
100
AcDbLine
 10
-5365.134986671242
 20
3663.11497043919
 30
0.0
 11
-5365.134986671242
 21
4138.109114363388
 31
0.0
  0
LINE
  5
21E
330
1F
100
AcDbEntity
  8
A-2_蓋
  6
Continuous
 62
     3
370
     9
100
AcDbLine
 10
-5315.1385333087
 20
2663.113527040224
 30
0.0
 11
-5315.1385333087
 21
3603.113287848396
 31
0.0
  0
LINE
  5
21F
330
1F
100
AcDbEntity
  8
A-2_蓋
  6
Continuous
 62
     3
370
     9
100
AcDbLine
 10
-5315.1385333087
 20
3663.11497043919
 30
0.0
 11
-5315.1385333087
 21
4138.109114363388
 31
0.0
  0
LINE
  5
220
330
1F
100
AcDbEntity
  8
A-2_蓋
  6
Continuous
 62
     3
370
     9
100
AcDbLine
 10
-5365.134986671242
 20
663.1131146405196
 30
0.0
 11
-5365.134986671242
 21
1603.113494048248
 31
0.0
  0
LINE
  5
221
330
1F
100
AcDbEntity
  8
A-2_蓋
  6
Continuous
 62
     3
370
     9
100
AcDbLine
 10
-5315.1385333087
 20
663.1131146405196
 30
0.0
 11
-5315.1385333087
 21
1603.113494048248
 31
0.0
  0
LINE
  5
222
330
1F
100
AcDbEntity
  8
A-2_蓋
  6
Continuous
 62
     3
370
     9
100
AcDbLine
 10
-5365.134986671242
 20
128.1117207295196
 30
0.0
 11
-5365.134986671242
 21
603.1132878483959
 31
0.0
  0
LINE
  5
223
330
1F
100
AcDbEntity
  8
A-2_蓋
  6
Continuous
 62
     3
370
     9
100
AcDbLine
 10
-5315.1385333087
 20
128.1117207295196
 30
0.0
 11
-5315.1385333087
 21
603.1132878483959
 31
0.0
  0
LINE
  5
224
330
1F
100
AcDbEntity
  8
A-2_蓋
  6
Continuous
 62
     3
370
     9
100
AcDbLine
 10
-5215.134986671242
 20
1663.112702240815
 30
0.0
 11
-5215.134986671242
 21
2603.114318847656
 31
0.0
  0
LINE
  5
225
330
1F
100
AcDbEntity
  8
A-2_蓋
  6
Continuous
 62
     3
370
     9
100
AcDbLine
 10
-5165.1385333087
 20
1663.112702240815
 30
0.0
 11
-5165.1385333087
 21
2603.114318847656
 31
0.0
  0
LINE
  5
226
330
1F
100
AcDbEntity
  8
A-2_蓋
  6
Continuous
 62
     3
370
     9
100
AcDbLine
 10
-5215.134986671242
 20
2663.113527040224
 30
0.0
 11
-5215.134986671242
 21
3603.113287848396
 31
0.0
  0
LINE
  5
227
330
1F
100
AcDbEntity
  8
A-2_蓋
  6
Continuous
 62
     3
370
     9
100
AcDbLine
 10
-5215.134986671242
 20
3663.11497043919
 30
0.0
 11
-5215.134986671242
 21
4138.109114363388
 31
0.0
  0
LINE
  5
228
330
1F
100
AcDbEntity
  8
A-2_蓋
  6
Continuous
 62
     3
370
     9
100
AcDbLine
 10
-5165.1385333087
 20
2663.113527040224
 30
0.0
 11
-5165.1385333087
 21
3603.113287848396
 31
0.0
  0
LINE
  5
229
330
1F
100
AcDbEntity
  8
A-2_蓋
  6
Continuous
 62
     3
370
     9
100
AcDbLine
 10
-5165.1385333087
 20
3663.11497043919
 30
0.0
 11
-5165.1385333087
 21
4138.109114363388
 31
0.0
  0
LINE
  5
22A
330
1F
100
AcDbEntity
  8
A-2_蓋
  6
Continuous
 62
     3
370
     9
100
AcDbLine
 10
-5215.134986671242
 20
663.1131146405196
 30
0.0
 11
-5215.134986671242
 21
1603.113494048248
 31
0.0
  0
LINE
  5
22B
330
1F
100
AcDbEntity
  8
A-2_蓋
  6
Continuous
 62
     3
370
     9
100
AcDbLine
 10
-5165.1385333087
 20
663.1131146405196
 30
0.0
 11
-5165.1385333087
 21
1603.113494048248
 31
0.0
  0
LINE
  5
22C
330
1F
100
AcDbEntity
  8
A-2_蓋
  6
Continuous
 62
     3
370
     9
100
AcDbLine
 10
-5215.134986671242
 20
128.1117207295196
 30
0.0
 11
-5215.134986671242
 21
603.1132878483959
 31
0.0
  0
LINE
  5
22D
330
1F
100
AcDbEntity
  8
A-2_蓋
  6
Continuous
 62
     3
370
     9
100
AcDbLine
 10
-5165.1385333087
 20
128.1117207295196
 30
0.0
 11
-5165.1385333087
 21
603.1132878483959
 31
0.0
  0
LINE
  5
22E
330
1F
100
AcDbEntity
  8
A-2_蓋
  6
Continuous
 62
     3
370
     9
100
AcDbLine
 10
-5065.134986671242
 20
1663.112702240815
 30
0.0
 11
-5065.134986671242
 21
2603.114318847656
 31
0.0
  0
LINE
  5
22F
330
1F
100
AcDbEntity
  8
A-2_蓋
  6
Continuous
 62
     3
370
     9
100
AcDbLine
 10
-5015.1385333087
 20
1663.112702240815
 30
0.0
 11
-5015.1385333087
 21
2603.114318847656
 31
0.0
  0
LINE
  5
230
330
1F
100
AcDbEntity
  8
A-2_蓋
  6
Continuous
 62
     3
370
     9
100
AcDbLine
 10
-5065.134986671242
 20
2663.113527040224
 30
0.0
 11
-5065.134986671242
 21
3603.113287848396
 31
0.0
  0
LINE
  5
231
330
1F
100
AcDbEntity
  8
A-2_蓋
  6
Continuous
 62
     3
370
     9
100
AcDbLine
 10
-5065.134986671242
 20
3663.11497043919
 30
0.0
 11
-5065.134986671242
 21
4138.109114363388
 31
0.0
  0
LINE
  5
232
330
1F
100
AcDbEntity
  8
A-2_蓋
  6
Continuous
 62
     3
370
     9
100
AcDbLine
 10
-5015.1385333087
 20
2663.113527040224
 30
0.0
 11
-5015.1385333087
 21
3603.113287848396
 31
0.0
  0
LINE
  5
233
330
1F
100
AcDbEntity
  8
A-2_蓋
  6
Continuous
 62
     3
370
     9
100
AcDbLine
 10
-5015.1385333087
 20
3663.11497043919
 30
0.0
 11
-5015.1385333087
 21
4138.109114363388
 31
0.0
  0
LINE
  5
234
330
1F
100
AcDbEntity
  8
A-2_蓋
  6
Continuous
 62
     3
370
     9
100
AcDbLine
 10
-5065.134986671242
 20
663.1131146405196
 30
0.0
 11
-5065.134986671242
 21
1603.113494048248
 31
0.0
  0
LINE
  5
235
330
1F
100
AcDbEntity
  8
A-2_蓋
  6
Continuous
 62
     3
370
     9
100
AcDbLine
 10
-5015.1385333087
 20
663.1131146405196
 30
0.0
 11
-5015.1385333087
 21
1603.113494048248
 31
0.0
  0
LINE
  5
236
330
1F
100
AcDbEntity
  8
A-2_蓋
  6
Continuous
 62
     3
370
     9
100
AcDbLine
 10
-5065.134986671242
 20
128.1117207295196
 30
0.0
 11
-5065.134986671242
 21
603.1132878483959
 31
0.0
  0
LINE
  5
237
330
1F
100
AcDbEntity
  8
A-2_蓋
  6
Continuous
 62
     3
370
     9
100
AcDbLine
 10
-5015.1385333087
 20
128.1117207295196
 30
0.0
 11
-5015.1385333087
 21
603.1132878483959
 31
0.0
  0
LINE
  5
238
330
1F
100
AcDbEntity
  8
A-2_蓋
  6
Continuous
 62
     3
370
     9
100
AcDbLine
 10
-4915.134986671242
 20
1663.112702240815
 30
0.0
 11
-4915.134986671242
 21
2603.114318847656
 31
0.0
  0
LINE
  5
239
330
1F
100
AcDbEntity
  8
A-2_蓋
  6
Continuous
 62
     3
370
     9
100
AcDbLine
 10
-4865.1385333087
 20
1663.112702240815
 30
0.0
 11
-4865.1385333087
 21
2603.114318847656
 31
0.0
  0
LINE
  5
23A
330
1F
100
AcDbEntity
  8
A-2_蓋
  6
Continuous
 62
     3
370
     9
100
AcDbLine
 10
-4915.134986671242
 20
2663.113527040224
 30
0.0
 11
-4915.134986671242
 21
3603.113287848396
 31
0.0
  0
LINE
  5
23B
330
1F
100
AcDbEntity
  8
A-2_蓋
  6
Continuous
 62
     3
370
     9
100
AcDbLine
 10
-4915.134986671242
 20
3663.11497043919
 30
0.0
 11
-4915.134986671242
 21
4138.109114363388
 31
0.0
  0
LINE
  5
23C
330
1F
100
AcDbEntity
  8
A-2_蓋
  6
Continuous
 62
     3
370
     9
100
AcDbLine
 10
-4865.1385333087
 20
2663.113527040224
 30
0.0
 11
-4865.1385333087
 21
3603.113287848396
 31
0.0
  0
LINE
  5
23D
330
1F
100
AcDbEntity
  8
A-2_蓋
  6
Continuous
 62
     3
370
     9
100
AcDbLine
 10
-4865.1385333087
 20
3663.11497043919
 30
0.0
 11
-4865.1385333087
 21
4138.109114363388
 31
0.0
  0
LINE
  5
23E
330
1F
100
AcDbEntity
  8
A-2_蓋
  6
Continuous
 62
     3
370
     9
100
AcDbLine
 10
-4915.134986671242
 20
663.1131146405196
 30
0.0
 11
-4915.134986671242
 21
1603.113494048248
 31
0.0
  0
LINE
  5
23F
330
1F
100
AcDbEntity
  8
A-2_蓋
  6
Continuous
 62
     3
370
     9
100
AcDbLine
 10
-4865.1385333087
 20
663.1131146405196
 30
0.0
 11
-4865.1385333087
 21
1603.113494048248
 31
0.0
  0
LINE
  5
240
330
1F
100
AcDbEntity
  8
A-2_蓋
  6
Continuous
 62
     3
370
     9
100
AcDbLine
 10
-4915.134986671242
 20
128.1117207295196
 30
0.0
 11
-4915.134986671242
 21
603.1132878483959
 31
0.0
  0
LINE
  5
241
330
1F
100
AcDbEntity
  8
A-2_蓋
  6
Continuous
 62
     3
370
     9
100
AcDbLine
 10
-4865.1385333087
 20
128.1117207295196
 30
0.0
 11
-4865.1385333087
 21
603.1132878483959
 31
0.0
  0
LINE
  5
242
330
1F
100
AcDbEntity
  8
A-2_蓋
  6
Continuous
 62
     3
370
     9
100
AcDbLine
 10
-4765.134986671242
 20
1663.112702240815
 30
0.0
 11
-4765.134986671242
 21
2603.114318847656
 31
0.0
  0
LINE
  5
243
330
1F
100
AcDbEntity
  8
A-2_蓋
  6
Continuous
 62
     3
370
     9
100
AcDbLine
 10
-4715.1385333087
 20
1663.112702240815
 30
0.0
 11
-4715.1385333087
 21
2603.114318847656
 31
0.0
  0
LINE
  5
244
330
1F
100
AcDbEntity
  8
A-2_蓋
  6
Continuous
 62
     3
370
     9
100
AcDbLine
 10
-4765.134986671242
 20
2663.113527040224
 30
0.0
 11
-4765.134986671242
 21
3603.113287848396
 31
0.0
  0
LINE
  5
245
330
1F
100
AcDbEntity
  8
A-2_蓋
  6
Continuous
 62
     3
370
     9
100
AcDbLine
 10
-4765.134986671242
 20
3663.11497043919
 30
0.0
 11
-4765.134986671242
 21
4138.109114363388
 31
0.0
  0
LINE
  5
246
330
1F
100
AcDbEntity
  8
A-2_蓋
  6
Continuous
 62
     3
370
     9
100
AcDbLine
 10
-4715.1385333087
 20
2663.113527040224
 30
0.0
 11
-4715.1385333087
 21
3603.113287848396
 31
0.0
  0
LINE
  5
247
330
1F
100
AcDbEntity
  8
A-2_蓋
  6
Continuous
 62
     3
370
     9
100
AcDbLine
 10
-4715.1385333087
 20
3663.11497043919
 30
0.0
 11
-4715.1385333087
 21
4138.109114363388
 31
0.0
  0
LINE
  5
248
330
1F
100
AcDbEntity
  8
A-2_蓋
  6
Continuous
 62
     3
370
     9
100
AcDbLine
 10
-4765.134986671242
 20
663.1131146405196
 30
0.0
 11
-4765.134986671242
 21
1603.113494048248
 31
0.0
  0
LINE
  5
249
330
1F
100
AcDbEntity
  8
A-2_蓋
  6
Continuous
 62
     3
370
     9
100
AcDbLine
 10
-4715.1385333087
 20
663.1131146405196
 30
0.0
 11
-4715.1385333087
 21
1603.113494048248
 31
0.0
  0
LINE
  5
24A
330
1F
100
AcDbEntity
  8
A-2_蓋
  6
Continuous
 62
     3
370
     9
100
AcDbLine
 10
-4765.134986671242
 20
128.1117207295196
 30
0.0
 11
-4765.134986671242
 21
603.1132878483959
 31
0.0
  0
LINE
  5
24B
330
1F
100
AcDbEntity
  8
A-2_蓋
  6
Continuous
 62
     3
370
     9
100
AcDbLine
 10
-4715.1385333087
 20
128.1117207295196
 30
0.0
 11
-4715.1385333087
 21
603.1132878483959
 31
0.0
  0
LINE
  5
24C
330
1F
100
AcDbEntity
  8
A-2_蓋
  6
Continuous
 62
     3
370
     9
100
AcDbLine
 10
-4615.134986671242
 20
1663.112702240815
 30
0.0
 11
-4615.134986671242
 21
2603.114318847656
 31
0.0
  0
LINE
  5
24D
330
1F
100
AcDbEntity
  8
A-2_蓋
  6
Continuous
 62
     3
370
     9
100
AcDbLine
 10
-4565.1385333087
 20
1663.112702240815
 30
0.0
 11
-4565.1385333087
 21
2603.114318847656
 31
0.0
  0
LINE
  5
24E
330
1F
100
AcDbEntity
  8
A-2_蓋
  6
Continuous
 62
     3
370
     9
100
AcDbLine
 10
-4615.134986671242
 20
2663.113527040224
 30
0.0
 11
-4615.134986671242
 21
3603.113287848396
 31
0.0
  0
LINE
  5
24F
330
1F
100
AcDbEntity
  8
A-2_蓋
  6
Continuous
 62
     3
370
     9
100
AcDbLine
 10
-4615.134986671242
 20
3663.11497043919
 30
0.0
 11
-4615.134986671242
 21
4138.109114363388
 31
0.0
  0
LINE
  5
250
330
1F
100
AcDbEntity
  8
A-2_蓋
  6
Continuous
 62
     3
370
     9
100
AcDbLine
 10
-4565.1385333087
 20
2663.113527040224
 30
0.0
 11
-4565.1385333087
 21
3603.113287848396
 31
0.0
  0
LINE
  5
251
330
1F
100
AcDbEntity
  8
A-2_蓋
  6
Continuous
 62
     3
370
     9
100
AcDbLine
 10
-4565.1385333087
 20
3663.11497043919
 30
0.0
 11
-4565.1385333087
 21
4138.109114363388
 31
0.0
  0
LINE
  5
252
330
1F
100
AcDbEntity
  8
A-2_蓋
  6
Continuous
 62
     3
370
     9
100
AcDbLine
 10
-4615.134986671242
 20
663.1131146405196
 30
0.0
 11
-4615.134986671242
 21
1603.113494048248
 31
0.0
  0
LINE
  5
253
330
1F
100
AcDbEntity
  8
A-2_蓋
  6
Continuous
 62
     3
370
     9
100
AcDbLine
 10
-4565.1385333087
 20
663.1131146405196
 30
0.0
 11
-4565.1385333087
 21
1603.113494048248
 31
0.0
  0
LINE
  5
254
330
1F
100
AcDbEntity
  8
A-2_蓋
  6
Continuous
 62
     3
370
     9
100
AcDbLine
 10
-4615.134986671242
 20
128.1117207295196
 30
0.0
 11
-4615.134986671242
 21
603.1132878483959
 31
0.0
  0
LINE
  5
255
330
1F
100
AcDbEntity
  8
A-2_蓋
  6
Continuous
 62
     3
370
     9
100
AcDbLine
 10
-4565.1385333087
 20
128.1117207295196
 30
0.0
 11
-4565.1385333087
 21
603.1132878483959
 31
0.0
  0
LINE
  5
256
330
1F
100
AcDbEntity
  8
A-2_蓋
  6
Continuous
 62
     3
370
     9
100
AcDbLine
 10
-4465.134986671242
 20
1663.112702240815
 30
0.0
 11
-4465.134986671242
 21
2603.114318847656
 31
0.0
  0
LINE
  5
257
330
1F
100
AcDbEntity
  8
A-2_蓋
  6
Continuous
 62
     3
370
     9
100
AcDbLine
 10
-4415.1385333087
 20
1663.112702240815
 30
0.0
 11
-4415.1385333087
 21
2603.114318847656
 31
0.0
  0
LINE
  5
258
330
1F
100
AcDbEntity
  8
A-2_蓋
  6
Continuous
 62
     3
370
     9
100
AcDbLine
 10
-4465.134986671242
 20
2663.113527040224
 30
0.0
 11
-4465.134986671242
 21
3603.113287848396
 31
0.0
  0
LINE
  5
259
330
1F
100
AcDbEntity
  8
A-2_蓋
  6
Continuous
 62
     3
370
     9
100
AcDbLine
 10
-4465.134986671242
 20
3663.11497043919
 30
0.0
 11
-4465.134986671242
 21
4138.109114363388
 31
0.0
  0
LINE
  5
25A
330
1F
100
AcDbEntity
  8
A-2_蓋
  6
Continuous
 62
     3
370
     9
100
AcDbLine
 10
-4415.1385333087
 20
2663.113527040224
 30
0.0
 11
-4415.1385333087
 21
3603.113287848396
 31
0.0
  0
LINE
  5
25B
330
1F
100
AcDbEntity
  8
A-2_蓋
  6
Continuous
 62
     3
370
     9
100
AcDbLine
 10
-4415.1385333087
 20
3663.11497043919
 30
0.0
 11
-4415.1385333087
 21
4138.109114363388
 31
0.0
  0
LINE
  5
25C
330
1F
100
AcDbEntity
  8
A-2_蓋
  6
Continuous
 62
     3
370
     9
100
AcDbLine
 10
-4465.134986671242
 20
663.1131146405196
 30
0.0
 11
-4465.134986671242
 21
1603.113494048248
 31
0.0
  0
LINE
  5
25D
330
1F
100
AcDbEntity
  8
A-2_蓋
  6
Continuous
 62
     3
370
     9
100
AcDbLine
 10
-4415.1385333087
 20
663.1131146405196
 30
0.0
 11
-4415.1385333087
 21
1603.113494048248
 31
0.0
  0
LINE
  5
25E
330
1F
100
AcDbEntity
  8
A-2_蓋
  6
Continuous
 62
     3
370
     9
100
AcDbLine
 10
-4465.134986671242
 20
128.1117207295196
 30
0.0
 11
-4465.134986671242
 21
603.1132878483959
 31
0.0
  0
LINE
  5
25F
330
1F
100
AcDbEntity
  8
A-2_蓋
  6
Continuous
 62
     3
370
     9
100
AcDbLine
 10
-4415.1385333087
 20
128.1117207295196
 30
0.0
 11
-4415.1385333087
 21
603.1132878483959
 31
0.0
  0
LINE
  5
260
330
1F
100
AcDbEntity
  8
A-2_蓋
  6
Continuous
 62
     3
370
     9
100
AcDbLine
 10
-4315.134986671242
 20
1663.112702240815
 30
0.0
 11
-4315.134986671242
 21
2603.114318847656
 31
0.0
  0
LINE
  5
261
330
1F
100
AcDbEntity
  8
A-2_蓋
  6
Continuous
 62
     3
370
     9
100
AcDbLine
 10
-4265.1385333087
 20
1663.112702240815
 30
0.0
 11
-4265.1385333087
 21
2603.114318847656
 31
0.0
  0
LINE
  5
262
330
1F
100
AcDbEntity
  8
A-2_蓋
  6
Continuous
 62
     3
370
     9
100
AcDbLine
 10
-4315.134986671242
 20
2663.113527040224
 30
0.0
 11
-4315.134986671242
 21
3603.113287848396
 31
0.0
  0
LINE
  5
263
330
1F
100
AcDbEntity
  8
A-2_蓋
  6
Continuous
 62
     3
370
     9
100
AcDbLine
 10
-4315.134986671242
 20
3663.11497043919
 30
0.0
 11
-4315.134986671242
 21
4138.109114363388
 31
0.0
  0
LINE
  5
264
330
1F
100
AcDbEntity
  8
A-2_蓋
  6
Continuous
 62
     3
370
     9
100
AcDbLine
 10
-4265.1385333087
 20
2663.113527040224
 30
0.0
 11
-4265.1385333087
 21
3603.113287848396
 31
0.0
  0
LINE
  5
265
330
1F
100
AcDbEntity
  8
A-2_蓋
  6
Continuous
 62
     3
370
     9
100
AcDbLine
 10
-4265.1385333087
 20
3663.11497043919
 30
0.0
 11
-4265.1385333087
 21
4138.109114363388
 31
0.0
  0
LINE
  5
266
330
1F
100
AcDbEntity
  8
A-2_蓋
  6
Continuous
 62
     3
370
     9
100
AcDbLine
 10
-4315.134986671242
 20
663.1131146405196
 30
0.0
 11
-4315.134986671242
 21
1603.113494048248
 31
0.0
  0
LINE
  5
267
330
1F
100
AcDbEntity
  8
A-2_蓋
  6
Continuous
 62
     3
370
     9
100
AcDbLine
 10
-4265.1385333087
 20
663.1131146405196
 30
0.0
 11
-4265.1385333087
 21
1603.113494048248
 31
0.0
  0
LINE
  5
268
330
1F
100
AcDbEntity
  8
A-2_蓋
  6
Continuous
 62
     3
370
     9
100
AcDbLine
 10
-4315.134986671242
 20
128.1117207295196
 30
0.0
 11
-4315.134986671242
 21
603.1132878483959
 31
0.0
  0
LINE
  5
269
330
1F
100
AcDbEntity
  8
A-2_蓋
  6
Continuous
 62
     3
370
     9
100
AcDbLine
 10
-4265.1385333087
 20
128.1117207295196
 30
0.0
 11
-4265.1385333087
 21
603.1132878483959
 31
0.0
  0
LINE
  5
26A
330
1F
100
AcDbEntity
  8
A-2_蓋
  6
Continuous
 62
     3
370
     9
100
AcDbLine
 10
-4165.134986671242
 20
1663.112702240815
 30
0.0
 11
-4165.134986671242
 21
2603.114318847656
 31
0.0
  0
LINE
  5
26B
330
1F
100
AcDbEntity
  8
A-2_蓋
  6
Continuous
 62
     3
370
     9
100
AcDbLine
 10
-4115.1385333087
 20
1663.112702240815
 30
0.0
 11
-4115.1385333087
 21
2603.114318847656
 31
0.0
  0
LINE
  5
26C
330
1F
100
AcDbEntity
  8
A-2_蓋
  6
Continuous
 62
     3
370
     9
100
AcDbLine
 10
-4165.134986671242
 20
2663.113527040224
 30
0.0
 11
-4165.134986671242
 21
3603.113287848396
 31
0.0
  0
LINE
  5
26D
330
1F
100
AcDbEntity
  8
A-2_蓋
  6
Continuous
 62
     3
370
     9
100
AcDbLine
 10
-4165.134986671242
 20
3663.11497043919
 30
0.0
 11
-4165.134986671242
 21
4138.109114363388
 31
0.0
  0
LINE
  5
26E
330
1F
100
AcDbEntity
  8
A-2_蓋
  6
Continuous
 62
     3
370
     9
100
AcDbLine
 10
-4115.1385333087
 20
2663.113527040224
 30
0.0
 11
-4115.1385333087
 21
3603.113287848396
 31
0.0
  0
LINE
  5
26F
330
1F
100
AcDbEntity
  8
A-2_蓋
  6
Continuous
 62
     3
370
     9
100
AcDbLine
 10
-4115.1385333087
 20
3663.11497043919
 30
0.0
 11
-4115.1385333087
 21
4138.109114363388
 31
0.0
  0
LINE
  5
270
330
1F
100
AcDbEntity
  8
A-2_蓋
  6
Continuous
 62
     3
370
     9
100
AcDbLine
 10
-4165.134986671242
 20
663.1131146405196
 30
0.0
 11
-4165.134986671242
 21
1603.113494048248
 31
0.0
  0
LINE
  5
271
330
1F
100
AcDbEntity
  8
A-2_蓋
  6
Continuous
 62
     3
370
     9
100
AcDbLine
 10
-4115.1385333087
 20
663.1131146405196
 30
0.0
 11
-4115.1385333087
 21
1603.113494048248
 31
0.0
  0
LINE
  5
272
330
1F
100
AcDbEntity
  8
A-2_蓋
  6
Continuous
 62
     3
370
     9
100
AcDbLine
 10
-4165.134986671242
 20
128.1117207295196
 30
0.0
 11
-4165.134986671242
 21
603.1132878483959
 31
0.0
  0
LINE
  5
273
330
1F
100
AcDbEntity
  8
A-2_蓋
  6
Continuous
 62
     3
370
     9
100
AcDbLine
 10
-4115.1385333087
 20
128.1117207295196
 30
0.0
 11
-4115.1385333087
 21
603.1132878483959
 31
0.0
  0
LINE
  5
274
330
1F
100
AcDbEntity
  8
A-2_蓋
  6
Continuous
 62
     3
370
     9
100
AcDbLine
 10
-4015.134986671242
 20
1663.112702240815
 30
0.0
 11
-4015.134986671242
 21
2603.114318847656
 31
0.0
  0
LINE
  5
275
330
1F
100
AcDbEntity
  8
A-2_蓋
  6
Continuous
 62
     3
370
     9
100
AcDbLine
 10
-3965.1385333087
 20
1663.112702240815
 30
0.0
 11
-3965.1385333087
 21
2603.114318847656
 31
0.0
  0
LINE
  5
276
330
1F
100
AcDbEntity
  8
A-2_蓋
  6
Continuous
 62
     3
370
     9
100
AcDbLine
 10
-4015.134986671242
 20
2663.113527040224
 30
0.0
 11
-4015.134986671242
 21
3603.113287848396
 31
0.0
  0
LINE
  5
277
330
1F
100
AcDbEntity
  8
A-2_蓋
  6
Continuous
 62
     3
370
     9
100
AcDbLine
 10
-4015.134986671242
 20
3663.11497043919
 30
0.0
 11
-4015.134986671242
 21
4138.109114363388
 31
0.0
  0
LINE
  5
278
330
1F
100
AcDbEntity
  8
A-2_蓋
  6
Continuous
 62
     3
370
     9
100
AcDbLine
 10
-3965.1385333087
 20
2663.113527040224
 30
0.0
 11
-3965.1385333087
 21
3603.113287848396
 31
0.0
  0
LINE
  5
279
330
1F
100
AcDbEntity
  8
A-2_蓋
  6
Continuous
 62
     3
370
     9
100
AcDbLine
 10
-3965.1385333087
 20
3663.11497043919
 30
0.0
 11
-3965.1385333087
 21
4138.109114363388
 31
0.0
  0
LINE
  5
27A
330
1F
100
AcDbEntity
  8
A-2_蓋
  6
Continuous
 62
     3
370
     9
100
AcDbLine
 10
-4015.134986671242
 20
663.1131146405196
 30
0.0
 11
-4015.134986671242
 21
1603.113494048248
 31
0.0
  0
LINE
  5
27B
330
1F
100
AcDbEntity
  8
A-2_蓋
  6
Continuous
 62
     3
370
     9
100
AcDbLine
 10
-3965.1385333087
 20
663.1131146405196
 30
0.0
 11
-3965.1385333087
 21
1603.113494048248
 31
0.0
  0
LINE
  5
27C
330
1F
100
AcDbEntity
  8
A-2_蓋
  6
Continuous
 62
     3
370
     9
100
AcDbLine
 10
-4015.134986671242
 20
128.1117207295196
 30
0.0
 11
-4015.134986671242
 21
603.1132878483959
 31
0.0
  0
LINE
  5
27D
330
1F
100
AcDbEntity
  8
A-2_蓋
  6
Continuous
 62
     3
370
     9
100
AcDbLine
 10
-3965.1385333087
 20
128.1117207295196
 30
0.0
 11
-3965.1385333087
 21
603.1132878483959
 31
0.0
  0
LINE
  5
27E
330
1F
100
AcDbEntity
  8
A-2_蓋
  6
Continuous
 62
     3
370
     9
100
AcDbLine
 10
-3865.134986671242
 20
1663.112702240815
 30
0.0
 11
-3865.134986671242
 21
2603.114318847656
 31
0.0
  0
LINE
  5
27F
330
1F
100
AcDbEntity
  8
A-2_蓋
  6
Continuous
 62
     3
370
     9
100
AcDbLine
 10
-3815.1385333087
 20
1663.112702240815
 30
0.0
 11
-3815.1385333087
 21
2603.114318847656
 31
0.0
  0
LINE
  5
280
330
1F
100
AcDbEntity
  8
A-2_蓋
  6
Continuous
 62
     3
370
     9
100
AcDbLine
 10
-3865.134986671242
 20
2663.113527040224
 30
0.0
 11
-3865.134986671242
 21
3603.113287848396
 31
0.0
  0
LINE
  5
281
330
1F
100
AcDbEntity
  8
A-2_蓋
  6
Continuous
 62
     3
370
     9
100
AcDbLine
 10
-3865.134986671242
 20
3663.11497043919
 30
0.0
 11
-3865.134986671242
 21
4138.109114363388
 31
0.0
  0
LINE
  5
282
330
1F
100
AcDbEntity
  8
A-2_蓋
  6
Continuous
 62
     3
370
     9
100
AcDbLine
 10
-3815.1385333087
 20
2663.113527040224
 30
0.0
 11
-3815.1385333087
 21
3603.113287848396
 31
0.0
  0
LINE
  5
283
330
1F
100
AcDbEntity
  8
A-2_蓋
  6
Continuous
 62
     3
370
     9
100
AcDbLine
 10
-3815.1385333087
 20
3663.11497043919
 30
0.0
 11
-3815.1385333087
 21
4138.109114363388
 31
0.0
  0
LINE
  5
284
330
1F
100
AcDbEntity
  8
A-2_蓋
  6
Continuous
 62
     3
370
     9
100
AcDbLine
 10
-3865.134986671242
 20
663.1131146405196
 30
0.0
 11
-3865.134986671242
 21
1603.113494048248
 31
0.0
  0
LINE
  5
285
330
1F
100
AcDbEntity
  8
A-2_蓋
  6
Continuous
 62
     3
370
     9
100
AcDbLine
 10
-3815.1385333087
 20
663.1131146405196
 30
0.0
 11
-3815.1385333087
 21
1603.113494048248
 31
0.0
  0
LINE
  5
286
330
1F
100
AcDbEntity
  8
A-2_蓋
  6
Continuous
 62
     3
370
     9
100
AcDbLine
 10
-3865.134986671242
 20
128.1117207295196
 30
0.0
 11
-3865.134986671242
 21
603.1132878483959
 31
0.0
  0
LINE
  5
287
330
1F
100
AcDbEntity
  8
A-2_蓋
  6
Continuous
 62
     3
370
     9
100
AcDbLine
 10
-3815.1385333087
 20
128.1117207295196
 30
0.0
 11
-3815.1385333087
 21
603.1132878483959
 31
0.0
  0
LINE
  5
288
330
1F
100
AcDbEntity
  8
A-2_蓋
  6
Continuous
 62
     3
370
     9
100
AcDbLine
 10
-3715.134986671242
 20
1663.112702240815
 30
0.0
 11
-3715.134986671242
 21
2603.114318847656
 31
0.0
  0
LINE
  5
289
330
1F
100
AcDbEntity
  8
A-2_蓋
  6
Continuous
 62
     3
370
     9
100
AcDbLine
 10
-3665.1385333087
 20
1663.112702240815
 30
0.0
 11
-3665.1385333087
 21
2603.114318847656
 31
0.0
  0
LINE
  5
28A
330
1F
100
AcDbEntity
  8
A-2_蓋
  6
Continuous
 62
     3
370
     9
100
AcDbLine
 10
-3715.134986671242
 20
2663.113527040224
 30
0.0
 11
-3715.134986671242
 21
3603.113287848396
 31
0.0
  0
LINE
  5
28B
330
1F
100
AcDbEntity
  8
A-2_蓋
  6
Continuous
 62
     3
370
     9
100
AcDbLine
 10
-3715.134986671242
 20
3663.11497043919
 30
0.0
 11
-3715.134986671242
 21
4138.109114363388
 31
0.0
  0
LINE
  5
28C
330
1F
100
AcDbEntity
  8
A-2_蓋
  6
Continuous
 62
     3
370
     9
100
AcDbLine
 10
-3665.1385333087
 20
2663.113527040224
 30
0.0
 11
-3665.1385333087
 21
3603.113287848396
 31
0.0
  0
LINE
  5
28D
330
1F
100
AcDbEntity
  8
A-2_蓋
  6
Continuous
 62
     3
370
     9
100
AcDbLine
 10
-3665.1385333087
 20
3663.11497043919
 30
0.0
 11
-3665.1385333087
 21
4138.109114363388
 31
0.0
  0
LINE
  5
28E
330
1F
100
AcDbEntity
  8
A-2_蓋
  6
Continuous
 62
     3
370
     9
100
AcDbLine
 10
-3715.134986671242
 20
663.1131146405196
 30
0.0
 11
-3715.134986671242
 21
1603.113494048248
 31
0.0
  0
LINE
  5
28F
330
1F
100
AcDbEntity
  8
A-2_蓋
  6
Continuous
 62
     3
370
     9
100
AcDbLine
 10
-3665.1385333087
 20
663.1131146405196
 30
0.0
 11
-3665.1385333087
 21
1603.113494048248
 31
0.0
  0
LINE
  5
290
330
1F
100
AcDbEntity
  8
A-2_蓋
  6
Continuous
 62
     3
370
     9
100
AcDbLine
 10
-3715.134986671242
 20
128.1117207295196
 30
0.0
 11
-3715.134986671242
 21
603.1132878483959
 31
0.0
  0
LINE
  5
291
330
1F
100
AcDbEntity
  8
A-2_蓋
  6
Continuous
 62
     3
370
     9
100
AcDbLine
 10
-3665.1385333087
 20
128.1117207295196
 30
0.0
 11
-3665.1385333087
 21
603.1132878483959
 31
0.0
  0
LINE
  5
292
330
1F
100
AcDbEntity
  8
A-2_蓋
  6
Continuous
 62
     3
370
     9
100
AcDbLine
 10
-3565.134986671242
 20
1663.112702240815
 30
0.0
 11
-3565.134986671242
 21
2603.114318847656
 31
0.0
  0
LINE
  5
293
330
1F
100
AcDbEntity
  8
A-2_蓋
  6
Continuous
 62
     3
370
     9
100
AcDbLine
 10
-3515.1385333087
 20
1663.112702240815
 30
0.0
 11
-3515.1385333087
 21
2603.114318847656
 31
0.0
  0
LINE
  5
294
330
1F
100
AcDbEntity
  8
A-2_蓋
  6
Continuous
 62
     3
370
     9
100
AcDbLine
 10
-3565.134986671242
 20
2663.113527040224
 30
0.0
 11
-3565.134986671242
 21
3603.113287848396
 31
0.0
  0
LINE
  5
295
330
1F
100
AcDbEntity
  8
A-2_蓋
  6
Continuous
 62
     3
370
     9
100
AcDbLine
 10
-3565.134986671242
 20
3663.11497043919
 30
0.0
 11
-3565.134986671242
 21
4138.109114363388
 31
0.0
  0
LINE
  5
296
330
1F
100
AcDbEntity
  8
A-2_蓋
  6
Continuous
 62
     3
370
     9
100
AcDbLine
 10
-3515.1385333087
 20
2663.113527040224
 30
0.0
 11
-3515.1385333087
 21
3603.113287848396
 31
0.0
  0
LINE
  5
297
330
1F
100
AcDbEntity
  8
A-2_蓋
  6
Continuous
 62
     3
370
     9
100
AcDbLine
 10
-3515.1385333087
 20
3663.11497043919
 30
0.0
 11
-3515.1385333087
 21
4138.109114363388
 31
0.0
  0
LINE
  5
298
330
1F
100
AcDbEntity
  8
A-2_蓋
  6
Continuous
 62
     3
370
     9
100
AcDbLine
 10
-3565.134986671242
 20
663.1131146405196
 30
0.0
 11
-3565.134986671242
 21
1603.113494048248
 31
0.0
  0
LINE
  5
299
330
1F
100
AcDbEntity
  8
A-2_蓋
  6
Continuous
 62
     3
370
     9
100
AcDbLine
 10
-3515.1385333087
 20
663.1131146405196
 30
0.0
 11
-3515.1385333087
 21
1603.113494048248
 31
0.0
  0
LINE
  5
29A
330
1F
100
AcDbEntity
  8
A-2_蓋
  6
Continuous
 62
     3
370
     9
100
AcDbLine
 10
-3565.134986671242
 20
128.1117207295196
 30
0.0
 11
-3565.134986671242
 21
603.1132878483959
 31
0.0
  0
LINE
  5
29B
330
1F
100
AcDbEntity
  8
A-2_蓋
  6
Continuous
 62
     3
370
     9
100
AcDbLine
 10
-3515.1385333087
 20
128.1117207295196
 30
0.0
 11
-3515.1385333087
 21
603.1132878483959
 31
0.0
  0
LINE
  5
29C
330
1F
100
AcDbEntity
  8
A-2_蓋
  6
Continuous
 62
     3
370
     9
100
AcDbLine
 10
-3415.134986671242
 20
1663.112702240815
 30
0.0
 11
-3415.134986671242
 21
2603.114318847656
 31
0.0
  0
LINE
  5
29D
330
1F
100
AcDbEntity
  8
A-2_蓋
  6
Continuous
 62
     3
370
     9
100
AcDbLine
 10
-3365.1385333087
 20
1663.112702240815
 30
0.0
 11
-3365.1385333087
 21
2603.114318847656
 31
0.0
  0
LINE
  5
29E
330
1F
100
AcDbEntity
  8
A-2_蓋
  6
Continuous
 62
     3
370
     9
100
AcDbLine
 10
-3415.134986671242
 20
2663.113527040224
 30
0.0
 11
-3415.134986671242
 21
3603.113287848396
 31
0.0
  0
LINE
  5
29F
330
1F
100
AcDbEntity
  8
A-2_蓋
  6
Continuous
 62
     3
370
     9
100
AcDbLine
 10
-3415.134986671242
 20
3663.11497043919
 30
0.0
 11
-3415.134986671242
 21
4138.109114363388
 31
0.0
  0
LINE
  5
2A0
330
1F
100
AcDbEntity
  8
A-2_蓋
  6
Continuous
 62
     3
370
     9
100
AcDbLine
 10
-3365.1385333087
 20
2663.113527040224
 30
0.0
 11
-3365.1385333087
 21
3603.113287848396
 31
0.0
  0
LINE
  5
2A1
330
1F
100
AcDbEntity
  8
A-2_蓋
  6
Continuous
 62
     3
370
     9
100
AcDbLine
 10
-3365.1385333087
 20
3663.11497043919
 30
0.0
 11
-3365.1385333087
 21
4138.109114363388
 31
0.0
  0
LINE
  5
2A2
330
1F
100
AcDbEntity
  8
A-2_蓋
  6
Continuous
 62
     3
370
     9
100
AcDbLine
 10
-3415.134986671242
 20
663.1131146405196
 30
0.0
 11
-3415.134986671242
 21
1603.113494048248
 31
0.0
  0
LINE
  5
2A3
330
1F
100
AcDbEntity
  8
A-2_蓋
  6
Continuous
 62
     3
370
     9
100
AcDbLine
 10
-3365.1385333087
 20
663.1131146405196
 30
0.0
 11
-3365.1385333087
 21
1603.113494048248
 31
0.0
  0
LINE
  5
2A4
330
1F
100
AcDbEntity
  8
A-2_蓋
  6
Continuous
 62
     3
370
     9
100
AcDbLine
 10
-3415.134986671242
 20
128.1117207295196
 30
0.0
 11
-3415.134986671242
 21
603.1132878483959
 31
0.0
  0
LINE
  5
2A5
330
1F
100
AcDbEntity
  8
A-2_蓋
  6
Continuous
 62
     3
370
     9
100
AcDbLine
 10
-3365.1385333087
 20
128.1117207295196
 30
0.0
 11
-3365.1385333087
 21
603.1132878483959
 31
0.0
  0
LINE
  5
2A6
330
1F
100
AcDbEntity
  8
A-2_蓋
  6
Continuous
 62
     3
370
     9
100
AcDbLine
 10
-3265.134986671242
 20
1663.112702240815
 30
0.0
 11
-3265.134986671242
 21
2603.114318847656
 31
0.0
  0
LINE
  5
2A7
330
1F
100
AcDbEntity
  8
A-2_蓋
  6
Continuous
 62
     3
370
     9
100
AcDbLine
 10
-3215.1385333087
 20
1663.112702240815
 30
0.0
 11
-3215.1385333087
 21
2603.114318847656
 31
0.0
  0
LINE
  5
2A8
330
1F
100
AcDbEntity
  8
A-2_蓋
  6
Continuous
 62
     3
370
     9
100
AcDbLine
 10
-3265.134986671242
 20
2663.113527040224
 30
0.0
 11
-3265.134986671242
 21
3603.113287848396
 31
0.0
  0
LINE
  5
2A9
330
1F
100
AcDbEntity
  8
A-2_蓋
  6
Continuous
 62
     3
370
     9
100
AcDbLine
 10
-3265.134986671242
 20
3663.11497043919
 30
0.0
 11
-3265.134986671242
 21
4138.109114363388
 31
0.0
  0
LINE
  5
2AA
330
1F
100
AcDbEntity
  8
A-2_蓋
  6
Continuous
 62
     3
370
     9
100
AcDbLine
 10
-3215.1385333087
 20
2663.113527040224
 30
0.0
 11
-3215.1385333087
 21
3603.113287848396
 31
0.0
  0
LINE
  5
2AB
330
1F
100
AcDbEntity
  8
A-2_蓋
  6
Continuous
 62
     3
370
     9
100
AcDbLine
 10
-3215.1385333087
 20
3663.11497043919
 30
0.0
 11
-3215.1385333087
 21
4138.109114363388
 31
0.0
  0
LINE
  5
2AC
330
1F
100
AcDbEntity
  8
A-2_蓋
  6
Continuous
 62
     3
370
     9
100
AcDbLine
 10
-3265.134986671242
 20
663.1131146405196
 30
0.0
 11
-3265.134986671242
 21
1603.113494048248
 31
0.0
  0
LINE
  5
2AD
330
1F
100
AcDbEntity
  8
A-2_蓋
  6
Continuous
 62
     3
370
     9
100
AcDbLine
 10
-3215.1385333087
 20
663.1131146405196
 30
0.0
 11
-3215.1385333087
 21
1603.113494048248
 31
0.0
  0
LINE
  5
2AE
330
1F
100
AcDbEntity
  8
A-2_蓋
  6
Continuous
 62
     3
370
     9
100
AcDbLine
 10
-3265.134986671242
 20
128.1117207295196
 30
0.0
 11
-3265.134986671242
 21
603.1132878483959
 31
0.0
  0
LINE
  5
2AF
330
1F
100
AcDbEntity
  8
A-2_蓋
  6
Continuous
 62
     3
370
     9
100
AcDbLine
 10
-3215.1385333087
 20
128.1117207295196
 30
0.0
 11
-3215.1385333087
 21
603.1132878483959
 31
0.0
  0
LINE
  5
2B0
330
1F
100
AcDbEntity
  8
A-2_蓋
  6
Continuous
 62
     3
370
     9
100
AcDbLine
 10
-3115.134986671242
 20
1663.112702240815
 30
0.0
 11
-3115.134986671242
 21
2603.114318847656
 31
0.0
  0
LINE
  5
2B1
330
1F
100
AcDbEntity
  8
A-2_蓋
  6
Continuous
 62
     3
370
     9
100
AcDbLine
 10
-3065.1385333087
 20
1663.112702240815
 30
0.0
 11
-3065.1385333087
 21
2603.114318847656
 31
0.0
  0
LINE
  5
2B2
330
1F
100
AcDbEntity
  8
A-2_蓋
  6
Continuous
 62
     3
370
     9
100
AcDbLine
 10
-3115.134986671242
 20
2663.113527040224
 30
0.0
 11
-3115.134986671242
 21
3603.113287848396
 31
0.0
  0
LINE
  5
2B3
330
1F
100
AcDbEntity
  8
A-2_蓋
  6
Continuous
 62
     3
370
     9
100
AcDbLine
 10
-3115.134986671242
 20
3663.11497043919
 30
0.0
 11
-3115.134986671242
 21
4138.109114363388
 31
0.0
  0
LINE
  5
2B4
330
1F
100
AcDbEntity
  8
A-2_蓋
  6
Continuous
 62
     3
370
     9
100
AcDbLine
 10
-3065.1385333087
 20
2663.113527040224
 30
0.0
 11
-3065.1385333087
 21
3603.113287848396
 31
0.0
  0
LINE
  5
2B5
330
1F
100
AcDbEntity
  8
A-2_蓋
  6
Continuous
 62
     3
370
     9
100
AcDbLine
 10
-3065.1385333087
 20
3663.11497043919
 30
0.0
 11
-3065.1385333087
 21
4138.109114363388
 31
0.0
  0
LINE
  5
2B6
330
1F
100
AcDbEntity
  8
A-2_蓋
  6
Continuous
 62
     3
370
     9
100
AcDbLine
 10
-3115.134986671242
 20
663.1131146405196
 30
0.0
 11
-3115.134986671242
 21
1603.113494048248
 31
0.0
  0
LINE
  5
2B7
330
1F
100
AcDbEntity
  8
A-2_蓋
  6
Continuous
 62
     3
370
     9
100
AcDbLine
 10
-3065.1385333087
 20
663.1131146405196
 30
0.0
 11
-3065.1385333087
 21
1603.113494048248
 31
0.0
  0
LINE
  5
2B8
330
1F
100
AcDbEntity
  8
A-2_蓋
  6
Continuous
 62
     3
370
     9
100
AcDbLine
 10
-3115.134986671242
 20
128.1117207295196
 30
0.0
 11
-3115.134986671242
 21
603.1132878483959
 31
0.0
  0
LINE
  5
2B9
330
1F
100
AcDbEntity
  8
A-2_蓋
  6
Continuous
 62
     3
370
     9
100
AcDbLine
 10
-3065.1385333087
 20
128.1117207295196
 30
0.0
 11
-3065.1385333087
 21
603.1132878483959
 31
0.0
  0
LINE
  5
2BA
330
1F
100
AcDbEntity
  8
A-2_蓋
  6
Continuous
 62
     3
370
     9
100
AcDbLine
 10
-2965.134986671242
 20
1663.112702240815
 30
0.0
 11
-2965.134986671242
 21
2603.114318847656
 31
0.0
  0
LINE
  5
2BB
330
1F
100
AcDbEntity
  8
A-2_蓋
  6
Continuous
 62
     3
370
     9
100
AcDbLine
 10
-2915.1385333087
 20
1663.112702240815
 30
0.0
 11
-2915.1385333087
 21
2603.114318847656
 31
0.0
  0
LINE
  5
2BC
330
1F
100
AcDbEntity
  8
A-2_蓋
  6
Continuous
 62
     3
370
     9
100
AcDbLine
 10
-2965.134986671242
 20
2663.113527040224
 30
0.0
 11
-2965.134986671242
 21
3603.113287848396
 31
0.0
  0
LINE
  5
2BD
330
1F
100
AcDbEntity
  8
A-2_蓋
  6
Continuous
 62
     3
370
     9
100
AcDbLine
 10
-2965.134986671242
 20
3663.11497043919
 30
0.0
 11
-2965.134986671242
 21
4138.109114363388
 31
0.0
  0
LINE
  5
2BE
330
1F
100
AcDbEntity
  8
A-2_蓋
  6
Continuous
 62
     3
370
     9
100
AcDbLine
 10
-2915.1385333087
 20
2663.113527040224
 30
0.0
 11
-2915.1385333087
 21
3603.113287848396
 31
0.0
  0
LINE
  5
2BF
330
1F
100
AcDbEntity
  8
A-2_蓋
  6
Continuous
 62
     3
370
     9
100
AcDbLine
 10
-2915.1385333087
 20
3663.11497043919
 30
0.0
 11
-2915.1385333087
 21
4138.109114363388
 31
0.0
  0
LINE
  5
2C0
330
1F
100
AcDbEntity
  8
A-2_蓋
  6
Continuous
 62
     3
370
     9
100
AcDbLine
 10
-2965.134986671242
 20
663.1131146405196
 30
0.0
 11
-2965.134986671242
 21
1603.113494048248
 31
0.0
  0
LINE
  5
2C1
330
1F
100
AcDbEntity
  8
A-2_蓋
  6
Continuous
 62
     3
370
     9
100
AcDbLine
 10
-2915.1385333087
 20
663.1131146405196
 30
0.0
 11
-2915.1385333087
 21
1603.113494048248
 31
0.0
  0
LINE
  5
2C2
330
1F
100
AcDbEntity
  8
A-2_蓋
  6
Continuous
 62
     3
370
     9
100
AcDbLine
 10
-2965.134986671242
 20
128.1117207295196
 30
0.0
 11
-2965.134986671242
 21
603.1132878483959
 31
0.0
  0
LINE
  5
2C3
330
1F
100
AcDbEntity
  8
A-2_蓋
  6
Continuous
 62
     3
370
     9
100
AcDbLine
 10
-2915.1385333087
 20
128.1117207295196
 30
0.0
 11
-2915.1385333087
 21
603.1132878483959
 31
0.0
  0
LINE
  5
2C4
330
1F
100
AcDbEntity
  8
A-2_蓋
  6
Continuous
 62
     3
370
     9
100
AcDbLine
 10
-2815.134986671242
 20
1663.112702240815
 30
0.0
 11
-2815.134986671242
 21
2603.114318847656
 31
0.0
  0
LINE
  5
2C5
330
1F
100
AcDbEntity
  8
A-2_蓋
  6
Continuous
 62
     3
370
     9
100
AcDbLine
 10
-2765.1385333087
 20
1663.112702240815
 30
0.0
 11
-2765.1385333087
 21
2603.114318847656
 31
0.0
  0
LINE
  5
2C6
330
1F
100
AcDbEntity
  8
A-2_蓋
  6
Continuous
 62
     3
370
     9
100
AcDbLine
 10
-2815.134986671242
 20
2663.113527040224
 30
0.0
 11
-2815.134986671242
 21
3603.113287848396
 31
0.0
  0
LINE
  5
2C7
330
1F
100
AcDbEntity
  8
A-2_蓋
  6
Continuous
 62
     3
370
     9
100
AcDbLine
 10
-2815.134986671242
 20
3663.11497043919
 30
0.0
 11
-2815.134986671242
 21
4138.109114363388
 31
0.0
  0
LINE
  5
2C8
330
1F
100
AcDbEntity
  8
A-2_蓋
  6
Continuous
 62
     3
370
     9
100
AcDbLine
 10
-2765.1385333087
 20
2663.113527040224
 30
0.0
 11
-2765.1385333087
 21
3603.113287848396
 31
0.0
  0
LINE
  5
2C9
330
1F
100
AcDbEntity
  8
A-2_蓋
  6
Continuous
 62
     3
370
     9
100
AcDbLine
 10
-2765.1385333087
 20
3663.11497043919
 30
0.0
 11
-2765.1385333087
 21
4138.109114363388
 31
0.0
  0
LINE
  5
2CA
330
1F
100
AcDbEntity
  8
A-2_蓋
  6
Continuous
 62
     3
370
     9
100
AcDbLine
 10
-2815.134986671242
 20
663.1131146405196
 30
0.0
 11
-2815.134986671242
 21
1603.113494048248
 31
0.0
  0
LINE
  5
2CB
330
1F
100
AcDbEntity
  8
A-2_蓋
  6
Continuous
 62
     3
370
     9
100
AcDbLine
 10
-2765.1385333087
 20
663.1131146405196
 30
0.0
 11
-2765.1385333087
 21
1603.113494048248
 31
0.0
  0
LINE
  5
2CC
330
1F
100
AcDbEntity
  8
A-2_蓋
  6
Continuous
 62
     3
370
     9
100
AcDbLine
 10
-2815.134986671242
 20
128.1117207295196
 30
0.0
 11
-2815.134986671242
 21
603.1132878483959
 31
0.0
  0
LINE
  5
2CD
330
1F
100
AcDbEntity
  8
A-2_蓋
  6
Continuous
 62
     3
370
     9
100
AcDbLine
 10
-2765.1385333087
 20
128.1117207295196
 30
0.0
 11
-2765.1385333087
 21
603.1132878483959
 31
0.0
  0
LINE
  5
2CE
330
1F
100
AcDbEntity
  8
A-2_蓋
  6
Continuous
 62
     3
370
     9
100
AcDbLine
 10
-2665.134986671242
 20
1663.112702240815
 30
0.0
 11
-2665.134986671242
 21
2603.114318847656
 31
0.0
  0
LINE
  5
2CF
330
1F
100
AcDbEntity
  8
A-2_蓋
  6
Continuous
 62
     3
370
     9
100
AcDbLine
 10
-2615.1385333087
 20
1663.112702240815
 30
0.0
 11
-2615.1385333087
 21
2603.114318847656
 31
0.0
  0
LINE
  5
2D0
330
1F
100
AcDbEntity
  8
A-2_蓋
  6
Continuous
 62
     3
370
     9
100
AcDbLine
 10
-2665.134986671242
 20
2663.113527040224
 30
0.0
 11
-2665.134986671242
 21
3603.113287848396
 31
0.0
  0
LINE
  5
2D1
330
1F
100
AcDbEntity
  8
A-2_蓋
  6
Continuous
 62
     3
370
     9
100
AcDbLine
 10
-2665.134986671242
 20
3663.11497043919
 30
0.0
 11
-2665.134986671242
 21
4138.109114363388
 31
0.0
  0
LINE
  5
2D2
330
1F
100
AcDbEntity
  8
A-2_蓋
  6
Continuous
 62
     3
370
     9
100
AcDbLine
 10
-2615.1385333087
 20
2663.113527040224
 30
0.0
 11
-2615.1385333087
 21
3603.113287848396
 31
0.0
  0
LINE
  5
2D3
330
1F
100
AcDbEntity
  8
A-2_蓋
  6
Continuous
 62
     3
370
     9
100
AcDbLine
 10
-2615.1385333087
 20
3663.11497043919
 30
0.0
 11
-2615.1385333087
 21
4138.109114363388
 31
0.0
  0
LINE
  5
2D4
330
1F
100
AcDbEntity
  8
A-2_蓋
  6
Continuous
 62
     3
370
     9
100
AcDbLine
 10
-2665.134986671242
 20
663.1131146405196
 30
0.0
 11
-2665.134986671242
 21
1603.113494048248
 31
0.0
  0
LINE
  5
2D5
330
1F
100
AcDbEntity
  8
A-2_蓋
  6
Continuous
 62
     3
370
     9
100
AcDbLine
 10
-2615.1385333087
 20
663.1131146405196
 30
0.0
 11
-2615.1385333087
 21
1603.113494048248
 31
0.0
  0
LINE
  5
2D6
330
1F
100
AcDbEntity
  8
A-2_蓋
  6
Continuous
 62
     3
370
     9
100
AcDbLine
 10
-2665.134986671242
 20
128.1117207295196
 30
0.0
 11
-2665.134986671242
 21
603.1132878483959
 31
0.0
  0
LINE
  5
2D7
330
1F
100
AcDbEntity
  8
A-2_蓋
  6
Continuous
 62
     3
370
     9
100
AcDbLine
 10
-2615.1385333087
 20
128.1117207295196
 30
0.0
 11
-2615.1385333087
 21
603.1132878483959
 31
0.0
  0
LINE
  5
2D8
330
1F
100
AcDbEntity
  8
A-2_蓋
  6
Continuous
 62
     3
370
     9
100
AcDbLine
 10
-2515.134986671242
 20
1663.112702240815
 30
0.0
 11
-2515.134986671242
 21
2603.114318847656
 31
0.0
  0
LINE
  5
2D9
330
1F
100
AcDbEntity
  8
A-2_蓋
  6
Continuous
 62
     3
370
     9
100
AcDbLine
 10
-2465.1385333087
 20
1663.112702240815
 30
0.0
 11
-2465.1385333087
 21
2603.114318847656
 31
0.0
  0
LINE
  5
2DA
330
1F
100
AcDbEntity
  8
A-2_蓋
  6
Continuous
 62
     3
370
     9
100
AcDbLine
 10
-2515.134986671242
 20
2663.113527040224
 30
0.0
 11
-2515.134986671242
 21
3603.113287848396
 31
0.0
  0
LINE
  5
2DB
330
1F
100
AcDbEntity
  8
A-2_蓋
  6
Continuous
 62
     3
370
     9
100
AcDbLine
 10
-2515.134986671242
 20
3663.11497043919
 30
0.0
 11
-2515.134986671242
 21
4138.109114363388
 31
0.0
  0
LINE
  5
2DC
330
1F
100
AcDbEntity
  8
A-2_蓋
  6
Continuous
 62
     3
370
     9
100
AcDbLine
 10
-2465.1385333087
 20
2663.113527040224
 30
0.0
 11
-2465.1385333087
 21
3603.113287848396
 31
0.0
  0
LINE
  5
2DD
330
1F
100
AcDbEntity
  8
A-2_蓋
  6
Continuous
 62
     3
370
     9
100
AcDbLine
 10
-2465.1385333087
 20
3663.11497043919
 30
0.0
 11
-2465.1385333087
 21
4138.109114363388
 31
0.0
  0
LINE
  5
2DE
330
1F
100
AcDbEntity
  8
A-2_蓋
  6
Continuous
 62
     3
370
     9
100
AcDbLine
 10
-2515.134986671242
 20
663.1131146405196
 30
0.0
 11
-2515.134986671242
 21
1603.113494048248
 31
0.0
  0
LINE
  5
2DF
330
1F
100
AcDbEntity
  8
A-2_蓋
  6
Continuous
 62
     3
370
     9
100
AcDbLine
 10
-2465.1385333087
 20
663.1131146405196
 30
0.0
 11
-2465.1385333087
 21
1603.113494048248
 31
0.0
  0
LINE
  5
2E0
330
1F
100
AcDbEntity
  8
A-2_蓋
  6
Continuous
 62
     3
370
     9
100
AcDbLine
 10
-2515.134986671242
 20
128.1117207295196
 30
0.0
 11
-2515.134986671242
 21
603.1132878483959
 31
0.0
  0
LINE
  5
2E1
330
1F
100
AcDbEntity
  8
A-2_蓋
  6
Continuous
 62
     3
370
     9
100
AcDbLine
 10
-2465.1385333087
 20
128.1117207295196
 30
0.0
 11
-2465.1385333087
 21
603.1132878483959
 31
0.0
  0
LINE
  5
2E2
330
1F
100
AcDbEntity
  8
A-2_蓋
  6
Continuous
 62
     3
370
     9
100
AcDbLine
 10
-2365.134986671242
 20
1663.112702240815
 30
0.0
 11
-2365.134986671242
 21
2603.114318847656
 31
0.0
  0
LINE
  5
2E3
330
1F
100
AcDbEntity
  8
A-2_蓋
  6
Continuous
 62
     3
370
     9
100
AcDbLine
 10
-2315.1385333087
 20
1663.112702240815
 30
0.0
 11
-2315.1385333087
 21
2603.114318847656
 31
0.0
  0
LINE
  5
2E4
330
1F
100
AcDbEntity
  8
A-2_蓋
  6
Continuous
 62
     3
370
     9
100
AcDbLine
 10
-2365.134986671242
 20
2663.113527040224
 30
0.0
 11
-2365.134986671242
 21
3603.113287848396
 31
0.0
  0
LINE
  5
2E5
330
1F
100
AcDbEntity
  8
A-2_蓋
  6
Continuous
 62
     3
370
     9
100
AcDbLine
 10
-2365.134986671242
 20
3663.11497043919
 30
0.0
 11
-2365.134986671242
 21
4138.109114363388
 31
0.0
  0
LINE
  5
2E6
330
1F
100
AcDbEntity
  8
A-2_蓋
  6
Continuous
 62
     3
370
     9
100
AcDbLine
 10
-2315.1385333087
 20
2663.113527040224
 30
0.0
 11
-2315.1385333087
 21
3603.113287848396
 31
0.0
  0
LINE
  5
2E7
330
1F
100
AcDbEntity
  8
A-2_蓋
  6
Continuous
 62
     3
370
     9
100
AcDbLine
 10
-2315.1385333087
 20
3663.11497043919
 30
0.0
 11
-2315.1385333087
 21
4138.109114363388
 31
0.0
  0
LINE
  5
2E8
330
1F
100
AcDbEntity
  8
A-2_蓋
  6
Continuous
 62
     3
370
     9
100
AcDbLine
 10
-2365.134986671242
 20
663.1131146405196
 30
0.0
 11
-2365.134986671242
 21
1603.113494048248
 31
0.0
  0
LINE
  5
2E9
330
1F
100
AcDbEntity
  8
A-2_蓋
  6
Continuous
 62
     3
370
     9
100
AcDbLine
 10
-2315.1385333087
 20
663.1131146405196
 30
0.0
 11
-2315.1385333087
 21
1603.113494048248
 31
0.0
  0
LINE
  5
2EA
330
1F
100
AcDbEntity
  8
A-2_蓋
  6
Continuous
 62
     3
370
     9
100
AcDbLine
 10
-2365.134986671242
 20
128.1117207295196
 30
0.0
 11
-2365.134986671242
 21
603.1132878483959
 31
0.0
  0
LINE
  5
2EB
330
1F
100
AcDbEntity
  8
A-2_蓋
  6
Continuous
 62
     3
370
     9
100
AcDbLine
 10
-2315.1385333087
 20
128.1117207295196
 30
0.0
 11
-2315.1385333087
 21
603.1132878483959
 31
0.0
  0
LINE
  5
2EC
330
1F
100
AcDbEntity
  8
A-2_蓋
  6
Continuous
 62
     3
370
     9
100
AcDbLine
 10
-2215.134986671242
 20
1663.112702240815
 30
0.0
 11
-2215.134986671242
 21
2603.114318847656
 31
0.0
  0
LINE
  5
2ED
330
1F
100
AcDbEntity
  8
A-2_蓋
  6
Continuous
 62
     3
370
     9
100
AcDbLine
 10
-2165.1385333087
 20
1663.112702240815
 30
0.0
 11
-2165.1385333087
 21
2603.114318847656
 31
0.0
  0
LINE
  5
2EE
330
1F
100
AcDbEntity
  8
A-2_蓋
  6
Continuous
 62
     3
370
     9
100
AcDbLine
 10
-2215.134986671242
 20
2663.113527040224
 30
0.0
 11
-2215.134986671242
 21
3603.113287848396
 31
0.0
  0
LINE
  5
2EF
330
1F
100
AcDbEntity
  8
A-2_蓋
  6
Continuous
 62
     3
370
     9
100
AcDbLine
 10
-2215.134986671242
 20
3663.11497043919
 30
0.0
 11
-2215.134986671242
 21
4138.109114363388
 31
0.0
  0
LINE
  5
2F0
330
1F
100
AcDbEntity
  8
A-2_蓋
  6
Continuous
 62
     3
370
     9
100
AcDbLine
 10
-2165.1385333087
 20
2663.113527040224
 30
0.0
 11
-2165.1385333087
 21
3603.113287848396
 31
0.0
  0
LINE
  5
2F1
330
1F
100
AcDbEntity
  8
A-2_蓋
  6
Continuous
 62
     3
370
     9
100
AcDbLine
 10
-2165.1385333087
 20
3663.11497043919
 30
0.0
 11
-2165.1385333087
 21
4138.109114363388
 31
0.0
  0
LINE
  5
2F2
330
1F
100
AcDbEntity
  8
A-2_蓋
  6
Continuous
 62
     3
370
     9
100
AcDbLine
 10
-2215.134986671242
 20
663.1131146405196
 30
0.0
 11
-2215.134986671242
 21
1603.113494048248
 31
0.0
  0
LINE
  5
2F3
330
1F
100
AcDbEntity
  8
A-2_蓋
  6
Continuous
 62
     3
370
     9
100
AcDbLine
 10
-2165.1385333087
 20
663.1131146405196
 30
0.0
 11
-2165.1385333087
 21
1603.113494048248
 31
0.0
  0
LINE
  5
2F4
330
1F
100
AcDbEntity
  8
A-2_蓋
  6
Continuous
 62
     3
370
     9
100
AcDbLine
 10
-2215.134986671242
 20
128.1117207295196
 30
0.0
 11
-2215.134986671242
 21
603.1132878483959
 31
0.0
  0
LINE
  5
2F5
330
1F
100
AcDbEntity
  8
A-2_蓋
  6
Continuous
 62
     3
370
     9
100
AcDbLine
 10
-2165.1385333087
 20
128.1117207295196
 30
0.0
 11
-2165.1385333087
 21
603.1132878483959
 31
0.0
  0
LINE
  5
2F6
330
1F
100
AcDbEntity
  8
A-2_蓋
  6
Continuous
 62
     3
370
     9
100
AcDbLine
 10
-2065.134986671242
 20
1663.112702240815
 30
0.0
 11
-2065.134986671242
 21
2603.114318847656
 31
0.0
  0
LINE
  5
2F7
330
1F
100
AcDbEntity
  8
A-2_蓋
  6
Continuous
 62
     3
370
     9
100
AcDbLine
 10
-2015.1385333087
 20
1663.112702240815
 30
0.0
 11
-2015.1385333087
 21
2603.114318847656
 31
0.0
  0
LINE
  5
2F8
330
1F
100
AcDbEntity
  8
A-2_蓋
  6
Continuous
 62
     3
370
     9
100
AcDbLine
 10
-2065.134986671242
 20
2663.113527040224
 30
0.0
 11
-2065.134986671242
 21
3603.113287848396
 31
0.0
  0
LINE
  5
2F9
330
1F
100
AcDbEntity
  8
A-2_蓋
  6
Continuous
 62
     3
370
     9
100
AcDbLine
 10
-2065.134986671242
 20
3663.11497043919
 30
0.0
 11
-2065.134986671242
 21
4138.109114363388
 31
0.0
  0
LINE
  5
2FA
330
1F
100
AcDbEntity
  8
A-2_蓋
  6
Continuous
 62
     3
370
     9
100
AcDbLine
 10
-2015.1385333087
 20
2663.113527040224
 30
0.0
 11
-2015.1385333087
 21
3603.113287848396
 31
0.0
  0
LINE
  5
2FB
330
1F
100
AcDbEntity
  8
A-2_蓋
  6
Continuous
 62
     3
370
     9
100
AcDbLine
 10
-2015.1385333087
 20
3663.11497043919
 30
0.0
 11
-2015.1385333087
 21
4138.109114363388
 31
0.0
  0
LINE
  5
2FC
330
1F
100
AcDbEntity
  8
A-2_蓋
  6
Continuous
 62
     3
370
     9
100
AcDbLine
 10
-2065.134986671242
 20
663.1131146405196
 30
0.0
 11
-2065.134986671242
 21
1603.113494048248
 31
0.0
  0
LINE
  5
2FD
330
1F
100
AcDbEntity
  8
A-2_蓋
  6
Continuous
 62
     3
370
     9
100
AcDbLine
 10
-2015.1385333087
 20
663.1131146405196
 30
0.0
 11
-2015.1385333087
 21
1603.113494048248
 31
0.0
  0
LINE
  5
2FE
330
1F
100
AcDbEntity
  8
A-2_蓋
  6
Continuous
 62
     3
370
     9
100
AcDbLine
 10
-2065.134986671242
 20
128.1117207295196
 30
0.0
 11
-2065.134986671242
 21
603.1132878483959
 31
0.0
  0
LINE
  5
2FF
330
1F
100
AcDbEntity
  8
A-2_蓋
  6
Continuous
 62
     3
370
     9
100
AcDbLine
 10
-2015.1385333087
 20
128.1117207295196
 30
0.0
 11
-2015.1385333087
 21
603.1132878483959
 31
0.0
  0
LINE
  5
300
330
1F
100
AcDbEntity
  8
A-2_蓋
  6
Continuous
 62
     3
370
     9
100
AcDbLine
 10
-1915.134986671241
 20
1663.112702240815
 30
0.0
 11
-1915.134986671241
 21
2603.114318847656
 31
0.0
  0
LINE
  5
301
330
1F
100
AcDbEntity
  8
A-2_蓋
  6
Continuous
 62
     3
370
     9
100
AcDbLine
 10
-1865.1385333087
 20
1663.112702240815
 30
0.0
 11
-1865.1385333087
 21
2603.114318847656
 31
0.0
  0
LINE
  5
302
330
1F
100
AcDbEntity
  8
A-2_蓋
  6
Continuous
 62
     3
370
     9
100
AcDbLine
 10
-1915.134986671241
 20
2663.113527040224
 30
0.0
 11
-1915.134986671241
 21
3603.113287848396
 31
0.0
  0
LINE
  5
303
330
1F
100
AcDbEntity
  8
A-2_蓋
  6
Continuous
 62
     3
370
     9
100
AcDbLine
 10
-1915.134986671241
 20
3663.11497043919
 30
0.0
 11
-1915.134986671241
 21
4138.109114363388
 31
0.0
  0
LINE
  5
304
330
1F
100
AcDbEntity
  8
A-2_蓋
  6
Continuous
 62
     3
370
     9
100
AcDbLine
 10
-1865.1385333087
 20
2663.113527040224
 30
0.0
 11
-1865.1385333087
 21
3603.113287848396
 31
0.0
  0
LINE
  5
305
330
1F
100
AcDbEntity
  8
A-2_蓋
  6
Continuous
 62
     3
370
     9
100
AcDbLine
 10
-1865.1385333087
 20
3663.11497043919
 30
0.0
 11
-1865.1385333087
 21
4138.109114363388
 31
0.0
  0
LINE
  5
306
330
1F
100
AcDbEntity
  8
A-2_蓋
  6
Continuous
 62
     3
370
     9
100
AcDbLine
 10
-1915.134986671241
 20
663.1131146405196
 30
0.0
 11
-1915.134986671241
 21
1603.113494048248
 31
0.0
  0
LINE
  5
307
330
1F
100
AcDbEntity
  8
A-2_蓋
  6
Continuous
 62
     3
370
     9
100
AcDbLine
 10
-1865.1385333087
 20
663.1131146405196
 30
0.0
 11
-1865.1385333087
 21
1603.113494048248
 31
0.0
  0
LINE
  5
308
330
1F
100
AcDbEntity
  8
A-2_蓋
  6
Continuous
 62
     3
370
     9
100
AcDbLine
 10
-1915.134986671241
 20
128.1117207295196
 30
0.0
 11
-1915.134986671241
 21
603.1132878483959
 31
0.0
  0
LINE
  5
309
330
1F
100
AcDbEntity
  8
A-2_蓋
  6
Continuous
 62
     3
370
     9
100
AcDbLine
 10
-1865.1385333087
 20
128.1117207295196
 30
0.0
 11
-1865.1385333087
 21
603.1132878483959
 31
0.0
  0
LINE
  5
30A
330
1F
100
AcDbEntity
  8
A-2_蓋
  6
Continuous
 62
     3
370
     9
100
AcDbLine
 10
-1765.134986671241
 20
1663.112702240815
 30
0.0
 11
-1765.134986671241
 21
2603.114318847656
 31
0.0
  0
LINE
  5
30B
330
1F
100
AcDbEntity
  8
A-2_蓋
  6
Continuous
 62
     3
370
     9
100
AcDbLine
 10
-1715.1385333087
 20
1663.112702240815
 30
0.0
 11
-1715.1385333087
 21
2603.114318847656
 31
0.0
  0
LINE
  5
30C
330
1F
100
AcDbEntity
  8
A-2_蓋
  6
Continuous
 62
     3
370
     9
100
AcDbLine
 10
-1765.134986671241
 20
2663.113527040224
 30
0.0
 11
-1765.134986671241
 21
3603.113287848396
 31
0.0
  0
LINE
  5
30D
330
1F
100
AcDbEntity
  8
A-2_蓋
  6
Continuous
 62
     3
370
     9
100
AcDbLine
 10
-1765.134986671241
 20
3663.11497043919
 30
0.0
 11
-1765.134986671241
 21
4138.109114363388
 31
0.0
  0
LINE
  5
30E
330
1F
100
AcDbEntity
  8
A-2_蓋
  6
Continuous
 62
     3
370
     9
100
AcDbLine
 10
-1715.1385333087
 20
2663.113527040224
 30
0.0
 11
-1715.1385333087
 21
3603.113287848396
 31
0.0
  0
LINE
  5
30F
330
1F
100
AcDbEntity
  8
A-2_蓋
  6
Continuous
 62
     3
370
     9
100
AcDbLine
 10
-1715.1385333087
 20
3663.11497043919
 30
0.0
 11
-1715.1385333087
 21
4138.109114363388
 31
0.0
  0
LINE
  5
310
330
1F
100
AcDbEntity
  8
A-2_蓋
  6
Continuous
 62
     3
370
     9
100
AcDbLine
 10
-1765.134986671241
 20
663.1131146405196
 30
0.0
 11
-1765.134986671241
 21
1603.113494048248
 31
0.0
  0
LINE
  5
311
330
1F
100
AcDbEntity
  8
A-2_蓋
  6
Continuous
 62
     3
370
     9
100
AcDbLine
 10
-1715.1385333087
 20
663.1131146405196
 30
0.0
 11
-1715.1385333087
 21
1603.113494048248
 31
0.0
  0
LINE
  5
312
330
1F
100
AcDbEntity
  8
A-2_蓋
  6
Continuous
 62
     3
370
     9
100
AcDbLine
 10
-1765.134986671241
 20
128.1117207295196
 30
0.0
 11
-1765.134986671241
 21
603.1132878483959
 31
0.0
  0
LINE
  5
313
330
1F
100
AcDbEntity
  8
A-2_蓋
  6
Continuous
 62
     3
370
     9
100
AcDbLine
 10
-1715.1385333087
 20
128.1117207295196
 30
0.0
 11
-1715.1385333087
 21
603.1132878483959
 31
0.0
  0
LINE
  5
314
330
1F
100
AcDbEntity
  8
A-2_蓋
  6
Continuous
 62
     3
370
     9
100
AcDbLine
 10
-1615.134986671241
 20
1663.112702240815
 30
0.0
 11
-1615.134986671241
 21
2603.114318847656
 31
0.0
  0
LINE
  5
315
330
1F
100
AcDbEntity
  8
A-2_蓋
  6
Continuous
 62
     3
370
     9
100
AcDbLine
 10
-1565.1385333087
 20
1663.112702240815
 30
0.0
 11
-1565.1385333087
 21
2603.114318847656
 31
0.0
  0
LINE
  5
316
330
1F
100
AcDbEntity
  8
A-2_蓋
  6
Continuous
 62
     3
370
     9
100
AcDbLine
 10
-1615.134986671241
 20
2663.113527040224
 30
0.0
 11
-1615.134986671241
 21
3603.113287848396
 31
0.0
  0
LINE
  5
317
330
1F
100
AcDbEntity
  8
A-2_蓋
  6
Continuous
 62
     3
370
     9
100
AcDbLine
 10
-1615.134986671241
 20
3663.11497043919
 30
0.0
 11
-1615.134986671241
 21
4138.109114363388
 31
0.0
  0
LINE
  5
318
330
1F
100
AcDbEntity
  8
A-2_蓋
  6
Continuous
 62
     3
370
     9
100
AcDbLine
 10
-1565.1385333087
 20
2663.113527040224
 30
0.0
 11
-1565.1385333087
 21
3603.113287848396
 31
0.0
  0
LINE
  5
319
330
1F
100
AcDbEntity
  8
A-2_蓋
  6
Continuous
 62
     3
370
     9
100
AcDbLine
 10
-1565.1385333087
 20
3663.11497043919
 30
0.0
 11
-1565.1385333087
 21
4138.109114363388
 31
0.0
  0
LINE
  5
31A
330
1F
100
AcDbEntity
  8
A-2_蓋
  6
Continuous
 62
     3
370
     9
100
AcDbLine
 10
-1615.134986671241
 20
663.1131146405196
 30
0.0
 11
-1615.134986671241
 21
1603.113494048248
 31
0.0
  0
LINE
  5
31B
330
1F
100
AcDbEntity
  8
A-2_蓋
  6
Continuous
 62
     3
370
     9
100
AcDbLine
 10
-1565.1385333087
 20
663.1131146405196
 30
0.0
 11
-1565.1385333087
 21
1603.113494048248
 31
0.0
  0
LINE
  5
31C
330
1F
100
AcDbEntity
  8
A-2_蓋
  6
Continuous
 62
     3
370
     9
100
AcDbLine
 10
-1615.134986671241
 20
128.1117207295196
 30
0.0
 11
-1615.134986671241
 21
603.1132878483959
 31
0.0
  0
LINE
  5
31D
330
1F
100
AcDbEntity
  8
A-2_蓋
  6
Continuous
 62
     3
370
     9
100
AcDbLine
 10
-1565.1385333087
 20
128.1117207295196
 30
0.0
 11
-1565.1385333087
 21
603.1132878483959
 31
0.0
  0
LINE
  5
31E
330
1F
100
AcDbEntity
  8
A-2_蓋
  6
Continuous
 62
     3
370
     9
100
AcDbLine
 10
-1465.134986671241
 20
1663.112702240815
 30
0.0
 11
-1465.134986671241
 21
2603.114318847656
 31
0.0
  0
LINE
  5
31F
330
1F
100
AcDbEntity
  8
A-2_蓋
  6
Continuous
 62
     3
370
     9
100
AcDbLine
 10
-1415.1385333087
 20
1663.112702240815
 30
0.0
 11
-1415.1385333087
 21
2603.114318847656
 31
0.0
  0
LINE
  5
320
330
1F
100
AcDbEntity
  8
A-2_蓋
  6
Continuous
 62
     3
370
     9
100
AcDbLine
 10
-1465.134986671241
 20
2663.113527040224
 30
0.0
 11
-1465.134986671241
 21
3603.113287848396
 31
0.0
  0
LINE
  5
321
330
1F
100
AcDbEntity
  8
A-2_蓋
  6
Continuous
 62
     3
370
     9
100
AcDbLine
 10
-1465.134986671241
 20
3663.11497043919
 30
0.0
 11
-1465.134986671241
 21
4138.109114363388
 31
0.0
  0
LINE
  5
322
330
1F
100
AcDbEntity
  8
A-2_蓋
  6
Continuous
 62
     3
370
     9
100
AcDbLine
 10
-1415.1385333087
 20
2663.113527040224
 30
0.0
 11
-1415.1385333087
 21
3603.113287848396
 31
0.0
  0
LINE
  5
323
330
1F
100
AcDbEntity
  8
A-2_蓋
  6
Continuous
 62
     3
370
     9
100
AcDbLine
 10
-1415.1385333087
 20
3663.11497043919
 30
0.0
 11
-1415.1385333087
 21
4138.109114363388
 31
0.0
  0
LINE
  5
324
330
1F
100
AcDbEntity
  8
A-2_蓋
  6
Continuous
 62
     3
370
     9
100
AcDbLine
 10
-1465.134986671241
 20
663.1131146405196
 30
0.0
 11
-1465.134986671241
 21
1603.113494048248
 31
0.0
  0
LINE
  5
325
330
1F
100
AcDbEntity
  8
A-2_蓋
  6
Continuous
 62
     3
370
     9
100
AcDbLine
 10
-1415.1385333087
 20
663.1131146405196
 30
0.0
 11
-1415.1385333087
 21
1603.113494048248
 31
0.0
  0
LINE
  5
326
330
1F
100
AcDbEntity
  8
A-2_蓋
  6
Continuous
 62
     3
370
     9
100
AcDbLine
 10
-1465.134986671241
 20
128.1117207295196
 30
0.0
 11
-1465.134986671241
 21
603.1132878483959
 31
0.0
  0
LINE
  5
327
330
1F
100
AcDbEntity
  8
A-2_蓋
  6
Continuous
 62
     3
370
     9
100
AcDbLine
 10
-1415.1385333087
 20
128.1117207295196
 30
0.0
 11
-1415.1385333087
 21
603.1132878483959
 31
0.0
  0
LINE
  5
328
330
1F
100
AcDbEntity
  8
A-2_蓋
  6
Continuous
 62
     3
370
     9
100
AcDbLine
 10
-1315.134986671241
 20
1663.112702240815
 30
0.0
 11
-1315.134986671241
 21
2603.114318847656
 31
0.0
  0
LINE
  5
329
330
1F
100
AcDbEntity
  8
A-2_蓋
  6
Continuous
 62
     3
370
     9
100
AcDbLine
 10
-1265.1385333087
 20
1663.112702240815
 30
0.0
 11
-1265.1385333087
 21
2603.114318847656
 31
0.0
  0
LINE
  5
32A
330
1F
100
AcDbEntity
  8
A-2_蓋
  6
Continuous
 62
     3
370
     9
100
AcDbLine
 10
-1315.134986671241
 20
2663.113527040224
 30
0.0
 11
-1315.134986671241
 21
3603.113287848396
 31
0.0
  0
LINE
  5
32B
330
1F
100
AcDbEntity
  8
A-2_蓋
  6
Continuous
 62
     3
370
     9
100
AcDbLine
 10
-1315.134986671241
 20
3663.11497043919
 30
0.0
 11
-1315.134986671241
 21
4138.109114363388
 31
0.0
  0
LINE
  5
32C
330
1F
100
AcDbEntity
  8
A-2_蓋
  6
Continuous
 62
     3
370
     9
100
AcDbLine
 10
-1265.1385333087
 20
2663.113527040224
 30
0.0
 11
-1265.1385333087
 21
3603.113287848396
 31
0.0
  0
LINE
  5
32D
330
1F
100
AcDbEntity
  8
A-2_蓋
  6
Continuous
 62
     3
370
     9
100
AcDbLine
 10
-1265.1385333087
 20
3663.11497043919
 30
0.0
 11
-1265.1385333087
 21
4138.109114363388
 31
0.0
  0
LINE
  5
32E
330
1F
100
AcDbEntity
  8
A-2_蓋
  6
Continuous
 62
     3
370
     9
100
AcDbLine
 10
-1315.134986671241
 20
663.1131146405196
 30
0.0
 11
-1315.134986671241
 21
1603.113494048248
 31
0.0
  0
LINE
  5
32F
330
1F
100
AcDbEntity
  8
A-2_蓋
  6
Continuous
 62
     3
370
     9
100
AcDbLine
 10
-1265.1385333087
 20
663.1131146405196
 30
0.0
 11
-1265.1385333087
 21
1603.113494048248
 31
0.0
  0
LINE
  5
330
330
1F
100
AcDbEntity
  8
A-2_蓋
  6
Continuous
 62
     3
370
     9
100
AcDbLine
 10
-1315.134986671241
 20
128.1117207295196
 30
0.0
 11
-1315.134986671241
 21
603.1132878483959
 31
0.0
  0
LINE
  5
331
330
1F
100
AcDbEntity
  8
A-2_蓋
  6
Continuous
 62
     3
370
     9
100
AcDbLine
 10
-1265.1385333087
 20
128.1117207295196
 30
0.0
 11
-1265.1385333087
 21
603.1132878483959
 31
0.0
  0
LINE
  5
332
330
1F
100
AcDbEntity
  8
A-4_寸法
  6
Continuous
 62
     7
370
     9
100
AcDbLine
 10
-2790.136759989971
 20
4483.959271253972
 30
0.0
 11
-2640.136759989971
 21
4483.959271253972
 31
0.0
  0
LWPOLYLINE
  5
333
330
1F
100
AcDbEntity
  8
A-4_寸法
  6
Continuous
 62
     7
370
     9
100
AcDbPolyline
 90
        4
 70
     1
 43
5.0
 10
-2787.636759989971
 20
4483.959271253972
 42
0.4142135623731
 10
-2790.136759989971
 20
4486.459271253971
 42
0.4142135623731
 10
-2792.63675998997
 20
4483.959271253972
 42
0.4142135623731
 10
-2790.136759989971
 20
4481.459271253972
 42
0.4142135623731
  0
LWPOLYLINE
  5
334
330
1F
100
AcDbEntity
  8
A-4_寸法
  6
Continuous
 62
     7
370
     9
100
AcDbPolyline
 90
        4
 70
     1
 43
5.0
 10
-2637.636759989971
 20
4483.959271253972
 42
0.4142135623731
 10
-2640.136759989971
 20
4486.459271253971
 42
0.4142135623731
 10
-2642.63675998997
 20
4483.959271253972
 42
0.4142135623731
 10
-2640.136759989971
 20
4481.459271253972
 42
0.4142135623731
  0
TEXT
  5
335
330
1F
100
AcDbEntity
  8
A-4_寸法
  6
Continuous
 62
     2
370
   211
100
AcDbText
 10
-2821.386759989971
 20
4542.15927125397
 30
0.0
 40
152.4
  1
15
 41
1.0625
  7
ＭＳ ゴシック
100
AcDbText
  0
LINE
  5
336
330
1F
100
AcDbEntity
  8
A-4_寸法
  6
Continuous
 62
     7
370
     9
100
AcDbLine
 10
-2790.136759989971
 20
4498.959271253971
 30
0.0
 11
-2790.136759989971
 21
4035.775909452274
 31
0.0
  0
LINE
  5
337
330
1F
100
AcDbEntity
  8
A-4_寸法
  6
Continuous
 62
     7
370
     9
100
AcDbLine
 10
-2640.136759989971
 20
4498.959271253971
 30
0.0
 11
-2640.136759989971
 21
4035.775909452274
 31
0.0
  0
LINE
  5
338
330
1F
100
AcDbEntity
  8
A-5_仕様文
  6
Continuous
 62
     7
370
     9
100
AcDbLine
 10
3341.03517274599
 20
4113.1139806799
 30
0.0
 11
3388.870239257812
 21
4228.599094700169
 31
0.0
  0
LINE
  5
339
330
1F
100
AcDbEntity
  8
A-5_仕様文
  6
Continuous
 62
     7
370
     9
100
AcDbLine
 10
3341.03517274599
 20
4113.1139806799
 30
0.0
 11
3417.130341400971
 21
4212.282912795608
 31
0.0
  0
LINE
  5
33A
330
1F
100
AcDbEntity
  8
A-5_仕様文
  6
Continuous
 62
     7
370
     9
100
AcDbLine
 10
3341.03517274599
 20
4113.1139806799
 30
0.0
 11
3901.064486116977
 21
5083.113964183912
 31
0.0
  0
LINE
  5
33B
330
1F
100
AcDbEntity
  8
A-5_仕様文
  6
Continuous
 62
     7
370
     9
100
AcDbLine
 10
3901.064486116977
 20
5083.113964183912
 30
0.0
 11
6747.808920370568
 21
5083.113964183912
 31
0.0
  0
TEXT
  5
33C
330
1F
100
AcDbEntity
  8
A-5_仕様文
  6
Continuous
 62
     7
370
     9
100
AcDbText
 10
3972.809910129857
 20
5194.74157252956
 30
0.0
 40
114.3
  1
かさ上げ材：□５５×４０×３．２
 41
1.15625
  7
ＭＳ ゴシック
100
AcDbText
  0
LINE
  5
33D
330
1F
100
AcDbEntity
  8
A-1_ピット
  6
JWW_DASHED1
 62
     2
370
     9
100
AcDbLine
 10
-6065.132347313133
 20
3713.113898199958
 30
0.0
 11
-1165.134986671241
 21
3713.113898199958
 31
0.0
  0
LINE
  5
33E
330
1F
100
AcDbEntity
  8
A-1_ピット
  6
JWW_DASHED1
 62
     2
370
     9
100
AcDbLine
 10
-6065.132347313133
 20
4113.1139806799
 30
0.0
 11
-1165.134986671241
 21
4113.1139806799
 31
0.0
  0
LINE
  5
33F
330
1F
100
AcDbEntity
  8
A-1_ピット
  6
JWW_DASHED1
 62
     2
370
     9
100
AcDbLine
 10
-1165.134986671241
 20
3713.113898199958
 30
0.0
 11
-1165.134986671241
 21
4113.1139806799
 31
0.0
  0
LINE
  5
340
330
1F
100
AcDbEntity
  8
A-1_ピット
  6
JWW_DASHED1
 62
     2
370
     9
100
AcDbLine
 10
-6065.132347313133
 20
553.1125042889571
 30
0.0
 11
-1165.134986671241
 21
553.1125042889571
 31
0.0
  0
LINE
  5
341
330
1F
100
AcDbEntity
  8
A-1_ピット
  6
JWW_DASHED1
 62
     2
370
     9
100
AcDbLine
 10
-6065.132347313133
 20
153.112421809017
 30
0.0
 11
-1165.134986671241
 21
153.112421809017
 31
0.0
  0
LINE
  5
342
330
1F
100
AcDbEntity
  8
A-1_ピット
  6
JWW_DASHED1
 62
     2
370
     9
100
AcDbLine
 10
-1165.134986671241
 20
553.1125042889571
 30
0.0
 11
-1165.134986671241
 21
153.112421809017
 31
0.0
  0
TEXT
  5
343
330
1F
100
AcDbEntity
  8
A-5_仕様文
  6
Continuous
 62
     7
370
     9
100
AcDbText
 10
4647.756339408258
 20
4881.373883551521
 30
0.0
 40
114.3
  1
（Ｌ＝４９０）
 41
1.142857142857143
  7
ＭＳ ゴシック
100
AcDbText
  0
LINE
  5
344
330
1F
100
AcDbEntity
  8
A-5_仕様文
  6
Continuous
 62
     7
370
     9
100
AcDbLine
 10
-4555.836404336465
 20
5760.440888275972
 30
0.0
 11
-2248.876375765413
 21
5760.440888275972
 31
0.0
  0
LINE
  5
345
330
1F
100
AcDbEntity
  8
A-5_仕様文
  6
Continuous
 62
     7
370
     9
100
AcDbLine
 10
-3997.108624432538
 20
4960.44072331609
 30
0.0
 11
-1620.576559530722
 21
4960.44072331609
 31
0.0
  0
LINE
  5
346
330
1F
100
AcDbEntity
  8
A-5_仕様文
  6
Continuous
 62
     7
370
     9
100
AcDbLine
 10
-4249.570238268054
 20
5360.442042995144
 30
0.0
 11
-2267.66076990076
 21
5360.442042995144
 31
0.0
  0
LINE
  5
347
330
1F
100
AcDbEntity
  8
A-5_仕様文
  6
Continuous
 62
     7
370
     9
100
AcDbLine
 10
-4265.1385333087
 20
3913.114558039486
 30
0.0
 11
-4248.822970003695
 21
4037.044793206293
 31
0.0
  0
LINE
  5
348
330
1F
100
AcDbEntity
  8
A-5_仕様文
  6
Continuous
 62
     7
370
     9
100
AcDbLine
 10
-4265.1385333087
 20
3913.114558039486
 30
0.0
 11
-4217.302848197319
 21
4028.599672059755
 31
0.0
  0
LINE
  5
349
330
1F
100
AcDbEntity
  8
A-5_仕様文
  6
Continuous
 62
     7
370
     9
100
AcDbLine
 10
-4965.87945061761
 20
4183.113469304266
 30
0.0
 11
-4949.563887312606
 21
4307.043704471072
 31
0.0
  0
LINE
  5
34A
330
1F
100
AcDbEntity
  8
A-5_仕様文
  6
Continuous
 62
     7
370
     9
100
AcDbLine
 10
-4965.87945061761
 20
4183.113469304266
 30
0.0
 11
-4918.043765506229
 21
4298.598583324537
 31
0.0
  0
LINE
  5
34B
330
1F
100
AcDbEntity
  8
A-5_仕様文
  6
Continuous
 62
     7
370
     9
100
AcDbLine
 10
-4265.1385333087
 20
3913.114558039486
 30
0.0
 11
-3997.108624432538
 21
4960.44072331609
 31
0.0
  0
LINE
  5
34C
330
1F
100
AcDbEntity
  8
A-5_仕様文
  6
Continuous
 62
     7
370
     9
100
AcDbLine
 10
-4965.87945061761
 20
4183.113469304266
 30
0.0
 11
-4555.836404336465
 21
5760.440888275972
 31
0.0
  0
LINE
  5
34D
330
1F
100
AcDbEntity
  8
A-5_仕様文
  6
Continuous
 62
     7
370
     9
100
AcDbLine
 10
-4663.633563067462
 20
3668.113254856419
 30
0.0
 11
-4249.570238268054
 21
5360.442042995144
 31
0.0
  0
LINE
  5
34E
330
1F
100
AcDbEntity
  8
A-5_仕様文
  6
Continuous
 62
     7
370
     9
100
AcDbLine
 10
-4663.633563067462
 20
3668.113254856419
 30
0.0
 11
-4650.028703019426
 21
3792.370110589105
 31
0.0
  0
LINE
  5
34F
330
1F
100
AcDbEntity
  8
A-5_仕様文
  6
Continuous
 62
     7
370
     9
100
AcDbLine
 10
-4663.633563067462
 20
3668.113254856419
 30
0.0
 11
-4618.331661739865
 21
3784.61534654772
 31
0.0
  0
TEXT
  5
350
330
1F
100
AcDbEntity
  8
A-5_仕様文
  6
Continuous
 62
     7
370
     9
100
AcDbText
 10
-3909.63553351325
 20
5043.58553367821
 30
0.0
 40
114.3
  1
メインバー ＤⅠ－３８ ＠15
 41
1.16025641025641
  7
ＭＳ ゴシック
100
AcDbText
  0
TEXT
  5
351
330
1F
100
AcDbEntity
  8
A-5_仕様文
  6
Continuous
 62
     7
370
     9
100
AcDbText
 10
-4511.376396385399
 20
5848.723786555109
 30
0.0
 40
114.3
  1
エンドプレート ＦＢ32×4.5
 41
1.16025641025641
  7
ＭＳ ゴシック
100
AcDbText
  0
TEXT
  5
352
330
1F
100
AcDbEntity
  8
A-5_仕様文
  6
Continuous
 62
     7
370
     9
100
AcDbText
 10
-4166.722519333298
 20
5441.484852063979
 30
0.0
 40
114.3
  1
クロスバー φ６ ＠100
 41
1.158730158730159
  7
ＭＳ ゴシック
100
AcDbText
  0
TEXT
  5
353
330
1F
100
AcDbEntity
  8
A-4_寸法
  6
Continuous
 62
     2
370
     9
100
AcDbText
 10
1926.848870354731
 20
-4855.134020666174
 30
0.0
 40
152.4
  1
定尺：５００
 41
1.104166666666666
  7
ＭＳ ゴシック
100
AcDbText
  0
TEXT
  5
354
330
1F
100
AcDbEntity
  8
A-5_仕様文
  6
Continuous
 62
     7
370
     9
100
AcDbText
 10
-4215.188437040066
 20
-6612.2145382443
 30
0.0
 40
114.3
  1
かさあげ型　細目ノンスリップタイプ　
 41
1.157407407407407
  7
ＭＳ ゴシック
100
AcDbText
  0
TEXT
  5
355
330
1F
100
AcDbEntity
  8
A-5_仕様文
  6
Continuous
 62
     7
370
     9
100
AcDbText
 10
-3141.253145419452
 20
-6807.951809939823
 30
0.0
 40
114.3
  1
ＪＩＳ型側溝用　スチール製グレーチング　ＱＸＪ　４１３８Ａ
 41
1.160919540229885
  7
ＭＳ ゴシック
100
AcDbText
  0
ENDSEC
  0
SECTION
  2
OBJECTS
  0
DICTIONARY
  5
C
330
0
100
AcDbDictionary
281
     1
  3
ACAD_GROUP
350
D
  3
ACAD_LAYOUT
350
1A
  3
ACAD_MLEADERSTYLE
350
357
  3
ACAD_MLINESTYLE
350
17
  3
ACAD_PLOTSETTINGS
350
19
  3
ACAD_PLOTSTYLENAME
350
E
  3
ACAD_TABLESTYLE
350
356
  3
ACAD_VISUALSTYLE
350
2A
  0
DICTIONARY
  5
D
102
{ACAD_REACTORS
330
C
102
}
330
C
100
AcDbDictionary
281
     1
  0
DICTIONARY
  5
1A
102
{ACAD_REACTORS
330
C
102
}
330
C
100
AcDbDictionary
281
     1
  3
Layout1
350
1E
  3
Layout2
350
26
  3
Model
350
22
  0
DICTIONARY
  5
357
102
{ACAD_REACTORS
330
C
102
}
330
C
100
AcDbDictionary
281
     1
  0
DICTIONARY
  5
17
102
{ACAD_REACTORS
330
C
102
}
330
C
100
AcDbDictionary
281
     1
  3
Standard
350
18
  0
DICTIONARY
  5
19
102
{ACAD_REACTORS
330
C
102
}
330
C
100
AcDbDictionary
281
     1
  0
ACDBDICTIONARYWDFLT
  5
E
102
{ACAD_REACTORS
330
C
102
}
330
C
100
AcDbDictionary
281
     1
  3
Normal
350
F
100
AcDbDictionaryWithDefault
340
F
  0
DICTIONARY
  5
356
102
{ACAD_REACTORS
330
C
102
}
330
C
100
AcDbDictionary
281
     1
  0
DICTIONARY
  5
2A
102
{ACAD_REACTORS
330
C
102
}
330
C
100
AcDbDictionary
281
     1
  3
2dWireframe
350
2F
  3
3D Hidden
350
31
  3
3dWireframe
350
30
  3
Basic
350
32
  3
Brighten
350
36
  3
ColorChange
350
3A
  3
Conceptual
350
34
  3
Dim
350
35
  3
Facepattern
350
39
  3
Flat
350
2B
  3
FlatWithEdges
350
2C
  3
Gouraud
350
2D
  3
GouraudWithEdges
350
2E
  3
Linepattern
350
38
  3
Realistic
350
33
  3
Thicken
350
37
  0
LAYOUT
  5
1E
102
{ACAD_REACTORS
330
1A
102
}
330
1A
100
AcDbPlotSettings
  1

  2
none_device
  4

  6

 40
0.0
 41
0.0
 42
0.0
 43
0.0
 44
0.0
 45
0.0
 46
0.0
 47
0.0
 48
0.0
 49
0.0
140
0.0
141
0.0
142
1.0
143
1.0
 70
   688
 72
     0
 73
     0
 74
     5
  7

 75
    16
 76
     0
 77
     5
 78
   300
147
1.0
148
0.0
149
0.0
100
AcDbLayout
  1
Layout1
 70
     1
 71
     1
 10
0.0
 20
0.0
 11
420.0
 21
297.0
 12
0.0
 22
0.0
 32
0.0
 14
1.000000000000000E+20
 24
1.000000000000000E+20
 34
1.000000000000000E+20
 15
-1.000000000000000E+20
 25
-1.000000000000000E+20
 35
-1.000000000000000E+20
146
0.0
 13
0.0
 23
0.0
 33
0.0
 16
1.0
 26
0.0
 36
0.0
 17
0.0
 27
1.0
 37
0.0
 76
     0
330
1B
  0
LAYOUT
  5
26
102
{ACAD_REACTORS
330
1A
102
}
330
1A
100
AcDbPlotSettings
  1

  2
none_device
  4

  6

 40
0.0
 41
0.0
 42
0.0
 43
0.0
 44
0.0
 45
0.0
 46
0.0
 47
0.0
 48
0.0
 49
0.0
140
0.0
141
0.0
142
1.0
143
1.0
 70
   688
 72
     0
 73
     0
 74
     5
  7

 75
    16
 76
     0
 77
     5
 78
   300
147
1.0
148
0.0
149
0.0
100
AcDbLayout
  1
Layout2
 70
     1
 71
     2
 10
0.0
 20
0.0
 11
0.0
 21
0.0
 12
0.0
 22
0.0
 32
0.0
 14
0.0
 24
0.0
 34
0.0
 15
0.0
 25
0.0
 35
0.0
146
0.0
 13
0.0
 23
0.0
 33
0.0
 16
1.0
 26
0.0
 36
0.0
 17
0.0
 27
1.0
 37
0.0
 76
     0
330
23
  0
LAYOUT
  5
22
102
{ACAD_REACTORS
330
1A
102
}
330
1A
100
AcDbPlotSettings
  1

  2
none_device
  4

  6

 40
0.0
 41
0.0
 42
0.0
 43
0.0
 44
0.0
 45
0.0
 46
0.0
 47
0.0
 48
0.0
 49
0.0
140
0.0
141
0.0
142
1.0
143
1.0
 70
  1712
 72
     0
 73
     0
 74
     0
  7

 75
     0
 76
     0
 77
     5
 78
   300
147
1.0
148
0.0
149
0.0
100
AcDbLayout
  1
Model
 70
     1
 71
     0
 10
-10500.0
 20
-7425.0
 11
10500.0
 21
7425.0
 12
0.0
 22
0.0
 32
0.0
 14
-10500.0
 24
-7425.0
 34
0.0
 15
10500.0
 25
7425.0
 35
0.0
146
0.0
 13
0.0
 23
0.0
 33
0.0
 16
1.0
 26
0.0
 36
0.0
 17
0.0
 27
1.0
 37
0.0
 76
     0
330
1F
331
29
  0
MLINESTYLE
  5
18
102
{ACAD_REACTORS
330
17
102
}
330
17
100
AcDbMlineStyle
  2
Standard
 70
     0
  3

 62
   256
 51
90.0
 52
90.0
 71
     2
 49
0.5
 62
   256
  6
BYLAYER
 49
-0.5
 62
   256
  6
BYLAYER
  0
ACDBPLACEHOLDER
  5
F
102
{ACAD_REACTORS
330
E
102
}
330
E
  0
VISUALSTYLE
  5
2F
102
{ACAD_REACTORS
330
2A
102
}
330
2A
100
AcDbVisualStyle
  2
2dWireframe
 70
     4
 71
     0
 72
     2
 73
     0
 90
        0
 40
-0.6
 41
-30.0
 62
     5
 63
     7
421
 16777215
 74
     1
 91
        4
 64
     7
 65
   257
 75
     1
175
     1
 42
1.0
 92
        0
 66
   257
 43
1.0
 76
     1
 77
     6
 78
     2
 67
     7
 79
     5
170
     0
171
     0
290
     0
174
     0
 93
        1
 44
0.0
173
     0
291
     0
 45
0.0
1001
ACAD
1000
AcDbSavedByObjectVersion
1070
     0
  0
VISUALSTYLE
  5
31
102
{ACAD_REACTORS
330
2A
102
}
330
2A
100
AcDbVisualStyle
  2
3D Hidden
 70
     6
 71
     1
 72
     2
 73
     2
 90
        0
 40
-0.6
 41
-30.0
 62
     5
 63
     7
421
 16777215
 74
     2
 91
        2
 64
     7
 65
   257
 75
     2
175
     1
 42
40.0
 92
        0
 66
   257
 43
1.0
 76
     1
 77
     6
 78
     2
 67
     7
 79
     3
170
     0
171
     0
290
     0
174
     0
 93
        1
 44
0.0
173
     0
291
     0
 45
0.0
1001
ACAD
1000
AcDbSavedByObjectVersion
1070
     0
  0
VISUALSTYLE
  5
30
102
{ACAD_REACTORS
330
2A
102
}
330
2A
100
AcDbVisualStyle
  2
3dWireframe
 70
     5
 71
     0
 72
     2
 73
     0
 90
        0
 40
-0.6
 41
-30.0
 62
     5
 63
     7
421
 16777215
 74
     1
 91
        4
 64
     7
 65
   257
 75
     1
175
     1
 42
1.0
 92
        0
 66
   257
 43
1.0
 76
     1
 77
     6
 78
     2
 67
     7
 79
     5
170
     0
171
     0
290
     0
174
     0
 93
        1
 44
0.0
173
     0
291
     0
 45
0.0
1001
ACAD
1000
AcDbSavedByObjectVersion
1070
     0
  0
VISUALSTYLE
  5
32
102
{ACAD_REACTORS
330
2A
102
}
330
2A
100
AcDbVisualStyle
  2
Basic
 70
     7
 71
     1
 72
     0
 73
     1
 90
        0
 40
-0.6
 41
-30.0
 62
     5
 63
     7
421
 16777215
 74
     0
 91
        4
 64
     7
 65
   257
 75
     1
175
     1
 42
1.0
 92
        8
 66
     7
 43
1.0
 76
     1
 77
     6
 78
     2
 67
     7
 79
     5
170
     0
171
     0
290
     0
174
     0
 93
        1
 44
0.0
173
     0
291
     1
 45
0.0
1001
ACAD
1000
AcDbSavedByObjectVersion
1070
     0
  0
VISUALSTYLE
  5
36
102
{ACAD_REACTORS
330
2A
102
}
330
2A
100
AcDbVisualStyle
  2
Brighten
 70
    12
 71
     2
 72
     2
 73
     0
 90
        0
 40
-0.6
 41
-30.0
 62
     5
 63
     7
421
 16777215
 74
     1
 91
        4
 64
     7
 65
   257
 75
     1
175
     1
 42
1.0
 92
        8
 66
     7
 43
1.0
 76
     1
 77
     6
 78
     2
 67
     7
 79
     5
170
     0
171
     0
290
     0
174
     0
 93
        1
 44
50.0
173
     0
291
     1
 45
0.0
1001
ACAD
1000
AcDbSavedByObjectVersion
1070
     0
  0
VISUALSTYLE
  5
3A
102
{ACAD_REACTORS
330
2A
102
}
330
2A
100
AcDbVisualStyle
  2
ColorChange
 70
    16
 71
     2
 72
     2
 73
     3
 90
        0
 40
-0.6
 41
-30.0
 62
     5
 63
     8
421
  8421504
 74
     1
 91
        4
 64
     7
 65
   257
 75
     1
175
     1
 42
1.0
 92
        8
 66
     8
424
  8421504
 43
1.0
 76
     1
 77
     6
 78
     2
 67
     7
 79
     5
170
     0
171
     0
290
     0
174
     0
 93
        1
 44
0.0
173
     0
291
     1
 45
0.0
1001
ACAD
1000
AcDbSavedByObjectVersion
1070
     0
  0
VISUALSTYLE
  5
34
102
{ACAD_REACTORS
330
2A
102
}
330
2A
100
AcDbVisualStyle
  2
Conceptual
 70
     9
 71
     3
 72
     2
 73
     0
 90
        0
 40
-0.6
 41
-30.0
 62
     5
 63
     7
421
 16777215
 74
     2
 91
        2
 64
     7
 65
   257
 75
     1
175
     1
 42
40.0
 92
        8
 66
     7
 43
1.0
 76
     1
 77
     6
 78
     2
 67
     7
 79
     3
170
     0
171
     0
290
     0
174
     0
 93
        1
 44
0.0
173
     0
291
     0
 45
0.0
1001
ACAD
1000
AcDbSavedByObjectVersion
1070
     0
  0
VISUALSTYLE
  5
35
102
{ACAD_REACTORS
330
2A
102
}
330
2A
100
AcDbVisualStyle
  2
Dim
 70
    11
 71
     2
 72
     2
 73
     0
 90
        0
 40
-0.6
 41
-30.0
 62
     5
 63
     7
421
 16777215
 74
     1
 91
        4
 64
     7
 65
   257
 75
     1
175
     1
 42
1.0
 92
        8
 66
     7
 43
1.0
 76
     1
 77
     6
 78
     2
 67
     7
 79
     5
170
     0
171
     0
290
     0
174
     0
 93
        1
 44
-50.0
173
     0
291
     1
 45
0.0
1001
ACAD
1000
AcDbSavedByObjectVersion
1070
     0
  0
VISUALSTYLE
  5
39
102
{ACAD_REACTORS
330
2A
102
}
330
2A
100
AcDbVisualStyle
  2
Facepattern
 70
    15
 71
     2
 72
     2
 73
     0
 90
        0
 40
-0.6
 41
-30.0
 62
     5
 63
     7
421
 16777215
 74
     1
 91
        4
 64
     7
 65
   257
 75
     1
175
     1
 42
1.0
 92
        8
 66
     7
 43
1.0
 76
     1
 77
     6
 78
     2
 67
     7
 79
     5
170
     0
171
     0
290
     0
174
     0
 93
        1
 44
0.0
173
     0
291
     1
 45
0.0
1001
ACAD
1000
AcDbSavedByObjectVersion
1070
     0
  0
VISUALSTYLE
  5
2B
102
{ACAD_REACTORS
330
2A
102
}
330
2A
100
AcDbVisualStyle
  2
Flat
 70
     0
 71
     2
 72
     1
 73
     1
 90
        2
 40
-0.6
 41
30.0
 62
     5
 63
     7
421
 16777215
 74
     0
 91
        4
 64
     7
 65
   257
 75
     1
175
     1
 42
1.0
 92
        8
 66
     7
 43
1.0
 76
     1
 77
     6
 78
     2
 67
     7
 79
     5
170
     0
171
     0
290
     0
174
     0
 93
       13
 44
0.0
173
     0
291
     1
 45
0.0
1001
ACAD
1000
AcDbSavedByObjectVersion
1070
     0
  0
VISUALSTYLE
  5
2C
102
{ACAD_REACTORS
330
2A
102
}
330
2A
100
AcDbVisualStyle
  2
FlatWithEdges
 70
     1
 71
     2
 72
     1
 73
     1
 90
        2
 40
-0.6
 41
30.0
 62
     5
 63
     7
421
 16777215
 74
     1
 91
        4
 64
     7
 65
   257
 75
     1
175
     1
 42
1.0
 92
        0
 66
   257
 43
1.0
 76
     1
 77
     6
 78
     2
 67
     7
 79
     5
170
     0
171
     0
290
     0
174
     0
 93
       13
 44
0.0
173
     0
291
     1
 45
0.0
1001
ACAD
1000
AcDbSavedByObjectVersion
1070
     0
  0
VISUALSTYLE
  5
2D
102
{ACAD_REACTORS
330
2A
102
}
330
2A
100
AcDbVisualStyle
  2
Gouraud
 70
     2
 71
     2
 72
     2
 73
     1
 90
        2
 40
-0.6
 41
30.0
 62
     5
 63
     7
421
 16777215
 74
     0
 91
        4
 64
     7
 65
   257
 75
     1
175
     1
 42
1.0
 92
        0
 66
     7
 43
1.0
 76
     1
 77
     6
 78
     2
 67
     7
 79
     5
170
     0
171
     0
290
     0
174
     0
 93
       13
 44
0.0
173
     0
291
     1
 45
0.0
1001
ACAD
1000
AcDbSavedByObjectVersion
1070
     0
  0
VISUALSTYLE
  5
2E
102
{ACAD_REACTORS
330
2A
102
}
330
2A
100
AcDbVisualStyle
  2
GouraudWithEdges
 70
     3
 71
     2
 72
     2
 73
     1
 90
        2
 40
-0.6
 41
30.0
 62
     5
 63
     7
421
 16777215
 74
     1
 91
        4
 64
     7
 65
   257
 75
     1
175
     1
 42
1.0
 92
        0
 66
   257
 43
1.0
 76
     1
 77
     6
 78
     2
 67
     7
 79
     5
170
     0
171
     0
290
     0
174
     0
 93
       13
 44
0.0
173
     0
291
     1
 45
0.0
1001
ACAD
1000
AcDbSavedByObjectVersion
1070
     0
  0
VISUALSTYLE
  5
38
102
{ACAD_REACTORS
330
2A
102
}
330
2A
100
AcDbVisualStyle
  2
Linepattern
 70
    14
 71
     2
 72
     2
 73
     0
 90
        0
 40
-0.6
 41
-30.0
 62
     5
 63
     7
421
 16777215
 74
     1
 91
        4
 64
     7
 65
   257
 75
     7
175
     7
 42
1.0
 92
        8
 66
     7
 43
1.0
 76
     1
 77
     6
 78
     2
 67
     7
 79
     5
170
     0
171
     0
290
     0
174
     0
 93
        1
 44
0.0
173
     0
291
     1
 45
0.0
1001
ACAD
1000
AcDbSavedByObjectVersion
1070
     0
  0
VISUALSTYLE
  5
33
102
{ACAD_REACTORS
330
2A
102
}
330
2A
100
AcDbVisualStyle
  2
Realistic
 70
     8
 71
     2
 72
     2
 73
     0
 90
        0
 40
-0.6
 41
-30.0
 62
     5
 63
     7
421
 16777215
 74
     1
 91
        0
 64
     7
 65
   257
 75
     1
175
     1
 42
1.0
 92
        8
 66
     8
424
  7895160
 43
1.0
 76
     1
 77
     6
 78
     2
 67
     7
 79
     5
170
     0
171
     0
290
     0
174
     0
 93
       13
 44
0.0
173
     0
291
     0
 45
0.0
1001
ACAD
1000
AcDbSavedByObjectVersion
1070
     0
  0
VISUALSTYLE
  5
37
102
{ACAD_REACTORS
330
2A
102
}
330
2A
100
AcDbVisualStyle
  2
Thicken
 70
    13
 71
     2
 72
     2
 73
     0
 90
        0
 40
-0.6
 41
-30.0
 62
     5
 63
     7
421
 16777215
 74
     1
 91
        4
 64
     7
 65
   257
 75
     1
175
     1
 42
1.0
 92
       12
 66
     7
 43
1.0
 76
     1
 77
     6
 78
     2
 67
     7
 79
     5
170
     0
171
     0
290
     0
174
     0
 93
        1
 44
0.0
173
     0
291
     1
 45
0.0
1001
ACAD
1000
AcDbSavedByObjectVersion
1070
     0
  0
ENDSEC
  0
EOF
