  0
SECTION
  2
HEADER
  9
$ACADVER
  1
AC1018
  9
$ACADMAINTVER
 70
     0
  9
$DWGCODEPAGE
  3
ANSI_932
  9
$INSBASE
 10
0.0
 20
0.0
 30
0.0
  9
$EXTMIN
 10
-2100.0
 20
-1485.0
 30
0.0
  9
$EXTMAX
 10
2100.0
 20
1485.0
 30
0.0
  9
$LIMMIN
 10
-2100.0
 20
-1485.0
  9
$LIMMAX
 10
2100.0
 20
1485.0
  9
$ORTHOMODE
 70
     0
  9
$REGENMODE
 70
     1
  9
$FILLMODE
 70
     1
  9
$QTEXTMODE
 70
     0
  9
$MIRRTEXT
 70
     1
  9
$LTSCALE
 40
10.0
  9
$ATTMODE
 70
     1
  9
$TEXTSIZE
 40
2.5
  9
$TRACEWID
 40
1.0
  9
$TEXTSTYLE
  7
Standard
  9
$CLAYER
  8
0
  9
$CELTYPE
  6
ByLayer
  9
$CECOLOR
 62
   256
  9
$CELTSCALE
 40
1.0
  9
$DISPSILH
 70
     0
  9
$DIMSCALE
 40
1.0
  9
$DIMASZ
 40
2.5
  9
$DIMEXO
 40
0.625
  9
$DIMDLI
 40
3.75
  9
$DIMRND
 40
0.0
  9
$DIMDLE
 40
0.0
  9
$DIMEXE
 40
1.25
  9
$DIMTP
 40
0.0
  9
$DIMTM
 40
0.0
  9
$DIMTXT
 40
2.5
  9
$DIMCEN
 40
2.5
  9
$DIMTSZ
 40
0.0
  9
$DIMTOL
 70
     0
  9
$DIMLIM
 70
     0
  9
$DIMTIH
 70
     0
  9
$DIMTOH
 70
     0
  9
$DIMSE1
 70
     0
  9
$DIMSE2
 70
     0
  9
$DIMTAD
 70
     1
  9
$DIMZIN
 70
     8
  9
$DIMBLK
  1

  9
$DIMASO
 70
     1
  9
$DIMSHO
 70
     1
  9
$DIMPOST
  1

  9
$DIMAPOST
  1

  9
$DIMALT
 70
     0
  9
$DIMALTD
 70
     3
  9
$DIMALTF
 40
0.03937007874016
  9
$DIMLFAC
 40
1.0
  9
$DIMTOFL
 70
     1
  9
$DIMTVP
 40
0.0
  9
$DIMTIX
 70
     0
  9
$DIMSOXD
 70
     0
  9
$DIMSAH
 70
     0
  9
$DIMBLK1
  1

  9
$DIMBLK2
  1

  9
$DIMSTYLE
  2
ISO-25
  9
$DIMCLRD
 70
     0
  9
$DIMCLRE
 70
     0
  9
$DIMCLRT
 70
     0
  9
$DIMTFAC
 40
1.0
  9
$DIMGAP
 40
0.625
  9
$DIMJUST
 70
     0
  9
$DIMSD1
 70
     0
  9
$DIMSD2
 70
     0
  9
$DIMTOLJ
 70
     0
  9
$DIMTZIN
 70
     8
  9
$DIMALTZ
 70
     0
  9
$DIMALTTZ
 70
     0
  9
$DIMUPT
 70
     0
  9
$DIMDEC
 70
     2
  9
$DIMTDEC
 70
     2
  9
$DIMALTU
 70
     2
  9
$DIMALTTD
 70
     3
  9
$DIMTXSTY
  7
Standard
  9
$DIMAUNIT
 70
     0
  9
$DIMADEC
 70
     0
  9
$DIMALTRND
 40
0.0
  9
$DIMAZIN
 70
     0
  9
$DIMDSEP
 70
    44
  9
$DIMATFIT
 70
     3
  9
$DIMFRAC
 70
     0
  9
$DIMLDRBLK
  1

  9
$DIMLUNIT
 70
     2
  9
$DIMLWD
 70
    -2
  9
$DIMLWE
 70
    -2
  9
$DIMTMOVE
 70
     0
  9
$LUNITS
 70
     2
  9
$LUPREC
 70
     4
  9
$SKETCHINC
 40
1.0
  9
$FILLETRAD
 40
10.0
  9
$AUNITS
 70
     0
  9
$AUPREC
 70
     0
  9
$MENU
  1
.
  9
$ELEVATION
 40
0.0
  9
$PELEVATION
 40
0.0
  9
$THICKNESS
 40
0.0
  9
$LIMCHECK
 70
     0
  9
$CHAMFERA
 40
10.0
  9
$CHAMFERB
 40
10.0
  9
$CHAMFERC
 40
20.0
  9
$CHAMFERD
 40
0.0
  9
$SKPOLY
 70
     0
  9
$TDCREATE
 40
2456499.582821123
  9
$TDUCREATE
 40
2456499.207821123
  9
$TDUPDATE
 40
2456499.582821134
  9
$TDUUPDATE
 40
2456499.207821134
  9
$TDINDWG
 40
0.0000000116
  9
$TDUSRTIMER
 40
0.0000000116
  9
$USRTIMER
 70
     1
  9
$ANGBASE
 50
0.0
  9
$ANGDIR
 70
     0
  9
$PDMODE
 70
     0
  9
$PDSIZE
 40
0.0
  9
$PLINEWID
 40
0.0
  9
$SPLFRAME
 70
     0
  9
$SPLINETYPE
 70
     6
  9
$SPLINESEGS
 70
     8
  9
$HANDSEED
  5
43C
  9
$SURFTAB1
 70
     6
  9
$SURFTAB2
 70
     6
  9
$SURFTYPE
 70
     6
  9
$SURFU
 70
     6
  9
$SURFV
 70
     6
  9
$UCSBASE
  2

  9
$UCSNAME
  2

  9
$UCSORG
 10
0.0
 20
0.0
 30
0.0
  9
$UCSXDIR
 10
1.0
 20
0.0
 30
0.0
  9
$UCSYDIR
 10
0.0
 20
1.0
 30
0.0
  9
$UCSORTHOREF
  2

  9
$UCSORTHOVIEW
 70
     0
  9
$UCSORGTOP
 10
0.0
 20
0.0
 30
0.0
  9
$UCSORGBOTTOM
 10
0.0
 20
0.0
 30
0.0
  9
$UCSORGLEFT
 10
0.0
 20
0.0
 30
0.0
  9
$UCSORGRIGHT
 10
0.0
 20
0.0
 30
0.0
  9
$UCSORGFRONT
 10
0.0
 20
0.0
 30
0.0
  9
$UCSORGBACK
 10
0.0
 20
0.0
 30
0.0
  9
$PUCSBASE
  2

  9
$PUCSNAME
  2

  9
$PUCSORG
 10
0.0
 20
0.0
 30
0.0
  9
$PUCSXDIR
 10
1.0
 20
0.0
 30
0.0
  9
$PUCSYDIR
 10
0.0
 20
1.0
 30
0.0
  9
$PUCSORTHOREF
  2

  9
$PUCSORTHOVIEW
 70
     0
  9
$PUCSORGTOP
 10
0.0
 20
0.0
 30
0.0
  9
$PUCSORGBOTTOM
 10
0.0
 20
0.0
 30
0.0
  9
$PUCSORGLEFT
 10
0.0
 20
0.0
 30
0.0
  9
$PUCSORGRIGHT
 10
0.0
 20
0.0
 30
0.0
  9
$PUCSORGFRONT
 10
0.0
 20
0.0
 30
0.0
  9
$PUCSORGBACK
 10
0.0
 20
0.0
 30
0.0
  9
$USERI1
 70
     0
  9
$USERI2
 70
     0
  9
$USERI3
 70
     0
  9
$USERI4
 70
     0
  9
$USERI5
 70
     0
  9
$USERR1
 40
0.0
  9
$USERR2
 40
0.0
  9
$USERR3
 40
0.0
  9
$USERR4
 40
0.0
  9
$USERR5
 40
0.0
  9
$WORLDVIEW
 70
     1
  9
$SHADEDGE
 70
     3
  9
$SHADEDIF
 70
    70
  9
$TILEMODE
 70
     1
  9
$MAXACTVP
 70
    64
  9
$PINSBASE
 10
0.0
 20
0.0
 30
0.0
  9
$PLIMCHECK
 70
     0
  9
$PEXTMIN
 10
1.000000000000000E+20
 20
1.000000000000000E+20
 30
1.000000000000000E+20
  9
$PEXTMAX
 10
-1.000000000000000E+20
 20
-1.000000000000000E+20
 30
-1.000000000000000E+20
  9
$PLIMMIN
 10
0.0
 20
0.0
  9
$PLIMMAX
 10
420.0
 20
297.0
  9
$UNITMODE
 70
     0
  9
$VISRETAIN
 70
     1
  9
$PLINEGEN
 70
     0
  9
$PSLTSCALE
 70
     1
  9
$TREEDEPTH
 70
  3020
  9
$CMLSTYLE
  2
Standard
  9
$CMLJUST
 70
     0
  9
$CMLSCALE
 40
20.0
  9
$PROXYGRAPHICS
 70
     1
  9
$MEASUREMENT
 70
     1
  9
$CELWEIGHT
370
    -1
  9
$ENDCAPS
280
     0
  9
$JOINSTYLE
280
     0
  9
$LWDISPLAY
290
     0
  9
$INSUNITS
 70
     4
  9
$HYPERLINKBASE
  1

  9
$STYLESHEET
  1

  9
$XEDIT
290
     1
  9
$CEPSNTYPE
380
     0
  9
$PSTYLEMODE
290
     1
  9
$FINGERPRINTGUID
  2
{A110D8A3-7B4E-4A62-BAAB-048E26976E0F}
  9
$VERSIONGUID
  2
{FAEB1C32-E019-11D5-929B-00C0DF256EC4}
  9
$EXTNAMES
290
     1
  9
$PSVPSCALE
 40
0.0
  9
$OLESTARTUP
290
     0
  9
$SORTENTS
280
   127
  9
$INDEXCTL
280
     0
  9
$HIDETEXT
280
     1
  9
$XCLIPFRAME
290
     0
  9
$HALOGAP
280
     0
  9
$OBSCOLOR
 70
   257
  9
$OBSLTYPE
280
     0
  9
$INTERSECTIONDISPLAY
280
     0
  9
$INTERSECTIONCOLOR
 70
   257
  9
$DIMASSOC
280
     2
  9
$PROJECTNAME
  1

  0
ENDSEC
  0
SECTION
  2
CLASSES
  0
CLASS
  1
ACDBDICTIONARYWDFLT
  2
AcDbDictionaryWithDefault
  3
ObjectDBX Classes
 90
        0
 91
        4
280
     0
281
     0
  0
CLASS
  1
VISUALSTYLE
  2
AcDbVisualStyle
  3
ObjectDBX Classes
 90
     4095
 91
        4
280
     0
281
     0
  0
ENDSEC
  0
SECTION
  2
TABLES
  0
TABLE
  2
VPORT
  5
8
330
0
100
AcDbSymbolTable
 70
     1
  0
VPORT
  5
29
330
8
100
AcDbSymbolTableRecord
100
AcDbViewportTableRecord
  2
*Active
 70
     0
 10
0.0
 20
0.0
 11
1.0
 21
1.0
 12
0.0
 22
0.0
 13
0.0
 23
0.0
 14
10.0
 24
10.0
 15
10.0
 25
10.0
 16
0.0
 26
0.0
 36
1.0
 17
0.0
 27
0.0
 37
0.0
 40
3267.0
 41
1.414141414141414
 42
50.0
 43
0.0
 44
0.0
 50
0.0
 51
0.0
 71
     0
 72
 10000
 73
     1
 74
     3
 75
     0
 76
     0
 77
     0
 78
     0
281
     0
 65
     1
110
0.0
120
0.0
130
0.0
111
1.0
121
0.0
131
0.0
112
0.0
122
1.0
132
0.0
 79
     0
146
0.0
  0
ENDTAB
  0
TABLE
  2
LTYPE
  5
5
330
0
100
AcDbSymbolTable
 70
     4
  0
LTYPE
  5
14
330
5
100
AcDbSymbolTableRecord
100
AcDbLinetypeTableRecord
  2
ByBlock
 70
     0
  3

 72
    65
 73
     0
 40
0.0
  0
LTYPE
  5
15
330
5
100
AcDbSymbolTableRecord
100
AcDbLinetypeTableRecord
  2
ByLayer
 70
     0
  3

 72
    65
 73
     0
 40
0.0
  0
LTYPE
  5
16
330
5
100
AcDbSymbolTableRecord
100
AcDbLinetypeTableRecord
  2
Continuous
 70
     0
  3
Solid line
 72
    65
 73
     0
 40
0.0
  0
LTYPE
  5
3C
330
5
100
AcDbSymbolTableRecord
100
AcDbLinetypeTableRecord
  2
JWW_HOJO
 70
     0
  3
  -   -   -   -   -   -   -   - 
 72
    65
 73
     2
 40
1.693333333333333
 49
-1.27
 74
     0
 49
0.4233333333333333
 74
     0
  0
LTYPE
  5
3D
330
5
100
AcDbSymbolTableRecord
100
AcDbLinetypeTableRecord
  2
JWW_CENTER1
 70
     0
  3
-----  --  ----------  --  -----
 72
    65
 73
     4
 40
6.773333333333333
 49
4.233333333333333
 74
     0
 49
-0.8466666666666667
 74
     0
 49
0.8466666666666667
 74
     0
 49
-0.8466666666666667
 74
     0
  0
LTYPE
  5
3E
330
5
100
AcDbSymbolTableRecord
100
AcDbLinetypeTableRecord
  2
JWW_DASHED1
 70
     0
  3
-  --  --  --  --  --  --  --  -
 72
    65
 73
     2
 40
0.508
 49
0.254
 74
     0
 49
-0.254
 74
     0
  0
ENDTAB
  0
TABLE
  2
LAYER
  5
2
330
0
100
AcDbSymbolTable
 70
     6
  0
LAYER
  5
10
330
2
100
AcDbSymbolTableRecord
100
AcDbLayerTableRecord
  2
0
 70
     0
 62
     7
  6
Continuous
370
    -3
390
F
  0
LAYER
  5
3F
330
2
100
AcDbSymbolTableRecord
100
AcDbLayerTableRecord
  2
1-1
 70
     0
 62
     7
  6
Continuous
370
    -3
390
F
  0
LAYER
  5
40
330
2
100
AcDbSymbolTableRecord
100
AcDbLayerTableRecord
  2
1-4
 70
     0
 62
     7
  6
Continuous
370
    -3
390
F
  0
LAYER
  5
41
330
2
100
AcDbSymbolTableRecord
100
AcDbLayerTableRecord
  2
1-2
 70
     0
 62
     7
  6
Continuous
370
    -3
390
F
  0
LAYER
  5
42
330
2
100
AcDbSymbolTableRecord
100
AcDbLayerTableRecord
  2
1-5
 70
     0
 62
     7
  6
Continuous
370
    -3
390
F
  0
LAYER
  5
43
330
2
100
AcDbSymbolTableRecord
100
AcDbLayerTableRecord
  2
A-5
 70
     0
 62
     7
  6
Continuous
370
    -3
390
F
  0
ENDTAB
  0
TABLE
  2
STYLE
  5
3
330
0
100
AcDbSymbolTable
 70
     2
  0
STYLE
  5
11
330
3
100
AcDbSymbolTableRecord
100
AcDbTextStyleTableRecord
  2
Standard
 70
     0
 40
0.0
 41
1.0
 50
0.0
 71
     0
 42
2.5
  3
txt
  4

1001
ACAD
1000

1071
        0
  0
STYLE
  5
3B
330
3
100
AcDbSymbolTableRecord
100
AcDbTextStyleTableRecord
  2
ＭＳ ゴシック
 70
     0
 40
1.0
 41
1.0
 50
0.0
 71
     0
 42
10.0
  3

  4

1001
ACAD
1000
MS Gothic
1071
    32817
  0
ENDTAB
  0
TABLE
  2
VIEW
  5
6
330
0
100
AcDbSymbolTable
 70
     0
  0
ENDTAB
  0
TABLE
  2
UCS
  5
7
330
0
100
AcDbSymbolTable
 70
     0
  0
ENDTAB
  0
TABLE
  2
APPID
  5
9
330
0
100
AcDbSymbolTable
 70
     1
  0
APPID
  5
12
330
9
100
AcDbSymbolTableRecord
100
AcDbRegAppTableRecord
  2
ACAD
 70
     0
  0
ENDTAB
  0
TABLE
  2
DIMSTYLE
  5
A
330
0
100
AcDbSymbolTable
 70
     1
100
AcDbDimStyleTable
  0
DIMSTYLE
105
27
330
A
100
AcDbSymbolTableRecord
100
AcDbDimStyleTableRecord
  2
ISO-25
 70
     0
 41
2.5
 42
0.625
 43
3.75
 44
1.25
 73
     0
 74
     0
 77
     1
 78
     8
140
2.5
141
2.5
143
0.03937007874016
147
0.625
171
     3
172
     1
271
     2
272
     2
274
     3
278
    44
283
     0
284
     8
340
11
  0
ENDTAB
  0
TABLE
  2
BLOCK_RECORD
  5
1
330
0
100
AcDbSymbolTable
 70
     1
  0
BLOCK_RECORD
  5
1F
330
1
100
AcDbSymbolTableRecord
100
AcDbBlockTableRecord
  2
*Model_Space
340
22
  0
BLOCK_RECORD
  5
1B
330
1
100
AcDbSymbolTableRecord
100
AcDbBlockTableRecord
  2
*Paper_Space
340
1E
  0
BLOCK_RECORD
  5
23
330
1
100
AcDbSymbolTableRecord
100
AcDbBlockTableRecord
  2
*Paper_Space0
340
26
  0
ENDTAB
  0
ENDSEC
  0
SECTION
  2
BLOCKS
  0
BLOCK
  5
20
330
1F
100
AcDbEntity
  8
0
100
AcDbBlockBegin
  2
*Model_Space
 70
     0
 10
0.0
 20
0.0
 30
0.0
  3
*Model_Space
  1

  0
ENDBLK
  5
21
330
1F
100
AcDbEntity
  8
0
100
AcDbBlockEnd
  0
BLOCK
  5
1C
330
1B
100
AcDbEntity
 67
     1
  8
0
100
AcDbBlockBegin
  2
*Paper_Space
 70
     0
 10
0.0
 20
0.0
 30
0.0
  3
*Paper_Space
  1

  0
ENDBLK
  5
1D
330
1B
100
AcDbEntity
 67
     1
  8
0
100
AcDbBlockEnd
  0
BLOCK
  5
24
330
23
100
AcDbEntity
  8
0
100
AcDbBlockBegin
  2
*Paper_Space0
 70
     0
 10
0.0
 20
0.0
 30
0.0
  3
*Paper_Space0
  1

  0
ENDBLK
  5
25
330
23
100
AcDbEntity
  8
0
100
AcDbBlockEnd
  0
ENDSEC
  0
SECTION
  2
ENTITIES
  0
LINE
  5
44
330
1F
100
AcDbEntity
  8
1-1
  6
JWW_HOJO
 62
     2
370
     9
100
AcDbLine
 10
579.7297297297297
 20
912.5244147326497
 30
0.0
 11
579.7297297297297
 21
961.8429820086508
 31
0.0
  0
LINE
  5
45
330
1F
100
AcDbEntity
  8
1-1
  6
JWW_HOJO
 62
     2
370
     9
100
AcDbLine
 10
591.0719996271906
 20
939.3243243243245
 30
0.0
 11
561.1236906824886
 21
939.3243243243245
 31
0.0
  0
LINE
  5
46
330
1F
100
AcDbEntity
  8
1-4
  6
Continuous
 62
     2
370
     9
100
AcDbLine
 10
354.655002903294
 20
-771.6272797455658
 30
0.0
 11
354.655002903294
 21
-721.6264961861275
 31
0.0
  0
LINE
  5
47
330
1F
100
AcDbEntity
  8
1-4
  6
Continuous
 62
     2
370
     9
100
AcDbLine
 10
354.655002903294
 20
-721.6264961861275
 30
0.0
 11
579.6550029032943
 21
-721.6264961861275
 31
0.0
  0
LINE
  5
48
330
1F
100
AcDbEntity
  8
1-4
  6
Continuous
 62
     2
370
     9
100
AcDbLine
 10
579.6550029032943
 20
-721.6264961861275
 30
0.0
 11
579.6550029032943
 21
-771.6272797455658
 31
0.0
  0
LINE
  5
49
330
1F
100
AcDbEntity
  8
1-4
  6
Continuous
 62
     2
370
     9
100
AcDbLine
 10
579.6550029032943
 20
-771.6272797455658
 30
0.0
 11
354.655002903294
 21
-771.6272797455658
 31
0.0
  0
LINE
  5
4A
330
1F
100
AcDbEntity
  8
1-2
  6
Continuous
 62
     3
370
     9
100
AcDbLine
 10
-1001.409252269848
 20
-741.1131245381123
 30
0.0
 11
-976.4094172297297
 21
-735.7634755727406
 31
0.0
  0
LINE
  5
4B
330
1F
100
AcDbEntity
  8
1-2
  6
Continuous
 62
     3
370
     9
100
AcDbLine
 10
-1001.409252269848
 20
-743.6696727855785
 30
0.0
 11
-976.4094172297297
 21
-738.3201475401182
 31
0.0
  0
LINE
  5
4C
330
1F
100
AcDbEntity
  8
1-2
  6
Continuous
 62
     3
370
     9
100
AcDbLine
 10
-1001.409252269848
 20
-769.2358975797085
 30
0.0
 11
-976.4094172297297
 21
-763.8856300147803
 31
0.0
  0
LINE
  5
4D
330
1F
100
AcDbEntity
  8
1-2
  6
Continuous
 62
     3
370
     9
100
AcDbLine
 10
-1001.409252269848
 20
-771.7923221072635
 30
0.0
 11
-976.4094172297297
 21
-766.4429205817145
 31
0.0
  0
LINE
  5
4E
330
1F
100
AcDbEntity
  8
1-2
  6
Continuous
 62
     3
370
     9
100
AcDbLine
 10
-976.4094172297297
 20
-799.1788379566088
 30
0.0
 11
-1001.409252269848
 21
-793.8291889912373
 31
0.0
  0
LINE
  5
4F
330
1F
100
AcDbEntity
  8
1-2
  6
Continuous
 62
     3
370
     9
100
AcDbLine
 10
-976.4094172297297
 20
-801.7353862040751
 30
0.0
 11
-1001.409252269848
 21
-796.3861083984375
 31
0.0
  0
LINE
  5
50
330
1F
100
AcDbEntity
  8
1-2
  6
Continuous
 62
     3
370
     9
100
AcDbLine
 10
-486.8807818438555
 20
-761.0427938925252
 30
0.0
 11
-484.3242335963893
 21
-768.5426949165962
 31
0.0
  0
LINE
  5
51
330
1F
100
AcDbEntity
  8
1-2
  6
Continuous
 62
     3
370
     9
100
AcDbLine
 10
-478.6078788138724
 20
-768.5426949165962
 30
0.0
 11
-484.3242335963893
 21
-768.5426949165962
 31
0.0
  0
LINE
  5
52
330
1F
100
AcDbEntity
  8
1-2
  6
Continuous
 62
     3
370
     9
100
AcDbLine
 10
-486.8807818438555
 20
-761.0427938925252
 30
0.0
 11
-508.9177724477406
 21
-761.0427938925252
 31
0.0
  0
LINE
  5
53
330
1F
100
AcDbEntity
  8
1-2
  6
Continuous
 62
     3
370
     9
100
AcDbLine
 10
-508.9177724477406
 20
-761.0427938925252
 30
0.0
 11
-511.4743206952068
 21
-768.5426949165962
 31
0.0
  0
LINE
  5
54
330
1F
100
AcDbEntity
  8
1-2
  6
Continuous
 62
     3
370
     9
100
AcDbLine
 10
-511.4743206952068
 20
-768.5426949165962
 30
0.0
 11
-537.0402980495144
 21
-768.5426949165962
 31
0.0
  0
LINE
  5
55
330
1F
100
AcDbEntity
  8
1-2
  6
Continuous
 62
     3
370
     9
100
AcDbLine
 10
-539.5968462969804
 20
-761.0427938925252
 30
0.0
 11
-537.0402980495144
 21
-768.5426949165962
 31
0.0
  0
LINE
  5
56
330
1F
100
AcDbEntity
  8
1-2
  6
Continuous
 62
     3
370
     9
100
AcDbLine
 10
-539.5968462969804
 20
-761.0427938925252
 30
0.0
 11
-572.3336297112542
 21
-761.0427938925252
 31
0.0
  0
LINE
  5
57
330
1F
100
AcDbEntity
  8
1-2
  6
Continuous
 62
     3
370
     9
100
AcDbLine
 10
-572.3336297112542
 20
-761.0427938925252
 30
0.0
 11
-574.8901779587203
 21
-768.5426949165962
 31
0.0
  0
LINE
  5
58
330
1F
100
AcDbEntity
  8
1-2
  6
Continuous
 62
     3
370
     9
100
AcDbLine
 10
-1001.409252269848
 20
-857.2450462547508
 30
0.0
 11
-976.4094172297297
 21
-851.8955210092905
 31
0.0
  0
LINE
  5
59
330
1F
100
AcDbEntity
  8
1-2
  6
Continuous
 62
     3
370
     9
100
AcDbLine
 10
-1001.409252269848
 20
-824.5083865603885
 30
0.0
 11
-976.4094172297297
 21
-829.8585304054053
 31
0.0
  0
LINE
  5
5A
330
1F
100
AcDbEntity
  8
1-2
  6
Continuous
 62
     3
370
     9
100
AcDbLine
 10
-1001.409252269848
 20
-821.9518383129223
 30
0.0
 11
-976.4094172297297
 21
-827.3018584380279
 31
0.0
  0
LINE
  5
5B
330
1F
100
AcDbEntity
  8
1-2
  6
Continuous
 62
     3
370
     9
100
AcDbLine
 10
-1001.409252269848
 20
-859.8017182221283
 30
0.0
 11
-976.4094172297297
 21
-854.4520692567568
 31
0.0
  0
LINE
  5
5C
330
1F
100
AcDbEntity
  8
1-2
  6
Continuous
 62
     3
370
     9
100
AcDbLine
 10
-1001.409252269848
 20
-885.3676955764358
 30
0.0
 11
-976.4094172297297
 21
-880.0177991712416
 31
0.0
  0
LINE
  5
5D
330
1F
100
AcDbEntity
  8
1-2
  6
Continuous
 62
     3
370
     9
100
AcDbLine
 10
-1001.409252269848
 20
-887.9244912637246
 30
0.0
 11
-976.4094172297297
 21
-882.5749660182644
 31
0.0
  0
LINE
  5
5E
330
1F
100
AcDbEntity
  8
1-2
  6
Continuous
 62
     3
370
     9
100
AcDbLine
 10
-976.4094172297297
 20
-915.3106359533363
 30
0.0
 11
-1001.409252269848
 21
-909.9612344277871
 31
0.0
  0
LINE
  5
5F
330
1F
100
AcDbEntity
  8
1-2
  6
Continuous
 62
     3
370
     9
100
AcDbLine
 10
-976.4094172297297
 20
-917.867431640625
 30
0.0
 11
-1001.409252269848
 21
-912.518030115076
 31
0.0
  0
LINE
  5
60
330
1F
100
AcDbEntity
  8
1-2
  6
Continuous
 62
     3
370
     9
100
AcDbLine
 10
-603.012703560494
 20
-761.0427938925252
 30
0.0
 11
-625.0496941643792
 21
-761.0427938925252
 31
0.0
  0
LINE
  5
61
330
1F
100
AcDbEntity
  8
1-2
  6
Continuous
 62
     3
370
     9
100
AcDbLine
 10
-625.0496941643792
 20
-761.0427938925252
 30
0.0
 11
-627.6062424118453
 21
-768.5426949165962
 31
0.0
  0
LINE
  5
62
330
1F
100
AcDbEntity
  8
1-2
  6
Continuous
 62
     3
370
     9
100
AcDbLine
 10
-627.6062424118453
 20
-768.5426949165962
 30
0.0
 11
-653.1722197661529
 21
-768.5426949165962
 31
0.0
  0
LINE
  5
63
330
1F
100
AcDbEntity
  8
1-2
  6
Continuous
 62
     3
370
     9
100
AcDbLine
 10
-655.7292628932644
 20
-761.0427938925252
 30
0.0
 11
-653.1722197661529
 21
-768.5426949165962
 31
0.0
  0
LINE
  5
64
330
1F
100
AcDbEntity
  8
1-2
  6
Continuous
 62
     3
370
     9
100
AcDbLine
 10
-655.7292628932644
 20
-761.0427938925252
 30
0.0
 11
-688.4655514278927
 21
-761.0427938925252
 31
0.0
  0
LINE
  5
65
330
1F
100
AcDbEntity
  8
1-2
  6
Continuous
 62
     3
370
     9
100
AcDbLine
 10
-688.4655514278927
 20
-761.0427938925252
 30
0.0
 11
-691.0220996753588
 21
-768.5426949165962
 31
0.0
  0
LINE
  5
66
330
1F
100
AcDbEntity
  8
1-2
  6
Continuous
 62
     3
370
     9
100
AcDbLine
 10
-603.012703560494
 20
-761.0427938925252
 30
0.0
 11
-600.4561553130279
 21
-768.5426949165962
 31
0.0
  0
LINE
  5
67
330
1F
100
AcDbEntity
  8
1-2
  6
Continuous
 62
     3
370
     9
100
AcDbLine
 10
-574.8901779587203
 20
-768.5426949165962
 30
0.0
 11
-600.4561553130279
 21
-768.5426949165962
 31
0.0
  0
LINE
  5
68
330
1F
100
AcDbEntity
  8
1-2
  6
Continuous
 62
     3
370
     9
100
AcDbLine
 10
-719.1446252771325
 20
-761.0427938925252
 30
0.0
 11
-741.1816158810177
 21
-761.0427938925252
 31
0.0
  0
LINE
  5
69
330
1F
100
AcDbEntity
  8
1-2
  6
Continuous
 62
     3
370
     9
100
AcDbLine
 10
-741.1816158810177
 20
-761.0427938925252
 30
0.0
 11
-743.7381641284838
 21
-768.5426949165962
 31
0.0
  0
LINE
  5
6A
330
1F
100
AcDbEntity
  8
1-2
  6
Continuous
 62
     3
370
     9
100
AcDbLine
 10
-743.7381641284838
 20
-768.5426949165962
 30
0.0
 11
-769.3041414827915
 21
-768.5426949165962
 31
0.0
  0
LINE
  5
6B
330
1F
100
AcDbEntity
  8
1-2
  6
Continuous
 62
     3
370
     9
100
AcDbLine
 10
-771.8611846099029
 20
-761.0427938925252
 30
0.0
 11
-769.3041414827915
 21
-768.5426949165962
 31
0.0
  0
LINE
  5
6C
330
1F
100
AcDbEntity
  8
1-2
  6
Continuous
 62
     3
370
     9
100
AcDbLine
 10
-771.8611846099029
 20
-761.0427938925252
 30
0.0
 11
-804.5974731445312
 21
-761.0427938925252
 31
0.0
  0
LINE
  5
6D
330
1F
100
AcDbEntity
  8
1-2
  6
Continuous
 62
     3
370
     9
100
AcDbLine
 10
-804.5974731445312
 20
-761.0427938925252
 30
0.0
 11
-807.1540213919974
 21
-768.5426949165962
 31
0.0
  0
LINE
  5
6E
330
1F
100
AcDbEntity
  8
1-2
  6
Continuous
 62
     3
370
     9
100
AcDbLine
 10
-719.1446252771325
 20
-761.0427938925252
 30
0.0
 11
-716.5880770296665
 21
-768.5426949165962
 31
0.0
  0
LINE
  5
6F
330
1F
100
AcDbEntity
  8
1-2
  6
Continuous
 62
     3
370
     9
100
AcDbLine
 10
-691.0220996753588
 20
-768.5426949165962
 30
0.0
 11
-716.5880770296665
 21
-768.5426949165962
 31
0.0
  0
LINE
  5
70
330
1F
100
AcDbEntity
  8
1-2
  6
Continuous
 62
     3
370
     9
100
AcDbLine
 10
-835.276546993771
 20
-761.0427938925252
 30
0.0
 11
-857.3135375976562
 21
-761.0427938925252
 31
0.0
  0
LINE
  5
71
330
1F
100
AcDbEntity
  8
1-2
  6
Continuous
 62
     3
370
     9
100
AcDbLine
 10
-857.3135375976562
 20
-761.0427938925252
 30
0.0
 11
-859.8702095650337
 21
-768.5426949165962
 31
0.0
  0
LINE
  5
72
330
1F
100
AcDbEntity
  8
1-2
  6
Continuous
 62
     3
370
     9
100
AcDbLine
 10
-835.276546993771
 20
-761.0427938925252
 30
0.0
 11
-832.7199987463048
 21
-768.5426949165962
 31
0.0
  0
LINE
  5
73
330
1F
100
AcDbEntity
  8
1-2
  6
Continuous
 62
     3
370
     9
100
AcDbLine
 10
-807.1540213919974
 20
-768.5426949165962
 30
0.0
 11
-832.7199987463048
 21
-768.5426949165962
 31
0.0
  0
LINE
  5
74
330
1F
100
AcDbEntity
  8
1-2
  6
Continuous
 62
     3
370
     9
100
AcDbLine
 10
-859.8702095650337
 20
-768.5426949165962
 30
0.0
 11
-875.1224002322634
 21
-768.5426949165962
 31
0.0
  0
LINE
  5
75
330
1F
100
AcDbEntity
  8
1-2
  6
Continuous
 62
     3
370
     9
100
AcDbLine
 10
-478.6078788138724
 20
-893.5431073163006
 30
0.0
 11
-875.1224002322634
 21
-893.5431073163006
 31
0.0
  0
LINE
  5
76
330
1F
100
AcDbEntity
  8
1-2
  6
Continuous
 62
     3
370
     9
100
AcDbLine
 10
-478.6078788138724
 20
-871.0426619246199
 30
0.0
 11
-875.1224002322634
 21
-871.0426619246199
 31
0.0
  0
LINE
  5
77
330
1F
100
AcDbEntity
  8
1-2
  6
Continuous
 62
     3
370
     9
100
AcDbLine
 10
-478.6078788138724
 20
-866.0432640281883
 30
0.0
 11
-875.1224002322634
 21
-866.0432640281883
 31
0.0
  0
LINE
  5
78
330
1F
100
AcDbEntity
  8
1-2
  6
Continuous
 62
     3
370
     9
100
AcDbLine
 10
-478.6078788138724
 20
-791.0428928684543
 30
0.0
 11
-875.1224002322634
 21
-791.0428928684543
 31
0.0
  0
LINE
  5
79
330
1F
100
AcDbEntity
  8
1-2
  6
Continuous
 62
     3
370
     9
100
AcDbLine
 10
-478.6078788138724
 20
-796.0427856445312
 30
0.0
 11
-875.1224002322634
 21
-796.0427856445312
 31
0.0
  0
LINE
  5
7A
330
1F
100
AcDbEntity
  8
1-2
  6
Continuous
 62
     3
370
     9
100
AcDbLine
 10
-342.8297300596495
 20
-768.5426949165962
 30
0.0
 11
-317.8298950195312
 21
-768.5426949165962
 31
0.0
  0
LINE
  5
7B
330
1F
100
AcDbEntity
  8
1-2
  6
Continuous
 62
     3
370
     9
100
AcDbLine
 10
-317.8298950195312
 20
-893.5431073163006
 30
0.0
 11
-342.8297300596495
 21
-893.5431073163006
 31
0.0
  0
LINE
  5
7C
330
1F
100
AcDbEntity
  8
1-2
  6
Continuous
 62
     3
370
     9
100
AcDbLine
 10
-317.8298950195312
 20
-871.0426619246199
 30
0.0
 11
-317.8298950195312
 21
-893.5431073163006
 31
0.0
  0
LINE
  5
7D
330
1F
100
AcDbEntity
  8
1-2
  6
Continuous
 62
     3
370
     9
100
AcDbLine
 10
-322.8301589553419
 20
-866.0427691485429
 30
0.0
 11
-317.8298950195312
 21
-871.0426619246199
 31
0.0
  0
LINE
  5
7E
330
1F
100
AcDbEntity
  8
1-2
  6
Continuous
 62
     3
370
     9
100
AcDbLine
 10
-342.8297300596495
 20
-893.5431073163006
 30
0.0
 11
-342.8297300596495
 21
-871.0426619246199
 31
0.0
  0
LINE
  5
7F
330
1F
100
AcDbEntity
  8
1-2
  6
Continuous
 62
     3
370
     9
100
AcDbLine
 10
-342.8297300596495
 20
-871.0426619246199
 30
0.0
 11
-337.8299610034838
 21
-866.0427691485429
 31
0.0
  0
LINE
  5
80
330
1F
100
AcDbEntity
  8
1-2
  6
Continuous
 62
     3
370
     9
100
AcDbLine
 10
-342.8297300596495
 20
-791.0428928684543
 30
0.0
 11
-342.8297300596495
 21
-761.0432887721706
 31
0.0
  0
LINE
  5
81
330
1F
100
AcDbEntity
  8
1-2
  6
Continuous
 62
     3
370
     9
100
AcDbLine
 10
-342.8297300596495
 20
-791.0428928684543
 30
0.0
 11
-337.8299610034838
 21
-796.0427856445312
 31
0.0
  0
LINE
  5
82
330
1F
100
AcDbEntity
  8
1-2
  6
Continuous
 62
     3
370
     9
100
AcDbLine
 10
-337.8299610034838
 20
-866.0427691485429
 30
0.0
 11
-337.8299610034838
 21
-796.0427856445312
 31
0.0
  0
LINE
  5
83
330
1F
100
AcDbEntity
  8
1-2
  6
Continuous
 62
     3
370
     9
100
AcDbLine
 10
-322.8301589553419
 20
-796.0427856445312
 30
0.0
 11
-322.8301589553419
 21
-866.0427691485429
 31
0.0
  0
LINE
  5
84
330
1F
100
AcDbEntity
  8
1-2
  6
Continuous
 62
     3
370
     9
100
AcDbLine
 10
-322.8301589553419
 20
-796.0427856445312
 30
0.0
 11
-317.8298950195312
 21
-791.0428928684543
 31
0.0
  0
LINE
  5
85
330
1F
100
AcDbEntity
  8
1-2
  6
Continuous
 62
     3
370
     9
100
AcDbLine
 10
-317.8298950195312
 20
-761.0432887721706
 30
0.0
 11
-317.8298950195312
 21
-791.0428928684543
 31
0.0
  0
LINE
  5
86
330
1F
100
AcDbEntity
  8
1-2
  6
Continuous
 62
     3
370
     9
100
AcDbLine
 10
-342.8297300596495
 20
-761.0432887721706
 30
0.0
 11
-317.8298950195312
 21
-761.0432887721706
 31
0.0
  0
LINE
  5
87
330
1F
100
AcDbEntity
  8
1-4
  6
Continuous
 62
     7
370
     9
100
AcDbLine
 10
-195.3838039088893
 20
-893.5431073163006
 30
0.0
 11
-195.3838039088893
 21
-768.5426949165962
 31
0.0
  0
LINE
  5
88
330
1F
100
AcDbEntity
  8
1-4
  6
Continuous
 62
     7
370
     9
100
AcDbLine
 10
-299.055645916913
 20
-893.5431073163006
 30
0.0
 11
-192.3838434992609
 21
-893.5431073163006
 31
0.0
  0
LINE
  5
89
330
1F
100
AcDbEntity
  8
1-4
  6
Continuous
 62
     7
370
     9
100
AcDbLine
 10
-299.055645916913
 20
-768.5426949165962
 30
0.0
 11
-192.3838434992609
 21
-768.5426949165962
 31
0.0
  0
LINE
  5
8A
330
1F
100
AcDbEntity
  8
1-4
  6
Continuous
 62
     7
370
     9
100
AcDbLine
 10
-195.3838039088893
 20
-893.5431073163006
 30
0.0
 11
-198.6470402898013
 21
-868.7565654032938
 31
0.0
  0
LINE
  5
8B
330
1F
100
AcDbEntity
  8
1-4
  6
Continuous
 62
     7
370
     9
100
AcDbLine
 10
-195.3838039088893
 20
-893.5431073163006
 30
0.0
 11
-192.1211861275336
 21
-868.7565654032938
 31
0.0
  0
LINE
  5
8C
330
1F
100
AcDbEntity
  8
1-4
  6
Continuous
 62
     7
370
     9
100
AcDbLine
 10
-195.3838039088893
 20
-768.5426949165962
 30
0.0
 11
-198.6470402898013
 21
-793.3289893897803
 31
0.0
  0
LINE
  5
8D
330
1F
100
AcDbEntity
  8
1-4
  6
Continuous
 62
     7
370
     9
100
AcDbLine
 10
-195.3838039088893
 20
-768.5426949165962
 30
0.0
 11
-192.1211861275336
 21
-793.3289893897803
 31
0.0
  0
LINE
  5
8E
330
1F
100
AcDbEntity
  8
1-2
  6
Continuous
 62
     3
370
     9
100
AcDbLine
 10
-1001.409252269848
 20
-940.6403082770271
 30
0.0
 11
-976.4094172297297
 21
-945.9904521220438
 31
0.0
  0
LINE
  5
8F
330
1F
100
AcDbEntity
  8
1-2
  6
Continuous
 62
     3
370
     9
100
AcDbLine
 10
-1001.409252269848
 20
-938.0837600295608
 30
0.0
 11
-976.4094172297297
 21
-943.433656434755
 31
0.0
  0
LINE
  5
90
330
1F
100
AcDbEntity
  8
1-2
  6
Continuous
 62
     3
370
     9
100
AcDbLine
 10
-992.6721521326012
 20
-741.8000174857474
 30
0.0
 11
-976.4094172297297
 21
-758.0628761085303
 31
0.0
  0
LINE
  5
91
330
1F
100
AcDbEntity
  8
1-2
  6
Continuous
 62
     3
370
     9
100
AcDbLine
 10
-983.935546875
 20
-739.9304859058276
 30
0.0
 11
-976.4094172297297
 21
-747.4566155510979
 31
0.0
  0
LINE
  5
92
330
1F
100
AcDbEntity
  8
1-2
  6
Continuous
 62
     3
370
     9
100
AcDbLine
 10
-1001.409252269848
 20
-743.6696727855785
 30
0.0
 11
-980.3501438450168
 21
-764.7291523701435
 31
0.0
  0
LINE
  5
93
330
1F
100
AcDbEntity
  8
1-2
  6
Continuous
 62
     3
370
     9
100
AcDbLine
 10
-1001.409252269848
 20
-754.2764282226562
 30
0.0
 11
-989.0867491026182
 21
-766.5991788297085
 31
0.0
  0
LINE
  5
94
330
1F
100
AcDbEntity
  8
1-2
  6
Continuous
 62
     3
370
     9
100
AcDbLine
 10
-1001.409252269848
 20
-764.8831836597338
 30
0.0
 11
-997.8236018000422
 21
-768.4682155299831
 31
0.0
  0
LINE
  5
95
330
1F
100
AcDbEntity
  8
1-2
  6
Continuous
 62
     3
370
     9
100
AcDbLine
 10
-1001.409252269848
 20
-817.5991243929477
 30
0.0
 11
-995.8713015994509
 21
-823.1369513434332
 31
0.0
  0
LINE
  5
96
330
1F
100
AcDbEntity
  8
1-2
  6
Continuous
 62
     3
370
     9
100
AcDbLine
 10
-1001.409252269848
 20
-806.9926163956926
 30
0.0
 11
-982.3771708720438
 21
-826.0243266337626
 31
0.0
  0
LINE
  5
97
330
1F
100
AcDbEntity
  8
1-2
  6
Continuous
 62
     3
370
     9
100
AcDbLine
 10
-1001.409252269848
 20
-796.3861083984375
 30
0.0
 11
-976.4094172297297
 21
-821.3854485589104
 31
0.0
  0
LINE
  5
98
330
1F
100
AcDbEntity
  8
1-2
  6
Continuous
 62
     3
370
     9
100
AcDbLine
 10
-987.9148741026182
 20
-799.2739785684121
 30
0.0
 11
-976.4094172297297
 21
-810.7794354413006
 31
0.0
  0
LINE
  5
99
330
1F
100
AcDbEntity
  8
1-2
  6
Continuous
 62
     3
370
     9
100
AcDbLine
 10
-992.6721521326012
 20
-857.9320629222973
 30
0.0
 11
-976.4094172297297
 21
-874.1950452649916
 31
0.0
  0
LINE
  5
9A
330
1F
100
AcDbEntity
  8
1-2
  6
Continuous
 62
     3
370
     9
100
AcDbLine
 10
-983.935546875
 20
-856.0624076224661
 30
0.0
 11
-976.4094172297297
 21
-863.5886609876478
 31
0.0
  0
LINE
  5
9B
330
1F
100
AcDbEntity
  8
1-2
  6
Continuous
 62
     3
370
     9
100
AcDbLine
 10
-1001.409252269848
 20
-859.8017182221283
 30
0.0
 11
-980.3501438450168
 21
-880.8610740867821
 31
0.0
  0
LINE
  5
9C
330
1F
100
AcDbEntity
  8
1-2
  6
Continuous
 62
     3
370
     9
100
AcDbLine
 10
-1001.409252269848
 20
-870.408473659206
 30
0.0
 11
-989.0867491026182
 21
-882.7309768264358
 31
0.0
  0
LINE
  5
9D
330
1F
100
AcDbEntity
  8
1-2
  6
Continuous
 62
     3
370
     9
100
AcDbLine
 10
-1001.409252269848
 20
-881.0151053763724
 30
0.0
 11
-997.8236018000422
 21
-884.6003846864443
 31
0.0
  0
LINE
  5
9E
330
1F
100
AcDbEntity
  8
1-2
  6
Continuous
 62
     3
370
     9
100
AcDbLine
 10
-1001.409252269848
 20
-933.7310461095863
 30
0.0
 11
-995.8713015994509
 21
-939.2687493401604
 31
0.0
  0
LINE
  5
9F
330
1F
100
AcDbEntity
  8
1-2
  6
Continuous
 62
     3
370
     9
100
AcDbLine
 10
-1001.409252269848
 20
-923.124538112331
 30
0.0
 11
-982.3771708720438
 21
-942.1563720703125
 31
0.0
  0
LINE
  5
A0
330
1F
100
AcDbEntity
  8
1-2
  6
Continuous
 62
     3
370
     9
100
AcDbLine
 10
-1001.409252269848
 20
-912.518030115076
 30
0.0
 11
-976.4094172297297
 21
-937.517370275549
 31
0.0
  0
LINE
  5
A1
330
1F
100
AcDbEntity
  8
1-2
  6
Continuous
 62
     3
370
     9
100
AcDbLine
 10
-987.9148741026182
 20
-915.405652845228
 30
0.0
 11
-976.4094172297297
 21
-926.9108622782938
 31
0.0
  0
LINE
  5
A2
330
1F
100
AcDbEntity
  8
1-2
  6
Continuous
 62
     3
370
     9
100
AcDbLine
 10
-976.4094172297297
 20
-683.0470399598818
 30
0.0
 11
-1001.409252269848
 21
-677.6972672745989
 31
0.0
  0
LINE
  5
A3
330
1F
100
AcDbEntity
  8
1-2
  6
Continuous
 62
     3
370
     9
100
AcDbLine
 10
-976.4094172297297
 20
-685.6034644874366
 30
0.0
 11
-1001.409252269848
 21
-680.254186681799
 31
0.0
  0
LINE
  5
A4
330
1F
100
AcDbEntity
  8
1-2
  6
Continuous
 62
     3
370
     9
100
AcDbLine
 10
-1001.409252269848
 20
-708.37646484375
 30
0.0
 11
-976.4094172297297
 21
-713.7266086887668
 31
0.0
  0
LINE
  5
A5
330
1F
100
AcDbEntity
  8
1-2
  6
Continuous
 62
     3
370
     9
100
AcDbLine
 10
-1001.409252269848
 20
-705.8199165962837
 30
0.0
 11
-976.4094172297297
 21
-711.1696892815667
 31
0.0
  0
LINE
  5
A6
330
1F
100
AcDbEntity
  8
1-2
  6
Continuous
 62
     3
370
     9
100
AcDbLine
 10
-1001.409252269848
 20
-701.4672026763092
 30
0.0
 11
-995.8713015994509
 21
-707.0052770666173
 31
0.0
  0
LINE
  5
A7
330
1F
100
AcDbEntity
  8
1-2
  6
Continuous
 62
     3
370
     9
100
AcDbLine
 10
-1001.409252269848
 20
-690.8606946790541
 30
0.0
 11
-982.3771708720438
 21
-709.8926523569468
 31
0.0
  0
LINE
  5
A8
330
1F
100
AcDbEntity
  8
1-2
  6
Continuous
 62
     3
370
     9
100
AcDbLine
 10
-1001.409252269848
 20
-680.254186681799
 30
0.0
 11
-976.4094172297297
 21
-705.2540217219172
 31
0.0
  0
LINE
  5
A9
330
1F
100
AcDbEntity
  8
1-2
  6
Continuous
 62
     3
370
     9
100
AcDbLine
 10
-987.9148741026182
 20
-683.1415619721283
 30
0.0
 11
-976.4094172297297
 21
-694.6475137246621
 31
0.0
  0
LINE
  5
AA
330
1F
100
AcDbEntity
  8
1-2
  6
Continuous
 62
     3
370
     9
100
AcDbLine
 10
-976.4094172297297
 20
-665.9192554370776
 30
0.0
 11
-976.4094172297297
 21
-957.3939637880068
 31
0.0
  0
LINE
  5
AB
330
1F
100
AcDbEntity
  8
1-2
  6
Continuous
 62
     3
370
     9
100
AcDbLine
 10
-1001.409252269848
 20
-665.9192554370776
 30
0.0
 11
-1001.409252269848
 21
-957.3939637880068
 31
0.0
  0
LINE
  5
AC
330
1F
100
AcDbEntity
  8
1-4
  6
Continuous
 62
     7
370
     9
100
AcDbLine
 10
-1018.346013249578
 20
-885.3676955764358
 30
0.0
 11
-1072.040454761402
 21
-885.3676955764358
 31
0.0
  0
LINE
  5
AD
330
1F
100
AcDbEntity
  8
1-4
  6
Continuous
 62
     7
370
     9
100
AcDbLine
 10
-1018.346013249578
 20
-912.518030115076
 30
0.0
 11
-1072.040454761402
 21
-912.518030115076
 31
0.0
  0
LINE
  5
AE
330
1F
100
AcDbEntity
  8
1-4
  6
Continuous
 62
     7
370
     9
100
AcDbLine
 10
-1069.040989231419
 20
-885.3676955764358
 30
0.0
 11
-1072.303730732686
 21
-860.5817722629856
 31
0.0
  0
LINE
  5
AF
330
1F
100
AcDbEntity
  8
1-4
  6
Continuous
 62
     7
370
     9
100
AcDbLine
 10
-1069.040989231419
 20
-885.3676955764358
 30
0.0
 11
-1065.777257970861
 21
-860.5817722629856
 31
0.0
  0
LINE
  5
B0
330
1F
100
AcDbEntity
  8
1-4
  6
Continuous
 62
     7
370
     9
100
AcDbLine
 10
-1069.040989231419
 20
-912.518030115076
 30
0.0
 11
-1072.303730732686
 21
-937.3038297086148
 31
0.0
  0
LINE
  5
B1
330
1F
100
AcDbEntity
  8
1-4
  6
Continuous
 62
     7
370
     9
100
AcDbLine
 10
-1069.040989231419
 20
-912.518030115076
 30
0.0
 11
-1065.777257970861
 21
-937.3038297086148
 31
0.0
  0
LINE
  5
B2
330
1F
100
AcDbEntity
  8
1-4
  6
Continuous
 62
     7
370
     9
100
AcDbLine
 10
-1018.346013249578
 20
-705.8199165962837
 30
0.0
 11
-1072.040454761402
 21
-705.8199165962837
 31
0.0
  0
LINE
  5
B3
330
1F
100
AcDbEntity
  8
1-4
  6
Continuous
 62
     7
370
     9
100
AcDbLine
 10
-1018.346013249578
 20
-743.6696727855785
 30
0.0
 11
-1072.040454761402
 21
-743.6696727855785
 31
0.0
  0
LINE
  5
B4
330
1F
100
AcDbEntity
  8
1-4
  6
Continuous
 62
     7
370
     9
100
AcDbLine
 10
-1069.040989231419
 20
-705.8199165962837
 30
0.0
 11
-1072.303730732686
 21
-681.0337458430109
 31
0.0
  0
LINE
  5
B5
330
1F
100
AcDbEntity
  8
1-4
  6
Continuous
 62
     7
370
     9
100
AcDbLine
 10
-1069.040989231419
 20
-705.8199165962837
 30
0.0
 11
-1065.777257970861
 21
-681.0337458430109
 31
0.0
  0
LINE
  5
B6
330
1F
100
AcDbEntity
  8
1-4
  6
Continuous
 62
     7
370
     9
100
AcDbLine
 10
-1069.040989231419
 20
-743.6696727855785
 30
0.0
 11
-1072.303730732686
 21
-768.4558435388512
 31
0.0
  0
LINE
  5
B7
330
1F
100
AcDbEntity
  8
1-4
  6
Continuous
 62
     7
370
     9
100
AcDbLine
 10
-1069.040989231419
 20
-743.6696727855785
 30
0.0
 11
-1065.777257970861
 21
-768.4558435388512
 31
0.0
  0
LINE
  5
B8
330
1F
100
AcDbEntity
  8
1-4
  6
Continuous
 62
     7
370
     9
100
AcDbLine
 10
-1069.040989231419
 20
-853.8678638355151
 30
0.0
 11
-1069.040989231419
 21
-951.7780695734797
 31
0.0
  0
LINE
  5
B9
330
1F
100
AcDbEntity
  8
1-4
  6
Continuous
 62
     7
370
     9
100
AcDbLine
 10
-1069.040989231419
 20
-671.4103162610853
 30
0.0
 11
-1069.040989231419
 21
-777.6281903241131
 31
0.0
  0
LINE
  5
BA
330
1F
100
AcDbEntity
  8
1-4
  6
Continuous
 62
     7
370
     9
100
AcDbLine
 10
-964.5179542335303
 20
-761.3408351588894
 30
0.0
 11
-932.5022104624155
 21
-754.490216229413
 31
0.0
  0
LINE
  5
BB
330
1F
100
AcDbEntity
  8
1-4
  6
Continuous
 62
     7
370
     9
100
AcDbLine
 10
-969.7490795238598
 20
-736.8951416015625
 30
0.0
 11
-937.7340780722127
 21
-730.0437803526182
 31
0.0
  0
LINE
  5
BC
330
1F
100
AcDbEntity
  8
1-4
  6
Continuous
 62
     7
370
     9
100
AcDbLine
 10
-935.4358569995776
 20
-755.1177236196156
 30
0.0
 11
-927.0580394847973
 21
-778.672633815456
 31
0.0
  0
LINE
  5
BD
330
1F
100
AcDbEntity
  8
1-4
  6
Continuous
 62
     7
370
     9
100
AcDbLine
 10
-935.4358569995776
 20
-755.1177236196156
 30
0.0
 11
-933.4400073902026
 21
-780.0378830368454
 31
0.0
  0
LINE
  5
BE
330
1F
100
AcDbEntity
  8
1-4
  6
Continuous
 62
     7
370
     9
100
AcDbLine
 10
-940.6672297297297
 20
-730.6710403029983
 30
0.0
 11
-942.6630793391047
 21
-705.7507571658572
 31
0.0
  0
LINE
  5
BF
330
1F
100
AcDbEntity
  8
1-4
  6
Continuous
 62
     7
370
     9
100
AcDbLine
 10
-940.6672297297297
 20
-730.6710403029983
 30
0.0
 11
-949.04504724451
 21
-707.1169961465371
 31
0.0
  0
LINE
  5
C0
330
1F
100
AcDbEntity
  8
1-4
  6
Continuous
 62
     7
370
     9
100
AcDbLine
 10
-929.1617728568411
 20
-784.4368682036529
 30
0.0
 11
-947.517848659206
 21
-698.6581420898438
 31
0.0
  0
LINE
  5
C1
330
1F
100
AcDbEntity
  8
1-4
  6
Continuous
 62
     7
370
     9
100
AcDbLine
 10
-317.8298950195312
 20
-749.4590223157728
 30
0.0
 11
-317.8298950195312
 21
-713.2890113624366
 31
0.0
  0
LINE
  5
C2
330
1F
100
AcDbEntity
  8
1-4
  6
Continuous
 62
     7
370
     9
100
AcDbLine
 10
-342.8297300596495
 20
-749.4590223157728
 30
0.0
 11
-342.8297300596495
 21
-713.2890113624366
 31
0.0
  0
LINE
  5
C3
330
1F
100
AcDbEntity
  8
1-4
  6
Continuous
 62
     7
370
     9
100
AcDbLine
 10
-317.8298950195312
 20
-716.2890954919762
 30
0.0
 11
-293.0438479861698
 21
-713.0252405115075
 31
0.0
  0
LINE
  5
C4
330
1F
100
AcDbEntity
  8
1-4
  6
Continuous
 62
     7
370
     9
100
AcDbLine
 10
-317.8298950195312
 20
-716.2890954919762
 30
0.0
 11
-293.0438479861698
 21
-719.5523318728884
 31
0.0
  0
LINE
  5
C5
330
1F
100
AcDbEntity
  8
1-4
  6
Continuous
 62
     7
370
     9
100
AcDbLine
 10
-342.8297300596495
 20
-716.2890954919762
 30
0.0
 11
-367.6161482527448
 21
-713.0252405115075
 31
0.0
  0
LINE
  5
C6
330
1F
100
AcDbEntity
  8
1-4
  6
Continuous
 62
     7
370
     9
100
AcDbLine
 10
-342.8297300596495
 20
-716.2890954919762
 30
0.0
 11
-367.6161482527448
 21
-719.5523318728884
 31
0.0
  0
LINE
  5
C7
330
1F
100
AcDbEntity
  8
1-4
  6
Continuous
 62
     7
370
     9
100
AcDbLine
 10
-322.8301589553419
 20
-853.7081414300042
 30
0.0
 11
-298.0441119219805
 21
-850.4450287690033
 31
0.0
  0
LINE
  5
C8
330
1F
100
AcDbEntity
  8
1-4
  6
Continuous
 62
     7
370
     9
100
AcDbLine
 10
-322.8301589553419
 20
-853.7081414300042
 30
0.0
 11
-298.0441119219805
 21
-856.9715015308276
 31
0.0
  0
LINE
  5
C9
330
1F
100
AcDbEntity
  8
1-4
  6
Continuous
 62
     7
370
     9
100
AcDbLine
 10
-337.8299610034838
 20
-853.7081414300042
 30
0.0
 11
-362.6160080368453
 21
-850.4450287690033
 31
0.0
  0
LINE
  5
CA
330
1F
100
AcDbEntity
  8
1-4
  6
Continuous
 62
     7
370
     9
100
AcDbLine
 10
-337.8299610034838
 20
-853.7081414300042
 30
0.0
 11
-362.6160080368453
 21
-856.9715015308276
 31
0.0
  0
LINE
  5
CB
330
1F
100
AcDbEntity
  8
1-4
  6
Continuous
 62
     7
370
     9
100
AcDbLine
 10
-976.4094172297297
 20
-661.9461142050252
 30
0.0
 11
-976.4094172297297
 21
-625.9849424619932
 31
0.0
  0
LINE
  5
CC
330
1F
100
AcDbEntity
  8
1-4
  6
Continuous
 62
     7
370
     9
100
AcDbLine
 10
-1001.409252269848
 20
-661.9461142050252
 30
0.0
 11
-1001.409252269848
 21
-625.9849424619932
 31
0.0
  0
LINE
  5
CD
330
1F
100
AcDbEntity
  8
1-4
  6
Continuous
 62
     7
370
     9
100
AcDbLine
 10
-976.4094172297297
 20
-628.9847791517103
 30
0.0
 11
-951.6228753167229
 21
-625.7216664907094
 31
0.0
  0
LINE
  5
CE
330
1F
100
AcDbEntity
  8
1-4
  6
Continuous
 62
     7
370
     9
100
AcDbLine
 10
-976.4094172297297
 20
-628.9847791517103
 30
0.0
 11
-951.6228753167229
 21
-632.2481392525337
 31
0.0
  0
LINE
  5
CF
330
1F
100
AcDbEntity
  8
1-4
  6
Continuous
 62
     7
370
     9
100
AcDbLine
 10
-1001.409252269848
 20
-628.9847791517103
 30
0.0
 11
-1026.195299303209
 21
-625.7216664907094
 31
0.0
  0
LINE
  5
D0
330
1F
100
AcDbEntity
  8
1-4
  6
Continuous
 62
     7
370
     9
100
AcDbLine
 10
-1001.409252269848
 20
-628.9847791517103
 30
0.0
 11
-1026.195299303209
 21
-632.2481392525337
 31
0.0
  0
LINE
  5
D1
330
1F
100
AcDbEntity
  8
1-4
  6
Continuous
 62
     7
370
     9
100
AcDbLine
 10
-939.4087507918074
 20
-628.9847791517103
 30
0.0
 11
-1033.797640413851
 21
-628.9847791517103
 31
0.0
  0
LINE
  5
D2
330
1F
100
AcDbEntity
  8
1-4
  6
Continuous
 62
     7
370
     9
100
AcDbLine
 10
-251.8649127032305
 20
-993.5426949165964
 30
0.0
 11
-251.8649127032305
 21
-1063.542925860431
 31
0.0
  0
LINE
  5
D3
330
1F
100
AcDbEntity
  8
1-4
  6
Continuous
 62
     7
370
     9
100
AcDbLine
 10
-251.8649127032305
 20
-993.5426949165964
 30
0.0
 11
-1101.86487146326
 21
-993.5426949165964
 31
0.0
  0
LINE
  5
D4
330
1F
100
AcDbEntity
  8
1-4
  6
Continuous
 62
     7
370
     9
100
AcDbLine
 10
-251.8649127032305
 20
-1063.542925860431
 30
0.0
 11
-1101.86487146326
 21
-1063.542925860431
 31
0.0
  0
LINE
  5
D5
330
1F
100
AcDbEntity
  8
1-4
  6
Continuous
 62
     7
370
     9
100
AcDbLine
 10
-1101.86487146326
 20
-993.5426949165964
 30
0.0
 11
-1101.86487146326
 21
-1063.542925860431
 31
0.0
  0
LINE
  5
D6
330
1F
100
AcDbEntity
  8
1-4
  6
Continuous
 62
     7
370
     9
100
AcDbLine
 10
-279.7479165566932
 20
-853.7081414300042
 30
0.0
 11
-367.5435246648013
 21
-853.7081414300042
 31
0.0
  0
LINE
  5
D7
330
1F
100
AcDbEntity
  8
1-4
  6
Continuous
 62
     7
370
     9
100
AcDbLine
 10
-279.3170001055742
 20
-716.2890954919762
 30
0.0
 11
-381.9267066749364
 21
-716.2890954919762
 31
0.0
  0
LINE
  5
D8
330
1F
100
AcDbEntity
  8
1-4
  6
Continuous
 62
     7
370
     9
100
AcDbLine
 10
-922.1933725717905
 20
-645.3208799619932
 30
0.0
 11
-672.4996205922719
 21
-645.3208799619932
 31
0.0
  0
LINE
  5
D9
330
1F
100
AcDbEntity
  8
1-4
  6
Continuous
 62
     7
370
     9
100
AcDbLine
 10
-922.1933725717905
 20
-645.3208799619932
 30
0.0
 11
-982.1510108741553
 21
-727.7349193676098
 31
0.0
  0
LINE
  5
DA
330
1F
100
AcDbEntity
  8
1-4
  6
Continuous
 62
     7
370
     9
100
AcDbLine
 10
-982.1510108741553
 20
-727.7349193676098
 30
0.0
 11
-970.2080803948479
 21
-705.7716658308699
 31
0.0
  0
LINE
  5
DB
330
1F
100
AcDbEntity
  8
1-4
  6
Continuous
 62
     7
370
     9
100
AcDbLine
 10
-982.1510108741553
 20
-727.7349193676098
 30
0.0
 11
-964.9306838576858
 21
-709.6111895586994
 31
0.0
  0
LINE
  5
DC
330
1F
100
AcDbEntity
  8
1-2
  6
Continuous
 62
     3
370
     9
100
AcDbLine
 10
-1148.161604597762
 20
825.3238492398651
 30
0.0
 11
-1148.161604597762
 21
930.3237007759714
 31
0.0
  0
LINE
  5
DD
330
1F
100
AcDbEntity
  8
1-2
  6
Continuous
 62
     3
370
     9
100
AcDbLine
 10
-1148.161604597762
 20
825.3238492398651
 30
0.0
 11
-1148.161604597762
 21
930.3237007759714
 31
0.0
  0
LINE
  5
DE
330
1F
100
AcDbEntity
  8
1-2
  6
Continuous
 62
     3
370
     9
100
AcDbLine
 10
526.7296043602198
 20
927.0149354676943
 30
0.0
 11
529.7298122096709
 21
928.0376042546453
 31
0.0
  0
LINE
  5
DF
330
1F
100
AcDbEntity
  8
1-2
  6
Continuous
 62
     3
370
     9
100
AcDbLine
 10
526.7296043602198
 20
927.0149354676943
 30
0.0
 11
526.7296043602198
 21
918.2001392261404
 31
0.0
  0
LINE
  5
E0
330
1F
100
AcDbEntity
  8
1-2
  6
Continuous
 62
     3
370
     9
100
AcDbLine
 10
526.7296043602198
 20
918.2001392261404
 30
0.0
 11
529.7298122096709
 21
917.177717879012
 31
0.0
  0
LINE
  5
E1
330
1F
100
AcDbEntity
  8
1-2
  6
Continuous
 62
     3
370
     9
100
AcDbLine
 10
529.7298122096709
 20
917.177717879012
 30
0.0
 11
529.7298122096709
 21
906.9510300095019
 31
0.0
  0
LINE
  5
E2
330
1F
100
AcDbEntity
  8
1-2
  6
Continuous
 62
     3
370
     9
100
AcDbLine
 10
526.7296043602198
 20
905.9286086623734
 30
0.0
 11
529.7298122096709
 21
906.9510300095019
 31
0.0
  0
LINE
  5
E3
330
1F
100
AcDbEntity
  8
1-2
  6
Continuous
 62
     3
370
     9
100
AcDbLine
 10
526.7296043602198
 20
905.9286086623734
 30
0.0
 11
526.7296043602198
 21
892.8338458086995
 31
0.0
  0
LINE
  5
E4
330
1F
100
AcDbEntity
  8
1-2
  6
Continuous
 62
     3
370
     9
100
AcDbLine
 10
526.7296043602198
 20
892.8338458086995
 30
0.0
 11
529.7298122096709
 21
891.8111770217484
 31
0.0
  0
LINE
  5
E5
330
1F
100
AcDbEntity
  8
1-2
  6
Continuous
 62
     3
370
     9
100
AcDbLine
 10
526.7296043602198
 20
880.5623152449325
 30
0.0
 11
526.7296043602198
 21
871.7475190033783
 31
0.0
  0
LINE
  5
E6
330
1F
100
AcDbEntity
  8
1-2
  6
Continuous
 62
     3
370
     9
100
AcDbLine
 10
526.7296043602198
 20
871.7475190033783
 30
0.0
 11
529.7298122096709
 21
870.7248502164276
 31
0.0
  0
LINE
  5
E7
330
1F
100
AcDbEntity
  8
1-2
  6
Continuous
 62
     3
370
     9
100
AcDbLine
 10
529.7298122096709
 20
870.7248502164276
 30
0.0
 11
529.7298122096709
 21
860.4986572265625
 31
0.0
  0
LINE
  5
E8
330
1F
100
AcDbEntity
  8
1-2
  6
Continuous
 62
     3
370
     9
100
AcDbLine
 10
526.7296043602198
 20
859.4757409997891
 30
0.0
 11
529.7298122096709
 21
860.4986572265625
 31
0.0
  0
LINE
  5
E9
330
1F
100
AcDbEntity
  8
1-2
  6
Continuous
 62
     3
370
     9
100
AcDbLine
 10
526.7296043602198
 20
859.4757409997891
 30
0.0
 11
526.7296043602198
 21
846.3809781461151
 31
0.0
  0
LINE
  5
EA
330
1F
100
AcDbEntity
  8
1-2
  6
Continuous
 62
     3
370
     9
100
AcDbLine
 10
526.7296043602198
 20
846.3809781461151
 30
0.0
 11
529.7298122096709
 21
845.3585567989867
 31
0.0
  0
LINE
  5
EB
330
1F
100
AcDbEntity
  8
1-2
  6
Continuous
 62
     3
370
     9
100
AcDbLine
 10
526.7296043602198
 20
880.5623152449325
 30
0.0
 11
529.7298122096709
 21
881.5849840318836
 31
0.0
  0
LINE
  5
EC
330
1F
100
AcDbEntity
  8
1-2
  6
Continuous
 62
     3
370
     9
100
AcDbLine
 10
529.7298122096709
 20
891.8111770217484
 30
0.0
 11
529.7298122096709
 21
881.5849840318836
 31
0.0
  0
LINE
  5
ED
330
1F
100
AcDbEntity
  8
1-2
  6
Continuous
 62
     3
370
     9
100
AcDbLine
 10
526.7296043602198
 20
834.1094475823481
 30
0.0
 11
526.7296043602198
 21
825.294651340794
 31
0.0
  0
LINE
  5
EE
330
1F
100
AcDbEntity
  8
1-2
  6
Continuous
 62
     3
370
     9
100
AcDbLine
 10
526.7296043602198
 20
825.294651340794
 30
0.0
 11
529.7298122096709
 21
824.2719825538429
 31
0.0
  0
LINE
  5
EF
330
1F
100
AcDbEntity
  8
1-2
  6
Continuous
 62
     3
370
     9
100
AcDbLine
 10
529.7298122096709
 20
824.2719825538429
 30
0.0
 11
529.7298122096709
 21
814.0457895639781
 31
0.0
  0
LINE
  5
F0
330
1F
100
AcDbEntity
  8
1-2
  6
Continuous
 62
     3
370
     9
100
AcDbLine
 10
526.7296043602198
 20
813.0228733372044
 30
0.0
 11
529.7298122096709
 21
814.0457895639781
 31
0.0
  0
LINE
  5
F1
330
1F
100
AcDbEntity
  8
1-2
  6
Continuous
 62
     3
370
     9
100
AcDbLine
 10
526.7296043602198
 20
813.0228733372044
 30
0.0
 11
526.7296043602198
 21
799.9283579233531
 31
0.0
  0
LINE
  5
F2
330
1F
100
AcDbEntity
  8
1-2
  6
Continuous
 62
     3
370
     9
100
AcDbLine
 10
526.7296043602198
 20
799.9283579233531
 30
0.0
 11
529.7298122096709
 21
798.9061840160474
 31
0.0
  0
LINE
  5
F3
330
1F
100
AcDbEntity
  8
1-2
  6
Continuous
 62
     3
370
     9
100
AcDbLine
 10
526.7296043602198
 20
834.1094475823481
 30
0.0
 11
529.7298122096709
 21
835.1321163692992
 31
0.0
  0
LINE
  5
F4
330
1F
100
AcDbEntity
  8
1-2
  6
Continuous
 62
     3
370
     9
100
AcDbLine
 10
529.7298122096709
 20
845.3585567989867
 30
0.0
 11
529.7298122096709
 21
835.1321163692992
 31
0.0
  0
LINE
  5
F5
330
1F
100
AcDbEntity
  8
1-2
  6
Continuous
 62
     3
370
     9
100
AcDbLine
 10
526.7296043602198
 20
787.6568273595863
 30
0.0
 11
526.7296043602198
 21
778.8420311180323
 31
0.0
  0
LINE
  5
F6
330
1F
100
AcDbEntity
  8
1-2
  6
Continuous
 62
     3
370
     9
100
AcDbLine
 10
526.7296043602198
 20
778.8420311180323
 30
0.0
 11
529.7298122096709
 21
777.8193623310813
 31
0.0
  0
LINE
  5
F7
330
1F
100
AcDbEntity
  8
1-2
  6
Continuous
 62
     3
370
     9
100
AcDbLine
 10
526.7296043602198
 20
787.6568273595863
 30
0.0
 11
529.7298122096709
 21
788.6792487067146
 31
0.0
  0
LINE
  5
F8
330
1F
100
AcDbEntity
  8
1-2
  6
Continuous
 62
     3
370
     9
100
AcDbLine
 10
529.7298122096709
 20
798.9061840160474
 30
0.0
 11
529.7298122096709
 21
788.6792487067146
 31
0.0
  0
LINE
  5
F9
330
1F
100
AcDbEntity
  8
1-2
  6
Continuous
 62
     3
370
     9
100
AcDbLine
 10
529.7298122096709
 20
939.3243243243245
 30
0.0
 11
529.7298122096709
 21
928.0376042546453
 31
0.0
  0
LINE
  5
FA
330
1F
100
AcDbEntity
  8
1-2
  6
Continuous
 62
     3
370
     9
100
AcDbLine
 10
529.7298122096709
 20
777.8193623310813
 30
0.0
 11
529.7298122096709
 21
767.5929219013938
 31
0.0
  0
LINE
  5
FB
330
1F
100
AcDbEntity
  8
1-2
  6
Continuous
 62
     3
370
     9
100
AcDbLine
 10
526.7296043602198
 20
766.5702531144427
 30
0.0
 11
529.7298122096709
 21
767.5929219013938
 31
0.0
  0
LINE
  5
FC
330
1F
100
AcDbEntity
  8
1-2
  6
Continuous
 62
     3
370
     9
100
AcDbLine
 10
526.7296043602198
 20
766.5702531144427
 30
0.0
 11
526.7296043602198
 21
753.4754902607688
 31
0.0
  0
LINE
  5
FD
330
1F
100
AcDbEntity
  8
1-2
  6
Continuous
 62
     3
370
     9
100
AcDbLine
 10
526.7296043602198
 20
753.4754902607688
 30
0.0
 11
529.7298122096709
 21
752.4530689136404
 31
0.0
  0
LINE
  5
FE
330
1F
100
AcDbEntity
  8
1-2
  6
Continuous
 62
     3
370
     9
100
AcDbLine
 10
526.7296043602198
 20
741.2039596970019
 30
0.0
 11
526.7296043602198
 21
732.3891634554477
 31
0.0
  0
LINE
  5
FF
330
1F
100
AcDbEntity
  8
1-2
  6
Continuous
 62
     3
370
     9
100
AcDbLine
 10
526.7296043602198
 20
732.3891634554477
 30
0.0
 11
529.7298122096709
 21
731.3664946684967
 31
0.0
  0
LINE
  5
100
330
1F
100
AcDbEntity
  8
1-2
  6
Continuous
 62
     3
370
     9
100
AcDbLine
 10
526.7296043602198
 20
741.2039596970019
 30
0.0
 11
529.7298122096709
 21
742.2266284839529
 31
0.0
  0
LINE
  5
101
330
1F
100
AcDbEntity
  8
1-2
  6
Continuous
 62
     3
370
     9
100
AcDbLine
 10
529.7298122096709
 20
752.4530689136404
 30
0.0
 11
529.7298122096709
 21
742.2266284839529
 31
0.0
  0
LINE
  5
102
330
1F
100
AcDbEntity
  8
1-2
  6
Continuous
 62
     3
370
     9
100
AcDbLine
 10
529.7298122096709
 20
731.3664946684967
 30
0.0
 11
529.7298122096709
 21
721.1403016786318
 31
0.0
  0
LINE
  5
103
330
1F
100
AcDbEntity
  8
1-2
  6
Continuous
 62
     3
370
     9
100
AcDbLine
 10
526.7296043602198
 20
720.1173854518584
 30
0.0
 11
529.7298122096709
 21
721.1403016786318
 31
0.0
  0
LINE
  5
104
330
1F
100
AcDbEntity
  8
1-2
  6
Continuous
 62
     3
370
     9
100
AcDbLine
 10
526.7296043602198
 20
720.1173854518584
 30
0.0
 11
526.7296043602198
 21
707.0226225981842
 31
0.0
  0
LINE
  5
105
330
1F
100
AcDbEntity
  8
1-2
  6
Continuous
 62
     3
370
     9
100
AcDbLine
 10
526.7296043602198
 20
707.0226225981842
 30
0.0
 11
529.7298122096709
 21
706.0002012510557
 31
0.0
  0
LINE
  5
106
330
1F
100
AcDbEntity
  8
1-2
  6
Continuous
 62
     3
370
     9
100
AcDbLine
 10
526.7296043602198
 20
694.7510920344175
 30
0.0
 11
526.7296043602198
 21
685.9362957928633
 31
0.0
  0
LINE
  5
107
330
1F
100
AcDbEntity
  8
1-2
  6
Continuous
 62
     3
370
     9
100
AcDbLine
 10
526.7296043602198
 20
685.9362957928633
 30
0.0
 11
529.7298122096709
 21
684.9136270059123
 31
0.0
  0
LINE
  5
108
330
1F
100
AcDbEntity
  8
1-2
  6
Continuous
 62
     3
370
     9
100
AcDbLine
 10
526.7296043602198
 20
694.7510920344175
 30
0.0
 11
529.7298122096709
 21
695.7737608213682
 31
0.0
  0
LINE
  5
109
330
1F
100
AcDbEntity
  8
1-2
  6
Continuous
 62
     3
370
     9
100
AcDbLine
 10
529.7298122096709
 20
706.0002012510557
 30
0.0
 11
529.7298122096709
 21
695.7737608213682
 31
0.0
  0
LINE
  5
10A
330
1F
100
AcDbEntity
  8
1-2
  6
Continuous
 62
     3
370
     9
100
AcDbLine
 10
529.7298122096709
 20
684.9136270059123
 30
0.0
 11
529.7298122096709
 21
674.6874340160474
 31
0.0
  0
LINE
  5
10B
330
1F
100
AcDbEntity
  8
1-2
  6
Continuous
 62
     3
370
     9
100
AcDbLine
 10
570.7298485008448
 20
930.3241956556167
 30
0.0
 11
570.7298485008448
 21
-291.6754315350506
 31
0.0
  0
LINE
  5
10C
330
1F
100
AcDbEntity
  8
1-2
  6
Continuous
 62
     3
370
     9
100
AcDbLine
 10
568.7295449746625
 20
930.3241956556167
 30
0.0
 11
568.7295449746625
 21
-291.6754315350506
 31
0.0
  0
LINE
  5
10D
330
1F
100
AcDbEntity
  8
1-2
  6
Continuous
 62
     3
370
     9
100
AcDbLine
 10
526.7296043602198
 20
673.6645177892738
 30
0.0
 11
529.7298122096709
 21
674.6874340160474
 31
0.0
  0
LINE
  5
10E
330
1F
100
AcDbEntity
  8
1-2
  6
Continuous
 62
     3
370
     9
100
AcDbLine
 10
526.7296043602198
 20
673.6645177892738
 30
0.0
 11
526.7296043602198
 21
660.5697549355998
 31
0.0
  0
LINE
  5
10F
330
1F
100
AcDbEntity
  8
1-2
  6
Continuous
 62
     3
370
     9
100
AcDbLine
 10
526.7296043602198
 20
660.5697549355998
 30
0.0
 11
529.7298122096709
 21
659.5473335884714
 31
0.0
  0
LINE
  5
110
330
1F
100
AcDbEntity
  8
1-2
  6
Continuous
 62
     3
370
     9
100
AcDbLine
 10
526.7296043602198
 20
648.2982243718328
 30
0.0
 11
526.7296043602198
 21
639.483428130279
 31
0.0
  0
LINE
  5
111
330
1F
100
AcDbEntity
  8
1-2
  6
Continuous
 62
     3
370
     9
100
AcDbLine
 10
526.7296043602198
 20
639.483428130279
 30
0.0
 11
529.7298122096709
 21
638.4607593433279
 31
0.0
  0
LINE
  5
112
330
1F
100
AcDbEntity
  8
1-2
  6
Continuous
 62
     3
370
     9
100
AcDbLine
 10
526.7296043602198
 20
648.2982243718328
 30
0.0
 11
529.7298122096709
 21
649.3208931587839
 31
0.0
  0
LINE
  5
113
330
1F
100
AcDbEntity
  8
1-2
  6
Continuous
 62
     3
370
     9
100
AcDbLine
 10
529.7298122096709
 20
659.5473335884714
 30
0.0
 11
529.7298122096709
 21
649.3208931587839
 31
0.0
  0
LINE
  5
114
330
1F
100
AcDbEntity
  8
1-2
  6
Continuous
 62
     3
370
     9
100
AcDbLine
 10
529.7298122096709
 20
638.4607593433279
 30
0.0
 11
529.7298122096709
 21
628.234566353463
 31
0.0
  0
LINE
  5
115
330
1F
100
AcDbEntity
  8
1-2
  6
Continuous
 62
     3
370
     9
100
AcDbLine
 10
526.7296043602198
 20
627.2116501266894
 30
0.0
 11
529.7298122096709
 21
628.234566353463
 31
0.0
  0
LINE
  5
116
330
1F
100
AcDbEntity
  8
1-2
  6
Continuous
 62
     3
370
     9
100
AcDbLine
 10
526.7296043602198
 20
627.2116501266894
 30
0.0
 11
526.7296043602198
 21
614.1168872730154
 31
0.0
  0
LINE
  5
117
330
1F
100
AcDbEntity
  8
1-2
  6
Continuous
 62
     3
370
     9
100
AcDbLine
 10
526.7296043602198
 20
614.1168872730154
 30
0.0
 11
529.7298122096709
 21
613.094465925887
 31
0.0
  0
LINE
  5
118
330
1F
100
AcDbEntity
  8
1-2
  6
Continuous
 62
     3
370
     9
100
AcDbLine
 10
526.7296043602198
 20
601.8453567092484
 30
0.0
 11
526.7296043602198
 21
593.0305604676943
 31
0.0
  0
LINE
  5
119
330
1F
100
AcDbEntity
  8
1-2
  6
Continuous
 62
     3
370
     9
100
AcDbLine
 10
526.7296043602198
 20
593.0305604676943
 30
0.0
 11
529.7298122096709
 21
592.0078916807432
 31
0.0
  0
LINE
  5
11A
330
1F
100
AcDbEntity
  8
1-2
  6
Continuous
 62
     3
370
     9
100
AcDbLine
 10
526.7296043602198
 20
601.8453567092484
 30
0.0
 11
529.7298122096709
 21
602.8680254961995
 31
0.0
  0
LINE
  5
11B
330
1F
100
AcDbEntity
  8
1-2
  6
Continuous
 62
     3
370
     9
100
AcDbLine
 10
529.7298122096709
 20
613.094465925887
 30
0.0
 11
529.7298122096709
 21
602.8680254961995
 31
0.0
  0
LINE
  5
11C
330
1F
100
AcDbEntity
  8
1-2
  6
Continuous
 62
     3
370
     9
100
AcDbLine
 10
529.7298122096709
 20
592.0078916807432
 30
0.0
 11
529.7298122096709
 21
581.7816986908783
 31
0.0
  0
LINE
  5
11D
330
1F
100
AcDbEntity
  8
1-2
  6
Continuous
 62
     3
370
     9
100
AcDbLine
 10
526.7296043602198
 20
580.758782464105
 30
0.0
 11
529.7298122096709
 21
581.7816986908783
 31
0.0
  0
LINE
  5
11E
330
1F
100
AcDbEntity
  8
1-2
  6
Continuous
 62
     3
370
     9
100
AcDbLine
 10
526.7296043602198
 20
580.758782464105
 30
0.0
 11
526.7296043602198
 21
567.6640196104307
 31
0.0
  0
LINE
  5
11F
330
1F
100
AcDbEntity
  8
1-2
  6
Continuous
 62
     3
370
     9
100
AcDbLine
 10
526.7296043602198
 20
567.6640196104307
 30
0.0
 11
529.7298122096709
 21
566.6415982633023
 31
0.0
  0
LINE
  5
120
330
1F
100
AcDbEntity
  8
1-2
  6
Continuous
 62
     3
370
     9
100
AcDbLine
 10
526.7296043602198
 20
555.3924890466641
 30
0.0
 11
526.7296043602198
 21
546.5776928051099
 31
0.0
  0
LINE
  5
121
330
1F
100
AcDbEntity
  8
1-2
  6
Continuous
 62
     3
370
     9
100
AcDbLine
 10
526.7296043602198
 20
546.5776928051099
 30
0.0
 11
529.7298122096709
 21
545.5550240181589
 31
0.0
  0
LINE
  5
122
330
1F
100
AcDbEntity
  8
1-2
  6
Continuous
 62
     3
370
     9
100
AcDbLine
 10
526.7296043602198
 20
555.3924890466641
 30
0.0
 11
529.7298122096709
 21
556.4151578336148
 31
0.0
  0
LINE
  5
123
330
1F
100
AcDbEntity
  8
1-2
  6
Continuous
 62
     3
370
     9
100
AcDbLine
 10
529.7298122096709
 20
566.6415982633023
 30
0.0
 11
529.7298122096709
 21
556.4151578336148
 31
0.0
  0
LINE
  5
124
330
1F
100
AcDbEntity
  8
1-2
  6
Continuous
 62
     3
370
     9
100
AcDbLine
 10
529.7298122096709
 20
545.5550240181589
 30
0.0
 11
529.7298122096709
 21
535.328831028294
 31
0.0
  0
LINE
  5
125
330
1F
100
AcDbEntity
  8
1-2
  6
Continuous
 62
     3
370
     9
100
AcDbLine
 10
526.7296043602198
 20
534.3059148015203
 30
0.0
 11
529.7298122096709
 21
535.328831028294
 31
0.0
  0
LINE
  5
126
330
1F
100
AcDbEntity
  8
1-2
  6
Continuous
 62
     3
370
     9
100
AcDbLine
 10
526.7296043602198
 20
534.3059148015203
 30
0.0
 11
526.7296043602198
 21
521.2111519478464
 31
0.0
  0
LINE
  5
127
330
1F
100
AcDbEntity
  8
1-2
  6
Continuous
 62
     3
370
     9
100
AcDbLine
 10
526.7296043602198
 20
521.2111519478464
 30
0.0
 11
529.7298122096709
 21
520.1887306007179
 31
0.0
  0
LINE
  5
128
330
1F
100
AcDbEntity
  8
1-2
  6
Continuous
 62
     3
370
     9
100
AcDbLine
 10
526.7296043602198
 20
508.9396213840794
 30
0.0
 11
526.7296043602198
 21
500.1248251425255
 31
0.0
  0
LINE
  5
129
330
1F
100
AcDbEntity
  8
1-2
  6
Continuous
 62
     3
370
     9
100
AcDbLine
 10
526.7296043602198
 20
500.1248251425255
 30
0.0
 11
529.7298122096709
 21
499.1021563555745
 31
0.0
  0
LINE
  5
12A
330
1F
100
AcDbEntity
  8
1-2
  6
Continuous
 62
     3
370
     9
100
AcDbLine
 10
526.7296043602198
 20
508.9396213840794
 30
0.0
 11
529.7298122096709
 21
509.9622901710305
 31
0.0
  0
LINE
  5
12B
330
1F
100
AcDbEntity
  8
1-2
  6
Continuous
 62
     3
370
     9
100
AcDbLine
 10
529.7298122096709
 20
520.1887306007179
 30
0.0
 11
529.7298122096709
 21
509.9622901710305
 31
0.0
  0
LINE
  5
12C
330
1F
100
AcDbEntity
  8
1-2
  6
Continuous
 62
     3
370
     9
100
AcDbLine
 10
529.7298122096709
 20
499.1021563555745
 30
0.0
 11
529.7298122096709
 21
488.8759633657097
 31
0.0
  0
LINE
  5
12D
330
1F
100
AcDbEntity
  8
1-2
  6
Continuous
 62
     3
370
     9
100
AcDbLine
 10
526.7296043602198
 20
487.8530471389359
 30
0.0
 11
529.7298122096709
 21
488.8759633657097
 31
0.0
  0
LINE
  5
12E
330
1F
100
AcDbEntity
  8
1-2
  6
Continuous
 62
     3
370
     9
100
AcDbLine
 10
526.7296043602198
 20
487.8530471389359
 30
0.0
 11
526.7296043602198
 21
474.758284285262
 31
0.0
  0
LINE
  5
12F
330
1F
100
AcDbEntity
  8
1-2
  6
Continuous
 62
     3
370
     9
100
AcDbLine
 10
526.7296043602198
 20
474.758284285262
 30
0.0
 11
529.7298122096709
 21
473.7358629381336
 31
0.0
  0
LINE
  5
130
330
1F
100
AcDbEntity
  8
1-2
  6
Continuous
 62
     3
370
     9
100
AcDbLine
 10
526.7296043602198
 20
462.4867537214951
 30
0.0
 11
526.7296043602198
 21
453.6719574799409
 31
0.0
  0
LINE
  5
131
330
1F
100
AcDbEntity
  8
1-2
  6
Continuous
 62
     3
370
     9
100
AcDbLine
 10
526.7296043602198
 20
453.6719574799409
 30
0.0
 11
529.7298122096709
 21
452.6492886929898
 31
0.0
  0
LINE
  5
132
330
1F
100
AcDbEntity
  8
1-2
  6
Continuous
 62
     3
370
     9
100
AcDbLine
 10
526.7296043602198
 20
462.4867537214951
 30
0.0
 11
529.7298122096709
 21
463.5094225084461
 31
0.0
  0
LINE
  5
133
330
1F
100
AcDbEntity
  8
1-2
  6
Continuous
 62
     3
370
     9
100
AcDbLine
 10
529.7298122096709
 20
473.7358629381336
 30
0.0
 11
529.7298122096709
 21
463.5094225084461
 31
0.0
  0
LINE
  5
134
330
1F
100
AcDbEntity
  8
1-2
  6
Continuous
 62
     3
370
     9
100
AcDbLine
 10
529.7298122096709
 20
452.6492886929898
 30
0.0
 11
529.7298122096709
 21
442.423095703125
 31
0.0
  0
LINE
  5
135
330
1F
100
AcDbEntity
  8
1-2
  6
Continuous
 62
     3
370
     9
100
AcDbLine
 10
526.7296043602198
 20
441.4001794763516
 30
0.0
 11
529.7298122096709
 21
442.423095703125
 31
0.0
  0
LINE
  5
136
330
1F
100
AcDbEntity
  8
1-2
  6
Continuous
 62
     3
370
     9
100
AcDbLine
 10
526.7296043602198
 20
441.4001794763516
 30
0.0
 11
526.7296043602198
 21
428.3054166226773
 31
0.0
  0
LINE
  5
137
330
1F
100
AcDbEntity
  8
1-2
  6
Continuous
 62
     3
370
     9
100
AcDbLine
 10
526.7296043602198
 20
428.3054166226773
 30
0.0
 11
529.7298122096709
 21
427.282995275549
 31
0.0
  0
LINE
  5
138
330
1F
100
AcDbEntity
  8
1-2
  6
Continuous
 62
     3
370
     9
100
AcDbLine
 10
526.7296043602198
 20
416.0340097788219
 30
0.0
 11
526.7296043602198
 21
407.2190898173565
 31
0.0
  0
LINE
  5
139
330
1F
100
AcDbEntity
  8
1-2
  6
Continuous
 62
     3
370
     9
100
AcDbLine
 10
526.7296043602198
 20
407.2190898173565
 30
0.0
 11
529.7298122096709
 21
406.1962973104943
 31
0.0
  0
LINE
  5
13A
330
1F
100
AcDbEntity
  8
1-2
  6
Continuous
 62
     3
370
     9
100
AcDbLine
 10
526.7296043602198
 20
416.0340097788219
 30
0.0
 11
529.7298122096709
 21
417.0565548458615
 31
0.0
  0
LINE
  5
13B
330
1F
100
AcDbEntity
  8
1-2
  6
Continuous
 62
     3
370
     9
100
AcDbLine
 10
529.7298122096709
 20
427.282995275549
 30
0.0
 11
529.7298122096709
 21
417.0565548458615
 31
0.0
  0
LINE
  5
13C
330
1F
100
AcDbEntity
  8
1-2
  6
Continuous
 62
     3
370
     9
100
AcDbLine
 10
529.7298122096709
 20
406.1962973104943
 30
0.0
 11
529.7298122096709
 21
395.9702280405406
 31
0.0
  0
LINE
  5
13D
330
1F
100
AcDbEntity
  8
1-2
  6
Continuous
 62
     3
370
     9
100
AcDbLine
 10
526.7296043602198
 20
394.9473118137669
 30
0.0
 11
529.7298122096709
 21
395.9702280405406
 31
0.0
  0
LINE
  5
13E
330
1F
100
AcDbEntity
  8
1-2
  6
Continuous
 62
     3
370
     9
100
AcDbLine
 10
526.7296043602198
 20
394.9473118137669
 30
0.0
 11
526.7296043602198
 21
381.852548960093
 31
0.0
  0
LINE
  5
13F
330
1F
100
AcDbEntity
  8
1-2
  6
Continuous
 62
     3
370
     9
100
AcDbLine
 10
526.7296043602198
 20
381.852548960093
 30
0.0
 11
529.7298122096709
 21
380.8301276129646
 31
0.0
  0
LINE
  5
140
330
1F
100
AcDbEntity
  8
1-2
  6
Continuous
 62
     3
370
     9
100
AcDbLine
 10
526.7296043602198
 20
369.581018396326
 30
0.0
 11
526.7296043602198
 21
360.7662221547722
 31
0.0
  0
LINE
  5
141
330
1F
100
AcDbEntity
  8
1-2
  6
Continuous
 62
     3
370
     9
100
AcDbLine
 10
526.7296043602198
 20
360.7662221547722
 30
0.0
 11
529.7298122096709
 21
359.7435533678211
 31
0.0
  0
LINE
  5
142
330
1F
100
AcDbEntity
  8
1-2
  6
Continuous
 62
     3
370
     9
100
AcDbLine
 10
526.7296043602198
 20
369.581018396326
 30
0.0
 11
529.7298122096709
 21
370.6036871832771
 31
0.0
  0
LINE
  5
143
330
1F
100
AcDbEntity
  8
1-2
  6
Continuous
 62
     3
370
     9
100
AcDbLine
 10
529.7298122096709
 20
380.8301276129646
 30
0.0
 11
529.7298122096709
 21
370.6036871832771
 31
0.0
  0
LINE
  5
144
330
1F
100
AcDbEntity
  8
1-2
  6
Continuous
 62
     3
370
     9
100
AcDbLine
 10
529.7298122096709
 20
359.7435533678211
 30
0.0
 11
529.7298122096709
 21
349.5173603779563
 31
0.0
  0
LINE
  5
145
330
1F
100
AcDbEntity
  8
1-2
  6
Continuous
 62
     3
370
     9
100
AcDbLine
 10
526.7296043602198
 20
348.4944441511826
 30
0.0
 11
529.7298122096709
 21
349.5173603779563
 31
0.0
  0
LINE
  5
146
330
1F
100
AcDbEntity
  8
1-2
  6
Continuous
 62
     3
370
     9
100
AcDbLine
 10
526.7296043602198
 20
348.4944441511826
 30
0.0
 11
526.7296043602198
 21
335.3996812975086
 31
0.0
  0
LINE
  5
147
330
1F
100
AcDbEntity
  8
1-2
  6
Continuous
 62
     3
370
     9
100
AcDbLine
 10
526.7296043602198
 20
335.3996812975086
 30
0.0
 11
529.7298122096709
 21
334.3772599503802
 31
0.0
  0
LINE
  5
148
330
1F
100
AcDbEntity
  8
1-2
  6
Continuous
 62
     3
370
     9
100
AcDbLine
 10
526.7296043602198
 20
102.0416589685388
 30
0.0
 11
529.7298122096709
 21
103.0645751953125
 31
0.0
  0
LINE
  5
149
330
1F
100
AcDbEntity
  8
1-2
  6
Continuous
 62
     3
370
     9
100
AcDbLine
 10
526.7296043602198
 20
102.0416589685388
 30
0.0
 11
526.7296043602198
 21
88.94689611486484
 31
0.0
  0
LINE
  5
14A
330
1F
100
AcDbEntity
  8
1-2
  6
Continuous
 62
     3
370
     9
100
AcDbLine
 10
526.7296043602198
 20
88.94689611486484
 30
0.0
 11
529.7298122096709
 21
87.92447476773646
 31
0.0
  0
LINE
  5
14B
330
1F
100
AcDbEntity
  8
1-2
  6
Continuous
 62
     3
370
     9
100
AcDbLine
 10
526.7296043602198
 20
76.6753655510982
 30
0.0
 11
526.7296043602198
 21
67.86056930954402
 31
0.0
  0
LINE
  5
14C
330
1F
100
AcDbEntity
  8
1-2
  6
Continuous
 62
     3
370
     9
100
AcDbLine
 10
526.7296043602198
 20
67.86056930954402
 30
0.0
 11
529.7298122096709
 21
66.83790052259297
 31
0.0
  0
LINE
  5
14D
330
1F
100
AcDbEntity
  8
1-2
  6
Continuous
 62
     3
370
     9
100
AcDbLine
 10
526.7296043602198
 20
76.6753655510982
 30
0.0
 11
529.7298122096709
 21
77.69803433804896
 31
0.0
  0
LINE
  5
14E
330
1F
100
AcDbEntity
  8
1-2
  6
Continuous
 62
     3
370
     9
100
AcDbLine
 10
529.7298122096709
 20
87.92447476773646
 30
0.0
 11
529.7298122096709
 21
77.69803433804896
 31
0.0
  0
LINE
  5
14F
330
1F
100
AcDbEntity
  8
1-2
  6
Continuous
 62
     3
370
     9
100
AcDbLine
 10
529.7298122096709
 20
66.83790052259297
 30
0.0
 11
529.7298122096709
 21
56.61170753272813
 31
0.0
  0
LINE
  5
150
330
1F
100
AcDbEntity
  8
1-2
  6
Continuous
 62
     3
370
     9
100
AcDbLine
 10
526.7296043602198
 20
55.58879130595443
 30
0.0
 11
529.7298122096709
 21
56.61170753272813
 31
0.0
  0
LINE
  5
151
330
1F
100
AcDbEntity
  8
1-2
  6
Continuous
 62
     3
370
     9
100
AcDbLine
 10
526.7296043602198
 20
55.58879130595443
 30
0.0
 11
526.7296043602198
 21
42.49402845228047
 31
0.0
  0
LINE
  5
152
330
1F
100
AcDbEntity
  8
1-2
  6
JWW_CENTER1
 62
     3
370
     9
100
AcDbLine
 10
491.7906065244932
 20
319.3243820602831
 30
0.0
 11
609.7340351826438
 21
319.3243820602831
 31
0.0
  0
LINE
  5
153
330
1F
100
AcDbEntity
  8
1-4
  6
Continuous
 62
     7
370
     9
100
AcDbLine
 10
-1158.162132469383
 20
-325.6755189637879
 30
0.0
 11
-1158.162132469383
 21
-440.9722075591216
 31
0.0
  0
LINE
  5
154
330
1F
100
AcDbEntity
  8
1-4
  6
Continuous
 62
     7
370
     9
100
AcDbLine
 10
529.7298122096709
 20
-437.9722471494932
 30
0.0
 11
779.7296472497891
 21
-437.9722471494932
 31
0.0
  0
LINE
  5
155
330
1F
100
AcDbEntity
  8
1-4
  6
Continuous
 62
     7
370
     9
100
AcDbLine
 10
529.7298122096709
 20
-325.6755189637879
 30
0.0
 11
529.7298122096709
 21
-520.9722240551098
 31
0.0
  0
LINE
  5
156
330
1F
100
AcDbEntity
  8
1-4
  6
Continuous
 62
     7
370
     9
100
AcDbLine
 10
579.7297297297297
 20
-325.6755189637879
 30
0.0
 11
579.7297297297297
 21
-440.9722075591216
 31
0.0
  0
LINE
  5
157
330
1F
100
AcDbEntity
  8
1-4
  6
Continuous
 62
     7
370
     9
100
AcDbLine
 10
529.7298122096709
 20
-517.9723873653927
 30
0.0
 11
779.7293998099661
 21
-517.9723873653927
 31
0.0
  0
LINE
  5
158
330
1F
100
AcDbEntity
  8
1-4
  6
Continuous
 62
     7
370
     9
100
AcDbLine
 10
429.72972972973
 20
-300.6755602037583
 30
0.0
 11
429.72972972973
 21
939.3243243243245
 31
0.0
  0
LINE
  5
159
330
1F
100
AcDbEntity
  8
1-4
  6
Continuous
 62
     7
370
     9
100
AcDbLine
 10
504.7297297297297
 20
-300.6755602037583
 30
0.0
 11
426.7297693201016
 21
-300.6755602037583
 31
0.0
  0
LINE
  5
15A
330
1F
100
AcDbEntity
  8
1-4
  6
Continuous
 62
     7
370
     9
100
AcDbLine
 10
504.7297297297297
 20
939.3243243243245
 30
0.0
 11
426.7297693201016
 21
939.3243243243245
 31
0.0
  0
LINE
  5
15B
330
1F
100
AcDbEntity
  8
1-4
  6
Continuous
 62
     7
370
     9
100
AcDbLine
 10
604.7298122096709
 20
939.3243243243245
 30
0.0
 11
909.8674052470443
 21
939.3243243243245
 31
0.0
  0
LINE
  5
15C
330
1F
100
AcDbEntity
  8
1-2
  6
Continuous
 62
     3
370
     9
100
AcDbLine
 10
526.7296043602198
 20
42.49402845228047
 30
0.0
 11
529.7298122096709
 21
41.47160710515209
 31
0.0
  0
LINE
  5
15D
330
1F
100
AcDbEntity
  8
1-2
  6
Continuous
 62
     3
370
     9
100
AcDbLine
 10
529.7298122096709
 20
939.3243243243245
 30
0.0
 11
567.7298880912161
 21
939.3243243243245
 31
0.0
  0
LINE
  5
15E
330
1F
100
AcDbEntity
  8
1-2
  6
Continuous
 62
     3
370
     9
100
AcDbLine
 10
529.7298122096709
 20
930.3241956556167
 30
0.0
 11
579.7297297297297
 21
930.3241956556167
 31
0.0
  0
LINE
  5
15F
330
1F
100
AcDbEntity
  8
1-2
  6
Continuous
 62
     3
370
     9
100
AcDbLine
 10
567.7298880912161
 20
939.3243243243245
 30
0.0
 11
567.7298880912161
 21
930.3241956556167
 31
0.0
  0
LINE
  5
160
330
1F
100
AcDbEntity
  8
1-2
  6
Continuous
 62
     3
370
     9
100
AcDbLine
 10
529.7298122096709
 20
-300.6755602037583
 30
0.0
 11
567.7298880912161
 21
-300.6755602037583
 31
0.0
  0
LINE
  5
161
330
1F
100
AcDbEntity
  8
1-2
  6
Continuous
 62
     3
370
     9
100
AcDbLine
 10
567.7298880912161
 20
-291.6754315350506
 30
0.0
 11
567.7298880912161
 21
-300.6755602037583
 31
0.0
  0
LINE
  5
162
330
1F
100
AcDbEntity
  8
1-2
  6
Continuous
 62
     3
370
     9
100
AcDbLine
 10
529.7298122096709
 20
-291.6754315350506
 30
0.0
 11
579.7297297297297
 21
-291.6754315350506
 31
0.0
  0
LINE
  5
163
330
1F
100
AcDbEntity
  8
1-2
  6
Continuous
 62
     3
370
     9
100
AcDbLine
 10
579.7297297297297
 20
930.3241956556167
 30
0.0
 11
579.7297297297297
 21
-291.6754315350506
 31
0.0
  0
LINE
  5
164
330
1F
100
AcDbEntity
  8
1-2
  6
Continuous
 62
     3
370
     9
100
AcDbLine
 10
-1148.161604597762
 20
425.3242616395693
 30
0.0
 11
-1148.161604597762
 21
613.3243375211148
 31
0.0
  0
LINE
  5
165
330
1F
100
AcDbEntity
  8
1-2
  6
Continuous
 62
     3
370
     9
100
AcDbLine
 10
-1148.161604597762
 20
625.3241791596283
 30
0.0
 11
-1148.161604597762
 21
813.3240076013516
 31
0.0
  0
LINE
  5
166
330
1F
100
AcDbEntity
  8
1-2
  6
Continuous
 62
     3
370
     9
100
AcDbLine
 10
538.7299408783787
 20
930.3241956556167
 30
0.0
 11
538.7299408783787
 21
824.9808976456927
 31
0.0
  0
LINE
  5
167
330
1F
100
AcDbEntity
  8
1-2
  6
Continuous
 62
     3
370
     9
100
AcDbLine
 10
540.7297495249156
 20
930.3241956556167
 30
0.0
 11
540.7297495249156
 21
823.7961557749156
 31
0.0
  0
LINE
  5
168
330
1F
100
AcDbEntity
  8
1-2
  6
Continuous
 62
     3
370
     9
100
AcDbLine
 10
538.7299408783787
 20
813.667454075169
 30
0.0
 11
538.7299408783787
 21
624.980732685811
 31
0.0
  0
LINE
  5
169
330
1F
100
AcDbEntity
  8
1-2
  6
Continuous
 62
     3
370
     9
100
AcDbLine
 10
540.7297495249156
 20
814.852195945946
 30
0.0
 11
540.7297495249156
 21
623.7959908150339
 31
0.0
  0
LINE
  5
16A
330
1F
100
AcDbEntity
  8
1-2
  6
Continuous
 62
     3
370
     9
100
AcDbLine
 10
538.7299408783787
 20
613.6672891152873
 30
0.0
 11
538.7299408783787
 21
424.980938885663
 31
0.0
  0
LINE
  5
16B
330
1F
100
AcDbEntity
  8
1-2
  6
Continuous
 62
     3
370
     9
100
AcDbLine
 10
540.7297495249156
 20
614.8520309860644
 30
0.0
 11
540.7297495249156
 21
423.7963207347974
 31
0.0
  0
LINE
  5
16C
330
1F
100
AcDbEntity
  8
1-2
  6
Continuous
 62
     3
370
     9
100
AcDbLine
 10
-1158.162132469383
 20
-300.6755602037583
 30
0.0
 11
-1158.162132469383
 21
939.3243243243245
 31
0.0
  0
LINE
  5
16D
330
1F
100
AcDbEntity
  8
1-2
  6
Continuous
 62
     3
370
     9
100
AcDbLine
 10
529.7298122096709
 20
31.24516667546459
 30
0.0
 11
529.7298122096709
 21
28.32463444890209
 31
0.0
  0
LINE
  5
16E
330
1F
100
AcDbEntity
  8
1-2
  6
Continuous
 62
     3
370
     9
100
AcDbLine
 10
526.7296043602198
 20
27.56635511243672
 30
0.0
 11
526.7296043602198
 21
14.47159225876277
 31
0.0
  0
LINE
  5
16F
330
1F
100
AcDbEntity
  8
1-2
  6
Continuous
 62
     3
370
     9
100
AcDbLine
 10
526.7296043602198
 20
14.47159225876277
 30
0.0
 11
529.7298122096709
 21
13.44917091163438
 31
0.0
  0
LINE
  5
170
330
1F
100
AcDbEntity
  8
1-2
  6
Continuous
 62
     3
370
     9
100
AcDbLine
 10
526.7296043602198
 20
2.200061694995838
 30
0.0
 11
526.7296043602198
 21
-6.614734546558054
 31
0.0
  0
LINE
  5
171
330
1F
100
AcDbEntity
  8
1-2
  6
Continuous
 62
     3
370
     9
100
AcDbLine
 10
526.7296043602198
 20
-6.614734546558054
 30
0.0
 11
529.7298122096709
 21
-7.637403333509099
 31
0.0
  0
LINE
  5
172
330
1F
100
AcDbEntity
  8
1-2
  6
Continuous
 62
     3
370
     9
100
AcDbLine
 10
526.7296043602198
 20
2.200061694995838
 30
0.0
 11
529.7298122096709
 21
3.222730481946883
 31
0.0
  0
LINE
  5
173
330
1F
100
AcDbEntity
  8
1-2
  6
Continuous
 62
     3
370
     9
100
AcDbLine
 10
529.7298122096709
 20
13.44917091163438
 30
0.0
 11
529.7298122096709
 21
3.222730481946883
 31
0.0
  0
LINE
  5
174
330
1F
100
AcDbEntity
  8
1-2
  6
Continuous
 62
     3
370
     9
100
AcDbLine
 10
529.7298122096709
 20
-7.637403333509099
 30
0.0
 11
529.7298122096709
 21
-17.86359632337394
 31
0.0
  0
LINE
  5
175
330
1F
100
AcDbEntity
  8
1-2
  6
Continuous
 62
     3
370
     9
100
AcDbLine
 10
526.7296043602198
 20
-18.88651255014764
 30
0.0
 11
529.7298122096709
 21
-17.86359632337394
 31
0.0
  0
LINE
  5
176
330
1F
100
AcDbEntity
  8
1-2
  6
Continuous
 62
     3
370
     9
100
AcDbLine
 10
526.7296043602198
 20
-18.88651255014764
 30
0.0
 11
526.7296043602198
 21
-31.9812754038216
 31
0.0
  0
LINE
  5
177
330
1F
100
AcDbEntity
  8
1-2
  6
Continuous
 62
     3
370
     9
100
AcDbLine
 10
526.7296043602198
 20
-31.9812754038216
 30
0.0
 11
529.7298122096709
 21
-33.00369675094998
 31
0.0
  0
LINE
  5
178
330
1F
100
AcDbEntity
  8
1-2
  6
Continuous
 62
     3
370
     9
100
AcDbLine
 10
529.7298122096709
 20
-33.00369675094998
 30
0.0
 11
529.7298122096709
 21
-43.23013718063748
 31
0.0
  0
LINE
  5
179
330
1F
100
AcDbEntity
  8
1-2
  6
Continuous
 62
     3
370
     9
100
AcDbLine
 10
529.7298122096709
 20
-46.15066940719998
 30
0.0
 11
529.7298122096709
 21
-46.35517842060807
 31
0.0
  0
LINE
  5
17A
330
1F
100
AcDbEntity
  8
1-2
  6
Continuous
 62
     3
370
     9
100
AcDbLine
 10
529.7298122096709
 20
-43.23013718063748
 30
0.0
 11
529.7298122096709
 21
-46.15066940719998
 31
0.0
  0
LINE
  5
17B
330
1F
100
AcDbEntity
  8
1-2
  6
Continuous
 62
     3
370
     9
100
AcDbLine
 10
526.7296043602198
 20
27.56635511243672
 30
0.0
 11
529.7298122096709
 21
28.58927133921043
 31
0.0
  0
LINE
  5
17C
330
1F
100
AcDbEntity
  8
1-2
  6
Continuous
 62
     3
370
     9
100
AcDbLine
 10
529.7298122096709
 20
41.47160710515209
 30
0.0
 11
529.7298122096709
 21
28.58927133921043
 31
0.0
  0
LINE
  5
17D
330
1F
100
AcDbEntity
  8
1-2
  6
Continuous
 62
     3
370
     9
100
AcDbLine
 10
526.7296043602198
 20
-47.37809464738177
 30
0.0
 11
529.7298122096709
 21
-46.35517842060807
 31
0.0
  0
LINE
  5
17E
330
1F
100
AcDbEntity
  8
1-2
  6
Continuous
 62
     3
370
     9
100
AcDbLine
 10
526.7296043602198
 20
-47.37809464738177
 30
0.0
 11
526.7296043602198
 21
-60.47285750105573
 31
0.0
  0
LINE
  5
17F
330
1F
100
AcDbEntity
  8
1-2
  6
Continuous
 62
     3
370
     9
100
AcDbLine
 10
526.7296043602198
 20
-60.47285750105573
 30
0.0
 11
529.7298122096709
 21
-61.49527884818411
 31
0.0
  0
LINE
  5
180
330
1F
100
AcDbEntity
  8
1-2
  6
Continuous
 62
     3
370
     9
100
AcDbLine
 10
529.7298122096709
 20
-61.49527884818411
 30
0.0
 11
529.7298122096709
 21
-71.72171927787161
 31
0.0
  0
LINE
  5
181
330
1F
100
AcDbEntity
  8
1-2
  6
Continuous
 62
     3
370
     9
100
AcDbLine
 10
-1148.161604597762
 20
25.32430287953986
 30
0.0
 11
-1148.161604597762
 21
213.3245024809966
 31
0.0
  0
LINE
  5
182
330
1F
100
AcDbEntity
  8
1-2
  6
Continuous
 62
     3
370
     9
100
AcDbLine
 10
-1148.161604597762
 20
225.324220399599
 30
0.0
 11
-1148.161604597762
 21
413.3245437209672
 31
0.0
  0
LINE
  5
183
330
1F
100
AcDbEntity
  8
1-2
  6
Continuous
 62
     3
370
     9
100
AcDbLine
 10
529.7298122096709
 20
334.3772599503802
 30
0.0
 11
529.7298122096709
 21
324.1511906804266
 31
0.0
  0
LINE
  5
184
330
1F
100
AcDbEntity
  8
1-2
  6
Continuous
 62
     3
370
     9
100
AcDbLine
 10
526.7296043602198
 20
323.1282744536529
 30
0.0
 11
529.7298122096709
 21
324.1511906804266
 31
0.0
  0
LINE
  5
185
330
1F
100
AcDbEntity
  8
1-2
  6
Continuous
 62
     3
370
     9
100
AcDbLine
 10
526.7296043602198
 20
323.1282744536529
 30
0.0
 11
526.7296043602198
 21
310.0335115999789
 31
0.0
  0
LINE
  5
186
330
1F
100
AcDbEntity
  8
1-2
  6
Continuous
 62
     3
370
     9
100
AcDbLine
 10
526.7296043602198
 20
310.0335115999789
 30
0.0
 11
529.7298122096709
 21
309.0110902528505
 31
0.0
  0
LINE
  5
187
330
1F
100
AcDbEntity
  8
1-2
  6
Continuous
 62
     3
370
     9
100
AcDbLine
 10
526.7296043602198
 20
297.761981036212
 30
0.0
 11
526.7296043602198
 21
288.9471847946581
 31
0.0
  0
LINE
  5
188
330
1F
100
AcDbEntity
  8
1-2
  6
Continuous
 62
     3
370
     9
100
AcDbLine
 10
526.7296043602198
 20
288.9471847946581
 30
0.0
 11
529.7298122096709
 21
287.924516007707
 31
0.0
  0
LINE
  5
189
330
1F
100
AcDbEntity
  8
1-2
  6
Continuous
 62
     3
370
     9
100
AcDbLine
 10
526.7296043602198
 20
297.761981036212
 30
0.0
 11
529.7298122096709
 21
298.784649823163
 31
0.0
  0
LINE
  5
18A
330
1F
100
AcDbEntity
  8
1-2
  6
Continuous
 62
     3
370
     9
100
AcDbLine
 10
529.7298122096709
 20
309.0110902528505
 30
0.0
 11
529.7298122096709
 21
298.784649823163
 31
0.0
  0
LINE
  5
18B
330
1F
100
AcDbEntity
  8
1-2
  6
Continuous
 62
     3
370
     9
100
AcDbLine
 10
529.7298122096709
 20
287.924516007707
 30
0.0
 11
529.7298122096709
 21
277.6983230178422
 31
0.0
  0
LINE
  5
18C
330
1F
100
AcDbEntity
  8
1-2
  6
Continuous
 62
     3
370
     9
100
AcDbLine
 10
526.7296043602198
 20
276.6754067910685
 30
0.0
 11
529.7298122096709
 21
277.6983230178422
 31
0.0
  0
LINE
  5
18D
330
1F
100
AcDbEntity
  8
1-2
  6
Continuous
 62
     3
370
     9
100
AcDbLine
 10
526.7296043602198
 20
276.6754067910685
 30
0.0
 11
526.7296043602198
 21
263.5806439373945
 31
0.0
  0
LINE
  5
18E
330
1F
100
AcDbEntity
  8
1-2
  6
Continuous
 62
     3
370
     9
100
AcDbLine
 10
526.7296043602198
 20
263.5806439373945
 30
0.0
 11
529.7298122096709
 21
262.5582225902662
 31
0.0
  0
LINE
  5
18F
330
1F
100
AcDbEntity
  8
1-2
  6
Continuous
 62
     3
370
     9
100
AcDbLine
 10
529.7298122096709
 20
262.5582225902662
 30
0.0
 11
529.7298122096709
 21
252.3321533203125
 31
0.0
  0
LINE
  5
190
330
1F
100
AcDbEntity
  8
1-2
  6
Continuous
 62
     3
370
     9
100
AcDbLine
 10
526.7296043602198
 20
251.3092370935391
 30
0.0
 11
529.7298122096709
 21
252.3321533203125
 31
0.0
  0
LINE
  5
191
330
1F
100
AcDbEntity
  8
1-2
  6
Continuous
 62
     3
370
     9
100
AcDbLine
 10
526.7296043602198
 20
251.3092370935391
 30
0.0
 11
526.7296043602198
 21
238.2144742398648
 31
0.0
  0
LINE
  5
192
330
1F
100
AcDbEntity
  8
1-2
  6
Continuous
 62
     3
370
     9
100
AcDbLine
 10
526.7296043602198
 20
238.2144742398648
 30
0.0
 11
529.7298122096709
 21
237.1920528927365
 31
0.0
  0
LINE
  5
193
330
1F
100
AcDbEntity
  8
1-2
  6
Continuous
 62
     3
370
     9
100
AcDbLine
 10
526.7296043602198
 20
225.9429436760982
 30
0.0
 11
526.7296043602198
 21
217.128147434544
 31
0.0
  0
LINE
  5
194
330
1F
100
AcDbEntity
  8
1-2
  6
Continuous
 62
     3
370
     9
100
AcDbLine
 10
526.7296043602198
 20
217.128147434544
 30
0.0
 11
529.7298122096709
 21
216.105478647593
 31
0.0
  0
LINE
  5
195
330
1F
100
AcDbEntity
  8
1-2
  6
Continuous
 62
     3
370
     9
100
AcDbLine
 10
526.7296043602198
 20
225.9429436760982
 30
0.0
 11
529.7298122096709
 21
226.965612463049
 31
0.0
  0
LINE
  5
196
330
1F
100
AcDbEntity
  8
1-2
  6
Continuous
 62
     3
370
     9
100
AcDbLine
 10
529.7298122096709
 20
237.1920528927365
 30
0.0
 11
529.7298122096709
 21
226.965612463049
 31
0.0
  0
LINE
  5
197
330
1F
100
AcDbEntity
  8
1-2
  6
Continuous
 62
     3
370
     9
100
AcDbLine
 10
529.7298122096709
 20
216.105478647593
 30
0.0
 11
529.7298122096709
 21
205.8792856577281
 31
0.0
  0
LINE
  5
198
330
1F
100
AcDbEntity
  8
1-2
  6
Continuous
 62
     3
370
     9
100
AcDbLine
 10
526.7296043602198
 20
204.8563694309544
 30
0.0
 11
529.7298122096709
 21
205.8792856577281
 31
0.0
  0
LINE
  5
199
330
1F
100
AcDbEntity
  8
1-2
  6
Continuous
 62
     3
370
     9
100
AcDbLine
 10
526.7296043602198
 20
204.8563694309544
 30
0.0
 11
526.7296043602198
 21
191.7616065772805
 31
0.0
  0
LINE
  5
19A
330
1F
100
AcDbEntity
  8
1-2
  6
Continuous
 62
     3
370
     9
100
AcDbLine
 10
526.7296043602198
 20
191.7616065772805
 30
0.0
 11
529.7298122096709
 21
190.7391852301521
 31
0.0
  0
LINE
  5
19B
330
1F
100
AcDbEntity
  8
1-2
  6
Continuous
 62
     3
370
     9
100
AcDbLine
 10
529.7298122096709
 20
190.7391852301521
 30
0.0
 11
529.7298122096709
 21
180.5131159601984
 31
0.0
  0
LINE
  5
19C
330
1F
100
AcDbEntity
  8
1-2
  6
Continuous
 62
     3
370
     9
100
AcDbLine
 10
526.7296043602198
 20
179.490199733425
 30
0.0
 11
529.7298122096709
 21
180.5131159601984
 31
0.0
  0
LINE
  5
19D
330
1F
100
AcDbEntity
  8
1-2
  6
Continuous
 62
     3
370
     9
100
AcDbLine
 10
526.7296043602198
 20
179.490199733425
 30
0.0
 11
526.7296043602198
 21
166.3954368797511
 31
0.0
  0
LINE
  5
19E
330
1F
100
AcDbEntity
  8
1-2
  6
Continuous
 62
     3
370
     9
100
AcDbLine
 10
526.7296043602198
 20
166.3954368797511
 30
0.0
 11
529.7298122096709
 21
165.3730155326227
 31
0.0
  0
LINE
  5
19F
330
1F
100
AcDbEntity
  8
1-2
  6
Continuous
 62
     3
370
     9
100
AcDbLine
 10
526.7296043602198
 20
154.1239063159841
 30
0.0
 11
526.7296043602198
 21
145.30911007443
 31
0.0
  0
LINE
  5
1A0
330
1F
100
AcDbEntity
  8
1-2
  6
Continuous
 62
     3
370
     9
100
AcDbLine
 10
526.7296043602198
 20
145.30911007443
 30
0.0
 11
529.7298122096709
 21
144.2864412874789
 31
0.0
  0
LINE
  5
1A1
330
1F
100
AcDbEntity
  8
1-2
  6
Continuous
 62
     3
370
     9
100
AcDbLine
 10
526.7296043602198
 20
154.1239063159841
 30
0.0
 11
529.7298122096709
 21
155.1465751029352
 31
0.0
  0
LINE
  5
1A2
330
1F
100
AcDbEntity
  8
1-2
  6
Continuous
 62
     3
370
     9
100
AcDbLine
 10
529.7298122096709
 20
165.3730155326227
 30
0.0
 11
529.7298122096709
 21
155.1465751029352
 31
0.0
  0
LINE
  5
1A3
330
1F
100
AcDbEntity
  8
1-2
  6
Continuous
 62
     3
370
     9
100
AcDbLine
 10
529.7298122096709
 20
144.2864412874789
 30
0.0
 11
529.7298122096709
 21
134.0602482976141
 31
0.0
  0
LINE
  5
1A4
330
1F
100
AcDbEntity
  8
1-2
  6
Continuous
 62
     3
370
     9
100
AcDbLine
 10
526.7296043602198
 20
133.0373320708404
 30
0.0
 11
529.7298122096709
 21
134.0602482976141
 31
0.0
  0
LINE
  5
1A5
330
1F
100
AcDbEntity
  8
1-2
  6
Continuous
 62
     3
370
     9
100
AcDbLine
 10
526.7296043602198
 20
133.0373320708404
 30
0.0
 11
526.7296043602198
 21
119.9425692171664
 31
0.0
  0
LINE
  5
1A6
330
1F
100
AcDbEntity
  8
1-2
  6
Continuous
 62
     3
370
     9
100
AcDbLine
 10
526.7296043602198
 20
119.9425692171664
 30
0.0
 11
529.7298122096709
 21
118.920147870038
 31
0.0
  0
LINE
  5
1A7
330
1F
100
AcDbEntity
  8
1-2
  6
Continuous
 62
     3
370
     9
100
AcDbLine
 10
529.7298122096709
 20
118.920147870038
 30
0.0
 11
529.7298122096709
 21
103.0645751953125
 31
0.0
  0
LINE
  5
1A8
330
1F
100
AcDbEntity
  8
1-2
  6
Continuous
 62
     3
370
     9
100
AcDbLine
 10
538.7299408783787
 20
413.6674953151396
 30
0.0
 11
538.7299408783787
 21
224.9808976456927
 31
0.0
  0
LINE
  5
1A9
330
1F
100
AcDbEntity
  8
1-2
  6
Continuous
 62
     3
370
     9
100
AcDbLine
 10
538.7299408783787
 20
213.667454075169
 30
0.0
 11
538.7299408783787
 21
24.98098012563361
 31
0.0
  0
LINE
  5
1AA
330
1F
100
AcDbEntity
  8
1-2
  6
Continuous
 62
     3
370
     9
100
AcDbLine
 10
540.7297495249156
 20
414.8522371859164
 30
0.0
 11
540.7297495249156
 21
223.7961557749156
 31
0.0
  0
LINE
  5
1AB
330
1F
100
AcDbEntity
  8
1-2
  6
Continuous
 62
     3
370
     9
100
AcDbLine
 10
540.7297495249156
 20
214.8521959459461
 30
0.0
 11
540.7297495249156
 21
23.79623825485652
 31
0.0
  0
LINE
  5
1AC
330
1F
100
AcDbEntity
  8
1-2
  6
Continuous
 62
     3
370
     9
100
AcDbLine
 10
526.7296043602198
 20
-72.74463550464532
 30
0.0
 11
529.7298122096709
 21
-71.72171927787161
 31
0.0
  0
LINE
  5
1AD
330
1F
100
AcDbEntity
  8
1-2
  6
Continuous
 62
     3
370
     9
100
AcDbLine
 10
526.7296043602198
 20
-72.74463550464532
 30
0.0
 11
526.7296043602198
 21
-85.83939835831927
 31
0.0
  0
LINE
  5
1AE
330
1F
100
AcDbEntity
  8
1-2
  6
Continuous
 62
     3
370
     9
100
AcDbLine
 10
526.7296043602198
 20
-85.83939835831927
 30
0.0
 11
529.7298122096709
 21
-86.86181970544766
 31
0.0
  0
LINE
  5
1AF
330
1F
100
AcDbEntity
  8
1-2
  6
Continuous
 62
     3
370
     9
100
AcDbLine
 10
529.7298122096709
 20
-86.86181970544766
 30
0.0
 11
529.7298122096709
 21
-97.08826013513516
 31
0.0
  0
LINE
  5
1B0
330
1F
100
AcDbEntity
  8
1-2
  6
Continuous
 62
     3
370
     9
100
AcDbLine
 10
529.7298122096709
 20
-100.0087923616977
 30
0.0
 11
529.7298122096709
 21
-100.2133013751055
 31
0.0
  0
LINE
  5
1B1
330
1F
100
AcDbEntity
  8
1-2
  6
Continuous
 62
     3
370
     9
100
AcDbLine
 10
529.7298122096709
 20
-97.08826013513516
 30
0.0
 11
529.7298122096709
 21
-100.0087923616977
 31
0.0
  0
LINE
  5
1B2
330
1F
100
AcDbEntity
  8
1-2
  6
Continuous
 62
     3
370
     9
100
AcDbLine
 10
526.7296043602198
 20
-101.2362176018792
 30
0.0
 11
529.7298122096709
 21
-100.2133013751055
 31
0.0
  0
LINE
  5
1B3
330
1F
100
AcDbEntity
  8
1-2
  6
Continuous
 62
     3
370
     9
100
AcDbLine
 10
526.7296043602198
 20
-101.2362176018792
 30
0.0
 11
526.7296043602198
 21
-114.3309804555531
 31
0.0
  0
LINE
  5
1B4
330
1F
100
AcDbEntity
  8
1-2
  6
Continuous
 62
     3
370
     9
100
AcDbLine
 10
526.7296043602198
 20
-114.3309804555531
 30
0.0
 11
529.7298122096709
 21
-115.3534018026815
 31
0.0
  0
LINE
  5
1B5
330
1F
100
AcDbEntity
  8
1-2
  6
Continuous
 62
     3
370
     9
100
AcDbLine
 10
529.7298122096709
 20
-115.3534018026815
 30
0.0
 11
529.7298122096709
 21
-125.579842232369
 31
0.0
  0
LINE
  5
1B6
330
1F
100
AcDbEntity
  8
1-2
  6
Continuous
 62
     3
370
     9
100
AcDbLine
 10
526.7296043602198
 20
-126.6027584591427
 30
0.0
 11
529.7298122096709
 21
-125.579842232369
 31
0.0
  0
LINE
  5
1B7
330
1F
100
AcDbEntity
  8
1-2
  6
Continuous
 62
     3
370
     9
100
AcDbLine
 10
526.7296043602198
 20
-126.6027584591427
 30
0.0
 11
526.7296043602198
 21
-139.6975213128167
 31
0.0
  0
LINE
  5
1B8
330
1F
100
AcDbEntity
  8
1-2
  6
Continuous
 62
     3
370
     9
100
AcDbLine
 10
526.7296043602198
 20
-139.6975213128167
 30
0.0
 11
529.7298122096709
 21
-140.719942659945
 31
0.0
  0
LINE
  5
1B9
330
1F
100
AcDbEntity
  8
1-2
  6
Continuous
 62
     3
370
     9
100
AcDbLine
 10
529.7298122096709
 20
-140.719942659945
 30
0.0
 11
529.7298122096709
 21
-150.9463830896325
 31
0.0
  0
LINE
  5
1BA
330
1F
100
AcDbEntity
  8
1-2
  6
Continuous
 62
     3
370
     9
100
AcDbLine
 10
529.7298122096709
 20
-153.866915316195
 30
0.0
 11
529.7298122096709
 21
-154.0714243296028
 31
0.0
  0
LINE
  5
1BB
330
1F
100
AcDbEntity
  8
1-2
  6
Continuous
 62
     3
370
     9
100
AcDbLine
 10
529.7298122096709
 20
-150.9463830896325
 30
0.0
 11
529.7298122096709
 21
-153.866915316195
 31
0.0
  0
LINE
  5
1BC
330
1F
100
AcDbEntity
  8
1-2
  6
Continuous
 62
     3
370
     9
100
AcDbLine
 10
526.7296043602198
 20
-155.0943405563766
 30
0.0
 11
529.7298122096709
 21
-154.0714243296028
 31
0.0
  0
LINE
  5
1BD
330
1F
100
AcDbEntity
  8
1-2
  6
Continuous
 62
     3
370
     9
100
AcDbLine
 10
526.7296043602198
 20
-155.0943405563766
 30
0.0
 11
526.7296043602198
 21
-168.1891034100505
 31
0.0
  0
LINE
  5
1BE
330
1F
100
AcDbEntity
  8
1-2
  6
Continuous
 62
     3
370
     9
100
AcDbLine
 10
526.7296043602198
 20
-168.1891034100505
 30
0.0
 11
529.7298122096709
 21
-169.2115247571789
 31
0.0
  0
LINE
  5
1BF
330
1F
100
AcDbEntity
  8
1-2
  6
Continuous
 62
     3
370
     9
100
AcDbLine
 10
529.7298122096709
 20
-169.2115247571789
 30
0.0
 11
529.7298122096709
 21
-179.4379651868664
 31
0.0
  0
LINE
  5
1C0
330
1F
100
AcDbEntity
  8
1-2
  6
Continuous
 62
     3
370
     9
100
AcDbLine
 10
526.7296043602198
 20
-180.4608814136401
 30
0.0
 11
529.7298122096709
 21
-179.4379651868664
 31
0.0
  0
LINE
  5
1C1
330
1F
100
AcDbEntity
  8
1-2
  6
Continuous
 62
     3
370
     9
100
AcDbLine
 10
526.7296043602198
 20
-180.4608814136401
 30
0.0
 11
526.7296043602198
 21
-193.5556442673141
 31
0.0
  0
LINE
  5
1C2
330
1F
100
AcDbEntity
  8
1-2
  6
Continuous
 62
     3
370
     9
100
AcDbLine
 10
526.7296043602198
 20
-193.5556442673141
 30
0.0
 11
529.7298122096709
 21
-194.5780656144424
 31
0.0
  0
LINE
  5
1C3
330
1F
100
AcDbEntity
  8
1-2
  6
Continuous
 62
     3
370
     9
100
AcDbLine
 10
529.7298122096709
 20
-194.5780656144424
 30
0.0
 11
529.7298122096709
 21
-204.8045060441299
 31
0.0
  0
LINE
  5
1C4
330
1F
100
AcDbEntity
  8
1-2
  6
Continuous
 62
     3
370
     9
100
AcDbLine
 10
529.7298122096709
 20
-207.7250382706924
 30
0.0
 11
529.7298122096709
 21
-207.9295472841004
 31
0.0
  0
LINE
  5
1C5
330
1F
100
AcDbEntity
  8
1-2
  6
Continuous
 62
     3
370
     9
100
AcDbLine
 10
529.7298122096709
 20
-204.8045060441299
 30
0.0
 11
529.7298122096709
 21
-207.7250382706924
 31
0.0
  0
LINE
  5
1C6
330
1F
100
AcDbEntity
  8
1-2
  6
Continuous
 62
     3
370
     9
100
AcDbLine
 10
526.7296043602198
 20
-208.9524635108741
 30
0.0
 11
529.7298122096709
 21
-207.9295472841004
 31
0.0
  0
LINE
  5
1C7
330
1F
100
AcDbEntity
  8
1-2
  6
Continuous
 62
     3
370
     9
100
AcDbLine
 10
526.7296043602198
 20
-208.9524635108741
 30
0.0
 11
526.7296043602198
 21
-222.047226364548
 31
0.0
  0
LINE
  5
1C8
330
1F
100
AcDbEntity
  8
1-2
  6
Continuous
 62
     3
370
     9
100
AcDbLine
 10
526.7296043602198
 20
-222.047226364548
 30
0.0
 11
529.7298122096709
 21
-223.0696477116764
 31
0.0
  0
LINE
  5
1C9
330
1F
100
AcDbEntity
  8
1-2
  6
Continuous
 62
     3
370
     9
100
AcDbLine
 10
529.7298122096709
 20
-223.0696477116764
 30
0.0
 11
529.7298122096709
 21
-233.2960881413639
 31
0.0
  0
LINE
  5
1CA
330
1F
100
AcDbEntity
  8
1-2
  6
Continuous
 62
     3
370
     9
100
AcDbLine
 10
526.7296043602198
 20
-234.3190043681376
 30
0.0
 11
529.7298122096709
 21
-233.2960881413639
 31
0.0
  0
LINE
  5
1CB
330
1F
100
AcDbEntity
  8
1-2
  6
Continuous
 62
     3
370
     9
100
AcDbLine
 10
526.7296043602198
 20
-234.3190043681376
 30
0.0
 11
526.7296043602198
 21
-247.4137672218116
 31
0.0
  0
LINE
  5
1CC
330
1F
100
AcDbEntity
  8
1-2
  6
Continuous
 62
     3
370
     9
100
AcDbLine
 10
526.7296043602198
 20
-247.4137672218116
 30
0.0
 11
529.7298122096709
 21
-248.43618856894
 31
0.0
  0
LINE
  5
1CD
330
1F
100
AcDbEntity
  8
1-2
  6
Continuous
 62
     3
370
     9
100
AcDbLine
 10
529.7298122096709
 20
-248.43618856894
 30
0.0
 11
529.7298122096709
 21
-258.6626289986275
 31
0.0
  0
LINE
  5
1CE
330
1F
100
AcDbEntity
  8
1-2
  6
Continuous
 62
     3
370
     9
100
AcDbLine
 10
529.7298122096709
 20
-261.58316122519
 30
0.0
 11
529.7298122096709
 21
-261.7876702385979
 31
0.0
  0
LINE
  5
1CF
330
1F
100
AcDbEntity
  8
1-2
  6
Continuous
 62
     3
370
     9
100
AcDbLine
 10
529.7298122096709
 20
-258.6626289986275
 30
0.0
 11
529.7298122096709
 21
-261.58316122519
 31
0.0
  0
LINE
  5
1D0
330
1F
100
AcDbEntity
  8
1-2
  6
Continuous
 62
     3
370
     9
100
AcDbLine
 10
526.7296043602198
 20
-262.8105864653716
 30
0.0
 11
529.7298122096709
 21
-261.7876702385979
 31
0.0
  0
LINE
  5
1D1
330
1F
100
AcDbEntity
  8
1-2
  6
Continuous
 62
     3
370
     9
100
AcDbLine
 10
526.7296043602198
 20
-262.8105864653716
 30
0.0
 11
526.7296043602198
 21
-275.9053493190456
 31
0.0
  0
LINE
  5
1D2
330
1F
100
AcDbEntity
  8
1-2
  6
Continuous
 62
     3
370
     9
100
AcDbLine
 10
526.7296043602198
 20
-275.9053493190456
 30
0.0
 11
529.7298122096709
 21
-276.927770666174
 31
0.0
  0
LINE
  5
1D3
330
1F
100
AcDbEntity
  8
1-2
  6
Continuous
 62
     3
370
     9
100
AcDbLine
 10
529.7298122096709
 20
-276.927770666174
 30
0.0
 11
529.7298122096709
 21
-300.6755602037583
 31
0.0
  0
LINE
  5
1D4
330
1F
100
AcDbEntity
  8
1-4
  6
Continuous
 62
     7
370
     9
100
AcDbLine
 10
779.7296472497891
 20
-325.6755189637879
 30
0.0
 11
779.7296472497891
 21
-520.9722240551098
 31
0.0
  0
LINE
  5
1D5
330
1F
100
AcDbEntity
  8
1-2
  6
Continuous
 62
     3
370
     9
100
AcDbLine
 10
538.7299408783787
 20
13.6675365551099
 30
0.0
 11
538.7299408783787
 21
-175.019061114337
 31
0.0
  0
LINE
  5
1D6
330
1F
100
AcDbEntity
  8
1-2
  6
Continuous
 62
     3
370
     9
100
AcDbLine
 10
538.7299408783787
 20
-186.3325046848607
 30
0.0
 11
538.7299408783787
 21
-291.6754315350506
 31
0.0
  0
LINE
  5
1D7
330
1F
100
AcDbEntity
  8
1-2
  6
Continuous
 62
     3
370
     9
100
AcDbLine
 10
540.7297495249156
 20
14.85227842588699
 30
0.0
 11
540.7297495249156
 21
-176.2038029851141
 31
0.0
  0
LINE
  5
1D8
330
1F
100
AcDbEntity
  8
1-2
  6
Continuous
 62
     3
370
     9
100
AcDbLine
 10
540.7297495249156
 20
-185.1477628140836
 30
0.0
 11
540.7297495249156
 21
-291.6754315350506
 31
0.0
  0
LINE
  5
1D9
330
1F
100
AcDbEntity
  8
1-2
  6
Continuous
 62
     3
370
     9
100
AcDbLine
 10
-1148.161604597762
 20
-291.6759264146958
 30
0.0
 11
-1148.161604597762
 21
-186.6754562790328
 31
0.0
  0
LINE
  5
1DA
330
1F
100
AcDbEntity
  8
1-2
  6
Continuous
 62
     3
370
     9
100
AcDbLine
 10
-1148.161604597762
 20
-174.6757383604307
 30
0.0
 11
-1148.161604597762
 21
13.3245849609375
 31
0.0
  0
CIRCLE
  5
1DB
330
1F
100
AcDbEntity
  8
1-2
  6
Continuous
 62
     3
370
     9
100
AcDbCircle
 10
536.7296373521958
 20
819.3239284206084
 30
0.0
 40
5.999999594044041
  0
CIRCLE
  5
1DC
330
1F
100
AcDbEntity
  8
1-2
  6
Continuous
 62
     3
370
     9
100
AcDbCircle
 10
536.7296373521958
 20
619.3242583403717
 30
0.0
 40
5.999999594044041
  0
CIRCLE
  5
1DD
330
1F
100
AcDbEntity
  8
1-2
  6
Continuous
 62
     3
370
     9
100
AcDbCircle
 10
536.7296373521958
 20
419.3242171004013
 30
0.0
 40
5.999999594044041
  0
CIRCLE
  5
1DE
330
1F
100
AcDbEntity
  8
1-2
  6
Continuous
 62
     3
370
     9
100
AcDbCircle
 10
536.7296373521958
 20
19.32425834037161
 30
0.0
 40
5.999999594044041
  0
CIRCLE
  5
1DF
330
1F
100
AcDbEntity
  8
1-2
  6
Continuous
 62
     3
370
     9
100
AcDbCircle
 10
536.7296373521958
 20
219.3241758604307
 30
0.0
 40
5.999999594044041
  0
CIRCLE
  5
1E0
330
1F
100
AcDbEntity
  8
1-2
  6
Continuous
 62
     3
370
     9
100
AcDbCircle
 10
536.7296373521958
 20
-180.6757828995987
 30
0.0
 40
5.999999594044041
  0
TEXT
  5
1E1
330
1F
100
AcDbEntity
  8
1-4
  6
Continuous
 62
     2
370
     9
100
AcDbText
 10
402.1554977829393
 20
-760.9870158097551
 30
0.0
 40
30.48
  1
仕　様
 41
1.083333333333333
  7
ＭＳ ゴシック
100
AcDbText
  0
TEXT
  5
1E2
330
1F
100
AcDbEntity
  8
1-4
  6
Continuous
 62
     2
370
     9
100
AcDbText
 10
516.4568844357054
 20
-988.9065582770271
 30
0.0
 40
30.48
  1
処理：溶融亜鉛めっき
 41
1.1125
  7
ＭＳ ゴシック
100
AcDbText
  0
TEXT
  5
1E3
330
1F
100
AcDbEntity
  8
1-4
  6
Continuous
 62
     2
370
     9
100
AcDbText
 10
456.7445084855364
 20
-823.907498548353
 30
0.0
 40
30.48
  1
ノンスリップタイプ
 41
1.111111111111111
  7
ＭＳ ゴシック
100
AcDbText
  0
TEXT
  5
1E4
330
1F
100
AcDbEntity
  8
1-4
  6
Continuous
 62
     7
370
     9
100
AcDbText
 10
-1059.364582783467
 20
-1119.312876372466
 30
0.0
 40
22.86
  1
※デルタパターンの配列は一定ではありません。
 41
1.159090909090909
  7
ＭＳ ゴシック
100
AcDbText
  0
TEXT
  5
1E5
330
1F
100
AcDbEntity
  8
1-4
  6
Continuous
 62
     2
370
     9
100
AcDbText
 10
-1084.681022223395
 20
-931.4429556356893
 30
0.0
 40
30.48
  1
5.4
 50
90.0
 41
1.083333333333333
  7
ＭＳ ゴシック
100
AcDbText
  0
TEXT
  5
1E6
330
1F
100
AcDbEntity
  8
1-4
  6
Continuous
 62
     2
370
     9
100
AcDbText
 10
-1084.681022223395
 20
-757.2445781810861
 30
0.0
 40
30.48
  1
7.6
 50
90.0
 41
1.083333333333333
  7
ＭＳ ゴシック
100
AcDbText
  0
TEXT
  5
1E7
330
1F
100
AcDbEntity
  8
1-4
  6
Continuous
 62
     2
370
     9
100
AcDbText
 10
-998.9091491699219
 20
-613.3447461597339
 30
0.0
 40
30.48
  1
5
 41
0.9999999999999998
  7
ＭＳ ゴシック
100
AcDbText
  0
TEXT
  5
1E8
330
1F
100
AcDbEntity
  8
1-4
  6
Continuous
 62
     2
370
     9
100
AcDbText
 10
-924.8501883168686
 20
-729.8434213854814
 30
0.0
 40
30.48
  1
5
 50
282.0789760484706
 41
0.9999999999999991
  7
ＭＳ ゴシック
100
AcDbText
  0
TEXT
  5
1E9
330
1F
100
AcDbEntity
  8
1-4
  6
Continuous
 62
     2
370
     9
100
AcDbText
 10
-340.3297506796345
 20
-700.6490625
 30
0.0
 40
30.48
  1
5
 41
0.9999999999999998
  7
ＭＳ ゴシック
100
AcDbText
  0
TEXT
  5
1EA
330
1F
100
AcDbEntity
  8
1-4
  6
Continuous
 62
     2
370
     9
100
AcDbText
 10
-302.4619662722118
 20
-838.0683558781369
 30
0.0
 40
30.48
  1
3
 50
0.0003544324611818
  7
ＭＳ ゴシック
100
AcDbText
  0
TEXT
  5
1EB
330
1F
100
AcDbEntity
  8
1-4
  6
Continuous
 62
     2
370
     9
100
AcDbText
 10
-211.0238369008656
 20
-852.2925299567146
 30
0.0
 40
30.48
  1
25
 50
90.0
 41
1.0625
  7
ＭＳ ゴシック
100
AcDbText
  0
TEXT
  5
1EC
330
1F
100
AcDbEntity
  8
1-4
  6
Continuous
 62
     7
370
     9
100
AcDbText
 10
-911.9785370697846
 20
-634.1499454972551
 30
0.0
 40
22.86
  1
デルタパターン
 41
1.142857142857143
  7
ＭＳ ゴシック
100
AcDbText
  0
TEXT
  5
1ED
330
1F
100
AcDbEntity
  8
1-4
  6
Continuous
 62
     2
370
     9
100
AcDbText
 10
-1079.365201383024
 20
-1042.902876372466
 30
0.0
 40
30.48
  1
ＤⅠ－２５　バー形状詳細　Ｓ＝１：２
 41
1.118055555555555
  7
ＭＳ ゴシック
100
AcDbText
  0
TEXT
  5
1EE
330
1F
100
AcDbEntity
  8
1-4
  6
Continuous
 62
     2
370
     9
100
AcDbText
 10
533.4797709697002
 20
-422.3322141575168
 30
0.0
 40
30.48
  1
25
 41
1.0625
  7
ＭＳ ゴシック
100
AcDbText
  0
TEXT
  5
1EF
330
1F
100
AcDbEntity
  8
1-4
  6
Continuous
 62
     2
370
     9
100
AcDbText
 10
891.2274118454396
 20
959.3365478515626
 30
0.0
 40
30.48
  1
7
 50
90.0
 41
0.9999999999999998
  7
ＭＳ ゴシック
100
AcDbText
  0
TEXT
  5
1F0
330
1F
100
AcDbEntity
  8
1-4
  6
Continuous
 62
     2
370
     9
100
AcDbText
 10
418.0898089104732
 20
286.8243820602829
 30
0.0
 40
30.48
  1
620
 50
90.0
 41
1.083333333333333
  7
ＭＳ ゴシック
100
AcDbText
  0
TEXT
  5
1F1
330
1F
100
AcDbEntity
  8
1-4
  6
Continuous
 62
     2
370
     9
100
AcDbText
 10
456.7444095096074
 20
-878.9086697635136
 30
0.0
 40
30.48
  1
圧接式細目グレーチング　ＱＸＪ　６２２５Ａ
 41
1.119047619047619
  7
ＭＳ ゴシック
100
AcDbText
  0
TEXT
  5
1F2
330
1F
100
AcDbEntity
  8
1-4
  6
Continuous
 62
     2
370
     9
100
AcDbText
 10
647.2295647698481
 20
-426.3322026103251
 30
0.0
 40
30.48
  1
100
 41
1.083333333333333
  7
ＭＳ ゴシック
100
AcDbText
  0
TEXT
  5
1F3
330
1F
100
AcDbEntity
  8
1-4
  6
Continuous
 62
     2
370
     9
100
AcDbText
 10
622.2294822899073
 20
-506.3323428262246
 30
0.0
 40
30.48
  1
125
 41
1.083333333333333
  7
ＭＳ ゴシック
100
AcDbText
  0
TEXT
  5
1F4
330
1F
100
AcDbEntity
  8
1-4
  6
Continuous
 62
     2
370
     9
100
AcDbText
 10
516.4568614963424
 20
-933.9053870618562
 30
0.0
 40
30.48
  1
材質：ＳＳ４００＋ＳＰＨＣ
 50
359.9999816673374
 41
1.115384615384615
  7
ＭＳ ゴシック
100
AcDbText
  0
LWPOLYLINE
  5
1F5
330
1F
100
AcDbEntity
  8
1-4
  6
Continuous
 62
     7
370
     9
100
AcDbPolyline
 90
        4
 70
     1
 43
1.0
 10
-1157.662132469383
 20
-437.9722471494932
 42
0.4142135623731
 10
-1158.162132469383
 20
-437.4722471494932
 42
0.4142135623731
 10
-1158.662132469383
 20
-437.9722471494932
 42
0.4142135623731
 10
-1158.162132469383
 20
-438.4722471494932
 42
0.4142135623731
  0
LWPOLYLINE
  5
1F6
330
1F
100
AcDbEntity
  8
1-4
  6
Continuous
 62
     7
370
     9
100
AcDbPolyline
 90
        4
 70
     1
 43
1.0
 10
530.2298122096709
 20
-437.9722471494932
 42
0.4142135623731
 10
529.7298122096709
 20
-437.4722471494932
 42
0.4142135623731
 10
529.2298122096709
 20
-437.9722471494932
 42
0.4142135623731
 10
529.7298122096709
 20
-438.4722471494932
 42
0.4142135623731
  0
LWPOLYLINE
  5
1F7
330
1F
100
AcDbEntity
  8
1-4
  6
Continuous
 62
     7
370
     9
100
AcDbPolyline
 90
        4
 70
     1
 43
1.0
 10
580.2297297297297
 20
-437.9722471494932
 42
0.4142135623731
 10
579.7297297297297
 20
-437.4722471494932
 42
0.4142135623731
 10
579.2297297297297
 20
-437.9722471494932
 42
0.4142135623731
 10
579.7297297297297
 20
-438.4722471494932
 42
0.4142135623731
  0
LWPOLYLINE
  5
1F8
330
1F
100
AcDbEntity
  8
1-4
  6
Continuous
 62
     7
370
     9
100
AcDbPolyline
 90
        4
 70
     1
 43
1.0
 10
780.2296472497891
 20
-437.9722471494932
 42
0.4142135623731
 10
779.7296472497891
 20
-437.4722471494932
 42
0.4142135623731
 10
779.2296472497891
 20
-437.9722471494932
 42
0.4142135623731
 10
779.7296472497891
 20
-438.4722471494932
 42
0.4142135623731
  0
LWPOLYLINE
  5
1F9
330
1F
100
AcDbEntity
  8
1-4
  6
Continuous
 62
     7
370
     9
100
AcDbPolyline
 90
        4
 70
     1
 43
1.0
 10
530.2298122096709
 20
-517.9723873653927
 42
0.4142135623731
 10
529.7298122096709
 20
-517.4723873653927
 42
0.4142135623731
 10
529.2298122096709
 20
-517.9723873653927
 42
0.4142135623731
 10
529.7298122096709
 20
-518.4723873653927
 42
0.4142135623731
  0
LWPOLYLINE
  5
1FA
330
1F
100
AcDbEntity
  8
1-4
  6
Continuous
 62
     7
370
     9
100
AcDbPolyline
 90
        4
 70
     1
 43
1.0
 10
780.2293998099661
 20
-517.9723873653927
 42
0.4142135623731
 10
779.7293998099661
 20
-517.4723873653927
 42
0.4142135623731
 10
779.2293998099661
 20
-517.9723873653927
 42
0.4142135623731
 10
779.7293998099661
 20
-518.4723873653927
 42
0.4142135623731
  0
LWPOLYLINE
  5
1FB
330
1F
100
AcDbEntity
  8
1-4
  6
Continuous
 62
     7
370
     9
100
AcDbPolyline
 90
        4
 70
     1
 43
1.0
 10
430.2297297297299
 20
-300.6755602037583
 42
0.4142135623731
 10
429.72972972973
 20
-300.1755602037583
 42
0.4142135623731
 10
429.22972972973
 20
-300.6755602037583
 42
0.4142135623731
 10
429.72972972973
 20
-301.1755602037583
 42
0.4142135623731
  0
LWPOLYLINE
  5
1FC
330
1F
100
AcDbEntity
  8
1-4
  6
Continuous
 62
     7
370
     9
100
AcDbPolyline
 90
        4
 70
     1
 43
1.0
 10
430.2297297297299
 20
939.3243243243245
 42
0.4142135623731
 10
429.72972972973
 20
939.8243243243245
 42
0.4142135623731
 10
429.22972972973
 20
939.3243243243245
 42
0.4142135623731
 10
429.72972972973
 20
938.8243243243245
 42
0.4142135623731
  0
LWPOLYLINE
  5
1FD
330
1F
100
AcDbEntity
  8
1-4
  6
Continuous
 62
     7
370
     9
100
AcDbPolyline
 90
        4
 70
     1
 43
1.0
 10
907.3674448374156
 20
925.3246740392738
 42
0.4142135623731
 10
906.8674448374156
 20
925.8246740392736
 42
0.4142135623731
 10
906.3674448374156
 20
925.3246740392738
 42
0.4142135623731
 10
906.8674448374156
 20
924.8246740392738
 42
0.4142135623731
  0
LWPOLYLINE
  5
1FE
330
1F
100
AcDbEntity
  8
1-4
  6
Continuous
 62
     7
370
     9
100
AcDbPolyline
 90
        4
 70
     1
 43
1.0
 10
907.3674448374156
 20
939.3243243243245
 42
0.4142135623731
 10
906.8674448374156
 20
939.8243243243245
 42
0.4142135623731
 10
906.3674448374156
 20
939.3243243243245
 42
0.4142135623731
 10
906.8674448374156
 20
938.8243243243245
 42
0.4142135623731
  0
LINE
  5
1FF
330
1F
100
AcDbEntity
  8
1-5
  6
Continuous
 62
     7
370
     9
100
AcDbLine
 10
674.7297957136828
 20
925.324426599451
 30
0.0
 11
684.2968090160474
 21
948.4214494035052
 31
0.0
  0
LINE
  5
200
330
1F
100
AcDbEntity
  8
1-5
  6
Continuous
 62
     7
370
     9
100
AcDbLine
 10
674.7297957136828
 20
925.324426599451
 30
0.0
 11
689.9490768845021
 21
945.1582130225929
 31
0.0
  0
LINE
  5
201
330
1F
100
AcDbEntity
  8
1-5
  6
Continuous
 62
     7
370
     9
100
AcDbLine
 10
674.7297957136828
 20
925.324426599451
 30
0.0
 11
786.7359058277026
 21
1119.324423300254
 31
0.0
  0
LINE
  5
202
330
1F
100
AcDbEntity
  8
1-2
  6
Continuous
 62
     3
370
     9
100
AcDbLine
 10
-158.1621324693833
 20
-300.6755602037583
 30
0.0
 11
-1158.162132469383
 21
-300.6755602037583
 31
0.0
  0
LINE
  5
203
330
1F
100
AcDbEntity
  8
1-2
  6
Continuous
 62
     3
370
     9
100
AcDbLine
 10
-1158.162132469383
 20
939.3243243243245
 30
0.0
 11
-158.1621324693833
 21
939.3243243243245
 31
0.0
  0
LINE
  5
204
330
1F
100
AcDbEntity
  8
1-2
  6
Continuous
 62
     3
370
     9
100
AcDbLine
 10
-1158.162132469383
 20
930.3237007759714
 30
0.0
 11
-158.1621324693833
 21
930.3237007759714
 31
0.0
  0
LINE
  5
205
330
1F
100
AcDbEntity
  8
1-2
  6
Continuous
 62
     3
370
     9
100
AcDbLine
 10
-158.1621324693833
 20
-291.6759264146958
 30
0.0
 11
-1158.162132469383
 21
-291.6759264146958
 31
0.0
  0
LINE
  5
206
330
1F
100
AcDbEntity
  8
1-2
  6
Continuous
 62
     3
370
     9
100
AcDbLine
 10
-158.1621324693833
 20
813.3240076013516
 30
0.0
 11
-1158.162132469383
 21
813.3240076013516
 31
0.0
  0
LINE
  5
207
330
1F
100
AcDbEntity
  8
1-2
  6
Continuous
 62
     3
370
     9
100
AcDbLine
 10
-158.1621324693833
 20
413.3245437209672
 30
0.0
 11
-1158.162132469383
 21
413.3245437209672
 31
0.0
  0
LINE
  5
208
330
1F
100
AcDbEntity
  8
1-2
  6
Continuous
 62
     3
370
     9
100
AcDbLine
 10
-168.1617943016258
 20
825.3238492398651
 30
0.0
 11
-168.1617943016258
 21
930.3237007759714
 31
0.0
  0
LINE
  5
209
330
1F
100
AcDbEntity
  8
1-2
  6
Continuous
 62
     3
370
     9
100
AcDbLine
 10
-158.1621324693833
 20
425.3242616395693
 30
0.0
 11
-1158.162132469383
 21
425.3242616395693
 31
0.0
  0
LINE
  5
20A
330
1F
100
AcDbEntity
  8
1-4
  6
Continuous
 62
     7
370
     9
100
AcDbLine
 10
-158.1621324693833
 20
-325.6755189637879
 30
0.0
 11
-158.1621324693833
 21
-440.9722075591216
 31
0.0
  0
LINE
  5
20B
330
1F
100
AcDbEntity
  8
1-2
  6
Continuous
 62
     3
370
     9
100
AcDbLine
 10
-158.1621324693833
 20
825.3238492398651
 30
0.0
 11
-1158.162132469383
 21
825.3238492398651
 31
0.0
  0
LINE
  5
20C
330
1F
100
AcDbEntity
  8
1-2
  6
Continuous
 62
     3
370
     9
100
AcDbLine
 10
-158.1621324693833
 20
613.3243375211148
 30
0.0
 11
-1158.162132469383
 21
613.3243375211148
 31
0.0
  0
LINE
  5
20D
330
1F
100
AcDbEntity
  8
1-2
  6
Continuous
 62
     3
370
     9
100
AcDbLine
 10
-158.1621324693833
 20
625.3241791596283
 30
0.0
 11
-1158.162132469383
 21
625.3241791596283
 31
0.0
  0
LINE
  5
20E
330
1F
100
AcDbEntity
  8
1-2
  6
Continuous
 62
     3
370
     9
100
AcDbLine
 10
-168.1617943016258
 20
425.3242616395693
 30
0.0
 11
-168.1617943016258
 21
613.3243375211148
 31
0.0
  0
LINE
  5
20F
330
1F
100
AcDbEntity
  8
1-2
  6
Continuous
 62
     3
370
     9
100
AcDbLine
 10
-168.1617943016258
 20
625.3241791596283
 30
0.0
 11
-168.1617943016258
 21
813.3240076013516
 31
0.0
  0
LINE
  5
210
330
1F
100
AcDbEntity
  8
1-2
  6
Continuous
 62
     3
370
     9
100
AcDbLine
 10
-158.1621324693833
 20
-300.6755602037583
 30
0.0
 11
-158.1621324693833
 21
939.3243243243245
 31
0.0
  0
LINE
  5
211
330
1F
100
AcDbEntity
  8
1-2
  6
Continuous
 62
     3
370
     9
100
AcDbLine
 10
-158.1621324693833
 20
13.3245849609375
 30
0.0
 11
-1158.162132469383
 21
13.3245849609375
 31
0.0
  0
LINE
  5
212
330
1F
100
AcDbEntity
  8
1-2
  6
Continuous
 62
     3
370
     9
100
AcDbLine
 10
-158.1621324693833
 20
25.32430287953986
 30
0.0
 11
-1158.162132469383
 21
25.32430287953986
 31
0.0
  0
LINE
  5
213
330
1F
100
AcDbEntity
  8
1-2
  6
Continuous
 62
     3
370
     9
100
AcDbLine
 10
-158.1621324693833
 20
213.3245024809966
 30
0.0
 11
-1158.162132469383
 21
213.3245024809966
 31
0.0
  0
LINE
  5
214
330
1F
100
AcDbEntity
  8
1-2
  6
Continuous
 62
     3
370
     9
100
AcDbLine
 10
-158.1621324693833
 20
225.324220399599
 30
0.0
 11
-1158.162132469383
 21
225.324220399599
 31
0.0
  0
LINE
  5
215
330
1F
100
AcDbEntity
  8
1-2
  6
Continuous
 62
     3
370
     9
100
AcDbLine
 10
-168.1617943016258
 20
25.32430287953986
 30
0.0
 11
-168.1617943016258
 21
213.3245024809966
 31
0.0
  0
LINE
  5
216
330
1F
100
AcDbEntity
  8
1-2
  6
Continuous
 62
     3
370
     9
100
AcDbLine
 10
-168.1617943016258
 20
225.324220399599
 30
0.0
 11
-168.1617943016258
 21
413.3245437209672
 31
0.0
  0
LINE
  5
217
330
1F
100
AcDbEntity
  8
1-2
  6
Continuous
 62
     3
370
     9
100
AcDbLine
 10
-158.1621324693833
 20
-186.6754562790328
 30
0.0
 11
-1158.162132469383
 21
-186.6754562790328
 31
0.0
  0
LINE
  5
218
330
1F
100
AcDbEntity
  8
1-2
  6
Continuous
 62
     3
370
     9
100
AcDbLine
 10
-158.1621324693833
 20
-174.6757383604307
 30
0.0
 11
-1158.162132469383
 21
-174.6757383604307
 31
0.0
  0
LINE
  5
219
330
1F
100
AcDbEntity
  8
1-2
  6
Continuous
 62
     3
370
     9
100
AcDbLine
 10
-168.1617943016258
 20
-291.6759264146958
 30
0.0
 11
-168.1617943016258
 21
-186.6754562790328
 31
0.0
  0
LINE
  5
21A
330
1F
100
AcDbEntity
  8
1-2
  6
Continuous
 62
     3
370
     9
100
AcDbLine
 10
-168.1617943016258
 20
-174.6757383604307
 30
0.0
 11
-168.1617943016258
 21
13.3245849609375
 31
0.0
  0
LWPOLYLINE
  5
21B
330
1F
100
AcDbEntity
  8
1-4
  6
Continuous
 62
     7
370
     9
100
AcDbPolyline
 90
        4
 70
     1
 43
1.0
 10
-157.6621324693833
 20
-437.9722471494932
 42
0.4142135623731
 10
-158.1621324693833
 20
-437.4722471494932
 42
0.4142135623731
 10
-158.6621324693833
 20
-437.9722471494932
 42
0.4142135623731
 10
-158.1621324693833
 20
-438.4722471494932
 42
0.4142135623731
  0
LINE
  5
21C
330
1F
100
AcDbEntity
  8
1-1
  6
JWW_DASHED1
 62
     2
370
     9
100
AcDbLine
 10
-1148.161604597762
 20
925.324426599451
 30
0.0
 11
-168.1617943016258
 21
925.324426599451
 31
0.0
  0
LINE
  5
21D
330
1F
100
AcDbEntity
  8
1-1
  6
JWW_DASHED1
 62
     2
370
     9
100
AcDbLine
 10
-1148.161604597762
 20
-286.675662478885
 30
0.0
 11
-168.1617943016258
 21
-286.675662478885
 31
0.0
  0
LINE
  5
21E
330
1F
100
AcDbEntity
  8
1-4
  6
Continuous
 62
     7
370
     9
100
AcDbLine
 10
-1158.162132469383
 20
-437.9722471494932
 30
0.0
 11
-158.1621324693833
 21
-437.9722471494932
 31
0.0
  0
TEXT
  5
21F
330
1F
100
AcDbEntity
  8
1-4
  6
Continuous
 62
     2
370
   211
100
AcDbText
 10
-690.6621324693833
 20
-426.3322026103251
 30
0.0
 40
30.48
  1
500
 41
1.083333333333333
  7
ＭＳ ゴシック
100
AcDbText
  0
LINE
  5
220
330
1F
100
AcDbEntity
  8
1-2
  6
Continuous
 62
     3
370
     9
100
AcDbLine
 10
-1128.162132469383
 20
825.3238492398651
 30
0.0
 11
-1128.162132469383
 21
930.3237007759714
 31
0.0
  0
LINE
  5
221
330
1F
100
AcDbEntity
  8
1-2
  6
Continuous
 62
     3
370
     9
100
AcDbLine
 10
-1118.162841796875
 20
825.3238492398651
 30
0.0
 11
-1118.162841796875
 21
930.3237007759714
 31
0.0
  0
LINE
  5
222
330
1F
100
AcDbEntity
  8
1-2
  6
Continuous
 62
     3
370
     9
100
AcDbLine
 10
-1128.162132469383
 20
425.3242616395693
 30
0.0
 11
-1128.162132469383
 21
613.3243375211148
 31
0.0
  0
LINE
  5
223
330
1F
100
AcDbEntity
  8
1-2
  6
Continuous
 62
     3
370
     9
100
AcDbLine
 10
-1128.162132469383
 20
625.3241791596283
 30
0.0
 11
-1128.162132469383
 21
813.3240076013516
 31
0.0
  0
LINE
  5
224
330
1F
100
AcDbEntity
  8
1-2
  6
Continuous
 62
     3
370
     9
100
AcDbLine
 10
-1118.162841796875
 20
425.3242616395693
 30
0.0
 11
-1118.162841796875
 21
613.3243375211148
 31
0.0
  0
LINE
  5
225
330
1F
100
AcDbEntity
  8
1-2
  6
Continuous
 62
     3
370
     9
100
AcDbLine
 10
-1118.162841796875
 20
625.3241791596283
 30
0.0
 11
-1118.162841796875
 21
813.3240076013516
 31
0.0
  0
LINE
  5
226
330
1F
100
AcDbEntity
  8
1-2
  6
Continuous
 62
     3
370
     9
100
AcDbLine
 10
-1128.162132469383
 20
25.32430287953986
 30
0.0
 11
-1128.162132469383
 21
213.3245024809966
 31
0.0
  0
LINE
  5
227
330
1F
100
AcDbEntity
  8
1-2
  6
Continuous
 62
     3
370
     9
100
AcDbLine
 10
-1128.162132469383
 20
225.324220399599
 30
0.0
 11
-1128.162132469383
 21
413.3245437209672
 31
0.0
  0
LINE
  5
228
330
1F
100
AcDbEntity
  8
1-2
  6
Continuous
 62
     3
370
     9
100
AcDbLine
 10
-1118.162841796875
 20
25.32430287953986
 30
0.0
 11
-1118.162841796875
 21
213.3245024809966
 31
0.0
  0
LINE
  5
229
330
1F
100
AcDbEntity
  8
1-2
  6
Continuous
 62
     3
370
     9
100
AcDbLine
 10
-1118.162841796875
 20
225.324220399599
 30
0.0
 11
-1118.162841796875
 21
413.3245437209672
 31
0.0
  0
LINE
  5
22A
330
1F
100
AcDbEntity
  8
1-2
  6
Continuous
 62
     3
370
     9
100
AcDbLine
 10
-1128.162132469383
 20
-291.6759264146958
 30
0.0
 11
-1128.162132469383
 21
-186.6754562790328
 31
0.0
  0
LINE
  5
22B
330
1F
100
AcDbEntity
  8
1-2
  6
Continuous
 62
     3
370
     9
100
AcDbLine
 10
-1128.162132469383
 20
-174.6757383604307
 30
0.0
 11
-1128.162132469383
 21
13.3245849609375
 31
0.0
  0
LINE
  5
22C
330
1F
100
AcDbEntity
  8
1-2
  6
Continuous
 62
     3
370
     9
100
AcDbLine
 10
-1118.162841796875
 20
-291.6759264146958
 30
0.0
 11
-1118.162841796875
 21
-186.6754562790328
 31
0.0
  0
LINE
  5
22D
330
1F
100
AcDbEntity
  8
1-2
  6
Continuous
 62
     3
370
     9
100
AcDbLine
 10
-1118.162841796875
 20
-174.6757383604307
 30
0.0
 11
-1118.162841796875
 21
13.3245849609375
 31
0.0
  0
LINE
  5
22E
330
1F
100
AcDbEntity
  8
1-2
  6
Continuous
 62
     3
370
     9
100
AcDbLine
 10
-1098.162132469383
 20
825.3238492398651
 30
0.0
 11
-1098.162132469383
 21
930.3237007759714
 31
0.0
  0
LINE
  5
22F
330
1F
100
AcDbEntity
  8
1-2
  6
Continuous
 62
     3
370
     9
100
AcDbLine
 10
-1088.162841796875
 20
825.3238492398651
 30
0.0
 11
-1088.162841796875
 21
930.3237007759714
 31
0.0
  0
LINE
  5
230
330
1F
100
AcDbEntity
  8
1-2
  6
Continuous
 62
     3
370
     9
100
AcDbLine
 10
-1098.162132469383
 20
425.3242616395693
 30
0.0
 11
-1098.162132469383
 21
613.3243375211148
 31
0.0
  0
LINE
  5
231
330
1F
100
AcDbEntity
  8
1-2
  6
Continuous
 62
     3
370
     9
100
AcDbLine
 10
-1098.162132469383
 20
625.3241791596283
 30
0.0
 11
-1098.162132469383
 21
813.3240076013516
 31
0.0
  0
LINE
  5
232
330
1F
100
AcDbEntity
  8
1-2
  6
Continuous
 62
     3
370
     9
100
AcDbLine
 10
-1088.162841796875
 20
425.3242616395693
 30
0.0
 11
-1088.162841796875
 21
613.3243375211148
 31
0.0
  0
LINE
  5
233
330
1F
100
AcDbEntity
  8
1-2
  6
Continuous
 62
     3
370
     9
100
AcDbLine
 10
-1088.162841796875
 20
625.3241791596283
 30
0.0
 11
-1088.162841796875
 21
813.3240076013516
 31
0.0
  0
LINE
  5
234
330
1F
100
AcDbEntity
  8
1-2
  6
Continuous
 62
     3
370
     9
100
AcDbLine
 10
-1098.162132469383
 20
25.32430287953986
 30
0.0
 11
-1098.162132469383
 21
213.3245024809966
 31
0.0
  0
LINE
  5
235
330
1F
100
AcDbEntity
  8
1-2
  6
Continuous
 62
     3
370
     9
100
AcDbLine
 10
-1098.162132469383
 20
225.324220399599
 30
0.0
 11
-1098.162132469383
 21
413.3245437209672
 31
0.0
  0
LINE
  5
236
330
1F
100
AcDbEntity
  8
1-2
  6
Continuous
 62
     3
370
     9
100
AcDbLine
 10
-1088.162841796875
 20
25.32430287953986
 30
0.0
 11
-1088.162841796875
 21
213.3245024809966
 31
0.0
  0
LINE
  5
237
330
1F
100
AcDbEntity
  8
1-2
  6
Continuous
 62
     3
370
     9
100
AcDbLine
 10
-1088.162841796875
 20
225.324220399599
 30
0.0
 11
-1088.162841796875
 21
413.3245437209672
 31
0.0
  0
LINE
  5
238
330
1F
100
AcDbEntity
  8
1-2
  6
Continuous
 62
     3
370
     9
100
AcDbLine
 10
-1098.162132469383
 20
-291.6759264146958
 30
0.0
 11
-1098.162132469383
 21
-186.6754562790328
 31
0.0
  0
LINE
  5
239
330
1F
100
AcDbEntity
  8
1-2
  6
Continuous
 62
     3
370
     9
100
AcDbLine
 10
-1098.162132469383
 20
-174.6757383604307
 30
0.0
 11
-1098.162132469383
 21
13.3245849609375
 31
0.0
  0
LINE
  5
23A
330
1F
100
AcDbEntity
  8
1-2
  6
Continuous
 62
     3
370
     9
100
AcDbLine
 10
-1088.162841796875
 20
-291.6759264146958
 30
0.0
 11
-1088.162841796875
 21
-186.6754562790328
 31
0.0
  0
LINE
  5
23B
330
1F
100
AcDbEntity
  8
1-2
  6
Continuous
 62
     3
370
     9
100
AcDbLine
 10
-1088.162841796875
 20
-174.6757383604307
 30
0.0
 11
-1088.162841796875
 21
13.3245849609375
 31
0.0
  0
LINE
  5
23C
330
1F
100
AcDbEntity
  8
1-2
  6
Continuous
 62
     3
370
     9
100
AcDbLine
 10
-1068.162132469383
 20
825.3238492398651
 30
0.0
 11
-1068.162132469383
 21
930.3237007759714
 31
0.0
  0
LINE
  5
23D
330
1F
100
AcDbEntity
  8
1-2
  6
Continuous
 62
     3
370
     9
100
AcDbLine
 10
-1058.162841796875
 20
825.3238492398651
 30
0.0
 11
-1058.162841796875
 21
930.3237007759714
 31
0.0
  0
LINE
  5
23E
330
1F
100
AcDbEntity
  8
1-2
  6
Continuous
 62
     3
370
     9
100
AcDbLine
 10
-1068.162132469383
 20
425.3242616395693
 30
0.0
 11
-1068.162132469383
 21
613.3243375211148
 31
0.0
  0
LINE
  5
23F
330
1F
100
AcDbEntity
  8
1-2
  6
Continuous
 62
     3
370
     9
100
AcDbLine
 10
-1068.162132469383
 20
625.3241791596283
 30
0.0
 11
-1068.162132469383
 21
813.3240076013516
 31
0.0
  0
LINE
  5
240
330
1F
100
AcDbEntity
  8
1-2
  6
Continuous
 62
     3
370
     9
100
AcDbLine
 10
-1058.162841796875
 20
425.3242616395693
 30
0.0
 11
-1058.162841796875
 21
613.3243375211148
 31
0.0
  0
LINE
  5
241
330
1F
100
AcDbEntity
  8
1-2
  6
Continuous
 62
     3
370
     9
100
AcDbLine
 10
-1058.162841796875
 20
625.3241791596283
 30
0.0
 11
-1058.162841796875
 21
813.3240076013516
 31
0.0
  0
LINE
  5
242
330
1F
100
AcDbEntity
  8
1-2
  6
Continuous
 62
     3
370
     9
100
AcDbLine
 10
-1068.162132469383
 20
25.32430287953986
 30
0.0
 11
-1068.162132469383
 21
213.3245024809966
 31
0.0
  0
LINE
  5
243
330
1F
100
AcDbEntity
  8
1-2
  6
Continuous
 62
     3
370
     9
100
AcDbLine
 10
-1068.162132469383
 20
225.324220399599
 30
0.0
 11
-1068.162132469383
 21
413.3245437209672
 31
0.0
  0
LINE
  5
244
330
1F
100
AcDbEntity
  8
1-2
  6
Continuous
 62
     3
370
     9
100
AcDbLine
 10
-1058.162841796875
 20
25.32430287953986
 30
0.0
 11
-1058.162841796875
 21
213.3245024809966
 31
0.0
  0
LINE
  5
245
330
1F
100
AcDbEntity
  8
1-2
  6
Continuous
 62
     3
370
     9
100
AcDbLine
 10
-1058.162841796875
 20
225.324220399599
 30
0.0
 11
-1058.162841796875
 21
413.3245437209672
 31
0.0
  0
LINE
  5
246
330
1F
100
AcDbEntity
  8
1-2
  6
Continuous
 62
     3
370
     9
100
AcDbLine
 10
-1068.162132469383
 20
-291.6759264146958
 30
0.0
 11
-1068.162132469383
 21
-186.6754562790328
 31
0.0
  0
LINE
  5
247
330
1F
100
AcDbEntity
  8
1-2
  6
Continuous
 62
     3
370
     9
100
AcDbLine
 10
-1068.162132469383
 20
-174.6757383604307
 30
0.0
 11
-1068.162132469383
 21
13.3245849609375
 31
0.0
  0
LINE
  5
248
330
1F
100
AcDbEntity
  8
1-2
  6
Continuous
 62
     3
370
     9
100
AcDbLine
 10
-1058.162841796875
 20
-291.6759264146958
 30
0.0
 11
-1058.162841796875
 21
-186.6754562790328
 31
0.0
  0
LINE
  5
249
330
1F
100
AcDbEntity
  8
1-2
  6
Continuous
 62
     3
370
     9
100
AcDbLine
 10
-1058.162841796875
 20
-174.6757383604307
 30
0.0
 11
-1058.162841796875
 21
13.3245849609375
 31
0.0
  0
LINE
  5
24A
330
1F
100
AcDbEntity
  8
1-2
  6
Continuous
 62
     3
370
     9
100
AcDbLine
 10
-1038.162132469383
 20
825.3238492398651
 30
0.0
 11
-1038.162132469383
 21
930.3237007759714
 31
0.0
  0
LINE
  5
24B
330
1F
100
AcDbEntity
  8
1-2
  6
Continuous
 62
     3
370
     9
100
AcDbLine
 10
-1028.162841796875
 20
825.3238492398651
 30
0.0
 11
-1028.162841796875
 21
930.3237007759714
 31
0.0
  0
LINE
  5
24C
330
1F
100
AcDbEntity
  8
1-2
  6
Continuous
 62
     3
370
     9
100
AcDbLine
 10
-1038.162132469383
 20
425.3242616395693
 30
0.0
 11
-1038.162132469383
 21
613.3243375211148
 31
0.0
  0
LINE
  5
24D
330
1F
100
AcDbEntity
  8
1-2
  6
Continuous
 62
     3
370
     9
100
AcDbLine
 10
-1038.162132469383
 20
625.3241791596283
 30
0.0
 11
-1038.162132469383
 21
813.3240076013516
 31
0.0
  0
LINE
  5
24E
330
1F
100
AcDbEntity
  8
1-2
  6
Continuous
 62
     3
370
     9
100
AcDbLine
 10
-1028.162841796875
 20
425.3242616395693
 30
0.0
 11
-1028.162841796875
 21
613.3243375211148
 31
0.0
  0
LINE
  5
24F
330
1F
100
AcDbEntity
  8
1-2
  6
Continuous
 62
     3
370
     9
100
AcDbLine
 10
-1028.162841796875
 20
625.3241791596283
 30
0.0
 11
-1028.162841796875
 21
813.3240076013516
 31
0.0
  0
LINE
  5
250
330
1F
100
AcDbEntity
  8
1-2
  6
Continuous
 62
     3
370
     9
100
AcDbLine
 10
-1038.162132469383
 20
25.32430287953986
 30
0.0
 11
-1038.162132469383
 21
213.3245024809966
 31
0.0
  0
LINE
  5
251
330
1F
100
AcDbEntity
  8
1-2
  6
Continuous
 62
     3
370
     9
100
AcDbLine
 10
-1038.162132469383
 20
225.324220399599
 30
0.0
 11
-1038.162132469383
 21
413.3245437209672
 31
0.0
  0
LINE
  5
252
330
1F
100
AcDbEntity
  8
1-2
  6
Continuous
 62
     3
370
     9
100
AcDbLine
 10
-1028.162841796875
 20
25.32430287953986
 30
0.0
 11
-1028.162841796875
 21
213.3245024809966
 31
0.0
  0
LINE
  5
253
330
1F
100
AcDbEntity
  8
1-2
  6
Continuous
 62
     3
370
     9
100
AcDbLine
 10
-1028.162841796875
 20
225.324220399599
 30
0.0
 11
-1028.162841796875
 21
413.3245437209672
 31
0.0
  0
LINE
  5
254
330
1F
100
AcDbEntity
  8
1-2
  6
Continuous
 62
     3
370
     9
100
AcDbLine
 10
-1038.162132469383
 20
-291.6759264146958
 30
0.0
 11
-1038.162132469383
 21
-186.6754562790328
 31
0.0
  0
LINE
  5
255
330
1F
100
AcDbEntity
  8
1-2
  6
Continuous
 62
     3
370
     9
100
AcDbLine
 10
-1038.162132469383
 20
-174.6757383604307
 30
0.0
 11
-1038.162132469383
 21
13.3245849609375
 31
0.0
  0
LINE
  5
256
330
1F
100
AcDbEntity
  8
1-2
  6
Continuous
 62
     3
370
     9
100
AcDbLine
 10
-1028.162841796875
 20
-291.6759264146958
 30
0.0
 11
-1028.162841796875
 21
-186.6754562790328
 31
0.0
  0
LINE
  5
257
330
1F
100
AcDbEntity
  8
1-2
  6
Continuous
 62
     3
370
     9
100
AcDbLine
 10
-1028.162841796875
 20
-174.6757383604307
 30
0.0
 11
-1028.162841796875
 21
13.3245849609375
 31
0.0
  0
LINE
  5
258
330
1F
100
AcDbEntity
  8
1-2
  6
Continuous
 62
     3
370
     9
100
AcDbLine
 10
-1008.162132469383
 20
825.3238492398651
 30
0.0
 11
-1008.162132469383
 21
930.3237007759714
 31
0.0
  0
LINE
  5
259
330
1F
100
AcDbEntity
  8
1-2
  6
Continuous
 62
     3
370
     9
100
AcDbLine
 10
-998.1628417968749
 20
825.3238492398651
 30
0.0
 11
-998.1628417968749
 21
930.3237007759714
 31
0.0
  0
LINE
  5
25A
330
1F
100
AcDbEntity
  8
1-2
  6
Continuous
 62
     3
370
     9
100
AcDbLine
 10
-1008.162132469383
 20
425.3242616395693
 30
0.0
 11
-1008.162132469383
 21
613.3243375211148
 31
0.0
  0
LINE
  5
25B
330
1F
100
AcDbEntity
  8
1-2
  6
Continuous
 62
     3
370
     9
100
AcDbLine
 10
-1008.162132469383
 20
625.3241791596283
 30
0.0
 11
-1008.162132469383
 21
813.3240076013516
 31
0.0
  0
LINE
  5
25C
330
1F
100
AcDbEntity
  8
1-2
  6
Continuous
 62
     3
370
     9
100
AcDbLine
 10
-998.1628417968749
 20
425.3242616395693
 30
0.0
 11
-998.1628417968749
 21
613.3243375211148
 31
0.0
  0
LINE
  5
25D
330
1F
100
AcDbEntity
  8
1-2
  6
Continuous
 62
     3
370
     9
100
AcDbLine
 10
-998.1628417968749
 20
625.3241791596283
 30
0.0
 11
-998.1628417968749
 21
813.3240076013516
 31
0.0
  0
LINE
  5
25E
330
1F
100
AcDbEntity
  8
1-2
  6
Continuous
 62
     3
370
     9
100
AcDbLine
 10
-1008.162132469383
 20
25.32430287953986
 30
0.0
 11
-1008.162132469383
 21
213.3245024809966
 31
0.0
  0
LINE
  5
25F
330
1F
100
AcDbEntity
  8
1-2
  6
Continuous
 62
     3
370
     9
100
AcDbLine
 10
-1008.162132469383
 20
225.324220399599
 30
0.0
 11
-1008.162132469383
 21
413.3245437209672
 31
0.0
  0
LINE
  5
260
330
1F
100
AcDbEntity
  8
1-2
  6
Continuous
 62
     3
370
     9
100
AcDbLine
 10
-998.1628417968749
 20
25.32430287953986
 30
0.0
 11
-998.1628417968749
 21
213.3245024809966
 31
0.0
  0
LINE
  5
261
330
1F
100
AcDbEntity
  8
1-2
  6
Continuous
 62
     3
370
     9
100
AcDbLine
 10
-998.1628417968749
 20
225.324220399599
 30
0.0
 11
-998.1628417968749
 21
413.3245437209672
 31
0.0
  0
LINE
  5
262
330
1F
100
AcDbEntity
  8
1-2
  6
Continuous
 62
     3
370
     9
100
AcDbLine
 10
-1008.162132469383
 20
-291.6759264146958
 30
0.0
 11
-1008.162132469383
 21
-186.6754562790328
 31
0.0
  0
LINE
  5
263
330
1F
100
AcDbEntity
  8
1-2
  6
Continuous
 62
     3
370
     9
100
AcDbLine
 10
-1008.162132469383
 20
-174.6757383604307
 30
0.0
 11
-1008.162132469383
 21
13.3245849609375
 31
0.0
  0
LINE
  5
264
330
1F
100
AcDbEntity
  8
1-2
  6
Continuous
 62
     3
370
     9
100
AcDbLine
 10
-998.1628417968749
 20
-291.6759264146958
 30
0.0
 11
-998.1628417968749
 21
-186.6754562790328
 31
0.0
  0
LINE
  5
265
330
1F
100
AcDbEntity
  8
1-2
  6
Continuous
 62
     3
370
     9
100
AcDbLine
 10
-998.1628417968749
 20
-174.6757383604307
 30
0.0
 11
-998.1628417968749
 21
13.3245849609375
 31
0.0
  0
LINE
  5
266
330
1F
100
AcDbEntity
  8
1-2
  6
Continuous
 62
     3
370
     9
100
AcDbLine
 10
-978.1621324693833
 20
825.3238492398651
 30
0.0
 11
-978.1621324693833
 21
930.3237007759714
 31
0.0
  0
LINE
  5
267
330
1F
100
AcDbEntity
  8
1-2
  6
Continuous
 62
     3
370
     9
100
AcDbLine
 10
-968.1628417968749
 20
825.3238492398651
 30
0.0
 11
-968.1628417968749
 21
930.3237007759714
 31
0.0
  0
LINE
  5
268
330
1F
100
AcDbEntity
  8
1-2
  6
Continuous
 62
     3
370
     9
100
AcDbLine
 10
-978.1621324693833
 20
425.3242616395693
 30
0.0
 11
-978.1621324693833
 21
613.3243375211148
 31
0.0
  0
LINE
  5
269
330
1F
100
AcDbEntity
  8
1-2
  6
Continuous
 62
     3
370
     9
100
AcDbLine
 10
-978.1621324693833
 20
625.3241791596283
 30
0.0
 11
-978.1621324693833
 21
813.3240076013516
 31
0.0
  0
LINE
  5
26A
330
1F
100
AcDbEntity
  8
1-2
  6
Continuous
 62
     3
370
     9
100
AcDbLine
 10
-968.1628417968749
 20
425.3242616395693
 30
0.0
 11
-968.1628417968749
 21
613.3243375211148
 31
0.0
  0
LINE
  5
26B
330
1F
100
AcDbEntity
  8
1-2
  6
Continuous
 62
     3
370
     9
100
AcDbLine
 10
-968.1628417968749
 20
625.3241791596283
 30
0.0
 11
-968.1628417968749
 21
813.3240076013516
 31
0.0
  0
LINE
  5
26C
330
1F
100
AcDbEntity
  8
1-2
  6
Continuous
 62
     3
370
     9
100
AcDbLine
 10
-978.1621324693833
 20
25.32430287953986
 30
0.0
 11
-978.1621324693833
 21
213.3245024809966
 31
0.0
  0
LINE
  5
26D
330
1F
100
AcDbEntity
  8
1-2
  6
Continuous
 62
     3
370
     9
100
AcDbLine
 10
-978.1621324693833
 20
225.324220399599
 30
0.0
 11
-978.1621324693833
 21
413.3245437209672
 31
0.0
  0
LINE
  5
26E
330
1F
100
AcDbEntity
  8
1-2
  6
Continuous
 62
     3
370
     9
100
AcDbLine
 10
-968.1628417968749
 20
25.32430287953986
 30
0.0
 11
-968.1628417968749
 21
213.3245024809966
 31
0.0
  0
LINE
  5
26F
330
1F
100
AcDbEntity
  8
1-2
  6
Continuous
 62
     3
370
     9
100
AcDbLine
 10
-968.1628417968749
 20
225.324220399599
 30
0.0
 11
-968.1628417968749
 21
413.3245437209672
 31
0.0
  0
LINE
  5
270
330
1F
100
AcDbEntity
  8
1-2
  6
Continuous
 62
     3
370
     9
100
AcDbLine
 10
-978.1621324693833
 20
-291.6759264146958
 30
0.0
 11
-978.1621324693833
 21
-186.6754562790328
 31
0.0
  0
LINE
  5
271
330
1F
100
AcDbEntity
  8
1-2
  6
Continuous
 62
     3
370
     9
100
AcDbLine
 10
-978.1621324693833
 20
-174.6757383604307
 30
0.0
 11
-978.1621324693833
 21
13.3245849609375
 31
0.0
  0
LINE
  5
272
330
1F
100
AcDbEntity
  8
1-2
  6
Continuous
 62
     3
370
     9
100
AcDbLine
 10
-968.1628417968749
 20
-291.6759264146958
 30
0.0
 11
-968.1628417968749
 21
-186.6754562790328
 31
0.0
  0
LINE
  5
273
330
1F
100
AcDbEntity
  8
1-2
  6
Continuous
 62
     3
370
     9
100
AcDbLine
 10
-968.1628417968749
 20
-174.6757383604307
 30
0.0
 11
-968.1628417968749
 21
13.3245849609375
 31
0.0
  0
LINE
  5
274
330
1F
100
AcDbEntity
  8
1-2
  6
Continuous
 62
     3
370
     9
100
AcDbLine
 10
-948.1621324693833
 20
825.3238492398651
 30
0.0
 11
-948.1621324693833
 21
930.3237007759714
 31
0.0
  0
LINE
  5
275
330
1F
100
AcDbEntity
  8
1-2
  6
Continuous
 62
     3
370
     9
100
AcDbLine
 10
-938.1628417968749
 20
825.3238492398651
 30
0.0
 11
-938.1628417968749
 21
930.3237007759714
 31
0.0
  0
LINE
  5
276
330
1F
100
AcDbEntity
  8
1-2
  6
Continuous
 62
     3
370
     9
100
AcDbLine
 10
-948.1621324693833
 20
425.3242616395693
 30
0.0
 11
-948.1621324693833
 21
613.3243375211148
 31
0.0
  0
LINE
  5
277
330
1F
100
AcDbEntity
  8
1-2
  6
Continuous
 62
     3
370
     9
100
AcDbLine
 10
-948.1621324693833
 20
625.3241791596283
 30
0.0
 11
-948.1621324693833
 21
813.3240076013516
 31
0.0
  0
LINE
  5
278
330
1F
100
AcDbEntity
  8
1-2
  6
Continuous
 62
     3
370
     9
100
AcDbLine
 10
-938.1628417968749
 20
425.3242616395693
 30
0.0
 11
-938.1628417968749
 21
613.3243375211148
 31
0.0
  0
LINE
  5
279
330
1F
100
AcDbEntity
  8
1-2
  6
Continuous
 62
     3
370
     9
100
AcDbLine
 10
-938.1628417968749
 20
625.3241791596283
 30
0.0
 11
-938.1628417968749
 21
813.3240076013516
 31
0.0
  0
LINE
  5
27A
330
1F
100
AcDbEntity
  8
1-2
  6
Continuous
 62
     3
370
     9
100
AcDbLine
 10
-948.1621324693833
 20
25.32430287953986
 30
0.0
 11
-948.1621324693833
 21
213.3245024809966
 31
0.0
  0
LINE
  5
27B
330
1F
100
AcDbEntity
  8
1-2
  6
Continuous
 62
     3
370
     9
100
AcDbLine
 10
-948.1621324693833
 20
225.324220399599
 30
0.0
 11
-948.1621324693833
 21
413.3245437209672
 31
0.0
  0
LINE
  5
27C
330
1F
100
AcDbEntity
  8
1-2
  6
Continuous
 62
     3
370
     9
100
AcDbLine
 10
-938.1628417968749
 20
25.32430287953986
 30
0.0
 11
-938.1628417968749
 21
213.3245024809966
 31
0.0
  0
LINE
  5
27D
330
1F
100
AcDbEntity
  8
1-2
  6
Continuous
 62
     3
370
     9
100
AcDbLine
 10
-938.1628417968749
 20
225.324220399599
 30
0.0
 11
-938.1628417968749
 21
413.3245437209672
 31
0.0
  0
LINE
  5
27E
330
1F
100
AcDbEntity
  8
1-2
  6
Continuous
 62
     3
370
     9
100
AcDbLine
 10
-948.1621324693833
 20
-291.6759264146958
 30
0.0
 11
-948.1621324693833
 21
-186.6754562790328
 31
0.0
  0
LINE
  5
27F
330
1F
100
AcDbEntity
  8
1-2
  6
Continuous
 62
     3
370
     9
100
AcDbLine
 10
-948.1621324693833
 20
-174.6757383604307
 30
0.0
 11
-948.1621324693833
 21
13.3245849609375
 31
0.0
  0
LINE
  5
280
330
1F
100
AcDbEntity
  8
1-2
  6
Continuous
 62
     3
370
     9
100
AcDbLine
 10
-938.1628417968749
 20
-291.6759264146958
 30
0.0
 11
-938.1628417968749
 21
-186.6754562790328
 31
0.0
  0
LINE
  5
281
330
1F
100
AcDbEntity
  8
1-2
  6
Continuous
 62
     3
370
     9
100
AcDbLine
 10
-938.1628417968749
 20
-174.6757383604307
 30
0.0
 11
-938.1628417968749
 21
13.3245849609375
 31
0.0
  0
LINE
  5
282
330
1F
100
AcDbEntity
  8
1-2
  6
Continuous
 62
     3
370
     9
100
AcDbLine
 10
-918.1621324693833
 20
825.3238492398651
 30
0.0
 11
-918.1621324693833
 21
930.3237007759714
 31
0.0
  0
LINE
  5
283
330
1F
100
AcDbEntity
  8
1-2
  6
Continuous
 62
     3
370
     9
100
AcDbLine
 10
-908.1628417968749
 20
825.3238492398651
 30
0.0
 11
-908.1628417968749
 21
930.3237007759714
 31
0.0
  0
LINE
  5
284
330
1F
100
AcDbEntity
  8
1-2
  6
Continuous
 62
     3
370
     9
100
AcDbLine
 10
-918.1621324693833
 20
425.3242616395693
 30
0.0
 11
-918.1621324693833
 21
613.3243375211148
 31
0.0
  0
LINE
  5
285
330
1F
100
AcDbEntity
  8
1-2
  6
Continuous
 62
     3
370
     9
100
AcDbLine
 10
-918.1621324693833
 20
625.3241791596283
 30
0.0
 11
-918.1621324693833
 21
813.3240076013516
 31
0.0
  0
LINE
  5
286
330
1F
100
AcDbEntity
  8
1-2
  6
Continuous
 62
     3
370
     9
100
AcDbLine
 10
-908.1628417968749
 20
425.3242616395693
 30
0.0
 11
-908.1628417968749
 21
613.3243375211148
 31
0.0
  0
LINE
  5
287
330
1F
100
AcDbEntity
  8
1-2
  6
Continuous
 62
     3
370
     9
100
AcDbLine
 10
-908.1628417968749
 20
625.3241791596283
 30
0.0
 11
-908.1628417968749
 21
813.3240076013516
 31
0.0
  0
LINE
  5
288
330
1F
100
AcDbEntity
  8
1-2
  6
Continuous
 62
     3
370
     9
100
AcDbLine
 10
-918.1621324693833
 20
25.32430287953986
 30
0.0
 11
-918.1621324693833
 21
213.3245024809966
 31
0.0
  0
LINE
  5
289
330
1F
100
AcDbEntity
  8
1-2
  6
Continuous
 62
     3
370
     9
100
AcDbLine
 10
-918.1621324693833
 20
225.324220399599
 30
0.0
 11
-918.1621324693833
 21
413.3245437209672
 31
0.0
  0
LINE
  5
28A
330
1F
100
AcDbEntity
  8
1-2
  6
Continuous
 62
     3
370
     9
100
AcDbLine
 10
-908.1628417968749
 20
25.32430287953986
 30
0.0
 11
-908.1628417968749
 21
213.3245024809966
 31
0.0
  0
LINE
  5
28B
330
1F
100
AcDbEntity
  8
1-2
  6
Continuous
 62
     3
370
     9
100
AcDbLine
 10
-908.1628417968749
 20
225.324220399599
 30
0.0
 11
-908.1628417968749
 21
413.3245437209672
 31
0.0
  0
LINE
  5
28C
330
1F
100
AcDbEntity
  8
1-2
  6
Continuous
 62
     3
370
     9
100
AcDbLine
 10
-918.1621324693833
 20
-291.6759264146958
 30
0.0
 11
-918.1621324693833
 21
-186.6754562790328
 31
0.0
  0
LINE
  5
28D
330
1F
100
AcDbEntity
  8
1-2
  6
Continuous
 62
     3
370
     9
100
AcDbLine
 10
-918.1621324693833
 20
-174.6757383604307
 30
0.0
 11
-918.1621324693833
 21
13.3245849609375
 31
0.0
  0
LINE
  5
28E
330
1F
100
AcDbEntity
  8
1-2
  6
Continuous
 62
     3
370
     9
100
AcDbLine
 10
-908.1628417968749
 20
-291.6759264146958
 30
0.0
 11
-908.1628417968749
 21
-186.6754562790328
 31
0.0
  0
LINE
  5
28F
330
1F
100
AcDbEntity
  8
1-2
  6
Continuous
 62
     3
370
     9
100
AcDbLine
 10
-908.1628417968749
 20
-174.6757383604307
 30
0.0
 11
-908.1628417968749
 21
13.3245849609375
 31
0.0
  0
LINE
  5
290
330
1F
100
AcDbEntity
  8
1-2
  6
Continuous
 62
     3
370
     9
100
AcDbLine
 10
-888.1621324693833
 20
825.3238492398651
 30
0.0
 11
-888.1621324693833
 21
930.3237007759714
 31
0.0
  0
LINE
  5
291
330
1F
100
AcDbEntity
  8
1-2
  6
Continuous
 62
     3
370
     9
100
AcDbLine
 10
-878.1628417968749
 20
825.3238492398651
 30
0.0
 11
-878.1628417968749
 21
930.3237007759714
 31
0.0
  0
LINE
  5
292
330
1F
100
AcDbEntity
  8
1-2
  6
Continuous
 62
     3
370
     9
100
AcDbLine
 10
-888.1621324693833
 20
425.3242616395693
 30
0.0
 11
-888.1621324693833
 21
613.3243375211148
 31
0.0
  0
LINE
  5
293
330
1F
100
AcDbEntity
  8
1-2
  6
Continuous
 62
     3
370
     9
100
AcDbLine
 10
-888.1621324693833
 20
625.3241791596283
 30
0.0
 11
-888.1621324693833
 21
813.3240076013516
 31
0.0
  0
LINE
  5
294
330
1F
100
AcDbEntity
  8
1-2
  6
Continuous
 62
     3
370
     9
100
AcDbLine
 10
-878.1628417968749
 20
425.3242616395693
 30
0.0
 11
-878.1628417968749
 21
613.3243375211148
 31
0.0
  0
LINE
  5
295
330
1F
100
AcDbEntity
  8
1-2
  6
Continuous
 62
     3
370
     9
100
AcDbLine
 10
-878.1628417968749
 20
625.3241791596283
 30
0.0
 11
-878.1628417968749
 21
813.3240076013516
 31
0.0
  0
LINE
  5
296
330
1F
100
AcDbEntity
  8
1-2
  6
Continuous
 62
     3
370
     9
100
AcDbLine
 10
-888.1621324693833
 20
25.32430287953986
 30
0.0
 11
-888.1621324693833
 21
213.3245024809966
 31
0.0
  0
LINE
  5
297
330
1F
100
AcDbEntity
  8
1-2
  6
Continuous
 62
     3
370
     9
100
AcDbLine
 10
-888.1621324693833
 20
225.324220399599
 30
0.0
 11
-888.1621324693833
 21
413.3245437209672
 31
0.0
  0
LINE
  5
298
330
1F
100
AcDbEntity
  8
1-2
  6
Continuous
 62
     3
370
     9
100
AcDbLine
 10
-878.1628417968749
 20
25.32430287953986
 30
0.0
 11
-878.1628417968749
 21
213.3245024809966
 31
0.0
  0
LINE
  5
299
330
1F
100
AcDbEntity
  8
1-2
  6
Continuous
 62
     3
370
     9
100
AcDbLine
 10
-878.1628417968749
 20
225.324220399599
 30
0.0
 11
-878.1628417968749
 21
413.3245437209672
 31
0.0
  0
LINE
  5
29A
330
1F
100
AcDbEntity
  8
1-2
  6
Continuous
 62
     3
370
     9
100
AcDbLine
 10
-888.1621324693833
 20
-291.6759264146958
 30
0.0
 11
-888.1621324693833
 21
-186.6754562790328
 31
0.0
  0
LINE
  5
29B
330
1F
100
AcDbEntity
  8
1-2
  6
Continuous
 62
     3
370
     9
100
AcDbLine
 10
-888.1621324693833
 20
-174.6757383604307
 30
0.0
 11
-888.1621324693833
 21
13.3245849609375
 31
0.0
  0
LINE
  5
29C
330
1F
100
AcDbEntity
  8
1-2
  6
Continuous
 62
     3
370
     9
100
AcDbLine
 10
-878.1628417968749
 20
-291.6759264146958
 30
0.0
 11
-878.1628417968749
 21
-186.6754562790328
 31
0.0
  0
LINE
  5
29D
330
1F
100
AcDbEntity
  8
1-2
  6
Continuous
 62
     3
370
     9
100
AcDbLine
 10
-878.1628417968749
 20
-174.6757383604307
 30
0.0
 11
-878.1628417968749
 21
13.3245849609375
 31
0.0
  0
LINE
  5
29E
330
1F
100
AcDbEntity
  8
1-2
  6
Continuous
 62
     3
370
     9
100
AcDbLine
 10
-858.1621324693833
 20
825.3238492398651
 30
0.0
 11
-858.1621324693833
 21
930.3237007759714
 31
0.0
  0
LINE
  5
29F
330
1F
100
AcDbEntity
  8
1-2
  6
Continuous
 62
     3
370
     9
100
AcDbLine
 10
-848.1628417968749
 20
825.3238492398651
 30
0.0
 11
-848.1628417968749
 21
930.3237007759714
 31
0.0
  0
LINE
  5
2A0
330
1F
100
AcDbEntity
  8
1-2
  6
Continuous
 62
     3
370
     9
100
AcDbLine
 10
-858.1621324693833
 20
425.3242616395693
 30
0.0
 11
-858.1621324693833
 21
613.3243375211148
 31
0.0
  0
LINE
  5
2A1
330
1F
100
AcDbEntity
  8
1-2
  6
Continuous
 62
     3
370
     9
100
AcDbLine
 10
-858.1621324693833
 20
625.3241791596283
 30
0.0
 11
-858.1621324693833
 21
813.3240076013516
 31
0.0
  0
LINE
  5
2A2
330
1F
100
AcDbEntity
  8
1-2
  6
Continuous
 62
     3
370
     9
100
AcDbLine
 10
-848.1628417968749
 20
425.3242616395693
 30
0.0
 11
-848.1628417968749
 21
613.3243375211148
 31
0.0
  0
LINE
  5
2A3
330
1F
100
AcDbEntity
  8
1-2
  6
Continuous
 62
     3
370
     9
100
AcDbLine
 10
-848.1628417968749
 20
625.3241791596283
 30
0.0
 11
-848.1628417968749
 21
813.3240076013516
 31
0.0
  0
LINE
  5
2A4
330
1F
100
AcDbEntity
  8
1-2
  6
Continuous
 62
     3
370
     9
100
AcDbLine
 10
-858.1621324693833
 20
25.32430287953986
 30
0.0
 11
-858.1621324693833
 21
213.3245024809966
 31
0.0
  0
LINE
  5
2A5
330
1F
100
AcDbEntity
  8
1-2
  6
Continuous
 62
     3
370
     9
100
AcDbLine
 10
-858.1621324693833
 20
225.324220399599
 30
0.0
 11
-858.1621324693833
 21
413.3245437209672
 31
0.0
  0
LINE
  5
2A6
330
1F
100
AcDbEntity
  8
1-2
  6
Continuous
 62
     3
370
     9
100
AcDbLine
 10
-848.1628417968749
 20
25.32430287953986
 30
0.0
 11
-848.1628417968749
 21
213.3245024809966
 31
0.0
  0
LINE
  5
2A7
330
1F
100
AcDbEntity
  8
1-2
  6
Continuous
 62
     3
370
     9
100
AcDbLine
 10
-848.1628417968749
 20
225.324220399599
 30
0.0
 11
-848.1628417968749
 21
413.3245437209672
 31
0.0
  0
LINE
  5
2A8
330
1F
100
AcDbEntity
  8
1-2
  6
Continuous
 62
     3
370
     9
100
AcDbLine
 10
-858.1621324693833
 20
-291.6759264146958
 30
0.0
 11
-858.1621324693833
 21
-186.6754562790328
 31
0.0
  0
LINE
  5
2A9
330
1F
100
AcDbEntity
  8
1-2
  6
Continuous
 62
     3
370
     9
100
AcDbLine
 10
-858.1621324693833
 20
-174.6757383604307
 30
0.0
 11
-858.1621324693833
 21
13.3245849609375
 31
0.0
  0
LINE
  5
2AA
330
1F
100
AcDbEntity
  8
1-2
  6
Continuous
 62
     3
370
     9
100
AcDbLine
 10
-848.1628417968749
 20
-291.6759264146958
 30
0.0
 11
-848.1628417968749
 21
-186.6754562790328
 31
0.0
  0
LINE
  5
2AB
330
1F
100
AcDbEntity
  8
1-2
  6
Continuous
 62
     3
370
     9
100
AcDbLine
 10
-848.1628417968749
 20
-174.6757383604307
 30
0.0
 11
-848.1628417968749
 21
13.3245849609375
 31
0.0
  0
LINE
  5
2AC
330
1F
100
AcDbEntity
  8
1-2
  6
Continuous
 62
     3
370
     9
100
AcDbLine
 10
-828.1621324693833
 20
825.3238492398651
 30
0.0
 11
-828.1621324693833
 21
930.3237007759714
 31
0.0
  0
LINE
  5
2AD
330
1F
100
AcDbEntity
  8
1-2
  6
Continuous
 62
     3
370
     9
100
AcDbLine
 10
-818.1628417968749
 20
825.3238492398651
 30
0.0
 11
-818.1628417968749
 21
930.3237007759714
 31
0.0
  0
LINE
  5
2AE
330
1F
100
AcDbEntity
  8
1-2
  6
Continuous
 62
     3
370
     9
100
AcDbLine
 10
-828.1621324693833
 20
425.3242616395693
 30
0.0
 11
-828.1621324693833
 21
613.3243375211148
 31
0.0
  0
LINE
  5
2AF
330
1F
100
AcDbEntity
  8
1-2
  6
Continuous
 62
     3
370
     9
100
AcDbLine
 10
-828.1621324693833
 20
625.3241791596283
 30
0.0
 11
-828.1621324693833
 21
813.3240076013516
 31
0.0
  0
LINE
  5
2B0
330
1F
100
AcDbEntity
  8
1-2
  6
Continuous
 62
     3
370
     9
100
AcDbLine
 10
-818.1628417968749
 20
425.3242616395693
 30
0.0
 11
-818.1628417968749
 21
613.3243375211148
 31
0.0
  0
LINE
  5
2B1
330
1F
100
AcDbEntity
  8
1-2
  6
Continuous
 62
     3
370
     9
100
AcDbLine
 10
-818.1628417968749
 20
625.3241791596283
 30
0.0
 11
-818.1628417968749
 21
813.3240076013516
 31
0.0
  0
LINE
  5
2B2
330
1F
100
AcDbEntity
  8
1-2
  6
Continuous
 62
     3
370
     9
100
AcDbLine
 10
-828.1621324693833
 20
25.32430287953986
 30
0.0
 11
-828.1621324693833
 21
213.3245024809966
 31
0.0
  0
LINE
  5
2B3
330
1F
100
AcDbEntity
  8
1-2
  6
Continuous
 62
     3
370
     9
100
AcDbLine
 10
-828.1621324693833
 20
225.324220399599
 30
0.0
 11
-828.1621324693833
 21
413.3245437209672
 31
0.0
  0
LINE
  5
2B4
330
1F
100
AcDbEntity
  8
1-2
  6
Continuous
 62
     3
370
     9
100
AcDbLine
 10
-818.1628417968749
 20
25.32430287953986
 30
0.0
 11
-818.1628417968749
 21
213.3245024809966
 31
0.0
  0
LINE
  5
2B5
330
1F
100
AcDbEntity
  8
1-2
  6
Continuous
 62
     3
370
     9
100
AcDbLine
 10
-818.1628417968749
 20
225.324220399599
 30
0.0
 11
-818.1628417968749
 21
413.3245437209672
 31
0.0
  0
LINE
  5
2B6
330
1F
100
AcDbEntity
  8
1-2
  6
Continuous
 62
     3
370
     9
100
AcDbLine
 10
-828.1621324693833
 20
-291.6759264146958
 30
0.0
 11
-828.1621324693833
 21
-186.6754562790328
 31
0.0
  0
LINE
  5
2B7
330
1F
100
AcDbEntity
  8
1-2
  6
Continuous
 62
     3
370
     9
100
AcDbLine
 10
-828.1621324693833
 20
-174.6757383604307
 30
0.0
 11
-828.1621324693833
 21
13.3245849609375
 31
0.0
  0
LINE
  5
2B8
330
1F
100
AcDbEntity
  8
1-2
  6
Continuous
 62
     3
370
     9
100
AcDbLine
 10
-818.1628417968749
 20
-291.6759264146958
 30
0.0
 11
-818.1628417968749
 21
-186.6754562790328
 31
0.0
  0
LINE
  5
2B9
330
1F
100
AcDbEntity
  8
1-2
  6
Continuous
 62
     3
370
     9
100
AcDbLine
 10
-818.1628417968749
 20
-174.6757383604307
 30
0.0
 11
-818.1628417968749
 21
13.3245849609375
 31
0.0
  0
LINE
  5
2BA
330
1F
100
AcDbEntity
  8
1-2
  6
Continuous
 62
     3
370
     9
100
AcDbLine
 10
-798.1621324693833
 20
825.3238492398651
 30
0.0
 11
-798.1621324693833
 21
930.3237007759714
 31
0.0
  0
LINE
  5
2BB
330
1F
100
AcDbEntity
  8
1-2
  6
Continuous
 62
     3
370
     9
100
AcDbLine
 10
-788.1628417968749
 20
825.3238492398651
 30
0.0
 11
-788.1628417968749
 21
930.3237007759714
 31
0.0
  0
LINE
  5
2BC
330
1F
100
AcDbEntity
  8
1-2
  6
Continuous
 62
     3
370
     9
100
AcDbLine
 10
-798.1621324693833
 20
425.3242616395693
 30
0.0
 11
-798.1621324693833
 21
613.3243375211148
 31
0.0
  0
LINE
  5
2BD
330
1F
100
AcDbEntity
  8
1-2
  6
Continuous
 62
     3
370
     9
100
AcDbLine
 10
-798.1621324693833
 20
625.3241791596283
 30
0.0
 11
-798.1621324693833
 21
813.3240076013516
 31
0.0
  0
LINE
  5
2BE
330
1F
100
AcDbEntity
  8
1-2
  6
Continuous
 62
     3
370
     9
100
AcDbLine
 10
-788.1628417968749
 20
425.3242616395693
 30
0.0
 11
-788.1628417968749
 21
613.3243375211148
 31
0.0
  0
LINE
  5
2BF
330
1F
100
AcDbEntity
  8
1-2
  6
Continuous
 62
     3
370
     9
100
AcDbLine
 10
-788.1628417968749
 20
625.3241791596283
 30
0.0
 11
-788.1628417968749
 21
813.3240076013516
 31
0.0
  0
LINE
  5
2C0
330
1F
100
AcDbEntity
  8
1-2
  6
Continuous
 62
     3
370
     9
100
AcDbLine
 10
-798.1621324693833
 20
25.32430287953986
 30
0.0
 11
-798.1621324693833
 21
213.3245024809966
 31
0.0
  0
LINE
  5
2C1
330
1F
100
AcDbEntity
  8
1-2
  6
Continuous
 62
     3
370
     9
100
AcDbLine
 10
-798.1621324693833
 20
225.324220399599
 30
0.0
 11
-798.1621324693833
 21
413.3245437209672
 31
0.0
  0
LINE
  5
2C2
330
1F
100
AcDbEntity
  8
1-2
  6
Continuous
 62
     3
370
     9
100
AcDbLine
 10
-788.1628417968749
 20
25.32430287953986
 30
0.0
 11
-788.1628417968749
 21
213.3245024809966
 31
0.0
  0
LINE
  5
2C3
330
1F
100
AcDbEntity
  8
1-2
  6
Continuous
 62
     3
370
     9
100
AcDbLine
 10
-788.1628417968749
 20
225.324220399599
 30
0.0
 11
-788.1628417968749
 21
413.3245437209672
 31
0.0
  0
LINE
  5
2C4
330
1F
100
AcDbEntity
  8
1-2
  6
Continuous
 62
     3
370
     9
100
AcDbLine
 10
-798.1621324693833
 20
-291.6759264146958
 30
0.0
 11
-798.1621324693833
 21
-186.6754562790328
 31
0.0
  0
LINE
  5
2C5
330
1F
100
AcDbEntity
  8
1-2
  6
Continuous
 62
     3
370
     9
100
AcDbLine
 10
-798.1621324693833
 20
-174.6757383604307
 30
0.0
 11
-798.1621324693833
 21
13.3245849609375
 31
0.0
  0
LINE
  5
2C6
330
1F
100
AcDbEntity
  8
1-2
  6
Continuous
 62
     3
370
     9
100
AcDbLine
 10
-788.1628417968749
 20
-291.6759264146958
 30
0.0
 11
-788.1628417968749
 21
-186.6754562790328
 31
0.0
  0
LINE
  5
2C7
330
1F
100
AcDbEntity
  8
1-2
  6
Continuous
 62
     3
370
     9
100
AcDbLine
 10
-788.1628417968749
 20
-174.6757383604307
 30
0.0
 11
-788.1628417968749
 21
13.3245849609375
 31
0.0
  0
LINE
  5
2C8
330
1F
100
AcDbEntity
  8
1-2
  6
Continuous
 62
     3
370
     9
100
AcDbLine
 10
-768.1621324693833
 20
825.3238492398651
 30
0.0
 11
-768.1621324693833
 21
930.3237007759714
 31
0.0
  0
LINE
  5
2C9
330
1F
100
AcDbEntity
  8
1-2
  6
Continuous
 62
     3
370
     9
100
AcDbLine
 10
-758.1628417968749
 20
825.3238492398651
 30
0.0
 11
-758.1628417968749
 21
930.3237007759714
 31
0.0
  0
LINE
  5
2CA
330
1F
100
AcDbEntity
  8
1-2
  6
Continuous
 62
     3
370
     9
100
AcDbLine
 10
-768.1621324693833
 20
425.3242616395693
 30
0.0
 11
-768.1621324693833
 21
613.3243375211148
 31
0.0
  0
LINE
  5
2CB
330
1F
100
AcDbEntity
  8
1-2
  6
Continuous
 62
     3
370
     9
100
AcDbLine
 10
-768.1621324693833
 20
625.3241791596283
 30
0.0
 11
-768.1621324693833
 21
813.3240076013516
 31
0.0
  0
LINE
  5
2CC
330
1F
100
AcDbEntity
  8
1-2
  6
Continuous
 62
     3
370
     9
100
AcDbLine
 10
-758.1628417968749
 20
425.3242616395693
 30
0.0
 11
-758.1628417968749
 21
613.3243375211148
 31
0.0
  0
LINE
  5
2CD
330
1F
100
AcDbEntity
  8
1-2
  6
Continuous
 62
     3
370
     9
100
AcDbLine
 10
-758.1628417968749
 20
625.3241791596283
 30
0.0
 11
-758.1628417968749
 21
813.3240076013516
 31
0.0
  0
LINE
  5
2CE
330
1F
100
AcDbEntity
  8
1-2
  6
Continuous
 62
     3
370
     9
100
AcDbLine
 10
-768.1621324693833
 20
25.32430287953986
 30
0.0
 11
-768.1621324693833
 21
213.3245024809966
 31
0.0
  0
LINE
  5
2CF
330
1F
100
AcDbEntity
  8
1-2
  6
Continuous
 62
     3
370
     9
100
AcDbLine
 10
-768.1621324693833
 20
225.324220399599
 30
0.0
 11
-768.1621324693833
 21
413.3245437209672
 31
0.0
  0
LINE
  5
2D0
330
1F
100
AcDbEntity
  8
1-2
  6
Continuous
 62
     3
370
     9
100
AcDbLine
 10
-758.1628417968749
 20
25.32430287953986
 30
0.0
 11
-758.1628417968749
 21
213.3245024809966
 31
0.0
  0
LINE
  5
2D1
330
1F
100
AcDbEntity
  8
1-2
  6
Continuous
 62
     3
370
     9
100
AcDbLine
 10
-758.1628417968749
 20
225.324220399599
 30
0.0
 11
-758.1628417968749
 21
413.3245437209672
 31
0.0
  0
LINE
  5
2D2
330
1F
100
AcDbEntity
  8
1-2
  6
Continuous
 62
     3
370
     9
100
AcDbLine
 10
-768.1621324693833
 20
-291.6759264146958
 30
0.0
 11
-768.1621324693833
 21
-186.6754562790328
 31
0.0
  0
LINE
  5
2D3
330
1F
100
AcDbEntity
  8
1-2
  6
Continuous
 62
     3
370
     9
100
AcDbLine
 10
-768.1621324693833
 20
-174.6757383604307
 30
0.0
 11
-768.1621324693833
 21
13.3245849609375
 31
0.0
  0
LINE
  5
2D4
330
1F
100
AcDbEntity
  8
1-2
  6
Continuous
 62
     3
370
     9
100
AcDbLine
 10
-758.1628417968749
 20
-291.6759264146958
 30
0.0
 11
-758.1628417968749
 21
-186.6754562790328
 31
0.0
  0
LINE
  5
2D5
330
1F
100
AcDbEntity
  8
1-2
  6
Continuous
 62
     3
370
     9
100
AcDbLine
 10
-758.1628417968749
 20
-174.6757383604307
 30
0.0
 11
-758.1628417968749
 21
13.3245849609375
 31
0.0
  0
LINE
  5
2D6
330
1F
100
AcDbEntity
  8
1-2
  6
Continuous
 62
     3
370
     9
100
AcDbLine
 10
-738.1621324693833
 20
825.3238492398651
 30
0.0
 11
-738.1621324693833
 21
930.3237007759714
 31
0.0
  0
LINE
  5
2D7
330
1F
100
AcDbEntity
  8
1-2
  6
Continuous
 62
     3
370
     9
100
AcDbLine
 10
-728.1628417968749
 20
825.3238492398651
 30
0.0
 11
-728.1628417968749
 21
930.3237007759714
 31
0.0
  0
LINE
  5
2D8
330
1F
100
AcDbEntity
  8
1-2
  6
Continuous
 62
     3
370
     9
100
AcDbLine
 10
-738.1621324693833
 20
425.3242616395693
 30
0.0
 11
-738.1621324693833
 21
613.3243375211148
 31
0.0
  0
LINE
  5
2D9
330
1F
100
AcDbEntity
  8
1-2
  6
Continuous
 62
     3
370
     9
100
AcDbLine
 10
-738.1621324693833
 20
625.3241791596283
 30
0.0
 11
-738.1621324693833
 21
813.3240076013516
 31
0.0
  0
LINE
  5
2DA
330
1F
100
AcDbEntity
  8
1-2
  6
Continuous
 62
     3
370
     9
100
AcDbLine
 10
-728.1628417968749
 20
425.3242616395693
 30
0.0
 11
-728.1628417968749
 21
613.3243375211148
 31
0.0
  0
LINE
  5
2DB
330
1F
100
AcDbEntity
  8
1-2
  6
Continuous
 62
     3
370
     9
100
AcDbLine
 10
-728.1628417968749
 20
625.3241791596283
 30
0.0
 11
-728.1628417968749
 21
813.3240076013516
 31
0.0
  0
LINE
  5
2DC
330
1F
100
AcDbEntity
  8
1-2
  6
Continuous
 62
     3
370
     9
100
AcDbLine
 10
-738.1621324693833
 20
25.32430287953986
 30
0.0
 11
-738.1621324693833
 21
213.3245024809966
 31
0.0
  0
LINE
  5
2DD
330
1F
100
AcDbEntity
  8
1-2
  6
Continuous
 62
     3
370
     9
100
AcDbLine
 10
-738.1621324693833
 20
225.324220399599
 30
0.0
 11
-738.1621324693833
 21
413.3245437209672
 31
0.0
  0
LINE
  5
2DE
330
1F
100
AcDbEntity
  8
1-2
  6
Continuous
 62
     3
370
     9
100
AcDbLine
 10
-728.1628417968749
 20
25.32430287953986
 30
0.0
 11
-728.1628417968749
 21
213.3245024809966
 31
0.0
  0
LINE
  5
2DF
330
1F
100
AcDbEntity
  8
1-2
  6
Continuous
 62
     3
370
     9
100
AcDbLine
 10
-728.1628417968749
 20
225.324220399599
 30
0.0
 11
-728.1628417968749
 21
413.3245437209672
 31
0.0
  0
LINE
  5
2E0
330
1F
100
AcDbEntity
  8
1-2
  6
Continuous
 62
     3
370
     9
100
AcDbLine
 10
-738.1621324693833
 20
-291.6759264146958
 30
0.0
 11
-738.1621324693833
 21
-186.6754562790328
 31
0.0
  0
LINE
  5
2E1
330
1F
100
AcDbEntity
  8
1-2
  6
Continuous
 62
     3
370
     9
100
AcDbLine
 10
-738.1621324693833
 20
-174.6757383604307
 30
0.0
 11
-738.1621324693833
 21
13.3245849609375
 31
0.0
  0
LINE
  5
2E2
330
1F
100
AcDbEntity
  8
1-2
  6
Continuous
 62
     3
370
     9
100
AcDbLine
 10
-728.1628417968749
 20
-291.6759264146958
 30
0.0
 11
-728.1628417968749
 21
-186.6754562790328
 31
0.0
  0
LINE
  5
2E3
330
1F
100
AcDbEntity
  8
1-2
  6
Continuous
 62
     3
370
     9
100
AcDbLine
 10
-728.1628417968749
 20
-174.6757383604307
 30
0.0
 11
-728.1628417968749
 21
13.3245849609375
 31
0.0
  0
LINE
  5
2E4
330
1F
100
AcDbEntity
  8
1-2
  6
Continuous
 62
     3
370
     9
100
AcDbLine
 10
-708.1621324693833
 20
825.3238492398651
 30
0.0
 11
-708.1621324693833
 21
930.3237007759714
 31
0.0
  0
LINE
  5
2E5
330
1F
100
AcDbEntity
  8
1-2
  6
Continuous
 62
     3
370
     9
100
AcDbLine
 10
-698.1628417968749
 20
825.3238492398651
 30
0.0
 11
-698.1628417968749
 21
930.3237007759714
 31
0.0
  0
LINE
  5
2E6
330
1F
100
AcDbEntity
  8
1-2
  6
Continuous
 62
     3
370
     9
100
AcDbLine
 10
-708.1621324693833
 20
425.3242616395693
 30
0.0
 11
-708.1621324693833
 21
613.3243375211148
 31
0.0
  0
LINE
  5
2E7
330
1F
100
AcDbEntity
  8
1-2
  6
Continuous
 62
     3
370
     9
100
AcDbLine
 10
-708.1621324693833
 20
625.3241791596283
 30
0.0
 11
-708.1621324693833
 21
813.3240076013516
 31
0.0
  0
LINE
  5
2E8
330
1F
100
AcDbEntity
  8
1-2
  6
Continuous
 62
     3
370
     9
100
AcDbLine
 10
-698.1628417968749
 20
425.3242616395693
 30
0.0
 11
-698.1628417968749
 21
613.3243375211148
 31
0.0
  0
LINE
  5
2E9
330
1F
100
AcDbEntity
  8
1-2
  6
Continuous
 62
     3
370
     9
100
AcDbLine
 10
-698.1628417968749
 20
625.3241791596283
 30
0.0
 11
-698.1628417968749
 21
813.3240076013516
 31
0.0
  0
LINE
  5
2EA
330
1F
100
AcDbEntity
  8
1-2
  6
Continuous
 62
     3
370
     9
100
AcDbLine
 10
-708.1621324693833
 20
25.32430287953986
 30
0.0
 11
-708.1621324693833
 21
213.3245024809966
 31
0.0
  0
LINE
  5
2EB
330
1F
100
AcDbEntity
  8
1-2
  6
Continuous
 62
     3
370
     9
100
AcDbLine
 10
-708.1621324693833
 20
225.324220399599
 30
0.0
 11
-708.1621324693833
 21
413.3245437209672
 31
0.0
  0
LINE
  5
2EC
330
1F
100
AcDbEntity
  8
1-2
  6
Continuous
 62
     3
370
     9
100
AcDbLine
 10
-698.1628417968749
 20
25.32430287953986
 30
0.0
 11
-698.1628417968749
 21
213.3245024809966
 31
0.0
  0
LINE
  5
2ED
330
1F
100
AcDbEntity
  8
1-2
  6
Continuous
 62
     3
370
     9
100
AcDbLine
 10
-698.1628417968749
 20
225.324220399599
 30
0.0
 11
-698.1628417968749
 21
413.3245437209672
 31
0.0
  0
LINE
  5
2EE
330
1F
100
AcDbEntity
  8
1-2
  6
Continuous
 62
     3
370
     9
100
AcDbLine
 10
-708.1621324693833
 20
-291.6759264146958
 30
0.0
 11
-708.1621324693833
 21
-186.6754562790328
 31
0.0
  0
LINE
  5
2EF
330
1F
100
AcDbEntity
  8
1-2
  6
Continuous
 62
     3
370
     9
100
AcDbLine
 10
-708.1621324693833
 20
-174.6757383604307
 30
0.0
 11
-708.1621324693833
 21
13.3245849609375
 31
0.0
  0
LINE
  5
2F0
330
1F
100
AcDbEntity
  8
1-2
  6
Continuous
 62
     3
370
     9
100
AcDbLine
 10
-698.1628417968749
 20
-291.6759264146958
 30
0.0
 11
-698.1628417968749
 21
-186.6754562790328
 31
0.0
  0
LINE
  5
2F1
330
1F
100
AcDbEntity
  8
1-2
  6
Continuous
 62
     3
370
     9
100
AcDbLine
 10
-698.1628417968749
 20
-174.6757383604307
 30
0.0
 11
-698.1628417968749
 21
13.3245849609375
 31
0.0
  0
LINE
  5
2F2
330
1F
100
AcDbEntity
  8
1-2
  6
Continuous
 62
     3
370
     9
100
AcDbLine
 10
-678.1621324693833
 20
825.3238492398651
 30
0.0
 11
-678.1621324693833
 21
930.3237007759714
 31
0.0
  0
LINE
  5
2F3
330
1F
100
AcDbEntity
  8
1-2
  6
Continuous
 62
     3
370
     9
100
AcDbLine
 10
-668.1628417968749
 20
825.3238492398651
 30
0.0
 11
-668.1628417968749
 21
930.3237007759714
 31
0.0
  0
LINE
  5
2F4
330
1F
100
AcDbEntity
  8
1-2
  6
Continuous
 62
     3
370
     9
100
AcDbLine
 10
-678.1621324693833
 20
425.3242616395693
 30
0.0
 11
-678.1621324693833
 21
613.3243375211148
 31
0.0
  0
LINE
  5
2F5
330
1F
100
AcDbEntity
  8
1-2
  6
Continuous
 62
     3
370
     9
100
AcDbLine
 10
-678.1621324693833
 20
625.3241791596283
 30
0.0
 11
-678.1621324693833
 21
813.3240076013516
 31
0.0
  0
LINE
  5
2F6
330
1F
100
AcDbEntity
  8
1-2
  6
Continuous
 62
     3
370
     9
100
AcDbLine
 10
-668.1628417968749
 20
425.3242616395693
 30
0.0
 11
-668.1628417968749
 21
613.3243375211148
 31
0.0
  0
LINE
  5
2F7
330
1F
100
AcDbEntity
  8
1-2
  6
Continuous
 62
     3
370
     9
100
AcDbLine
 10
-668.1628417968749
 20
625.3241791596283
 30
0.0
 11
-668.1628417968749
 21
813.3240076013516
 31
0.0
  0
LINE
  5
2F8
330
1F
100
AcDbEntity
  8
1-2
  6
Continuous
 62
     3
370
     9
100
AcDbLine
 10
-678.1621324693833
 20
25.32430287953986
 30
0.0
 11
-678.1621324693833
 21
213.3245024809966
 31
0.0
  0
LINE
  5
2F9
330
1F
100
AcDbEntity
  8
1-2
  6
Continuous
 62
     3
370
     9
100
AcDbLine
 10
-678.1621324693833
 20
225.324220399599
 30
0.0
 11
-678.1621324693833
 21
413.3245437209672
 31
0.0
  0
LINE
  5
2FA
330
1F
100
AcDbEntity
  8
1-2
  6
Continuous
 62
     3
370
     9
100
AcDbLine
 10
-668.1628417968749
 20
25.32430287953986
 30
0.0
 11
-668.1628417968749
 21
213.3245024809966
 31
0.0
  0
LINE
  5
2FB
330
1F
100
AcDbEntity
  8
1-2
  6
Continuous
 62
     3
370
     9
100
AcDbLine
 10
-668.1628417968749
 20
225.324220399599
 30
0.0
 11
-668.1628417968749
 21
413.3245437209672
 31
0.0
  0
LINE
  5
2FC
330
1F
100
AcDbEntity
  8
1-2
  6
Continuous
 62
     3
370
     9
100
AcDbLine
 10
-678.1621324693833
 20
-291.6759264146958
 30
0.0
 11
-678.1621324693833
 21
-186.6754562790328
 31
0.0
  0
LINE
  5
2FD
330
1F
100
AcDbEntity
  8
1-2
  6
Continuous
 62
     3
370
     9
100
AcDbLine
 10
-678.1621324693833
 20
-174.6757383604307
 30
0.0
 11
-678.1621324693833
 21
13.3245849609375
 31
0.0
  0
LINE
  5
2FE
330
1F
100
AcDbEntity
  8
1-2
  6
Continuous
 62
     3
370
     9
100
AcDbLine
 10
-668.1628417968749
 20
-291.6759264146958
 30
0.0
 11
-668.1628417968749
 21
-186.6754562790328
 31
0.0
  0
LINE
  5
2FF
330
1F
100
AcDbEntity
  8
1-2
  6
Continuous
 62
     3
370
     9
100
AcDbLine
 10
-668.1628417968749
 20
-174.6757383604307
 30
0.0
 11
-668.1628417968749
 21
13.3245849609375
 31
0.0
  0
LINE
  5
300
330
1F
100
AcDbEntity
  8
1-2
  6
Continuous
 62
     3
370
     9
100
AcDbLine
 10
-648.1621324693833
 20
825.3238492398651
 30
0.0
 11
-648.1621324693833
 21
930.3237007759714
 31
0.0
  0
LINE
  5
301
330
1F
100
AcDbEntity
  8
1-2
  6
Continuous
 62
     3
370
     9
100
AcDbLine
 10
-638.1628417968749
 20
825.3238492398651
 30
0.0
 11
-638.1628417968749
 21
930.3237007759714
 31
0.0
  0
LINE
  5
302
330
1F
100
AcDbEntity
  8
1-2
  6
Continuous
 62
     3
370
     9
100
AcDbLine
 10
-648.1621324693833
 20
425.3242616395693
 30
0.0
 11
-648.1621324693833
 21
613.3243375211148
 31
0.0
  0
LINE
  5
303
330
1F
100
AcDbEntity
  8
1-2
  6
Continuous
 62
     3
370
     9
100
AcDbLine
 10
-648.1621324693833
 20
625.3241791596283
 30
0.0
 11
-648.1621324693833
 21
813.3240076013516
 31
0.0
  0
LINE
  5
304
330
1F
100
AcDbEntity
  8
1-2
  6
Continuous
 62
     3
370
     9
100
AcDbLine
 10
-638.1628417968749
 20
425.3242616395693
 30
0.0
 11
-638.1628417968749
 21
613.3243375211148
 31
0.0
  0
LINE
  5
305
330
1F
100
AcDbEntity
  8
1-2
  6
Continuous
 62
     3
370
     9
100
AcDbLine
 10
-638.1628417968749
 20
625.3241791596283
 30
0.0
 11
-638.1628417968749
 21
813.3240076013516
 31
0.0
  0
LINE
  5
306
330
1F
100
AcDbEntity
  8
1-2
  6
Continuous
 62
     3
370
     9
100
AcDbLine
 10
-648.1621324693833
 20
25.32430287953986
 30
0.0
 11
-648.1621324693833
 21
213.3245024809966
 31
0.0
  0
LINE
  5
307
330
1F
100
AcDbEntity
  8
1-2
  6
Continuous
 62
     3
370
     9
100
AcDbLine
 10
-648.1621324693833
 20
225.324220399599
 30
0.0
 11
-648.1621324693833
 21
413.3245437209672
 31
0.0
  0
LINE
  5
308
330
1F
100
AcDbEntity
  8
1-2
  6
Continuous
 62
     3
370
     9
100
AcDbLine
 10
-638.1628417968749
 20
25.32430287953986
 30
0.0
 11
-638.1628417968749
 21
213.3245024809966
 31
0.0
  0
LINE
  5
309
330
1F
100
AcDbEntity
  8
1-2
  6
Continuous
 62
     3
370
     9
100
AcDbLine
 10
-638.1628417968749
 20
225.324220399599
 30
0.0
 11
-638.1628417968749
 21
413.3245437209672
 31
0.0
  0
LINE
  5
30A
330
1F
100
AcDbEntity
  8
1-2
  6
Continuous
 62
     3
370
     9
100
AcDbLine
 10
-648.1621324693833
 20
-291.6759264146958
 30
0.0
 11
-648.1621324693833
 21
-186.6754562790328
 31
0.0
  0
LINE
  5
30B
330
1F
100
AcDbEntity
  8
1-2
  6
Continuous
 62
     3
370
     9
100
AcDbLine
 10
-648.1621324693833
 20
-174.6757383604307
 30
0.0
 11
-648.1621324693833
 21
13.3245849609375
 31
0.0
  0
LINE
  5
30C
330
1F
100
AcDbEntity
  8
1-2
  6
Continuous
 62
     3
370
     9
100
AcDbLine
 10
-638.1628417968749
 20
-291.6759264146958
 30
0.0
 11
-638.1628417968749
 21
-186.6754562790328
 31
0.0
  0
LINE
  5
30D
330
1F
100
AcDbEntity
  8
1-2
  6
Continuous
 62
     3
370
     9
100
AcDbLine
 10
-638.1628417968749
 20
-174.6757383604307
 30
0.0
 11
-638.1628417968749
 21
13.3245849609375
 31
0.0
  0
LINE
  5
30E
330
1F
100
AcDbEntity
  8
1-2
  6
Continuous
 62
     3
370
     9
100
AcDbLine
 10
-618.1621324693833
 20
825.3238492398651
 30
0.0
 11
-618.1621324693833
 21
930.3237007759714
 31
0.0
  0
LINE
  5
30F
330
1F
100
AcDbEntity
  8
1-2
  6
Continuous
 62
     3
370
     9
100
AcDbLine
 10
-608.1628417968749
 20
825.3238492398651
 30
0.0
 11
-608.1628417968749
 21
930.3237007759714
 31
0.0
  0
LINE
  5
310
330
1F
100
AcDbEntity
  8
1-2
  6
Continuous
 62
     3
370
     9
100
AcDbLine
 10
-618.1621324693833
 20
425.3242616395693
 30
0.0
 11
-618.1621324693833
 21
613.3243375211148
 31
0.0
  0
LINE
  5
311
330
1F
100
AcDbEntity
  8
1-2
  6
Continuous
 62
     3
370
     9
100
AcDbLine
 10
-618.1621324693833
 20
625.3241791596283
 30
0.0
 11
-618.1621324693833
 21
813.3240076013516
 31
0.0
  0
LINE
  5
312
330
1F
100
AcDbEntity
  8
1-2
  6
Continuous
 62
     3
370
     9
100
AcDbLine
 10
-608.1628417968749
 20
425.3242616395693
 30
0.0
 11
-608.1628417968749
 21
613.3243375211148
 31
0.0
  0
LINE
  5
313
330
1F
100
AcDbEntity
  8
1-2
  6
Continuous
 62
     3
370
     9
100
AcDbLine
 10
-608.1628417968749
 20
625.3241791596283
 30
0.0
 11
-608.1628417968749
 21
813.3240076013516
 31
0.0
  0
LINE
  5
314
330
1F
100
AcDbEntity
  8
1-2
  6
Continuous
 62
     3
370
     9
100
AcDbLine
 10
-618.1621324693833
 20
25.32430287953986
 30
0.0
 11
-618.1621324693833
 21
213.3245024809966
 31
0.0
  0
LINE
  5
315
330
1F
100
AcDbEntity
  8
1-2
  6
Continuous
 62
     3
370
     9
100
AcDbLine
 10
-618.1621324693833
 20
225.324220399599
 30
0.0
 11
-618.1621324693833
 21
413.3245437209672
 31
0.0
  0
LINE
  5
316
330
1F
100
AcDbEntity
  8
1-2
  6
Continuous
 62
     3
370
     9
100
AcDbLine
 10
-608.1628417968749
 20
25.32430287953986
 30
0.0
 11
-608.1628417968749
 21
213.3245024809966
 31
0.0
  0
LINE
  5
317
330
1F
100
AcDbEntity
  8
1-2
  6
Continuous
 62
     3
370
     9
100
AcDbLine
 10
-608.1628417968749
 20
225.324220399599
 30
0.0
 11
-608.1628417968749
 21
413.3245437209672
 31
0.0
  0
LINE
  5
318
330
1F
100
AcDbEntity
  8
1-2
  6
Continuous
 62
     3
370
     9
100
AcDbLine
 10
-618.1621324693833
 20
-291.6759264146958
 30
0.0
 11
-618.1621324693833
 21
-186.6754562790328
 31
0.0
  0
LINE
  5
319
330
1F
100
AcDbEntity
  8
1-2
  6
Continuous
 62
     3
370
     9
100
AcDbLine
 10
-618.1621324693833
 20
-174.6757383604307
 30
0.0
 11
-618.1621324693833
 21
13.3245849609375
 31
0.0
  0
LINE
  5
31A
330
1F
100
AcDbEntity
  8
1-2
  6
Continuous
 62
     3
370
     9
100
AcDbLine
 10
-608.1628417968749
 20
-291.6759264146958
 30
0.0
 11
-608.1628417968749
 21
-186.6754562790328
 31
0.0
  0
LINE
  5
31B
330
1F
100
AcDbEntity
  8
1-2
  6
Continuous
 62
     3
370
     9
100
AcDbLine
 10
-608.1628417968749
 20
-174.6757383604307
 30
0.0
 11
-608.1628417968749
 21
13.3245849609375
 31
0.0
  0
LINE
  5
31C
330
1F
100
AcDbEntity
  8
1-2
  6
Continuous
 62
     3
370
     9
100
AcDbLine
 10
-588.1621324693833
 20
825.3238492398651
 30
0.0
 11
-588.1621324693833
 21
930.3237007759714
 31
0.0
  0
LINE
  5
31D
330
1F
100
AcDbEntity
  8
1-2
  6
Continuous
 62
     3
370
     9
100
AcDbLine
 10
-578.1628417968749
 20
825.3238492398651
 30
0.0
 11
-578.1628417968749
 21
930.3237007759714
 31
0.0
  0
LINE
  5
31E
330
1F
100
AcDbEntity
  8
1-2
  6
Continuous
 62
     3
370
     9
100
AcDbLine
 10
-588.1621324693833
 20
425.3242616395693
 30
0.0
 11
-588.1621324693833
 21
613.3243375211148
 31
0.0
  0
LINE
  5
31F
330
1F
100
AcDbEntity
  8
1-2
  6
Continuous
 62
     3
370
     9
100
AcDbLine
 10
-588.1621324693833
 20
625.3241791596283
 30
0.0
 11
-588.1621324693833
 21
813.3240076013516
 31
0.0
  0
LINE
  5
320
330
1F
100
AcDbEntity
  8
1-2
  6
Continuous
 62
     3
370
     9
100
AcDbLine
 10
-578.1628417968749
 20
425.3242616395693
 30
0.0
 11
-578.1628417968749
 21
613.3243375211148
 31
0.0
  0
LINE
  5
321
330
1F
100
AcDbEntity
  8
1-2
  6
Continuous
 62
     3
370
     9
100
AcDbLine
 10
-578.1628417968749
 20
625.3241791596283
 30
0.0
 11
-578.1628417968749
 21
813.3240076013516
 31
0.0
  0
LINE
  5
322
330
1F
100
AcDbEntity
  8
1-2
  6
Continuous
 62
     3
370
     9
100
AcDbLine
 10
-588.1621324693833
 20
25.32430287953986
 30
0.0
 11
-588.1621324693833
 21
213.3245024809966
 31
0.0
  0
LINE
  5
323
330
1F
100
AcDbEntity
  8
1-2
  6
Continuous
 62
     3
370
     9
100
AcDbLine
 10
-588.1621324693833
 20
225.324220399599
 30
0.0
 11
-588.1621324693833
 21
413.3245437209672
 31
0.0
  0
LINE
  5
324
330
1F
100
AcDbEntity
  8
1-2
  6
Continuous
 62
     3
370
     9
100
AcDbLine
 10
-578.1628417968749
 20
25.32430287953986
 30
0.0
 11
-578.1628417968749
 21
213.3245024809966
 31
0.0
  0
LINE
  5
325
330
1F
100
AcDbEntity
  8
1-2
  6
Continuous
 62
     3
370
     9
100
AcDbLine
 10
-578.1628417968749
 20
225.324220399599
 30
0.0
 11
-578.1628417968749
 21
413.3245437209672
 31
0.0
  0
LINE
  5
326
330
1F
100
AcDbEntity
  8
1-2
  6
Continuous
 62
     3
370
     9
100
AcDbLine
 10
-588.1621324693833
 20
-291.6759264146958
 30
0.0
 11
-588.1621324693833
 21
-186.6754562790328
 31
0.0
  0
LINE
  5
327
330
1F
100
AcDbEntity
  8
1-2
  6
Continuous
 62
     3
370
     9
100
AcDbLine
 10
-588.1621324693833
 20
-174.6757383604307
 30
0.0
 11
-588.1621324693833
 21
13.3245849609375
 31
0.0
  0
LINE
  5
328
330
1F
100
AcDbEntity
  8
1-2
  6
Continuous
 62
     3
370
     9
100
AcDbLine
 10
-578.1628417968749
 20
-291.6759264146958
 30
0.0
 11
-578.1628417968749
 21
-186.6754562790328
 31
0.0
  0
LINE
  5
329
330
1F
100
AcDbEntity
  8
1-2
  6
Continuous
 62
     3
370
     9
100
AcDbLine
 10
-578.1628417968749
 20
-174.6757383604307
 30
0.0
 11
-578.1628417968749
 21
13.3245849609375
 31
0.0
  0
LINE
  5
32A
330
1F
100
AcDbEntity
  8
1-2
  6
Continuous
 62
     3
370
     9
100
AcDbLine
 10
-558.1621324693833
 20
825.3238492398651
 30
0.0
 11
-558.1621324693833
 21
930.3237007759714
 31
0.0
  0
LINE
  5
32B
330
1F
100
AcDbEntity
  8
1-2
  6
Continuous
 62
     3
370
     9
100
AcDbLine
 10
-548.1628417968749
 20
825.3238492398651
 30
0.0
 11
-548.1628417968749
 21
930.3237007759714
 31
0.0
  0
LINE
  5
32C
330
1F
100
AcDbEntity
  8
1-2
  6
Continuous
 62
     3
370
     9
100
AcDbLine
 10
-558.1621324693833
 20
425.3242616395693
 30
0.0
 11
-558.1621324693833
 21
613.3243375211148
 31
0.0
  0
LINE
  5
32D
330
1F
100
AcDbEntity
  8
1-2
  6
Continuous
 62
     3
370
     9
100
AcDbLine
 10
-558.1621324693833
 20
625.3241791596283
 30
0.0
 11
-558.1621324693833
 21
813.3240076013516
 31
0.0
  0
LINE
  5
32E
330
1F
100
AcDbEntity
  8
1-2
  6
Continuous
 62
     3
370
     9
100
AcDbLine
 10
-548.1628417968749
 20
425.3242616395693
 30
0.0
 11
-548.1628417968749
 21
613.3243375211148
 31
0.0
  0
LINE
  5
32F
330
1F
100
AcDbEntity
  8
1-2
  6
Continuous
 62
     3
370
     9
100
AcDbLine
 10
-548.1628417968749
 20
625.3241791596283
 30
0.0
 11
-548.1628417968749
 21
813.3240076013516
 31
0.0
  0
LINE
  5
330
330
1F
100
AcDbEntity
  8
1-2
  6
Continuous
 62
     3
370
     9
100
AcDbLine
 10
-558.1621324693833
 20
25.32430287953986
 30
0.0
 11
-558.1621324693833
 21
213.3245024809966
 31
0.0
  0
LINE
  5
331
330
1F
100
AcDbEntity
  8
1-2
  6
Continuous
 62
     3
370
     9
100
AcDbLine
 10
-558.1621324693833
 20
225.324220399599
 30
0.0
 11
-558.1621324693833
 21
413.3245437209672
 31
0.0
  0
LINE
  5
332
330
1F
100
AcDbEntity
  8
1-2
  6
Continuous
 62
     3
370
     9
100
AcDbLine
 10
-548.1628417968749
 20
25.32430287953986
 30
0.0
 11
-548.1628417968749
 21
213.3245024809966
 31
0.0
  0
LINE
  5
333
330
1F
100
AcDbEntity
  8
1-2
  6
Continuous
 62
     3
370
     9
100
AcDbLine
 10
-548.1628417968749
 20
225.324220399599
 30
0.0
 11
-548.1628417968749
 21
413.3245437209672
 31
0.0
  0
LINE
  5
334
330
1F
100
AcDbEntity
  8
1-2
  6
Continuous
 62
     3
370
     9
100
AcDbLine
 10
-558.1621324693833
 20
-291.6759264146958
 30
0.0
 11
-558.1621324693833
 21
-186.6754562790328
 31
0.0
  0
LINE
  5
335
330
1F
100
AcDbEntity
  8
1-2
  6
Continuous
 62
     3
370
     9
100
AcDbLine
 10
-558.1621324693833
 20
-174.6757383604307
 30
0.0
 11
-558.1621324693833
 21
13.3245849609375
 31
0.0
  0
LINE
  5
336
330
1F
100
AcDbEntity
  8
1-2
  6
Continuous
 62
     3
370
     9
100
AcDbLine
 10
-548.1628417968749
 20
-291.6759264146958
 30
0.0
 11
-548.1628417968749
 21
-186.6754562790328
 31
0.0
  0
LINE
  5
337
330
1F
100
AcDbEntity
  8
1-2
  6
Continuous
 62
     3
370
     9
100
AcDbLine
 10
-548.1628417968749
 20
-174.6757383604307
 30
0.0
 11
-548.1628417968749
 21
13.3245849609375
 31
0.0
  0
LINE
  5
338
330
1F
100
AcDbEntity
  8
1-2
  6
Continuous
 62
     3
370
     9
100
AcDbLine
 10
-528.1621324693833
 20
825.3238492398651
 30
0.0
 11
-528.1621324693833
 21
930.3237007759714
 31
0.0
  0
LINE
  5
339
330
1F
100
AcDbEntity
  8
1-2
  6
Continuous
 62
     3
370
     9
100
AcDbLine
 10
-518.1628417968749
 20
825.3238492398651
 30
0.0
 11
-518.1628417968749
 21
930.3237007759714
 31
0.0
  0
LINE
  5
33A
330
1F
100
AcDbEntity
  8
1-2
  6
Continuous
 62
     3
370
     9
100
AcDbLine
 10
-528.1621324693833
 20
425.3242616395693
 30
0.0
 11
-528.1621324693833
 21
613.3243375211148
 31
0.0
  0
LINE
  5
33B
330
1F
100
AcDbEntity
  8
1-2
  6
Continuous
 62
     3
370
     9
100
AcDbLine
 10
-528.1621324693833
 20
625.3241791596283
 30
0.0
 11
-528.1621324693833
 21
813.3240076013516
 31
0.0
  0
LINE
  5
33C
330
1F
100
AcDbEntity
  8
1-2
  6
Continuous
 62
     3
370
     9
100
AcDbLine
 10
-518.1628417968749
 20
425.3242616395693
 30
0.0
 11
-518.1628417968749
 21
613.3243375211148
 31
0.0
  0
LINE
  5
33D
330
1F
100
AcDbEntity
  8
1-2
  6
Continuous
 62
     3
370
     9
100
AcDbLine
 10
-518.1628417968749
 20
625.3241791596283
 30
0.0
 11
-518.1628417968749
 21
813.3240076013516
 31
0.0
  0
LINE
  5
33E
330
1F
100
AcDbEntity
  8
1-2
  6
Continuous
 62
     3
370
     9
100
AcDbLine
 10
-528.1621324693833
 20
25.32430287953986
 30
0.0
 11
-528.1621324693833
 21
213.3245024809966
 31
0.0
  0
LINE
  5
33F
330
1F
100
AcDbEntity
  8
1-2
  6
Continuous
 62
     3
370
     9
100
AcDbLine
 10
-528.1621324693833
 20
225.324220399599
 30
0.0
 11
-528.1621324693833
 21
413.3245437209672
 31
0.0
  0
LINE
  5
340
330
1F
100
AcDbEntity
  8
1-2
  6
Continuous
 62
     3
370
     9
100
AcDbLine
 10
-518.1628417968749
 20
25.32430287953986
 30
0.0
 11
-518.1628417968749
 21
213.3245024809966
 31
0.0
  0
LINE
  5
341
330
1F
100
AcDbEntity
  8
1-2
  6
Continuous
 62
     3
370
     9
100
AcDbLine
 10
-518.1628417968749
 20
225.324220399599
 30
0.0
 11
-518.1628417968749
 21
413.3245437209672
 31
0.0
  0
LINE
  5
342
330
1F
100
AcDbEntity
  8
1-2
  6
Continuous
 62
     3
370
     9
100
AcDbLine
 10
-528.1621324693833
 20
-291.6759264146958
 30
0.0
 11
-528.1621324693833
 21
-186.6754562790328
 31
0.0
  0
LINE
  5
343
330
1F
100
AcDbEntity
  8
1-2
  6
Continuous
 62
     3
370
     9
100
AcDbLine
 10
-528.1621324693833
 20
-174.6757383604307
 30
0.0
 11
-528.1621324693833
 21
13.3245849609375
 31
0.0
  0
LINE
  5
344
330
1F
100
AcDbEntity
  8
1-2
  6
Continuous
 62
     3
370
     9
100
AcDbLine
 10
-518.1628417968749
 20
-291.6759264146958
 30
0.0
 11
-518.1628417968749
 21
-186.6754562790328
 31
0.0
  0
LINE
  5
345
330
1F
100
AcDbEntity
  8
1-2
  6
Continuous
 62
     3
370
     9
100
AcDbLine
 10
-518.1628417968749
 20
-174.6757383604307
 30
0.0
 11
-518.1628417968749
 21
13.3245849609375
 31
0.0
  0
LINE
  5
346
330
1F
100
AcDbEntity
  8
1-2
  6
Continuous
 62
     3
370
     9
100
AcDbLine
 10
-498.1621324693833
 20
825.3238492398651
 30
0.0
 11
-498.1621324693833
 21
930.3237007759714
 31
0.0
  0
LINE
  5
347
330
1F
100
AcDbEntity
  8
1-2
  6
Continuous
 62
     3
370
     9
100
AcDbLine
 10
-488.1628417968749
 20
825.3238492398651
 30
0.0
 11
-488.1628417968749
 21
930.3237007759714
 31
0.0
  0
LINE
  5
348
330
1F
100
AcDbEntity
  8
1-2
  6
Continuous
 62
     3
370
     9
100
AcDbLine
 10
-498.1621324693833
 20
425.3242616395693
 30
0.0
 11
-498.1621324693833
 21
613.3243375211148
 31
0.0
  0
LINE
  5
349
330
1F
100
AcDbEntity
  8
1-2
  6
Continuous
 62
     3
370
     9
100
AcDbLine
 10
-498.1621324693833
 20
625.3241791596283
 30
0.0
 11
-498.1621324693833
 21
813.3240076013516
 31
0.0
  0
LINE
  5
34A
330
1F
100
AcDbEntity
  8
1-2
  6
Continuous
 62
     3
370
     9
100
AcDbLine
 10
-488.1628417968749
 20
425.3242616395693
 30
0.0
 11
-488.1628417968749
 21
613.3243375211148
 31
0.0
  0
LINE
  5
34B
330
1F
100
AcDbEntity
  8
1-2
  6
Continuous
 62
     3
370
     9
100
AcDbLine
 10
-488.1628417968749
 20
625.3241791596283
 30
0.0
 11
-488.1628417968749
 21
813.3240076013516
 31
0.0
  0
LINE
  5
34C
330
1F
100
AcDbEntity
  8
1-2
  6
Continuous
 62
     3
370
     9
100
AcDbLine
 10
-498.1621324693833
 20
25.32430287953986
 30
0.0
 11
-498.1621324693833
 21
213.3245024809966
 31
0.0
  0
LINE
  5
34D
330
1F
100
AcDbEntity
  8
1-2
  6
Continuous
 62
     3
370
     9
100
AcDbLine
 10
-498.1621324693833
 20
225.324220399599
 30
0.0
 11
-498.1621324693833
 21
413.3245437209672
 31
0.0
  0
LINE
  5
34E
330
1F
100
AcDbEntity
  8
1-2
  6
Continuous
 62
     3
370
     9
100
AcDbLine
 10
-488.1628417968749
 20
25.32430287953986
 30
0.0
 11
-488.1628417968749
 21
213.3245024809966
 31
0.0
  0
LINE
  5
34F
330
1F
100
AcDbEntity
  8
1-2
  6
Continuous
 62
     3
370
     9
100
AcDbLine
 10
-488.1628417968749
 20
225.324220399599
 30
0.0
 11
-488.1628417968749
 21
413.3245437209672
 31
0.0
  0
LINE
  5
350
330
1F
100
AcDbEntity
  8
1-2
  6
Continuous
 62
     3
370
     9
100
AcDbLine
 10
-498.1621324693833
 20
-291.6759264146958
 30
0.0
 11
-498.1621324693833
 21
-186.6754562790328
 31
0.0
  0
LINE
  5
351
330
1F
100
AcDbEntity
  8
1-2
  6
Continuous
 62
     3
370
     9
100
AcDbLine
 10
-498.1621324693833
 20
-174.6757383604307
 30
0.0
 11
-498.1621324693833
 21
13.3245849609375
 31
0.0
  0
LINE
  5
352
330
1F
100
AcDbEntity
  8
1-2
  6
Continuous
 62
     3
370
     9
100
AcDbLine
 10
-488.1628417968749
 20
-291.6759264146958
 30
0.0
 11
-488.1628417968749
 21
-186.6754562790328
 31
0.0
  0
LINE
  5
353
330
1F
100
AcDbEntity
  8
1-2
  6
Continuous
 62
     3
370
     9
100
AcDbLine
 10
-488.1628417968749
 20
-174.6757383604307
 30
0.0
 11
-488.1628417968749
 21
13.3245849609375
 31
0.0
  0
LINE
  5
354
330
1F
100
AcDbEntity
  8
1-2
  6
Continuous
 62
     3
370
     9
100
AcDbLine
 10
-468.1621324693833
 20
825.3238492398651
 30
0.0
 11
-468.1621324693833
 21
930.3237007759714
 31
0.0
  0
LINE
  5
355
330
1F
100
AcDbEntity
  8
1-2
  6
Continuous
 62
     3
370
     9
100
AcDbLine
 10
-458.1628417968749
 20
825.3238492398651
 30
0.0
 11
-458.1628417968749
 21
930.3237007759714
 31
0.0
  0
LINE
  5
356
330
1F
100
AcDbEntity
  8
1-2
  6
Continuous
 62
     3
370
     9
100
AcDbLine
 10
-468.1621324693833
 20
425.3242616395693
 30
0.0
 11
-468.1621324693833
 21
613.3243375211148
 31
0.0
  0
LINE
  5
357
330
1F
100
AcDbEntity
  8
1-2
  6
Continuous
 62
     3
370
     9
100
AcDbLine
 10
-468.1621324693833
 20
625.3241791596283
 30
0.0
 11
-468.1621324693833
 21
813.3240076013516
 31
0.0
  0
LINE
  5
358
330
1F
100
AcDbEntity
  8
1-2
  6
Continuous
 62
     3
370
     9
100
AcDbLine
 10
-458.1628417968749
 20
425.3242616395693
 30
0.0
 11
-458.1628417968749
 21
613.3243375211148
 31
0.0
  0
LINE
  5
359
330
1F
100
AcDbEntity
  8
1-2
  6
Continuous
 62
     3
370
     9
100
AcDbLine
 10
-458.1628417968749
 20
625.3241791596283
 30
0.0
 11
-458.1628417968749
 21
813.3240076013516
 31
0.0
  0
LINE
  5
35A
330
1F
100
AcDbEntity
  8
1-2
  6
Continuous
 62
     3
370
     9
100
AcDbLine
 10
-468.1621324693833
 20
25.32430287953986
 30
0.0
 11
-468.1621324693833
 21
213.3245024809966
 31
0.0
  0
LINE
  5
35B
330
1F
100
AcDbEntity
  8
1-2
  6
Continuous
 62
     3
370
     9
100
AcDbLine
 10
-468.1621324693833
 20
225.324220399599
 30
0.0
 11
-468.1621324693833
 21
413.3245437209672
 31
0.0
  0
LINE
  5
35C
330
1F
100
AcDbEntity
  8
1-2
  6
Continuous
 62
     3
370
     9
100
AcDbLine
 10
-458.1628417968749
 20
25.32430287953986
 30
0.0
 11
-458.1628417968749
 21
213.3245024809966
 31
0.0
  0
LINE
  5
35D
330
1F
100
AcDbEntity
  8
1-2
  6
Continuous
 62
     3
370
     9
100
AcDbLine
 10
-458.1628417968749
 20
225.324220399599
 30
0.0
 11
-458.1628417968749
 21
413.3245437209672
 31
0.0
  0
LINE
  5
35E
330
1F
100
AcDbEntity
  8
1-2
  6
Continuous
 62
     3
370
     9
100
AcDbLine
 10
-468.1621324693833
 20
-291.6759264146958
 30
0.0
 11
-468.1621324693833
 21
-186.6754562790328
 31
0.0
  0
LINE
  5
35F
330
1F
100
AcDbEntity
  8
1-2
  6
Continuous
 62
     3
370
     9
100
AcDbLine
 10
-468.1621324693833
 20
-174.6757383604307
 30
0.0
 11
-468.1621324693833
 21
13.3245849609375
 31
0.0
  0
LINE
  5
360
330
1F
100
AcDbEntity
  8
1-2
  6
Continuous
 62
     3
370
     9
100
AcDbLine
 10
-458.1628417968749
 20
-291.6759264146958
 30
0.0
 11
-458.1628417968749
 21
-186.6754562790328
 31
0.0
  0
LINE
  5
361
330
1F
100
AcDbEntity
  8
1-2
  6
Continuous
 62
     3
370
     9
100
AcDbLine
 10
-458.1628417968749
 20
-174.6757383604307
 30
0.0
 11
-458.1628417968749
 21
13.3245849609375
 31
0.0
  0
LINE
  5
362
330
1F
100
AcDbEntity
  8
1-2
  6
Continuous
 62
     3
370
     9
100
AcDbLine
 10
-438.1621324693833
 20
825.3238492398651
 30
0.0
 11
-438.1621324693833
 21
930.3237007759714
 31
0.0
  0
LINE
  5
363
330
1F
100
AcDbEntity
  8
1-2
  6
Continuous
 62
     3
370
     9
100
AcDbLine
 10
-428.1628417968749
 20
825.3238492398651
 30
0.0
 11
-428.1628417968749
 21
930.3237007759714
 31
0.0
  0
LINE
  5
364
330
1F
100
AcDbEntity
  8
1-2
  6
Continuous
 62
     3
370
     9
100
AcDbLine
 10
-438.1621324693833
 20
425.3242616395693
 30
0.0
 11
-438.1621324693833
 21
613.3243375211148
 31
0.0
  0
LINE
  5
365
330
1F
100
AcDbEntity
  8
1-2
  6
Continuous
 62
     3
370
     9
100
AcDbLine
 10
-438.1621324693833
 20
625.3241791596283
 30
0.0
 11
-438.1621324693833
 21
813.3240076013516
 31
0.0
  0
LINE
  5
366
330
1F
100
AcDbEntity
  8
1-2
  6
Continuous
 62
     3
370
     9
100
AcDbLine
 10
-428.1628417968749
 20
425.3242616395693
 30
0.0
 11
-428.1628417968749
 21
613.3243375211148
 31
0.0
  0
LINE
  5
367
330
1F
100
AcDbEntity
  8
1-2
  6
Continuous
 62
     3
370
     9
100
AcDbLine
 10
-428.1628417968749
 20
625.3241791596283
 30
0.0
 11
-428.1628417968749
 21
813.3240076013516
 31
0.0
  0
LINE
  5
368
330
1F
100
AcDbEntity
  8
1-2
  6
Continuous
 62
     3
370
     9
100
AcDbLine
 10
-438.1621324693833
 20
25.32430287953986
 30
0.0
 11
-438.1621324693833
 21
213.3245024809966
 31
0.0
  0
LINE
  5
369
330
1F
100
AcDbEntity
  8
1-2
  6
Continuous
 62
     3
370
     9
100
AcDbLine
 10
-438.1621324693833
 20
225.324220399599
 30
0.0
 11
-438.1621324693833
 21
413.3245437209672
 31
0.0
  0
LINE
  5
36A
330
1F
100
AcDbEntity
  8
1-2
  6
Continuous
 62
     3
370
     9
100
AcDbLine
 10
-428.1628417968749
 20
25.32430287953986
 30
0.0
 11
-428.1628417968749
 21
213.3245024809966
 31
0.0
  0
LINE
  5
36B
330
1F
100
AcDbEntity
  8
1-2
  6
Continuous
 62
     3
370
     9
100
AcDbLine
 10
-428.1628417968749
 20
225.324220399599
 30
0.0
 11
-428.1628417968749
 21
413.3245437209672
 31
0.0
  0
LINE
  5
36C
330
1F
100
AcDbEntity
  8
1-2
  6
Continuous
 62
     3
370
     9
100
AcDbLine
 10
-438.1621324693833
 20
-291.6759264146958
 30
0.0
 11
-438.1621324693833
 21
-186.6754562790328
 31
0.0
  0
LINE
  5
36D
330
1F
100
AcDbEntity
  8
1-2
  6
Continuous
 62
     3
370
     9
100
AcDbLine
 10
-438.1621324693833
 20
-174.6757383604307
 30
0.0
 11
-438.1621324693833
 21
13.3245849609375
 31
0.0
  0
LINE
  5
36E
330
1F
100
AcDbEntity
  8
1-2
  6
Continuous
 62
     3
370
     9
100
AcDbLine
 10
-428.1628417968749
 20
-291.6759264146958
 30
0.0
 11
-428.1628417968749
 21
-186.6754562790328
 31
0.0
  0
LINE
  5
36F
330
1F
100
AcDbEntity
  8
1-2
  6
Continuous
 62
     3
370
     9
100
AcDbLine
 10
-428.1628417968749
 20
-174.6757383604307
 30
0.0
 11
-428.1628417968749
 21
13.3245849609375
 31
0.0
  0
LINE
  5
370
330
1F
100
AcDbEntity
  8
1-2
  6
Continuous
 62
     3
370
     9
100
AcDbLine
 10
-408.1621324693833
 20
825.3238492398651
 30
0.0
 11
-408.1621324693833
 21
930.3237007759714
 31
0.0
  0
LINE
  5
371
330
1F
100
AcDbEntity
  8
1-2
  6
Continuous
 62
     3
370
     9
100
AcDbLine
 10
-398.1628417968749
 20
825.3238492398651
 30
0.0
 11
-398.1628417968749
 21
930.3237007759714
 31
0.0
  0
LINE
  5
372
330
1F
100
AcDbEntity
  8
1-2
  6
Continuous
 62
     3
370
     9
100
AcDbLine
 10
-408.1621324693833
 20
425.3242616395693
 30
0.0
 11
-408.1621324693833
 21
613.3243375211148
 31
0.0
  0
LINE
  5
373
330
1F
100
AcDbEntity
  8
1-2
  6
Continuous
 62
     3
370
     9
100
AcDbLine
 10
-408.1621324693833
 20
625.3241791596283
 30
0.0
 11
-408.1621324693833
 21
813.3240076013516
 31
0.0
  0
LINE
  5
374
330
1F
100
AcDbEntity
  8
1-2
  6
Continuous
 62
     3
370
     9
100
AcDbLine
 10
-398.1628417968749
 20
425.3242616395693
 30
0.0
 11
-398.1628417968749
 21
613.3243375211148
 31
0.0
  0
LINE
  5
375
330
1F
100
AcDbEntity
  8
1-2
  6
Continuous
 62
     3
370
     9
100
AcDbLine
 10
-398.1628417968749
 20
625.3241791596283
 30
0.0
 11
-398.1628417968749
 21
813.3240076013516
 31
0.0
  0
LINE
  5
376
330
1F
100
AcDbEntity
  8
1-2
  6
Continuous
 62
     3
370
     9
100
AcDbLine
 10
-408.1621324693833
 20
25.32430287953986
 30
0.0
 11
-408.1621324693833
 21
213.3245024809966
 31
0.0
  0
LINE
  5
377
330
1F
100
AcDbEntity
  8
1-2
  6
Continuous
 62
     3
370
     9
100
AcDbLine
 10
-408.1621324693833
 20
225.324220399599
 30
0.0
 11
-408.1621324693833
 21
413.3245437209672
 31
0.0
  0
LINE
  5
378
330
1F
100
AcDbEntity
  8
1-2
  6
Continuous
 62
     3
370
     9
100
AcDbLine
 10
-398.1628417968749
 20
25.32430287953986
 30
0.0
 11
-398.1628417968749
 21
213.3245024809966
 31
0.0
  0
LINE
  5
379
330
1F
100
AcDbEntity
  8
1-2
  6
Continuous
 62
     3
370
     9
100
AcDbLine
 10
-398.1628417968749
 20
225.324220399599
 30
0.0
 11
-398.1628417968749
 21
413.3245437209672
 31
0.0
  0
LINE
  5
37A
330
1F
100
AcDbEntity
  8
1-2
  6
Continuous
 62
     3
370
     9
100
AcDbLine
 10
-408.1621324693833
 20
-291.6759264146958
 30
0.0
 11
-408.1621324693833
 21
-186.6754562790328
 31
0.0
  0
LINE
  5
37B
330
1F
100
AcDbEntity
  8
1-2
  6
Continuous
 62
     3
370
     9
100
AcDbLine
 10
-408.1621324693833
 20
-174.6757383604307
 30
0.0
 11
-408.1621324693833
 21
13.3245849609375
 31
0.0
  0
LINE
  5
37C
330
1F
100
AcDbEntity
  8
1-2
  6
Continuous
 62
     3
370
     9
100
AcDbLine
 10
-398.1628417968749
 20
-291.6759264146958
 30
0.0
 11
-398.1628417968749
 21
-186.6754562790328
 31
0.0
  0
LINE
  5
37D
330
1F
100
AcDbEntity
  8
1-2
  6
Continuous
 62
     3
370
     9
100
AcDbLine
 10
-398.1628417968749
 20
-174.6757383604307
 30
0.0
 11
-398.1628417968749
 21
13.3245849609375
 31
0.0
  0
LINE
  5
37E
330
1F
100
AcDbEntity
  8
1-2
  6
Continuous
 62
     3
370
     9
100
AcDbLine
 10
-378.1621324693833
 20
825.3238492398651
 30
0.0
 11
-378.1621324693833
 21
930.3237007759714
 31
0.0
  0
LINE
  5
37F
330
1F
100
AcDbEntity
  8
1-2
  6
Continuous
 62
     3
370
     9
100
AcDbLine
 10
-368.1628417968749
 20
825.3238492398651
 30
0.0
 11
-368.1628417968749
 21
930.3237007759714
 31
0.0
  0
LINE
  5
380
330
1F
100
AcDbEntity
  8
1-2
  6
Continuous
 62
     3
370
     9
100
AcDbLine
 10
-378.1621324693833
 20
425.3242616395693
 30
0.0
 11
-378.1621324693833
 21
613.3243375211148
 31
0.0
  0
LINE
  5
381
330
1F
100
AcDbEntity
  8
1-2
  6
Continuous
 62
     3
370
     9
100
AcDbLine
 10
-378.1621324693833
 20
625.3241791596283
 30
0.0
 11
-378.1621324693833
 21
813.3240076013516
 31
0.0
  0
LINE
  5
382
330
1F
100
AcDbEntity
  8
1-2
  6
Continuous
 62
     3
370
     9
100
AcDbLine
 10
-368.1628417968749
 20
425.3242616395693
 30
0.0
 11
-368.1628417968749
 21
613.3243375211148
 31
0.0
  0
LINE
  5
383
330
1F
100
AcDbEntity
  8
1-2
  6
Continuous
 62
     3
370
     9
100
AcDbLine
 10
-368.1628417968749
 20
625.3241791596283
 30
0.0
 11
-368.1628417968749
 21
813.3240076013516
 31
0.0
  0
LINE
  5
384
330
1F
100
AcDbEntity
  8
1-2
  6
Continuous
 62
     3
370
     9
100
AcDbLine
 10
-378.1621324693833
 20
25.32430287953986
 30
0.0
 11
-378.1621324693833
 21
213.3245024809966
 31
0.0
  0
LINE
  5
385
330
1F
100
AcDbEntity
  8
1-2
  6
Continuous
 62
     3
370
     9
100
AcDbLine
 10
-378.1621324693833
 20
225.324220399599
 30
0.0
 11
-378.1621324693833
 21
413.3245437209672
 31
0.0
  0
LINE
  5
386
330
1F
100
AcDbEntity
  8
1-2
  6
Continuous
 62
     3
370
     9
100
AcDbLine
 10
-368.1628417968749
 20
25.32430287953986
 30
0.0
 11
-368.1628417968749
 21
213.3245024809966
 31
0.0
  0
LINE
  5
387
330
1F
100
AcDbEntity
  8
1-2
  6
Continuous
 62
     3
370
     9
100
AcDbLine
 10
-368.1628417968749
 20
225.324220399599
 30
0.0
 11
-368.1628417968749
 21
413.3245437209672
 31
0.0
  0
LINE
  5
388
330
1F
100
AcDbEntity
  8
1-2
  6
Continuous
 62
     3
370
     9
100
AcDbLine
 10
-378.1621324693833
 20
-291.6759264146958
 30
0.0
 11
-378.1621324693833
 21
-186.6754562790328
 31
0.0
  0
LINE
  5
389
330
1F
100
AcDbEntity
  8
1-2
  6
Continuous
 62
     3
370
     9
100
AcDbLine
 10
-378.1621324693833
 20
-174.6757383604307
 30
0.0
 11
-378.1621324693833
 21
13.3245849609375
 31
0.0
  0
LINE
  5
38A
330
1F
100
AcDbEntity
  8
1-2
  6
Continuous
 62
     3
370
     9
100
AcDbLine
 10
-368.1628417968749
 20
-291.6759264146958
 30
0.0
 11
-368.1628417968749
 21
-186.6754562790328
 31
0.0
  0
LINE
  5
38B
330
1F
100
AcDbEntity
  8
1-2
  6
Continuous
 62
     3
370
     9
100
AcDbLine
 10
-368.1628417968749
 20
-174.6757383604307
 30
0.0
 11
-368.1628417968749
 21
13.3245849609375
 31
0.0
  0
LINE
  5
38C
330
1F
100
AcDbEntity
  8
1-2
  6
Continuous
 62
     3
370
     9
100
AcDbLine
 10
-348.1621324693833
 20
825.3238492398651
 30
0.0
 11
-348.1621324693833
 21
930.3237007759714
 31
0.0
  0
LINE
  5
38D
330
1F
100
AcDbEntity
  8
1-2
  6
Continuous
 62
     3
370
     9
100
AcDbLine
 10
-338.1628417968749
 20
825.3238492398651
 30
0.0
 11
-338.1628417968749
 21
930.3237007759714
 31
0.0
  0
LINE
  5
38E
330
1F
100
AcDbEntity
  8
1-2
  6
Continuous
 62
     3
370
     9
100
AcDbLine
 10
-348.1621324693833
 20
425.3242616395693
 30
0.0
 11
-348.1621324693833
 21
613.3243375211148
 31
0.0
  0
LINE
  5
38F
330
1F
100
AcDbEntity
  8
1-2
  6
Continuous
 62
     3
370
     9
100
AcDbLine
 10
-348.1621324693833
 20
625.3241791596283
 30
0.0
 11
-348.1621324693833
 21
813.3240076013516
 31
0.0
  0
LINE
  5
390
330
1F
100
AcDbEntity
  8
1-2
  6
Continuous
 62
     3
370
     9
100
AcDbLine
 10
-338.1628417968749
 20
425.3242616395693
 30
0.0
 11
-338.1628417968749
 21
613.3243375211148
 31
0.0
  0
LINE
  5
391
330
1F
100
AcDbEntity
  8
1-2
  6
Continuous
 62
     3
370
     9
100
AcDbLine
 10
-338.1628417968749
 20
625.3241791596283
 30
0.0
 11
-338.1628417968749
 21
813.3240076013516
 31
0.0
  0
LINE
  5
392
330
1F
100
AcDbEntity
  8
1-2
  6
Continuous
 62
     3
370
     9
100
AcDbLine
 10
-348.1621324693833
 20
25.32430287953986
 30
0.0
 11
-348.1621324693833
 21
213.3245024809966
 31
0.0
  0
LINE
  5
393
330
1F
100
AcDbEntity
  8
1-2
  6
Continuous
 62
     3
370
     9
100
AcDbLine
 10
-348.1621324693833
 20
225.324220399599
 30
0.0
 11
-348.1621324693833
 21
413.3245437209672
 31
0.0
  0
LINE
  5
394
330
1F
100
AcDbEntity
  8
1-2
  6
Continuous
 62
     3
370
     9
100
AcDbLine
 10
-338.1628417968749
 20
25.32430287953986
 30
0.0
 11
-338.1628417968749
 21
213.3245024809966
 31
0.0
  0
LINE
  5
395
330
1F
100
AcDbEntity
  8
1-2
  6
Continuous
 62
     3
370
     9
100
AcDbLine
 10
-338.1628417968749
 20
225.324220399599
 30
0.0
 11
-338.1628417968749
 21
413.3245437209672
 31
0.0
  0
LINE
  5
396
330
1F
100
AcDbEntity
  8
1-2
  6
Continuous
 62
     3
370
     9
100
AcDbLine
 10
-348.1621324693833
 20
-291.6759264146958
 30
0.0
 11
-348.1621324693833
 21
-186.6754562790328
 31
0.0
  0
LINE
  5
397
330
1F
100
AcDbEntity
  8
1-2
  6
Continuous
 62
     3
370
     9
100
AcDbLine
 10
-348.1621324693833
 20
-174.6757383604307
 30
0.0
 11
-348.1621324693833
 21
13.3245849609375
 31
0.0
  0
LINE
  5
398
330
1F
100
AcDbEntity
  8
1-2
  6
Continuous
 62
     3
370
     9
100
AcDbLine
 10
-338.1628417968749
 20
-291.6759264146958
 30
0.0
 11
-338.1628417968749
 21
-186.6754562790328
 31
0.0
  0
LINE
  5
399
330
1F
100
AcDbEntity
  8
1-2
  6
Continuous
 62
     3
370
     9
100
AcDbLine
 10
-338.1628417968749
 20
-174.6757383604307
 30
0.0
 11
-338.1628417968749
 21
13.3245849609375
 31
0.0
  0
LINE
  5
39A
330
1F
100
AcDbEntity
  8
1-2
  6
Continuous
 62
     3
370
     9
100
AcDbLine
 10
-318.1621324693833
 20
825.3238492398651
 30
0.0
 11
-318.1621324693833
 21
930.3237007759714
 31
0.0
  0
LINE
  5
39B
330
1F
100
AcDbEntity
  8
1-2
  6
Continuous
 62
     3
370
     9
100
AcDbLine
 10
-308.1628417968749
 20
825.3238492398651
 30
0.0
 11
-308.1628417968749
 21
930.3237007759714
 31
0.0
  0
LINE
  5
39C
330
1F
100
AcDbEntity
  8
1-2
  6
Continuous
 62
     3
370
     9
100
AcDbLine
 10
-318.1621324693833
 20
425.3242616395693
 30
0.0
 11
-318.1621324693833
 21
613.3243375211148
 31
0.0
  0
LINE
  5
39D
330
1F
100
AcDbEntity
  8
1-2
  6
Continuous
 62
     3
370
     9
100
AcDbLine
 10
-318.1621324693833
 20
625.3241791596283
 30
0.0
 11
-318.1621324693833
 21
813.3240076013516
 31
0.0
  0
LINE
  5
39E
330
1F
100
AcDbEntity
  8
1-2
  6
Continuous
 62
     3
370
     9
100
AcDbLine
 10
-308.1628417968749
 20
425.3242616395693
 30
0.0
 11
-308.1628417968749
 21
613.3243375211148
 31
0.0
  0
LINE
  5
39F
330
1F
100
AcDbEntity
  8
1-2
  6
Continuous
 62
     3
370
     9
100
AcDbLine
 10
-308.1628417968749
 20
625.3241791596283
 30
0.0
 11
-308.1628417968749
 21
813.3240076013516
 31
0.0
  0
LINE
  5
3A0
330
1F
100
AcDbEntity
  8
1-2
  6
Continuous
 62
     3
370
     9
100
AcDbLine
 10
-318.1621324693833
 20
25.32430287953986
 30
0.0
 11
-318.1621324693833
 21
213.3245024809966
 31
0.0
  0
LINE
  5
3A1
330
1F
100
AcDbEntity
  8
1-2
  6
Continuous
 62
     3
370
     9
100
AcDbLine
 10
-318.1621324693833
 20
225.324220399599
 30
0.0
 11
-318.1621324693833
 21
413.3245437209672
 31
0.0
  0
LINE
  5
3A2
330
1F
100
AcDbEntity
  8
1-2
  6
Continuous
 62
     3
370
     9
100
AcDbLine
 10
-308.1628417968749
 20
25.32430287953986
 30
0.0
 11
-308.1628417968749
 21
213.3245024809966
 31
0.0
  0
LINE
  5
3A3
330
1F
100
AcDbEntity
  8
1-2
  6
Continuous
 62
     3
370
     9
100
AcDbLine
 10
-308.1628417968749
 20
225.324220399599
 30
0.0
 11
-308.1628417968749
 21
413.3245437209672
 31
0.0
  0
LINE
  5
3A4
330
1F
100
AcDbEntity
  8
1-2
  6
Continuous
 62
     3
370
     9
100
AcDbLine
 10
-318.1621324693833
 20
-291.6759264146958
 30
0.0
 11
-318.1621324693833
 21
-186.6754562790328
 31
0.0
  0
LINE
  5
3A5
330
1F
100
AcDbEntity
  8
1-2
  6
Continuous
 62
     3
370
     9
100
AcDbLine
 10
-318.1621324693833
 20
-174.6757383604307
 30
0.0
 11
-318.1621324693833
 21
13.3245849609375
 31
0.0
  0
LINE
  5
3A6
330
1F
100
AcDbEntity
  8
1-2
  6
Continuous
 62
     3
370
     9
100
AcDbLine
 10
-308.1628417968749
 20
-291.6759264146958
 30
0.0
 11
-308.1628417968749
 21
-186.6754562790328
 31
0.0
  0
LINE
  5
3A7
330
1F
100
AcDbEntity
  8
1-2
  6
Continuous
 62
     3
370
     9
100
AcDbLine
 10
-308.1628417968749
 20
-174.6757383604307
 30
0.0
 11
-308.1628417968749
 21
13.3245849609375
 31
0.0
  0
LINE
  5
3A8
330
1F
100
AcDbEntity
  8
1-2
  6
Continuous
 62
     3
370
     9
100
AcDbLine
 10
-288.1621324693833
 20
825.3238492398651
 30
0.0
 11
-288.1621324693833
 21
930.3237007759714
 31
0.0
  0
LINE
  5
3A9
330
1F
100
AcDbEntity
  8
1-2
  6
Continuous
 62
     3
370
     9
100
AcDbLine
 10
-278.1628417968749
 20
825.3238492398651
 30
0.0
 11
-278.1628417968749
 21
930.3237007759714
 31
0.0
  0
LINE
  5
3AA
330
1F
100
AcDbEntity
  8
1-2
  6
Continuous
 62
     3
370
     9
100
AcDbLine
 10
-288.1621324693833
 20
425.3242616395693
 30
0.0
 11
-288.1621324693833
 21
613.3243375211148
 31
0.0
  0
LINE
  5
3AB
330
1F
100
AcDbEntity
  8
1-2
  6
Continuous
 62
     3
370
     9
100
AcDbLine
 10
-288.1621324693833
 20
625.3241791596283
 30
0.0
 11
-288.1621324693833
 21
813.3240076013516
 31
0.0
  0
LINE
  5
3AC
330
1F
100
AcDbEntity
  8
1-2
  6
Continuous
 62
     3
370
     9
100
AcDbLine
 10
-278.1628417968749
 20
425.3242616395693
 30
0.0
 11
-278.1628417968749
 21
613.3243375211148
 31
0.0
  0
LINE
  5
3AD
330
1F
100
AcDbEntity
  8
1-2
  6
Continuous
 62
     3
370
     9
100
AcDbLine
 10
-278.1628417968749
 20
625.3241791596283
 30
0.0
 11
-278.1628417968749
 21
813.3240076013516
 31
0.0
  0
LINE
  5
3AE
330
1F
100
AcDbEntity
  8
1-2
  6
Continuous
 62
     3
370
     9
100
AcDbLine
 10
-288.1621324693833
 20
25.32430287953986
 30
0.0
 11
-288.1621324693833
 21
213.3245024809966
 31
0.0
  0
LINE
  5
3AF
330
1F
100
AcDbEntity
  8
1-2
  6
Continuous
 62
     3
370
     9
100
AcDbLine
 10
-288.1621324693833
 20
225.324220399599
 30
0.0
 11
-288.1621324693833
 21
413.3245437209672
 31
0.0
  0
LINE
  5
3B0
330
1F
100
AcDbEntity
  8
1-2
  6
Continuous
 62
     3
370
     9
100
AcDbLine
 10
-278.1628417968749
 20
25.32430287953986
 30
0.0
 11
-278.1628417968749
 21
213.3245024809966
 31
0.0
  0
LINE
  5
3B1
330
1F
100
AcDbEntity
  8
1-2
  6
Continuous
 62
     3
370
     9
100
AcDbLine
 10
-278.1628417968749
 20
225.324220399599
 30
0.0
 11
-278.1628417968749
 21
413.3245437209672
 31
0.0
  0
LINE
  5
3B2
330
1F
100
AcDbEntity
  8
1-2
  6
Continuous
 62
     3
370
     9
100
AcDbLine
 10
-288.1621324693833
 20
-291.6759264146958
 30
0.0
 11
-288.1621324693833
 21
-186.6754562790328
 31
0.0
  0
LINE
  5
3B3
330
1F
100
AcDbEntity
  8
1-2
  6
Continuous
 62
     3
370
     9
100
AcDbLine
 10
-288.1621324693833
 20
-174.6757383604307
 30
0.0
 11
-288.1621324693833
 21
13.3245849609375
 31
0.0
  0
LINE
  5
3B4
330
1F
100
AcDbEntity
  8
1-2
  6
Continuous
 62
     3
370
     9
100
AcDbLine
 10
-278.1628417968749
 20
-291.6759264146958
 30
0.0
 11
-278.1628417968749
 21
-186.6754562790328
 31
0.0
  0
LINE
  5
3B5
330
1F
100
AcDbEntity
  8
1-2
  6
Continuous
 62
     3
370
     9
100
AcDbLine
 10
-278.1628417968749
 20
-174.6757383604307
 30
0.0
 11
-278.1628417968749
 21
13.3245849609375
 31
0.0
  0
LINE
  5
3B6
330
1F
100
AcDbEntity
  8
1-2
  6
Continuous
 62
     3
370
     9
100
AcDbLine
 10
-258.1621324693833
 20
825.3238492398651
 30
0.0
 11
-258.1621324693833
 21
930.3237007759714
 31
0.0
  0
LINE
  5
3B7
330
1F
100
AcDbEntity
  8
1-2
  6
Continuous
 62
     3
370
     9
100
AcDbLine
 10
-248.1628417968749
 20
825.3238492398651
 30
0.0
 11
-248.1628417968749
 21
930.3237007759714
 31
0.0
  0
LINE
  5
3B8
330
1F
100
AcDbEntity
  8
1-2
  6
Continuous
 62
     3
370
     9
100
AcDbLine
 10
-258.1621324693833
 20
425.3242616395693
 30
0.0
 11
-258.1621324693833
 21
613.3243375211148
 31
0.0
  0
LINE
  5
3B9
330
1F
100
AcDbEntity
  8
1-2
  6
Continuous
 62
     3
370
     9
100
AcDbLine
 10
-258.1621324693833
 20
625.3241791596283
 30
0.0
 11
-258.1621324693833
 21
813.3240076013516
 31
0.0
  0
LINE
  5
3BA
330
1F
100
AcDbEntity
  8
1-2
  6
Continuous
 62
     3
370
     9
100
AcDbLine
 10
-248.1628417968749
 20
425.3242616395693
 30
0.0
 11
-248.1628417968749
 21
613.3243375211148
 31
0.0
  0
LINE
  5
3BB
330
1F
100
AcDbEntity
  8
1-2
  6
Continuous
 62
     3
370
     9
100
AcDbLine
 10
-248.1628417968749
 20
625.3241791596283
 30
0.0
 11
-248.1628417968749
 21
813.3240076013516
 31
0.0
  0
LINE
  5
3BC
330
1F
100
AcDbEntity
  8
1-2
  6
Continuous
 62
     3
370
     9
100
AcDbLine
 10
-258.1621324693833
 20
25.32430287953986
 30
0.0
 11
-258.1621324693833
 21
213.3245024809966
 31
0.0
  0
LINE
  5
3BD
330
1F
100
AcDbEntity
  8
1-2
  6
Continuous
 62
     3
370
     9
100
AcDbLine
 10
-258.1621324693833
 20
225.324220399599
 30
0.0
 11
-258.1621324693833
 21
413.3245437209672
 31
0.0
  0
LINE
  5
3BE
330
1F
100
AcDbEntity
  8
1-2
  6
Continuous
 62
     3
370
     9
100
AcDbLine
 10
-248.1628417968749
 20
25.32430287953986
 30
0.0
 11
-248.1628417968749
 21
213.3245024809966
 31
0.0
  0
LINE
  5
3BF
330
1F
100
AcDbEntity
  8
1-2
  6
Continuous
 62
     3
370
     9
100
AcDbLine
 10
-248.1628417968749
 20
225.324220399599
 30
0.0
 11
-248.1628417968749
 21
413.3245437209672
 31
0.0
  0
LINE
  5
3C0
330
1F
100
AcDbEntity
  8
1-2
  6
Continuous
 62
     3
370
     9
100
AcDbLine
 10
-258.1621324693833
 20
-291.6759264146958
 30
0.0
 11
-258.1621324693833
 21
-186.6754562790328
 31
0.0
  0
LINE
  5
3C1
330
1F
100
AcDbEntity
  8
1-2
  6
Continuous
 62
     3
370
     9
100
AcDbLine
 10
-258.1621324693833
 20
-174.6757383604307
 30
0.0
 11
-258.1621324693833
 21
13.3245849609375
 31
0.0
  0
LINE
  5
3C2
330
1F
100
AcDbEntity
  8
1-2
  6
Continuous
 62
     3
370
     9
100
AcDbLine
 10
-248.1628417968749
 20
-291.6759264146958
 30
0.0
 11
-248.1628417968749
 21
-186.6754562790328
 31
0.0
  0
LINE
  5
3C3
330
1F
100
AcDbEntity
  8
1-2
  6
Continuous
 62
     3
370
     9
100
AcDbLine
 10
-248.1628417968749
 20
-174.6757383604307
 30
0.0
 11
-248.1628417968749
 21
13.3245849609375
 31
0.0
  0
LINE
  5
3C4
330
1F
100
AcDbEntity
  8
1-2
  6
Continuous
 62
     3
370
     9
100
AcDbLine
 10
-228.1621324693833
 20
825.3238492398651
 30
0.0
 11
-228.1621324693833
 21
930.3237007759714
 31
0.0
  0
LINE
  5
3C5
330
1F
100
AcDbEntity
  8
1-2
  6
Continuous
 62
     3
370
     9
100
AcDbLine
 10
-218.1628417968749
 20
825.3238492398651
 30
0.0
 11
-218.1628417968749
 21
930.3237007759714
 31
0.0
  0
LINE
  5
3C6
330
1F
100
AcDbEntity
  8
1-2
  6
Continuous
 62
     3
370
     9
100
AcDbLine
 10
-228.1621324693833
 20
425.3242616395693
 30
0.0
 11
-228.1621324693833
 21
613.3243375211148
 31
0.0
  0
LINE
  5
3C7
330
1F
100
AcDbEntity
  8
1-2
  6
Continuous
 62
     3
370
     9
100
AcDbLine
 10
-228.1621324693833
 20
625.3241791596283
 30
0.0
 11
-228.1621324693833
 21
813.3240076013516
 31
0.0
  0
LINE
  5
3C8
330
1F
100
AcDbEntity
  8
1-2
  6
Continuous
 62
     3
370
     9
100
AcDbLine
 10
-218.1628417968749
 20
425.3242616395693
 30
0.0
 11
-218.1628417968749
 21
613.3243375211148
 31
0.0
  0
LINE
  5
3C9
330
1F
100
AcDbEntity
  8
1-2
  6
Continuous
 62
     3
370
     9
100
AcDbLine
 10
-218.1628417968749
 20
625.3241791596283
 30
0.0
 11
-218.1628417968749
 21
813.3240076013516
 31
0.0
  0
LINE
  5
3CA
330
1F
100
AcDbEntity
  8
1-2
  6
Continuous
 62
     3
370
     9
100
AcDbLine
 10
-228.1621324693833
 20
25.32430287953986
 30
0.0
 11
-228.1621324693833
 21
213.3245024809966
 31
0.0
  0
LINE
  5
3CB
330
1F
100
AcDbEntity
  8
1-2
  6
Continuous
 62
     3
370
     9
100
AcDbLine
 10
-228.1621324693833
 20
225.324220399599
 30
0.0
 11
-228.1621324693833
 21
413.3245437209672
 31
0.0
  0
LINE
  5
3CC
330
1F
100
AcDbEntity
  8
1-2
  6
Continuous
 62
     3
370
     9
100
AcDbLine
 10
-218.1628417968749
 20
25.32430287953986
 30
0.0
 11
-218.1628417968749
 21
213.3245024809966
 31
0.0
  0
LINE
  5
3CD
330
1F
100
AcDbEntity
  8
1-2
  6
Continuous
 62
     3
370
     9
100
AcDbLine
 10
-218.1628417968749
 20
225.324220399599
 30
0.0
 11
-218.1628417968749
 21
413.3245437209672
 31
0.0
  0
LINE
  5
3CE
330
1F
100
AcDbEntity
  8
1-2
  6
Continuous
 62
     3
370
     9
100
AcDbLine
 10
-228.1621324693833
 20
-291.6759264146958
 30
0.0
 11
-228.1621324693833
 21
-186.6754562790328
 31
0.0
  0
LINE
  5
3CF
330
1F
100
AcDbEntity
  8
1-2
  6
Continuous
 62
     3
370
     9
100
AcDbLine
 10
-228.1621324693833
 20
-174.6757383604307
 30
0.0
 11
-228.1621324693833
 21
13.3245849609375
 31
0.0
  0
LINE
  5
3D0
330
1F
100
AcDbEntity
  8
1-2
  6
Continuous
 62
     3
370
     9
100
AcDbLine
 10
-218.1628417968749
 20
-291.6759264146958
 30
0.0
 11
-218.1628417968749
 21
-186.6754562790328
 31
0.0
  0
LINE
  5
3D1
330
1F
100
AcDbEntity
  8
1-2
  6
Continuous
 62
     3
370
     9
100
AcDbLine
 10
-218.1628417968749
 20
-174.6757383604307
 30
0.0
 11
-218.1628417968749
 21
13.3245849609375
 31
0.0
  0
LINE
  5
3D2
330
1F
100
AcDbEntity
  8
1-2
  6
Continuous
 62
     3
370
     9
100
AcDbLine
 10
-198.1621324693833
 20
825.3238492398651
 30
0.0
 11
-198.1621324693833
 21
930.3237007759714
 31
0.0
  0
LINE
  5
3D3
330
1F
100
AcDbEntity
  8
1-2
  6
Continuous
 62
     3
370
     9
100
AcDbLine
 10
-188.1628417968749
 20
825.3238492398651
 30
0.0
 11
-188.1628417968749
 21
930.3237007759714
 31
0.0
  0
LINE
  5
3D4
330
1F
100
AcDbEntity
  8
1-2
  6
Continuous
 62
     3
370
     9
100
AcDbLine
 10
-198.1621324693833
 20
425.3242616395693
 30
0.0
 11
-198.1621324693833
 21
613.3243375211148
 31
0.0
  0
LINE
  5
3D5
330
1F
100
AcDbEntity
  8
1-2
  6
Continuous
 62
     3
370
     9
100
AcDbLine
 10
-198.1621324693833
 20
625.3241791596283
 30
0.0
 11
-198.1621324693833
 21
813.3240076013516
 31
0.0
  0
LINE
  5
3D6
330
1F
100
AcDbEntity
  8
1-2
  6
Continuous
 62
     3
370
     9
100
AcDbLine
 10
-188.1628417968749
 20
425.3242616395693
 30
0.0
 11
-188.1628417968749
 21
613.3243375211148
 31
0.0
  0
LINE
  5
3D7
330
1F
100
AcDbEntity
  8
1-2
  6
Continuous
 62
     3
370
     9
100
AcDbLine
 10
-188.1628417968749
 20
625.3241791596283
 30
0.0
 11
-188.1628417968749
 21
813.3240076013516
 31
0.0
  0
LINE
  5
3D8
330
1F
100
AcDbEntity
  8
1-2
  6
Continuous
 62
     3
370
     9
100
AcDbLine
 10
-198.1621324693833
 20
25.32430287953986
 30
0.0
 11
-198.1621324693833
 21
213.3245024809966
 31
0.0
  0
LINE
  5
3D9
330
1F
100
AcDbEntity
  8
1-2
  6
Continuous
 62
     3
370
     9
100
AcDbLine
 10
-198.1621324693833
 20
225.324220399599
 30
0.0
 11
-198.1621324693833
 21
413.3245437209672
 31
0.0
  0
LINE
  5
3DA
330
1F
100
AcDbEntity
  8
1-2
  6
Continuous
 62
     3
370
     9
100
AcDbLine
 10
-188.1628417968749
 20
25.32430287953986
 30
0.0
 11
-188.1628417968749
 21
213.3245024809966
 31
0.0
  0
LINE
  5
3DB
330
1F
100
AcDbEntity
  8
1-2
  6
Continuous
 62
     3
370
     9
100
AcDbLine
 10
-188.1628417968749
 20
225.324220399599
 30
0.0
 11
-188.1628417968749
 21
413.3245437209672
 31
0.0
  0
LINE
  5
3DC
330
1F
100
AcDbEntity
  8
1-2
  6
Continuous
 62
     3
370
     9
100
AcDbLine
 10
-198.1621324693833
 20
-291.6759264146958
 30
0.0
 11
-198.1621324693833
 21
-186.6754562790328
 31
0.0
  0
LINE
  5
3DD
330
1F
100
AcDbEntity
  8
1-2
  6
Continuous
 62
     3
370
     9
100
AcDbLine
 10
-198.1621324693833
 20
-174.6757383604307
 30
0.0
 11
-198.1621324693833
 21
13.3245849609375
 31
0.0
  0
LINE
  5
3DE
330
1F
100
AcDbEntity
  8
1-2
  6
Continuous
 62
     3
370
     9
100
AcDbLine
 10
-188.1628417968749
 20
-291.6759264146958
 30
0.0
 11
-188.1628417968749
 21
-186.6754562790328
 31
0.0
  0
LINE
  5
3DF
330
1F
100
AcDbEntity
  8
1-2
  6
Continuous
 62
     3
370
     9
100
AcDbLine
 10
-188.1628417968749
 20
-174.6757383604307
 30
0.0
 11
-188.1628417968749
 21
13.3245849609375
 31
0.0
  0
LINE
  5
3E0
330
1F
100
AcDbEntity
  8
1-4
  6
Continuous
 62
     7
370
     9
100
AcDbLine
 10
-403.1624871331291
 20
979.9121317351401
 30
0.0
 11
-373.1624871331291
 21
979.9121317351401
 31
0.0
  0
LWPOLYLINE
  5
3E1
330
1F
100
AcDbEntity
  8
1-4
  6
Continuous
 62
     7
370
     9
100
AcDbPolyline
 90
        4
 70
     1
 43
1.0
 10
-402.6624871331291
 20
979.9121317351401
 42
0.4142135623731
 10
-403.1624871331291
 20
980.4121317351401
 42
0.4142135623731
 10
-403.662487133129
 20
979.9121317351401
 42
0.4142135623731
 10
-403.1624871331291
 20
979.4121317351402
 42
0.4142135623731
  0
LWPOLYLINE
  5
3E2
330
1F
100
AcDbEntity
  8
1-4
  6
Continuous
 62
     7
370
     9
100
AcDbPolyline
 90
        4
 70
     1
 43
1.0
 10
-372.6624871331291
 20
979.9121317351401
 42
0.4142135623731
 10
-373.1624871331291
 20
980.4121317351401
 42
0.4142135623731
 10
-373.662487133129
 20
979.9121317351401
 42
0.4142135623731
 10
-373.1624871331291
 20
979.4121317351402
 42
0.4142135623731
  0
TEXT
  5
3E3
330
1F
100
AcDbEntity
  8
1-4
  6
Continuous
 62
     2
370
   211
100
AcDbText
 10
-409.4124871331291
 20
991.55213173514
 30
0.0
 40
30.48
  1
15
 41
1.0625
  7
ＭＳ ゴシック
100
AcDbText
  0
LINE
  5
3E4
330
1F
100
AcDbEntity
  8
1-4
  6
Continuous
 62
     7
370
     9
100
AcDbLine
 10
-403.1624871331291
 20
982.9121317351401
 30
0.0
 11
-403.1624871331291
 21
914.9055350231074
 31
0.0
  0
LINE
  5
3E5
330
1F
100
AcDbEntity
  8
1-4
  6
Continuous
 62
     7
370
     9
100
AcDbLine
 10
-373.1624871331291
 20
982.9121317351401
 30
0.0
 11
-373.1624871331291
 21
914.9055350231074
 31
0.0
  0
LINE
  5
3E6
330
1F
100
AcDbEntity
  8
1-5
  6
Continuous
 62
     7
370
     9
100
AcDbLine
 10
-933.7475008577912
 20
939.3243243243245
 30
0.0
 11
-929.6147609401391
 21
963.9804654508026
 31
0.0
  0
LINE
  5
3E7
330
1F
100
AcDbEntity
  8
1-5
  6
Continuous
 62
     7
370
     9
100
AcDbLine
 10
-933.7475008577912
 20
939.3243243243245
 30
0.0
 11
-923.3740811734584
 21
962.0707248997044
 31
0.0
  0
LINE
  5
3E8
330
1F
100
AcDbEntity
  8
1-5
  6
Continuous
 62
     7
370
     9
100
AcDbLine
 10
-758.1628417968749
 20
904.4746522645693
 30
0.0
 11
-754.0303493190454
 21
929.1307933910474
 31
0.0
  0
LINE
  5
3E9
330
1F
100
AcDbEntity
  8
1-5
  6
Continuous
 62
     7
370
     9
100
AcDbLine
 10
-758.1628417968749
 20
904.4746522645693
 30
0.0
 11
-747.7897932722761
 21
927.2210528399495
 31
0.0
  0
LINE
  5
3EA
330
1F
100
AcDbEntity
  8
1-5
  6
Continuous
 62
     7
370
     9
100
AcDbLine
 10
-867.3398486987963
 20
825.3238492398651
 30
0.0
 11
-863.6969159100505
 21
850.0569441511825
 31
0.0
  0
LINE
  5
3EB
330
1F
100
AcDbEntity
  8
1-5
  6
Continuous
 62
     7
370
     9
100
AcDbLine
 10
-867.3398486987963
 20
825.3238492398651
 30
0.0
 11
-857.4196150496198
 21
848.2714183910474
 31
0.0
  0
TEXT
  5
3EC
330
1F
100
AcDbEntity
  8
1-5
  6
Continuous
 62
     7
370
     9
100
AcDbText
 10
-841.5656466097444
 20
1276.593247678306
 30
0.0
 40
22.86
  1
エンドプレート ＦＢ19×4.5
 41
1.16025641025641
  7
ＭＳ ゴシック
100
AcDbText
  0
TEXT
  5
3ED
330
1F
100
AcDbEntity
  8
1-5
  6
Continuous
 62
     7
370
     9
100
AcDbText
 10
-776.6013315561654
 20
1195.145213340257
 30
0.0
 40
22.86
  1
クロスバー φ６ ＠100
 41
1.158730158730159
  7
ＭＳ ゴシック
100
AcDbText
  0
TEXT
  5
3EE
330
1F
100
AcDbEntity
  8
1-5
  6
Continuous
 62
     7
370
     9
100
AcDbText
 10
-708.9816985259183
 20
1117.637905617496
 30
0.0
 40
22.86
  1
メインバー ＤⅠ－２５ ＠15
 41
1.16025641025641
  7
ＭＳ ゴシック
100
AcDbText
  0
LINE
  5
3EF
330
1F
100
AcDbEntity
  8
1-5
  6
Continuous
 62
     7
370
     9
100
AcDbLine
 10
-933.7475008577912
 20
939.3243243243245
 30
0.0
 11
-835.9434974628994
 21
1258.936668022479
 31
0.0
  0
LINE
  5
3F0
330
1F
100
AcDbEntity
  8
1-5
  6
Continuous
 62
     7
370
     9
100
AcDbLine
 10
-388.5134805215371
 20
1258.936668022479
 30
0.0
 11
-835.9434974628994
 21
1258.936668022479
 31
0.0
  0
LINE
  5
3F1
330
1F
100
AcDbEntity
  8
1-5
  6
Continuous
 62
     7
370
     9
100
AcDbLine
 10
-867.3398486987963
 20
825.3238492398651
 30
0.0
 11
-770.1731861847143
 21
1178.936651526491
 31
0.0
  0
LINE
  5
3F2
330
1F
100
AcDbEntity
  8
1-5
  6
Continuous
 62
     7
370
     9
100
AcDbLine
 10
-408.4839774466848
 20
1178.936651526491
 30
0.0
 11
-770.1731861847143
 21
1178.936651526491
 31
0.0
  0
LINE
  5
3F3
330
1F
100
AcDbEntity
  8
1-5
  6
Continuous
 62
     7
370
     9
100
AcDbLine
 10
-758.1628417968749
 20
904.4746522645693
 30
0.0
 11
-698.6560049553229
 21
1098.936635030502
 31
0.0
  0
LINE
  5
3F4
330
1F
100
AcDbEntity
  8
1-5
  6
Continuous
 62
     7
370
     9
100
AcDbLine
 10
-257.2944104993666
 20
1098.936635030502
 30
0.0
 11
-698.6560049553229
 21
1098.936635030502
 31
0.0
  0
TEXT
  5
3F5
330
1F
100
AcDbEntity
  8
1-4
  6
Continuous
 62
     2
370
     9
100
AcDbText
 10
516.4569586676521
 20
-1043.907729492187
 30
0.0
 40
30.48
  1
定尺：５００
 41
1.104166666666667
  7
ＭＳ ゴシック
100
AcDbText
  0
TEXT
  5
3F6
330
1F
100
AcDbEntity
  8
A-5
  6
Continuous
 62
     7
370
     9
100
AcDbText
 10
-843.0376874080132
 20
-1322.44290764886
 30
0.0
 40
22.86
  1
かさあげ型　細目ノンスリップタイプ　
 41
1.157407407407407
  7
ＭＳ ゴシック
100
AcDbText
  0
TEXT
  5
3F7
330
1F
100
AcDbEntity
  8
A-5
  6
Continuous
 62
     7
370
     9
100
AcDbText
 10
-628.2506290838904
 20
-1361.590361987965
 30
0.0
 40
22.86
  1
ＪＩＳ型側溝用　スチール製グレーチング　ＱＸＪ　６２２５Ａ
 41
1.160919540229885
  7
ＭＳ ゴシック
100
AcDbText
  0
LINE
  5
3F8
330
1F
100
AcDbEntity
  8
1-1
  6
Continuous
 62
     2
370
     9
100
AcDbLine
 10
766.9292689143001
 20
825.3243929888753
 30
0.0
 11
592.529667931634
 21
825.3243929888753
 31
0.0
  0
LINE
  5
3F9
330
1F
100
AcDbEntity
  8
1-1
  6
Continuous
 62
     2
370
     9
100
AcDbLine
 10
579.7297297297297
 20
838.1243044878987
 30
0.0
 11
579.7297297297297
 21
912.5244147326497
 31
0.0
  0
LINE
  5
3FA
330
1F
100
AcDbEntity
  8
1-1
  6
Continuous
 62
     2
370
     9
100
AcDbLine
 10
766.9290705500421
 20
918.9242960955647
 30
0.0
 11
592.5294695673762
 21
918.9242960955647
 31
0.0
  0
LINE
  5
3FB
330
1F
100
AcDbEntity
  8
1-1
  6
Continuous
 62
     2
370
     9
100
AcDbLine
 10
773.3293391047298
 20
838.1245028521564
 30
0.0
 11
773.3293391047298
 21
912.5242163683919
 31
0.0
  0
LINE
  5
3FC
330
1F
100
AcDbEntity
  8
1-1
  6
Continuous
 62
     2
370
     9
100
AcDbLine
 10
766.9292689143001
 20
925.3243767764118
 30
0.0
 11
592.529667931634
 21
925.3243767764118
 31
0.0
  0
LINE
  5
3FD
330
1F
100
AcDbEntity
  8
1-1
  6
Continuous
 62
     2
370
     9
100
AcDbLine
 10
779.7291956721125
 20
838.1243044878987
 30
0.0
 11
779.7291956721125
 21
912.5244147326497
 31
0.0
  0
LINE
  5
3FE
330
1F
100
AcDbEntity
  8
1-1
  6
JWW_HOJO
 62
     2
370
     9
100
AcDbLine
 10
566.8320837794123
 20
875.3244120623616
 30
0.0
 11
798.6731501398858
 21
875.3244120623616
 31
0.0
  0
LINE
  5
3FF
330
1F
100
AcDbEntity
  8
1-1
  6
Continuous
 62
     2
370
     9
100
AcDbLine
 10
592.529667931634
 20
831.7244784380941
 30
0.0
 11
766.9290705500421
 21
831.7244784380941
 31
0.0
  0
LINE
  5
400
330
1F
100
AcDbEntity
  8
1-1
  6
Continuous
 62
     2
370
     9
100
AcDbLine
 10
586.1295996485529
 20
838.1243044878987
 30
0.0
 11
586.1295996485529
 21
912.5242163683919
 31
0.0
  0
ARC
  5
401
330
1F
100
AcDbEntity
  8
1-1
  6
Continuous
 62
     2
370
     9
100
AcDbCircle
 10
592.529667931634
 20
838.1243044878987
 30
0.0
 40
12.80000019073486
100
AcDbArc
 50
180.0
 51
270.0
  0
ARC
  5
402
330
1F
100
AcDbEntity
  8
1-1
  6
Continuous
 62
     2
370
     9
100
AcDbCircle
 10
766.9292689143001
 20
838.1243044878987
 30
0.0
 40
12.80000019073486
100
AcDbArc
 50
270.0
 51
0.0
  0
ARC
  5
403
330
1F
100
AcDbEntity
  8
1-1
  6
Continuous
 62
     2
370
     9
100
AcDbCircle
 10
766.9290705500421
 20
838.1245028521564
 30
0.0
 40
6.400000095367432
100
AcDbArc
 50
270.0
 51
0.0
  0
ARC
  5
404
330
1F
100
AcDbEntity
  8
1-1
  6
Continuous
 62
     2
370
     9
100
AcDbCircle
 10
592.529667931634
 20
912.5244147326497
 30
0.0
 40
12.80000019073486
100
AcDbArc
 50
90.0
 51
180.0
  0
ARC
  5
405
330
1F
100
AcDbEntity
  8
1-1
  6
Continuous
 62
     2
370
     9
100
AcDbCircle
 10
592.5294695673762
 20
912.5242163683919
 30
0.0
 40
6.400000095367432
100
AcDbArc
 50
90.0
 51
180.0
  0
ARC
  5
406
330
1F
100
AcDbEntity
  8
1-1
  6
Continuous
 62
     2
370
     9
100
AcDbCircle
 10
766.9290705500421
 20
912.5242163683919
 30
0.0
 40
6.400000095367432
100
AcDbArc
 50
0.0
 51
90.0
  0
ARC
  5
407
330
1F
100
AcDbEntity
  8
1-1
  6
Continuous
 62
     2
370
     9
100
AcDbCircle
 10
766.9292689143001
 20
912.5244147326497
 30
0.0
 40
12.80000019073486
100
AcDbArc
 50
0.0
 51
90.0
  0
ARC
  5
408
330
1F
100
AcDbEntity
  8
1-1
  6
Continuous
 62
     2
370
     9
100
AcDbCircle
 10
592.529667931634
 20
838.1243044878987
 30
0.0
 40
6.400000095367432
100
AcDbArc
 50
180.0
 51
270.0
  0
LINE
  5
409
330
1F
100
AcDbEntity
  8
1-1
  6
JWW_HOJO
 62
     2
370
     9
100
AcDbLine
 10
579.7297297297297
 20
-273.8756506120835
 30
0.0
 11
579.7297297297297
 21
-323.1942178880846
 31
0.0
  0
LINE
  5
40A
330
1F
100
AcDbEntity
  8
1-1
  6
JWW_HOJO
 62
     2
370
     9
100
AcDbLine
 10
591.0719996271906
 20
-300.6755602037583
 30
0.0
 11
561.1236906824886
 21
-300.6755602037583
 31
0.0
  0
LINE
  5
40B
330
1F
100
AcDbEntity
  8
1-1
  6
Continuous
 62
     2
370
     9
100
AcDbLine
 10
766.9292689143001
 20
-186.6756288683091
 30
0.0
 11
592.529667931634
 21
-186.6756288683091
 31
0.0
  0
LINE
  5
40C
330
1F
100
AcDbEntity
  8
1-1
  6
Continuous
 62
     2
370
     9
100
AcDbLine
 10
579.7297297297297
 20
-199.4755403673325
 30
0.0
 11
579.7297297297297
 21
-273.8756506120835
 31
0.0
  0
LINE
  5
40D
330
1F
100
AcDbEntity
  8
1-1
  6
Continuous
 62
     2
370
     9
100
AcDbLine
 10
766.9290705500421
 20
-280.2755319749986
 30
0.0
 11
592.5294695673762
 21
-280.2755319749986
 31
0.0
  0
LINE
  5
40E
330
1F
100
AcDbEntity
  8
1-1
  6
Continuous
 62
     2
370
     9
100
AcDbLine
 10
773.3293391047298
 20
-199.4757387315903
 30
0.0
 11
773.3293391047298
 21
-273.8754522478257
 31
0.0
  0
LINE
  5
40F
330
1F
100
AcDbEntity
  8
1-1
  6
Continuous
 62
     2
370
     9
100
AcDbLine
 10
766.9292689143001
 20
-286.6756126558457
 30
0.0
 11
592.529667931634
 21
-286.6756126558457
 31
0.0
  0
LINE
  5
410
330
1F
100
AcDbEntity
  8
1-1
  6
Continuous
 62
     2
370
     9
100
AcDbLine
 10
779.7291956721125
 20
-199.4755403673325
 30
0.0
 11
779.7291956721125
 21
-273.8756506120835
 31
0.0
  0
LINE
  5
411
330
1F
100
AcDbEntity
  8
1-1
  6
JWW_HOJO
 62
     2
370
     9
100
AcDbLine
 10
566.8320837794123
 20
-236.6756479417954
 30
0.0
 11
798.6731501398858
 21
-236.6756479417954
 31
0.0
  0
LINE
  5
412
330
1F
100
AcDbEntity
  8
1-1
  6
Continuous
 62
     2
370
     9
100
AcDbLine
 10
592.529667931634
 20
-193.0757143175279
 30
0.0
 11
766.9290705500421
 21
-193.0757143175279
 31
0.0
  0
LINE
  5
413
330
1F
100
AcDbEntity
  8
1-1
  6
Continuous
 62
     2
370
     9
100
AcDbLine
 10
586.1295996485529
 20
-199.4755403673325
 30
0.0
 11
586.1295996485529
 21
-273.8754522478257
 31
0.0
  0
ARC
  5
414
330
1F
100
AcDbEntity
  8
1-1
  6
Continuous
 62
     2
370
     9
100
AcDbCircle
 10
592.529667931634
 20
-199.4755403673325
 30
0.0
 40
12.80000019073486
100
AcDbArc
 50
90.0
 51
180.0
  0
ARC
  5
415
330
1F
100
AcDbEntity
  8
1-1
  6
Continuous
 62
     2
370
     9
100
AcDbCircle
 10
766.9292689143001
 20
-199.4755403673325
 30
0.0
 40
12.80000019073486
100
AcDbArc
 50
0.0
 51
90.0
  0
ARC
  5
416
330
1F
100
AcDbEntity
  8
1-1
  6
Continuous
 62
     2
370
     9
100
AcDbCircle
 10
766.9290705500421
 20
-199.4757387315903
 30
0.0
 40
6.400000095367432
100
AcDbArc
 50
0.0
 51
90.0
  0
ARC
  5
417
330
1F
100
AcDbEntity
  8
1-1
  6
Continuous
 62
     2
370
     9
100
AcDbCircle
 10
592.529667931634
 20
-273.8756506120835
 30
0.0
 40
12.80000019073486
100
AcDbArc
 50
180.0
 51
270.0
  0
ARC
  5
418
330
1F
100
AcDbEntity
  8
1-1
  6
Continuous
 62
     2
370
     9
100
AcDbCircle
 10
592.5294695673762
 20
-273.8754522478257
 30
0.0
 40
6.400000095367432
100
AcDbArc
 50
180.0
 51
270.0
  0
ARC
  5
419
330
1F
100
AcDbEntity
  8
1-1
  6
Continuous
 62
     2
370
     9
100
AcDbCircle
 10
766.9290705500421
 20
-273.8754522478257
 30
0.0
 40
6.400000095367432
100
AcDbArc
 50
270.0
 51
0.0
  0
ARC
  5
41A
330
1F
100
AcDbEntity
  8
1-1
  6
Continuous
 62
     2
370
     9
100
AcDbCircle
 10
766.9292689143001
 20
-273.8756506120835
 30
0.0
 40
12.80000019073486
100
AcDbArc
 50
270.0
 51
0.0
  0
ARC
  5
41B
330
1F
100
AcDbEntity
  8
1-1
  6
Continuous
 62
     2
370
     9
100
AcDbCircle
 10
592.529667931634
 20
-199.4755403673325
 30
0.0
 40
6.400000095367432
100
AcDbArc
 50
90.0
 51
180.0
  0
LINE
  5
41C
330
1F
100
AcDbEntity
  8
1-4
  6
Continuous
 62
     7
370
     9
100
AcDbLine
 10
906.8674448374156
 20
925.3246740392738
 30
0.0
 11
906.8674448374156
 21
991.8760887352198
 31
0.0
  0
LINE
  5
41D
330
1F
100
AcDbEntity
  8
1-4
  6
Continuous
 62
     7
370
     9
100
AcDbLine
 10
906.8674448374156
 20
925.3246740392738
 30
0.0
 11
906.8674448374156
 21
825.3243042971638
 31
0.0
  0
LWPOLYLINE
  5
41E
330
1F
100
AcDbEntity
  8
1-4
  6
Continuous
 62
     7
370
     9
100
AcDbPolyline
 90
        4
 70
     1
 43
1.0
 10
907.3674448374156
 20
925.3246740392738
 42
0.4142135623731
 10
906.8674448374156
 20
925.8246740392736
 42
0.4142135623731
 10
906.3674448374156
 20
925.3246740392738
 42
0.4142135623731
 10
906.8674448374156
 20
924.8246740392738
 42
0.4142135623731
  0
LWPOLYLINE
  5
41F
330
1F
100
AcDbEntity
  8
1-4
  6
Continuous
 62
     7
370
     9
100
AcDbPolyline
 90
        4
 70
     1
 43
1.0
 10
907.3674448374156
 20
825.3243042971638
 42
0.4142135623731
 10
906.8674448374156
 20
825.8243042971638
 42
0.4142135623731
 10
906.3674448374156
 20
825.3243042971638
 42
0.4142135623731
 10
906.8674448374156
 20
824.8243042971638
 42
0.4142135623731
  0
LINE
  5
420
330
1F
100
AcDbEntity
  8
1-4
  6
Continuous
 62
     7
370
     9
100
AcDbLine
 10
909.8674448374156
 20
825.3243042971638
 30
0.0
 11
786.9292689143001
 21
825.3243042971638
 31
0.0
  0
TEXT
  5
421
330
1F
100
AcDbEntity
  8
1-4
  6
Continuous
 62
     2
370
   211
100
AcDbText
 10
895.2274448374156
 20
854.0744891682187
 30
0.0
 40
30.48
  1
50
 50
90.0
 41
1.0625
  7
ＭＳ ゴシック
100
AcDbText
  0
LINE
  5
422
330
1F
100
AcDbEntity
  8
1-4
  6
Continuous
 62
     7
370
     9
100
AcDbLine
 10
906.8674448374156
 20
825.3243042971638
 30
0.0
 11
906.8674448374156
 21
-186.6756288683091
 31
0.0
  0
LWPOLYLINE
  5
423
330
1F
100
AcDbEntity
  8
1-4
  6
Continuous
 62
     7
370
     9
100
AcDbPolyline
 90
        4
 70
     1
 43
1.0
 10
907.3674448374156
 20
-186.6756288683091
 42
0.4142135623731
 10
906.8674448374156
 20
-186.1756288683091
 42
0.4142135623731
 10
906.3674448374156
 20
-186.6756288683091
 42
0.4142135623731
 10
906.8674448374156
 20
-187.1756288683091
 42
0.4142135623731
  0
LINE
  5
424
330
1F
100
AcDbEntity
  8
1-4
  6
Continuous
 62
     7
370
     9
100
AcDbLine
 10
909.8674448374156
 20
-186.6756288683091
 30
0.0
 11
786.9292689143001
 21
-186.6756288683091
 31
0.0
  0
TEXT
  5
425
330
1F
100
AcDbEntity
  8
1-4
  6
Continuous
 62
     2
370
   211
100
AcDbText
 10
895.2274448374156
 20
286.8243377144274
 30
0.0
 40
30.48
  1
506
 50
90.0
 41
1.083333333333333
  7
ＭＳ ゴシック
100
AcDbText
  0
LINE
  5
426
330
1F
100
AcDbEntity
  8
1-4
  6
Continuous
 62
     7
370
     9
100
AcDbLine
 10
906.8674448374156
 20
-186.6756288683091
 30
0.0
 11
906.8674448374155
 21
-286.6756508028183
 31
0.0
  0
LWPOLYLINE
  5
427
330
1F
100
AcDbEntity
  8
1-4
  6
Continuous
 62
     7
370
     9
100
AcDbPolyline
 90
        4
 70
     1
 43
1.0
 10
907.3674448374154
 20
-286.6756508028183
 42
0.4142135623731
 10
906.8674448374155
 20
-286.1756508028183
 42
0.4142135623731
 10
906.3674448374155
 20
-286.6756508028183
 42
0.4142135623731
 10
906.8674448374155
 20
-287.1756508028183
 42
0.4142135623731
  0
LINE
  5
428
330
1F
100
AcDbEntity
  8
1-4
  6
Continuous
 62
     7
370
     9
100
AcDbLine
 10
909.8674448374154
 20
-286.6756508028183
 30
0.0
 11
786.9292689143001
 21
-286.6756508028183
 31
0.0
  0
TEXT
  5
429
330
1F
100
AcDbEntity
  8
1-4
  6
Continuous
 62
     2
370
   211
100
AcDbText
 10
895.2274448374155
 20
-257.9256398355637
 30
0.0
 40
30.48
  1
50
 50
89.99999999999993
 41
1.0625
  7
ＭＳ ゴシック
100
AcDbText
  0
LWPOLYLINE
  5
42A
330
1F
100
AcDbEntity
  8
1-4
  6
Continuous
 62
     7
370
     9
100
AcDbPolyline
 90
        4
 70
     1
 43
1.0
 10
907.3674448374154
 20
-300.6755602037583
 42
0.4142135623731
 10
906.8674448374155
 20
-300.1755602037583
 42
0.4142135623731
 10
906.3674448374155
 20
-300.6755602037583
 42
0.4142135623731
 10
906.8674448374155
 20
-301.1755602037583
 42
0.4142135623731
  0
LINE
  5
42B
330
1F
100
AcDbEntity
  8
1-4
  6
Continuous
 62
     7
370
     9
100
AcDbLine
 10
909.8674448374154
 20
-300.6755602037583
 30
0.0
 11
587.729888091216
 21
-300.6755602037583
 31
0.0
  0
TEXT
  5
42C
330
1F
100
AcDbEntity
  8
1-4
  6
Continuous
 62
     2
370
   211
100
AcDbText
 10
895.2274448374155
 20
-336.0674970902072
 30
0.0
 40
30.48
  1
7
 50
90.0
 41
0.9999999999999998
  7
ＭＳ ゴシック
100
AcDbText
  0
LINE
  5
42D
330
1F
100
AcDbEntity
  8
1-4
  6
Continuous
 62
     7
370
     9
100
AcDbLine
 10
906.8674448374155
 20
-286.6756508028183
 30
0.0
 11
906.8674448374155
 21
-346.6975139553412
 31
0.0
  0
TEXT
  5
42E
330
1F
100
AcDbEntity
  8
1-5
  6
Continuous
 62
     7
370
     9
100
AcDbText
 10
805.1080652185391
 20
1140.503308831292
 30
0.0
 40
22.86
  1
かさ上げ材：１００×５０×３．２
 41
1.15625
  7
ＭＳ ゴシック
100
AcDbText
  0
LINE
  5
42F
330
1F
100
AcDbEntity
  8
1-5
  6
Continuous
 62
     7
370
     9
100
AcDbLine
 10
786.7359058277026
 20
1119.324423300254
 30
0.0
 11
1371.452247670567
 21
1119.324423300254
 31
0.0
  0
LINE
  5
430
330
1F
100
AcDbEntity
  8
1-1
  6
JWW_DASHED1
 62
     2
370
     9
100
AcDbLine
 10
-1148.161604597762
 20
825.324426599451
 30
0.0
 11
-1148.161604597762
 21
925.324426599451
 31
0.0
  0
LINE
  5
431
330
1F
100
AcDbEntity
  8
1-1
  6
JWW_DASHED1
 62
     2
370
     9
100
AcDbLine
 10
-168.1617943016258
 20
825.324426599451
 30
0.0
 11
-168.1617943016258
 21
925.324426599451
 31
0.0
  0
LINE
  5
432
330
1F
100
AcDbEntity
  8
1-1
  6
JWW_DASHED1
 62
     2
370
     9
100
AcDbLine
 10
-1148.161604597762
 20
825.324426599451
 30
0.0
 11
-168.1617943016258
 21
825.324426599451
 31
0.0
  0
LINE
  5
433
330
1F
100
AcDbEntity
  8
1-1
  6
JWW_DASHED1
 62
     2
370
     9
100
AcDbLine
 10
-1148.161604597762
 20
-286.675662478885
 30
0.0
 11
-1148.161604597762
 21
-196.6756954708613
 31
0.0
  0
LINE
  5
434
330
1F
100
AcDbEntity
  8
1-1
  6
JWW_DASHED1
 62
     2
370
     9
100
AcDbLine
 10
-1148.161604597762
 20
-186.675662478885
 30
0.0
 11
-1148.161604597762
 21
-286.675662478885
 31
0.0
  0
LINE
  5
435
330
1F
100
AcDbEntity
  8
1-1
  6
JWW_DASHED1
 62
     2
370
     9
100
AcDbLine
 10
-168.1617943016258
 20
-286.675662478885
 30
0.0
 11
-168.1617943016258
 21
-196.6756954708613
 31
0.0
  0
LINE
  5
436
330
1F
100
AcDbEntity
  8
1-1
  6
JWW_DASHED1
 62
     2
370
     9
100
AcDbLine
 10
-1148.161604597762
 20
-186.675662478885
 30
0.0
 11
-168.1617943016258
 21
-186.675662478885
 31
0.0
  0
LINE
  5
437
330
1F
100
AcDbEntity
  8
1-1
  6
JWW_DASHED1
 62
     2
370
     9
100
AcDbLine
 10
-168.1617943016258
 20
-286.675662478885
 30
0.0
 11
-168.1617943016258
 21
-186.675662478885
 31
0.0
  0
LINE
  5
438
330
1F
100
AcDbEntity
  8
1-4
  6
Continuous
 62
     7
370
     9
100
AcDbLine
 10
786.9292689143001
 20
925.3246740392738
 30
0.0
 11
909.8674052470443
 21
925.3246740392738
 31
0.0
  0
TEXT
  5
439
330
1F
100
AcDbEntity
  8
1-5
  6
Continuous
 62
     7
370
     9
100
AcDbText
 10
959.094076749135
 20
1083.408054397171
 30
0.0
 40
22.86
  1
（Ｌ＝４９０）
 41
1.142857142857143
  7
ＭＳ ゴシック
100
AcDbText
  0
ENDSEC
  0
SECTION
  2
OBJECTS
  0
DICTIONARY
  5
C
330
0
100
AcDbDictionary
281
     1
  3
ACAD_GROUP
350
D
  3
ACAD_LAYOUT
350
1A
  3
ACAD_MLEADERSTYLE
350
43B
  3
ACAD_MLINESTYLE
350
17
  3
ACAD_PLOTSETTINGS
350
19
  3
ACAD_PLOTSTYLENAME
350
E
  3
ACAD_TABLESTYLE
350
43A
  3
ACAD_VISUALSTYLE
350
2A
  0
DICTIONARY
  5
D
102
{ACAD_REACTORS
330
C
102
}
330
C
100
AcDbDictionary
281
     1
  0
DICTIONARY
  5
1A
102
{ACAD_REACTORS
330
C
102
}
330
C
100
AcDbDictionary
281
     1
  3
Layout1
350
1E
  3
Layout2
350
26
  3
Model
350
22
  0
DICTIONARY
  5
43B
102
{ACAD_REACTORS
330
C
102
}
330
C
100
AcDbDictionary
281
     1
  0
DICTIONARY
  5
17
102
{ACAD_REACTORS
330
C
102
}
330
C
100
AcDbDictionary
281
     1
  3
Standard
350
18
  0
DICTIONARY
  5
19
102
{ACAD_REACTORS
330
C
102
}
330
C
100
AcDbDictionary
281
     1
  0
ACDBDICTIONARYWDFLT
  5
E
102
{ACAD_REACTORS
330
C
102
}
330
C
100
AcDbDictionary
281
     1
  3
Normal
350
F
100
AcDbDictionaryWithDefault
340
F
  0
DICTIONARY
  5
43A
102
{ACAD_REACTORS
330
C
102
}
330
C
100
AcDbDictionary
281
     1
  0
DICTIONARY
  5
2A
102
{ACAD_REACTORS
330
C
102
}
330
C
100
AcDbDictionary
281
     1
  3
2dWireframe
350
2F
  3
3D Hidden
350
31
  3
3dWireframe
350
30
  3
Basic
350
32
  3
Brighten
350
36
  3
ColorChange
350
3A
  3
Conceptual
350
34
  3
Dim
350
35
  3
Facepattern
350
39
  3
Flat
350
2B
  3
FlatWithEdges
350
2C
  3
Gouraud
350
2D
  3
GouraudWithEdges
350
2E
  3
Linepattern
350
38
  3
Realistic
350
33
  3
Thicken
350
37
  0
LAYOUT
  5
1E
102
{ACAD_REACTORS
330
1A
102
}
330
1A
100
AcDbPlotSettings
  1

  2
none_device
  4

  6

 40
0.0
 41
0.0
 42
0.0
 43
0.0
 44
0.0
 45
0.0
 46
0.0
 47
0.0
 48
0.0
 49
0.0
140
0.0
141
0.0
142
1.0
143
1.0
 70
   688
 72
     0
 73
     0
 74
     5
  7

 75
    16
 76
     0
 77
     5
 78
   300
147
1.0
148
0.0
149
0.0
100
AcDbLayout
  1
Layout1
 70
     1
 71
     1
 10
0.0
 20
0.0
 11
420.0
 21
297.0
 12
0.0
 22
0.0
 32
0.0
 14
1.000000000000000E+20
 24
1.000000000000000E+20
 34
1.000000000000000E+20
 15
-1.000000000000000E+20
 25
-1.000000000000000E+20
 35
-1.000000000000000E+20
146
0.0
 13
0.0
 23
0.0
 33
0.0
 16
1.0
 26
0.0
 36
0.0
 17
0.0
 27
1.0
 37
0.0
 76
     0
330
1B
  0
LAYOUT
  5
26
102
{ACAD_REACTORS
330
1A
102
}
330
1A
100
AcDbPlotSettings
  1

  2
none_device
  4

  6

 40
0.0
 41
0.0
 42
0.0
 43
0.0
 44
0.0
 45
0.0
 46
0.0
 47
0.0
 48
0.0
 49
0.0
140
0.0
141
0.0
142
1.0
143
1.0
 70
   688
 72
     0
 73
     0
 74
     5
  7

 75
    16
 76
     0
 77
     5
 78
   300
147
1.0
148
0.0
149
0.0
100
AcDbLayout
  1
Layout2
 70
     1
 71
     2
 10
0.0
 20
0.0
 11
0.0
 21
0.0
 12
0.0
 22
0.0
 32
0.0
 14
0.0
 24
0.0
 34
0.0
 15
0.0
 25
0.0
 35
0.0
146
0.0
 13
0.0
 23
0.0
 33
0.0
 16
1.0
 26
0.0
 36
0.0
 17
0.0
 27
1.0
 37
0.0
 76
     0
330
23
  0
LAYOUT
  5
22
102
{ACAD_REACTORS
330
1A
102
}
330
1A
100
AcDbPlotSettings
  1

  2
none_device
  4

  6

 40
0.0
 41
0.0
 42
0.0
 43
0.0
 44
0.0
 45
0.0
 46
0.0
 47
0.0
 48
0.0
 49
0.0
140
0.0
141
0.0
142
1.0
143
1.0
 70
  1712
 72
     0
 73
     0
 74
     0
  7

 75
     0
 76
     0
 77
     5
 78
   300
147
1.0
148
0.0
149
0.0
100
AcDbLayout
  1
Model
 70
     1
 71
     0
 10
-2100.0
 20
-1485.0
 11
2100.0
 21
1485.0
 12
0.0
 22
0.0
 32
0.0
 14
-2100.0
 24
-1485.0
 34
0.0
 15
2100.0
 25
1485.0
 35
0.0
146
0.0
 13
0.0
 23
0.0
 33
0.0
 16
1.0
 26
0.0
 36
0.0
 17
0.0
 27
1.0
 37
0.0
 76
     0
330
1F
331
29
  0
MLINESTYLE
  5
18
102
{ACAD_REACTORS
330
17
102
}
330
17
100
AcDbMlineStyle
  2
Standard
 70
     0
  3

 62
   256
 51
90.0
 52
90.0
 71
     2
 49
0.5
 62
   256
  6
BYLAYER
 49
-0.5
 62
   256
  6
BYLAYER
  0
ACDBPLACEHOLDER
  5
F
102
{ACAD_REACTORS
330
E
102
}
330
E
  0
VISUALSTYLE
  5
2F
102
{ACAD_REACTORS
330
2A
102
}
330
2A
100
AcDbVisualStyle
  2
2dWireframe
 70
     4
 71
     0
 72
     2
 73
     0
 90
        0
 40
-0.6
 41
-30.0
 62
     5
 63
     7
421
 16777215
 74
     1
 91
        4
 64
     7
 65
   257
 75
     1
175
     1
 42
1.0
 92
        0
 66
   257
 43
1.0
 76
     1
 77
     6
 78
     2
 67
     7
 79
     5
170
     0
171
     0
290
     0
174
     0
 93
        1
 44
0.0
173
     0
291
     0
 45
0.0
1001
ACAD
1000
AcDbSavedByObjectVersion
1070
     0
  0
VISUALSTYLE
  5
31
102
{ACAD_REACTORS
330
2A
102
}
330
2A
100
AcDbVisualStyle
  2
3D Hidden
 70
     6
 71
     1
 72
     2
 73
     2
 90
        0
 40
-0.6
 41
-30.0
 62
     5
 63
     7
421
 16777215
 74
     2
 91
        2
 64
     7
 65
   257
 75
     2
175
     1
 42
40.0
 92
        0
 66
   257
 43
1.0
 76
     1
 77
     6
 78
     2
 67
     7
 79
     3
170
     0
171
     0
290
     0
174
     0
 93
        1
 44
0.0
173
     0
291
     0
 45
0.0
1001
ACAD
1000
AcDbSavedByObjectVersion
1070
     0
  0
VISUALSTYLE
  5
30
102
{ACAD_REACTORS
330
2A
102
}
330
2A
100
AcDbVisualStyle
  2
3dWireframe
 70
     5
 71
     0
 72
     2
 73
     0
 90
        0
 40
-0.6
 41
-30.0
 62
     5
 63
     7
421
 16777215
 74
     1
 91
        4
 64
     7
 65
   257
 75
     1
175
     1
 42
1.0
 92
        0
 66
   257
 43
1.0
 76
     1
 77
     6
 78
     2
 67
     7
 79
     5
170
     0
171
     0
290
     0
174
     0
 93
        1
 44
0.0
173
     0
291
     0
 45
0.0
1001
ACAD
1000
AcDbSavedByObjectVersion
1070
     0
  0
VISUALSTYLE
  5
32
102
{ACAD_REACTORS
330
2A
102
}
330
2A
100
AcDbVisualStyle
  2
Basic
 70
     7
 71
     1
 72
     0
 73
     1
 90
        0
 40
-0.6
 41
-30.0
 62
     5
 63
     7
421
 16777215
 74
     0
 91
        4
 64
     7
 65
   257
 75
     1
175
     1
 42
1.0
 92
        8
 66
     7
 43
1.0
 76
     1
 77
     6
 78
     2
 67
     7
 79
     5
170
     0
171
     0
290
     0
174
     0
 93
        1
 44
0.0
173
     0
291
     1
 45
0.0
1001
ACAD
1000
AcDbSavedByObjectVersion
1070
     0
  0
VISUALSTYLE
  5
36
102
{ACAD_REACTORS
330
2A
102
}
330
2A
100
AcDbVisualStyle
  2
Brighten
 70
    12
 71
     2
 72
     2
 73
     0
 90
        0
 40
-0.6
 41
-30.0
 62
     5
 63
     7
421
 16777215
 74
     1
 91
        4
 64
     7
 65
   257
 75
     1
175
     1
 42
1.0
 92
        8
 66
     7
 43
1.0
 76
     1
 77
     6
 78
     2
 67
     7
 79
     5
170
     0
171
     0
290
     0
174
     0
 93
        1
 44
50.0
173
     0
291
     1
 45
0.0
1001
ACAD
1000
AcDbSavedByObjectVersion
1070
     0
  0
VISUALSTYLE
  5
3A
102
{ACAD_REACTORS
330
2A
102
}
330
2A
100
AcDbVisualStyle
  2
ColorChange
 70
    16
 71
     2
 72
     2
 73
     3
 90
        0
 40
-0.6
 41
-30.0
 62
     5
 63
     8
421
  8421504
 74
     1
 91
        4
 64
     7
 65
   257
 75
     1
175
     1
 42
1.0
 92
        8
 66
     8
424
  8421504
 43
1.0
 76
     1
 77
     6
 78
     2
 67
     7
 79
     5
170
     0
171
     0
290
     0
174
     0
 93
        1
 44
0.0
173
     0
291
     1
 45
0.0
1001
ACAD
1000
AcDbSavedByObjectVersion
1070
     0
  0
VISUALSTYLE
  5
34
102
{ACAD_REACTORS
330
2A
102
}
330
2A
100
AcDbVisualStyle
  2
Conceptual
 70
     9
 71
     3
 72
     2
 73
     0
 90
        0
 40
-0.6
 41
-30.0
 62
     5
 63
     7
421
 16777215
 74
     2
 91
        2
 64
     7
 65
   257
 75
     1
175
     1
 42
40.0
 92
        8
 66
     7
 43
1.0
 76
     1
 77
     6
 78
     2
 67
     7
 79
     3
170
     0
171
     0
290
     0
174
     0
 93
        1
 44
0.0
173
     0
291
     0
 45
0.0
1001
ACAD
1000
AcDbSavedByObjectVersion
1070
     0
  0
VISUALSTYLE
  5
35
102
{ACAD_REACTORS
330
2A
102
}
330
2A
100
AcDbVisualStyle
  2
Dim
 70
    11
 71
     2
 72
     2
 73
     0
 90
        0
 40
-0.6
 41
-30.0
 62
     5
 63
     7
421
 16777215
 74
     1
 91
        4
 64
     7
 65
   257
 75
     1
175
     1
 42
1.0
 92
        8
 66
     7
 43
1.0
 76
     1
 77
     6
 78
     2
 67
     7
 79
     5
170
     0
171
     0
290
     0
174
     0
 93
        1
 44
-50.0
173
     0
291
     1
 45
0.0
1001
ACAD
1000
AcDbSavedByObjectVersion
1070
     0
  0
VISUALSTYLE
  5
39
102
{ACAD_REACTORS
330
2A
102
}
330
2A
100
AcDbVisualStyle
  2
Facepattern
 70
    15
 71
     2
 72
     2
 73
     0
 90
        0
 40
-0.6
 41
-30.0
 62
     5
 63
     7
421
 16777215
 74
     1
 91
        4
 64
     7
 65
   257
 75
     1
175
     1
 42
1.0
 92
        8
 66
     7
 43
1.0
 76
     1
 77
     6
 78
     2
 67
     7
 79
     5
170
     0
171
     0
290
     0
174
     0
 93
        1
 44
0.0
173
     0
291
     1
 45
0.0
1001
ACAD
1000
AcDbSavedByObjectVersion
1070
     0
  0
VISUALSTYLE
  5
2B
102
{ACAD_REACTORS
330
2A
102
}
330
2A
100
AcDbVisualStyle
  2
Flat
 70
     0
 71
     2
 72
     1
 73
     1
 90
        2
 40
-0.6
 41
30.0
 62
     5
 63
     7
421
 16777215
 74
     0
 91
        4
 64
     7
 65
   257
 75
     1
175
     1
 42
1.0
 92
        8
 66
     7
 43
1.0
 76
     1
 77
     6
 78
     2
 67
     7
 79
     5
170
     0
171
     0
290
     0
174
     0
 93
       13
 44
0.0
173
     0
291
     1
 45
0.0
1001
ACAD
1000
AcDbSavedByObjectVersion
1070
     0
  0
VISUALSTYLE
  5
2C
102
{ACAD_REACTORS
330
2A
102
}
330
2A
100
AcDbVisualStyle
  2
FlatWithEdges
 70
     1
 71
     2
 72
     1
 73
     1
 90
        2
 40
-0.6
 41
30.0
 62
     5
 63
     7
421
 16777215
 74
     1
 91
        4
 64
     7
 65
   257
 75
     1
175
     1
 42
1.0
 92
        0
 66
   257
 43
1.0
 76
     1
 77
     6
 78
     2
 67
     7
 79
     5
170
     0
171
     0
290
     0
174
     0
 93
       13
 44
0.0
173
     0
291
     1
 45
0.0
1001
ACAD
1000
AcDbSavedByObjectVersion
1070
     0
  0
VISUALSTYLE
  5
2D
102
{ACAD_REACTORS
330
2A
102
}
330
2A
100
AcDbVisualStyle
  2
Gouraud
 70
     2
 71
     2
 72
     2
 73
     1
 90
        2
 40
-0.6
 41
30.0
 62
     5
 63
     7
421
 16777215
 74
     0
 91
        4
 64
     7
 65
   257
 75
     1
175
     1
 42
1.0
 92
        0
 66
     7
 43
1.0
 76
     1
 77
     6
 78
     2
 67
     7
 79
     5
170
     0
171
     0
290
     0
174
     0
 93
       13
 44
0.0
173
     0
291
     1
 45
0.0
1001
ACAD
1000
AcDbSavedByObjectVersion
1070
     0
  0
VISUALSTYLE
  5
2E
102
{ACAD_REACTORS
330
2A
102
}
330
2A
100
AcDbVisualStyle
  2
GouraudWithEdges
 70
     3
 71
     2
 72
     2
 73
     1
 90
        2
 40
-0.6
 41
30.0
 62
     5
 63
     7
421
 16777215
 74
     1
 91
        4
 64
     7
 65
   257
 75
     1
175
     1
 42
1.0
 92
        0
 66
   257
 43
1.0
 76
     1
 77
     6
 78
     2
 67
     7
 79
     5
170
     0
171
     0
290
     0
174
     0
 93
       13
 44
0.0
173
     0
291
     1
 45
0.0
1001
ACAD
1000
AcDbSavedByObjectVersion
1070
     0
  0
VISUALSTYLE
  5
38
102
{ACAD_REACTORS
330
2A
102
}
330
2A
100
AcDbVisualStyle
  2
Linepattern
 70
    14
 71
     2
 72
     2
 73
     0
 90
        0
 40
-0.6
 41
-30.0
 62
     5
 63
     7
421
 16777215
 74
     1
 91
        4
 64
     7
 65
   257
 75
     7
175
     7
 42
1.0
 92
        8
 66
     7
 43
1.0
 76
     1
 77
     6
 78
     2
 67
     7
 79
     5
170
     0
171
     0
290
     0
174
     0
 93
        1
 44
0.0
173
     0
291
     1
 45
0.0
1001
ACAD
1000
AcDbSavedByObjectVersion
1070
     0
  0
VISUALSTYLE
  5
33
102
{ACAD_REACTORS
330
2A
102
}
330
2A
100
AcDbVisualStyle
  2
Realistic
 70
     8
 71
     2
 72
     2
 73
     0
 90
        0
 40
-0.6
 41
-30.0
 62
     5
 63
     7
421
 16777215
 74
     1
 91
        0
 64
     7
 65
   257
 75
     1
175
     1
 42
1.0
 92
        8
 66
     8
424
  7895160
 43
1.0
 76
     1
 77
     6
 78
     2
 67
     7
 79
     5
170
     0
171
     0
290
     0
174
     0
 93
       13
 44
0.0
173
     0
291
     0
 45
0.0
1001
ACAD
1000
AcDbSavedByObjectVersion
1070
     0
  0
VISUALSTYLE
  5
37
102
{ACAD_REACTORS
330
2A
102
}
330
2A
100
AcDbVisualStyle
  2
Thicken
 70
    13
 71
     2
 72
     2
 73
     0
 90
        0
 40
-0.6
 41
-30.0
 62
     5
 63
     7
421
 16777215
 74
     1
 91
        4
 64
     7
 65
   257
 75
     1
175
     1
 42
1.0
 92
       12
 66
     7
 43
1.0
 76
     1
 77
     6
 78
     2
 67
     7
 79
     5
170
     0
171
     0
290
     0
174
     0
 93
        1
 44
0.0
173
     0
291
     1
 45
0.0
1001
ACAD
1000
AcDbSavedByObjectVersion
1070
     0
  0
ENDSEC
  0
EOF
