  0
SECTION
  2
HEADER
  9
$ACADVER
  1
AC1018
  9
$ACADMAINTVER
 70
     0
  9
$DWGCODEPAGE
  3
ANSI_932
  9
$INSBASE
 10
0.0
 20
0.0
 30
0.0
  9
$EXTMIN
 10
-2100.0
 20
-1485.0
 30
0.0
  9
$EXTMAX
 10
2100.0
 20
1485.0
 30
0.0
  9
$LIMMIN
 10
-2100.0
 20
-1485.0
  9
$LIMMAX
 10
2100.0
 20
1485.0
  9
$ORTHOMODE
 70
     0
  9
$REGENMODE
 70
     1
  9
$FILLMODE
 70
     1
  9
$QTEXTMODE
 70
     0
  9
$MIRRTEXT
 70
     1
  9
$LTSCALE
 40
10.0
  9
$ATTMODE
 70
     1
  9
$TEXTSIZE
 40
2.5
  9
$TRACEWID
 40
1.0
  9
$TEXTSTYLE
  7
Standard
  9
$CLAYER
  8
0
  9
$CELTYPE
  6
ByLayer
  9
$CECOLOR
 62
   256
  9
$CELTSCALE
 40
1.0
  9
$DISPSILH
 70
     0
  9
$DIMSCALE
 40
1.0
  9
$DIMASZ
 40
2.5
  9
$DIMEXO
 40
0.625
  9
$DIMDLI
 40
3.75
  9
$DIMRND
 40
0.0
  9
$DIMDLE
 40
0.0
  9
$DIMEXE
 40
1.25
  9
$DIMTP
 40
0.0
  9
$DIMTM
 40
0.0
  9
$DIMTXT
 40
2.5
  9
$DIMCEN
 40
2.5
  9
$DIMTSZ
 40
0.0
  9
$DIMTOL
 70
     0
  9
$DIMLIM
 70
     0
  9
$DIMTIH
 70
     0
  9
$DIMTOH
 70
     0
  9
$DIMSE1
 70
     0
  9
$DIMSE2
 70
     0
  9
$DIMTAD
 70
     1
  9
$DIMZIN
 70
     8
  9
$DIMBLK
  1

  9
$DIMASO
 70
     1
  9
$DIMSHO
 70
     1
  9
$DIMPOST
  1

  9
$DIMAPOST
  1

  9
$DIMALT
 70
     0
  9
$DIMALTD
 70
     3
  9
$DIMALTF
 40
0.03937007874016
  9
$DIMLFAC
 40
1.0
  9
$DIMTOFL
 70
     1
  9
$DIMTVP
 40
0.0
  9
$DIMTIX
 70
     0
  9
$DIMSOXD
 70
     0
  9
$DIMSAH
 70
     0
  9
$DIMBLK1
  1

  9
$DIMBLK2
  1

  9
$DIMSTYLE
  2
ISO-25
  9
$DIMCLRD
 70
     0
  9
$DIMCLRE
 70
     0
  9
$DIMCLRT
 70
     0
  9
$DIMTFAC
 40
1.0
  9
$DIMGAP
 40
0.625
  9
$DIMJUST
 70
     0
  9
$DIMSD1
 70
     0
  9
$DIMSD2
 70
     0
  9
$DIMTOLJ
 70
     0
  9
$DIMTZIN
 70
     8
  9
$DIMALTZ
 70
     0
  9
$DIMALTTZ
 70
     0
  9
$DIMUPT
 70
     0
  9
$DIMDEC
 70
     2
  9
$DIMTDEC
 70
     2
  9
$DIMALTU
 70
     2
  9
$DIMALTTD
 70
     3
  9
$DIMTXSTY
  7
Standard
  9
$DIMAUNIT
 70
     0
  9
$DIMADEC
 70
     0
  9
$DIMALTRND
 40
0.0
  9
$DIMAZIN
 70
     0
  9
$DIMDSEP
 70
    44
  9
$DIMATFIT
 70
     3
  9
$DIMFRAC
 70
     0
  9
$DIMLDRBLK
  1

  9
$DIMLUNIT
 70
     2
  9
$DIMLWD
 70
    -2
  9
$DIMLWE
 70
    -2
  9
$DIMTMOVE
 70
     0
  9
$LUNITS
 70
     2
  9
$LUPREC
 70
     4
  9
$SKETCHINC
 40
1.0
  9
$FILLETRAD
 40
10.0
  9
$AUNITS
 70
     0
  9
$AUPREC
 70
     0
  9
$MENU
  1
.
  9
$ELEVATION
 40
0.0
  9
$PELEVATION
 40
0.0
  9
$THICKNESS
 40
0.0
  9
$LIMCHECK
 70
     0
  9
$CHAMFERA
 40
10.0
  9
$CHAMFERB
 40
10.0
  9
$CHAMFERC
 40
20.0
  9
$CHAMFERD
 40
0.0
  9
$SKPOLY
 70
     0
  9
$TDCREATE
 40
2456499.582829074
  9
$TDUCREATE
 40
2456499.207829074
  9
$TDUPDATE
 40
2456499.582829086
  9
$TDUUPDATE
 40
2456499.207829086
  9
$TDINDWG
 40
0.0000000116
  9
$TDUSRTIMER
 40
0.0000000116
  9
$USRTIMER
 70
     1
  9
$ANGBASE
 50
0.0
  9
$ANGDIR
 70
     0
  9
$PDMODE
 70
     0
  9
$PDSIZE
 40
0.0
  9
$PLINEWID
 40
0.0
  9
$SPLFRAME
 70
     0
  9
$SPLINETYPE
 70
     6
  9
$SPLINESEGS
 70
     8
  9
$HANDSEED
  5
434
  9
$SURFTAB1
 70
     6
  9
$SURFTAB2
 70
     6
  9
$SURFTYPE
 70
     6
  9
$SURFU
 70
     6
  9
$SURFV
 70
     6
  9
$UCSBASE
  2

  9
$UCSNAME
  2

  9
$UCSORG
 10
0.0
 20
0.0
 30
0.0
  9
$UCSXDIR
 10
1.0
 20
0.0
 30
0.0
  9
$UCSYDIR
 10
0.0
 20
1.0
 30
0.0
  9
$UCSORTHOREF
  2

  9
$UCSORTHOVIEW
 70
     0
  9
$UCSORGTOP
 10
0.0
 20
0.0
 30
0.0
  9
$UCSORGBOTTOM
 10
0.0
 20
0.0
 30
0.0
  9
$UCSORGLEFT
 10
0.0
 20
0.0
 30
0.0
  9
$UCSORGRIGHT
 10
0.0
 20
0.0
 30
0.0
  9
$UCSORGFRONT
 10
0.0
 20
0.0
 30
0.0
  9
$UCSORGBACK
 10
0.0
 20
0.0
 30
0.0
  9
$PUCSBASE
  2

  9
$PUCSNAME
  2

  9
$PUCSORG
 10
0.0
 20
0.0
 30
0.0
  9
$PUCSXDIR
 10
1.0
 20
0.0
 30
0.0
  9
$PUCSYDIR
 10
0.0
 20
1.0
 30
0.0
  9
$PUCSORTHOREF
  2

  9
$PUCSORTHOVIEW
 70
     0
  9
$PUCSORGTOP
 10
0.0
 20
0.0
 30
0.0
  9
$PUCSORGBOTTOM
 10
0.0
 20
0.0
 30
0.0
  9
$PUCSORGLEFT
 10
0.0
 20
0.0
 30
0.0
  9
$PUCSORGRIGHT
 10
0.0
 20
0.0
 30
0.0
  9
$PUCSORGFRONT
 10
0.0
 20
0.0
 30
0.0
  9
$PUCSORGBACK
 10
0.0
 20
0.0
 30
0.0
  9
$USERI1
 70
     0
  9
$USERI2
 70
     0
  9
$USERI3
 70
     0
  9
$USERI4
 70
     0
  9
$USERI5
 70
     0
  9
$USERR1
 40
0.0
  9
$USERR2
 40
0.0
  9
$USERR3
 40
0.0
  9
$USERR4
 40
0.0
  9
$USERR5
 40
0.0
  9
$WORLDVIEW
 70
     1
  9
$SHADEDGE
 70
     3
  9
$SHADEDIF
 70
    70
  9
$TILEMODE
 70
     1
  9
$MAXACTVP
 70
    64
  9
$PINSBASE
 10
0.0
 20
0.0
 30
0.0
  9
$PLIMCHECK
 70
     0
  9
$PEXTMIN
 10
1.000000000000000E+20
 20
1.000000000000000E+20
 30
1.000000000000000E+20
  9
$PEXTMAX
 10
-1.000000000000000E+20
 20
-1.000000000000000E+20
 30
-1.000000000000000E+20
  9
$PLIMMIN
 10
0.0
 20
0.0
  9
$PLIMMAX
 10
420.0
 20
297.0
  9
$UNITMODE
 70
     0
  9
$VISRETAIN
 70
     1
  9
$PLINEGEN
 70
     0
  9
$PSLTSCALE
 70
     1
  9
$TREEDEPTH
 70
  3020
  9
$CMLSTYLE
  2
Standard
  9
$CMLJUST
 70
     0
  9
$CMLSCALE
 40
20.0
  9
$PROXYGRAPHICS
 70
     1
  9
$MEASUREMENT
 70
     1
  9
$CELWEIGHT
370
    -1
  9
$ENDCAPS
280
     0
  9
$JOINSTYLE
280
     0
  9
$LWDISPLAY
290
     0
  9
$INSUNITS
 70
     4
  9
$HYPERLINKBASE
  1

  9
$STYLESHEET
  1

  9
$XEDIT
290
     1
  9
$CEPSNTYPE
380
     0
  9
$PSTYLEMODE
290
     1
  9
$FINGERPRINTGUID
  2
{421683A0-ACB7-4792-BD7A-CAA3A78F4FCF}
  9
$VERSIONGUID
  2
{FAEB1C32-E019-11D5-929B-00C0DF256EC4}
  9
$EXTNAMES
290
     1
  9
$PSVPSCALE
 40
0.0
  9
$OLESTARTUP
290
     0
  9
$SORTENTS
280
   127
  9
$INDEXCTL
280
     0
  9
$HIDETEXT
280
     1
  9
$XCLIPFRAME
290
     0
  9
$HALOGAP
280
     0
  9
$OBSCOLOR
 70
   257
  9
$OBSLTYPE
280
     0
  9
$INTERSECTIONDISPLAY
280
     0
  9
$INTERSECTIONCOLOR
 70
   257
  9
$DIMASSOC
280
     2
  9
$PROJECTNAME
  1

  0
ENDSEC
  0
SECTION
  2
CLASSES
  0
CLASS
  1
ACDBDICTIONARYWDFLT
  2
AcDbDictionaryWithDefault
  3
ObjectDBX Classes
 90
        0
 91
        4
280
     0
281
     0
  0
CLASS
  1
VISUALSTYLE
  2
AcDbVisualStyle
  3
ObjectDBX Classes
 90
     4095
 91
        4
280
     0
281
     0
  0
ENDSEC
  0
SECTION
  2
TABLES
  0
TABLE
  2
VPORT
  5
8
330
0
100
AcDbSymbolTable
 70
     1
  0
VPORT
  5
29
330
8
100
AcDbSymbolTableRecord
100
AcDbViewportTableRecord
  2
*Active
 70
     0
 10
0.0
 20
0.0
 11
1.0
 21
1.0
 12
0.0
 22
0.0
 13
0.0
 23
0.0
 14
10.0
 24
10.0
 15
10.0
 25
10.0
 16
0.0
 26
0.0
 36
1.0
 17
0.0
 27
0.0
 37
0.0
 40
3267.0
 41
1.414141414141414
 42
50.0
 43
0.0
 44
0.0
 50
0.0
 51
0.0
 71
     0
 72
 10000
 73
     1
 74
     3
 75
     0
 76
     0
 77
     0
 78
     0
281
     0
 65
     1
110
0.0
120
0.0
130
0.0
111
1.0
121
0.0
131
0.0
112
0.0
122
1.0
132
0.0
 79
     0
146
0.0
  0
ENDTAB
  0
TABLE
  2
LTYPE
  5
5
330
0
100
AcDbSymbolTable
 70
     3
  0
LTYPE
  5
14
330
5
100
AcDbSymbolTableRecord
100
AcDbLinetypeTableRecord
  2
ByBlock
 70
     0
  3

 72
    65
 73
     0
 40
0.0
  0
LTYPE
  5
15
330
5
100
AcDbSymbolTableRecord
100
AcDbLinetypeTableRecord
  2
ByLayer
 70
     0
  3

 72
    65
 73
     0
 40
0.0
  0
LTYPE
  5
16
330
5
100
AcDbSymbolTableRecord
100
AcDbLinetypeTableRecord
  2
Continuous
 70
     0
  3
Solid line
 72
    65
 73
     0
 40
0.0
  0
LTYPE
  5
3C
330
5
100
AcDbSymbolTableRecord
100
AcDbLinetypeTableRecord
  2
JWW_CENTER1
 70
     0
  3
-----  --  ----------  --  -----
 72
    65
 73
     4
 40
6.773333333333333
 49
4.233333333333333
 74
     0
 49
-0.8466666666666667
 74
     0
 49
0.8466666666666667
 74
     0
 49
-0.8466666666666667
 74
     0
  0
LTYPE
  5
3D
330
5
100
AcDbSymbolTableRecord
100
AcDbLinetypeTableRecord
  2
JWW_DASHED1
 70
     0
  3
-  --  --  --  --  --  --  --  -
 72
    65
 73
     2
 40
0.508
 49
0.254
 74
     0
 49
-0.254
 74
     0
  0
ENDTAB
  0
TABLE
  2
LAYER
  5
2
330
0
100
AcDbSymbolTable
 70
     7
  0
LAYER
  5
10
330
2
100
AcDbSymbolTableRecord
100
AcDbLayerTableRecord
  2
0
 70
     0
 62
     7
  6
Continuous
370
    -3
390
F
  0
LAYER
  5
3E
330
2
100
AcDbSymbolTableRecord
100
AcDbLayerTableRecord
  2
1-2
 70
     0
 62
     7
  6
Continuous
370
    -3
390
F
  0
LAYER
  5
3F
330
2
100
AcDbSymbolTableRecord
100
AcDbLayerTableRecord
  2
1-4
 70
     0
 62
     7
  6
Continuous
370
    -3
390
F
  0
LAYER
  5
40
330
2
100
AcDbSymbolTableRecord
100
AcDbLayerTableRecord
  2
1-A
 70
     0
 62
     7
  6
Continuous
370
    -3
390
F
  0
LAYER
  5
41
330
2
100
AcDbSymbolTableRecord
100
AcDbLayerTableRecord
  2
1-1
 70
     0
 62
     7
  6
Continuous
370
    -3
390
F
  0
LAYER
  5
42
330
2
100
AcDbSymbolTableRecord
100
AcDbLayerTableRecord
  2
1-5
 70
     0
 62
     7
  6
Continuous
370
    -3
390
F
  0
LAYER
  5
43
330
2
100
AcDbSymbolTableRecord
100
AcDbLayerTableRecord
  2
1-0
 70
     0
 62
     7
  6
Continuous
370
    -3
390
F
  0
ENDTAB
  0
TABLE
  2
STYLE
  5
3
330
0
100
AcDbSymbolTable
 70
     2
  0
STYLE
  5
11
330
3
100
AcDbSymbolTableRecord
100
AcDbTextStyleTableRecord
  2
Standard
 70
     0
 40
0.0
 41
1.0
 50
0.0
 71
     0
 42
2.5
  3
txt
  4

1001
ACAD
1000

1071
        0
  0
STYLE
  5
3B
330
3
100
AcDbSymbolTableRecord
100
AcDbTextStyleTableRecord
  2
ＭＳ ゴシック
 70
     0
 40
1.0
 41
1.0
 50
0.0
 71
     0
 42
10.0
  3

  4

1001
ACAD
1000
MS Gothic
1071
    32817
  0
ENDTAB
  0
TABLE
  2
VIEW
  5
6
330
0
100
AcDbSymbolTable
 70
     0
  0
ENDTAB
  0
TABLE
  2
UCS
  5
7
330
0
100
AcDbSymbolTable
 70
     0
  0
ENDTAB
  0
TABLE
  2
APPID
  5
9
330
0
100
AcDbSymbolTable
 70
     1
  0
APPID
  5
12
330
9
100
AcDbSymbolTableRecord
100
AcDbRegAppTableRecord
  2
ACAD
 70
     0
  0
ENDTAB
  0
TABLE
  2
DIMSTYLE
  5
A
330
0
100
AcDbSymbolTable
 70
     1
100
AcDbDimStyleTable
  0
DIMSTYLE
105
27
330
A
100
AcDbSymbolTableRecord
100
AcDbDimStyleTableRecord
  2
ISO-25
 70
     0
 41
2.5
 42
0.625
 43
3.75
 44
1.25
 73
     0
 74
     0
 77
     1
 78
     8
140
2.5
141
2.5
143
0.03937007874016
147
0.625
171
     3
172
     1
271
     2
272
     2
274
     3
278
    44
283
     0
284
     8
340
11
  0
ENDTAB
  0
TABLE
  2
BLOCK_RECORD
  5
1
330
0
100
AcDbSymbolTable
 70
     1
  0
BLOCK_RECORD
  5
1F
330
1
100
AcDbSymbolTableRecord
100
AcDbBlockTableRecord
  2
*Model_Space
340
22
  0
BLOCK_RECORD
  5
1B
330
1
100
AcDbSymbolTableRecord
100
AcDbBlockTableRecord
  2
*Paper_Space
340
1E
  0
BLOCK_RECORD
  5
23
330
1
100
AcDbSymbolTableRecord
100
AcDbBlockTableRecord
  2
*Paper_Space0
340
26
  0
ENDTAB
  0
ENDSEC
  0
SECTION
  2
BLOCKS
  0
BLOCK
  5
20
330
1F
100
AcDbEntity
  8
0
100
AcDbBlockBegin
  2
*Model_Space
 70
     0
 10
0.0
 20
0.0
 30
0.0
  3
*Model_Space
  1

  0
ENDBLK
  5
21
330
1F
100
AcDbEntity
  8
0
100
AcDbBlockEnd
  0
BLOCK
  5
1C
330
1B
100
AcDbEntity
 67
     1
  8
0
100
AcDbBlockBegin
  2
*Paper_Space
 70
     0
 10
0.0
 20
0.0
 30
0.0
  3
*Paper_Space
  1

  0
ENDBLK
  5
1D
330
1B
100
AcDbEntity
 67
     1
  8
0
100
AcDbBlockEnd
  0
BLOCK
  5
24
330
23
100
AcDbEntity
  8
0
100
AcDbBlockBegin
  2
*Paper_Space0
 70
     0
 10
0.0
 20
0.0
 30
0.0
  3
*Paper_Space0
  1

  0
ENDBLK
  5
25
330
23
100
AcDbEntity
  8
0
100
AcDbBlockEnd
  0
ENDSEC
  0
SECTION
  2
ENTITIES
  0
LINE
  5
44
330
1F
100
AcDbEntity
  8
1-2
  6
Continuous
 62
     3
370
     9
100
AcDbLine
 10
1899.196645375845
 20
608.0375382706927
 30
0.0
 11
1893.196477116766
 21
599.0374096019849
 31
0.0
  0
LINE
  5
45
330
1F
100
AcDbEntity
  8
1-2
  6
Continuous
 62
     3
370
     9
100
AcDbLine
 10
1935.196170291385
 20
608.0375382706927
 30
0.0
 11
1899.196645375845
 21
608.0375382706927
 31
0.0
  0
LINE
  5
46
330
1F
100
AcDbEntity
  8
1-2
  6
Continuous
 62
     3
370
     9
100
AcDbLine
 10
1935.196170291385
 20
608.0375382706927
 30
0.0
 11
1941.196338550465
 21
599.0374096019849
 31
0.0
  0
LINE
  5
47
330
1F
100
AcDbEntity
  8
1-2
  6
Continuous
 62
     3
370
     9
100
AcDbLine
 10
-1668.972943280194
 20
730.9809834248313
 30
0.0
 11
-672.9729729729729
 21
730.9809834248313
 31
0.0
  0
LINE
  5
48
330
1F
100
AcDbEntity
  8
1-2
  6
Continuous
 62
     3
370
     9
100
AcDbLine
 10
-1668.972943280194
 20
721.9806073163008
 30
0.0
 11
-672.9729729729729
 21
721.9806073163008
 31
0.0
  0
LINE
  5
49
330
1F
100
AcDbEntity
  8
1-2
  6
Continuous
 62
     3
370
     9
100
AcDbLine
 10
-672.9729729729729
 20
-500.0192673141892
 30
0.0
 11
-1668.972943280194
 21
-500.0192673141892
 31
0.0
  0
LINE
  5
4A
330
1F
100
AcDbEntity
  8
1-2
  6
Continuous
 62
     3
370
     9
100
AcDbLine
 10
-1668.972943280194
 20
604.9811615815033
 30
0.0
 11
-672.9729729729729
 21
604.9811615815033
 31
0.0
  0
LINE
  5
4B
330
1F
100
AcDbEntity
  8
1-2
  6
Continuous
 62
     3
370
     9
100
AcDbLine
 10
-1668.972943280194
 20
616.9810032200169
 30
0.0
 11
-672.9729729729729
 21
616.9810032200169
 31
0.0
  0
LINE
  5
4C
330
1F
100
AcDbEntity
  8
1-2
  6
Continuous
 62
     3
370
     9
100
AcDbLine
 10
-1654.973292995144
 20
616.9810032200169
 30
0.0
 11
-1654.973292995144
 21
721.9806073163008
 31
0.0
  0
LINE
  5
4D
330
1F
100
AcDbEntity
  8
1-2
  6
Continuous
 62
     3
370
     9
100
AcDbLine
 10
-686.9731181376687
 20
721.9806073163008
 30
0.0
 11
-686.9731181376687
 21
616.9810032200169
 31
0.0
  0
LINE
  5
4E
330
1F
100
AcDbEntity
  8
1-2
  6
Continuous
 62
     3
370
     9
100
AcDbLine
 10
-1639.173765440245
 20
616.9810032200169
 30
0.0
 11
-1639.173765440245
 21
721.9806073163008
 31
0.0
  0
LINE
  5
4F
330
1F
100
AcDbEntity
  8
1-2
  6
Continuous
 62
     3
370
     9
100
AcDbLine
 10
-1625.173372835726
 20
616.9810032200169
 30
0.0
 11
-1625.173372835726
 21
721.9806073163008
 31
0.0
  0
LINE
  5
50
330
1F
100
AcDbEntity
  8
1-4
  6
Continuous
 62
     7
370
     9
100
AcDbLine
 10
-887.1528006888724
 20
765.3174652924408
 30
0.0
 11
-857.3949452993031
 21
765.3174652924408
 31
0.0
  0
LINE
  5
51
330
1F
100
AcDbEntity
  8
1-4
  6
Continuous
 62
     7
370
     9
100
AcDbLine
 10
-887.1528006888724
 20
704.0182082717484
 30
0.0
 11
-887.1528006888724
 21
771.317138671875
 31
0.0
  0
LINE
  5
52
330
1F
100
AcDbEntity
  8
1-4
  6
Continuous
 62
     7
370
     9
100
AcDbLine
 10
-857.3949452993031
 20
704.0182082717484
 30
0.0
 11
-857.3949452993031
 21
771.317138671875
 31
0.0
  0
LINE
  5
53
330
1F
100
AcDbEntity
  8
1-2
  6
Continuous
 62
     3
370
     9
100
AcDbLine
 10
-1668.972943280194
 20
404.9809966216216
 30
0.0
 11
-672.9729729729729
 21
404.9809966216216
 31
0.0
  0
LINE
  5
54
330
1F
100
AcDbEntity
  8
1-2
  6
Continuous
 62
     3
370
     9
100
AcDbLine
 10
-1668.972943280194
 20
416.9813331397805
 30
0.0
 11
-672.9729729729729
 21
416.9813331397805
 31
0.0
  0
LINE
  5
55
330
1F
100
AcDbEntity
  8
1-2
  6
Continuous
 62
     3
370
     9
100
AcDbLine
 10
-1654.973292995144
 20
416.9813331397805
 30
0.0
 11
-1654.973292995144
 21
604.9811615815033
 31
0.0
  0
LINE
  5
56
330
1F
100
AcDbEntity
  8
1-2
  6
Continuous
 62
     3
370
     9
100
AcDbLine
 10
-686.9731181376687
 20
604.9811615815033
 30
0.0
 11
-686.9731181376687
 21
416.9813331397805
 31
0.0
  0
LINE
  5
57
330
1F
100
AcDbEntity
  8
1-2
  6
Continuous
 62
     3
370
     9
100
AcDbLine
 10
-1639.173765440245
 20
416.9813331397805
 30
0.0
 11
-1639.173765440245
 21
604.9811615815033
 31
0.0
  0
LINE
  5
58
330
1F
100
AcDbEntity
  8
1-2
  6
Continuous
 62
     3
370
     9
100
AcDbLine
 10
-1625.173372835726
 20
416.9813331397805
 30
0.0
 11
-1625.173372835726
 21
604.9811615815033
 31
0.0
  0
LINE
  5
59
330
1F
100
AcDbEntity
  8
1-2
  6
Continuous
 62
     3
370
     9
100
AcDbLine
 10
-672.9729729729729
 20
-509.0189011032517
 30
0.0
 11
-1668.972943280194
 21
-509.0189011032517
 31
0.0
  0
LINE
  5
5A
330
1F
100
AcDbEntity
  8
1-2
  6
Continuous
 62
     3
370
     9
100
AcDbLine
 10
-1668.972943280194
 20
204.9809553816513
 30
0.0
 11
-672.9729729729729
 21
204.9809553816513
 31
0.0
  0
LINE
  5
5B
330
1F
100
AcDbEntity
  8
1-2
  6
Continuous
 62
     3
370
     9
100
AcDbLine
 10
-1668.972943280194
 20
216.9815393396328
 30
0.0
 11
-672.9729729729729
 21
216.9815393396328
 31
0.0
  0
LINE
  5
5C
330
1F
100
AcDbEntity
  8
1-2
  6
Continuous
 62
     3
370
     9
100
AcDbLine
 10
-1654.973292995144
 20
216.9815393396328
 30
0.0
 11
-1654.973292995144
 21
404.9809966216216
 31
0.0
  0
LINE
  5
5D
330
1F
100
AcDbEntity
  8
1-2
  6
Continuous
 62
     3
370
     9
100
AcDbLine
 10
-686.9731181376687
 20
404.9809966216216
 30
0.0
 11
-686.9731181376687
 21
216.9815393396328
 31
0.0
  0
LINE
  5
5E
330
1F
100
AcDbEntity
  8
1-2
  6
Continuous
 62
     3
370
     9
100
AcDbLine
 10
-1639.173765440245
 20
216.9815393396328
 30
0.0
 11
-1639.173765440245
 21
404.9809966216216
 31
0.0
  0
LINE
  5
5F
330
1F
100
AcDbEntity
  8
1-2
  6
Continuous
 62
     3
370
     9
100
AcDbLine
 10
-1625.173372835726
 20
216.9815393396328
 30
0.0
 11
-1625.173372835726
 21
404.9809966216216
 31
0.0
  0
LINE
  5
60
330
1F
100
AcDbEntity
  8
1-2
  6
Continuous
 62
     3
370
     9
100
AcDbLine
 10
-1668.972943280194
 20
4.981037861592199
 30
0.0
 11
-672.9729729729729
 21
4.981037861592199
 31
0.0
  0
LINE
  5
61
330
1F
100
AcDbEntity
  8
1-2
  6
Continuous
 62
     3
370
     9
100
AcDbLine
 10
-1668.972943280194
 20
16.9811269399284
 30
0.0
 11
-672.9729729729729
 21
16.9811269399284
 31
0.0
  0
LINE
  5
62
330
1F
100
AcDbEntity
  8
1-2
  6
Continuous
 62
     3
370
     9
100
AcDbLine
 10
-1654.973292995144
 20
16.9811269399284
 30
0.0
 11
-1654.973292995144
 21
204.9809553816513
 31
0.0
  0
LINE
  5
63
330
1F
100
AcDbEntity
  8
1-2
  6
Continuous
 62
     3
370
     9
100
AcDbLine
 10
-686.9731181376687
 20
204.9809553816513
 30
0.0
 11
-686.9731181376687
 21
16.9811269399284
 31
0.0
  0
LINE
  5
64
330
1F
100
AcDbEntity
  8
1-2
  6
Continuous
 62
     3
370
     9
100
AcDbLine
 10
-1639.173765440245
 20
16.9811269399284
 30
0.0
 11
-1639.173765440245
 21
204.9809553816513
 31
0.0
  0
LINE
  5
65
330
1F
100
AcDbEntity
  8
1-2
  6
Continuous
 62
     3
370
     9
100
AcDbLine
 10
-1625.173372835726
 20
16.9811269399284
 30
0.0
 11
-1625.173372835726
 21
204.9809553816513
 31
0.0
  0
LINE
  5
66
330
1F
100
AcDbEntity
  8
1-2
  6
Continuous
 62
     3
370
     9
100
AcDbLine
 10
-1668.972943280194
 20
-195.019250818201
 30
0.0
 11
-672.9729729729729
 21
-195.019250818201
 31
0.0
  0
LINE
  5
67
330
1F
100
AcDbEntity
  8
1-2
  6
Continuous
 62
     3
370
     9
100
AcDbLine
 10
-1668.972943280194
 20
-183.0187905801307
 30
0.0
 11
-672.9729729729729
 21
-183.0187905801307
 31
0.0
  0
LINE
  5
68
330
1F
100
AcDbEntity
  8
1-2
  6
JWW_CENTER1
 62
     3
370
     9
100
AcDbLine
 10
-152.450891443201
 20
110.9814123205237
 30
0.0
 11
82.36207704286329
 21
110.9814123205237
 31
0.0
  0
LINE
  5
69
330
1F
100
AcDbEntity
  8
1-A
  6
Continuous
 62
     3
370
     9
100
AcDbLine
 10
-109.150407120988
 20
717.6954444679054
 30
0.0
 11
-109.150407120988
 21
711.6950287690033
 31
0.0
  0
LINE
  5
6A
330
1F
100
AcDbEntity
  8
1-A
  6
Continuous
 62
     3
370
     9
100
AcDbLine
 10
-109.150407120988
 20
717.6954444679054
 30
0.0
 11
-106.1499518317143
 21
719.6947582347974
 31
0.0
  0
LINE
  5
6B
330
1F
100
AcDbEntity
  8
1-A
  6
Continuous
 62
     3
370
     9
100
AcDbLine
 10
-109.150407120988
 20
685.4691294077281
 30
0.0
 11
-106.1499518317143
 21
683.4690733213682
 31
0.0
  0
LINE
  5
6C
330
1F
100
AcDbEntity
  8
1-A
  6
Continuous
 62
     3
370
     9
100
AcDbLine
 10
-109.150407120988
 20
697.468723606419
 30
0.0
 11
-109.150407120988
 21
685.4691294077281
 31
0.0
  0
LINE
  5
6D
330
1F
100
AcDbEntity
  8
1-A
  6
Continuous
 62
     3
370
     9
100
AcDbLine
 10
-109.150407120988
 20
697.468723606419
 30
0.0
 11
-106.1499518317143
 21
699.4695220122467
 31
0.0
  0
LINE
  5
6E
330
1F
100
AcDbEntity
  8
1-A
  6
Continuous
 62
     3
370
     9
100
AcDbLine
 10
-106.1499518317143
 20
709.6949726826438
 30
0.0
 11
-106.1499518317143
 21
699.4695220122467
 31
0.0
  0
LINE
  5
6F
330
1F
100
AcDbEntity
  8
1-A
  6
Continuous
 62
     3
370
     9
100
AcDbLine
 10
-109.150407120988
 20
711.6950287690033
 30
0.0
 11
-106.1499518317143
 21
709.6949726826438
 31
0.0
  0
LINE
  5
70
330
1F
100
AcDbEntity
  8
1-A
  6
Continuous
 62
     3
370
     9
100
AcDbLine
 10
-109.150407120988
 20
671.2435665646117
 30
0.0
 11
-109.150407120988
 21
665.2431508657096
 31
0.0
  0
LINE
  5
71
330
1F
100
AcDbEntity
  8
1-A
  6
Continuous
 62
     3
370
     9
100
AcDbLine
 10
-109.150407120988
 20
671.2435665646117
 30
0.0
 11
-106.1499518317143
 21
673.2428803315033
 31
0.0
  0
LINE
  5
72
330
1F
100
AcDbEntity
  8
1-A
  6
Continuous
 62
     3
370
     9
100
AcDbLine
 10
-109.150407120988
 20
639.0172515044342
 30
0.0
 11
-106.1499518317143
 21
637.0171954180745
 31
0.0
  0
LINE
  5
73
330
1F
100
AcDbEntity
  8
1-A
  6
Continuous
 62
     3
370
     9
100
AcDbLine
 10
-109.150407120988
 20
651.0173405827703
 30
0.0
 11
-109.150407120988
 21
639.0172515044342
 31
0.0
  0
LINE
  5
74
330
1F
100
AcDbEntity
  8
1-A
  6
Continuous
 62
     3
370
     9
100
AcDbLine
 10
-109.150407120988
 20
651.0173405827703
 30
0.0
 11
-106.1499518317143
 21
653.0173966691302
 31
0.0
  0
LINE
  5
75
330
1F
100
AcDbEntity
  8
1-A
  6
Continuous
 62
     3
370
     9
100
AcDbLine
 10
-106.1499518317143
 20
663.2428473395271
 30
0.0
 11
-106.1499518317143
 21
653.0173966691302
 31
0.0
  0
LINE
  5
76
330
1F
100
AcDbEntity
  8
1-A
  6
Continuous
 62
     3
370
     9
100
AcDbLine
 10
-109.150407120988
 20
665.2431508657096
 30
0.0
 11
-106.1499518317143
 21
663.2428473395271
 31
0.0
  0
LINE
  5
77
330
1F
100
AcDbEntity
  8
1-A
  6
Continuous
 62
     3
370
     9
100
AcDbLine
 10
-106.1499518317143
 20
673.2428803315033
 30
0.0
 11
-106.1499518317143
 21
683.4690733213682
 31
0.0
  0
LINE
  5
78
330
1F
100
AcDbEntity
  8
1-A
  6
Continuous
 62
     3
370
     9
100
AcDbLine
 10
-109.150407120988
 20
624.791441221495
 30
0.0
 11
-109.150407120988
 21
618.791767842061
 31
0.0
  0
LINE
  5
79
330
1F
100
AcDbEntity
  8
1-A
  6
Continuous
 62
     3
370
     9
100
AcDbLine
 10
-109.150407120988
 20
624.791441221495
 30
0.0
 11
-106.1499518317143
 21
626.7910024282096
 31
0.0
  0
LINE
  5
7A
330
1F
100
AcDbEntity
  8
1-A
  6
Continuous
 62
     3
370
     9
100
AcDbLine
 10
-109.150407120988
 20
592.5651261613177
 30
0.0
 11
-106.1499518317143
 21
590.5650700749578
 31
0.0
  0
LINE
  5
7B
330
1F
100
AcDbEntity
  8
1-A
  6
Continuous
 62
     3
370
     9
100
AcDbLine
 10
-109.150407120988
 20
604.565215239654
 30
0.0
 11
-109.150407120988
 21
592.5651261613177
 31
0.0
  0
LINE
  5
7C
330
1F
100
AcDbEntity
  8
1-A
  6
Continuous
 62
     3
370
     9
100
AcDbLine
 10
-109.150407120988
 20
604.565215239654
 30
0.0
 11
-106.1499518317143
 21
606.5647764463682
 31
0.0
  0
LINE
  5
7D
330
1F
100
AcDbEntity
  8
1-A
  6
Continuous
 62
     3
370
     9
100
AcDbLine
 10
-106.1499518317143
 20
616.7909694362334
 30
0.0
 11
-106.1499518317143
 21
606.5647764463682
 31
0.0
  0
LINE
  5
7E
330
1F
100
AcDbEntity
  8
1-A
  6
Continuous
 62
     3
370
     9
100
AcDbLine
 10
-109.150407120988
 20
618.791767842061
 30
0.0
 11
-106.1499518317143
 21
616.7909694362334
 31
0.0
  0
LINE
  5
7F
330
1F
100
AcDbEntity
  8
1-A
  6
Continuous
 62
     3
370
     9
100
AcDbLine
 10
-106.1499518317143
 20
626.7910024282096
 30
0.0
 11
-106.1499518317143
 21
637.0171954180745
 31
0.0
  0
LINE
  5
80
330
1F
100
AcDbEntity
  8
1-A
  6
Continuous
 62
     3
370
     9
100
AcDbLine
 10
-109.150407120988
 20
578.3388209987334
 30
0.0
 11
-109.150407120988
 21
572.3391476192992
 31
0.0
  0
LINE
  5
81
330
1F
100
AcDbEntity
  8
1-A
  6
Continuous
 62
     3
370
     9
100
AcDbLine
 10
-109.150407120988
 20
578.3388209987334
 30
0.0
 11
-106.1499518317143
 21
580.3388770850929
 31
0.0
  0
LINE
  5
82
330
1F
100
AcDbEntity
  8
1-A
  6
Continuous
 62
     3
370
     9
100
AcDbLine
 10
-109.150407120988
 20
572.3391476192992
 30
0.0
 11
-106.1499518317143
 21
570.3395864125846
 31
0.0
  0
LINE
  5
83
330
1F
100
AcDbEntity
  8
1-A
  6
Continuous
 62
     3
370
     9
100
AcDbLine
 10
-106.1499518317143
 20
580.3388770850929
 30
0.0
 11
-106.1499518317143
 21
590.5650700749578
 31
0.0
  0
LINE
  5
84
330
1F
100
AcDbEntity
  8
1-A
  6
Continuous
 62
     3
370
     9
100
AcDbLine
 10
-106.1499518317143
 20
730.9817257442992
 30
0.0
 11
-106.1499518317143
 21
719.6947582347974
 31
0.0
  0
LINE
  5
85
330
1F
100
AcDbEntity
  8
1-A
  6
Continuous
 62
     3
370
     9
100
AcDbLine
 10
-109.150407120988
 20
546.1127533783783
 30
0.0
 11
-106.1499518317143
 21
544.1131921716641
 31
0.0
  0
LINE
  5
86
330
1F
100
AcDbEntity
  8
1-A
  6
Continuous
 62
     3
370
     9
100
AcDbLine
 10
-109.150407120988
 20
558.1125950168919
 30
0.0
 11
-109.150407120988
 21
546.1127533783783
 31
0.0
  0
LINE
  5
87
330
1F
100
AcDbEntity
  8
1-A
  6
Continuous
 62
     3
370
     9
100
AcDbLine
 10
-109.150407120988
 20
558.1125950168919
 30
0.0
 11
-106.1499518317143
 21
560.1133934227198
 31
0.0
  0
LINE
  5
88
330
1F
100
AcDbEntity
  8
1-A
  6
Continuous
 62
     3
370
     9
100
AcDbLine
 10
-106.1499518317143
 20
570.3395864125846
 30
0.0
 11
-106.1499518317143
 21
560.1133934227198
 31
0.0
  0
LINE
  5
89
330
1F
100
AcDbEntity
  8
1-A
  6
Continuous
 62
     3
370
     9
100
AcDbLine
 10
-109.150407120988
 20
531.8874379750846
 30
0.0
 11
-109.150407120988
 21
525.8870222761825
 31
0.0
  0
LINE
  5
8A
330
1F
100
AcDbEntity
  8
1-A
  6
Continuous
 62
     3
370
     9
100
AcDbLine
 10
-109.150407120988
 20
531.8874379750846
 30
0.0
 11
-106.1499518317143
 21
533.8869991817992
 31
0.0
  0
LINE
  5
8B
330
1F
100
AcDbEntity
  8
1-A
  6
Continuous
 62
     3
370
     9
100
AcDbLine
 10
-109.150407120988
 20
525.8870222761825
 30
0.0
 11
-106.1499518317143
 21
523.8869661898227
 31
0.0
  0
LINE
  5
8C
330
1F
100
AcDbEntity
  8
1-A
  6
Continuous
 62
     3
370
     9
100
AcDbLine
 10
-106.1499518317143
 20
533.8869991817992
 30
0.0
 11
-106.1499518317143
 21
544.1131921716641
 31
0.0
  0
LINE
  5
8D
330
1F
100
AcDbEntity
  8
1-A
  6
Continuous
 62
     3
370
     9
100
AcDbLine
 10
-109.150407120988
 20
499.66137035473
 30
0.0
 11
-106.1499518317143
 21
497.6610668285474
 31
0.0
  0
LINE
  5
8E
330
1F
100
AcDbEntity
  8
1-A
  6
Continuous
 62
     3
370
     9
100
AcDbLine
 10
-109.150407120988
 20
511.6607171135982
 30
0.0
 11
-109.150407120988
 21
499.66137035473
 31
0.0
  0
LINE
  5
8F
330
1F
100
AcDbEntity
  8
1-A
  6
Continuous
 62
     3
370
     9
100
AcDbLine
 10
-109.150407120988
 20
511.6607171135982
 30
0.0
 11
-106.1499518317143
 21
513.6607731999578
 31
0.0
  0
LINE
  5
90
330
1F
100
AcDbEntity
  8
1-A
  6
Continuous
 62
     3
370
     9
100
AcDbLine
 10
-106.1499518317143
 20
523.8869661898227
 30
0.0
 11
-106.1499518317143
 21
513.6607731999578
 31
0.0
  0
LINE
  5
91
330
1F
100
AcDbEntity
  8
1-A
  6
Continuous
 62
     3
370
     9
100
AcDbLine
 10
-109.150407120988
 20
485.4348177523227
 30
0.0
 11
-109.150407120988
 21
479.4346494932432
 31
0.0
  0
LINE
  5
92
330
1F
100
AcDbEntity
  8
1-A
  6
Continuous
 62
     3
370
     9
100
AcDbLine
 10
-109.150407120988
 20
485.4348177523227
 30
0.0
 11
-106.1499518317143
 21
487.4348738386826
 31
0.0
  0
LINE
  5
93
330
1F
100
AcDbEntity
  8
1-A
  6
Continuous
 62
     3
370
     9
100
AcDbLine
 10
-109.150407120988
 20
479.4346494932432
 30
0.0
 11
-106.1499518317143
 21
477.4350882865289
 31
0.0
  0
LINE
  5
94
330
1F
100
AcDbEntity
  8
1-A
  6
Continuous
 62
     3
370
     9
100
AcDbLine
 10
-106.1499518317143
 20
487.4348738386826
 30
0.0
 11
-106.1499518317143
 21
497.6610668285474
 31
0.0
  0
LINE
  5
95
330
1F
100
AcDbEntity
  8
1-A
  6
Continuous
 62
     3
370
     9
100
AcDbLine
 10
-106.1499518317143
 20
477.4350882865289
 30
0.0
 11
-106.1499518317143
 21
467.2088952966641
 31
0.0
  0
LINE
  5
96
330
1F
100
AcDbEntity
  8
1-2
  6
Continuous
 62
     3
370
     9
100
AcDbLine
 10
-15.15074033994921
 20
721.9818445154141
 30
0.0
 11
-15.15074033994921
 21
-500.0190198743666
 31
0.0
  0
LINE
  5
97
330
1F
100
AcDbEntity
  8
1-2
  6
Continuous
 62
     3
370
     9
100
AcDbLine
 10
-87.15053249049816
 20
-500.0190198743666
 30
0.0
 11
-87.15053249049816
 21
721.9818445154141
 31
0.0
  0
LINE
  5
98
330
1F
100
AcDbEntity
  8
1-2
  6
Continuous
 62
     3
370
     9
100
AcDbLine
 10
-90.14999802048123
 20
-500.0190198743666
 30
0.0
 11
-90.14999802048123
 21
721.9818445154141
 31
0.0
  0
LINE
  5
99
330
1F
100
AcDbEntity
  8
1-2
  6
Continuous
 62
     3
370
     9
100
AcDbLine
 10
-12.15003761085285
 20
721.9818445154141
 30
0.0
 11
-12.15003761085285
 21
-500.0190198743666
 31
0.0
  0
LINE
  5
9A
330
1F
100
AcDbEntity
  8
1-A
  6
Continuous
 62
     3
370
     9
100
AcDbLine
 10
-109.150407120988
 20
453.208750131968
 30
0.0
 11
-106.1499518317143
 21
451.2086940456084
 31
0.0
  0
LINE
  5
9B
330
1F
100
AcDbEntity
  8
1-A
  6
Continuous
 62
     3
370
     9
100
AcDbLine
 10
-109.150407120988
 20
465.2088392103042
 30
0.0
 11
-109.150407120988
 21
453.208750131968
 31
0.0
  0
LINE
  5
9C
330
1F
100
AcDbEntity
  8
1-A
  6
Continuous
 62
     3
370
     9
100
AcDbLine
 10
-109.150407120988
 20
465.2088392103042
 30
0.0
 11
-106.1499518317143
 21
467.2088952966641
 31
0.0
  0
LINE
  5
9D
330
1F
100
AcDbEntity
  8
1-A
  6
Continuous
 62
     3
370
     9
100
AcDbLine
 10
-109.150407120988
 20
438.9829398490289
 30
0.0
 11
-109.150407120988
 21
432.9825241501268
 31
0.0
  0
LINE
  5
9E
330
1F
100
AcDbEntity
  8
1-A
  6
Continuous
 62
     3
370
     9
100
AcDbLine
 10
-109.150407120988
 20
438.9829398490289
 30
0.0
 11
-106.1499518317143
 21
440.9825010557432
 31
0.0
  0
LINE
  5
9F
330
1F
100
AcDbEntity
  8
1-A
  6
Continuous
 62
     3
370
     9
100
AcDbLine
 10
-109.150407120988
 20
432.9825241501268
 30
0.0
 11
-106.1499518317143
 21
430.9824680637669
 31
0.0
  0
LINE
  5
A0
330
1F
100
AcDbEntity
  8
1-A
  6
Continuous
 62
     3
370
     9
100
AcDbLine
 10
-106.1499518317143
 20
440.9825010557432
 30
0.0
 11
-106.1499518317143
 21
451.2086940456084
 31
0.0
  0
LINE
  5
A1
330
1F
100
AcDbEntity
  8
1-A
  6
Continuous
 62
     3
370
     9
100
AcDbLine
 10
-106.1499518317143
 20
430.9824680637669
 30
0.0
 11
-106.1499518317143
 21
420.7562750739021
 31
0.0
  0
LINE
  5
A2
330
1F
100
AcDbEntity
  8
1-A
  6
Continuous
 62
     3
370
     9
100
AcDbLine
 10
-109.150407120988
 20
406.7566247888516
 30
0.0
 11
-106.1499518317143
 21
404.7565687024917
 31
0.0
  0
LINE
  5
A3
330
1F
100
AcDbEntity
  8
1-A
  6
Continuous
 62
     3
370
     9
100
AcDbLine
 10
-109.150407120988
 20
418.7559715477198
 30
0.0
 11
-109.150407120988
 21
406.7566247888516
 31
0.0
  0
LINE
  5
A4
330
1F
100
AcDbEntity
  8
1-A
  6
Continuous
 62
     3
370
     9
100
AcDbLine
 10
-109.150407120988
 20
418.7559715477198
 30
0.0
 11
-106.1499518317143
 21
420.7562750739021
 31
0.0
  0
LINE
  5
A5
330
1F
100
AcDbEntity
  8
1-A
  6
Continuous
 62
     3
370
     9
100
AcDbLine
 10
-109.150407120988
 20
392.5303196262669
 30
0.0
 11
-109.150407120988
 21
386.5299039273648
 31
0.0
  0
LINE
  5
A6
330
1F
100
AcDbEntity
  8
1-A
  6
Continuous
 62
     3
370
     9
100
AcDbLine
 10
-109.150407120988
 20
392.5303196262669
 30
0.0
 11
-106.1499518317143
 21
394.5303757126268
 31
0.0
  0
LINE
  5
A7
330
1F
100
AcDbEntity
  8
1-A
  6
Continuous
 62
     3
370
     9
100
AcDbLine
 10
-109.150407120988
 20
386.5299039273648
 30
0.0
 11
-106.1499518317143
 21
384.5305901604732
 31
0.0
  0
LINE
  5
A8
330
1F
100
AcDbEntity
  8
1-A
  6
Continuous
 62
     3
370
     9
100
AcDbLine
 10
-106.1499518317143
 20
394.5303757126268
 30
0.0
 11
-106.1499518317143
 21
404.7565687024917
 31
0.0
  0
LINE
  5
A9
330
1F
100
AcDbEntity
  8
1-A
  6
Continuous
 62
     3
370
     9
100
AcDbLine
 10
-106.1499518317143
 20
384.5305901604732
 30
0.0
 11
-106.1499518317143
 21
374.3043971706081
 31
0.0
  0
LINE
  5
AA
330
1F
100
AcDbEntity
  8
1-A
  6
Continuous
 62
     3
370
     9
100
AcDbLine
 10
-109.150407120988
 20
360.3047468855576
 30
0.0
 11
-106.1499518317143
 21
358.30394847973
 31
0.0
  0
LINE
  5
AB
330
1F
100
AcDbEntity
  8
1-A
  6
Continuous
 62
     3
370
     9
100
AcDbLine
 10
-109.150407120988
 20
372.3040936444258
 30
0.0
 11
-109.150407120988
 21
360.3047468855576
 31
0.0
  0
LINE
  5
AC
330
1F
100
AcDbEntity
  8
1-A
  6
Continuous
 62
     3
370
     9
100
AcDbLine
 10
-109.150407120988
 20
372.3040936444258
 30
0.0
 11
-106.1499518317143
 21
374.3043971706081
 31
0.0
  0
LINE
  5
AD
330
1F
100
AcDbEntity
  8
1-A
  6
Continuous
 62
     3
370
     9
100
AcDbLine
 10
-109.150407120988
 20
346.0784417229732
 30
0.0
 11
-109.150407120988
 21
340.0780260240711
 31
0.0
  0
LINE
  5
AE
330
1F
100
AcDbEntity
  8
1-A
  6
Continuous
 62
     3
370
     9
100
AcDbLine
 10
-109.150407120988
 20
346.0784417229732
 30
0.0
 11
-106.1499518317143
 21
348.0777554898648
 31
0.0
  0
LINE
  5
AF
330
1F
100
AcDbEntity
  8
1-A
  6
Continuous
 62
     3
370
     9
100
AcDbLine
 10
-109.150407120988
 20
340.0780260240711
 30
0.0
 11
-106.1499518317143
 21
338.0779699377112
 31
0.0
  0
LINE
  5
B0
330
1F
100
AcDbEntity
  8
1-A
  6
Continuous
 62
     3
370
     9
100
AcDbLine
 10
-106.1499518317143
 20
348.0777554898648
 30
0.0
 11
-106.1499518317143
 21
358.30394847973
 31
0.0
  0
LINE
  5
B1
330
1F
100
AcDbEntity
  8
1-A
  6
Continuous
 62
     3
370
     9
100
AcDbLine
 10
-106.1499518317143
 20
338.0779699377112
 30
0.0
 11
-106.1499518317143
 21
327.8517769478464
 31
0.0
  0
LINE
  5
B2
330
1F
100
AcDbEntity
  8
1-A
  6
Continuous
 62
     3
370
     9
100
AcDbLine
 10
-109.150407120988
 20
313.8523741026182
 30
0.0
 11
-106.1499518317143
 21
311.8520705764359
 31
0.0
  0
LINE
  5
B3
330
1F
100
AcDbEntity
  8
1-A
  6
Continuous
 62
     3
370
     9
100
AcDbLine
 10
-109.150407120988
 20
325.8517208614865
 30
0.0
 11
-109.150407120988
 21
313.8523741026182
 31
0.0
  0
LINE
  5
B4
330
1F
100
AcDbEntity
  8
1-A
  6
Continuous
 62
     3
370
     9
100
AcDbLine
 10
-109.150407120988
 20
325.8517208614865
 30
0.0
 11
-106.1499518317143
 21
327.8517769478464
 31
0.0
  0
LINE
  5
B5
330
1F
100
AcDbEntity
  8
1-A
  6
Continuous
 62
     3
370
     9
100
AcDbLine
 10
-109.150407120988
 20
299.6258215002112
 30
0.0
 11
-109.150407120988
 21
293.6261481207771
 31
0.0
  0
LINE
  5
B6
330
1F
100
AcDbEntity
  8
1-A
  6
Continuous
 62
     3
370
     9
100
AcDbLine
 10
-109.150407120988
 20
299.6258215002112
 30
0.0
 11
-106.1499518317143
 21
301.6258775865711
 31
0.0
  0
LINE
  5
B7
330
1F
100
AcDbEntity
  8
1-A
  6
Continuous
 62
     3
370
     9
100
AcDbLine
 10
-109.150407120988
 20
293.6261481207771
 30
0.0
 11
-106.1499518317143
 21
291.6258445945948
 31
0.0
  0
LINE
  5
B8
330
1F
100
AcDbEntity
  8
1-A
  6
Continuous
 62
     3
370
     9
100
AcDbLine
 10
-106.1499518317143
 20
301.6258775865711
 30
0.0
 11
-106.1499518317143
 21
311.8520705764359
 31
0.0
  0
LINE
  5
B9
330
1F
100
AcDbEntity
  8
1-A
  6
Continuous
 62
     3
370
     9
100
AcDbLine
 10
-106.1499518317143
 20
291.6258445945948
 30
0.0
 11
-106.1499518317143
 21
281.39965160473
 31
0.0
  0
LINE
  5
BA
330
1F
100
AcDbEntity
  8
1-A
  6
Continuous
 62
     3
370
     9
100
AcDbLine
 10
-109.150407120988
 20
267.3995064400339
 30
0.0
 11
-106.1499518317143
 21
265.3996977934966
 31
0.0
  0
LINE
  5
BB
330
1F
100
AcDbEntity
  8
1-A
  6
Continuous
 62
     3
370
     9
100
AcDbLine
 10
-109.150407120988
 20
279.3998429581927
 30
0.0
 11
-109.150407120988
 21
267.3995064400339
 31
0.0
  0
LINE
  5
BC
330
1F
100
AcDbEntity
  8
1-A
  6
Continuous
 62
     3
370
     9
100
AcDbLine
 10
-109.150407120988
 20
279.3998429581927
 30
0.0
 11
-106.1499518317143
 21
281.39965160473
 31
0.0
  0
LINE
  5
BD
330
1F
100
AcDbEntity
  8
1-A
  6
Continuous
 62
     3
370
     9
100
AcDbLine
 10
-109.150407120988
 20
253.173819877006
 30
0.0
 11
-109.150407120988
 21
247.1735278980154
 31
0.0
  0
LINE
  5
BE
330
1F
100
AcDbEntity
  8
1-A
  6
Continuous
 62
     3
370
     9
100
AcDbLine
 10
-109.150407120988
 20
253.173819877006
 30
0.0
 11
-106.1499518317143
 21
255.1733810837206
 31
0.0
  0
LINE
  5
BF
330
1F
100
AcDbEntity
  8
1-A
  6
Continuous
 62
     3
370
     9
100
AcDbLine
 10
-109.150407120988
 20
247.1735278980154
 30
0.0
 11
-106.1499518317143
 21
245.1733480917443
 31
0.0
  0
LINE
  5
C0
330
1F
100
AcDbEntity
  8
1-A
  6
Continuous
 62
     3
370
     9
100
AcDbLine
 10
-106.1499518317143
 20
255.1733810837206
 30
0.0
 11
-106.1499518317143
 21
265.3996977934966
 31
0.0
  0
LINE
  5
C1
330
1F
100
AcDbEntity
  8
1-A
  6
Continuous
 62
     3
370
     9
100
AcDbLine
 10
-106.1499518317143
 20
245.1733480917443
 30
0.0
 11
-106.1499518317143
 21
234.9471551018794
 31
0.0
  0
LINE
  5
C2
330
1F
100
AcDbEntity
  8
1-A
  6
Continuous
 62
     3
370
     9
100
AcDbLine
 10
-109.150407120988
 20
220.9476285367398
 30
0.0
 11
-106.1499518317143
 21
218.9469538508234
 31
0.0
  0
LINE
  5
C3
330
1F
100
AcDbEntity
  8
1-A
  6
Continuous
 62
     3
370
     9
100
AcDbLine
 10
-109.150407120988
 20
232.9470990155195
 30
0.0
 11
-109.150407120988
 21
220.9476285367398
 31
0.0
  0
LINE
  5
C4
330
1F
100
AcDbEntity
  8
1-A
  6
Continuous
 62
     3
370
     9
100
AcDbLine
 10
-109.150407120988
 20
232.9470990155195
 30
0.0
 11
-106.1499518317143
 21
234.9471551018794
 31
0.0
  0
LINE
  5
C5
330
1F
100
AcDbEntity
  8
1-A
  6
Continuous
 62
     3
370
     9
100
AcDbLine
 10
-109.150407120988
 20
206.7211996542443
 30
0.0
 11
-109.150407120988
 21
200.7215262748102
 31
0.0
  0
LINE
  5
C6
330
1F
100
AcDbEntity
  8
1-A
  6
Continuous
 62
     3
370
     9
100
AcDbLine
 10
-109.150407120988
 20
206.7211996542443
 30
0.0
 11
-106.1499518317143
 21
208.7207608609586
 31
0.0
  0
LINE
  5
C7
330
1F
100
AcDbEntity
  8
1-A
  6
Continuous
 62
     3
370
     9
100
AcDbLine
 10
-109.150407120988
 20
200.7215262748102
 30
0.0
 11
-106.1499518317143
 21
198.7214701884503
 31
0.0
  0
LINE
  5
C8
330
1F
100
AcDbEntity
  8
1-A
  6
Continuous
 62
     3
370
     9
100
AcDbLine
 10
-106.1499518317143
 20
208.7207608609586
 30
0.0
 11
-106.1499518317143
 21
218.9469538508234
 31
0.0
  0
LINE
  5
C9
330
1F
100
AcDbEntity
  8
1-A
  6
Continuous
 62
     3
370
     9
100
AcDbLine
 10
-106.1499518317143
 20
198.7214701884503
 30
0.0
 11
-106.1499518317143
 21
188.4952771985854
 31
0.0
  0
LINE
  5
CA
330
1F
100
AcDbEntity
  8
1-A
  6
Continuous
 62
     3
370
     9
100
AcDbLine
 10
-109.150407120988
 20
174.4950083139781
 30
0.0
 11
-106.1499518317143
 21
172.4950759475297
 31
0.0
  0
LINE
  5
CB
330
1F
100
AcDbEntity
  8
1-A
  6
Continuous
 62
     3
370
     9
100
AcDbLine
 10
-109.150407120988
 20
186.4950973923143
 30
0.0
 11
-109.150407120988
 21
174.4950083139781
 31
0.0
  0
LINE
  5
CC
330
1F
100
AcDbEntity
  8
1-A
  6
Continuous
 62
     3
370
     9
100
AcDbLine
 10
-109.150407120988
 20
186.4950973923143
 30
0.0
 11
-106.1499518317143
 21
188.4952771985854
 31
0.0
  0
LINE
  5
CD
330
1F
100
AcDbEntity
  8
1-A
  6
Continuous
 62
     3
370
     9
100
AcDbLine
 10
-109.150407120988
 20
160.2693217509503
 30
0.0
 11
-109.150407120988
 21
154.2689060520482
 31
0.0
  0
LINE
  5
CE
330
1F
100
AcDbEntity
  8
1-A
  6
Continuous
 62
     3
370
     9
100
AcDbLine
 10
-109.150407120988
 20
160.2693217509503
 30
0.0
 11
-106.1499518317143
 21
162.2688829576649
 31
0.0
  0
LINE
  5
CF
330
1F
100
AcDbEntity
  8
1-A
  6
Continuous
 62
     3
370
     9
100
AcDbLine
 10
-109.150407120988
 20
154.2689060520482
 30
0.0
 11
-106.1499518317143
 21
152.2688499656886
 31
0.0
  0
LINE
  5
D0
330
1F
100
AcDbEntity
  8
1-A
  6
Continuous
 62
     3
370
     9
100
AcDbLine
 10
-106.1499518317143
 20
162.2688829576649
 30
0.0
 11
-106.1499518317143
 21
172.4950759475297
 31
0.0
  0
LINE
  5
D1
330
1F
100
AcDbEntity
  8
1-A
  6
Continuous
 62
     3
370
     9
100
AcDbLine
 10
-106.1499518317143
 20
152.2688499656886
 30
0.0
 11
-106.1499518317143
 21
142.0426569758234
 31
0.0
  0
LINE
  5
D2
330
1F
100
AcDbEntity
  8
1-A
  6
Continuous
 62
     3
370
     9
100
AcDbLine
 10
-109.150407120988
 20
128.0431304106841
 30
0.0
 11
-106.1499518317143
 21
126.0430743243245
 31
0.0
  0
LINE
  5
D3
330
1F
100
AcDbEntity
  8
1-A
  6
Continuous
 62
     3
370
     9
100
AcDbLine
 10
-109.150407120988
 20
140.0424771695523
 30
0.0
 11
-109.150407120988
 21
128.0431304106841
 31
0.0
  0
LINE
  5
D4
330
1F
100
AcDbEntity
  8
1-A
  6
Continuous
 62
     3
370
     9
100
AcDbLine
 10
-109.150407120988
 20
140.0424771695523
 30
0.0
 11
-106.1499518317143
 21
142.0426569758234
 31
0.0
  0
LINE
  5
D5
330
1F
100
AcDbEntity
  8
1-A
  6
Continuous
 62
     3
370
     9
100
AcDbLine
 10
-109.150407120988
 20
113.8167015281886
 30
0.0
 11
-109.150407120988
 21
107.816904428843
 31
0.0
  0
LINE
  5
D6
330
1F
100
AcDbEntity
  8
1-A
  6
Continuous
 62
     3
370
     9
100
AcDbLine
 10
-109.150407120988
 20
113.8167015281886
 30
0.0
 11
-106.1499518317143
 21
115.8167576145482
 31
0.0
  0
LINE
  5
D7
330
1F
100
AcDbEntity
  8
1-A
  6
Continuous
 62
     3
370
     9
100
AcDbLine
 10
-109.150407120988
 20
107.816904428843
 30
0.0
 11
-106.1499518317143
 21
105.816353462838
 31
0.0
  0
LINE
  5
D8
330
1F
100
AcDbEntity
  8
1-A
  6
Continuous
 62
     3
370
     9
100
AcDbLine
 10
-106.1499518317143
 20
115.8167576145482
 30
0.0
 11
-106.1499518317143
 21
126.0430743243245
 31
0.0
  0
LINE
  5
D9
330
1F
100
AcDbEntity
  8
1-A
  6
Continuous
 62
     3
370
     9
100
AcDbLine
 10
-106.1499518317143
 20
105.816353462838
 30
0.0
 11
-106.1499518317143
 21
95.5901604729732
 31
0.0
  0
LINE
  5
DA
330
1F
100
AcDbEntity
  8
1-A
  6
Continuous
 62
     3
370
     9
100
AcDbLine
 10
-109.150407120988
 20
81.5905101879224
 30
0.0
 11
-106.1499518317143
 21
79.59033038165131
 31
0.0
  0
LINE
  5
DB
330
1F
100
AcDbEntity
  8
1-A
  6
Continuous
 62
     3
370
     9
100
AcDbLine
 10
-109.150407120988
 20
93.59059926625861
 30
0.0
 11
-109.150407120988
 21
81.5905101879224
 31
0.0
  0
LINE
  5
DC
330
1F
100
AcDbEntity
  8
1-A
  6
Continuous
 62
     3
370
     9
100
AcDbLine
 10
-109.150407120988
 20
93.59059926625861
 30
0.0
 11
-106.1499518317143
 21
95.5901604729732
 31
0.0
  0
LINE
  5
DD
330
1F
100
AcDbEntity
  8
1-A
  6
Continuous
 62
     3
370
     9
100
AcDbLine
 10
-109.150407120988
 20
67.36420502533804
 30
0.0
 11
-109.150407120988
 21
61.36440792599245
 31
0.0
  0
LINE
  5
DE
330
1F
100
AcDbEntity
  8
1-A
  6
Continuous
 62
     3
370
     9
100
AcDbLine
 10
-109.150407120988
 20
67.36420502533804
 30
0.0
 11
-106.1499518317143
 21
69.36413739178647
 31
0.0
  0
LINE
  5
DF
330
1F
100
AcDbEntity
  8
1-A
  6
Continuous
 62
     3
370
     9
100
AcDbLine
 10
-109.150407120988
 20
61.36440792599245
 30
0.0
 11
-106.1499518317143
 21
59.36435183963255
 31
0.0
  0
LINE
  5
E0
330
1F
100
AcDbEntity
  8
1-A
  6
Continuous
 62
     3
370
     9
100
AcDbLine
 10
-106.1499518317143
 20
69.36413739178647
 30
0.0
 11
-106.1499518317143
 21
79.59033038165131
 31
0.0
  0
LINE
  5
E1
330
1F
100
AcDbEntity
  8
1-A
  6
Continuous
 62
     3
370
     9
100
AcDbLine
 10
-106.1499518317143
 20
59.36435183963255
 30
0.0
 11
-106.1499518317143
 21
49.13815884976771
 31
0.0
  0
LINE
  5
E2
330
1F
100
AcDbEntity
  8
1-A
  6
Continuous
 62
     3
370
     9
100
AcDbLine
 10
-109.150407120988
 20
35.13863228462839
 30
0.0
 11
-106.1499518317143
 21
33.13845247835729
 31
0.0
  0
LINE
  5
E3
330
1F
100
AcDbEntity
  8
1-A
  6
Continuous
 62
     3
370
     9
100
AcDbLine
 10
-109.150407120988
 20
47.13797904349661
 30
0.0
 11
-109.150407120988
 21
35.13863228462839
 31
0.0
  0
LINE
  5
E4
330
1F
100
AcDbEntity
  8
1-A
  6
Continuous
 62
     3
370
     9
100
AcDbLine
 10
-109.150407120988
 20
47.13797904349661
 30
0.0
 11
-106.1499518317143
 21
49.13815884976771
 31
0.0
  0
LINE
  5
E5
330
1F
100
AcDbEntity
  8
1-A
  6
Continuous
 62
     3
370
     9
100
AcDbLine
 10
-109.150407120988
 20
20.91220340213255
 30
0.0
 11
-109.150407120988
 21
14.91240630278725
 31
0.0
  0
LINE
  5
E6
330
1F
100
AcDbEntity
  8
1-A
  6
Continuous
 62
     3
370
     9
100
AcDbLine
 10
-109.150407120988
 20
20.91220340213255
 30
0.0
 11
-106.1499518317143
 21
22.91225948849245
 31
0.0
  0
LINE
  5
E7
330
1F
100
AcDbEntity
  8
1-A
  6
Continuous
 62
     3
370
     9
100
AcDbLine
 10
-109.150407120988
 20
14.91240630278725
 30
0.0
 11
-106.1499518317143
 21
12.91222649651615
 31
0.0
  0
LINE
  5
E8
330
1F
100
AcDbEntity
  8
1-A
  6
Continuous
 62
     3
370
     9
100
AcDbLine
 10
-106.1499518317143
 20
22.91225948849245
 30
0.0
 11
-106.1499518317143
 21
33.13845247835729
 31
0.0
  0
LINE
  5
E9
330
1F
100
AcDbEntity
  8
1-A
  6
Continuous
 62
     3
370
     9
100
AcDbLine
 10
-106.1499518317143
 20
12.91222649651615
 30
0.0
 11
-106.1499518317143
 21
2.686033506651313
 31
0.0
  0
LINE
  5
EA
330
1F
100
AcDbEntity
  8
1-A
  6
Continuous
 62
     3
370
     9
100
AcDbLine
 10
-109.150407120988
 20
-11.31398793813332
 30
0.0
 11
-106.1499518317143
 21
-13.31416774440441
 31
0.0
  0
LINE
  5
EB
330
1F
100
AcDbEntity
  8
1-A
  6
Continuous
 62
     3
370
     9
100
AcDbLine
 10
-109.150407120988
 20
0.6861011402028794
 30
0.0
 11
-109.150407120988
 21
-11.31398793813332
 31
0.0
  0
LINE
  5
EC
330
1F
100
AcDbEntity
  8
1-A
  6
Continuous
 62
     3
370
     9
100
AcDbLine
 10
-109.150407120988
 20
0.6861011402028794
 30
0.0
 11
-106.1499518317143
 21
2.686033506651313
 31
0.0
  0
LINE
  5
ED
330
1F
100
AcDbEntity
  8
1-A
  6
Continuous
 62
     3
370
     9
100
AcDbLine
 10
-109.150407120988
 20
-25.53992194098385
 30
0.0
 11
-109.150407120988
 21
-31.54009020006328
 31
0.0
  0
LINE
  5
EE
330
1F
100
AcDbEntity
  8
1-A
  6
Continuous
 62
     3
370
     9
100
AcDbLine
 10
-109.150407120988
 20
-25.53992194098385
 30
0.0
 11
-106.1499518317143
 21
-23.54036073426926
 31
0.0
  0
LINE
  5
EF
330
1F
100
AcDbEntity
  8
1-A
  6
Continuous
 62
     3
370
     9
100
AcDbLine
 10
-109.150407120988
 20
-31.54009020006328
 30
0.0
 11
-106.1499518317143
 21
-33.54027000633437
 31
0.0
  0
LINE
  5
F0
330
1F
100
AcDbEntity
  8
1-A
  6
Continuous
 62
     3
370
     9
100
AcDbLine
 10
-106.1499518317143
 20
-23.54036073426926
 30
0.0
 11
-106.1499518317143
 21
-13.31416774440441
 31
0.0
  0
LINE
  5
F1
330
1F
100
AcDbEntity
  8
1-A
  6
Continuous
 62
     3
370
     9
100
AcDbLine
 10
-106.1499518317143
 20
-33.54027000633437
 30
0.0
 11
-106.1499518317143
 21
-43.76646299619921
 31
0.0
  0
LINE
  5
F2
330
1F
100
AcDbEntity
  8
1-A
  6
Continuous
 62
     3
370
     9
100
AcDbLine
 10
-109.150407120988
 20
-57.76598956133853
 30
0.0
 11
-106.1499518317143
 21
-59.76604564769843
 31
0.0
  0
LINE
  5
F3
330
1F
100
AcDbEntity
  8
1-A
  6
Continuous
 62
     3
370
     9
100
AcDbLine
 10
-109.150407120988
 20
-45.76651908255911
 30
0.0
 11
-109.150407120988
 21
-57.76598956133853
 31
0.0
  0
LINE
  5
F4
330
1F
100
AcDbEntity
  8
1-A
  6
Continuous
 62
     3
370
     9
100
AcDbLine
 10
-109.150407120988
 20
-45.76651908255911
 30
0.0
 11
-106.1499518317143
 21
-43.76646299619921
 31
0.0
  0
LINE
  5
F5
330
1F
100
AcDbEntity
  8
1-A
  6
Continuous
 62
     3
370
     9
100
AcDbLine
 10
-109.150407120988
 20
-71.99241844383437
 30
0.0
 11
-109.150407120988
 21
-77.99209182326848
 31
0.0
  0
LINE
  5
F6
330
1F
100
AcDbEntity
  8
1-A
  6
Continuous
 62
     3
370
     9
100
AcDbLine
 10
-109.150407120988
 20
-71.99241844383437
 30
0.0
 11
-106.1499518317143
 21
-69.99223863756328
 31
0.0
  0
LINE
  5
F7
330
1F
100
AcDbEntity
  8
1-A
  6
Continuous
 62
     3
370
     9
100
AcDbLine
 10
-109.150407120988
 20
-77.99209182326848
 30
0.0
 11
-106.1499518317143
 21
-79.99227162953957
 31
0.0
  0
LINE
  5
F8
330
1F
100
AcDbEntity
  8
1-A
  6
Continuous
 62
     3
370
     9
100
AcDbLine
 10
-106.1499518317143
 20
-69.99223863756328
 30
0.0
 11
-106.1499518317143
 21
-59.76604564769843
 31
0.0
  0
LINE
  5
F9
330
1F
100
AcDbEntity
  8
1-A
  6
Continuous
 62
     3
370
     9
100
AcDbLine
 10
-106.1499518317143
 20
-79.99227162953957
 30
0.0
 11
-106.1499518317143
 21
-90.21846461940441
 31
0.0
  0
LINE
  5
FA
330
1F
100
AcDbEntity
  8
1-A
  6
Continuous
 62
     3
370
     9
100
AcDbLine
 10
-109.150407120988
 20
-104.2186097841005
 30
0.0
 11
-106.1499518317143
 21
-106.2186658704601
 31
0.0
  0
LINE
  5
FB
330
1F
100
AcDbEntity
  8
1-A
  6
Continuous
 62
     3
370
     9
100
AcDbLine
 10
-109.150407120988
 20
-92.21839698585285
 30
0.0
 11
-109.150407120988
 21
-104.2186097841005
 31
0.0
  0
LINE
  5
FC
330
1F
100
AcDbEntity
  8
1-A
  6
Continuous
 62
     3
370
     9
100
AcDbLine
 10
-109.150407120988
 20
-92.21839698585285
 30
0.0
 11
-106.1499518317143
 21
-90.21846461940441
 31
0.0
  0
LINE
  5
FD
330
1F
100
AcDbEntity
  8
1-A
  6
Continuous
 62
     3
370
     9
100
AcDbLine
 10
-109.150407120988
 20
-118.4444200670396
 30
0.0
 11
-109.150407120988
 21
-124.4447120460302
 31
0.0
  0
LINE
  5
FE
330
1F
100
AcDbEntity
  8
1-A
  6
Continuous
 62
     3
370
     9
100
AcDbLine
 10
-109.150407120988
 20
-118.4444200670396
 30
0.0
 11
-106.1499518317143
 21
-116.444858860325
 31
0.0
  0
LINE
  5
FF
330
1F
100
AcDbEntity
  8
1-A
  6
Continuous
 62
     3
370
     9
100
AcDbLine
 10
-109.150407120988
 20
-124.4447120460302
 30
0.0
 11
-106.1499518317143
 21
-126.4447681323901
 31
0.0
  0
LINE
  5
100
330
1F
100
AcDbEntity
  8
1-A
  6
Continuous
 62
     3
370
     9
100
AcDbLine
 10
-106.1499518317143
 20
-116.444858860325
 30
0.0
 11
-106.1499518317143
 21
-106.2186658704601
 31
0.0
  0
LINE
  5
101
330
1F
100
AcDbEntity
  8
1-A
  6
Continuous
 62
     3
370
     9
100
AcDbLine
 10
-106.1499518317143
 20
-126.4447681323901
 30
0.0
 11
-106.1499518317143
 21
-136.6709611222549
 31
0.0
  0
LINE
  5
102
330
1F
100
AcDbEntity
  8
1-A
  6
Continuous
 62
     3
370
     9
100
AcDbLine
 10
-109.150407120988
 20
-150.6706114073057
 30
0.0
 11
-106.1499518317143
 21
-152.6706674936653
 31
0.0
  0
LINE
  5
103
330
1F
100
AcDbEntity
  8
1-A
  6
Continuous
 62
     3
370
     9
100
AcDbLine
 10
-109.150407120988
 20
-138.6710172086148
 30
0.0
 11
-109.150407120988
 21
-150.6706114073057
 31
0.0
  0
LINE
  5
104
330
1F
100
AcDbEntity
  8
1-A
  6
Continuous
 62
     3
370
     9
100
AcDbLine
 10
-109.150407120988
 20
-138.6710172086148
 30
0.0
 11
-106.1499518317143
 21
-136.6709611222549
 31
0.0
  0
LINE
  5
105
330
1F
100
AcDbEntity
  8
1-A
  6
Continuous
 62
     3
370
     9
100
AcDbLine
 10
-109.150407120988
 20
-164.8969165698901
 30
0.0
 11
-109.150407120988
 21
-170.8965899493242
 31
0.0
  0
LINE
  5
106
330
1F
100
AcDbEntity
  8
1-A
  6
Continuous
 62
     3
370
     9
100
AcDbLine
 10
-109.150407120988
 20
-164.8969165698901
 30
0.0
 11
-106.1499518317143
 21
-162.8968604835302
 31
0.0
  0
LINE
  5
107
330
1F
100
AcDbEntity
  8
1-A
  6
Continuous
 62
     3
370
     9
100
AcDbLine
 10
-109.150407120988
 20
-170.8965899493242
 30
0.0
 11
-106.1499518317143
 21
-172.8966460356841
 31
0.0
  0
LINE
  5
108
330
1F
100
AcDbEntity
  8
1-A
  6
Continuous
 62
     3
370
     9
100
AcDbLine
 10
-106.1499518317143
 20
-162.8968604835302
 30
0.0
 11
-106.1499518317143
 21
-152.6706674936653
 31
0.0
  0
LINE
  5
109
330
1F
100
AcDbEntity
  8
1-A
  6
Continuous
 62
     3
370
     9
100
AcDbLine
 10
-106.1499518317143
 20
-172.8966460356841
 30
0.0
 11
-106.1499518317143
 21
-183.122839025549
 31
0.0
  0
LINE
  5
10A
330
1F
100
AcDbEntity
  8
1-A
  6
Continuous
 62
     3
370
     9
100
AcDbLine
 10
-109.150407120988
 20
-197.1231079101562
 30
0.0
 11
-106.1499518317143
 21
-199.1231639965159
 31
0.0
  0
LINE
  5
10B
330
1F
100
AcDbEntity
  8
1-A
  6
Continuous
 62
     3
370
     9
100
AcDbLine
 10
-109.150407120988
 20
-185.12301883182
 30
0.0
 11
-109.150407120988
 21
-197.1231079101562
 31
0.0
  0
LINE
  5
10C
330
1F
100
AcDbEntity
  8
1-A
  6
Continuous
 62
     3
370
     9
100
AcDbLine
 10
-109.150407120988
 20
-185.12301883182
 30
0.0
 11
-106.1499518317143
 21
-183.122839025549
 31
0.0
  0
LINE
  5
10D
330
1F
100
AcDbEntity
  8
1-A
  6
Continuous
 62
     3
370
     9
100
AcDbLine
 10
-109.150407120988
 20
-211.3487944731841
 30
0.0
 11
-109.150407120988
 21
-217.3492101720861
 31
0.0
  0
LINE
  5
10E
330
1F
100
AcDbEntity
  8
1-A
  6
Continuous
 62
     3
370
     9
100
AcDbLine
 10
-109.150407120988
 20
-211.3487944731841
 30
0.0
 11
-106.1499518317143
 21
-209.3493569863809
 31
0.0
  0
LINE
  5
10F
330
1F
100
AcDbEntity
  8
1-A
  6
Continuous
 62
     3
370
     9
100
AcDbLine
 10
-109.150407120988
 20
-217.3492101720861
 30
0.0
 11
-106.1499518317143
 21
-219.3492662584458
 31
0.0
  0
LINE
  5
110
330
1F
100
AcDbEntity
  8
1-A
  6
Continuous
 62
     3
370
     9
100
AcDbLine
 10
-106.1499518317143
 20
-209.3493569863809
 30
0.0
 11
-106.1499518317143
 21
-199.1231639965159
 31
0.0
  0
LINE
  5
111
330
1F
100
AcDbEntity
  8
1-A
  6
Continuous
 62
     3
370
     9
100
AcDbLine
 10
-106.1499518317143
 20
-219.3492662584458
 30
0.0
 11
-106.1499518317143
 21
-229.5754592483108
 31
0.0
  0
LINE
  5
112
330
1F
100
AcDbEntity
  8
1-A
  6
Continuous
 62
     3
370
     9
100
AcDbLine
 10
-109.150407120988
 20
-243.5751095333615
 30
0.0
 11
-106.1499518317143
 21
-245.5751656197212
 31
0.0
  0
LINE
  5
113
330
1F
100
AcDbEntity
  8
1-A
  6
Continuous
 62
     3
370
     9
100
AcDbLine
 10
-109.150407120988
 20
-231.5756390545819
 30
0.0
 11
-109.150407120988
 21
-243.5751095333615
 31
0.0
  0
LINE
  5
114
330
1F
100
AcDbEntity
  8
1-A
  6
Continuous
 62
     3
370
     9
100
AcDbLine
 10
-109.150407120988
 20
-231.5756390545819
 30
0.0
 11
-106.1499518317143
 21
-229.5754592483108
 31
0.0
  0
LINE
  5
115
330
1F
100
AcDbEntity
  8
1-A
  6
Continuous
 62
     3
370
     9
100
AcDbLine
 10
-109.150407120988
 20
-257.8014146959458
 30
0.0
 11
-109.150407120988
 21
-263.8012117952912
 31
0.0
  0
LINE
  5
116
330
1F
100
AcDbEntity
  8
1-A
  6
Continuous
 62
     3
370
     9
100
AcDbLine
 10
-109.150407120988
 20
-257.8014146959458
 30
0.0
 11
-106.1499518317143
 21
-255.8013586095861
 31
0.0
  0
LINE
  5
117
330
1F
100
AcDbEntity
  8
1-A
  6
Continuous
 62
     3
370
     9
100
AcDbLine
 10
-109.150407120988
 20
-263.8012117952912
 30
0.0
 11
-106.1499518317143
 21
-265.8012678816511
 31
0.0
  0
LINE
  5
118
330
1F
100
AcDbEntity
  8
1-A
  6
Continuous
 62
     3
370
     9
100
AcDbLine
 10
-106.1499518317143
 20
-255.8013586095861
 30
0.0
 11
-106.1499518317143
 21
-245.5751656197212
 31
0.0
  0
LINE
  5
119
330
1F
100
AcDbEntity
  8
1-A
  6
Continuous
 62
     3
370
     9
100
AcDbLine
 10
-106.1499518317143
 20
-265.8012678816511
 30
0.0
 11
-106.1499518317143
 21
-280.0181703309754
 31
0.0
  0
LINE
  5
11A
330
1F
100
AcDbEntity
  8
1-4
  6
Continuous
 62
     7
370
     9
100
AcDbLine
 10
-1293.052714579814
 20
612.5483662373313
 30
0.0
 11
-1167.699824152766
 21
942.6113149282096
 31
0.0
  0
LINE
  5
11B
330
1F
100
AcDbEntity
  8
1-4
  6
Continuous
 62
     7
370
     9
100
AcDbLine
 10
-1214.150836016681
 20
644.4903729413008
 30
0.0
 11
-1132.637725005279
 21
868.9811417863177
 31
0.0
  0
LINE
  5
11C
330
1F
100
AcDbEntity
  8
1-2
  6
Continuous
 62
     3
370
     9
100
AcDbLine
 10
-1668.972943280194
 20
-509.0189011032517
 30
0.0
 11
-1668.972943280194
 21
730.9809834248313
 31
0.0
  0
LINE
  5
11D
330
1F
100
AcDbEntity
  8
1-2
  6
Continuous
 62
     3
370
     9
100
AcDbLine
 10
-1654.973292995144
 20
-183.0185431403083
 30
0.0
 11
-1654.973292995144
 21
4.981037861592199
 31
0.0
  0
LINE
  5
11E
330
1F
100
AcDbEntity
  8
1-2
  6
Continuous
 62
     3
370
     9
100
AcDbLine
 10
-1639.173765440245
 20
-183.0185431403083
 30
0.0
 11
-1639.173765440245
 21
4.981037861592199
 31
0.0
  0
LINE
  5
11F
330
1F
100
AcDbEntity
  8
1-2
  6
Continuous
 62
     3
370
     9
100
AcDbLine
 10
-1625.173372835726
 20
-183.0185431403083
 30
0.0
 11
-1625.173372835726
 21
4.981037861592199
 31
0.0
  0
LINE
  5
120
330
1F
100
AcDbEntity
  8
1-2
  6
Continuous
 62
     3
370
     9
100
AcDbLine
 10
-672.9729729729729
 20
730.9809834248313
 30
0.0
 11
-672.9729729729729
 21
-509.0189011032517
 31
0.0
  0
LINE
  5
121
330
1F
100
AcDbEntity
  8
1-2
  6
Continuous
 62
     3
370
     9
100
AcDbLine
 10
-686.9731181376687
 20
4.981037861592199
 30
0.0
 11
-686.9731181376687
 21
-183.0185431403083
 31
0.0
  0
LINE
  5
122
330
1F
100
AcDbEntity
  8
1-2
  6
Continuous
 62
     3
370
     9
100
AcDbLine
 10
-1609.373845280827
 20
616.9810032200169
 30
0.0
 11
-1609.373845280827
 21
721.9806073163008
 31
0.0
  0
LINE
  5
123
330
1F
100
AcDbEntity
  8
1-2
  6
Continuous
 62
     3
370
     9
100
AcDbLine
 10
-1595.373205236486
 20
616.9810032200169
 30
0.0
 11
-1595.373205236486
 21
721.9806073163008
 31
0.0
  0
LINE
  5
124
330
1F
100
AcDbEntity
  8
1-2
  6
Continuous
 62
     3
370
     9
100
AcDbLine
 10
-1609.373845280827
 20
416.9813331397805
 30
0.0
 11
-1609.373845280827
 21
604.9811615815033
 31
0.0
  0
LINE
  5
125
330
1F
100
AcDbEntity
  8
1-2
  6
Continuous
 62
     3
370
     9
100
AcDbLine
 10
-1595.373205236486
 20
416.9813331397805
 30
0.0
 11
-1595.373205236486
 21
604.9811615815033
 31
0.0
  0
LINE
  5
126
330
1F
100
AcDbEntity
  8
1-2
  6
Continuous
 62
     3
370
     9
100
AcDbLine
 10
-1609.373845280827
 20
216.9815393396328
 30
0.0
 11
-1609.373845280827
 21
404.9809966216216
 31
0.0
  0
LINE
  5
127
330
1F
100
AcDbEntity
  8
1-2
  6
Continuous
 62
     3
370
     9
100
AcDbLine
 10
-1595.373205236486
 20
216.9815393396328
 30
0.0
 11
-1595.373205236486
 21
404.9809966216216
 31
0.0
  0
LINE
  5
128
330
1F
100
AcDbEntity
  8
1-2
  6
Continuous
 62
     3
370
     9
100
AcDbLine
 10
-1609.373845280827
 20
16.9811269399284
 30
0.0
 11
-1609.373845280827
 21
204.9809553816513
 31
0.0
  0
LINE
  5
129
330
1F
100
AcDbEntity
  8
1-2
  6
Continuous
 62
     3
370
     9
100
AcDbLine
 10
-1595.373205236486
 20
16.9811269399284
 30
0.0
 11
-1595.373205236486
 21
204.9809553816513
 31
0.0
  0
LINE
  5
12A
330
1F
100
AcDbEntity
  8
1-2
  6
Continuous
 62
     3
370
     9
100
AcDbLine
 10
-1609.373845280827
 20
-183.0185431403083
 30
0.0
 11
-1609.373845280827
 21
4.981037861592199
 31
0.0
  0
LINE
  5
12B
330
1F
100
AcDbEntity
  8
1-2
  6
Continuous
 62
     3
370
     9
100
AcDbLine
 10
-1595.373205236486
 20
-183.0185431403083
 30
0.0
 11
-1595.373205236486
 21
4.981037861592199
 31
0.0
  0
LINE
  5
12C
330
1F
100
AcDbEntity
  8
1-2
  6
Continuous
 62
     3
370
     9
100
AcDbLine
 10
-1579.573677681588
 20
616.9810032200169
 30
0.0
 11
-1579.573677681588
 21
721.9806073163008
 31
0.0
  0
LINE
  5
12D
330
1F
100
AcDbEntity
  8
1-2
  6
Continuous
 62
     3
370
     9
100
AcDbLine
 10
-1565.573285077069
 20
616.9810032200169
 30
0.0
 11
-1565.573285077069
 21
721.9806073163008
 31
0.0
  0
LINE
  5
12E
330
1F
100
AcDbEntity
  8
1-2
  6
Continuous
 62
     3
370
     9
100
AcDbLine
 10
-1579.573677681588
 20
416.9813331397805
 30
0.0
 11
-1579.573677681588
 21
604.9811615815033
 31
0.0
  0
LINE
  5
12F
330
1F
100
AcDbEntity
  8
1-2
  6
Continuous
 62
     3
370
     9
100
AcDbLine
 10
-1565.573285077069
 20
416.9813331397805
 30
0.0
 11
-1565.573285077069
 21
604.9811615815033
 31
0.0
  0
LINE
  5
130
330
1F
100
AcDbEntity
  8
1-2
  6
Continuous
 62
     3
370
     9
100
AcDbLine
 10
-1579.573677681588
 20
216.9815393396328
 30
0.0
 11
-1579.573677681588
 21
404.9809966216216
 31
0.0
  0
LINE
  5
131
330
1F
100
AcDbEntity
  8
1-2
  6
Continuous
 62
     3
370
     9
100
AcDbLine
 10
-1565.573285077069
 20
216.9815393396328
 30
0.0
 11
-1565.573285077069
 21
404.9809966216216
 31
0.0
  0
LINE
  5
132
330
1F
100
AcDbEntity
  8
1-2
  6
Continuous
 62
     3
370
     9
100
AcDbLine
 10
-1579.573677681588
 20
16.9811269399284
 30
0.0
 11
-1579.573677681588
 21
204.9809553816513
 31
0.0
  0
LINE
  5
133
330
1F
100
AcDbEntity
  8
1-2
  6
Continuous
 62
     3
370
     9
100
AcDbLine
 10
-1565.573285077069
 20
16.9811269399284
 30
0.0
 11
-1565.573285077069
 21
204.9809553816513
 31
0.0
  0
LINE
  5
134
330
1F
100
AcDbEntity
  8
1-2
  6
Continuous
 62
     3
370
     9
100
AcDbLine
 10
-1579.573677681588
 20
-183.0185431403083
 30
0.0
 11
-1579.573677681588
 21
4.981037861592199
 31
0.0
  0
LINE
  5
135
330
1F
100
AcDbEntity
  8
1-2
  6
Continuous
 62
     3
370
     9
100
AcDbLine
 10
-1565.573285077069
 20
-183.0185431403083
 30
0.0
 11
-1565.573285077069
 21
4.981037861592199
 31
0.0
  0
LINE
  5
136
330
1F
100
AcDbEntity
  8
1-2
  6
Continuous
 62
     3
370
     9
100
AcDbLine
 10
-1549.773757522171
 20
616.9810032200169
 30
0.0
 11
-1549.773757522171
 21
721.9806073163008
 31
0.0
  0
LINE
  5
137
330
1F
100
AcDbEntity
  8
1-2
  6
Continuous
 62
     3
370
     9
100
AcDbLine
 10
-1535.773364917652
 20
616.9810032200169
 30
0.0
 11
-1535.773364917652
 21
721.9806073163008
 31
0.0
  0
LINE
  5
138
330
1F
100
AcDbEntity
  8
1-2
  6
Continuous
 62
     3
370
     9
100
AcDbLine
 10
-1549.773757522171
 20
416.9813331397805
 30
0.0
 11
-1549.773757522171
 21
604.9811615815033
 31
0.0
  0
LINE
  5
139
330
1F
100
AcDbEntity
  8
1-2
  6
Continuous
 62
     3
370
     9
100
AcDbLine
 10
-1535.773364917652
 20
416.9813331397805
 30
0.0
 11
-1535.773364917652
 21
604.9811615815033
 31
0.0
  0
LINE
  5
13A
330
1F
100
AcDbEntity
  8
1-2
  6
Continuous
 62
     3
370
     9
100
AcDbLine
 10
-1549.773757522171
 20
216.9815393396328
 30
0.0
 11
-1549.773757522171
 21
404.9809966216216
 31
0.0
  0
LINE
  5
13B
330
1F
100
AcDbEntity
  8
1-2
  6
Continuous
 62
     3
370
     9
100
AcDbLine
 10
-1535.773364917652
 20
216.9815393396328
 30
0.0
 11
-1535.773364917652
 21
404.9809966216216
 31
0.0
  0
LINE
  5
13C
330
1F
100
AcDbEntity
  8
1-2
  6
Continuous
 62
     3
370
     9
100
AcDbLine
 10
-1549.773757522171
 20
16.9811269399284
 30
0.0
 11
-1549.773757522171
 21
204.9809553816513
 31
0.0
  0
LINE
  5
13D
330
1F
100
AcDbEntity
  8
1-2
  6
Continuous
 62
     3
370
     9
100
AcDbLine
 10
-1535.773364917652
 20
16.9811269399284
 30
0.0
 11
-1535.773364917652
 21
204.9809553816513
 31
0.0
  0
LINE
  5
13E
330
1F
100
AcDbEntity
  8
1-2
  6
Continuous
 62
     3
370
     9
100
AcDbLine
 10
-1549.773757522171
 20
-183.0185431403083
 30
0.0
 11
-1549.773757522171
 21
4.981037861592199
 31
0.0
  0
LINE
  5
13F
330
1F
100
AcDbEntity
  8
1-2
  6
Continuous
 62
     3
370
     9
100
AcDbLine
 10
-1535.773364917652
 20
-183.0185431403083
 30
0.0
 11
-1535.773364917652
 21
4.981037861592199
 31
0.0
  0
LINE
  5
140
330
1F
100
AcDbEntity
  8
1-2
  6
Continuous
 62
     3
370
     9
100
AcDbLine
 10
-1519.973837362753
 20
616.9810032200169
 30
0.0
 11
-1519.973837362753
 21
721.9806073163008
 31
0.0
  0
LINE
  5
141
330
1F
100
AcDbEntity
  8
1-2
  6
Continuous
 62
     3
370
     9
100
AcDbLine
 10
-1505.973444758235
 20
616.9810032200169
 30
0.0
 11
-1505.973444758235
 21
721.9806073163008
 31
0.0
  0
LINE
  5
142
330
1F
100
AcDbEntity
  8
1-2
  6
Continuous
 62
     3
370
     9
100
AcDbLine
 10
-1519.973837362753
 20
416.9813331397805
 30
0.0
 11
-1519.973837362753
 21
604.9811615815033
 31
0.0
  0
LINE
  5
143
330
1F
100
AcDbEntity
  8
1-2
  6
Continuous
 62
     3
370
     9
100
AcDbLine
 10
-1505.973444758235
 20
416.9813331397805
 30
0.0
 11
-1505.973444758235
 21
604.9811615815033
 31
0.0
  0
LINE
  5
144
330
1F
100
AcDbEntity
  8
1-2
  6
Continuous
 62
     3
370
     9
100
AcDbLine
 10
-1519.973837362753
 20
216.9815393396328
 30
0.0
 11
-1519.973837362753
 21
404.9809966216216
 31
0.0
  0
LINE
  5
145
330
1F
100
AcDbEntity
  8
1-2
  6
Continuous
 62
     3
370
     9
100
AcDbLine
 10
-1505.973444758235
 20
216.9815393396328
 30
0.0
 11
-1505.973444758235
 21
404.9809966216216
 31
0.0
  0
LINE
  5
146
330
1F
100
AcDbEntity
  8
1-2
  6
Continuous
 62
     3
370
     9
100
AcDbLine
 10
-1519.973837362753
 20
16.9811269399284
 30
0.0
 11
-1519.973837362753
 21
204.9809553816513
 31
0.0
  0
LINE
  5
147
330
1F
100
AcDbEntity
  8
1-2
  6
Continuous
 62
     3
370
     9
100
AcDbLine
 10
-1505.973444758235
 20
16.9811269399284
 30
0.0
 11
-1505.973444758235
 21
204.9809553816513
 31
0.0
  0
LINE
  5
148
330
1F
100
AcDbEntity
  8
1-2
  6
Continuous
 62
     3
370
     9
100
AcDbLine
 10
-1519.973837362753
 20
-183.0185431403083
 30
0.0
 11
-1519.973837362753
 21
4.981037861592199
 31
0.0
  0
LINE
  5
149
330
1F
100
AcDbEntity
  8
1-2
  6
Continuous
 62
     3
370
     9
100
AcDbLine
 10
-1505.973444758235
 20
-183.0185431403083
 30
0.0
 11
-1505.973444758235
 21
4.981037861592199
 31
0.0
  0
LINE
  5
14A
330
1F
100
AcDbEntity
  8
1-2
  6
Continuous
 62
     3
370
     9
100
AcDbLine
 10
-1490.173669763514
 20
616.9810032200169
 30
0.0
 11
-1490.173669763514
 21
721.9806073163008
 31
0.0
  0
LINE
  5
14B
330
1F
100
AcDbEntity
  8
1-2
  6
Continuous
 62
     3
370
     9
100
AcDbLine
 10
-1476.173524598817
 20
616.9810032200169
 30
0.0
 11
-1476.173524598817
 21
721.9806073163008
 31
0.0
  0
LINE
  5
14C
330
1F
100
AcDbEntity
  8
1-2
  6
Continuous
 62
     3
370
     9
100
AcDbLine
 10
-1490.173669763514
 20
416.9813331397805
 30
0.0
 11
-1490.173669763514
 21
604.9811615815033
 31
0.0
  0
LINE
  5
14D
330
1F
100
AcDbEntity
  8
1-2
  6
Continuous
 62
     3
370
     9
100
AcDbLine
 10
-1476.173524598817
 20
416.9813331397805
 30
0.0
 11
-1476.173524598817
 21
604.9811615815033
 31
0.0
  0
LINE
  5
14E
330
1F
100
AcDbEntity
  8
1-2
  6
Continuous
 62
     3
370
     9
100
AcDbLine
 10
-1490.173669763514
 20
216.9815393396328
 30
0.0
 11
-1490.173669763514
 21
404.9809966216216
 31
0.0
  0
LINE
  5
14F
330
1F
100
AcDbEntity
  8
1-2
  6
Continuous
 62
     3
370
     9
100
AcDbLine
 10
-1476.173524598817
 20
216.9815393396328
 30
0.0
 11
-1476.173524598817
 21
404.9809966216216
 31
0.0
  0
LINE
  5
150
330
1F
100
AcDbEntity
  8
1-2
  6
Continuous
 62
     3
370
     9
100
AcDbLine
 10
-1490.173669763514
 20
16.9811269399284
 30
0.0
 11
-1490.173669763514
 21
204.9809553816513
 31
0.0
  0
LINE
  5
151
330
1F
100
AcDbEntity
  8
1-2
  6
Continuous
 62
     3
370
     9
100
AcDbLine
 10
-1476.173524598817
 20
16.9811269399284
 30
0.0
 11
-1476.173524598817
 21
204.9809553816513
 31
0.0
  0
LINE
  5
152
330
1F
100
AcDbEntity
  8
1-2
  6
Continuous
 62
     3
370
     9
100
AcDbLine
 10
-1490.173669763514
 20
-183.0185431403083
 30
0.0
 11
-1490.173669763514
 21
4.981037861592199
 31
0.0
  0
LINE
  5
153
330
1F
100
AcDbEntity
  8
1-2
  6
Continuous
 62
     3
370
     9
100
AcDbLine
 10
-1476.173524598817
 20
-183.0185431403083
 30
0.0
 11
-1476.173524598817
 21
4.981037861592199
 31
0.0
  0
LINE
  5
154
330
1F
100
AcDbEntity
  8
1-2
  6
Continuous
 62
     3
370
     9
100
AcDbLine
 10
-1460.373749604096
 20
616.9810032200169
 30
0.0
 11
-1460.373749604096
 21
721.9806073163008
 31
0.0
  0
LINE
  5
155
330
1F
100
AcDbEntity
  8
1-2
  6
Continuous
 62
     3
370
     9
100
AcDbLine
 10
-1446.373356999577
 20
616.9810032200169
 30
0.0
 11
-1446.373356999577
 21
721.9806073163008
 31
0.0
  0
LINE
  5
156
330
1F
100
AcDbEntity
  8
1-2
  6
Continuous
 62
     3
370
     9
100
AcDbLine
 10
-1460.373749604096
 20
416.9813331397805
 30
0.0
 11
-1460.373749604096
 21
604.9811615815033
 31
0.0
  0
LINE
  5
157
330
1F
100
AcDbEntity
  8
1-2
  6
Continuous
 62
     3
370
     9
100
AcDbLine
 10
-1446.373356999577
 20
416.9813331397805
 30
0.0
 11
-1446.373356999577
 21
604.9811615815033
 31
0.0
  0
LINE
  5
158
330
1F
100
AcDbEntity
  8
1-2
  6
Continuous
 62
     3
370
     9
100
AcDbLine
 10
-1460.373749604096
 20
216.9815393396328
 30
0.0
 11
-1460.373749604096
 21
404.9809966216216
 31
0.0
  0
LINE
  5
159
330
1F
100
AcDbEntity
  8
1-2
  6
Continuous
 62
     3
370
     9
100
AcDbLine
 10
-1446.373356999577
 20
216.9815393396328
 30
0.0
 11
-1446.373356999577
 21
404.9809966216216
 31
0.0
  0
LINE
  5
15A
330
1F
100
AcDbEntity
  8
1-2
  6
Continuous
 62
     3
370
     9
100
AcDbLine
 10
-1460.373749604096
 20
16.9811269399284
 30
0.0
 11
-1460.373749604096
 21
204.9809553816513
 31
0.0
  0
LINE
  5
15B
330
1F
100
AcDbEntity
  8
1-2
  6
Continuous
 62
     3
370
     9
100
AcDbLine
 10
-1446.373356999577
 20
16.9811269399284
 30
0.0
 11
-1446.373356999577
 21
204.9809553816513
 31
0.0
  0
LINE
  5
15C
330
1F
100
AcDbEntity
  8
1-2
  6
Continuous
 62
     3
370
     9
100
AcDbLine
 10
-1460.373749604096
 20
-183.0185431403083
 30
0.0
 11
-1460.373749604096
 21
4.981037861592199
 31
0.0
  0
LINE
  5
15D
330
1F
100
AcDbEntity
  8
1-2
  6
Continuous
 62
     3
370
     9
100
AcDbLine
 10
-1446.373356999577
 20
-183.0185431403083
 30
0.0
 11
-1446.373356999577
 21
4.981037861592199
 31
0.0
  0
LINE
  5
15E
330
1F
100
AcDbEntity
  8
1-2
  6
Continuous
 62
     3
370
     9
100
AcDbLine
 10
-1430.573829444679
 20
616.9810032200169
 30
0.0
 11
-1430.573829444679
 21
721.9806073163008
 31
0.0
  0
LINE
  5
15F
330
1F
100
AcDbEntity
  8
1-2
  6
Continuous
 62
     3
370
     9
100
AcDbLine
 10
-1416.57343684016
 20
616.9810032200169
 30
0.0
 11
-1416.57343684016
 21
721.9806073163008
 31
0.0
  0
LINE
  5
160
330
1F
100
AcDbEntity
  8
1-2
  6
Continuous
 62
     3
370
     9
100
AcDbLine
 10
-1430.573829444679
 20
416.9813331397805
 30
0.0
 11
-1430.573829444679
 21
604.9811615815033
 31
0.0
  0
LINE
  5
161
330
1F
100
AcDbEntity
  8
1-2
  6
Continuous
 62
     3
370
     9
100
AcDbLine
 10
-1416.57343684016
 20
416.9813331397805
 30
0.0
 11
-1416.57343684016
 21
604.9811615815033
 31
0.0
  0
LINE
  5
162
330
1F
100
AcDbEntity
  8
1-2
  6
Continuous
 62
     3
370
     9
100
AcDbLine
 10
-1430.573829444679
 20
216.9815393396328
 30
0.0
 11
-1430.573829444679
 21
404.9809966216216
 31
0.0
  0
LINE
  5
163
330
1F
100
AcDbEntity
  8
1-2
  6
Continuous
 62
     3
370
     9
100
AcDbLine
 10
-1416.57343684016
 20
216.9815393396328
 30
0.0
 11
-1416.57343684016
 21
404.9809966216216
 31
0.0
  0
LINE
  5
164
330
1F
100
AcDbEntity
  8
1-2
  6
Continuous
 62
     3
370
     9
100
AcDbLine
 10
-1430.573829444679
 20
16.9811269399284
 30
0.0
 11
-1430.573829444679
 21
204.9809553816513
 31
0.0
  0
LINE
  5
165
330
1F
100
AcDbEntity
  8
1-2
  6
Continuous
 62
     3
370
     9
100
AcDbLine
 10
-1416.57343684016
 20
16.9811269399284
 30
0.0
 11
-1416.57343684016
 21
204.9809553816513
 31
0.0
  0
LINE
  5
166
330
1F
100
AcDbEntity
  8
1-2
  6
Continuous
 62
     3
370
     9
100
AcDbLine
 10
-1430.573829444679
 20
-183.0185431403083
 30
0.0
 11
-1430.573829444679
 21
4.981037861592199
 31
0.0
  0
LINE
  5
167
330
1F
100
AcDbEntity
  8
1-2
  6
Continuous
 62
     3
370
     9
100
AcDbLine
 10
-1416.57343684016
 20
-183.0185431403083
 30
0.0
 11
-1416.57343684016
 21
4.981037861592199
 31
0.0
  0
LINE
  5
168
330
1F
100
AcDbEntity
  8
1-2
  6
Continuous
 62
     3
370
     9
100
AcDbLine
 10
-1400.773909285262
 20
616.9810032200169
 30
0.0
 11
-1400.773909285262
 21
721.9806073163008
 31
0.0
  0
LINE
  5
169
330
1F
100
AcDbEntity
  8
1-2
  6
Continuous
 62
     3
370
     9
100
AcDbLine
 10
-1386.773516680743
 20
616.9810032200169
 30
0.0
 11
-1386.773516680743
 21
721.9806073163008
 31
0.0
  0
LINE
  5
16A
330
1F
100
AcDbEntity
  8
1-2
  6
Continuous
 62
     3
370
     9
100
AcDbLine
 10
-1400.773909285262
 20
416.9813331397805
 30
0.0
 11
-1400.773909285262
 21
604.9811615815033
 31
0.0
  0
LINE
  5
16B
330
1F
100
AcDbEntity
  8
1-2
  6
Continuous
 62
     3
370
     9
100
AcDbLine
 10
-1386.773516680743
 20
416.9813331397805
 30
0.0
 11
-1386.773516680743
 21
604.9811615815033
 31
0.0
  0
LINE
  5
16C
330
1F
100
AcDbEntity
  8
1-2
  6
Continuous
 62
     3
370
     9
100
AcDbLine
 10
-1400.773909285262
 20
216.9815393396328
 30
0.0
 11
-1400.773909285262
 21
404.9809966216216
 31
0.0
  0
LINE
  5
16D
330
1F
100
AcDbEntity
  8
1-2
  6
Continuous
 62
     3
370
     9
100
AcDbLine
 10
-1386.773516680743
 20
216.9815393396328
 30
0.0
 11
-1386.773516680743
 21
404.9809966216216
 31
0.0
  0
LINE
  5
16E
330
1F
100
AcDbEntity
  8
1-2
  6
Continuous
 62
     3
370
     9
100
AcDbLine
 10
-1400.773909285262
 20
16.9811269399284
 30
0.0
 11
-1400.773909285262
 21
204.9809553816513
 31
0.0
  0
LINE
  5
16F
330
1F
100
AcDbEntity
  8
1-2
  6
Continuous
 62
     3
370
     9
100
AcDbLine
 10
-1386.773516680743
 20
16.9811269399284
 30
0.0
 11
-1386.773516680743
 21
204.9809553816513
 31
0.0
  0
LINE
  5
170
330
1F
100
AcDbEntity
  8
1-2
  6
Continuous
 62
     3
370
     9
100
AcDbLine
 10
-1400.773909285262
 20
-183.0185431403083
 30
0.0
 11
-1400.773909285262
 21
4.981037861592199
 31
0.0
  0
LINE
  5
171
330
1F
100
AcDbEntity
  8
1-2
  6
Continuous
 62
     3
370
     9
100
AcDbLine
 10
-1386.773516680743
 20
-183.0185431403083
 30
0.0
 11
-1386.773516680743
 21
4.981037861592199
 31
0.0
  0
LINE
  5
172
330
1F
100
AcDbEntity
  8
1-2
  6
Continuous
 62
     3
370
     9
100
AcDbLine
 10
-1370.973865405933
 20
616.9810032200169
 30
0.0
 11
-1370.973865405933
 21
721.9806073163008
 31
0.0
  0
LINE
  5
173
330
1F
100
AcDbEntity
  8
1-2
  6
Continuous
 62
     3
370
     9
100
AcDbLine
 10
-1356.973472801415
 20
616.9810032200169
 30
0.0
 11
-1356.973472801415
 21
721.9806073163008
 31
0.0
  0
LINE
  5
174
330
1F
100
AcDbEntity
  8
1-2
  6
Continuous
 62
     3
370
     9
100
AcDbLine
 10
-1370.973865405933
 20
416.9813331397805
 30
0.0
 11
-1370.973865405933
 21
604.9811615815033
 31
0.0
  0
LINE
  5
175
330
1F
100
AcDbEntity
  8
1-2
  6
Continuous
 62
     3
370
     9
100
AcDbLine
 10
-1356.973472801415
 20
416.9813331397805
 30
0.0
 11
-1356.973472801415
 21
604.9811615815033
 31
0.0
  0
LINE
  5
176
330
1F
100
AcDbEntity
  8
1-2
  6
Continuous
 62
     3
370
     9
100
AcDbLine
 10
-1370.973865405933
 20
216.9815393396328
 30
0.0
 11
-1370.973865405933
 21
404.9809966216216
 31
0.0
  0
LINE
  5
177
330
1F
100
AcDbEntity
  8
1-2
  6
Continuous
 62
     3
370
     9
100
AcDbLine
 10
-1356.973472801415
 20
216.9815393396328
 30
0.0
 11
-1356.973472801415
 21
404.9809966216216
 31
0.0
  0
LINE
  5
178
330
1F
100
AcDbEntity
  8
1-2
  6
Continuous
 62
     3
370
     9
100
AcDbLine
 10
-1370.973865405933
 20
16.9811269399284
 30
0.0
 11
-1370.973865405933
 21
204.9809553816513
 31
0.0
  0
LINE
  5
179
330
1F
100
AcDbEntity
  8
1-2
  6
Continuous
 62
     3
370
     9
100
AcDbLine
 10
-1356.973472801415
 20
16.9811269399284
 30
0.0
 11
-1356.973472801415
 21
204.9809553816513
 31
0.0
  0
LINE
  5
17A
330
1F
100
AcDbEntity
  8
1-2
  6
Continuous
 62
     3
370
     9
100
AcDbLine
 10
-1370.973865405933
 20
-183.0185431403083
 30
0.0
 11
-1370.973865405933
 21
4.981037861592199
 31
0.0
  0
LINE
  5
17B
330
1F
100
AcDbEntity
  8
1-2
  6
Continuous
 62
     3
370
     9
100
AcDbLine
 10
-1356.973472801415
 20
-183.0185431403083
 30
0.0
 11
-1356.973472801415
 21
4.981037861592199
 31
0.0
  0
LINE
  5
17C
330
1F
100
AcDbEntity
  8
1-2
  6
Continuous
 62
     3
370
     9
100
AcDbLine
 10
-1341.173821526605
 20
616.9810032200169
 30
0.0
 11
-1341.173821526605
 21
721.9806073163008
 31
0.0
  0
LINE
  5
17D
330
1F
100
AcDbEntity
  8
1-2
  6
Continuous
 62
     3
370
     9
100
AcDbLine
 10
-1327.173428922086
 20
616.9810032200169
 30
0.0
 11
-1327.173428922086
 21
721.9806073163008
 31
0.0
  0
LINE
  5
17E
330
1F
100
AcDbEntity
  8
1-2
  6
Continuous
 62
     3
370
     9
100
AcDbLine
 10
-1341.173821526605
 20
416.9813331397805
 30
0.0
 11
-1341.173821526605
 21
604.9811615815033
 31
0.0
  0
LINE
  5
17F
330
1F
100
AcDbEntity
  8
1-2
  6
Continuous
 62
     3
370
     9
100
AcDbLine
 10
-1327.173428922086
 20
416.9813331397805
 30
0.0
 11
-1327.173428922086
 21
604.9811615815033
 31
0.0
  0
LINE
  5
180
330
1F
100
AcDbEntity
  8
1-2
  6
Continuous
 62
     3
370
     9
100
AcDbLine
 10
-1341.173821526605
 20
216.9815393396328
 30
0.0
 11
-1341.173821526605
 21
404.9809966216216
 31
0.0
  0
LINE
  5
181
330
1F
100
AcDbEntity
  8
1-2
  6
Continuous
 62
     3
370
     9
100
AcDbLine
 10
-1327.173428922086
 20
216.9815393396328
 30
0.0
 11
-1327.173428922086
 21
404.9809966216216
 31
0.0
  0
LINE
  5
182
330
1F
100
AcDbEntity
  8
1-2
  6
Continuous
 62
     3
370
     9
100
AcDbLine
 10
-1341.173821526605
 20
16.9811269399284
 30
0.0
 11
-1341.173821526605
 21
204.9809553816513
 31
0.0
  0
LINE
  5
183
330
1F
100
AcDbEntity
  8
1-2
  6
Continuous
 62
     3
370
     9
100
AcDbLine
 10
-1327.173428922086
 20
16.9811269399284
 30
0.0
 11
-1327.173428922086
 21
204.9809553816513
 31
0.0
  0
LINE
  5
184
330
1F
100
AcDbEntity
  8
1-2
  6
Continuous
 62
     3
370
     9
100
AcDbLine
 10
-1341.173821526605
 20
-183.0185431403083
 30
0.0
 11
-1341.173821526605
 21
4.981037861592199
 31
0.0
  0
LINE
  5
185
330
1F
100
AcDbEntity
  8
1-2
  6
Continuous
 62
     3
370
     9
100
AcDbLine
 10
-1327.173428922086
 20
-183.0185431403083
 30
0.0
 11
-1327.173428922086
 21
4.981037861592199
 31
0.0
  0
LINE
  5
186
330
1F
100
AcDbEntity
  8
1-2
  6
Continuous
 62
     3
370
     9
100
AcDbLine
 10
-1311.373901367188
 20
616.9810032200169
 30
0.0
 11
-1311.373901367188
 21
721.9806073163008
 31
0.0
  0
LINE
  5
187
330
1F
100
AcDbEntity
  8
1-2
  6
Continuous
 62
     3
370
     9
100
AcDbLine
 10
-1297.373508762669
 20
616.9810032200169
 30
0.0
 11
-1297.373508762669
 21
721.9806073163008
 31
0.0
  0
LINE
  5
188
330
1F
100
AcDbEntity
  8
1-2
  6
Continuous
 62
     3
370
     9
100
AcDbLine
 10
-1311.373901367188
 20
416.9813331397805
 30
0.0
 11
-1311.373901367188
 21
604.9811615815033
 31
0.0
  0
LINE
  5
189
330
1F
100
AcDbEntity
  8
1-2
  6
Continuous
 62
     3
370
     9
100
AcDbLine
 10
-1297.373508762669
 20
416.9813331397805
 30
0.0
 11
-1297.373508762669
 21
604.9811615815033
 31
0.0
  0
LINE
  5
18A
330
1F
100
AcDbEntity
  8
1-2
  6
Continuous
 62
     3
370
     9
100
AcDbLine
 10
-1311.373901367188
 20
216.9815393396328
 30
0.0
 11
-1311.373901367188
 21
404.9809966216216
 31
0.0
  0
LINE
  5
18B
330
1F
100
AcDbEntity
  8
1-2
  6
Continuous
 62
     3
370
     9
100
AcDbLine
 10
-1297.373508762669
 20
216.9815393396328
 30
0.0
 11
-1297.373508762669
 21
404.9809966216216
 31
0.0
  0
LINE
  5
18C
330
1F
100
AcDbEntity
  8
1-2
  6
Continuous
 62
     3
370
     9
100
AcDbLine
 10
-1311.373901367188
 20
16.9811269399284
 30
0.0
 11
-1311.373901367188
 21
204.9809553816513
 31
0.0
  0
LINE
  5
18D
330
1F
100
AcDbEntity
  8
1-2
  6
Continuous
 62
     3
370
     9
100
AcDbLine
 10
-1297.373508762669
 20
16.9811269399284
 30
0.0
 11
-1297.373508762669
 21
204.9809553816513
 31
0.0
  0
LINE
  5
18E
330
1F
100
AcDbEntity
  8
1-2
  6
Continuous
 62
     3
370
     9
100
AcDbLine
 10
-1311.373901367188
 20
-183.0185431403083
 30
0.0
 11
-1311.373901367188
 21
4.981037861592199
 31
0.0
  0
LINE
  5
18F
330
1F
100
AcDbEntity
  8
1-2
  6
Continuous
 62
     3
370
     9
100
AcDbLine
 10
-1297.373508762669
 20
-183.0185431403083
 30
0.0
 11
-1297.373508762669
 21
4.981037861592199
 31
0.0
  0
LINE
  5
190
330
1F
100
AcDbEntity
  8
1-2
  6
Continuous
 62
     3
370
     9
100
AcDbLine
 10
-1281.57398120777
 20
616.9810032200169
 30
0.0
 11
-1281.57398120777
 21
721.9806073163008
 31
0.0
  0
LINE
  5
191
330
1F
100
AcDbEntity
  8
1-2
  6
Continuous
 62
     3
370
     9
100
AcDbLine
 10
-1267.573588603252
 20
616.9810032200169
 30
0.0
 11
-1267.573588603252
 21
721.9806073163008
 31
0.0
  0
LINE
  5
192
330
1F
100
AcDbEntity
  8
1-2
  6
Continuous
 62
     3
370
     9
100
AcDbLine
 10
-1281.57398120777
 20
416.9813331397805
 30
0.0
 11
-1281.57398120777
 21
604.9811615815033
 31
0.0
  0
LINE
  5
193
330
1F
100
AcDbEntity
  8
1-2
  6
Continuous
 62
     3
370
     9
100
AcDbLine
 10
-1267.573588603252
 20
416.9813331397805
 30
0.0
 11
-1267.573588603252
 21
604.9811615815033
 31
0.0
  0
LINE
  5
194
330
1F
100
AcDbEntity
  8
1-2
  6
Continuous
 62
     3
370
     9
100
AcDbLine
 10
-1281.57398120777
 20
216.9815393396328
 30
0.0
 11
-1281.57398120777
 21
404.9809966216216
 31
0.0
  0
LINE
  5
195
330
1F
100
AcDbEntity
  8
1-2
  6
Continuous
 62
     3
370
     9
100
AcDbLine
 10
-1267.573588603252
 20
216.9815393396328
 30
0.0
 11
-1267.573588603252
 21
404.9809966216216
 31
0.0
  0
LINE
  5
196
330
1F
100
AcDbEntity
  8
1-2
  6
Continuous
 62
     3
370
     9
100
AcDbLine
 10
-1281.57398120777
 20
16.9811269399284
 30
0.0
 11
-1281.57398120777
 21
204.9809553816513
 31
0.0
  0
LINE
  5
197
330
1F
100
AcDbEntity
  8
1-2
  6
Continuous
 62
     3
370
     9
100
AcDbLine
 10
-1267.573588603252
 20
16.9811269399284
 30
0.0
 11
-1267.573588603252
 21
204.9809553816513
 31
0.0
  0
LINE
  5
198
330
1F
100
AcDbEntity
  8
1-2
  6
Continuous
 62
     3
370
     9
100
AcDbLine
 10
-1281.57398120777
 20
-183.0185431403083
 30
0.0
 11
-1281.57398120777
 21
4.981037861592199
 31
0.0
  0
LINE
  5
199
330
1F
100
AcDbEntity
  8
1-2
  6
Continuous
 62
     3
370
     9
100
AcDbLine
 10
-1267.573588603252
 20
-183.0185431403083
 30
0.0
 11
-1267.573588603252
 21
4.981037861592199
 31
0.0
  0
LINE
  5
19A
330
1F
100
AcDbEntity
  8
1-2
  6
Continuous
 62
     3
370
     9
100
AcDbLine
 10
-1251.773937328442
 20
616.9810032200169
 30
0.0
 11
-1251.773937328442
 21
721.9806073163008
 31
0.0
  0
LINE
  5
19B
330
1F
100
AcDbEntity
  8
1-2
  6
Continuous
 62
     3
370
     9
100
AcDbLine
 10
-1237.773544723923
 20
616.9810032200169
 30
0.0
 11
-1237.773544723923
 21
721.9806073163008
 31
0.0
  0
LINE
  5
19C
330
1F
100
AcDbEntity
  8
1-2
  6
Continuous
 62
     3
370
     9
100
AcDbLine
 10
-1251.773937328442
 20
416.9813331397805
 30
0.0
 11
-1251.773937328442
 21
604.9811615815033
 31
0.0
  0
LINE
  5
19D
330
1F
100
AcDbEntity
  8
1-2
  6
Continuous
 62
     3
370
     9
100
AcDbLine
 10
-1237.773544723923
 20
416.9813331397805
 30
0.0
 11
-1237.773544723923
 21
604.9811615815033
 31
0.0
  0
LINE
  5
19E
330
1F
100
AcDbEntity
  8
1-2
  6
Continuous
 62
     3
370
     9
100
AcDbLine
 10
-1251.773937328442
 20
216.9815393396328
 30
0.0
 11
-1251.773937328442
 21
404.9809966216216
 31
0.0
  0
LINE
  5
19F
330
1F
100
AcDbEntity
  8
1-2
  6
Continuous
 62
     3
370
     9
100
AcDbLine
 10
-1237.773544723923
 20
216.9815393396328
 30
0.0
 11
-1237.773544723923
 21
404.9809966216216
 31
0.0
  0
LINE
  5
1A0
330
1F
100
AcDbEntity
  8
1-2
  6
Continuous
 62
     3
370
     9
100
AcDbLine
 10
-1251.773937328442
 20
16.9811269399284
 30
0.0
 11
-1251.773937328442
 21
204.9809553816513
 31
0.0
  0
LINE
  5
1A1
330
1F
100
AcDbEntity
  8
1-2
  6
Continuous
 62
     3
370
     9
100
AcDbLine
 10
-1237.773544723923
 20
16.9811269399284
 30
0.0
 11
-1237.773544723923
 21
204.9809553816513
 31
0.0
  0
LINE
  5
1A2
330
1F
100
AcDbEntity
  8
1-2
  6
Continuous
 62
     3
370
     9
100
AcDbLine
 10
-1251.773937328442
 20
-183.0185431403083
 30
0.0
 11
-1251.773937328442
 21
4.981037861592199
 31
0.0
  0
LINE
  5
1A3
330
1F
100
AcDbEntity
  8
1-2
  6
Continuous
 62
     3
370
     9
100
AcDbLine
 10
-1237.773544723923
 20
-183.0185431403083
 30
0.0
 11
-1237.773544723923
 21
4.981037861592199
 31
0.0
  0
LINE
  5
1A4
330
1F
100
AcDbEntity
  8
1-2
  6
Continuous
 62
     3
370
     9
100
AcDbLine
 10
-1221.973893449113
 20
616.9810032200169
 30
0.0
 11
-1221.973893449113
 21
721.9806073163008
 31
0.0
  0
LINE
  5
1A5
330
1F
100
AcDbEntity
  8
1-2
  6
Continuous
 62
     3
370
     9
100
AcDbLine
 10
-1207.973500844595
 20
616.9810032200169
 30
0.0
 11
-1207.973500844595
 21
721.9806073163008
 31
0.0
  0
LINE
  5
1A6
330
1F
100
AcDbEntity
  8
1-2
  6
Continuous
 62
     3
370
     9
100
AcDbLine
 10
-1221.973893449113
 20
416.9813331397805
 30
0.0
 11
-1221.973893449113
 21
604.9811615815033
 31
0.0
  0
LINE
  5
1A7
330
1F
100
AcDbEntity
  8
1-2
  6
Continuous
 62
     3
370
     9
100
AcDbLine
 10
-1207.973500844595
 20
416.9813331397805
 30
0.0
 11
-1207.973500844595
 21
604.9811615815033
 31
0.0
  0
LINE
  5
1A8
330
1F
100
AcDbEntity
  8
1-2
  6
Continuous
 62
     3
370
     9
100
AcDbLine
 10
-1221.973893449113
 20
216.9815393396328
 30
0.0
 11
-1221.973893449113
 21
404.9809966216216
 31
0.0
  0
LINE
  5
1A9
330
1F
100
AcDbEntity
  8
1-2
  6
Continuous
 62
     3
370
     9
100
AcDbLine
 10
-1207.973500844595
 20
216.9815393396328
 30
0.0
 11
-1207.973500844595
 21
404.9809966216216
 31
0.0
  0
LINE
  5
1AA
330
1F
100
AcDbEntity
  8
1-2
  6
Continuous
 62
     3
370
     9
100
AcDbLine
 10
-1221.973893449113
 20
16.9811269399284
 30
0.0
 11
-1221.973893449113
 21
204.9809553816513
 31
0.0
  0
LINE
  5
1AB
330
1F
100
AcDbEntity
  8
1-2
  6
Continuous
 62
     3
370
     9
100
AcDbLine
 10
-1207.973500844595
 20
16.9811269399284
 30
0.0
 11
-1207.973500844595
 21
204.9809553816513
 31
0.0
  0
LINE
  5
1AC
330
1F
100
AcDbEntity
  8
1-2
  6
Continuous
 62
     3
370
     9
100
AcDbLine
 10
-1221.973893449113
 20
-183.0185431403083
 30
0.0
 11
-1221.973893449113
 21
4.981037861592199
 31
0.0
  0
LINE
  5
1AD
330
1F
100
AcDbEntity
  8
1-2
  6
Continuous
 62
     3
370
     9
100
AcDbLine
 10
-1207.973500844595
 20
-183.0185431403083
 30
0.0
 11
-1207.973500844595
 21
4.981037861592199
 31
0.0
  0
LINE
  5
1AE
330
1F
100
AcDbEntity
  8
1-2
  6
Continuous
 62
     3
370
     9
100
AcDbLine
 10
-1178.173580685177
 20
616.9810032200169
 30
0.0
 11
-1178.173580685177
 21
721.9806073163008
 31
0.0
  0
LINE
  5
1AF
330
1F
100
AcDbEntity
  8
1-2
  6
Continuous
 62
     3
370
     9
100
AcDbLine
 10
-1192.173973289696
 20
416.9813331397805
 30
0.0
 11
-1192.173973289696
 21
604.9811615815033
 31
0.0
  0
LINE
  5
1B0
330
1F
100
AcDbEntity
  8
1-2
  6
Continuous
 62
     3
370
     9
100
AcDbLine
 10
-1178.173580685177
 20
416.9813331397805
 30
0.0
 11
-1178.173580685177
 21
604.9811615815033
 31
0.0
  0
LINE
  5
1B1
330
1F
100
AcDbEntity
  8
1-2
  6
Continuous
 62
     3
370
     9
100
AcDbLine
 10
-1192.173973289696
 20
216.9815393396328
 30
0.0
 11
-1192.173973289696
 21
404.9809966216216
 31
0.0
  0
LINE
  5
1B2
330
1F
100
AcDbEntity
  8
1-2
  6
Continuous
 62
     3
370
     9
100
AcDbLine
 10
-1178.173580685177
 20
216.9815393396328
 30
0.0
 11
-1178.173580685177
 21
404.9809966216216
 31
0.0
  0
LINE
  5
1B3
330
1F
100
AcDbEntity
  8
1-2
  6
Continuous
 62
     3
370
     9
100
AcDbLine
 10
-1192.173973289696
 20
16.9811269399284
 30
0.0
 11
-1192.173973289696
 21
204.9809553816513
 31
0.0
  0
LINE
  5
1B4
330
1F
100
AcDbEntity
  8
1-2
  6
Continuous
 62
     3
370
     9
100
AcDbLine
 10
-1178.173580685177
 20
16.9811269399284
 30
0.0
 11
-1178.173580685177
 21
204.9809553816513
 31
0.0
  0
LINE
  5
1B5
330
1F
100
AcDbEntity
  8
1-2
  6
Continuous
 62
     3
370
     9
100
AcDbLine
 10
-1192.173973289696
 20
-183.0185431403083
 30
0.0
 11
-1192.173973289696
 21
4.981037861592199
 31
0.0
  0
LINE
  5
1B6
330
1F
100
AcDbEntity
  8
1-2
  6
Continuous
 62
     3
370
     9
100
AcDbLine
 10
-1178.173580685177
 20
-183.0185431403083
 30
0.0
 11
-1178.173580685177
 21
4.981037861592199
 31
0.0
  0
LINE
  5
1B7
330
1F
100
AcDbEntity
  8
1-2
  6
Continuous
 62
     3
370
     9
100
AcDbLine
 10
-1162.374053130279
 20
616.9810032200169
 30
0.0
 11
-1162.374053130279
 21
721.9806073163008
 31
0.0
  0
LINE
  5
1B8
330
1F
100
AcDbEntity
  8
1-2
  6
Continuous
 62
     3
370
     9
100
AcDbLine
 10
-1148.37366052576
 20
616.9810032200169
 30
0.0
 11
-1148.37366052576
 21
721.9806073163008
 31
0.0
  0
LINE
  5
1B9
330
1F
100
AcDbEntity
  8
1-2
  6
Continuous
 62
     3
370
     9
100
AcDbLine
 10
-1162.374053130279
 20
416.9813331397805
 30
0.0
 11
-1162.374053130279
 21
604.9811615815033
 31
0.0
  0
LINE
  5
1BA
330
1F
100
AcDbEntity
  8
1-2
  6
Continuous
 62
     3
370
     9
100
AcDbLine
 10
-1148.37366052576
 20
416.9813331397805
 30
0.0
 11
-1148.37366052576
 21
604.9811615815033
 31
0.0
  0
LINE
  5
1BB
330
1F
100
AcDbEntity
  8
1-2
  6
Continuous
 62
     3
370
     9
100
AcDbLine
 10
-1162.374053130279
 20
216.9815393396328
 30
0.0
 11
-1162.374053130279
 21
404.9809966216216
 31
0.0
  0
LINE
  5
1BC
330
1F
100
AcDbEntity
  8
1-2
  6
Continuous
 62
     3
370
     9
100
AcDbLine
 10
-1148.37366052576
 20
216.9815393396328
 30
0.0
 11
-1148.37366052576
 21
404.9809966216216
 31
0.0
  0
LINE
  5
1BD
330
1F
100
AcDbEntity
  8
1-2
  6
Continuous
 62
     3
370
     9
100
AcDbLine
 10
-1162.374053130279
 20
16.9811269399284
 30
0.0
 11
-1162.374053130279
 21
204.9809553816513
 31
0.0
  0
LINE
  5
1BE
330
1F
100
AcDbEntity
  8
1-2
  6
Continuous
 62
     3
370
     9
100
AcDbLine
 10
-1148.37366052576
 20
16.9811269399284
 30
0.0
 11
-1148.37366052576
 21
204.9809553816513
 31
0.0
  0
LINE
  5
1BF
330
1F
100
AcDbEntity
  8
1-2
  6
Continuous
 62
     3
370
     9
100
AcDbLine
 10
-1162.374053130279
 20
-183.0185431403083
 30
0.0
 11
-1162.374053130279
 21
4.981037861592199
 31
0.0
  0
LINE
  5
1C0
330
1F
100
AcDbEntity
  8
1-2
  6
Continuous
 62
     3
370
     9
100
AcDbLine
 10
-1148.37366052576
 20
-183.0185431403083
 30
0.0
 11
-1148.37366052576
 21
4.981037861592199
 31
0.0
  0
LINE
  5
1C1
330
1F
100
AcDbEntity
  8
1-2
  6
Continuous
 62
     3
370
     9
100
AcDbLine
 10
-1132.57400925095
 20
616.9810032200169
 30
0.0
 11
-1132.57400925095
 21
721.9806073163008
 31
0.0
  0
LINE
  5
1C2
330
1F
100
AcDbEntity
  8
1-2
  6
Continuous
 62
     3
370
     9
100
AcDbLine
 10
-1118.573616646431
 20
616.9810032200169
 30
0.0
 11
-1118.573616646431
 21
721.9806073163008
 31
0.0
  0
LINE
  5
1C3
330
1F
100
AcDbEntity
  8
1-2
  6
Continuous
 62
     3
370
     9
100
AcDbLine
 10
-1132.57400925095
 20
416.9813331397805
 30
0.0
 11
-1132.57400925095
 21
604.9811615815033
 31
0.0
  0
LINE
  5
1C4
330
1F
100
AcDbEntity
  8
1-2
  6
Continuous
 62
     3
370
     9
100
AcDbLine
 10
-1118.573616646431
 20
416.9813331397805
 30
0.0
 11
-1118.573616646431
 21
604.9811615815033
 31
0.0
  0
LINE
  5
1C5
330
1F
100
AcDbEntity
  8
1-2
  6
Continuous
 62
     3
370
     9
100
AcDbLine
 10
-1132.57400925095
 20
216.9815393396328
 30
0.0
 11
-1132.57400925095
 21
404.9809966216216
 31
0.0
  0
LINE
  5
1C6
330
1F
100
AcDbEntity
  8
1-2
  6
Continuous
 62
     3
370
     9
100
AcDbLine
 10
-1118.573616646431
 20
216.9815393396328
 30
0.0
 11
-1118.573616646431
 21
404.9809966216216
 31
0.0
  0
LINE
  5
1C7
330
1F
100
AcDbEntity
  8
1-2
  6
Continuous
 62
     3
370
     9
100
AcDbLine
 10
-1132.57400925095
 20
16.9811269399284
 30
0.0
 11
-1132.57400925095
 21
204.9809553816513
 31
0.0
  0
LINE
  5
1C8
330
1F
100
AcDbEntity
  8
1-2
  6
Continuous
 62
     3
370
     9
100
AcDbLine
 10
-1118.573616646431
 20
16.9811269399284
 30
0.0
 11
-1118.573616646431
 21
204.9809553816513
 31
0.0
  0
LINE
  5
1C9
330
1F
100
AcDbEntity
  8
1-2
  6
Continuous
 62
     3
370
     9
100
AcDbLine
 10
-1132.57400925095
 20
-183.0185431403083
 30
0.0
 11
-1132.57400925095
 21
4.981037861592199
 31
0.0
  0
LINE
  5
1CA
330
1F
100
AcDbEntity
  8
1-2
  6
Continuous
 62
     3
370
     9
100
AcDbLine
 10
-1118.573616646431
 20
-183.0185431403083
 30
0.0
 11
-1118.573616646431
 21
4.981037861592199
 31
0.0
  0
LINE
  5
1CB
330
1F
100
AcDbEntity
  8
1-2
  6
Continuous
 62
     3
370
     9
100
AcDbLine
 10
-1102.773965371622
 20
616.9810032200169
 30
0.0
 11
-1102.773965371622
 21
721.9806073163008
 31
0.0
  0
LINE
  5
1CC
330
1F
100
AcDbEntity
  8
1-2
  6
Continuous
 62
     3
370
     9
100
AcDbLine
 10
-1088.773572767103
 20
616.9810032200169
 30
0.0
 11
-1088.773572767103
 21
721.9806073163008
 31
0.0
  0
LINE
  5
1CD
330
1F
100
AcDbEntity
  8
1-2
  6
Continuous
 62
     3
370
     9
100
AcDbLine
 10
-1102.773965371622
 20
416.9813331397805
 30
0.0
 11
-1102.773965371622
 21
604.9811615815033
 31
0.0
  0
LINE
  5
1CE
330
1F
100
AcDbEntity
  8
1-2
  6
Continuous
 62
     3
370
     9
100
AcDbLine
 10
-1088.773572767103
 20
416.9813331397805
 30
0.0
 11
-1088.773572767103
 21
604.9811615815033
 31
0.0
  0
LINE
  5
1CF
330
1F
100
AcDbEntity
  8
1-2
  6
Continuous
 62
     3
370
     9
100
AcDbLine
 10
-1102.773965371622
 20
216.9815393396328
 30
0.0
 11
-1102.773965371622
 21
404.9809966216216
 31
0.0
  0
LINE
  5
1D0
330
1F
100
AcDbEntity
  8
1-2
  6
Continuous
 62
     3
370
     9
100
AcDbLine
 10
-1088.773572767103
 20
216.9815393396328
 30
0.0
 11
-1088.773572767103
 21
404.9809966216216
 31
0.0
  0
LINE
  5
1D1
330
1F
100
AcDbEntity
  8
1-2
  6
Continuous
 62
     3
370
     9
100
AcDbLine
 10
-1102.773965371622
 20
16.9811269399284
 30
0.0
 11
-1102.773965371622
 21
204.9809553816513
 31
0.0
  0
LINE
  5
1D2
330
1F
100
AcDbEntity
  8
1-2
  6
Continuous
 62
     3
370
     9
100
AcDbLine
 10
-1088.773572767103
 20
16.9811269399284
 30
0.0
 11
-1088.773572767103
 21
204.9809553816513
 31
0.0
  0
LINE
  5
1D3
330
1F
100
AcDbEntity
  8
1-2
  6
Continuous
 62
     3
370
     9
100
AcDbLine
 10
-1102.773965371622
 20
-183.0185431403083
 30
0.0
 11
-1102.773965371622
 21
4.981037861592199
 31
0.0
  0
LINE
  5
1D4
330
1F
100
AcDbEntity
  8
1-2
  6
Continuous
 62
     3
370
     9
100
AcDbLine
 10
-1088.773572767103
 20
-183.0185431403083
 30
0.0
 11
-1088.773572767103
 21
4.981037861592199
 31
0.0
  0
LINE
  5
1D5
330
1F
100
AcDbEntity
  8
1-2
  6
Continuous
 62
     3
370
     9
100
AcDbLine
 10
-1072.974045212204
 20
616.9810032200169
 30
0.0
 11
-1072.974045212204
 21
721.9806073163008
 31
0.0
  0
LINE
  5
1D6
330
1F
100
AcDbEntity
  8
1-2
  6
Continuous
 62
     3
370
     9
100
AcDbLine
 10
-1058.973652607686
 20
616.9810032200169
 30
0.0
 11
-1058.973652607686
 21
721.9806073163008
 31
0.0
  0
LINE
  5
1D7
330
1F
100
AcDbEntity
  8
1-2
  6
Continuous
 62
     3
370
     9
100
AcDbLine
 10
-1072.974045212204
 20
416.9813331397805
 30
0.0
 11
-1072.974045212204
 21
604.9811615815033
 31
0.0
  0
LINE
  5
1D8
330
1F
100
AcDbEntity
  8
1-2
  6
Continuous
 62
     3
370
     9
100
AcDbLine
 10
-1058.973652607686
 20
416.9813331397805
 30
0.0
 11
-1058.973652607686
 21
604.9811615815033
 31
0.0
  0
LINE
  5
1D9
330
1F
100
AcDbEntity
  8
1-2
  6
Continuous
 62
     3
370
     9
100
AcDbLine
 10
-1072.974045212204
 20
216.9815393396328
 30
0.0
 11
-1072.974045212204
 21
404.9809966216216
 31
0.0
  0
LINE
  5
1DA
330
1F
100
AcDbEntity
  8
1-2
  6
Continuous
 62
     3
370
     9
100
AcDbLine
 10
-1058.973652607686
 20
216.9815393396328
 30
0.0
 11
-1058.973652607686
 21
404.9809966216216
 31
0.0
  0
LINE
  5
1DB
330
1F
100
AcDbEntity
  8
1-2
  6
Continuous
 62
     3
370
     9
100
AcDbLine
 10
-1072.974045212204
 20
16.9811269399284
 30
0.0
 11
-1072.974045212204
 21
204.9809553816513
 31
0.0
  0
LINE
  5
1DC
330
1F
100
AcDbEntity
  8
1-2
  6
Continuous
 62
     3
370
     9
100
AcDbLine
 10
-1058.973652607686
 20
16.9811269399284
 30
0.0
 11
-1058.973652607686
 21
204.9809553816513
 31
0.0
  0
LINE
  5
1DD
330
1F
100
AcDbEntity
  8
1-2
  6
Continuous
 62
     3
370
     9
100
AcDbLine
 10
-1072.974045212204
 20
-183.0185431403083
 30
0.0
 11
-1072.974045212204
 21
4.981037861592199
 31
0.0
  0
LINE
  5
1DE
330
1F
100
AcDbEntity
  8
1-2
  6
Continuous
 62
     3
370
     9
100
AcDbLine
 10
-1058.973652607686
 20
-183.0185431403083
 30
0.0
 11
-1058.973652607686
 21
4.981037861592199
 31
0.0
  0
LINE
  5
1DF
330
1F
100
AcDbEntity
  8
1-2
  6
Continuous
 62
     3
370
     9
100
AcDbLine
 10
-1043.174125052787
 20
616.9810032200169
 30
0.0
 11
-1043.174125052787
 21
721.9806073163008
 31
0.0
  0
LINE
  5
1E0
330
1F
100
AcDbEntity
  8
1-2
  6
Continuous
 62
     3
370
     9
100
AcDbLine
 10
-1029.173732448269
 20
616.9810032200169
 30
0.0
 11
-1029.173732448269
 21
721.9806073163008
 31
0.0
  0
LINE
  5
1E1
330
1F
100
AcDbEntity
  8
1-2
  6
Continuous
 62
     3
370
     9
100
AcDbLine
 10
-1043.174125052787
 20
416.9813331397805
 30
0.0
 11
-1043.174125052787
 21
604.9811615815033
 31
0.0
  0
LINE
  5
1E2
330
1F
100
AcDbEntity
  8
1-2
  6
Continuous
 62
     3
370
     9
100
AcDbLine
 10
-1029.173732448269
 20
416.9813331397805
 30
0.0
 11
-1029.173732448269
 21
604.9811615815033
 31
0.0
  0
LINE
  5
1E3
330
1F
100
AcDbEntity
  8
1-2
  6
Continuous
 62
     3
370
     9
100
AcDbLine
 10
-1043.174125052787
 20
216.9815393396328
 30
0.0
 11
-1043.174125052787
 21
404.9809966216216
 31
0.0
  0
LINE
  5
1E4
330
1F
100
AcDbEntity
  8
1-2
  6
Continuous
 62
     3
370
     9
100
AcDbLine
 10
-1029.173732448269
 20
216.9815393396328
 30
0.0
 11
-1029.173732448269
 21
404.9809966216216
 31
0.0
  0
LINE
  5
1E5
330
1F
100
AcDbEntity
  8
1-2
  6
Continuous
 62
     3
370
     9
100
AcDbLine
 10
-1043.174125052787
 20
16.9811269399284
 30
0.0
 11
-1043.174125052787
 21
204.9809553816513
 31
0.0
  0
LINE
  5
1E6
330
1F
100
AcDbEntity
  8
1-2
  6
Continuous
 62
     3
370
     9
100
AcDbLine
 10
-1029.173732448269
 20
16.9811269399284
 30
0.0
 11
-1029.173732448269
 21
204.9809553816513
 31
0.0
  0
LINE
  5
1E7
330
1F
100
AcDbEntity
  8
1-2
  6
Continuous
 62
     3
370
     9
100
AcDbLine
 10
-1043.174125052787
 20
-183.0185431403083
 30
0.0
 11
-1043.174125052787
 21
4.981037861592199
 31
0.0
  0
LINE
  5
1E8
330
1F
100
AcDbEntity
  8
1-2
  6
Continuous
 62
     3
370
     9
100
AcDbLine
 10
-1029.173732448269
 20
-183.0185431403083
 30
0.0
 11
-1029.173732448269
 21
4.981037861592199
 31
0.0
  0
LINE
  5
1E9
330
1F
100
AcDbEntity
  8
1-2
  6
Continuous
 62
     3
370
     9
100
AcDbLine
 10
-1013.374081173459
 20
616.9810032200169
 30
0.0
 11
-1013.374081173459
 21
721.9806073163008
 31
0.0
  0
LINE
  5
1EA
330
1F
100
AcDbEntity
  8
1-2
  6
Continuous
 62
     3
370
     9
100
AcDbLine
 10
-999.37368856894
 20
616.9810032200169
 30
0.0
 11
-999.37368856894
 21
721.9806073163008
 31
0.0
  0
LINE
  5
1EB
330
1F
100
AcDbEntity
  8
1-2
  6
Continuous
 62
     3
370
     9
100
AcDbLine
 10
-1013.374081173459
 20
416.9813331397805
 30
0.0
 11
-1013.374081173459
 21
604.9811615815033
 31
0.0
  0
LINE
  5
1EC
330
1F
100
AcDbEntity
  8
1-2
  6
Continuous
 62
     3
370
     9
100
AcDbLine
 10
-999.37368856894
 20
416.9813331397805
 30
0.0
 11
-999.37368856894
 21
604.9811615815033
 31
0.0
  0
LINE
  5
1ED
330
1F
100
AcDbEntity
  8
1-2
  6
Continuous
 62
     3
370
     9
100
AcDbLine
 10
-1013.374081173459
 20
216.9815393396328
 30
0.0
 11
-1013.374081173459
 21
404.9809966216216
 31
0.0
  0
LINE
  5
1EE
330
1F
100
AcDbEntity
  8
1-2
  6
Continuous
 62
     3
370
     9
100
AcDbLine
 10
-999.37368856894
 20
216.9815393396328
 30
0.0
 11
-999.37368856894
 21
404.9809966216216
 31
0.0
  0
LINE
  5
1EF
330
1F
100
AcDbEntity
  8
1-2
  6
Continuous
 62
     3
370
     9
100
AcDbLine
 10
-1013.374081173459
 20
16.9811269399284
 30
0.0
 11
-1013.374081173459
 21
204.9809553816513
 31
0.0
  0
LINE
  5
1F0
330
1F
100
AcDbEntity
  8
1-2
  6
Continuous
 62
     3
370
     9
100
AcDbLine
 10
-999.37368856894
 20
16.9811269399284
 30
0.0
 11
-999.37368856894
 21
204.9809553816513
 31
0.0
  0
LINE
  5
1F1
330
1F
100
AcDbEntity
  8
1-2
  6
Continuous
 62
     3
370
     9
100
AcDbLine
 10
-1013.374081173459
 20
-183.0185431403083
 30
0.0
 11
-1013.374081173459
 21
4.981037861592199
 31
0.0
  0
LINE
  5
1F2
330
1F
100
AcDbEntity
  8
1-2
  6
Continuous
 62
     3
370
     9
100
AcDbLine
 10
-999.37368856894
 20
-183.0185431403083
 30
0.0
 11
-999.37368856894
 21
4.981037861592199
 31
0.0
  0
LINE
  5
1F3
330
1F
100
AcDbEntity
  8
1-2
  6
Continuous
 62
     3
370
     9
100
AcDbLine
 10
-983.57403729413
 20
616.9810032200169
 30
0.0
 11
-983.57403729413
 21
721.9806073163008
 31
0.0
  0
LINE
  5
1F4
330
1F
100
AcDbEntity
  8
1-2
  6
Continuous
 62
     3
370
     9
100
AcDbLine
 10
-969.5736446896115
 20
616.9810032200169
 30
0.0
 11
-969.5736446896115
 21
721.9806073163008
 31
0.0
  0
LINE
  5
1F5
330
1F
100
AcDbEntity
  8
1-2
  6
Continuous
 62
     3
370
     9
100
AcDbLine
 10
-983.57403729413
 20
416.9813331397805
 30
0.0
 11
-983.57403729413
 21
604.9811615815033
 31
0.0
  0
LINE
  5
1F6
330
1F
100
AcDbEntity
  8
1-2
  6
Continuous
 62
     3
370
     9
100
AcDbLine
 10
-969.5736446896115
 20
416.9813331397805
 30
0.0
 11
-969.5736446896115
 21
604.9811615815033
 31
0.0
  0
LINE
  5
1F7
330
1F
100
AcDbEntity
  8
1-2
  6
Continuous
 62
     3
370
     9
100
AcDbLine
 10
-983.57403729413
 20
216.9815393396328
 30
0.0
 11
-983.57403729413
 21
404.9809966216216
 31
0.0
  0
LINE
  5
1F8
330
1F
100
AcDbEntity
  8
1-2
  6
Continuous
 62
     3
370
     9
100
AcDbLine
 10
-969.5736446896115
 20
216.9815393396328
 30
0.0
 11
-969.5736446896115
 21
404.9809966216216
 31
0.0
  0
LINE
  5
1F9
330
1F
100
AcDbEntity
  8
1-2
  6
Continuous
 62
     3
370
     9
100
AcDbLine
 10
-983.57403729413
 20
16.9811269399284
 30
0.0
 11
-983.57403729413
 21
204.9809553816513
 31
0.0
  0
LINE
  5
1FA
330
1F
100
AcDbEntity
  8
1-2
  6
Continuous
 62
     3
370
     9
100
AcDbLine
 10
-969.5736446896115
 20
16.9811269399284
 30
0.0
 11
-969.5736446896115
 21
204.9809553816513
 31
0.0
  0
LINE
  5
1FB
330
1F
100
AcDbEntity
  8
1-2
  6
Continuous
 62
     3
370
     9
100
AcDbLine
 10
-983.57403729413
 20
-183.0185431403083
 30
0.0
 11
-983.57403729413
 21
4.981037861592199
 31
0.0
  0
LINE
  5
1FC
330
1F
100
AcDbEntity
  8
1-2
  6
Continuous
 62
     3
370
     9
100
AcDbLine
 10
-969.5736446896115
 20
-183.0185431403083
 30
0.0
 11
-969.5736446896115
 21
4.981037861592199
 31
0.0
  0
LINE
  5
1FD
330
1F
100
AcDbEntity
  8
1-2
  6
Continuous
 62
     3
370
     9
100
AcDbLine
 10
-953.7741171347127
 20
616.9810032200169
 30
0.0
 11
-953.7741171347127
 21
721.9806073163008
 31
0.0
  0
LINE
  5
1FE
330
1F
100
AcDbEntity
  8
1-2
  6
Continuous
 62
     3
370
     9
100
AcDbLine
 10
-939.7737245301942
 20
616.9810032200169
 30
0.0
 11
-939.7737245301942
 21
721.9806073163008
 31
0.0
  0
LINE
  5
1FF
330
1F
100
AcDbEntity
  8
1-2
  6
Continuous
 62
     3
370
     9
100
AcDbLine
 10
-953.7741171347127
 20
416.9813331397805
 30
0.0
 11
-953.7741171347127
 21
604.9811615815033
 31
0.0
  0
LINE
  5
200
330
1F
100
AcDbEntity
  8
1-2
  6
Continuous
 62
     3
370
     9
100
AcDbLine
 10
-939.7737245301942
 20
416.9813331397805
 30
0.0
 11
-939.7737245301942
 21
604.9811615815033
 31
0.0
  0
LINE
  5
201
330
1F
100
AcDbEntity
  8
1-2
  6
Continuous
 62
     3
370
     9
100
AcDbLine
 10
-953.7741171347127
 20
216.9815393396328
 30
0.0
 11
-953.7741171347127
 21
404.9809966216216
 31
0.0
  0
LINE
  5
202
330
1F
100
AcDbEntity
  8
1-2
  6
Continuous
 62
     3
370
     9
100
AcDbLine
 10
-939.7737245301942
 20
216.9815393396328
 30
0.0
 11
-939.7737245301942
 21
404.9809966216216
 31
0.0
  0
LINE
  5
203
330
1F
100
AcDbEntity
  8
1-2
  6
Continuous
 62
     3
370
     9
100
AcDbLine
 10
-953.7741171347127
 20
16.9811269399284
 30
0.0
 11
-953.7741171347127
 21
204.9809553816513
 31
0.0
  0
LINE
  5
204
330
1F
100
AcDbEntity
  8
1-2
  6
Continuous
 62
     3
370
     9
100
AcDbLine
 10
-939.7737245301942
 20
16.9811269399284
 30
0.0
 11
-939.7737245301942
 21
204.9809553816513
 31
0.0
  0
LINE
  5
205
330
1F
100
AcDbEntity
  8
1-2
  6
Continuous
 62
     3
370
     9
100
AcDbLine
 10
-953.7741171347127
 20
-183.0185431403083
 30
0.0
 11
-953.7741171347127
 21
4.981037861592199
 31
0.0
  0
LINE
  5
206
330
1F
100
AcDbEntity
  8
1-2
  6
Continuous
 62
     3
370
     9
100
AcDbLine
 10
-939.7737245301942
 20
-183.0185431403083
 30
0.0
 11
-939.7737245301942
 21
4.981037861592199
 31
0.0
  0
LINE
  5
207
330
1F
100
AcDbEntity
  8
1-2
  6
Continuous
 62
     3
370
     9
100
AcDbLine
 10
-923.9741969752956
 20
616.9810032200169
 30
0.0
 11
-923.9741969752956
 21
721.9806073163008
 31
0.0
  0
LINE
  5
208
330
1F
100
AcDbEntity
  8
1-2
  6
Continuous
 62
     3
370
     9
100
AcDbLine
 10
-909.973804370777
 20
616.9810032200169
 30
0.0
 11
-909.973804370777
 21
721.9806073163008
 31
0.0
  0
LINE
  5
209
330
1F
100
AcDbEntity
  8
1-2
  6
Continuous
 62
     3
370
     9
100
AcDbLine
 10
-923.9741969752956
 20
416.9813331397805
 30
0.0
 11
-923.9741969752956
 21
604.9811615815033
 31
0.0
  0
LINE
  5
20A
330
1F
100
AcDbEntity
  8
1-2
  6
Continuous
 62
     3
370
     9
100
AcDbLine
 10
-909.973804370777
 20
416.9813331397805
 30
0.0
 11
-909.973804370777
 21
604.9811615815033
 31
0.0
  0
LINE
  5
20B
330
1F
100
AcDbEntity
  8
1-2
  6
Continuous
 62
     3
370
     9
100
AcDbLine
 10
-923.9741969752956
 20
216.9815393396328
 30
0.0
 11
-923.9741969752956
 21
404.9809966216216
 31
0.0
  0
LINE
  5
20C
330
1F
100
AcDbEntity
  8
1-2
  6
Continuous
 62
     3
370
     9
100
AcDbLine
 10
-909.973804370777
 20
216.9815393396328
 30
0.0
 11
-909.973804370777
 21
404.9809966216216
 31
0.0
  0
LINE
  5
20D
330
1F
100
AcDbEntity
  8
1-2
  6
Continuous
 62
     3
370
     9
100
AcDbLine
 10
-923.9741969752956
 20
16.9811269399284
 30
0.0
 11
-923.9741969752956
 21
204.9809553816513
 31
0.0
  0
LINE
  5
20E
330
1F
100
AcDbEntity
  8
1-2
  6
Continuous
 62
     3
370
     9
100
AcDbLine
 10
-909.973804370777
 20
16.9811269399284
 30
0.0
 11
-909.973804370777
 21
204.9809553816513
 31
0.0
  0
LINE
  5
20F
330
1F
100
AcDbEntity
  8
1-2
  6
Continuous
 62
     3
370
     9
100
AcDbLine
 10
-923.9741969752956
 20
-183.0185431403083
 30
0.0
 11
-923.9741969752956
 21
4.981037861592199
 31
0.0
  0
LINE
  5
210
330
1F
100
AcDbEntity
  8
1-2
  6
Continuous
 62
     3
370
     9
100
AcDbLine
 10
-909.973804370777
 20
-183.0185431403083
 30
0.0
 11
-909.973804370777
 21
4.981037861592199
 31
0.0
  0
LINE
  5
211
330
1F
100
AcDbEntity
  8
1-2
  6
Continuous
 62
     3
370
     9
100
AcDbLine
 10
-894.1741530959671
 20
616.9810032200169
 30
0.0
 11
-894.1741530959671
 21
721.9806073163008
 31
0.0
  0
LINE
  5
212
330
1F
100
AcDbEntity
  8
1-2
  6
Continuous
 62
     3
370
     9
100
AcDbLine
 10
-880.1737604914484
 20
616.9810032200169
 30
0.0
 11
-880.1737604914484
 21
721.9806073163008
 31
0.0
  0
LINE
  5
213
330
1F
100
AcDbEntity
  8
1-2
  6
Continuous
 62
     3
370
     9
100
AcDbLine
 10
-894.1741530959671
 20
416.9813331397805
 30
0.0
 11
-894.1741530959671
 21
604.9811615815033
 31
0.0
  0
LINE
  5
214
330
1F
100
AcDbEntity
  8
1-2
  6
Continuous
 62
     3
370
     9
100
AcDbLine
 10
-880.1737604914484
 20
416.9813331397805
 30
0.0
 11
-880.1737604914484
 21
604.9811615815033
 31
0.0
  0
LINE
  5
215
330
1F
100
AcDbEntity
  8
1-2
  6
Continuous
 62
     3
370
     9
100
AcDbLine
 10
-894.1741530959671
 20
216.9815393396328
 30
0.0
 11
-894.1741530959671
 21
404.9809966216216
 31
0.0
  0
LINE
  5
216
330
1F
100
AcDbEntity
  8
1-2
  6
Continuous
 62
     3
370
     9
100
AcDbLine
 10
-880.1737604914484
 20
216.9815393396328
 30
0.0
 11
-880.1737604914484
 21
404.9809966216216
 31
0.0
  0
LINE
  5
217
330
1F
100
AcDbEntity
  8
1-2
  6
Continuous
 62
     3
370
     9
100
AcDbLine
 10
-894.1741530959671
 20
16.9811269399284
 30
0.0
 11
-894.1741530959671
 21
204.9809553816513
 31
0.0
  0
LINE
  5
218
330
1F
100
AcDbEntity
  8
1-2
  6
Continuous
 62
     3
370
     9
100
AcDbLine
 10
-880.1737604914484
 20
16.9811269399284
 30
0.0
 11
-880.1737604914484
 21
204.9809553816513
 31
0.0
  0
LINE
  5
219
330
1F
100
AcDbEntity
  8
1-2
  6
Continuous
 62
     3
370
     9
100
AcDbLine
 10
-894.1741530959671
 20
-183.0185431403083
 30
0.0
 11
-894.1741530959671
 21
4.981037861592199
 31
0.0
  0
LINE
  5
21A
330
1F
100
AcDbEntity
  8
1-2
  6
Continuous
 62
     3
370
     9
100
AcDbLine
 10
-880.1737604914484
 20
-183.0185431403083
 30
0.0
 11
-880.1737604914484
 21
4.981037861592199
 31
0.0
  0
LINE
  5
21B
330
1F
100
AcDbEntity
  8
1-2
  6
Continuous
 62
     3
370
     9
100
AcDbLine
 10
-864.3741092166384
 20
616.9810032200169
 30
0.0
 11
-864.3741092166384
 21
721.9806073163008
 31
0.0
  0
LINE
  5
21C
330
1F
100
AcDbEntity
  8
1-2
  6
Continuous
 62
     3
370
     9
100
AcDbLine
 10
-850.3737166121199
 20
616.9810032200169
 30
0.0
 11
-850.3737166121199
 21
721.9806073163008
 31
0.0
  0
LINE
  5
21D
330
1F
100
AcDbEntity
  8
1-2
  6
Continuous
 62
     3
370
     9
100
AcDbLine
 10
-864.3741092166384
 20
416.9813331397805
 30
0.0
 11
-864.3741092166384
 21
604.9811615815033
 31
0.0
  0
LINE
  5
21E
330
1F
100
AcDbEntity
  8
1-2
  6
Continuous
 62
     3
370
     9
100
AcDbLine
 10
-850.3737166121199
 20
416.9813331397805
 30
0.0
 11
-850.3737166121199
 21
604.9811615815033
 31
0.0
  0
LINE
  5
21F
330
1F
100
AcDbEntity
  8
1-2
  6
Continuous
 62
     3
370
     9
100
AcDbLine
 10
-864.3741092166384
 20
216.9815393396328
 30
0.0
 11
-864.3741092166384
 21
404.9809966216216
 31
0.0
  0
LINE
  5
220
330
1F
100
AcDbEntity
  8
1-2
  6
Continuous
 62
     3
370
     9
100
AcDbLine
 10
-850.3737166121199
 20
216.9815393396328
 30
0.0
 11
-850.3737166121199
 21
404.9809966216216
 31
0.0
  0
LINE
  5
221
330
1F
100
AcDbEntity
  8
1-2
  6
Continuous
 62
     3
370
     9
100
AcDbLine
 10
-864.3741092166384
 20
16.9811269399284
 30
0.0
 11
-864.3741092166384
 21
204.9809553816513
 31
0.0
  0
LINE
  5
222
330
1F
100
AcDbEntity
  8
1-2
  6
Continuous
 62
     3
370
     9
100
AcDbLine
 10
-850.3737166121199
 20
16.9811269399284
 30
0.0
 11
-850.3737166121199
 21
204.9809553816513
 31
0.0
  0
LINE
  5
223
330
1F
100
AcDbEntity
  8
1-2
  6
Continuous
 62
     3
370
     9
100
AcDbLine
 10
-864.3741092166384
 20
-183.0185431403083
 30
0.0
 11
-864.3741092166384
 21
4.981037861592199
 31
0.0
  0
LINE
  5
224
330
1F
100
AcDbEntity
  8
1-2
  6
Continuous
 62
     3
370
     9
100
AcDbLine
 10
-850.3737166121199
 20
-183.0185431403083
 30
0.0
 11
-850.3737166121199
 21
4.981037861592199
 31
0.0
  0
LINE
  5
225
330
1F
100
AcDbEntity
  8
1-2
  6
Continuous
 62
     3
370
     9
100
AcDbLine
 10
-834.5741890572212
 20
616.9810032200169
 30
0.0
 11
-834.5741890572212
 21
721.9806073163008
 31
0.0
  0
LINE
  5
226
330
1F
100
AcDbEntity
  8
1-2
  6
Continuous
 62
     3
370
     9
100
AcDbLine
 10
-820.5737964527026
 20
616.9810032200169
 30
0.0
 11
-820.5737964527026
 21
721.9806073163008
 31
0.0
  0
LINE
  5
227
330
1F
100
AcDbEntity
  8
1-2
  6
Continuous
 62
     3
370
     9
100
AcDbLine
 10
-834.5741890572212
 20
416.9813331397805
 30
0.0
 11
-834.5741890572212
 21
604.9811615815033
 31
0.0
  0
LINE
  5
228
330
1F
100
AcDbEntity
  8
1-2
  6
Continuous
 62
     3
370
     9
100
AcDbLine
 10
-820.5737964527026
 20
416.9813331397805
 30
0.0
 11
-820.5737964527026
 21
604.9811615815033
 31
0.0
  0
LINE
  5
229
330
1F
100
AcDbEntity
  8
1-2
  6
Continuous
 62
     3
370
     9
100
AcDbLine
 10
-834.5741890572212
 20
216.9815393396328
 30
0.0
 11
-834.5741890572212
 21
404.9809966216216
 31
0.0
  0
LINE
  5
22A
330
1F
100
AcDbEntity
  8
1-2
  6
Continuous
 62
     3
370
     9
100
AcDbLine
 10
-820.5737964527026
 20
216.9815393396328
 30
0.0
 11
-820.5737964527026
 21
404.9809966216216
 31
0.0
  0
LINE
  5
22B
330
1F
100
AcDbEntity
  8
1-2
  6
Continuous
 62
     3
370
     9
100
AcDbLine
 10
-834.5741890572212
 20
16.9811269399284
 30
0.0
 11
-834.5741890572212
 21
204.9809553816513
 31
0.0
  0
LINE
  5
22C
330
1F
100
AcDbEntity
  8
1-2
  6
Continuous
 62
     3
370
     9
100
AcDbLine
 10
-820.5737964527026
 20
16.9811269399284
 30
0.0
 11
-820.5737964527026
 21
204.9809553816513
 31
0.0
  0
LINE
  5
22D
330
1F
100
AcDbEntity
  8
1-2
  6
Continuous
 62
     3
370
     9
100
AcDbLine
 10
-834.5741890572212
 20
-183.0185431403083
 30
0.0
 11
-834.5741890572212
 21
4.981037861592199
 31
0.0
  0
LINE
  5
22E
330
1F
100
AcDbEntity
  8
1-2
  6
Continuous
 62
     3
370
     9
100
AcDbLine
 10
-820.5737964527026
 20
-183.0185431403083
 30
0.0
 11
-820.5737964527026
 21
4.981037861592199
 31
0.0
  0
LINE
  5
22F
330
1F
100
AcDbEntity
  8
1-2
  6
Continuous
 62
     3
370
     9
100
AcDbLine
 10
-804.774268897804
 20
616.9810032200169
 30
0.0
 11
-804.774268897804
 21
721.9806073163008
 31
0.0
  0
LINE
  5
230
330
1F
100
AcDbEntity
  8
1-2
  6
Continuous
 62
     3
370
     9
100
AcDbLine
 10
-790.7738762932854
 20
616.9810032200169
 30
0.0
 11
-790.7738762932854
 21
721.9806073163008
 31
0.0
  0
LINE
  5
231
330
1F
100
AcDbEntity
  8
1-2
  6
Continuous
 62
     3
370
     9
100
AcDbLine
 10
-804.774268897804
 20
416.9813331397805
 30
0.0
 11
-804.774268897804
 21
604.9811615815033
 31
0.0
  0
LINE
  5
232
330
1F
100
AcDbEntity
  8
1-2
  6
Continuous
 62
     3
370
     9
100
AcDbLine
 10
-790.7738762932854
 20
416.9813331397805
 30
0.0
 11
-790.7738762932854
 21
604.9811615815033
 31
0.0
  0
LINE
  5
233
330
1F
100
AcDbEntity
  8
1-2
  6
Continuous
 62
     3
370
     9
100
AcDbLine
 10
-804.774268897804
 20
216.9815393396328
 30
0.0
 11
-804.774268897804
 21
404.9809966216216
 31
0.0
  0
LINE
  5
234
330
1F
100
AcDbEntity
  8
1-2
  6
Continuous
 62
     3
370
     9
100
AcDbLine
 10
-790.7738762932854
 20
216.9815393396328
 30
0.0
 11
-790.7738762932854
 21
404.9809966216216
 31
0.0
  0
LINE
  5
235
330
1F
100
AcDbEntity
  8
1-2
  6
Continuous
 62
     3
370
     9
100
AcDbLine
 10
-804.774268897804
 20
16.9811269399284
 30
0.0
 11
-804.774268897804
 21
204.9809553816513
 31
0.0
  0
LINE
  5
236
330
1F
100
AcDbEntity
  8
1-2
  6
Continuous
 62
     3
370
     9
100
AcDbLine
 10
-790.7738762932854
 20
16.9811269399284
 30
0.0
 11
-790.7738762932854
 21
204.9809553816513
 31
0.0
  0
LINE
  5
237
330
1F
100
AcDbEntity
  8
1-2
  6
Continuous
 62
     3
370
     9
100
AcDbLine
 10
-804.774268897804
 20
-183.0185431403083
 30
0.0
 11
-804.774268897804
 21
4.981037861592199
 31
0.0
  0
LINE
  5
238
330
1F
100
AcDbEntity
  8
1-2
  6
Continuous
 62
     3
370
     9
100
AcDbLine
 10
-790.7738762932854
 20
-183.0185431403083
 30
0.0
 11
-790.7738762932854
 21
4.981037861592199
 31
0.0
  0
LINE
  5
239
330
1F
100
AcDbEntity
  8
1-2
  6
Continuous
 62
     3
370
     9
100
AcDbLine
 10
-774.9742250184755
 20
616.9810032200169
 30
0.0
 11
-774.9742250184755
 21
721.9806073163008
 31
0.0
  0
LINE
  5
23A
330
1F
100
AcDbEntity
  8
1-2
  6
Continuous
 62
     3
370
     9
100
AcDbLine
 10
-760.9738324139568
 20
616.9810032200169
 30
0.0
 11
-760.9738324139568
 21
721.9806073163008
 31
0.0
  0
LINE
  5
23B
330
1F
100
AcDbEntity
  8
1-2
  6
Continuous
 62
     3
370
     9
100
AcDbLine
 10
-774.9742250184755
 20
416.9813331397805
 30
0.0
 11
-774.9742250184755
 21
604.9811615815033
 31
0.0
  0
LINE
  5
23C
330
1F
100
AcDbEntity
  8
1-2
  6
Continuous
 62
     3
370
     9
100
AcDbLine
 10
-760.9738324139568
 20
416.9813331397805
 30
0.0
 11
-760.9738324139568
 21
604.9811615815033
 31
0.0
  0
LINE
  5
23D
330
1F
100
AcDbEntity
  8
1-2
  6
Continuous
 62
     3
370
     9
100
AcDbLine
 10
-774.9742250184755
 20
216.9815393396328
 30
0.0
 11
-774.9742250184755
 21
404.9809966216216
 31
0.0
  0
LINE
  5
23E
330
1F
100
AcDbEntity
  8
1-2
  6
Continuous
 62
     3
370
     9
100
AcDbLine
 10
-760.9738324139568
 20
216.9815393396328
 30
0.0
 11
-760.9738324139568
 21
404.9809966216216
 31
0.0
  0
LINE
  5
23F
330
1F
100
AcDbEntity
  8
1-2
  6
Continuous
 62
     3
370
     9
100
AcDbLine
 10
-774.9742250184755
 20
16.9811269399284
 30
0.0
 11
-774.9742250184755
 21
204.9809553816513
 31
0.0
  0
LINE
  5
240
330
1F
100
AcDbEntity
  8
1-2
  6
Continuous
 62
     3
370
     9
100
AcDbLine
 10
-760.9738324139568
 20
16.9811269399284
 30
0.0
 11
-760.9738324139568
 21
204.9809553816513
 31
0.0
  0
LINE
  5
241
330
1F
100
AcDbEntity
  8
1-2
  6
Continuous
 62
     3
370
     9
100
AcDbLine
 10
-774.9742250184755
 20
-183.0185431403083
 30
0.0
 11
-774.9742250184755
 21
4.981037861592199
 31
0.0
  0
LINE
  5
242
330
1F
100
AcDbEntity
  8
1-2
  6
Continuous
 62
     3
370
     9
100
AcDbLine
 10
-760.9738324139568
 20
-183.0185431403083
 30
0.0
 11
-760.9738324139568
 21
4.981037861592199
 31
0.0
  0
LINE
  5
243
330
1F
100
AcDbEntity
  8
1-2
  6
Continuous
 62
     3
370
     9
100
AcDbLine
 10
-745.1741811391469
 20
616.9810032200169
 30
0.0
 11
-745.1741811391469
 21
721.9806073163008
 31
0.0
  0
LINE
  5
244
330
1F
100
AcDbEntity
  8
1-2
  6
Continuous
 62
     3
370
     9
100
AcDbLine
 10
-731.1737885346283
 20
616.9810032200169
 30
0.0
 11
-731.1737885346283
 21
721.9806073163008
 31
0.0
  0
LINE
  5
245
330
1F
100
AcDbEntity
  8
1-2
  6
Continuous
 62
     3
370
     9
100
AcDbLine
 10
-745.1741811391469
 20
416.9813331397805
 30
0.0
 11
-745.1741811391469
 21
604.9811615815033
 31
0.0
  0
LINE
  5
246
330
1F
100
AcDbEntity
  8
1-2
  6
Continuous
 62
     3
370
     9
100
AcDbLine
 10
-731.1737885346283
 20
416.9813331397805
 30
0.0
 11
-731.1737885346283
 21
604.9811615815033
 31
0.0
  0
LINE
  5
247
330
1F
100
AcDbEntity
  8
1-2
  6
Continuous
 62
     3
370
     9
100
AcDbLine
 10
-745.1741811391469
 20
216.9815393396328
 30
0.0
 11
-745.1741811391469
 21
404.9809966216216
 31
0.0
  0
LINE
  5
248
330
1F
100
AcDbEntity
  8
1-2
  6
Continuous
 62
     3
370
     9
100
AcDbLine
 10
-731.1737885346283
 20
216.9815393396328
 30
0.0
 11
-731.1737885346283
 21
404.9809966216216
 31
0.0
  0
LINE
  5
249
330
1F
100
AcDbEntity
  8
1-2
  6
Continuous
 62
     3
370
     9
100
AcDbLine
 10
-745.1741811391469
 20
16.9811269399284
 30
0.0
 11
-745.1741811391469
 21
204.9809553816513
 31
0.0
  0
LINE
  5
24A
330
1F
100
AcDbEntity
  8
1-2
  6
Continuous
 62
     3
370
     9
100
AcDbLine
 10
-731.1737885346283
 20
16.9811269399284
 30
0.0
 11
-731.1737885346283
 21
204.9809553816513
 31
0.0
  0
LINE
  5
24B
330
1F
100
AcDbEntity
  8
1-2
  6
Continuous
 62
     3
370
     9
100
AcDbLine
 10
-745.1741811391469
 20
-183.0185431403083
 30
0.0
 11
-745.1741811391469
 21
4.981037861592199
 31
0.0
  0
LINE
  5
24C
330
1F
100
AcDbEntity
  8
1-2
  6
Continuous
 62
     3
370
     9
100
AcDbLine
 10
-731.1737885346283
 20
-183.0185431403083
 30
0.0
 11
-731.1737885346283
 21
4.981037861592199
 31
0.0
  0
LINE
  5
24D
330
1F
100
AcDbEntity
  8
1-2
  6
Continuous
 62
     3
370
     9
100
AcDbLine
 10
-715.3742609797297
 20
616.9810032200169
 30
0.0
 11
-715.3742609797297
 21
721.9806073163008
 31
0.0
  0
LINE
  5
24E
330
1F
100
AcDbEntity
  8
1-2
  6
Continuous
 62
     3
370
     9
100
AcDbLine
 10
-701.3738683752113
 20
616.9810032200169
 30
0.0
 11
-701.3738683752113
 21
721.9806073163008
 31
0.0
  0
LINE
  5
24F
330
1F
100
AcDbEntity
  8
1-2
  6
Continuous
 62
     3
370
     9
100
AcDbLine
 10
-715.3742609797297
 20
416.9813331397805
 30
0.0
 11
-715.3742609797297
 21
604.9811615815033
 31
0.0
  0
LINE
  5
250
330
1F
100
AcDbEntity
  8
1-2
  6
Continuous
 62
     3
370
     9
100
AcDbLine
 10
-701.3738683752113
 20
416.9813331397805
 30
0.0
 11
-701.3738683752113
 21
604.9811615815033
 31
0.0
  0
LINE
  5
251
330
1F
100
AcDbEntity
  8
1-2
  6
Continuous
 62
     3
370
     9
100
AcDbLine
 10
-715.3742609797297
 20
216.9815393396328
 30
0.0
 11
-715.3742609797297
 21
404.9809966216216
 31
0.0
  0
LINE
  5
252
330
1F
100
AcDbEntity
  8
1-2
  6
Continuous
 62
     3
370
     9
100
AcDbLine
 10
-701.3738683752113
 20
216.9815393396328
 30
0.0
 11
-701.3738683752113
 21
404.9809966216216
 31
0.0
  0
LINE
  5
253
330
1F
100
AcDbEntity
  8
1-2
  6
Continuous
 62
     3
370
     9
100
AcDbLine
 10
-715.3742609797297
 20
16.9811269399284
 30
0.0
 11
-715.3742609797297
 21
204.9809553816513
 31
0.0
  0
LINE
  5
254
330
1F
100
AcDbEntity
  8
1-2
  6
Continuous
 62
     3
370
     9
100
AcDbLine
 10
-701.3738683752113
 20
16.9811269399284
 30
0.0
 11
-701.3738683752113
 21
204.9809553816513
 31
0.0
  0
LINE
  5
255
330
1F
100
AcDbEntity
  8
1-2
  6
Continuous
 62
     3
370
     9
100
AcDbLine
 10
-715.3742609797297
 20
-183.0185431403083
 30
0.0
 11
-715.3742609797297
 21
4.981037861592199
 31
0.0
  0
LINE
  5
256
330
1F
100
AcDbEntity
  8
1-2
  6
Continuous
 62
     3
370
     9
100
AcDbLine
 10
-701.3738683752113
 20
-183.0185431403083
 30
0.0
 11
-701.3738683752113
 21
4.981037861592199
 31
0.0
  0
LINE
  5
257
330
1F
100
AcDbEntity
  8
1-4
  6
Continuous
 62
     7
370
     9
100
AcDbLine
 10
-1223.799257020692
 20
1023.254180083404
 30
0.0
 11
-669.2546947582346
 21
1023.254180083404
 31
0.0
  0
LINE
  5
258
330
1F
100
AcDbEntity
  8
1-4
  6
Continuous
 62
     7
370
     9
100
AcDbLine
 10
-1167.699824152766
 20
942.6113149282096
 30
0.0
 11
-775.7245862806164
 21
942.6113149282096
 31
0.0
  0
LINE
  5
259
330
1F
100
AcDbEntity
  8
1-4
  6
Continuous
 62
     7
370
     9
100
AcDbLine
 10
-1132.637725005279
 20
868.9811417863177
 30
0.0
 11
-657.4212564004432
 21
868.9811417863177
 31
0.0
  0
LINE
  5
25A
330
1F
100
AcDbEntity
  8
1-4
  6
Continuous
 62
     7
370
     9
100
AcDbLine
 10
-1347.744091137035
 20
726.5490887616133
 30
0.0
 11
-1223.799257020692
 21
1023.254180083404
 31
0.0
  0
LINE
  5
25B
330
1F
100
AcDbEntity
  8
1-2
  6
Continuous
 62
     3
370
     9
100
AcDbLine
 10
-1192.173973289696
 20
616.9810032200169
 30
0.0
 11
-1192.173973289696
 21
721.9806073163008
 31
0.0
  0
LINE
  5
25C
330
1F
100
AcDbEntity
  8
1-4
  6
Continuous
 62
     7
370
     9
100
AcDbLine
 10
-1347.744091137035
 20
726.5490887616133
 30
0.0
 11
-1341.201039907095
 21
750.6776881862334
 31
0.0
  0
LINE
  5
25D
330
1F
100
AcDbEntity
  8
1-4
  6
Continuous
 62
     7
370
     9
100
AcDbLine
 10
-1347.744091137035
 20
726.5490887616133
 30
0.0
 11
-1335.179096943623
 21
748.1619675095019
 31
0.0
  0
LINE
  5
25E
330
1F
100
AcDbEntity
  8
1-4
  6
Continuous
 62
     7
370
     9
100
AcDbLine
 10
-1293.052714579814
 20
612.5483662373313
 30
0.0
 11
-1287.052175161001
 21
636.8177589210304
 31
0.0
  0
LINE
  5
25F
330
1F
100
AcDbEntity
  8
1-4
  6
Continuous
 62
     7
370
     9
100
AcDbLine
 10
-1293.052714579814
 20
612.5483662373313
 30
0.0
 11
-1280.975424276816
 21
634.4378827069258
 31
0.0
  0
LINE
  5
260
330
1F
100
AcDbEntity
  8
1-4
  6
Continuous
 62
     7
370
     9
100
AcDbLine
 10
-1214.150836016681
 20
644.4903729413008
 30
0.0
 11
-1208.396128061655
 21
668.8191511824325
 31
0.0
  0
LINE
  5
261
330
1F
100
AcDbEntity
  8
1-4
  6
Continuous
 62
     7
370
     9
100
AcDbLine
 10
-1214.150836016681
 20
644.4903729413008
 30
0.0
 11
-1202.295499234586
 21
666.5006400443415
 31
0.0
  0
LINE
  5
262
330
1F
100
AcDbEntity
  8
1-1
  6
Continuous
 62
     2
370
     9
100
AcDbLine
 10
131.0495737436656
 20
636.9818115234375
 30
0.0
 11
16.64997822529585
 21
636.9818115234375
 31
0.0
  0
LINE
  5
263
330
1F
100
AcDbEntity
  8
1-1
  6
Continuous
 62
     2
370
     9
100
AcDbLine
 10
3.849916200380221
 20
649.7818735483531
 30
0.0
 11
3.849916200380221
 21
704.1820134343328
 31
0.0
  0
LINE
  5
264
330
1F
100
AcDbEntity
  8
1-1
  6
Continuous
 62
     2
370
     9
100
AcDbLine
 10
131.0495737436656
 20
710.5817970069679
 30
0.0
 11
16.6497307854732
 21
710.5817970069679
 31
0.0
  0
LINE
  5
265
330
1F
100
AcDbEntity
  8
1-1
  6
Continuous
 62
     2
370
     9
100
AcDbLine
 10
137.4498521959461
 20
649.7818735483531
 30
0.0
 11
137.4498521959461
 21
704.1815185546875
 31
0.0
  0
LINE
  5
266
330
1F
100
AcDbEntity
  8
1-1
  6
Continuous
 62
     2
370
     9
100
AcDbLine
 10
131.0495737436656
 20
716.9818280194258
 30
0.0
 11
16.64997822529585
 21
716.9818280194258
 31
0.0
  0
LINE
  5
267
330
1F
100
AcDbEntity
  8
1-1
  6
Continuous
 62
     2
370
     9
100
AcDbLine
 10
143.8496357685813
 20
649.7818735483531
 30
0.0
 11
143.8496357685813
 21
704.1820134343328
 31
0.0
  0
LINE
  5
268
330
1F
100
AcDbEntity
  8
1-1
  6
Continuous
 62
     2
370
     9
100
AcDbLine
 10
16.64997822529585
 20
643.3820899757179
 30
0.0
 11
131.0495737436656
 21
643.3820899757179
 31
0.0
  0
LINE
  5
269
330
1F
100
AcDbEntity
  8
1-1
  6
Continuous
 62
     2
370
     9
100
AcDbLine
 10
10.24969977301538
 20
649.7818735483531
 30
0.0
 11
10.24969977301538
 21
704.1815185546875
 31
0.0
  0
LINE
  5
26A
330
1F
100
AcDbEntity
  8
1-1
  6
Continuous
 62
     2
370
     9
100
AcDbLine
 10
131.0495737436656
 20
-415.0191106023015
 30
0.0
 11
16.64997822529585
 21
-415.0191106023015
 31
0.0
  0
LINE
  5
26B
330
1F
100
AcDbEntity
  8
1-1
  6
Continuous
 62
     2
370
     9
100
AcDbLine
 10
3.849916200380221
 20
-427.8191726272171
 30
0.0
 11
3.849916200380221
 21
-482.2193125131968
 31
0.0
  0
LINE
  5
26C
330
1F
100
AcDbEntity
  8
1-1
  6
Continuous
 62
     2
370
     9
100
AcDbLine
 10
131.0495737436656
 20
-488.6190960858319
 30
0.0
 11
16.6497307854732
 21
-488.6190960858319
 31
0.0
  0
LINE
  5
26D
330
1F
100
AcDbEntity
  8
1-1
  6
Continuous
 62
     2
370
     9
100
AcDbLine
 10
137.4498521959461
 20
-427.8191726272171
 30
0.0
 11
137.4498521959461
 21
-482.2188176335515
 31
0.0
  0
LINE
  5
26E
330
1F
100
AcDbEntity
  8
1-1
  6
Continuous
 62
     2
370
     9
100
AcDbLine
 10
131.0495737436656
 20
-495.0191270982896
 30
0.0
 11
16.64997822529585
 21
-495.0191270982896
 31
0.0
  0
LINE
  5
26F
330
1F
100
AcDbEntity
  8
1-1
  6
Continuous
 62
     2
370
     9
100
AcDbLine
 10
143.8496357685813
 20
-427.8191726272171
 30
0.0
 11
143.8496357685813
 21
-482.2193125131968
 31
0.0
  0
LINE
  5
270
330
1F
100
AcDbEntity
  8
1-1
  6
Continuous
 62
     2
370
     9
100
AcDbLine
 10
16.64997822529585
 20
-421.4193890545819
 30
0.0
 11
131.0495737436656
 21
-421.4193890545819
 31
0.0
  0
LINE
  5
271
330
1F
100
AcDbEntity
  8
1-1
  6
Continuous
 62
     2
370
     9
100
AcDbLine
 10
10.24969977301538
 20
-427.8191726272171
 30
0.0
 11
10.24969977301538
 21
-482.2188176335515
 31
0.0
  0
LINE
  5
272
330
1F
100
AcDbEntity
  8
1-4
  6
Continuous
 62
     2
370
     9
100
AcDbLine
 10
527.0270270270271
 20
-512.027027027027
 30
0.0
 11
527.0270270270271
 21
-462.0263671875
 31
0.0
  0
LINE
  5
273
330
1F
100
AcDbEntity
  8
1-4
  6
Continuous
 62
     2
370
     9
100
AcDbLine
 10
527.0270270270271
 20
-462.0263671875
 30
0.0
 11
752.0270270270271
 21
-462.0263671875
 31
0.0
  0
LINE
  5
274
330
1F
100
AcDbEntity
  8
1-4
  6
Continuous
 62
     2
370
     9
100
AcDbLine
 10
752.0270270270271
 20
-462.0263671875
 30
0.0
 11
752.0270270270271
 21
-512.027027027027
 31
0.0
  0
LINE
  5
275
330
1F
100
AcDbEntity
  8
1-4
  6
Continuous
 62
     2
370
     9
100
AcDbLine
 10
752.0270270270271
 20
-512.027027027027
 30
0.0
 11
527.0270270270271
 21
-512.027027027027
 31
0.0
  0
LINE
  5
276
330
1F
100
AcDbEntity
  8
1-4
  6
Continuous
 62
     7
370
     9
100
AcDbLine
 10
-1668.972943280194
 20
-626.6224711650126
 30
0.0
 11
-672.9729729729729
 21
-626.6224711650126
 31
0.0
  0
LINE
  5
277
330
1F
100
AcDbEntity
  8
1-4
  6
Continuous
 62
     7
370
     9
100
AcDbLine
 10
-1668.972943280194
 20
-524.0189505912161
 30
0.0
 11
-1668.972943280194
 21
-629.622431574641
 31
0.0
  0
LINE
  5
278
330
1F
100
AcDbEntity
  8
1-4
  6
Continuous
 62
     7
370
     9
100
AcDbLine
 10
-672.9729729729729
 20
-524.0189505912161
 30
0.0
 11
-672.9729729729729
 21
-629.622431574641
 31
0.0
  0
LINE
  5
279
330
1F
100
AcDbEntity
  8
1-4
  6
Continuous
 62
     7
370
     9
100
AcDbLine
 10
-106.1499518317143
 20
-626.6224711650126
 30
0.0
 11
3.849916200380221
 21
-626.6224711650126
 31
0.0
  0
LINE
  5
27A
330
1F
100
AcDbEntity
  8
1-4
  6
Continuous
 62
     7
370
     9
100
AcDbLine
 10
3.849916200380221
 20
-524.0189505912161
 30
0.0
 11
3.849916200380221
 21
-629.622431574641
 31
0.0
  0
LINE
  5
27B
330
1F
100
AcDbEntity
  8
1-4
  6
Continuous
 62
     7
370
     9
100
AcDbLine
 10
3.849916200380221
 20
-626.6224711650126
 30
0.0
 11
143.8496357685813
 21
-626.6224711650126
 31
0.0
  0
LINE
  5
27C
330
1F
100
AcDbEntity
  8
1-4
  6
Continuous
 62
     7
370
     9
100
AcDbLine
 10
-106.1499518317143
 20
-715.8116603542019
 30
0.0
 11
143.8496357685813
 21
-715.8116603542019
 31
0.0
  0
LINE
  5
27D
330
1F
100
AcDbEntity
  8
1-4
  6
Continuous
 62
     7
370
     9
100
AcDbLine
 10
-106.1499518317143
 20
-525.5352618243242
 30
0.0
 11
-106.1499518317143
 21
-718.8116207638302
 31
0.0
  0
LINE
  5
27E
330
1F
100
AcDbEntity
  8
1-4
  6
Continuous
 62
     7
370
     9
100
AcDbLine
 10
143.8496357685813
 20
-497.2193620011614
 30
0.0
 11
143.8496357685813
 21
-718.8116207638302
 31
0.0
  0
LINE
  5
27F
330
1F
100
AcDbEntity
  8
1-4
  6
Continuous
 62
     7
370
     9
100
AcDbLine
 10
-218.9189189189187
 20
-509.0189011032517
 30
0.0
 11
-218.9189189189187
 21
730.9817257442992
 31
0.0
  0
LINE
  5
280
330
1F
100
AcDbEntity
  8
1-4
  6
Continuous
 62
     7
370
     9
100
AcDbLine
 10
-121.1500013196789
 20
-509.0189011032517
 30
0.0
 11
-221.9188793285471
 21
-509.0189011032517
 31
0.0
  0
LINE
  5
281
330
1F
100
AcDbEntity
  8
1-4
  6
Continuous
 62
     7
370
     9
100
AcDbLine
 10
-121.1500013196789
 20
730.9817257442992
 30
0.0
 11
-221.9188793285471
 21
730.9817257442992
 31
0.0
  0
LINE
  5
282
330
1F
100
AcDbEntity
  8
1-4
  6
Continuous
 62
     7
370
     9
100
AcDbLine
 10
248.9190178948482
 20
-509.0189011032517
 30
0.0
 11
248.9190178948482
 21
-537.6131707268792
 31
0.0
  0
LINE
  5
283
330
1F
100
AcDbEntity
  8
1-4
  6
Continuous
 62
     7
370
     9
100
AcDbLine
 10
18.84996568834481
 20
-509.0189011032517
 30
0.0
 11
251.9189783044766
 21
-509.0189011032517
 31
0.0
  0
LINE
  5
284
330
1F
100
AcDbEntity
  8
1-4
  6
Continuous
 62
     7
370
     9
100
AcDbLine
 10
146.0496232316302
 20
-495.0192508182009
 30
0.0
 11
251.9189783044766
 21
-495.0192508182009
 31
0.0
  0
LINE
  5
285
330
1F
100
AcDbEntity
  8
1-4
  6
Continuous
 62
     7
370
     9
100
AcDbLine
 10
248.9190178948482
 20
-495.0192508182009
 30
0.0
 11
248.9190178948482
 21
-415.0192343222128
 31
0.0
  0
LINE
  5
286
330
1F
100
AcDbEntity
  8
1-4
  6
Continuous
 62
     7
370
     9
100
AcDbLine
 10
146.0496232316302
 20
-415.0192343222128
 30
0.0
 11
251.9189783044766
 21
-415.0192343222128
 31
0.0
  0
LINE
  5
287
330
1F
100
AcDbEntity
  8
1-4
  6
Continuous
 62
     7
370
     9
100
AcDbLine
 10
248.9190178948482
 20
-415.0192343222128
 30
0.0
 11
248.9190178948482
 21
636.9818115234375
 31
0.0
  0
LINE
  5
288
330
1F
100
AcDbEntity
  8
1-4
  6
Continuous
 62
     7
370
     9
100
AcDbLine
 10
146.0496232316302
 20
636.9818115234375
 30
0.0
 11
251.9189783044766
 21
636.9818115234375
 31
0.0
  0
LINE
  5
289
330
1F
100
AcDbEntity
  8
1-4
  6
Continuous
 62
     7
370
     9
100
AcDbLine
 10
248.9190178948482
 20
636.9818115234375
 30
0.0
 11
248.9190178948482
 21
757.5728462837839
 31
0.0
  0
LINE
  5
28A
330
1F
100
AcDbEntity
  8
1-4
  6
Continuous
 62
     7
370
     9
100
AcDbLine
 10
146.0496232316302
 20
716.9818280194258
 30
0.0
 11
251.9189783044766
 21
716.9818280194258
 31
0.0
  0
LINE
  5
28B
330
1F
100
AcDbEntity
  8
1-4
  6
Continuous
 62
     7
370
     9
100
AcDbLine
 10
248.9190178948482
 20
716.9818280194258
 30
0.0
 11
248.9190178948482
 21
730.9817257442992
 31
0.0
  0
LINE
  5
28C
330
1F
100
AcDbEntity
  8
1-4
  6
Continuous
 62
     7
370
     9
100
AcDbLine
 10
18.84996568834481
 20
730.9817257442992
 30
0.0
 11
251.9189783044766
 21
730.9817257442992
 31
0.0
  0
LINE
  5
28D
330
1F
100
AcDbEntity
  8
1-4
  6
Continuous
 62
     7
370
     9
100
AcDbLine
 10
143.8496357685813
 20
-531.3546752929688
 30
0.0
 11
143.8496357685813
 21
-629.622431574641
 31
0.0
  0
LINE
  5
28E
330
1F
100
AcDbEntity
  8
1-5
  6
Continuous
 62
     7
370
     9
100
AcDbLine
 10
199.0517281197214
 20
963.0320286106419
 30
0.0
 11
89.60563041068411
 21
716.734883076436
 31
0.0
  0
LINE
  5
28F
330
1F
100
AcDbEntity
  8
1-5
  6
Continuous
 62
     7
370
     9
100
AcDbLine
 10
89.60563041068411
 20
716.734883076436
 30
0.0
 11
96.6888427734375
 21
740.7105646906675
 31
0.0
  0
LINE
  5
290
330
1F
100
AcDbEntity
  8
1-5
  6
Continuous
 62
     7
370
     9
100
AcDbLine
 10
89.60563041068411
 20
716.734883076436
 30
0.0
 11
102.6526373785896
 21
738.0602367504224
 31
0.0
  0
LINE
  5
291
330
1F
100
AcDbEntity
  8
1-2
  6
Continuous
 62
     3
370
     9
100
AcDbLine
 10
-106.1499518317143
 20
730.9817257442992
 30
0.0
 11
-6.149869351773418
 21
730.9817257442992
 31
0.0
  0
LINE
  5
292
330
1F
100
AcDbEntity
  8
1-2
  6
Continuous
 62
     3
370
     9
100
AcDbLine
 10
-6.149869351773418
 20
730.9817257442992
 30
0.0
 11
-6.149869351773418
 21
721.9818445154141
 31
0.0
  0
LINE
  5
293
330
1F
100
AcDbEntity
  8
1-2
  6
Continuous
 62
     3
370
     9
100
AcDbLine
 10
-106.1499518317143
 20
721.9818445154141
 30
0.0
 11
3.849916200380221
 21
721.9818445154141
 31
0.0
  0
LINE
  5
294
330
1F
100
AcDbEntity
  8
1-2
  6
Continuous
 62
     3
370
     9
100
AcDbLine
 10
-106.1499518317143
 20
-509.0189011032517
 30
0.0
 11
-6.149869351773418
 21
-509.0189011032517
 31
0.0
  0
LINE
  5
295
330
1F
100
AcDbEntity
  8
1-2
  6
Continuous
 62
     3
370
     9
100
AcDbLine
 10
-6.149869351773418
 20
-509.0189011032517
 30
0.0
 11
-6.149869351773418
 21
-500.0190198743666
 31
0.0
  0
LINE
  5
296
330
1F
100
AcDbEntity
  8
1-2
  6
Continuous
 62
     3
370
     9
100
AcDbLine
 10
-106.1499518317143
 20
-500.0190198743666
 30
0.0
 11
3.849916200380221
 21
-500.0190198743666
 31
0.0
  0
LINE
  5
297
330
1F
100
AcDbEntity
  8
1-2
  6
Continuous
 62
     3
370
     9
100
AcDbLine
 10
3.849916200380221
 20
721.9818445154141
 30
0.0
 11
3.849916200380221
 21
-500.0190198743666
 31
0.0
  0
LINE
  5
298
330
1F
100
AcDbEntity
  8
1-1
  6
JWW_DASHED1
 62
     2
370
     9
100
AcDbLine
 10
-1658.972910288218
 20
716.9810856999578
 30
0.0
 11
-682.9730059649492
 21
716.9810856999578
 31
0.0
  0
LINE
  5
299
330
1F
100
AcDbEntity
  8
1-1
  6
JWW_DASHED1
 62
     2
370
     9
100
AcDbLine
 10
-682.9730059649492
 20
-495.0188796584671
 30
0.0
 11
-1658.972910288218
 21
-495.0188796584671
 31
0.0
  0
LINE
  5
29A
330
1F
100
AcDbEntity
  8
1-1
  6
JWW_DASHED1
 62
     2
370
     9
100
AcDbLine
 10
-1658.972910288218
 20
636.9810692039698
 30
0.0
 11
-682.9730059649492
 21
636.9810692039698
 31
0.0
  0
LINE
  5
29B
330
1F
100
AcDbEntity
  8
1-1
  6
JWW_DASHED1
 62
     2
370
     9
100
AcDbLine
 10
-682.9730059649492
 20
-415.0188631624787
 30
0.0
 11
-1658.972910288218
 21
-415.0188631624787
 31
0.0
  0
LINE
  5
29C
330
1F
100
AcDbEntity
  8
1-1
  6
JWW_DASHED1
 62
     2
370
     9
100
AcDbLine
 10
-1658.972910288218
 20
-495.0188796584671
 30
0.0
 11
-1658.972910288218
 21
-415.0188631624787
 31
0.0
  0
LINE
  5
29D
330
1F
100
AcDbEntity
  8
1-1
  6
JWW_DASHED1
 62
     2
370
     9
100
AcDbLine
 10
-1658.972910288218
 20
636.9810692039698
 30
0.0
 11
-1658.972910288218
 21
716.9810856999578
 31
0.0
  0
LINE
  5
29E
330
1F
100
AcDbEntity
  8
1-1
  6
JWW_DASHED1
 62
     2
370
     9
100
AcDbLine
 10
-682.9730059649492
 20
716.9810856999578
 30
0.0
 11
-682.9730059649492
 21
636.9810692039698
 31
0.0
  0
LINE
  5
29F
330
1F
100
AcDbEntity
  8
1-1
  6
JWW_DASHED1
 62
     2
370
     9
100
AcDbLine
 10
-682.9730059649492
 20
-415.0188631624787
 30
0.0
 11
-682.9730059649492
 21
-495.0188796584671
 31
0.0
  0
LINE
  5
2A0
330
1F
100
AcDbEntity
  8
1-A
  6
Continuous
 62
     3
370
     9
100
AcDbLine
 10
-109.150407120988
 20
-294.0178206160261
 30
0.0
 11
-106.1499518317143
 21
-296.0178767023859
 31
0.0
  0
LINE
  5
2A1
330
1F
100
AcDbEntity
  8
1-A
  6
Continuous
 62
     3
370
     9
100
AcDbLine
 10
-109.150407120988
 20
-282.0183501372466
 30
0.0
 11
-109.150407120988
 21
-294.0178206160261
 31
0.0
  0
LINE
  5
2A2
330
1F
100
AcDbEntity
  8
1-A
  6
Continuous
 62
     3
370
     9
100
AcDbLine
 10
-109.150407120988
 20
-282.0183501372466
 30
0.0
 11
-106.1499518317143
 21
-280.0181703309754
 31
0.0
  0
LINE
  5
2A3
330
1F
100
AcDbEntity
  8
1-A
  6
Continuous
 62
     3
370
     9
100
AcDbLine
 10
-109.150407120988
 20
-308.2441257786105
 30
0.0
 11
-109.150407120988
 21
-314.243922877956
 31
0.0
  0
LINE
  5
2A4
330
1F
100
AcDbEntity
  8
1-A
  6
Continuous
 62
     3
370
     9
100
AcDbLine
 10
-109.150407120988
 20
-308.2441257786105
 30
0.0
 11
-106.1499518317143
 21
-306.2440696922508
 31
0.0
  0
LINE
  5
2A5
330
1F
100
AcDbEntity
  8
1-A
  6
Continuous
 62
     3
370
     9
100
AcDbLine
 10
-109.150407120988
 20
-314.243922877956
 30
0.0
 11
-106.1499518317143
 21
-316.2439789643157
 31
0.0
  0
LINE
  5
2A6
330
1F
100
AcDbEntity
  8
1-A
  6
Continuous
 62
     3
370
     9
100
AcDbLine
 10
-106.1499518317143
 20
-306.2440696922508
 30
0.0
 11
-106.1499518317143
 21
-296.0178767023859
 31
0.0
  0
LINE
  5
2A7
330
1F
100
AcDbEntity
  8
1-A
  6
Continuous
 62
     3
370
     9
100
AcDbLine
 10
-106.1499518317143
 20
-316.2439789643157
 30
0.0
 11
-106.1499518317143
 21
-330.4608814136401
 31
0.0
  0
LINE
  5
2A8
330
1F
100
AcDbEntity
  8
1-A
  6
Continuous
 62
     3
370
     9
100
AcDbLine
 10
-109.150407120988
 20
-344.4605316986909
 30
0.0
 11
-106.1499518317143
 21
-346.4605877850506
 31
0.0
  0
LINE
  5
2A9
330
1F
100
AcDbEntity
  8
1-A
  6
Continuous
 62
     3
370
     9
100
AcDbLine
 10
-109.150407120988
 20
-332.4610612199112
 30
0.0
 11
-109.150407120988
 21
-344.4605316986909
 31
0.0
  0
LINE
  5
2AA
330
1F
100
AcDbEntity
  8
1-A
  6
Continuous
 62
     3
370
     9
100
AcDbLine
 10
-109.150407120988
 20
-332.4610612199112
 30
0.0
 11
-106.1499518317143
 21
-330.4608814136401
 31
0.0
  0
LINE
  5
2AB
330
1F
100
AcDbEntity
  8
1-A
  6
Continuous
 62
     3
370
     9
100
AcDbLine
 10
-109.150407120988
 20
-358.6868368612753
 30
0.0
 11
-109.150407120988
 21
-364.6866339606207
 31
0.0
  0
LINE
  5
2AC
330
1F
100
AcDbEntity
  8
1-A
  6
Continuous
 62
     3
370
     9
100
AcDbLine
 10
-109.150407120988
 20
-358.6868368612753
 30
0.0
 11
-106.1499518317143
 21
-356.6867807749155
 31
0.0
  0
LINE
  5
2AD
330
1F
100
AcDbEntity
  8
1-A
  6
Continuous
 62
     3
370
     9
100
AcDbLine
 10
-109.150407120988
 20
-364.6866339606207
 30
0.0
 11
-106.1499518317143
 21
-366.6866900469805
 31
0.0
  0
LINE
  5
2AE
330
1F
100
AcDbEntity
  8
1-A
  6
Continuous
 62
     3
370
     9
100
AcDbLine
 10
-106.1499518317143
 20
-356.6867807749155
 30
0.0
 11
-106.1499518317143
 21
-346.4605877850506
 31
0.0
  0
LINE
  5
2AF
330
1F
100
AcDbEntity
  8
1-A
  6
Continuous
 62
     3
370
     9
100
AcDbLine
 10
-106.1499518317143
 20
-366.6866900469805
 30
0.0
 11
-106.1499518317143
 21
-380.9035924963048
 31
0.0
  0
LINE
  5
2B0
330
1F
100
AcDbEntity
  8
1-A
  6
Continuous
 62
     3
370
     9
100
AcDbLine
 10
-109.150407120988
 20
-394.9032427813555
 30
0.0
 11
-106.1499518317143
 21
-396.9032988677154
 31
0.0
  0
LINE
  5
2B1
330
1F
100
AcDbEntity
  8
1-A
  6
Continuous
 62
     3
370
     9
100
AcDbLine
 10
-109.150407120988
 20
-382.9037723025759
 30
0.0
 11
-109.150407120988
 21
-394.9032427813555
 31
0.0
  0
LINE
  5
2B2
330
1F
100
AcDbEntity
  8
1-A
  6
Continuous
 62
     3
370
     9
100
AcDbLine
 10
-109.150407120988
 20
-382.9037723025759
 30
0.0
 11
-106.1499518317143
 21
-380.9035924963048
 31
0.0
  0
LINE
  5
2B3
330
1F
100
AcDbEntity
  8
1-A
  6
Continuous
 62
     3
370
     9
100
AcDbLine
 10
-109.150407120988
 20
-409.12954794394
 30
0.0
 11
-109.150407120988
 21
-415.1293450432854
 31
0.0
  0
LINE
  5
2B4
330
1F
100
AcDbEntity
  8
1-A
  6
Continuous
 62
     3
370
     9
100
AcDbLine
 10
-109.150407120988
 20
-409.12954794394
 30
0.0
 11
-106.1499518317143
 21
-407.1294918575802
 31
0.0
  0
LINE
  5
2B5
330
1F
100
AcDbEntity
  8
1-A
  6
Continuous
 62
     3
370
     9
100
AcDbLine
 10
-109.150407120988
 20
-415.1293450432854
 30
0.0
 11
-106.1499518317143
 21
-417.1294011296452
 31
0.0
  0
LINE
  5
2B6
330
1F
100
AcDbEntity
  8
1-A
  6
Continuous
 62
     3
370
     9
100
AcDbLine
 10
-106.1499518317143
 20
-407.1294918575802
 30
0.0
 11
-106.1499518317143
 21
-396.9032988677154
 31
0.0
  0
LINE
  5
2B7
330
1F
100
AcDbEntity
  8
1-A
  6
Continuous
 62
     3
370
     9
100
AcDbLine
 10
-106.1499518317143
 20
-417.1294011296452
 30
0.0
 11
-106.1499518317143
 21
-431.3463035789695
 31
0.0
  0
LINE
  5
2B8
330
1F
100
AcDbEntity
  8
1-A
  6
Continuous
 62
     3
370
     9
100
AcDbLine
 10
-109.150407120988
 20
-445.3459538640202
 30
0.0
 11
-106.1499518317143
 21
-447.3460099503801
 31
0.0
  0
LINE
  5
2B9
330
1F
100
AcDbEntity
  8
1-A
  6
Continuous
 62
     3
370
     9
100
AcDbLine
 10
-109.150407120988
 20
-433.3464833852406
 30
0.0
 11
-109.150407120988
 21
-445.3459538640202
 31
0.0
  0
LINE
  5
2BA
330
1F
100
AcDbEntity
  8
1-A
  6
Continuous
 62
     3
370
     9
100
AcDbLine
 10
-109.150407120988
 20
-433.3464833852406
 30
0.0
 11
-106.1499518317143
 21
-431.3463035789695
 31
0.0
  0
LINE
  5
2BB
330
1F
100
AcDbEntity
  8
1-A
  6
Continuous
 62
     3
370
     9
100
AcDbLine
 10
-109.150407120988
 20
-459.5722590266047
 30
0.0
 11
-109.150407120988
 21
-465.5720561259501
 31
0.0
  0
LINE
  5
2BC
330
1F
100
AcDbEntity
  8
1-A
  6
Continuous
 62
     3
370
     9
100
AcDbLine
 10
-109.150407120988
 20
-459.5722590266047
 30
0.0
 11
-106.1499518317143
 21
-457.5722029402449
 31
0.0
  0
LINE
  5
2BD
330
1F
100
AcDbEntity
  8
1-A
  6
Continuous
 62
     3
370
     9
100
AcDbLine
 10
-109.150407120988
 20
-465.5720561259501
 30
0.0
 11
-106.1499518317143
 21
-467.5721122123099
 31
0.0
  0
LINE
  5
2BE
330
1F
100
AcDbEntity
  8
1-A
  6
Continuous
 62
     3
370
     9
100
AcDbLine
 10
-106.1499518317143
 20
-457.5722029402449
 30
0.0
 11
-106.1499518317143
 21
-447.3460099503801
 31
0.0
  0
LINE
  5
2BF
330
1F
100
AcDbEntity
  8
1-A
  6
Continuous
 62
     3
370
     9
100
AcDbLine
 10
-106.1499518317143
 20
-467.5721122123099
 30
0.0
 11
-106.1499518317143
 21
-481.7890146616343
 31
0.0
  0
LINE
  5
2C0
330
1F
100
AcDbEntity
  8
1-A
  6
Continuous
 62
     3
370
     9
100
AcDbLine
 10
-109.150407120988
 20
-495.7886649466849
 30
0.0
 11
-106.1499518317143
 21
-497.7887210330447
 31
0.0
  0
LINE
  5
2C1
330
1F
100
AcDbEntity
  8
1-A
  6
Continuous
 62
     3
370
     9
100
AcDbLine
 10
-109.150407120988
 20
-483.7891944679053
 30
0.0
 11
-109.150407120988
 21
-495.7886649466849
 31
0.0
  0
LINE
  5
2C2
330
1F
100
AcDbEntity
  8
1-A
  6
Continuous
 62
     3
370
     9
100
AcDbLine
 10
-109.150407120988
 20
-483.7891944679053
 30
0.0
 11
-106.1499518317143
 21
-481.7890146616343
 31
0.0
  0
LINE
  5
2C3
330
1F
100
AcDbEntity
  8
1-A
  6
Continuous
 62
     3
370
     9
100
AcDbLine
 10
-106.1499518317143
 20
-508.0149140229096
 30
0.0
 11
-106.1499518317143
 21
-497.7887210330447
 31
0.0
  0
LINE
  5
2C4
330
1F
100
AcDbEntity
  8
1-4
  6
Continuous
 62
     7
370
     9
100
AcDbLine
 10
-106.1499518317143
 20
-524.0189505912161
 30
0.0
 11
-106.1499518317143
 21
-629.622431574641
 31
0.0
  0
LINE
  5
2C5
330
1F
100
AcDbEntity
  8
1-2
  6
Continuous
 62
     3
370
     9
100
AcDbLine
 10
-1668.972943280194
 20
-395.0192920581713
 30
0.0
 11
-672.9729729729729
 21
-395.0192920581713
 31
0.0
  0
LINE
  5
2C6
330
1F
100
AcDbEntity
  8
1-2
  6
Continuous
 62
     3
370
     9
100
AcDbLine
 10
-1668.972943280194
 20
-383.0188318201013
 30
0.0
 11
-672.9729729729729
 21
-383.0188318201013
 31
0.0
  0
LINE
  5
2C7
330
1F
100
AcDbEntity
  8
1-2
  6
Continuous
 62
     3
370
     9
100
AcDbLine
 10
-1654.973292995144
 20
-500.0192673141892
 30
0.0
 11
-1654.973292995144
 21
-395.0192920581713
 31
0.0
  0
LINE
  5
2C8
330
1F
100
AcDbEntity
  8
1-2
  6
Continuous
 62
     3
370
     9
100
AcDbLine
 10
-1654.973292995144
 20
-383.0188318201013
 30
0.0
 11
-1654.973292995144
 21
-195.019250818201
 31
0.0
  0
LINE
  5
2C9
330
1F
100
AcDbEntity
  8
1-2
  6
Continuous
 62
     3
370
     9
100
AcDbLine
 10
-686.9731181376687
 20
-195.019250818201
 30
0.0
 11
-686.9731181376687
 21
-383.0188318201013
 31
0.0
  0
LINE
  5
2CA
330
1F
100
AcDbEntity
  8
1-2
  6
Continuous
 62
     3
370
     9
100
AcDbLine
 10
-686.9731181376687
 20
-395.0192920581713
 30
0.0
 11
-686.9731181376687
 21
-500.0192673141892
 31
0.0
  0
LINE
  5
2CB
330
1F
100
AcDbEntity
  8
1-2
  6
Continuous
 62
     3
370
     9
100
AcDbLine
 10
-1639.173765440245
 20
-500.0192673141892
 30
0.0
 11
-1639.173765440245
 21
-395.0192920581713
 31
0.0
  0
LINE
  5
2CC
330
1F
100
AcDbEntity
  8
1-2
  6
Continuous
 62
     3
370
     9
100
AcDbLine
 10
-1639.173765440245
 20
-383.0188318201013
 30
0.0
 11
-1639.173765440245
 21
-195.019250818201
 31
0.0
  0
LINE
  5
2CD
330
1F
100
AcDbEntity
  8
1-2
  6
Continuous
 62
     3
370
     9
100
AcDbLine
 10
-1625.173372835726
 20
-500.0192673141892
 30
0.0
 11
-1625.173372835726
 21
-395.0192920581713
 31
0.0
  0
LINE
  5
2CE
330
1F
100
AcDbEntity
  8
1-2
  6
Continuous
 62
     3
370
     9
100
AcDbLine
 10
-1625.173372835726
 20
-383.0188318201013
 30
0.0
 11
-1625.173372835726
 21
-195.019250818201
 31
0.0
  0
LINE
  5
2CF
330
1F
100
AcDbEntity
  8
1-2
  6
Continuous
 62
     3
370
     9
100
AcDbLine
 10
-1609.373845280827
 20
-500.0192673141892
 30
0.0
 11
-1609.373845280827
 21
-395.0192920581713
 31
0.0
  0
LINE
  5
2D0
330
1F
100
AcDbEntity
  8
1-2
  6
Continuous
 62
     3
370
     9
100
AcDbLine
 10
-1609.373845280827
 20
-383.0188318201013
 30
0.0
 11
-1609.373845280827
 21
-195.019250818201
 31
0.0
  0
LINE
  5
2D1
330
1F
100
AcDbEntity
  8
1-2
  6
Continuous
 62
     3
370
     9
100
AcDbLine
 10
-1595.373205236486
 20
-500.0192673141892
 30
0.0
 11
-1595.373205236486
 21
-395.0192920581713
 31
0.0
  0
LINE
  5
2D2
330
1F
100
AcDbEntity
  8
1-2
  6
Continuous
 62
     3
370
     9
100
AcDbLine
 10
-1595.373205236486
 20
-383.0188318201013
 30
0.0
 11
-1595.373205236486
 21
-195.019250818201
 31
0.0
  0
LINE
  5
2D3
330
1F
100
AcDbEntity
  8
1-2
  6
Continuous
 62
     3
370
     9
100
AcDbLine
 10
-1579.573677681588
 20
-500.0192673141892
 30
0.0
 11
-1579.573677681588
 21
-395.0192920581713
 31
0.0
  0
LINE
  5
2D4
330
1F
100
AcDbEntity
  8
1-2
  6
Continuous
 62
     3
370
     9
100
AcDbLine
 10
-1579.573677681588
 20
-383.0188318201013
 30
0.0
 11
-1579.573677681588
 21
-195.019250818201
 31
0.0
  0
LINE
  5
2D5
330
1F
100
AcDbEntity
  8
1-2
  6
Continuous
 62
     3
370
     9
100
AcDbLine
 10
-1565.573285077069
 20
-500.0192673141892
 30
0.0
 11
-1565.573285077069
 21
-395.0192920581713
 31
0.0
  0
LINE
  5
2D6
330
1F
100
AcDbEntity
  8
1-2
  6
Continuous
 62
     3
370
     9
100
AcDbLine
 10
-1565.573285077069
 20
-383.0188318201013
 30
0.0
 11
-1565.573285077069
 21
-195.019250818201
 31
0.0
  0
LINE
  5
2D7
330
1F
100
AcDbEntity
  8
1-2
  6
Continuous
 62
     3
370
     9
100
AcDbLine
 10
-1549.773757522171
 20
-500.0192673141892
 30
0.0
 11
-1549.773757522171
 21
-395.0192920581713
 31
0.0
  0
LINE
  5
2D8
330
1F
100
AcDbEntity
  8
1-2
  6
Continuous
 62
     3
370
     9
100
AcDbLine
 10
-1549.773757522171
 20
-383.0188318201013
 30
0.0
 11
-1549.773757522171
 21
-195.019250818201
 31
0.0
  0
LINE
  5
2D9
330
1F
100
AcDbEntity
  8
1-2
  6
Continuous
 62
     3
370
     9
100
AcDbLine
 10
-1535.773364917652
 20
-500.0192673141892
 30
0.0
 11
-1535.773364917652
 21
-395.0192920581713
 31
0.0
  0
LINE
  5
2DA
330
1F
100
AcDbEntity
  8
1-2
  6
Continuous
 62
     3
370
     9
100
AcDbLine
 10
-1535.773364917652
 20
-383.0188318201013
 30
0.0
 11
-1535.773364917652
 21
-195.019250818201
 31
0.0
  0
LINE
  5
2DB
330
1F
100
AcDbEntity
  8
1-2
  6
Continuous
 62
     3
370
     9
100
AcDbLine
 10
-1519.973837362753
 20
-500.0192673141892
 30
0.0
 11
-1519.973837362753
 21
-395.0192920581713
 31
0.0
  0
LINE
  5
2DC
330
1F
100
AcDbEntity
  8
1-2
  6
Continuous
 62
     3
370
     9
100
AcDbLine
 10
-1519.973837362753
 20
-383.0188318201013
 30
0.0
 11
-1519.973837362753
 21
-195.019250818201
 31
0.0
  0
LINE
  5
2DD
330
1F
100
AcDbEntity
  8
1-2
  6
Continuous
 62
     3
370
     9
100
AcDbLine
 10
-1505.973444758235
 20
-500.0192673141892
 30
0.0
 11
-1505.973444758235
 21
-395.0192920581713
 31
0.0
  0
LINE
  5
2DE
330
1F
100
AcDbEntity
  8
1-2
  6
Continuous
 62
     3
370
     9
100
AcDbLine
 10
-1505.973444758235
 20
-383.0188318201013
 30
0.0
 11
-1505.973444758235
 21
-195.019250818201
 31
0.0
  0
LINE
  5
2DF
330
1F
100
AcDbEntity
  8
1-2
  6
Continuous
 62
     3
370
     9
100
AcDbLine
 10
-1490.173669763514
 20
-500.0192673141892
 30
0.0
 11
-1490.173669763514
 21
-395.0192920581713
 31
0.0
  0
LINE
  5
2E0
330
1F
100
AcDbEntity
  8
1-2
  6
Continuous
 62
     3
370
     9
100
AcDbLine
 10
-1490.173669763514
 20
-383.0188318201013
 30
0.0
 11
-1490.173669763514
 21
-195.019250818201
 31
0.0
  0
LINE
  5
2E1
330
1F
100
AcDbEntity
  8
1-2
  6
Continuous
 62
     3
370
     9
100
AcDbLine
 10
-1476.173524598817
 20
-500.0192673141892
 30
0.0
 11
-1476.173524598817
 21
-395.0192920581713
 31
0.0
  0
LINE
  5
2E2
330
1F
100
AcDbEntity
  8
1-2
  6
Continuous
 62
     3
370
     9
100
AcDbLine
 10
-1476.173524598817
 20
-383.0188318201013
 30
0.0
 11
-1476.173524598817
 21
-195.019250818201
 31
0.0
  0
LINE
  5
2E3
330
1F
100
AcDbEntity
  8
1-2
  6
Continuous
 62
     3
370
     9
100
AcDbLine
 10
-1460.373749604096
 20
-500.0192673141892
 30
0.0
 11
-1460.373749604096
 21
-395.0192920581713
 31
0.0
  0
LINE
  5
2E4
330
1F
100
AcDbEntity
  8
1-2
  6
Continuous
 62
     3
370
     9
100
AcDbLine
 10
-1460.373749604096
 20
-383.0188318201013
 30
0.0
 11
-1460.373749604096
 21
-195.019250818201
 31
0.0
  0
LINE
  5
2E5
330
1F
100
AcDbEntity
  8
1-2
  6
Continuous
 62
     3
370
     9
100
AcDbLine
 10
-1446.373356999577
 20
-500.0192673141892
 30
0.0
 11
-1446.373356999577
 21
-395.0192920581713
 31
0.0
  0
LINE
  5
2E6
330
1F
100
AcDbEntity
  8
1-2
  6
Continuous
 62
     3
370
     9
100
AcDbLine
 10
-1446.373356999577
 20
-383.0188318201013
 30
0.0
 11
-1446.373356999577
 21
-195.019250818201
 31
0.0
  0
LINE
  5
2E7
330
1F
100
AcDbEntity
  8
1-2
  6
Continuous
 62
     3
370
     9
100
AcDbLine
 10
-1430.573829444679
 20
-500.0192673141892
 30
0.0
 11
-1430.573829444679
 21
-395.0192920581713
 31
0.0
  0
LINE
  5
2E8
330
1F
100
AcDbEntity
  8
1-2
  6
Continuous
 62
     3
370
     9
100
AcDbLine
 10
-1430.573829444679
 20
-383.0188318201013
 30
0.0
 11
-1430.573829444679
 21
-195.019250818201
 31
0.0
  0
LINE
  5
2E9
330
1F
100
AcDbEntity
  8
1-2
  6
Continuous
 62
     3
370
     9
100
AcDbLine
 10
-1416.57343684016
 20
-500.0192673141892
 30
0.0
 11
-1416.57343684016
 21
-395.0192920581713
 31
0.0
  0
LINE
  5
2EA
330
1F
100
AcDbEntity
  8
1-2
  6
Continuous
 62
     3
370
     9
100
AcDbLine
 10
-1416.57343684016
 20
-383.0188318201013
 30
0.0
 11
-1416.57343684016
 21
-195.019250818201
 31
0.0
  0
LINE
  5
2EB
330
1F
100
AcDbEntity
  8
1-2
  6
Continuous
 62
     3
370
     9
100
AcDbLine
 10
-1400.773909285262
 20
-500.0192673141892
 30
0.0
 11
-1400.773909285262
 21
-395.0192920581713
 31
0.0
  0
LINE
  5
2EC
330
1F
100
AcDbEntity
  8
1-2
  6
Continuous
 62
     3
370
     9
100
AcDbLine
 10
-1400.773909285262
 20
-383.0188318201013
 30
0.0
 11
-1400.773909285262
 21
-195.019250818201
 31
0.0
  0
LINE
  5
2ED
330
1F
100
AcDbEntity
  8
1-2
  6
Continuous
 62
     3
370
     9
100
AcDbLine
 10
-1386.773516680743
 20
-500.0192673141892
 30
0.0
 11
-1386.773516680743
 21
-395.0192920581713
 31
0.0
  0
LINE
  5
2EE
330
1F
100
AcDbEntity
  8
1-2
  6
Continuous
 62
     3
370
     9
100
AcDbLine
 10
-1386.773516680743
 20
-383.0188318201013
 30
0.0
 11
-1386.773516680743
 21
-195.019250818201
 31
0.0
  0
LINE
  5
2EF
330
1F
100
AcDbEntity
  8
1-2
  6
Continuous
 62
     3
370
     9
100
AcDbLine
 10
-1370.973865405933
 20
-500.0192673141892
 30
0.0
 11
-1370.973865405933
 21
-395.0192920581713
 31
0.0
  0
LINE
  5
2F0
330
1F
100
AcDbEntity
  8
1-2
  6
Continuous
 62
     3
370
     9
100
AcDbLine
 10
-1370.973865405933
 20
-383.0188318201013
 30
0.0
 11
-1370.973865405933
 21
-195.019250818201
 31
0.0
  0
LINE
  5
2F1
330
1F
100
AcDbEntity
  8
1-2
  6
Continuous
 62
     3
370
     9
100
AcDbLine
 10
-1356.973472801415
 20
-500.0192673141892
 30
0.0
 11
-1356.973472801415
 21
-395.0192920581713
 31
0.0
  0
LINE
  5
2F2
330
1F
100
AcDbEntity
  8
1-2
  6
Continuous
 62
     3
370
     9
100
AcDbLine
 10
-1356.973472801415
 20
-383.0188318201013
 30
0.0
 11
-1356.973472801415
 21
-195.019250818201
 31
0.0
  0
LINE
  5
2F3
330
1F
100
AcDbEntity
  8
1-2
  6
Continuous
 62
     3
370
     9
100
AcDbLine
 10
-1341.173821526605
 20
-500.0192673141892
 30
0.0
 11
-1341.173821526605
 21
-395.0192920581713
 31
0.0
  0
LINE
  5
2F4
330
1F
100
AcDbEntity
  8
1-2
  6
Continuous
 62
     3
370
     9
100
AcDbLine
 10
-1341.173821526605
 20
-383.0188318201013
 30
0.0
 11
-1341.173821526605
 21
-195.019250818201
 31
0.0
  0
LINE
  5
2F5
330
1F
100
AcDbEntity
  8
1-2
  6
Continuous
 62
     3
370
     9
100
AcDbLine
 10
-1327.173428922086
 20
-500.0192673141892
 30
0.0
 11
-1327.173428922086
 21
-395.0192920581713
 31
0.0
  0
LINE
  5
2F6
330
1F
100
AcDbEntity
  8
1-2
  6
Continuous
 62
     3
370
     9
100
AcDbLine
 10
-1327.173428922086
 20
-383.0188318201013
 30
0.0
 11
-1327.173428922086
 21
-195.019250818201
 31
0.0
  0
LINE
  5
2F7
330
1F
100
AcDbEntity
  8
1-2
  6
Continuous
 62
     3
370
     9
100
AcDbLine
 10
-1311.373901367188
 20
-500.0192673141892
 30
0.0
 11
-1311.373901367188
 21
-395.0192920581713
 31
0.0
  0
LINE
  5
2F8
330
1F
100
AcDbEntity
  8
1-2
  6
Continuous
 62
     3
370
     9
100
AcDbLine
 10
-1311.373901367188
 20
-383.0188318201013
 30
0.0
 11
-1311.373901367188
 21
-195.019250818201
 31
0.0
  0
LINE
  5
2F9
330
1F
100
AcDbEntity
  8
1-2
  6
Continuous
 62
     3
370
     9
100
AcDbLine
 10
-1297.373508762669
 20
-500.0192673141892
 30
0.0
 11
-1297.373508762669
 21
-395.0192920581713
 31
0.0
  0
LINE
  5
2FA
330
1F
100
AcDbEntity
  8
1-2
  6
Continuous
 62
     3
370
     9
100
AcDbLine
 10
-1297.373508762669
 20
-383.0188318201013
 30
0.0
 11
-1297.373508762669
 21
-195.019250818201
 31
0.0
  0
LINE
  5
2FB
330
1F
100
AcDbEntity
  8
1-2
  6
Continuous
 62
     3
370
     9
100
AcDbLine
 10
-1281.57398120777
 20
-500.0192673141892
 30
0.0
 11
-1281.57398120777
 21
-395.0192920581713
 31
0.0
  0
LINE
  5
2FC
330
1F
100
AcDbEntity
  8
1-2
  6
Continuous
 62
     3
370
     9
100
AcDbLine
 10
-1281.57398120777
 20
-383.0188318201013
 30
0.0
 11
-1281.57398120777
 21
-195.019250818201
 31
0.0
  0
LINE
  5
2FD
330
1F
100
AcDbEntity
  8
1-2
  6
Continuous
 62
     3
370
     9
100
AcDbLine
 10
-1267.573588603252
 20
-500.0192673141892
 30
0.0
 11
-1267.573588603252
 21
-395.0192920581713
 31
0.0
  0
LINE
  5
2FE
330
1F
100
AcDbEntity
  8
1-2
  6
Continuous
 62
     3
370
     9
100
AcDbLine
 10
-1267.573588603252
 20
-383.0188318201013
 30
0.0
 11
-1267.573588603252
 21
-195.019250818201
 31
0.0
  0
LINE
  5
2FF
330
1F
100
AcDbEntity
  8
1-2
  6
Continuous
 62
     3
370
     9
100
AcDbLine
 10
-1251.773937328442
 20
-500.0192673141892
 30
0.0
 11
-1251.773937328442
 21
-395.0192920581713
 31
0.0
  0
LINE
  5
300
330
1F
100
AcDbEntity
  8
1-2
  6
Continuous
 62
     3
370
     9
100
AcDbLine
 10
-1251.773937328442
 20
-383.0188318201013
 30
0.0
 11
-1251.773937328442
 21
-195.019250818201
 31
0.0
  0
LINE
  5
301
330
1F
100
AcDbEntity
  8
1-2
  6
Continuous
 62
     3
370
     9
100
AcDbLine
 10
-1237.773544723923
 20
-500.0192673141892
 30
0.0
 11
-1237.773544723923
 21
-395.0192920581713
 31
0.0
  0
LINE
  5
302
330
1F
100
AcDbEntity
  8
1-2
  6
Continuous
 62
     3
370
     9
100
AcDbLine
 10
-1237.773544723923
 20
-383.0188318201013
 30
0.0
 11
-1237.773544723923
 21
-195.019250818201
 31
0.0
  0
LINE
  5
303
330
1F
100
AcDbEntity
  8
1-2
  6
Continuous
 62
     3
370
     9
100
AcDbLine
 10
-1221.973893449113
 20
-500.0192673141892
 30
0.0
 11
-1221.973893449113
 21
-395.0192920581713
 31
0.0
  0
LINE
  5
304
330
1F
100
AcDbEntity
  8
1-2
  6
Continuous
 62
     3
370
     9
100
AcDbLine
 10
-1221.973893449113
 20
-383.0188318201013
 30
0.0
 11
-1221.973893449113
 21
-195.019250818201
 31
0.0
  0
LINE
  5
305
330
1F
100
AcDbEntity
  8
1-2
  6
Continuous
 62
     3
370
     9
100
AcDbLine
 10
-1207.973500844595
 20
-500.0192673141892
 30
0.0
 11
-1207.973500844595
 21
-395.0192920581713
 31
0.0
  0
LINE
  5
306
330
1F
100
AcDbEntity
  8
1-2
  6
Continuous
 62
     3
370
     9
100
AcDbLine
 10
-1207.973500844595
 20
-383.0188318201013
 30
0.0
 11
-1207.973500844595
 21
-195.019250818201
 31
0.0
  0
LINE
  5
307
330
1F
100
AcDbEntity
  8
1-2
  6
Continuous
 62
     3
370
     9
100
AcDbLine
 10
-1192.173973289696
 20
-500.0192673141892
 30
0.0
 11
-1192.173973289696
 21
-395.0192920581713
 31
0.0
  0
LINE
  5
308
330
1F
100
AcDbEntity
  8
1-2
  6
Continuous
 62
     3
370
     9
100
AcDbLine
 10
-1192.173973289696
 20
-383.0188318201013
 30
0.0
 11
-1192.173973289696
 21
-195.019250818201
 31
0.0
  0
LINE
  5
309
330
1F
100
AcDbEntity
  8
1-2
  6
Continuous
 62
     3
370
     9
100
AcDbLine
 10
-1178.173580685177
 20
-500.0192673141892
 30
0.0
 11
-1178.173580685177
 21
-395.0192920581713
 31
0.0
  0
LINE
  5
30A
330
1F
100
AcDbEntity
  8
1-2
  6
Continuous
 62
     3
370
     9
100
AcDbLine
 10
-1178.173580685177
 20
-383.0188318201013
 30
0.0
 11
-1178.173580685177
 21
-195.019250818201
 31
0.0
  0
LINE
  5
30B
330
1F
100
AcDbEntity
  8
1-2
  6
Continuous
 62
     3
370
     9
100
AcDbLine
 10
-1162.374053130279
 20
-500.0192673141892
 30
0.0
 11
-1162.374053130279
 21
-395.0192920581713
 31
0.0
  0
LINE
  5
30C
330
1F
100
AcDbEntity
  8
1-2
  6
Continuous
 62
     3
370
     9
100
AcDbLine
 10
-1162.374053130279
 20
-383.0188318201013
 30
0.0
 11
-1162.374053130279
 21
-195.019250818201
 31
0.0
  0
LINE
  5
30D
330
1F
100
AcDbEntity
  8
1-2
  6
Continuous
 62
     3
370
     9
100
AcDbLine
 10
-1148.37366052576
 20
-500.0192673141892
 30
0.0
 11
-1148.37366052576
 21
-395.0192920581713
 31
0.0
  0
LINE
  5
30E
330
1F
100
AcDbEntity
  8
1-2
  6
Continuous
 62
     3
370
     9
100
AcDbLine
 10
-1148.37366052576
 20
-383.0188318201013
 30
0.0
 11
-1148.37366052576
 21
-195.019250818201
 31
0.0
  0
LINE
  5
30F
330
1F
100
AcDbEntity
  8
1-2
  6
Continuous
 62
     3
370
     9
100
AcDbLine
 10
-1132.57400925095
 20
-500.0192673141892
 30
0.0
 11
-1132.57400925095
 21
-395.0192920581713
 31
0.0
  0
LINE
  5
310
330
1F
100
AcDbEntity
  8
1-2
  6
Continuous
 62
     3
370
     9
100
AcDbLine
 10
-1132.57400925095
 20
-383.0188318201013
 30
0.0
 11
-1132.57400925095
 21
-195.019250818201
 31
0.0
  0
LINE
  5
311
330
1F
100
AcDbEntity
  8
1-2
  6
Continuous
 62
     3
370
     9
100
AcDbLine
 10
-1118.573616646431
 20
-500.0192673141892
 30
0.0
 11
-1118.573616646431
 21
-395.0192920581713
 31
0.0
  0
LINE
  5
312
330
1F
100
AcDbEntity
  8
1-2
  6
Continuous
 62
     3
370
     9
100
AcDbLine
 10
-1118.573616646431
 20
-383.0188318201013
 30
0.0
 11
-1118.573616646431
 21
-195.019250818201
 31
0.0
  0
LINE
  5
313
330
1F
100
AcDbEntity
  8
1-2
  6
Continuous
 62
     3
370
     9
100
AcDbLine
 10
-1102.773965371622
 20
-500.0192673141892
 30
0.0
 11
-1102.773965371622
 21
-395.0192920581713
 31
0.0
  0
LINE
  5
314
330
1F
100
AcDbEntity
  8
1-2
  6
Continuous
 62
     3
370
     9
100
AcDbLine
 10
-1102.773965371622
 20
-383.0188318201013
 30
0.0
 11
-1102.773965371622
 21
-195.019250818201
 31
0.0
  0
LINE
  5
315
330
1F
100
AcDbEntity
  8
1-2
  6
Continuous
 62
     3
370
     9
100
AcDbLine
 10
-1088.773572767103
 20
-500.0192673141892
 30
0.0
 11
-1088.773572767103
 21
-395.0192920581713
 31
0.0
  0
LINE
  5
316
330
1F
100
AcDbEntity
  8
1-2
  6
Continuous
 62
     3
370
     9
100
AcDbLine
 10
-1088.773572767103
 20
-383.0188318201013
 30
0.0
 11
-1088.773572767103
 21
-195.019250818201
 31
0.0
  0
LINE
  5
317
330
1F
100
AcDbEntity
  8
1-2
  6
Continuous
 62
     3
370
     9
100
AcDbLine
 10
-1072.974045212204
 20
-500.0192673141892
 30
0.0
 11
-1072.974045212204
 21
-395.0192920581713
 31
0.0
  0
LINE
  5
318
330
1F
100
AcDbEntity
  8
1-2
  6
Continuous
 62
     3
370
     9
100
AcDbLine
 10
-1072.974045212204
 20
-383.0188318201013
 30
0.0
 11
-1072.974045212204
 21
-195.019250818201
 31
0.0
  0
LINE
  5
319
330
1F
100
AcDbEntity
  8
1-2
  6
Continuous
 62
     3
370
     9
100
AcDbLine
 10
-1058.973652607686
 20
-500.0192673141892
 30
0.0
 11
-1058.973652607686
 21
-395.0192920581713
 31
0.0
  0
LINE
  5
31A
330
1F
100
AcDbEntity
  8
1-2
  6
Continuous
 62
     3
370
     9
100
AcDbLine
 10
-1058.973652607686
 20
-383.0188318201013
 30
0.0
 11
-1058.973652607686
 21
-195.019250818201
 31
0.0
  0
LINE
  5
31B
330
1F
100
AcDbEntity
  8
1-2
  6
Continuous
 62
     3
370
     9
100
AcDbLine
 10
-1043.174125052787
 20
-500.0192673141892
 30
0.0
 11
-1043.174125052787
 21
-395.0192920581713
 31
0.0
  0
LINE
  5
31C
330
1F
100
AcDbEntity
  8
1-2
  6
Continuous
 62
     3
370
     9
100
AcDbLine
 10
-1043.174125052787
 20
-383.0188318201013
 30
0.0
 11
-1043.174125052787
 21
-195.019250818201
 31
0.0
  0
LINE
  5
31D
330
1F
100
AcDbEntity
  8
1-2
  6
Continuous
 62
     3
370
     9
100
AcDbLine
 10
-1029.173732448269
 20
-500.0192673141892
 30
0.0
 11
-1029.173732448269
 21
-395.0192920581713
 31
0.0
  0
LINE
  5
31E
330
1F
100
AcDbEntity
  8
1-2
  6
Continuous
 62
     3
370
     9
100
AcDbLine
 10
-1029.173732448269
 20
-383.0188318201013
 30
0.0
 11
-1029.173732448269
 21
-195.019250818201
 31
0.0
  0
LINE
  5
31F
330
1F
100
AcDbEntity
  8
1-2
  6
Continuous
 62
     3
370
     9
100
AcDbLine
 10
-1013.374081173459
 20
-500.0192673141892
 30
0.0
 11
-1013.374081173459
 21
-395.0192920581713
 31
0.0
  0
LINE
  5
320
330
1F
100
AcDbEntity
  8
1-2
  6
Continuous
 62
     3
370
     9
100
AcDbLine
 10
-1013.374081173459
 20
-383.0188318201013
 30
0.0
 11
-1013.374081173459
 21
-195.019250818201
 31
0.0
  0
LINE
  5
321
330
1F
100
AcDbEntity
  8
1-2
  6
Continuous
 62
     3
370
     9
100
AcDbLine
 10
-999.37368856894
 20
-500.0192673141892
 30
0.0
 11
-999.37368856894
 21
-395.0192920581713
 31
0.0
  0
LINE
  5
322
330
1F
100
AcDbEntity
  8
1-2
  6
Continuous
 62
     3
370
     9
100
AcDbLine
 10
-999.37368856894
 20
-383.0188318201013
 30
0.0
 11
-999.37368856894
 21
-195.019250818201
 31
0.0
  0
LINE
  5
323
330
1F
100
AcDbEntity
  8
1-2
  6
Continuous
 62
     3
370
     9
100
AcDbLine
 10
-983.57403729413
 20
-500.0192673141892
 30
0.0
 11
-983.57403729413
 21
-395.0192920581713
 31
0.0
  0
LINE
  5
324
330
1F
100
AcDbEntity
  8
1-2
  6
Continuous
 62
     3
370
     9
100
AcDbLine
 10
-983.57403729413
 20
-383.0188318201013
 30
0.0
 11
-983.57403729413
 21
-195.019250818201
 31
0.0
  0
LINE
  5
325
330
1F
100
AcDbEntity
  8
1-2
  6
Continuous
 62
     3
370
     9
100
AcDbLine
 10
-969.5736446896115
 20
-500.0192673141892
 30
0.0
 11
-969.5736446896115
 21
-395.0192920581713
 31
0.0
  0
LINE
  5
326
330
1F
100
AcDbEntity
  8
1-2
  6
Continuous
 62
     3
370
     9
100
AcDbLine
 10
-969.5736446896115
 20
-383.0188318201013
 30
0.0
 11
-969.5736446896115
 21
-195.019250818201
 31
0.0
  0
LINE
  5
327
330
1F
100
AcDbEntity
  8
1-2
  6
Continuous
 62
     3
370
     9
100
AcDbLine
 10
-953.7741171347127
 20
-500.0192673141892
 30
0.0
 11
-953.7741171347127
 21
-395.0192920581713
 31
0.0
  0
LINE
  5
328
330
1F
100
AcDbEntity
  8
1-2
  6
Continuous
 62
     3
370
     9
100
AcDbLine
 10
-953.7741171347127
 20
-383.0188318201013
 30
0.0
 11
-953.7741171347127
 21
-195.019250818201
 31
0.0
  0
LINE
  5
329
330
1F
100
AcDbEntity
  8
1-2
  6
Continuous
 62
     3
370
     9
100
AcDbLine
 10
-939.7737245301942
 20
-500.0192673141892
 30
0.0
 11
-939.7737245301942
 21
-395.0192920581713
 31
0.0
  0
LINE
  5
32A
330
1F
100
AcDbEntity
  8
1-2
  6
Continuous
 62
     3
370
     9
100
AcDbLine
 10
-939.7737245301942
 20
-383.0188318201013
 30
0.0
 11
-939.7737245301942
 21
-195.019250818201
 31
0.0
  0
LINE
  5
32B
330
1F
100
AcDbEntity
  8
1-2
  6
Continuous
 62
     3
370
     9
100
AcDbLine
 10
-923.9741969752956
 20
-500.0192673141892
 30
0.0
 11
-923.9741969752956
 21
-395.0192920581713
 31
0.0
  0
LINE
  5
32C
330
1F
100
AcDbEntity
  8
1-2
  6
Continuous
 62
     3
370
     9
100
AcDbLine
 10
-923.9741969752956
 20
-383.0188318201013
 30
0.0
 11
-923.9741969752956
 21
-195.019250818201
 31
0.0
  0
LINE
  5
32D
330
1F
100
AcDbEntity
  8
1-2
  6
Continuous
 62
     3
370
     9
100
AcDbLine
 10
-909.973804370777
 20
-500.0192673141892
 30
0.0
 11
-909.973804370777
 21
-395.0192920581713
 31
0.0
  0
LINE
  5
32E
330
1F
100
AcDbEntity
  8
1-2
  6
Continuous
 62
     3
370
     9
100
AcDbLine
 10
-909.973804370777
 20
-383.0188318201013
 30
0.0
 11
-909.973804370777
 21
-195.019250818201
 31
0.0
  0
LINE
  5
32F
330
1F
100
AcDbEntity
  8
1-2
  6
Continuous
 62
     3
370
     9
100
AcDbLine
 10
-894.1741530959671
 20
-500.0192673141892
 30
0.0
 11
-894.1741530959671
 21
-395.0192920581713
 31
0.0
  0
LINE
  5
330
330
1F
100
AcDbEntity
  8
1-2
  6
Continuous
 62
     3
370
     9
100
AcDbLine
 10
-894.1741530959671
 20
-383.0188318201013
 30
0.0
 11
-894.1741530959671
 21
-195.019250818201
 31
0.0
  0
LINE
  5
331
330
1F
100
AcDbEntity
  8
1-2
  6
Continuous
 62
     3
370
     9
100
AcDbLine
 10
-880.1737604914484
 20
-500.0192673141892
 30
0.0
 11
-880.1737604914484
 21
-395.0192920581713
 31
0.0
  0
LINE
  5
332
330
1F
100
AcDbEntity
  8
1-2
  6
Continuous
 62
     3
370
     9
100
AcDbLine
 10
-880.1737604914484
 20
-383.0188318201013
 30
0.0
 11
-880.1737604914484
 21
-195.019250818201
 31
0.0
  0
LINE
  5
333
330
1F
100
AcDbEntity
  8
1-2
  6
Continuous
 62
     3
370
     9
100
AcDbLine
 10
-864.3741092166384
 20
-500.0192673141892
 30
0.0
 11
-864.3741092166384
 21
-395.0192920581713
 31
0.0
  0
LINE
  5
334
330
1F
100
AcDbEntity
  8
1-2
  6
Continuous
 62
     3
370
     9
100
AcDbLine
 10
-864.3741092166384
 20
-383.0188318201013
 30
0.0
 11
-864.3741092166384
 21
-195.019250818201
 31
0.0
  0
LINE
  5
335
330
1F
100
AcDbEntity
  8
1-2
  6
Continuous
 62
     3
370
     9
100
AcDbLine
 10
-850.3737166121199
 20
-500.0192673141892
 30
0.0
 11
-850.3737166121199
 21
-395.0192920581713
 31
0.0
  0
LINE
  5
336
330
1F
100
AcDbEntity
  8
1-2
  6
Continuous
 62
     3
370
     9
100
AcDbLine
 10
-850.3737166121199
 20
-383.0188318201013
 30
0.0
 11
-850.3737166121199
 21
-195.019250818201
 31
0.0
  0
LINE
  5
337
330
1F
100
AcDbEntity
  8
1-2
  6
Continuous
 62
     3
370
     9
100
AcDbLine
 10
-834.5741890572212
 20
-500.0192673141892
 30
0.0
 11
-834.5741890572212
 21
-395.0192920581713
 31
0.0
  0
LINE
  5
338
330
1F
100
AcDbEntity
  8
1-2
  6
Continuous
 62
     3
370
     9
100
AcDbLine
 10
-834.5741890572212
 20
-383.0188318201013
 30
0.0
 11
-834.5741890572212
 21
-195.019250818201
 31
0.0
  0
LINE
  5
339
330
1F
100
AcDbEntity
  8
1-2
  6
Continuous
 62
     3
370
     9
100
AcDbLine
 10
-820.5737964527026
 20
-500.0192673141892
 30
0.0
 11
-820.5737964527026
 21
-395.0192920581713
 31
0.0
  0
LINE
  5
33A
330
1F
100
AcDbEntity
  8
1-2
  6
Continuous
 62
     3
370
     9
100
AcDbLine
 10
-820.5737964527026
 20
-383.0188318201013
 30
0.0
 11
-820.5737964527026
 21
-195.019250818201
 31
0.0
  0
LINE
  5
33B
330
1F
100
AcDbEntity
  8
1-2
  6
Continuous
 62
     3
370
     9
100
AcDbLine
 10
-804.774268897804
 20
-500.0192673141892
 30
0.0
 11
-804.774268897804
 21
-395.0192920581713
 31
0.0
  0
LINE
  5
33C
330
1F
100
AcDbEntity
  8
1-2
  6
Continuous
 62
     3
370
     9
100
AcDbLine
 10
-804.774268897804
 20
-383.0188318201013
 30
0.0
 11
-804.774268897804
 21
-195.019250818201
 31
0.0
  0
LINE
  5
33D
330
1F
100
AcDbEntity
  8
1-2
  6
Continuous
 62
     3
370
     9
100
AcDbLine
 10
-790.7738762932854
 20
-500.0192673141892
 30
0.0
 11
-790.7738762932854
 21
-395.0192920581713
 31
0.0
  0
LINE
  5
33E
330
1F
100
AcDbEntity
  8
1-2
  6
Continuous
 62
     3
370
     9
100
AcDbLine
 10
-790.7738762932854
 20
-383.0188318201013
 30
0.0
 11
-790.7738762932854
 21
-195.019250818201
 31
0.0
  0
LINE
  5
33F
330
1F
100
AcDbEntity
  8
1-2
  6
Continuous
 62
     3
370
     9
100
AcDbLine
 10
-774.9742250184755
 20
-500.0192673141892
 30
0.0
 11
-774.9742250184755
 21
-395.0192920581713
 31
0.0
  0
LINE
  5
340
330
1F
100
AcDbEntity
  8
1-2
  6
Continuous
 62
     3
370
     9
100
AcDbLine
 10
-774.9742250184755
 20
-383.0188318201013
 30
0.0
 11
-774.9742250184755
 21
-195.019250818201
 31
0.0
  0
LINE
  5
341
330
1F
100
AcDbEntity
  8
1-2
  6
Continuous
 62
     3
370
     9
100
AcDbLine
 10
-760.9738324139568
 20
-500.0192673141892
 30
0.0
 11
-760.9738324139568
 21
-395.0192920581713
 31
0.0
  0
LINE
  5
342
330
1F
100
AcDbEntity
  8
1-2
  6
Continuous
 62
     3
370
     9
100
AcDbLine
 10
-760.9738324139568
 20
-383.0188318201013
 30
0.0
 11
-760.9738324139568
 21
-195.019250818201
 31
0.0
  0
LINE
  5
343
330
1F
100
AcDbEntity
  8
1-2
  6
Continuous
 62
     3
370
     9
100
AcDbLine
 10
-745.1741811391469
 20
-500.0192673141892
 30
0.0
 11
-745.1741811391469
 21
-395.0192920581713
 31
0.0
  0
LINE
  5
344
330
1F
100
AcDbEntity
  8
1-2
  6
Continuous
 62
     3
370
     9
100
AcDbLine
 10
-745.1741811391469
 20
-383.0188318201013
 30
0.0
 11
-745.1741811391469
 21
-195.019250818201
 31
0.0
  0
LINE
  5
345
330
1F
100
AcDbEntity
  8
1-2
  6
Continuous
 62
     3
370
     9
100
AcDbLine
 10
-731.1737885346283
 20
-500.0192673141892
 30
0.0
 11
-731.1737885346283
 21
-395.0192920581713
 31
0.0
  0
LINE
  5
346
330
1F
100
AcDbEntity
  8
1-2
  6
Continuous
 62
     3
370
     9
100
AcDbLine
 10
-731.1737885346283
 20
-383.0188318201013
 30
0.0
 11
-731.1737885346283
 21
-195.019250818201
 31
0.0
  0
LINE
  5
347
330
1F
100
AcDbEntity
  8
1-2
  6
Continuous
 62
     3
370
     9
100
AcDbLine
 10
-715.3742609797297
 20
-500.0192673141892
 30
0.0
 11
-715.3742609797297
 21
-395.0192920581713
 31
0.0
  0
LINE
  5
348
330
1F
100
AcDbEntity
  8
1-2
  6
Continuous
 62
     3
370
     9
100
AcDbLine
 10
-715.3742609797297
 20
-383.0188318201013
 30
0.0
 11
-715.3742609797297
 21
-195.019250818201
 31
0.0
  0
LINE
  5
349
330
1F
100
AcDbEntity
  8
1-2
  6
Continuous
 62
     3
370
     9
100
AcDbLine
 10
-701.3738683752113
 20
-500.0192673141892
 30
0.0
 11
-701.3738683752113
 21
-395.0192920581713
 31
0.0
  0
LINE
  5
34A
330
1F
100
AcDbEntity
  8
1-2
  6
Continuous
 62
     3
370
     9
100
AcDbLine
 10
-701.3738683752113
 20
-383.0188318201013
 30
0.0
 11
-701.3738683752113
 21
-195.019250818201
 31
0.0
  0
LINE
  5
34B
330
1F
100
AcDbEntity
  8
1-4
  6
Continuous
 62
     7
370
     9
100
AcDbLine
 10
199.0517281197214
 20
963.0320286106419
 30
0.0
 11
745.8657754434125
 21
963.0320286106419
 31
0.0
  0
LINE
  5
34C
330
1F
100
AcDbEntity
  8
1-0
  6
Continuous
 62
     3
370
     9
100
AcDbLine
 10
1216.096950221706
 20
320.9294004698057
 30
0.0
 11
1209.237670898438
 21
320.9294004698057
 31
0.0
  0
LINE
  5
34D
330
1F
100
AcDbEntity
  8
1-0
  6
Continuous
 62
     3
370
     9
100
AcDbLine
 10
1216.096950221706
 20
-9.070698506123165
 30
0.0
 11
740.2800688872469
 21
-9.070698506123165
 31
0.0
  0
LINE
  5
34E
330
1F
100
AcDbEntity
  8
1-0
  6
Continuous
 62
     3
370
     9
100
AcDbLine
 10
1367.031035552154
 20
320.9294004698057
 30
0.0
 11
1409.030976166596
 21
320.9294004698057
 31
0.0
  0
LINE
  5
34F
330
1F
100
AcDbEntity
  8
1-0
  6
Continuous
 62
     3
370
     9
100
AcDbLine
 10
1409.030976166596
 20
-9.070698506123165
 30
0.0
 11
1367.031035552154
 21
-9.070698506123165
 31
0.0
  0
LINE
  5
350
330
1F
100
AcDbEntity
  8
1-0
  6
Continuous
 62
     3
370
     9
100
AcDbLine
 10
1367.031035552154
 20
320.9294004698057
 30
0.0
 11
1409.030976166596
 21
320.9294004698057
 31
0.0
  0
LINE
  5
351
330
1F
100
AcDbEntity
  8
1-0
  6
Continuous
 62
     3
370
     9
100
AcDbLine
 10
1367.031035552154
 20
329.9295291385135
 30
0.0
 11
1409.030976166596
 21
329.9295291385135
 31
0.0
  0
LINE
  5
352
330
1F
100
AcDbEntity
  8
1-0
  6
Continuous
 62
     3
370
     9
100
AcDbLine
 10
1367.031035552154
 20
329.9295291385135
 30
0.0
 11
1367.031035552154
 21
320.9294004698057
 31
0.0
  0
LINE
  5
353
330
1F
100
AcDbEntity
  8
1-0
  6
Continuous
 62
     3
370
     9
100
AcDbLine
 10
1409.030976166596
 20
329.9295291385135
 30
0.0
 11
1409.030976166596
 21
320.9294004698057
 31
0.0
  0
LINE
  5
354
330
1F
100
AcDbEntity
  8
1-0
  6
Continuous
 62
     7
370
     9
100
AcDbLine
 10
1555.966186523438
 20
-9.070698506123165
 30
0.0
 11
1555.966186523438
 21
320.9294004698057
 31
0.0
  0
LINE
  5
355
330
1F
100
AcDbEntity
  8
1-0
  6
Continuous
 62
     7
370
     9
100
AcDbLine
 10
1431.55987713788
 20
-9.070698506123165
 30
0.0
 11
1559.566188502956
 21
-9.070698506123165
 31
0.0
  0
LINE
  5
356
330
1F
100
AcDbEntity
  8
1-0
  6
Continuous
 62
     7
370
     9
100
AcDbLine
 10
1431.55987713788
 20
320.9294004698057
 30
0.0
 11
1559.566188502956
 21
320.9294004698057
 31
0.0
  0
LINE
  5
357
330
1F
100
AcDbEntity
  8
1-0
  6
Continuous
 62
     7
370
     9
100
AcDbLine
 10
1555.966186523438
 20
-9.070698506123165
 30
0.0
 11
1552.050451330236
 21
20.6725579339107
 31
0.0
  0
LINE
  5
358
330
1F
100
AcDbEntity
  8
1-0
  6
Continuous
 62
     7
370
     9
100
AcDbLine
 10
1555.966186523438
 20
-9.070698506123165
 30
0.0
 11
1559.881921716639
 21
20.6725579339107
 31
0.0
  0
LINE
  5
359
330
1F
100
AcDbEntity
  8
1-0
  6
Continuous
 62
     7
370
     9
100
AcDbLine
 10
1555.966186523438
 20
320.9294004698057
 30
0.0
 11
1552.050451330236
 21
291.1863914695948
 31
0.0
  0
LINE
  5
35A
330
1F
100
AcDbEntity
  8
1-0
  6
Continuous
 62
     7
370
     9
100
AcDbLine
 10
1555.966186523438
 20
320.9294004698057
 30
0.0
 11
1559.881921716639
 21
291.1863914695948
 31
0.0
  0
LINE
  5
35B
330
1F
100
AcDbEntity
  8
1-0
  6
Continuous
 62
     3
370
     9
100
AcDbLine
 10
609.70458984375
 20
237.3702095650339
 30
0.0
 11
618.7358959301099
 21
228.338903478674
 31
0.0
  0
LINE
  5
35C
330
1F
100
AcDbEntity
  8
1-0
  6
Continuous
 62
     3
370
     9
100
AcDbLine
 10
588.7360443940037
 20
232.8828883815456
 30
0.0
 11
614.0068260399073
 21
207.6116118559966
 31
0.0
  0
LINE
  5
35D
330
1F
100
AcDbEntity
  8
1-0
  6
Continuous
 62
     3
370
     9
100
AcDbLine
 10
588.7360443940037
 20
306.4264575855154
 30
0.0
 11
618.7358959301099
 21
276.4266060494089
 31
0.0
  0
LINE
  5
35E
330
1F
100
AcDbEntity
  8
1-0
  6
Continuous
 62
     3
370
     9
100
AcDbLine
 10
604.9290012668922
 20
302.9610628695102
 30
0.0
 11
618.7358959301099
 21
289.1544156461148
 31
0.0
  0
LINE
  5
35F
330
1F
100
AcDbEntity
  8
1-0
  6
Continuous
 62
     3
370
     9
100
AcDbLine
 10
618.7358959301099
 20
323.6279791754646
 30
0.0
 11
618.7358959301099
 21
-26.14157186972108
 31
0.0
  0
LINE
  5
360
330
1F
100
AcDbEntity
  8
1-0
  6
Continuous
 62
     7
370
     9
100
AcDbLine
 10
568.4120796822214
 20
60.27752850506772
 30
0.0
 11
503.9780075485641
 21
60.27752850506772
 31
0.0
  0
LINE
  5
361
330
1F
100
AcDbEntity
  8
1-0
  6
Continuous
 62
     7
370
     9
100
AcDbLine
 10
568.4120796822214
 20
30.14183250633465
 30
0.0
 11
503.9780075485641
 21
30.14183250633465
 31
0.0
  0
LINE
  5
362
330
1F
100
AcDbEntity
  8
1-0
  6
Continuous
 62
     7
370
     9
100
AcDbLine
 10
507.5782569679058
 20
60.27752850506772
 30
0.0
 11
503.6617794552365
 21
90.0207849451013
 31
0.0
  0
LINE
  5
363
330
1F
100
AcDbEntity
  8
1-0
  6
Continuous
 62
     7
370
     9
100
AcDbLine
 10
507.5782569679058
 20
60.27752850506772
 30
0.0
 11
511.4939921611068
 21
90.0207849451013
 31
0.0
  0
LINE
  5
364
330
1F
100
AcDbEntity
  8
1-0
  6
Continuous
 62
     7
370
     9
100
AcDbLine
 10
507.5782569679058
 20
30.14183250633465
 30
0.0
 11
503.6617794552365
 21
0.3985760663007909
 31
0.0
  0
LINE
  5
365
330
1F
100
AcDbEntity
  8
1-0
  6
Continuous
 62
     7
370
     9
100
AcDbLine
 10
507.5782569679058
 20
30.14183250633465
 30
0.0
 11
511.4939921611068
 21
0.3985760663007909
 31
0.0
  0
LINE
  5
366
330
1F
100
AcDbEntity
  8
1-0
  6
Continuous
 62
     7
370
     9
100
AcDbLine
 10
507.5782569679058
 20
98.07717813027892
 30
0.0
 11
507.5782569679058
 21
-16.97046228357266
 31
0.0
  0
LINE
  5
367
330
1F
100
AcDbEntity
  8
1-0
  6
Continuous
 62
     7
370
     9
100
AcDbLine
 10
632.48291015625
 20
211.5657002217063
 30
0.0
 11
670.901159338049
 21
219.7868883287586
 31
0.0
  0
LINE
  5
368
330
1F
100
AcDbEntity
  8
1-0
  6
Continuous
 62
     7
370
     9
100
AcDbLine
 10
626.2048669763516
 20
240.9011758340372
 30
0.0
 11
664.6238584776182
 21
249.1228588207349
 31
0.0
  0
LINE
  5
369
330
1F
100
AcDbEntity
  8
1-0
  6
Continuous
 62
     7
370
     9
100
AcDbLine
 10
667.3813278610646
 20
219.0336815086573
 30
0.0
 11
677.434065535262
 21
190.7683831292232
 31
0.0
  0
LINE
  5
36A
330
1F
100
AcDbEntity
  8
1-0
  6
Continuous
 62
     7
370
     9
100
AcDbLine
 10
667.3813278610646
 20
219.0336815086573
 30
0.0
 11
669.7760504645271
 21
189.1295891839107
 31
0.0
  0
LINE
  5
36B
330
1F
100
AcDbEntity
  8
1-0
  6
Continuous
 62
     7
370
     9
100
AcDbLine
 10
661.1032846811656
 20
248.3694045608109
 30
0.0
 11
658.7083146378802
 21
278.2734968855576
 31
0.0
  0
LINE
  5
36C
330
1F
100
AcDbEntity
  8
1-0
  6
Continuous
 62
     7
370
     9
100
AcDbLine
 10
661.1032846811656
 20
248.3694045608109
 30
0.0
 11
651.0502995671453
 21
276.6349503800677
 31
0.0
  0
LINE
  5
36D
330
1F
100
AcDbEntity
  8
1-0
  6
Continuous
 62
     7
370
     9
100
AcDbLine
 10
674.9101793443833
 20
183.8512028874578
 30
0.0
 11
652.8828388935813
 21
286.7846844647383
 31
0.0
  0
LINE
  5
36E
330
1F
100
AcDbEntity
  8
1-0
  6
Continuous
 62
     7
370
     9
100
AcDbLine
 10
1409.030976166596
 20
343.8304509343328
 30
0.0
 11
1409.030976166596
 21
387.2343651024073
 31
0.0
  0
LINE
  5
36F
330
1F
100
AcDbEntity
  8
1-0
  6
Continuous
 62
     7
370
     9
100
AcDbLine
 10
1367.031035552154
 20
343.8304509343328
 30
0.0
 11
1367.031035552154
 21
387.2343651024073
 31
0.0
  0
LINE
  5
370
330
1F
100
AcDbEntity
  8
1-0
  6
Continuous
 62
     7
370
     9
100
AcDbLine
 10
1409.030976166596
 20
383.6343631228885
 30
0.0
 11
1438.774480046453
 21
387.5503457559122
 31
0.0
  0
LINE
  5
371
330
1F
100
AcDbEntity
  8
1-0
  6
Continuous
 62
     7
370
     9
100
AcDbLine
 10
1409.030976166596
 20
383.6343631228885
 30
0.0
 11
1438.774480046453
 21
379.7186279296875
 31
0.0
  0
LINE
  5
372
330
1F
100
AcDbEntity
  8
1-0
  6
Continuous
 62
     7
370
     9
100
AcDbLine
 10
1367.031035552154
 20
383.6343631228885
 30
0.0
 11
1337.287284232475
 21
387.5503457559122
 31
0.0
  0
LINE
  5
373
330
1F
100
AcDbEntity
  8
1-0
  6
Continuous
 62
     7
370
     9
100
AcDbLine
 10
1367.031035552154
 20
383.6343631228885
 30
0.0
 11
1337.287284232475
 21
379.7186279296875
 31
0.0
  0
LINE
  5
374
330
1F
100
AcDbEntity
  8
1-0
  6
Continuous
 62
     7
370
     9
100
AcDbLine
 10
1442.477911871833
 20
383.6343631228885
 30
0.0
 11
1333.810754724451
 21
383.6343631228885
 31
0.0
  0
LINE
  5
375
330
1F
100
AcDbEntity
  8
1-0
  6
Continuous
 62
     7
370
     9
100
AcDbLine
 10
1400.031094937711
 20
139.9630489864865
 30
0.0
 11
1400.031094937711
 21
136.3632944467906
 31
0.0
  0
LINE
  5
376
330
1F
100
AcDbEntity
  8
1-0
  6
Continuous
 62
     7
370
     9
100
AcDbLine
 10
1376.030916781039
 20
139.9630489864865
 30
0.0
 11
1376.030916781039
 21
136.3632944467906
 31
0.0
  0
LINE
  5
377
330
1F
100
AcDbEntity
  8
1-0
  6
Continuous
 62
     7
370
     9
100
AcDbLine
 10
1400.031094937711
 20
139.9630489864865
 30
0.0
 11
1429.7738564981
 21
143.8792790593328
 31
0.0
  0
LINE
  5
378
330
1F
100
AcDbEntity
  8
1-0
  6
Continuous
 62
     7
370
     9
100
AcDbLine
 10
1400.031094937711
 20
139.9630489864865
 30
0.0
 11
1429.7738564981
 21
136.0475612331081
 31
0.0
  0
LINE
  5
379
330
1F
100
AcDbEntity
  8
1-0
  6
Continuous
 62
     7
370
     9
100
AcDbLine
 10
1376.030916781039
 20
139.9630489864865
 30
0.0
 11
1346.28716546136
 21
143.8792790593328
 31
0.0
  0
LINE
  5
37A
330
1F
100
AcDbEntity
  8
1-0
  6
Continuous
 62
     7
370
     9
100
AcDbLine
 10
1376.030916781039
 20
139.9630489864865
 30
0.0
 11
1346.28716546136
 21
136.0475612331081
 31
0.0
  0
LINE
  5
37B
330
1F
100
AcDbEntity
  8
1-0
  6
Continuous
 62
     7
370
     9
100
AcDbLine
 10
1445.939594990498
 20
139.9630489864865
 30
0.0
 11
1340.375085779139
 21
139.9630489864865
 31
0.0
  0
LINE
  5
37C
330
1F
100
AcDbEntity
  8
1-0
  6
Continuous
 62
     7
370
     9
100
AcDbLine
 10
509.6290382179058
 20
-112.825927734375
 30
0.0
 11
509.6290382179058
 21
-192.567617055532
 31
0.0
  0
LINE
  5
37D
330
1F
100
AcDbEntity
  8
1-0
  6
Continuous
 62
     7
370
     9
100
AcDbLine
 10
509.6290382179058
 20
-192.567617055532
 30
0.0
 11
1341.719673775338
 21
-192.567617055532
 31
0.0
  0
LINE
  5
37E
330
1F
100
AcDbEntity
  8
1-0
  6
Continuous
 62
     7
370
     9
100
AcDbLine
 10
1341.719673775338
 20
-192.567617055532
 30
0.0
 11
1341.719673775338
 21
-112.825927734375
 31
0.0
  0
LINE
  5
37F
330
1F
100
AcDbEntity
  8
1-0
  6
Continuous
 62
     7
370
     9
100
AcDbLine
 10
1341.719673775338
 20
-112.825927734375
 30
0.0
 11
509.6290382179058
 21
-112.825927734375
 31
0.0
  0
LINE
  5
380
330
1F
100
AcDbEntity
  8
1-0
  6
Continuous
 62
     3
370
     9
100
AcDbLine
 10
576.7362027554901
 20
323.6279791754646
 30
0.0
 11
576.7362027554901
 21
-26.14157186972108
 31
0.0
  0
LINE
  5
381
330
1F
100
AcDbEntity
  8
1-0
  6
Continuous
 62
     3
370
     9
100
AcDbLine
 10
576.7362027554901
 20
278.3150667757602
 30
0.0
 11
618.7358959301099
 21
269.3270626583615
 31
0.0
  0
LINE
  5
382
330
1F
100
AcDbEntity
  8
1-0
  6
Continuous
 62
     3
370
     9
100
AcDbLine
 10
576.7362027554901
 20
275.24730785473
 30
0.0
 11
618.7358959301099
 21
266.2595511771539
 31
0.0
  0
LINE
  5
383
330
1F
100
AcDbEntity
  8
1-0
  6
Continuous
 62
     3
370
     9
100
AcDbLine
 10
618.7358959301099
 20
303.0743903082771
 30
0.0
 11
576.7362027554901
 21
312.0621469858531
 31
0.0
  0
LINE
  5
384
330
1F
100
AcDbEntity
  8
1-0
  6
Continuous
 62
     3
370
     9
100
AcDbLine
 10
618.7358959301099
 20
300.006383947424
 30
0.0
 11
576.7362027554901
 21
308.994140625
 31
0.0
  0
LINE
  5
385
330
1F
100
AcDbEntity
  8
1-0
  6
Continuous
 62
     3
370
     9
100
AcDbLine
 10
599.2205645586995
 20
235.1264252533784
 30
0.0
 11
618.7358959301099
 21
215.6108464421453
 31
0.0
  0
LINE
  5
386
330
1F
100
AcDbEntity
  8
1-0
  6
Continuous
 62
     3
370
     9
100
AcDbLine
 10
576.7362027554901
 20
230.3149579022383
 30
0.0
 11
618.7358959301099
 21
239.302962019637
 31
0.0
  0
LINE
  5
387
330
1F
100
AcDbEntity
  8
1-0
  6
Continuous
 62
     3
370
     9
100
AcDbLine
 10
576.7362027554901
 20
233.3829642630914
 30
0.0
 11
618.7358959301099
 21
242.3707209406672
 31
0.0
  0
LINE
  5
388
330
1F
100
AcDbEntity
  8
1-0
  6
Continuous
 62
     3
370
     9
100
AcDbLine
 10
576.7362027554901
 20
199.6358840529984
 30
0.0
 11
618.7358959301099
 21
208.6236407305745
 31
0.0
  0
LINE
  5
389
330
1F
100
AcDbEntity
  8
1-0
  6
Continuous
 62
     3
370
     9
100
AcDbLine
 10
576.7362027554901
 20
196.5678776921453
 30
0.0
 11
618.7358959301099
 21
205.5556343697214
 31
0.0
  0
LINE
  5
38A
330
1F
100
AcDbEntity
  8
1-0
  6
Continuous
 62
     3
370
     9
100
AcDbLine
 10
576.7362027554901
 20
305.6984896273227
 30
0.0
 11
611.5742451435813
 21
270.8597049197635
 31
0.0
  0
LINE
  5
38B
330
1F
100
AcDbEntity
  8
1-0
  6
Continuous
 62
     3
370
     9
100
AcDbLine
 10
576.7362027554901
 20
292.9706800306167
 30
0.0
 11
595.3807933910474
 21
274.3250996357688
 31
0.0
  0
LINE
  5
38C
330
1F
100
AcDbEntity
  8
1-0
  6
Continuous
 62
     3
370
     9
100
AcDbLine
 10
576.7362027554901
 20
280.242622994088
 30
0.0
 11
579.1880839579818
 21
277.790246911951
 31
0.0
  0
LINE
  5
38D
330
1F
100
AcDbEntity
  8
1-0
  6
Continuous
 62
     3
370
     9
100
AcDbLine
 10
578.2510293496625
 20
230.639351509713
 30
0.0
 11
603.5228007548568
 21
205.3683224239865
 31
0.0
  0
LINE
  5
38E
330
1F
100
AcDbEntity
  8
1-0
  6
Continuous
 62
     3
370
     9
100
AcDbLine
 10
576.7362027554901
 20
219.4268633868245
 30
0.0
 11
593.0382805901604
 21
203.1245381123313
 31
0.0
  0
LINE
  5
38F
330
1F
100
AcDbEntity
  8
1-0
  6
Continuous
 62
     3
370
     9
100
AcDbLine
 10
576.7362027554901
 20
206.6990537901182
 30
0.0
 11
582.5537604254646
 21
200.8807538006758
 31
0.0
  0
LINE
  5
390
330
1F
100
AcDbEntity
  8
1-0
  6
Continuous
 62
     7
370
     9
100
AcDbLine
 10
568.4120796822214
 20
278.3150667757602
 30
0.0
 11
503.9780075485641
 21
278.3150667757602
 31
0.0
  0
LINE
  5
391
330
1F
100
AcDbEntity
  8
1-0
  6
Continuous
 62
     7
370
     9
100
AcDbLine
 10
568.4120796822214
 20
230.3149579022383
 30
0.0
 11
503.9780075485641
 21
230.3149579022383
 31
0.0
  0
LINE
  5
392
330
1F
100
AcDbEntity
  8
1-0
  6
Continuous
 62
     7
370
     9
100
AcDbLine
 10
507.5782569679058
 20
278.3150667757602
 30
0.0
 11
503.6625217747047
 21
308.058323215794
 31
0.0
  0
LINE
  5
393
330
1F
100
AcDbEntity
  8
1-0
  6
Continuous
 62
     7
370
     9
100
AcDbLine
 10
507.5782569679058
 20
278.3150667757602
 30
0.0
 11
511.4932498416385
 21
308.058323215794
 31
0.0
  0
LINE
  5
394
330
1F
100
AcDbEntity
  8
1-0
  6
Continuous
 62
     7
370
     9
100
AcDbLine
 10
507.5782569679058
 20
230.3149579022383
 30
0.0
 11
503.6625217747047
 21
200.5719489020271
 31
0.0
  0
LINE
  5
395
330
1F
100
AcDbEntity
  8
1-0
  6
Continuous
 62
     7
370
     9
100
AcDbLine
 10
507.5782569679058
 20
230.3149579022383
 30
0.0
 11
511.4932498416385
 21
200.5719489020271
 31
0.0
  0
LINE
  5
396
330
1F
100
AcDbEntity
  8
1-0
  6
Continuous
 62
     7
370
     9
100
AcDbLine
 10
507.5782569679058
 20
315.1482164537586
 30
0.0
 11
507.5782569679058
 21
196.1709842166385
 31
0.0
  0
LINE
  5
397
330
1F
100
AcDbEntity
  8
1-0
  6
Continuous
 62
     3
370
     9
100
AcDbLine
 10
576.7362027554901
 20
90.95709723395288
 30
0.0
 11
618.7358959301099
 21
99.94460647170627
 31
0.0
  0
LINE
  5
398
330
1F
100
AcDbEntity
  8
1-0
  6
Continuous
 62
     3
370
     9
100
AcDbLine
 10
576.7362027554901
 20
94.0246087151607
 30
0.0
 11
618.7358959301099
 21
103.0123653927365
 31
0.0
  0
LINE
  5
399
330
1F
100
AcDbEntity
  8
1-0
  6
Continuous
 62
     3
370
     9
100
AcDbLine
 10
618.7358959301099
 20
66.19752626161329
 30
0.0
 11
576.7362027554901
 21
57.20976958403725
 31
0.0
  0
LINE
  5
39A
330
1F
100
AcDbEntity
  8
1-0
  6
Continuous
 62
     3
370
     9
100
AcDbLine
 10
618.7358959301099
 20
69.26528518264377
 30
0.0
 11
576.7362027554901
 21
60.27752850506772
 31
0.0
  0
LINE
  5
39B
330
1F
100
AcDbEntity
  8
1-0
  6
Continuous
 62
     3
370
     9
100
AcDbLine
 10
576.7362027554901
 20
138.9564637880068
 30
0.0
 11
618.7358959301099
 21
129.9689545502534
 31
0.0
  0
LINE
  5
39C
330
1F
100
AcDbEntity
  8
1-0
  6
Continuous
 62
     3
370
     9
100
AcDbLine
 10
576.7362027554901
 20
135.8887048669766
 30
0.0
 11
618.7358959301099
 21
126.9011956292232
 31
0.0
  0
LINE
  5
39D
330
1F
100
AcDbEntity
  8
1-0
  6
Continuous
 62
     3
370
     9
100
AcDbLine
 10
576.7362027554901
 20
169.6357850770693
 30
0.0
 11
618.7358959301099
 21
160.6485232791385
 31
0.0
  0
LINE
  5
39E
330
1F
100
AcDbEntity
  8
1-0
  6
Continuous
 62
     3
370
     9
100
AcDbLine
 10
576.7362027554901
 20
172.7040388777451
 30
0.0
 11
618.7358959301099
 21
163.716282200169
 31
0.0
  0
LINE
  5
39F
330
1F
100
AcDbEntity
  8
1-0
  6
Continuous
 62
     3
370
     9
100
AcDbLine
 10
576.7362027554901
 20
-0.5372413429051903
 30
0.0
 11
618.7358959301099
 21
-9.524998020481235
 31
0.0
  0
LINE
  5
3A0
330
1F
100
AcDbEntity
  8
1-0
  6
Continuous
 62
     3
370
     9
100
AcDbLine
 10
576.7362027554901
 20
-3.605247703758323
 30
0.0
 11
618.7358959301099
 21
-12.59300438133437
 31
0.0
  0
LINE
  5
3A1
330
1F
100
AcDbEntity
  8
1-0
  6
Continuous
 62
     3
370
     9
100
AcDbLine
 10
576.7362027554901
 20
30.14183250633465
 30
0.0
 11
618.7358959301099
 21
21.15432326858127
 31
0.0
  0
LINE
  5
3A2
330
1F
100
AcDbEntity
  8
1-0
  6
Continuous
 62
     3
370
     9
100
AcDbLine
 10
576.7362027554901
 20
33.21008630701016
 30
0.0
 11
618.7358959301099
 21
24.22232962943411
 31
0.0
  0
LINE
  5
3A3
330
1F
100
AcDbEntity
  8
1-0
  6
Continuous
 62
     3
370
     9
100
AcDbLine
 10
588.7360443940037
 20
27.57390202702709
 30
0.0
 11
618.7358959301099
 21
-2.425702069256772
 31
0.0
  0
LINE
  5
3A4
330
1F
100
AcDbEntity
  8
1-0
  6
Continuous
 62
     3
370
     9
100
AcDbLine
 10
604.9290012668922
 20
24.10850731102215
 30
0.0
 11
618.7358959301099
 21
10.30235496727215
 31
0.0
  0
LINE
  5
3A5
330
1F
100
AcDbEntity
  8
1-0
  6
Continuous
 62
     3
370
     9
100
AcDbLine
 10
576.7362027554901
 20
26.84593406883465
 30
0.0
 11
611.5742451435813
 21
-7.992603198901804
 31
0.0
  0
LINE
  5
3A6
330
1F
100
AcDbEntity
  8
1-0
  6
Continuous
 62
     3
370
     9
100
AcDbLine
 10
576.7362027554901
 20
14.11812447212839
 30
0.0
 11
595.3807933910474
 21
-4.526961043074209
 31
0.0
  0
LINE
  5
3A7
330
1F
100
AcDbEntity
  8
1-0
  6
Continuous
 62
     3
370
     9
100
AcDbLine
 10
576.7362027554901
 20
1.390067435599747
 30
0.0
 11
579.1880839579818
 21
-1.06181376689193
 31
0.0
  0
LINE
  5
3A8
330
1F
100
AcDbEntity
  8
1-0
  6
Continuous
 62
     3
370
     9
100
AcDbLine
 10
588.7360443940037
 20
167.0681020375847
 30
0.0
 11
618.7358959301099
 21
137.0682505014781
 31
0.0
  0
LINE
  5
3A9
330
1F
100
AcDbEntity
  8
1-0
  6
Continuous
 62
     3
370
     9
100
AcDbLine
 10
604.9290012668922
 20
163.6027073215794
 30
0.0
 11
618.7358959301099
 21
149.7960600981841
 31
0.0
  0
LINE
  5
3AA
330
1F
100
AcDbEntity
  8
1-0
  6
Continuous
 62
     3
370
     9
100
AcDbLine
 10
576.7362027554901
 20
166.3401340793919
 30
0.0
 11
611.5742451435813
 21
131.5015968116555
 31
0.0
  0
LINE
  5
3AB
330
1F
100
AcDbEntity
  8
1-0
  6
Continuous
 62
     3
370
     9
100
AcDbLine
 10
576.7362027554901
 20
153.6123244826859
 30
0.0
 11
595.3807933910474
 21
134.966744087838
 31
0.0
  0
LINE
  5
3AC
330
1F
100
AcDbEntity
  8
1-0
  6
Continuous
 62
     3
370
     9
100
AcDbLine
 10
576.7362027554901
 20
140.8840200063347
 30
0.0
 11
579.1880839579818
 21
138.4318913640203
 31
0.0
  0
LINE
  5
3AD
330
1F
100
AcDbEntity
  8
1-0
  6
Continuous
 62
     3
370
     9
100
AcDbLine
 10
576.7362027554901
 20
62.20508472339532
 30
0.0
 11
579.1880839579818
 21
59.75320352090392
 31
0.0
  0
LINE
  5
3AE
330
1F
100
AcDbEntity
  8
1-0
  6
Continuous
 62
     3
370
     9
100
AcDbLine
 10
609.70458984375
 20
98.01160657728047
 30
0.0
 11
618.7358959301099
 21
88.98104281038854
 31
0.0
  0
LINE
  5
3AF
330
1F
100
AcDbEntity
  8
1-0
  6
Continuous
 62
     3
370
     9
100
AcDbLine
 10
588.7360443940037
 20
93.52453283361484
 30
0.0
 11
614.0068260399073
 21
68.25325630806589
 31
0.0
  0
LINE
  5
3B0
330
1F
100
AcDbEntity
  8
1-0
  6
Continuous
 62
     3
370
     9
100
AcDbLine
 10
599.2205645586995
 20
95.76806970544766
 30
0.0
 11
618.7358959301099
 21
76.25249089421459
 31
0.0
  0
LINE
  5
3B1
330
1F
100
AcDbEntity
  8
1-0
  6
Continuous
 62
     3
370
     9
100
AcDbLine
 10
578.2510293496625
 20
91.28099596178231
 30
0.0
 11
603.5228007548568
 21
66.00996687605573
 31
0.0
  0
LINE
  5
3B2
330
1F
100
AcDbEntity
  8
1-0
  6
Continuous
 62
     3
370
     9
100
AcDbLine
 10
576.7362027554901
 20
80.06850783889377
 30
0.0
 11
593.0382805901604
 21
63.76618256440054
 31
0.0
  0
LINE
  5
3B3
330
1F
100
AcDbEntity
  8
1-0
  6
Continuous
 62
     3
370
     9
100
AcDbLine
 10
576.7362027554901
 20
67.3406982421875
 30
0.0
 11
582.5537604254646
 21
61.52289313239038
 31
0.0
  0
LINE
  5
3B4
330
1F
100
AcDbEntity
  8
1-0
  6
Continuous
 62
     7
370
     9
100
AcDbLine
 10
618.7358959301099
 20
339.3948446737755
 30
0.0
 11
618.7358959301099
 21
378.2117194098396
 31
0.0
  0
LINE
  5
3B5
330
1F
100
AcDbEntity
  8
1-0
  6
Continuous
 62
     7
370
     9
100
AcDbLine
 10
576.7362027554901
 20
339.3948446737755
 30
0.0
 11
576.7362027554901
 21
378.2117194098396
 31
0.0
  0
LINE
  5
3B6
330
1F
100
AcDbEntity
  8
1-0
  6
Continuous
 62
     7
370
     9
100
AcDbLine
 10
618.7358959301099
 20
374.6122123099664
 30
0.0
 11
648.4793998099661
 21
378.5279475031675
 31
0.0
  0
LINE
  5
3B7
330
1F
100
AcDbEntity
  8
1-0
  6
Continuous
 62
     7
370
     9
100
AcDbLine
 10
618.7358959301099
 20
374.6122123099664
 30
0.0
 11
648.4793998099661
 21
370.6959822371201
 31
0.0
  0
LINE
  5
3B8
330
1F
100
AcDbEntity
  8
1-0
  6
Continuous
 62
     7
370
     9
100
AcDbLine
 10
576.7362027554901
 20
374.6122123099664
 30
0.0
 11
546.992451435811
 21
378.5279475031675
 31
0.0
  0
LINE
  5
3B9
330
1F
100
AcDbEntity
  8
1-0
  6
Continuous
 62
     7
370
     9
100
AcDbLine
 10
576.7362027554901
 20
374.6122123099664
 30
0.0
 11
546.992451435811
 21
370.6959822371201
 31
0.0
  0
LINE
  5
3BA
330
1F
100
AcDbEntity
  8
1-0
  6
Continuous
 62
     7
370
     9
100
AcDbLine
 10
655.866963154561
 20
374.6122123099664
 30
0.0
 11
546.1528881176099
 21
374.6122123099664
 31
0.0
  0
LINE
  5
3BB
330
1F
100
AcDbEntity
  8
1-0
  6
Continuous
 62
     3
370
     9
100
AcDbLine
 10
1203.237997519004
 20
329.9297765783362
 30
0.0
 11
1185.237492741766
 21
329.9297765783362
 31
0.0
  0
LINE
  5
3BC
330
1F
100
AcDbEntity
  8
1-0
  6
Continuous
 62
     3
370
     9
100
AcDbLine
 10
1203.237997519004
 20
329.9297765783362
 30
0.0
 11
1209.237670898438
 21
320.9294004698057
 31
0.0
  0
LINE
  5
3BD
330
1F
100
AcDbEntity
  8
1-0
  6
Continuous
 62
     3
370
     9
100
AcDbLine
 10
1106.559547218117
 20
329.9297765783362
 30
0.0
 11
1100.559873838683
 21
320.9294004698057
 31
0.0
  0
LINE
  5
3BE
330
1F
100
AcDbEntity
  8
1-0
  6
Continuous
 62
     3
370
     9
100
AcDbLine
 10
1142.559567013303
 20
329.9297765783362
 30
0.0
 11
1106.559547218117
 21
329.9297765783362
 31
0.0
  0
LINE
  5
3BF
330
1F
100
AcDbEntity
  8
1-0
  6
Continuous
 62
     3
370
     9
100
AcDbLine
 10
1142.559567013303
 20
329.9297765783362
 30
0.0
 11
1148.559240392736
 21
320.9294004698057
 31
0.0
  0
LINE
  5
3C0
330
1F
100
AcDbEntity
  8
1-0
  6
Continuous
 62
     3
370
     9
100
AcDbLine
 10
1179.237819362331
 20
320.9294004698057
 30
0.0
 11
1148.559240392736
 21
320.9294004698057
 31
0.0
  0
LINE
  5
3C1
330
1F
100
AcDbEntity
  8
1-0
  6
Continuous
 62
     3
370
     9
100
AcDbLine
 10
1185.237492741766
 20
329.9297765783362
 30
0.0
 11
1179.237819362331
 21
320.9294004698057
 31
0.0
  0
LINE
  5
3C2
330
1F
100
AcDbEntity
  8
1-0
  6
Continuous
 62
     3
370
     9
100
AcDbLine
 10
1063.882116369299
 20
329.9297765783362
 30
0.0
 11
1045.881611592061
 21
329.9297765783362
 31
0.0
  0
LINE
  5
3C3
330
1F
100
AcDbEntity
  8
1-0
  6
Continuous
 62
     3
370
     9
100
AcDbLine
 10
1063.882116369299
 20
329.9297765783362
 30
0.0
 11
1069.881789748733
 21
320.9294004698057
 31
0.0
  0
LINE
  5
3C4
330
1F
100
AcDbEntity
  8
1-0
  6
Continuous
 62
     3
370
     9
100
AcDbLine
 10
967.2036660684125
 20
329.9297765783362
 30
0.0
 11
961.2037452491558
 21
320.9294004698057
 31
0.0
  0
LINE
  5
3C5
330
1F
100
AcDbEntity
  8
1-0
  6
Continuous
 62
     3
370
     9
100
AcDbLine
 10
1003.203685863598
 20
329.9297765783362
 30
0.0
 11
967.2036660684125
 21
329.9297765783362
 31
0.0
  0
LINE
  5
3C6
330
1F
100
AcDbEntity
  8
1-0
  6
Continuous
 62
     3
370
     9
100
AcDbLine
 10
1003.203685863598
 20
329.9297765783362
 30
0.0
 11
1009.203359243032
 21
320.9294004698057
 31
0.0
  0
LINE
  5
3C7
330
1F
100
AcDbEntity
  8
1-0
  6
Continuous
 62
     3
370
     9
100
AcDbLine
 10
1039.881938212627
 20
320.9294004698057
 30
0.0
 11
1009.203359243032
 21
320.9294004698057
 31
0.0
  0
LINE
  5
3C8
330
1F
100
AcDbEntity
  8
1-0
  6
Continuous
 62
     3
370
     9
100
AcDbLine
 10
1045.881611592061
 20
329.9297765783362
 30
0.0
 11
1039.881938212627
 21
320.9294004698057
 31
0.0
  0
LINE
  5
3C9
330
1F
100
AcDbEntity
  8
1-0
  6
Continuous
 62
     3
370
     9
100
AcDbLine
 10
1069.881789748733
 20
320.9294004698057
 30
0.0
 11
1100.559873838683
 21
320.9294004698057
 31
0.0
  0
LINE
  5
3CA
330
1F
100
AcDbEntity
  8
1-0
  6
Continuous
 62
     3
370
     9
100
AcDbLine
 10
924.5262352195948
 20
329.9297765783362
 30
0.0
 11
906.5254830025339
 21
329.9297765783362
 31
0.0
  0
LINE
  5
3CB
330
1F
100
AcDbEntity
  8
1-0
  6
Continuous
 62
     3
370
     9
100
AcDbLine
 10
924.5262352195948
 20
329.9297765783362
 30
0.0
 11
930.5259085990286
 21
320.9294004698057
 31
0.0
  0
LINE
  5
3CC
330
1F
100
AcDbEntity
  8
1-0
  6
Continuous
 62
     3
370
     9
100
AcDbLine
 10
827.8475374788854
 20
329.9297765783362
 30
0.0
 11
821.847864099451
 21
320.9294004698057
 31
0.0
  0
LINE
  5
3CD
330
1F
100
AcDbEntity
  8
1-0
  6
Continuous
 62
     3
370
     9
100
AcDbLine
 10
863.8478047138938
 20
329.9297765783362
 30
0.0
 11
827.8475374788854
 21
329.9297765783362
 31
0.0
  0
LINE
  5
3CE
330
1F
100
AcDbEntity
  8
1-0
  6
Continuous
 62
     3
370
     9
100
AcDbLine
 10
863.8478047138938
 20
329.9297765783362
 30
0.0
 11
869.8474780933276
 21
320.9294004698057
 31
0.0
  0
LINE
  5
3CF
330
1F
100
AcDbEntity
  8
1-0
  6
Continuous
 62
     3
370
     9
100
AcDbLine
 10
900.5258096231
 20
320.9294004698057
 30
0.0
 11
869.8474780933276
 21
320.9294004698057
 31
0.0
  0
LINE
  5
3D0
330
1F
100
AcDbEntity
  8
1-0
  6
Continuous
 62
     3
370
     9
100
AcDbLine
 10
906.5254830025339
 20
329.9297765783362
 30
0.0
 11
900.5258096231
 21
320.9294004698057
 31
0.0
  0
LINE
  5
3D1
330
1F
100
AcDbEntity
  8
1-0
  6
Continuous
 62
     3
370
     9
100
AcDbLine
 10
930.5259085990286
 20
320.9294004698057
 30
0.0
 11
961.2037452491558
 21
320.9294004698057
 31
0.0
  0
LINE
  5
3D2
330
1F
100
AcDbEntity
  8
1-0
  6
Continuous
 62
     3
370
     9
100
AcDbLine
 10
785.1698591902453
 20
329.9297765783362
 30
0.0
 11
767.1696018528297
 21
329.9297765783362
 31
0.0
  0
LINE
  5
3D3
330
1F
100
AcDbEntity
  8
1-0
  6
Continuous
 62
     3
370
     9
100
AcDbLine
 10
785.1698591902453
 20
329.9297765783362
 30
0.0
 11
791.1695325696792
 21
320.9294004698057
 31
0.0
  0
LINE
  5
3D4
330
1F
100
AcDbEntity
  8
1-0
  6
Continuous
 62
     3
370
     9
100
AcDbLine
 10
767.1696018528297
 20
329.9297765783362
 30
0.0
 11
761.1699284733953
 21
320.9294004698057
 31
0.0
  0
LINE
  5
3D5
330
1F
100
AcDbEntity
  8
1-0
  6
Continuous
 62
     3
370
     9
100
AcDbLine
 10
791.1695325696792
 20
320.9294004698057
 30
0.0
 11
821.847864099451
 21
320.9294004698057
 31
0.0
  0
LINE
  5
3D6
330
1F
100
AcDbEntity
  8
1-0
  6
Continuous
 62
     3
370
     9
100
AcDbLine
 10
761.1699284733953
 20
320.9294004698057
 30
0.0
 11
740.2800688872469
 21
320.9294004698057
 31
0.0
  0
LINE
  5
3D7
330
1F
100
AcDbEntity
  8
1-0
  6
Continuous
 62
     3
370
     9
100
AcDbLine
 10
1376.030916781039
 20
260.929697397593
 30
0.0
 11
1367.031035552154
 21
269.9295786264781
 31
0.0
  0
LINE
  5
3D8
330
1F
100
AcDbEntity
  8
1-0
  6
Continuous
 62
     3
370
     9
100
AcDbLine
 10
1367.031035552154
 20
269.9295786264781
 30
0.0
 11
1367.031035552154
 21
320.9294004698057
 31
0.0
  0
LINE
  5
3D9
330
1F
100
AcDbEntity
  8
1-0
  6
Continuous
 62
     3
370
     9
100
AcDbLine
 10
1400.031094937711
 20
260.929697397593
 30
0.0
 11
1409.030976166596
 21
269.9295786264781
 31
0.0
  0
LINE
  5
3DA
330
1F
100
AcDbEntity
  8
1-0
  6
Continuous
 62
     3
370
     9
100
AcDbLine
 10
1409.030976166596
 20
320.9294004698057
 30
0.0
 11
1409.030976166596
 21
269.9295786264781
 31
0.0
  0
LINE
  5
3DB
330
1F
100
AcDbEntity
  8
1-0
  6
Continuous
 62
     3
370
     9
100
AcDbLine
 10
1367.031035552154
 20
-9.070698506123165
 30
0.0
 11
1367.031035552154
 21
41.92912333720443
 31
0.0
  0
LINE
  5
3DC
330
1F
100
AcDbEntity
  8
1-0
  6
Continuous
 62
     3
370
     9
100
AcDbLine
 10
1367.031035552154
 20
41.92912333720443
 30
0.0
 11
1376.030916781039
 21
50.92900456608959
 31
0.0
  0
LINE
  5
3DD
330
1F
100
AcDbEntity
  8
1-0
  6
Continuous
 62
     3
370
     9
100
AcDbLine
 10
1376.030916781039
 20
260.929697397593
 30
0.0
 11
1376.030916781039
 21
50.92900456608959
 31
0.0
  0
LINE
  5
3DE
330
1F
100
AcDbEntity
  8
1-0
  6
Continuous
 62
     3
370
     9
100
AcDbLine
 10
1400.031094937711
 20
260.929697397593
 30
0.0
 11
1400.031094937711
 21
50.92900456608959
 31
0.0
  0
LINE
  5
3DF
330
1F
100
AcDbEntity
  8
1-0
  6
Continuous
 62
     3
370
     9
100
AcDbLine
 10
1400.031094937711
 20
50.92900456608959
 30
0.0
 11
1409.030976166596
 21
41.92912333720443
 31
0.0
  0
LINE
  5
3E0
330
1F
100
AcDbEntity
  8
1-0
  6
Continuous
 62
     3
370
     9
100
AcDbLine
 10
1409.030976166596
 20
41.92912333720443
 30
0.0
 11
1409.030976166596
 21
-9.070698506123165
 31
0.0
  0
LINE
  5
3E1
330
1F
100
AcDbEntity
  8
1-0
  6
Continuous
 62
     3
370
     9
100
AcDbLine
 10
1216.096950221706
 20
41.92912333720443
 30
0.0
 11
740.2800688872469
 21
41.92912333720443
 31
0.0
  0
LINE
  5
3E2
330
1F
100
AcDbEntity
  8
1-0
  6
Continuous
 62
     3
370
     9
100
AcDbLine
 10
1216.096950221706
 20
50.92900456608959
 30
0.0
 11
740.2800688872469
 21
50.92900456608959
 31
0.0
  0
LINE
  5
3E3
330
1F
100
AcDbEntity
  8
1-0
  6
Continuous
 62
     3
370
     9
100
AcDbLine
 10
1216.096950221706
 20
269.9298260663008
 30
0.0
 11
740.2800688872469
 21
269.9298260663008
 31
0.0
  0
LINE
  5
3E4
330
1F
100
AcDbEntity
  8
1-0
  6
Continuous
 62
     3
370
     9
100
AcDbLine
 10
1216.096950221706
 20
260.9299448374156
 30
0.0
 11
740.2800688872469
 21
260.9299448374156
 31
0.0
  0
LINE
  5
3E5
330
1F
100
AcDbEntity
  8
1-4
  6
Continuous
 62
     7
370
     9
100
AcDbLine
 10
712.8560659047719
 20
392.1269927153716
 30
0.0
 11
605.8796650654563
 21
254.9594693570523
 31
0.0
  0
LINE
  5
3E6
330
1F
100
AcDbEntity
  8
1-4
  6
Continuous
 62
     7
370
     9
100
AcDbLine
 10
605.8796650654563
 20
254.9594693570523
 30
0.0
 11
621.4255668021536
 21
280.6174943253802
 31
0.0
  0
LINE
  5
3E7
330
1F
100
AcDbEntity
  8
1-4
  6
Continuous
 62
     7
370
     9
100
AcDbLine
 10
605.8796650654563
 20
254.9594693570523
 30
0.0
 11
627.536588101774
 21
275.7196704761404
 31
0.0
  0
LINE
  5
3E8
330
1F
100
AcDbEntity
  8
1-4
  6
Continuous
 62
     7
370
     9
100
AcDbLine
 10
712.8560659047719
 20
392.1269927153716
 30
0.0
 11
957.1011929898651
 21
392.1269927153716
 31
0.0
  0
CIRCLE
  5
3E9
330
1F
100
AcDbEntity
  8
1-2
  6
Continuous
 62
     3
370
     9
100
AcDbCircle
 10
-100.1505258921028
 20
610.9805875211148
 30
0.0
 40
5.999999594044041
  0
CIRCLE
  5
3EA
330
1F
100
AcDbEntity
  8
1-2
  6
Continuous
 62
     3
370
     9
100
AcDbCircle
 10
-100.1505258921028
 20
410.9806700010557
 30
0.0
 40
5.999999594044041
  0
CIRCLE
  5
3EB
330
1F
100
AcDbEntity
  8
1-2
  6
Continuous
 62
     3
370
     9
100
AcDbCircle
 10
-100.1505258921028
 20
210.9807524809966
 30
0.0
 40
5.999999594044041
  0
CIRCLE
  5
3EC
330
1F
100
AcDbEntity
  8
1-2
  6
Continuous
 62
     3
370
     9
100
AcDbCircle
 10
-100.1505258921028
 20
10.9808349609375
 30
0.0
 40
5.999999594044041
  0
CIRCLE
  5
3ED
330
1F
100
AcDbEntity
  8
1-2
  6
Continuous
 62
     3
370
     9
100
AcDbCircle
 10
-100.1505258921028
 20
-189.0192062790328
 30
0.0
 40
5.999999594044041
  0
ARC
  5
3EE
330
1F
100
AcDbEntity
  8
1-1
  6
Continuous
 62
     2
370
     9
100
AcDbCircle
 10
16.64997822529585
 20
649.7818735483531
 30
0.0
 40
12.79999919839808
100
AcDbArc
 50
180.0
 51
270.0
  0
ARC
  5
3EF
330
1F
100
AcDbEntity
  8
1-1
  6
Continuous
 62
     2
370
     9
100
AcDbCircle
 10
131.0495737436656
 20
649.7818735483531
 30
0.0
 40
12.79999919839808
100
AcDbArc
 50
270.0
 51
0.0
  0
ARC
  5
3F0
330
1F
100
AcDbEntity
  8
1-1
  6
Continuous
 62
     2
370
     9
100
AcDbCircle
 10
131.0495737436656
 20
649.7818735483531
 30
0.0
 40
6.399999599199038
100
AcDbArc
 50
270.0
 51
0.0
  0
ARC
  5
3F1
330
1F
100
AcDbEntity
  8
1-1
  6
Continuous
 62
     2
370
     9
100
AcDbCircle
 10
16.64997822529585
 20
704.1820134343328
 30
0.0
 40
12.79999919839808
100
AcDbArc
 50
90.0
 51
180.0
  0
ARC
  5
3F2
330
1F
100
AcDbEntity
  8
1-1
  6
Continuous
 62
     2
370
     9
100
AcDbCircle
 10
16.6497307854732
 20
704.1815185546875
 30
0.0
 40
6.399999599199038
100
AcDbArc
 50
90.0
 51
180.0
  0
ARC
  5
3F3
330
1F
100
AcDbEntity
  8
1-1
  6
Continuous
 62
     2
370
     9
100
AcDbCircle
 10
131.0495737436656
 20
704.1815185546875
 30
0.0
 40
6.399999599199038
100
AcDbArc
 50
0.0
 51
90.0
  0
ARC
  5
3F4
330
1F
100
AcDbEntity
  8
1-1
  6
Continuous
 62
     2
370
     9
100
AcDbCircle
 10
131.0495737436656
 20
704.1820134343328
 30
0.0
 40
12.79999919839808
100
AcDbArc
 50
0.0
 51
90.0
  0
ARC
  5
3F5
330
1F
100
AcDbEntity
  8
1-1
  6
Continuous
 62
     2
370
     9
100
AcDbCircle
 10
16.64997822529585
 20
649.7818735483531
 30
0.0
 40
6.399999599199038
100
AcDbArc
 50
180.0
 51
270.0
  0
ARC
  5
3F6
330
1F
100
AcDbEntity
  8
1-1
  6
Continuous
 62
     2
370
     9
100
AcDbCircle
 10
16.64997822529585
 20
-427.8191726272171
 30
0.0
 40
12.79999919839808
100
AcDbArc
 50
90.0
 51
180.0
  0
ARC
  5
3F7
330
1F
100
AcDbEntity
  8
1-1
  6
Continuous
 62
     2
370
     9
100
AcDbCircle
 10
131.0495737436656
 20
-427.8191726272171
 30
0.0
 40
12.79999919839808
100
AcDbArc
 50
0.0
 51
90.0
  0
ARC
  5
3F8
330
1F
100
AcDbEntity
  8
1-1
  6
Continuous
 62
     2
370
     9
100
AcDbCircle
 10
131.0495737436656
 20
-427.8191726272171
 30
0.0
 40
6.399999599199038
100
AcDbArc
 50
0.0
 51
90.0
  0
ARC
  5
3F9
330
1F
100
AcDbEntity
  8
1-1
  6
Continuous
 62
     2
370
     9
100
AcDbCircle
 10
16.64997822529585
 20
-482.2193125131968
 30
0.0
 40
12.79999919839808
100
AcDbArc
 50
180.0
 51
270.0
  0
ARC
  5
3FA
330
1F
100
AcDbEntity
  8
1-1
  6
Continuous
 62
     2
370
     9
100
AcDbCircle
 10
16.6497307854732
 20
-482.2188176335515
 30
0.0
 40
6.399999599199038
100
AcDbArc
 50
180.0
 51
270.0
  0
ARC
  5
3FB
330
1F
100
AcDbEntity
  8
1-1
  6
Continuous
 62
     2
370
     9
100
AcDbCircle
 10
131.0495737436656
 20
-482.2188176335515
 30
0.0
 40
6.399999599199038
100
AcDbArc
 50
270.0
 51
0.0
  0
ARC
  5
3FC
330
1F
100
AcDbEntity
  8
1-1
  6
Continuous
 62
     2
370
     9
100
AcDbCircle
 10
131.0495737436656
 20
-482.2193125131968
 30
0.0
 40
12.79999919839808
100
AcDbArc
 50
270.0
 51
0.0
  0
ARC
  5
3FD
330
1F
100
AcDbEntity
  8
1-1
  6
Continuous
 62
     2
370
     9
100
AcDbCircle
 10
16.64997822529585
 20
-427.8191726272171
 30
0.0
 40
6.399999599199038
100
AcDbArc
 50
90.0
 51
180.0
  0
CIRCLE
  5
3FE
330
1F
100
AcDbEntity
  8
1-2
  6
Continuous
 62
     3
370
     9
100
AcDbCircle
 10
-100.1505258921028
 20
-389.0192475190034
 30
0.0
 40
5.999999594044041
  0
TEXT
  5
3FF
330
1F
100
AcDbEntity
  8
1-4
  6
Continuous
 62
     2
370
     9
100
AcDbText
 10
-897.0075782569678
 20
782.9570594911318
 30
0.0
 40
30.48
  1
15
 41
1.0625
  7
ＭＳ ゴシック
100
AcDbText
  0
TEXT
  5
400
330
1F
100
AcDbEntity
  8
1-4
  6
Continuous
 62
     7
370
     9
100
AcDbText
 10
-1161.318738782728
 20
951.7816984269427
 30
0.0
 40
22.86
  1
クロスバー φ６ ＠100
 41
1.158730158730159
  7
ＭＳ ゴシック
100
AcDbText
  0
TEXT
  5
401
330
1F
100
AcDbEntity
  8
1-4
  6
Continuous
 62
     2
370
     9
100
AcDbText
 10
574.5272744668498
 20
-501.3867630912162
 30
0.0
 40
30.48
  1
仕　様
 41
1.083333333333333
  7
ＭＳ ゴシック
100
AcDbText
  0
TEXT
  5
402
330
1F
100
AcDbEntity
  8
1-4
  6
Continuous
 62
     2
370
     9
100
AcDbText
 10
688.8289085594386
 20
-729.3063055584881
 30
0.0
 40
30.48
  1
処理：溶融亜鉛めっき
 41
1.1125
  7
ＭＳ ゴシック
100
AcDbText
  0
TEXT
  5
403
330
1F
100
AcDbEntity
  8
1-4
  6
Continuous
 62
     2
370
     9
100
AcDbText
 10
629.1165326092696
 20
-564.3072458298142
 30
0.0
 40
30.48
  1
ノンスリップタイプ
 41
1.111111111111111
  7
ＭＳ ゴシック
100
AcDbText
  0
TEXT
  5
404
330
1F
100
AcDbEntity
  8
1-4
  6
Continuous
 62
     2
370
     9
100
AcDbText
 10
688.8289827913854
 20
-674.3051343433276
 30
0.0
 40
30.48
  1
材質：ＳＳ４００＋ＳＴＫＲ４００
 41
1.1171875
  7
ＭＳ ゴシック
100
AcDbText
  0
TEXT
  5
405
330
1F
100
AcDbEntity
  8
1-4
  6
Continuous
 62
     2
370
     9
100
AcDbText
 10
-1203.472927196606
 20
-614.9824266258446
 30
0.0
 40
30.48
  1
498
 41
1.083333333333333
  7
ＭＳ ゴシック
100
AcDbText
  0
TEXT
  5
406
330
1F
100
AcDbEntity
  8
1-4
  6
Continuous
 62
     2
370
     9
100
AcDbText
 10
237.2790970755914
 20
-537.6131686648806
 30
0.0
 40
30.48
  1
7
 50
90.0
 41
0.9999999999999998
  7
ＭＳ ゴシック
100
AcDbText
  0
TEXT
  5
407
330
1F
100
AcDbEntity
  8
1-4
  6
Continuous
 62
     2
370
     9
100
AcDbText
 10
237.2790970755914
 20
-476.2692425702068
 30
0.0
 40
30.48
  1
40
 50
90.0
 41
1.0625
  7
ＭＳ ゴシック
100
AcDbText
  0
TEXT
  5
408
330
1F
100
AcDbEntity
  8
1-4
  6
Continuous
 62
     2
370
     9
100
AcDbText
 10
237.2790970755914
 20
655.7318197714317
 30
0.0
 40
30.48
  1
40
 50
90.0
 41
1.0625
  7
ＭＳ ゴシック
100
AcDbText
  0
TEXT
  5
409
330
1F
100
AcDbEntity
  8
1-4
  6
Continuous
 62
     2
370
     9
100
AcDbText
 10
237.2790970755914
 20
737.287020296664
 30
0.0
 40
30.48
  1
7
 50
90.0
 41
0.9999999999999998
  7
ＭＳ ゴシック
100
AcDbText
  0
TEXT
  5
40A
330
1F
100
AcDbEntity
  8
1-4
  6
Continuous
 62
     7
370
     9
100
AcDbText
 10
331.8064344251479
 20
928.2694716005068
 30
0.0
 40
22.86
  1
（Ｌ＝４８８）
 41
1.142857142857143
  7
ＭＳ ゴシック
100
AcDbText
  0
TEXT
  5
40B
330
1F
100
AcDbEntity
  8
1-5
  6
Continuous
 62
     7
370
     9
100
AcDbText
 10
-837.0601221033044
 20
-1323.890801771009
 30
0.0
 40
22.86
  1
ノンスリップタイプスチール製グレーチング
 41
1.158333333333333
  7
ＭＳ ゴシック
100
AcDbText
  0
TEXT
  5
40C
330
1F
100
AcDbEntity
  8
1-4
  6
Continuous
 62
     2
370
     9
100
AcDbText
 10
-230.5588397381755
 20
78.48141232052384
 30
0.0
 40
30.48
  1
620
 50
90.0
 41
1.083333333333333
  7
ＭＳ ゴシック
100
AcDbText
  0
TEXT
  5
40D
330
1F
100
AcDbEntity
  8
1-4
  6
Continuous
 62
     2
370
     9
100
AcDbText
 10
237.2790970755914
 20
78.48128860061237
 30
0.0
 40
30.48
  1
526
 50
90.0
 41
1.083333333333333
  7
ＭＳ ゴシック
100
AcDbText
  0
TEXT
  5
40E
330
1F
100
AcDbEntity
  8
1-0
  6
Continuous
 62
     2
370
     9
100
AcDbText
 10
673.1134573297757
 20
247.871521493653
 30
0.0
 40
30.48
  1
5
 50
282.0790131326855
 41
1.0
  7
ＭＳ ゴシック
100
AcDbText
  0
TEXT
  5
40F
330
1F
100
AcDbEntity
  8
1-0
  6
Continuous
 62
     2
370
     9
100
AcDbText
 10
495.9380887088261
 20
242.3150181125952
 30
0.0
 40
30.48
  1
8
 50
90.0
 41
0.9999999999999998
  7
ＭＳ ゴシック
100
AcDbText
  0
TEXT
  5
410
330
1F
100
AcDbEntity
  8
1-0
  6
Continuous
 62
     2
370
     9
100
AcDbText
 10
495.9380887088261
 20
33.2098099992082
 30
0.0
 40
30.48
  1
5
 50
90.0
 41
0.9999999999999998
  7
ＭＳ ゴシック
100
AcDbText
  0
TEXT
  5
411
330
1F
100
AcDbEntity
  8
1-0
  6
Continuous
 62
     2
370
     9
100
AcDbText
 10
585.7361169763512
 20
386.2521331292232
 30
0.0
 40
30.48
  1
7
 41
0.9999999999999998
  7
ＭＳ ゴシック
100
AcDbText
  0
TEXT
  5
412
330
1F
100
AcDbEntity
  8
1-0
  6
Continuous
 62
     2
370
     9
100
AcDbText
 10
1376.030949773015
 20
395.274531381968
 30
0.0
 40
30.48
  1
7
 41
0.9999999999999998
  7
ＭＳ ゴシック
100
AcDbText
  0
TEXT
  5
413
330
1F
100
AcDbEntity
  8
1-0
  6
Continuous
 62
     2
370
     9
100
AcDbText
 10
1417.46202623522
 20
154.815728462838
 30
0.0
 40
30.48
  1
4
 41
0.9999999999999998
  7
ＭＳ ゴシック
100
AcDbText
  0
TEXT
  5
414
330
1F
100
AcDbEntity
  8
1-0
  6
Continuous
 62
     2
370
     9
100
AcDbText
 10
1546.404848767097
 20
130.303791109456
 30
0.0
 40
30.48
  1
55
 50
90.6251468279915
 41
1.0625
  7
ＭＳ ゴシック
100
AcDbText
  0
TEXT
  5
415
330
1F
100
AcDbEntity
  8
1-0
  6
Continuous
 62
     2
370
     9
100
AcDbText
 10
521.8965767525342
 20
-168.5260123258024
 30
0.0
 40
30.48
  1
ＤＩ－５５　バー形状詳細　Ｓ＝１：２
 41
1.118055555555555
  7
ＭＳ ゴシック
100
AcDbText
  0
TEXT
  5
416
330
1F
100
AcDbEntity
  8
1-0
  6
Continuous
 62
     7
370
     9
100
AcDbText
 10
553.6134709538641
 20
-274.4456855732685
 30
0.0
 40
22.86
  1
※デルタパターンの配列は一定ではありません。
 41
1.159090909090909
  7
ＭＳ ゴシック
100
AcDbText
  0
TEXT
  5
417
330
1F
100
AcDbEntity
  8
1-4
  6
Continuous
 62
     7
370
     9
100
AcDbText
 10
715.549473118138
 20
404.337421875
 30
0.0
 40
22.86
  1
デルタパターン
 41
1.142857142857143
  7
ＭＳ ゴシック
100
AcDbText
  0
TEXT
  5
418
330
1F
100
AcDbEntity
  8
1-4
  6
Continuous
 62
     2
370
     9
100
AcDbText
 10
52.59977598448074
 20
-614.9824884858002
 30
0.0
 40
30.48
  1
70
 41
1.0625
  7
ＭＳ ゴシック
100
AcDbText
  0
TEXT
  5
419
330
1F
100
AcDbEntity
  8
1-4
  6
Continuous
 62
     2
370
     9
100
AcDbText
 10
-13.65028175147799
 20
-704.1716776749895
 30
0.0
 40
30.48
  1
125
 41
1.083333333333333
  7
ＭＳ ゴシック
100
AcDbText
  0
TEXT
  5
41A
330
1F
100
AcDbEntity
  8
1-4
  6
Continuous
 62
     2
370
     9
100
AcDbText
 10
-72.40001781566704
 20
-614.9824884858002
 30
0.0
 40
30.48
  1
55
 41
1.0625
  7
ＭＳ ゴシック
100
AcDbText
  0
TEXT
  5
41B
330
1F
100
AcDbEntity
  8
1-4
  6
Continuous
 62
     7
370
     9
100
AcDbText
 10
197.3337121911953
 20
975.6190611803211
 30
0.0
 40
22.86
  1
かさ上げ材　□７０×４０×３.２
 41
1.155913978494624
  7
ＭＳ ゴシック
100
AcDbText
  0
TEXT
  5
41C
330
1F
100
AcDbEntity
  8
1-4
  6
Continuous
 62
     7
370
     9
100
AcDbText
 10
-1219.628452610325
 20
1036.603574746622
 30
0.0
 40
22.86
  1
エンドプレート ＦＢ５０×４．５
 41
1.155913978494624
  7
ＭＳ ゴシック
100
AcDbText
  0
TEXT
  5
41D
330
1F
100
AcDbEntity
  8
1-4
  6
Continuous
 62
     7
370
     9
100
AcDbText
 10
-1130.0919362661
 20
885.2419134026607
 30
0.0
 40
22.86
  1
メインバー ＤⅠ－５５ ＠15
 41
1.16025641025641
  7
ＭＳ ゴシック
100
AcDbText
  0
TEXT
  5
41E
330
1F
100
AcDbEntity
  8
1-4
  6
Continuous
 62
     2
370
     9
100
AcDbText
 10
629.1163099134292
 20
-619.308169605152
 30
0.0
 40
30.48
  1
圧接式細目グレーチング　ＱＸＪ　６２５５Ａ
 41
1.119047619047619
  7
ＭＳ ゴシック
100
AcDbText
  0
TEXT
  5
41F
330
1F
100
AcDbEntity
  8
1-5
  6
Continuous
 62
     7
370
     9
100
AcDbText
 10
-367.1341107342693
 20
-1363.038256110114
 30
0.0
 40
22.86
  1
圧接式細目ＪＩＳ型側溝用　ＱＸＪ　６２５５Ａ
 41
1.159090909090909
  7
ＭＳ ゴシック
100
AcDbText
  0
TEXT
  5
420
330
1F
100
AcDbEntity
  8
1-4
  6
Continuous
 62
     2
370
     9
100
AcDbText
 10
688.8289827913854
 20
-784.3074767736485
 30
0.0
 40
30.48
  1
定尺：４９８
 41
1.104166666666667
  7
ＭＳ ゴシック
100
AcDbText
  0
LWPOLYLINE
  5
421
330
1F
100
AcDbEntity
  8
1-4
  6
Continuous
 62
     7
370
     9
100
AcDbPolyline
 90
        4
 70
     1
 43
1.0
 10
-886.6528006888724
 20
765.3174652924408
 42
0.4142135623731
 10
-887.1528006888724
 20
765.8174652924408
 42
0.4142135623731
 10
-887.6528006888724
 20
765.3174652924408
 42
0.4142135623731
 10
-887.1528006888724
 20
764.8174652924409
 42
0.4142135623731
  0
LWPOLYLINE
  5
422
330
1F
100
AcDbEntity
  8
1-4
  6
Continuous
 62
     7
370
     9
100
AcDbPolyline
 90
        4
 70
     1
 43
1.0
 10
-856.8949452993031
 20
765.3174652924408
 42
0.4142135623731
 10
-857.3949452993031
 20
765.8174652924408
 42
0.4142135623731
 10
-857.8949452993031
 20
765.3174652924408
 42
0.4142135623731
 10
-857.3949452993031
 20
764.8174652924409
 42
0.4142135623731
  0
LWPOLYLINE
  5
423
330
1F
100
AcDbEntity
  8
1-4
  6
Continuous
 62
     7
370
     9
100
AcDbPolyline
 90
        4
 70
     1
 43
1.0
 10
-1668.472943280194
 20
-626.6224711650126
 42
0.4142135623731
 10
-1668.972943280194
 20
-626.1224711650127
 42
0.4142135623731
 10
-1669.472943280194
 20
-626.6224711650126
 42
0.4142135623731
 10
-1668.972943280194
 20
-627.1224711650126
 42
0.4142135623731
  0
LWPOLYLINE
  5
424
330
1F
100
AcDbEntity
  8
1-4
  6
Continuous
 62
     7
370
     9
100
AcDbPolyline
 90
        4
 70
     1
 43
1.0
 10
-672.4729729729729
 20
-626.6224711650126
 42
0.4142135623731
 10
-672.9729729729729
 20
-626.1224711650127
 42
0.4142135623731
 10
-673.4729729729729
 20
-626.6224711650126
 42
0.4142135623731
 10
-672.9729729729729
 20
-627.1224711650126
 42
0.4142135623731
  0
LWPOLYLINE
  5
425
330
1F
100
AcDbEntity
  8
1-4
  6
Continuous
 62
     7
370
     9
100
AcDbPolyline
 90
        4
 70
     1
 43
1.0
 10
-105.6499518317143
 20
-626.6224711650126
 42
0.4142135623731
 10
-106.1499518317143
 20
-626.1224711650127
 42
0.4142135623731
 10
-106.6499518317143
 20
-626.6224711650126
 42
0.4142135623731
 10
-106.1499518317143
 20
-627.1224711650126
 42
0.4142135623731
  0
LWPOLYLINE
  5
426
330
1F
100
AcDbEntity
  8
1-4
  6
Continuous
 62
     7
370
     9
100
AcDbPolyline
 90
        4
 70
     1
 43
1.0
 10
4.349916200380221
 20
-626.6224711650126
 42
0.4142135623731
 10
3.849916200380221
 20
-626.1224711650127
 42
0.4142135623731
 10
3.349916200380221
 20
-626.6224711650126
 42
0.4142135623731
 10
3.849916200380221
 20
-627.1224711650126
 42
0.4142135623731
  0
LWPOLYLINE
  5
427
330
1F
100
AcDbEntity
  8
1-4
  6
Continuous
 62
     7
370
     9
100
AcDbPolyline
 90
        4
 70
     1
 43
1.0
 10
144.3496357685813
 20
-626.6224711650126
 42
0.4142135623731
 10
143.8496357685813
 20
-626.1224711650127
 42
0.4142135623731
 10
143.3496357685813
 20
-626.6224711650126
 42
0.4142135623731
 10
143.8496357685813
 20
-627.1224711650126
 42
0.4142135623731
  0
LWPOLYLINE
  5
428
330
1F
100
AcDbEntity
  8
1-4
  6
Continuous
 62
     7
370
     9
100
AcDbPolyline
 90
        4
 70
     1
 43
1.0
 10
-105.6499518317143
 20
-715.8116603542019
 42
0.4142135623731
 10
-106.1499518317143
 20
-715.3116603542019
 42
0.4142135623731
 10
-106.6499518317143
 20
-715.8116603542019
 42
0.4142135623731
 10
-106.1499518317143
 20
-716.3116603542018
 42
0.4142135623731
  0
LWPOLYLINE
  5
429
330
1F
100
AcDbEntity
  8
1-4
  6
Continuous
 62
     7
370
     9
100
AcDbPolyline
 90
        4
 70
     1
 43
1.0
 10
144.3496357685813
 20
-715.8116603542019
 42
0.4142135623731
 10
143.8496357685813
 20
-715.3116603542019
 42
0.4142135623731
 10
143.3496357685813
 20
-715.8116603542019
 42
0.4142135623731
 10
143.8496357685813
 20
-716.3116603542018
 42
0.4142135623731
  0
LWPOLYLINE
  5
42A
330
1F
100
AcDbEntity
  8
1-4
  6
Continuous
 62
     7
370
     9
100
AcDbPolyline
 90
        4
 70
     1
 43
1.0
 10
-218.4189189189187
 20
-509.0189011032517
 42
0.4142135623731
 10
-218.9189189189187
 20
-508.5189011032517
 42
0.4142135623731
 10
-219.4189189189187
 20
-509.0189011032517
 42
0.4142135623731
 10
-218.9189189189187
 20
-509.5189011032517
 42
0.4142135623731
  0
LWPOLYLINE
  5
42B
330
1F
100
AcDbEntity
  8
1-4
  6
Continuous
 62
     7
370
     9
100
AcDbPolyline
 90
        4
 70
     1
 43
1.0
 10
-218.4189189189187
 20
730.9817257442992
 42
0.4142135623731
 10
-218.9189189189187
 20
731.4817257442992
 42
0.4142135623731
 10
-219.4189189189187
 20
730.9817257442992
 42
0.4142135623731
 10
-218.9189189189187
 20
730.4817257442993
 42
0.4142135623731
  0
LWPOLYLINE
  5
42C
330
1F
100
AcDbEntity
  8
1-4
  6
Continuous
 62
     7
370
     9
100
AcDbPolyline
 90
        4
 70
     1
 43
1.0
 10
249.4190178948482
 20
-509.0189011032517
 42
0.4142135623731
 10
248.9190178948482
 20
-508.5189011032517
 42
0.4142135623731
 10
248.4190178948482
 20
-509.0189011032517
 42
0.4142135623731
 10
248.9190178948482
 20
-509.5189011032517
 42
0.4142135623731
  0
LWPOLYLINE
  5
42D
330
1F
100
AcDbEntity
  8
1-4
  6
Continuous
 62
     7
370
     9
100
AcDbPolyline
 90
        4
 70
     1
 43
1.0
 10
249.4190178948482
 20
-495.0192508182009
 42
0.4142135623731
 10
248.9190178948482
 20
-494.5192508182009
 42
0.4142135623731
 10
248.4190178948482
 20
-495.0192508182009
 42
0.4142135623731
 10
248.9190178948482
 20
-495.5192508182009
 42
0.4142135623731
  0
LWPOLYLINE
  5
42E
330
1F
100
AcDbEntity
  8
1-4
  6
Continuous
 62
     7
370
     9
100
AcDbPolyline
 90
        4
 70
     1
 43
1.0
 10
249.4190178948482
 20
-415.0192343222128
 42
0.4142135623731
 10
248.9190178948482
 20
-414.5192343222128
 42
0.4142135623731
 10
248.4190178948482
 20
-415.0192343222128
 42
0.4142135623731
 10
248.9190178948482
 20
-415.5192343222127
 42
0.4142135623731
  0
LWPOLYLINE
  5
42F
330
1F
100
AcDbEntity
  8
1-4
  6
Continuous
 62
     7
370
     9
100
AcDbPolyline
 90
        4
 70
     1
 43
1.0
 10
249.4190178948482
 20
636.9818115234375
 42
0.4142135623731
 10
248.9190178948482
 20
637.4818115234375
 42
0.4142135623731
 10
248.4190178948482
 20
636.9818115234375
 42
0.4142135623731
 10
248.9190178948482
 20
636.4818115234375
 42
0.4142135623731
  0
LWPOLYLINE
  5
430
330
1F
100
AcDbEntity
  8
1-4
  6
Continuous
 62
     7
370
     9
100
AcDbPolyline
 90
        4
 70
     1
 43
1.0
 10
249.4190178948482
 20
716.9818280194258
 42
0.4142135623731
 10
248.9190178948482
 20
717.4818280194257
 42
0.4142135623731
 10
248.4190178948482
 20
716.9818280194258
 42
0.4142135623731
 10
248.9190178948482
 20
716.4818280194258
 42
0.4142135623731
  0
LWPOLYLINE
  5
431
330
1F
100
AcDbEntity
  8
1-4
  6
Continuous
 62
     7
370
     9
100
AcDbPolyline
 90
        4
 70
     1
 43
1.0
 10
249.4190178948482
 20
730.9817257442992
 42
0.4142135623731
 10
248.9190178948482
 20
731.4817257442992
 42
0.4142135623731
 10
248.4190178948482
 20
730.9817257442992
 42
0.4142135623731
 10
248.9190178948482
 20
730.4817257442993
 42
0.4142135623731
  0
ENDSEC
  0
SECTION
  2
OBJECTS
  0
DICTIONARY
  5
C
330
0
100
AcDbDictionary
281
     1
  3
ACAD_GROUP
350
D
  3
ACAD_LAYOUT
350
1A
  3
ACAD_MLEADERSTYLE
350
433
  3
ACAD_MLINESTYLE
350
17
  3
ACAD_PLOTSETTINGS
350
19
  3
ACAD_PLOTSTYLENAME
350
E
  3
ACAD_TABLESTYLE
350
432
  3
ACAD_VISUALSTYLE
350
2A
  0
DICTIONARY
  5
D
102
{ACAD_REACTORS
330
C
102
}
330
C
100
AcDbDictionary
281
     1
  0
DICTIONARY
  5
1A
102
{ACAD_REACTORS
330
C
102
}
330
C
100
AcDbDictionary
281
     1
  3
Layout1
350
1E
  3
Layout2
350
26
  3
Model
350
22
  0
DICTIONARY
  5
433
102
{ACAD_REACTORS
330
C
102
}
330
C
100
AcDbDictionary
281
     1
  0
DICTIONARY
  5
17
102
{ACAD_REACTORS
330
C
102
}
330
C
100
AcDbDictionary
281
     1
  3
Standard
350
18
  0
DICTIONARY
  5
19
102
{ACAD_REACTORS
330
C
102
}
330
C
100
AcDbDictionary
281
     1
  0
ACDBDICTIONARYWDFLT
  5
E
102
{ACAD_REACTORS
330
C
102
}
330
C
100
AcDbDictionary
281
     1
  3
Normal
350
F
100
AcDbDictionaryWithDefault
340
F
  0
DICTIONARY
  5
432
102
{ACAD_REACTORS
330
C
102
}
330
C
100
AcDbDictionary
281
     1
  0
DICTIONARY
  5
2A
102
{ACAD_REACTORS
330
C
102
}
330
C
100
AcDbDictionary
281
     1
  3
2dWireframe
350
2F
  3
3D Hidden
350
31
  3
3dWireframe
350
30
  3
Basic
350
32
  3
Brighten
350
36
  3
ColorChange
350
3A
  3
Conceptual
350
34
  3
Dim
350
35
  3
Facepattern
350
39
  3
Flat
350
2B
  3
FlatWithEdges
350
2C
  3
Gouraud
350
2D
  3
GouraudWithEdges
350
2E
  3
Linepattern
350
38
  3
Realistic
350
33
  3
Thicken
350
37
  0
LAYOUT
  5
1E
102
{ACAD_REACTORS
330
1A
102
}
330
1A
100
AcDbPlotSettings
  1

  2
none_device
  4

  6

 40
0.0
 41
0.0
 42
0.0
 43
0.0
 44
0.0
 45
0.0
 46
0.0
 47
0.0
 48
0.0
 49
0.0
140
0.0
141
0.0
142
1.0
143
1.0
 70
   688
 72
     0
 73
     0
 74
     5
  7

 75
    16
 76
     0
 77
     5
 78
   300
147
1.0
148
0.0
149
0.0
100
AcDbLayout
  1
Layout1
 70
     1
 71
     1
 10
0.0
 20
0.0
 11
420.0
 21
297.0
 12
0.0
 22
0.0
 32
0.0
 14
1.000000000000000E+20
 24
1.000000000000000E+20
 34
1.000000000000000E+20
 15
-1.000000000000000E+20
 25
-1.000000000000000E+20
 35
-1.000000000000000E+20
146
0.0
 13
0.0
 23
0.0
 33
0.0
 16
1.0
 26
0.0
 36
0.0
 17
0.0
 27
1.0
 37
0.0
 76
     0
330
1B
  0
LAYOUT
  5
26
102
{ACAD_REACTORS
330
1A
102
}
330
1A
100
AcDbPlotSettings
  1

  2
none_device
  4

  6

 40
0.0
 41
0.0
 42
0.0
 43
0.0
 44
0.0
 45
0.0
 46
0.0
 47
0.0
 48
0.0
 49
0.0
140
0.0
141
0.0
142
1.0
143
1.0
 70
   688
 72
     0
 73
     0
 74
     5
  7

 75
    16
 76
     0
 77
     5
 78
   300
147
1.0
148
0.0
149
0.0
100
AcDbLayout
  1
Layout2
 70
     1
 71
     2
 10
0.0
 20
0.0
 11
0.0
 21
0.0
 12
0.0
 22
0.0
 32
0.0
 14
0.0
 24
0.0
 34
0.0
 15
0.0
 25
0.0
 35
0.0
146
0.0
 13
0.0
 23
0.0
 33
0.0
 16
1.0
 26
0.0
 36
0.0
 17
0.0
 27
1.0
 37
0.0
 76
     0
330
23
  0
LAYOUT
  5
22
102
{ACAD_REACTORS
330
1A
102
}
330
1A
100
AcDbPlotSettings
  1

  2
none_device
  4

  6

 40
0.0
 41
0.0
 42
0.0
 43
0.0
 44
0.0
 45
0.0
 46
0.0
 47
0.0
 48
0.0
 49
0.0
140
0.0
141
0.0
142
1.0
143
1.0
 70
  1712
 72
     0
 73
     0
 74
     0
  7

 75
     0
 76
     0
 77
     5
 78
   300
147
1.0
148
0.0
149
0.0
100
AcDbLayout
  1
Model
 70
     1
 71
     0
 10
-2100.0
 20
-1485.0
 11
2100.0
 21
1485.0
 12
0.0
 22
0.0
 32
0.0
 14
-2100.0
 24
-1485.0
 34
0.0
 15
2100.0
 25
1485.0
 35
0.0
146
0.0
 13
0.0
 23
0.0
 33
0.0
 16
1.0
 26
0.0
 36
0.0
 17
0.0
 27
1.0
 37
0.0
 76
     0
330
1F
331
29
  0
MLINESTYLE
  5
18
102
{ACAD_REACTORS
330
17
102
}
330
17
100
AcDbMlineStyle
  2
Standard
 70
     0
  3

 62
   256
 51
90.0
 52
90.0
 71
     2
 49
0.5
 62
   256
  6
BYLAYER
 49
-0.5
 62
   256
  6
BYLAYER
  0
ACDBPLACEHOLDER
  5
F
102
{ACAD_REACTORS
330
E
102
}
330
E
  0
VISUALSTYLE
  5
2F
102
{ACAD_REACTORS
330
2A
102
}
330
2A
100
AcDbVisualStyle
  2
2dWireframe
 70
     4
 71
     0
 72
     2
 73
     0
 90
        0
 40
-0.6
 41
-30.0
 62
     5
 63
     7
421
 16777215
 74
     1
 91
        4
 64
     7
 65
   257
 75
     1
175
     1
 42
1.0
 92
        0
 66
   257
 43
1.0
 76
     1
 77
     6
 78
     2
 67
     7
 79
     5
170
     0
171
     0
290
     0
174
     0
 93
        1
 44
0.0
173
     0
291
     0
 45
0.0
1001
ACAD
1000
AcDbSavedByObjectVersion
1070
     0
  0
VISUALSTYLE
  5
31
102
{ACAD_REACTORS
330
2A
102
}
330
2A
100
AcDbVisualStyle
  2
3D Hidden
 70
     6
 71
     1
 72
     2
 73
     2
 90
        0
 40
-0.6
 41
-30.0
 62
     5
 63
     7
421
 16777215
 74
     2
 91
        2
 64
     7
 65
   257
 75
     2
175
     1
 42
40.0
 92
        0
 66
   257
 43
1.0
 76
     1
 77
     6
 78
     2
 67
     7
 79
     3
170
     0
171
     0
290
     0
174
     0
 93
        1
 44
0.0
173
     0
291
     0
 45
0.0
1001
ACAD
1000
AcDbSavedByObjectVersion
1070
     0
  0
VISUALSTYLE
  5
30
102
{ACAD_REACTORS
330
2A
102
}
330
2A
100
AcDbVisualStyle
  2
3dWireframe
 70
     5
 71
     0
 72
     2
 73
     0
 90
        0
 40
-0.6
 41
-30.0
 62
     5
 63
     7
421
 16777215
 74
     1
 91
        4
 64
     7
 65
   257
 75
     1
175
     1
 42
1.0
 92
        0
 66
   257
 43
1.0
 76
     1
 77
     6
 78
     2
 67
     7
 79
     5
170
     0
171
     0
290
     0
174
     0
 93
        1
 44
0.0
173
     0
291
     0
 45
0.0
1001
ACAD
1000
AcDbSavedByObjectVersion
1070
     0
  0
VISUALSTYLE
  5
32
102
{ACAD_REACTORS
330
2A
102
}
330
2A
100
AcDbVisualStyle
  2
Basic
 70
     7
 71
     1
 72
     0
 73
     1
 90
        0
 40
-0.6
 41
-30.0
 62
     5
 63
     7
421
 16777215
 74
     0
 91
        4
 64
     7
 65
   257
 75
     1
175
     1
 42
1.0
 92
        8
 66
     7
 43
1.0
 76
     1
 77
     6
 78
     2
 67
     7
 79
     5
170
     0
171
     0
290
     0
174
     0
 93
        1
 44
0.0
173
     0
291
     1
 45
0.0
1001
ACAD
1000
AcDbSavedByObjectVersion
1070
     0
  0
VISUALSTYLE
  5
36
102
{ACAD_REACTORS
330
2A
102
}
330
2A
100
AcDbVisualStyle
  2
Brighten
 70
    12
 71
     2
 72
     2
 73
     0
 90
        0
 40
-0.6
 41
-30.0
 62
     5
 63
     7
421
 16777215
 74
     1
 91
        4
 64
     7
 65
   257
 75
     1
175
     1
 42
1.0
 92
        8
 66
     7
 43
1.0
 76
     1
 77
     6
 78
     2
 67
     7
 79
     5
170
     0
171
     0
290
     0
174
     0
 93
        1
 44
50.0
173
     0
291
     1
 45
0.0
1001
ACAD
1000
AcDbSavedByObjectVersion
1070
     0
  0
VISUALSTYLE
  5
3A
102
{ACAD_REACTORS
330
2A
102
}
330
2A
100
AcDbVisualStyle
  2
ColorChange
 70
    16
 71
     2
 72
     2
 73
     3
 90
        0
 40
-0.6
 41
-30.0
 62
     5
 63
     8
421
  8421504
 74
     1
 91
        4
 64
     7
 65
   257
 75
     1
175
     1
 42
1.0
 92
        8
 66
     8
424
  8421504
 43
1.0
 76
     1
 77
     6
 78
     2
 67
     7
 79
     5
170
     0
171
     0
290
     0
174
     0
 93
        1
 44
0.0
173
     0
291
     1
 45
0.0
1001
ACAD
1000
AcDbSavedByObjectVersion
1070
     0
  0
VISUALSTYLE
  5
34
102
{ACAD_REACTORS
330
2A
102
}
330
2A
100
AcDbVisualStyle
  2
Conceptual
 70
     9
 71
     3
 72
     2
 73
     0
 90
        0
 40
-0.6
 41
-30.0
 62
     5
 63
     7
421
 16777215
 74
     2
 91
        2
 64
     7
 65
   257
 75
     1
175
     1
 42
40.0
 92
        8
 66
     7
 43
1.0
 76
     1
 77
     6
 78
     2
 67
     7
 79
     3
170
     0
171
     0
290
     0
174
     0
 93
        1
 44
0.0
173
     0
291
     0
 45
0.0
1001
ACAD
1000
AcDbSavedByObjectVersion
1070
     0
  0
VISUALSTYLE
  5
35
102
{ACAD_REACTORS
330
2A
102
}
330
2A
100
AcDbVisualStyle
  2
Dim
 70
    11
 71
     2
 72
     2
 73
     0
 90
        0
 40
-0.6
 41
-30.0
 62
     5
 63
     7
421
 16777215
 74
     1
 91
        4
 64
     7
 65
   257
 75
     1
175
     1
 42
1.0
 92
        8
 66
     7
 43
1.0
 76
     1
 77
     6
 78
     2
 67
     7
 79
     5
170
     0
171
     0
290
     0
174
     0
 93
        1
 44
-50.0
173
     0
291
     1
 45
0.0
1001
ACAD
1000
AcDbSavedByObjectVersion
1070
     0
  0
VISUALSTYLE
  5
39
102
{ACAD_REACTORS
330
2A
102
}
330
2A
100
AcDbVisualStyle
  2
Facepattern
 70
    15
 71
     2
 72
     2
 73
     0
 90
        0
 40
-0.6
 41
-30.0
 62
     5
 63
     7
421
 16777215
 74
     1
 91
        4
 64
     7
 65
   257
 75
     1
175
     1
 42
1.0
 92
        8
 66
     7
 43
1.0
 76
     1
 77
     6
 78
     2
 67
     7
 79
     5
170
     0
171
     0
290
     0
174
     0
 93
        1
 44
0.0
173
     0
291
     1
 45
0.0
1001
ACAD
1000
AcDbSavedByObjectVersion
1070
     0
  0
VISUALSTYLE
  5
2B
102
{ACAD_REACTORS
330
2A
102
}
330
2A
100
AcDbVisualStyle
  2
Flat
 70
     0
 71
     2
 72
     1
 73
     1
 90
        2
 40
-0.6
 41
30.0
 62
     5
 63
     7
421
 16777215
 74
     0
 91
        4
 64
     7
 65
   257
 75
     1
175
     1
 42
1.0
 92
        8
 66
     7
 43
1.0
 76
     1
 77
     6
 78
     2
 67
     7
 79
     5
170
     0
171
     0
290
     0
174
     0
 93
       13
 44
0.0
173
     0
291
     1
 45
0.0
1001
ACAD
1000
AcDbSavedByObjectVersion
1070
     0
  0
VISUALSTYLE
  5
2C
102
{ACAD_REACTORS
330
2A
102
}
330
2A
100
AcDbVisualStyle
  2
FlatWithEdges
 70
     1
 71
     2
 72
     1
 73
     1
 90
        2
 40
-0.6
 41
30.0
 62
     5
 63
     7
421
 16777215
 74
     1
 91
        4
 64
     7
 65
   257
 75
     1
175
     1
 42
1.0
 92
        0
 66
   257
 43
1.0
 76
     1
 77
     6
 78
     2
 67
     7
 79
     5
170
     0
171
     0
290
     0
174
     0
 93
       13
 44
0.0
173
     0
291
     1
 45
0.0
1001
ACAD
1000
AcDbSavedByObjectVersion
1070
     0
  0
VISUALSTYLE
  5
2D
102
{ACAD_REACTORS
330
2A
102
}
330
2A
100
AcDbVisualStyle
  2
Gouraud
 70
     2
 71
     2
 72
     2
 73
     1
 90
        2
 40
-0.6
 41
30.0
 62
     5
 63
     7
421
 16777215
 74
     0
 91
        4
 64
     7
 65
   257
 75
     1
175
     1
 42
1.0
 92
        0
 66
     7
 43
1.0
 76
     1
 77
     6
 78
     2
 67
     7
 79
     5
170
     0
171
     0
290
     0
174
     0
 93
       13
 44
0.0
173
     0
291
     1
 45
0.0
1001
ACAD
1000
AcDbSavedByObjectVersion
1070
     0
  0
VISUALSTYLE
  5
2E
102
{ACAD_REACTORS
330
2A
102
}
330
2A
100
AcDbVisualStyle
  2
GouraudWithEdges
 70
     3
 71
     2
 72
     2
 73
     1
 90
        2
 40
-0.6
 41
30.0
 62
     5
 63
     7
421
 16777215
 74
     1
 91
        4
 64
     7
 65
   257
 75
     1
175
     1
 42
1.0
 92
        0
 66
   257
 43
1.0
 76
     1
 77
     6
 78
     2
 67
     7
 79
     5
170
     0
171
     0
290
     0
174
     0
 93
       13
 44
0.0
173
     0
291
     1
 45
0.0
1001
ACAD
1000
AcDbSavedByObjectVersion
1070
     0
  0
VISUALSTYLE
  5
38
102
{ACAD_REACTORS
330
2A
102
}
330
2A
100
AcDbVisualStyle
  2
Linepattern
 70
    14
 71
     2
 72
     2
 73
     0
 90
        0
 40
-0.6
 41
-30.0
 62
     5
 63
     7
421
 16777215
 74
     1
 91
        4
 64
     7
 65
   257
 75
     7
175
     7
 42
1.0
 92
        8
 66
     7
 43
1.0
 76
     1
 77
     6
 78
     2
 67
     7
 79
     5
170
     0
171
     0
290
     0
174
     0
 93
        1
 44
0.0
173
     0
291
     1
 45
0.0
1001
ACAD
1000
AcDbSavedByObjectVersion
1070
     0
  0
VISUALSTYLE
  5
33
102
{ACAD_REACTORS
330
2A
102
}
330
2A
100
AcDbVisualStyle
  2
Realistic
 70
     8
 71
     2
 72
     2
 73
     0
 90
        0
 40
-0.6
 41
-30.0
 62
     5
 63
     7
421
 16777215
 74
     1
 91
        0
 64
     7
 65
   257
 75
     1
175
     1
 42
1.0
 92
        8
 66
     8
424
  7895160
 43
1.0
 76
     1
 77
     6
 78
     2
 67
     7
 79
     5
170
     0
171
     0
290
     0
174
     0
 93
       13
 44
0.0
173
     0
291
     0
 45
0.0
1001
ACAD
1000
AcDbSavedByObjectVersion
1070
     0
  0
VISUALSTYLE
  5
37
102
{ACAD_REACTORS
330
2A
102
}
330
2A
100
AcDbVisualStyle
  2
Thicken
 70
    13
 71
     2
 72
     2
 73
     0
 90
        0
 40
-0.6
 41
-30.0
 62
     5
 63
     7
421
 16777215
 74
     1
 91
        4
 64
     7
 65
   257
 75
     1
175
     1
 42
1.0
 92
       12
 66
     7
 43
1.0
 76
     1
 77
     6
 78
     2
 67
     7
 79
     5
170
     0
171
     0
290
     0
174
     0
 93
        1
 44
0.0
173
     0
291
     1
 45
0.0
1001
ACAD
1000
AcDbSavedByObjectVersion
1070
     0
  0
ENDSEC
  0
EOF
