  0
SECTION
  2
HEADER
  9
$ACADVER
  1
AC1018
  9
$ACADMAINTVER
 70
     0
  9
$DWGCODEPAGE
  3
ANSI_932
  9
$INSBASE
 10
0.0
 20
0.0
 30
0.0
  9
$EXTMIN
 10
-2100.0
 20
-1485.0
 30
0.0
  9
$EXTMAX
 10
2100.0
 20
1485.0
 30
0.0
  9
$LIMMIN
 10
-2100.0
 20
-1485.0
  9
$LIMMAX
 10
2100.0
 20
1485.0
  9
$ORTHOMODE
 70
     0
  9
$REGENMODE
 70
     1
  9
$FILLMODE
 70
     1
  9
$QTEXTMODE
 70
     0
  9
$MIRRTEXT
 70
     1
  9
$LTSCALE
 40
10.0
  9
$ATTMODE
 70
     1
  9
$TEXTSIZE
 40
2.5
  9
$TRACEWID
 40
1.0
  9
$TEXTSTYLE
  7
Standard
  9
$CLAYER
  8
0
  9
$CELTYPE
  6
ByLayer
  9
$CECOLOR
 62
   256
  9
$CELTSCALE
 40
1.0
  9
$DISPSILH
 70
     0
  9
$DIMSCALE
 40
1.0
  9
$DIMASZ
 40
2.5
  9
$DIMEXO
 40
0.625
  9
$DIMDLI
 40
3.75
  9
$DIMRND
 40
0.0
  9
$DIMDLE
 40
0.0
  9
$DIMEXE
 40
1.25
  9
$DIMTP
 40
0.0
  9
$DIMTM
 40
0.0
  9
$DIMTXT
 40
2.5
  9
$DIMCEN
 40
2.5
  9
$DIMTSZ
 40
0.0
  9
$DIMTOL
 70
     0
  9
$DIMLIM
 70
     0
  9
$DIMTIH
 70
     0
  9
$DIMTOH
 70
     0
  9
$DIMSE1
 70
     0
  9
$DIMSE2
 70
     0
  9
$DIMTAD
 70
     1
  9
$DIMZIN
 70
     8
  9
$DIMBLK
  1

  9
$DIMASO
 70
     1
  9
$DIMSHO
 70
     1
  9
$DIMPOST
  1

  9
$DIMAPOST
  1

  9
$DIMALT
 70
     0
  9
$DIMALTD
 70
     3
  9
$DIMALTF
 40
0.03937007874016
  9
$DIMLFAC
 40
1.0
  9
$DIMTOFL
 70
     1
  9
$DIMTVP
 40
0.0
  9
$DIMTIX
 70
     0
  9
$DIMSOXD
 70
     0
  9
$DIMSAH
 70
     0
  9
$DIMBLK1
  1

  9
$DIMBLK2
  1

  9
$DIMSTYLE
  2
ISO-25
  9
$DIMCLRD
 70
     0
  9
$DIMCLRE
 70
     0
  9
$DIMCLRT
 70
     0
  9
$DIMTFAC
 40
1.0
  9
$DIMGAP
 40
0.625
  9
$DIMJUST
 70
     0
  9
$DIMSD1
 70
     0
  9
$DIMSD2
 70
     0
  9
$DIMTOLJ
 70
     0
  9
$DIMTZIN
 70
     8
  9
$DIMALTZ
 70
     0
  9
$DIMALTTZ
 70
     0
  9
$DIMUPT
 70
     0
  9
$DIMDEC
 70
     2
  9
$DIMTDEC
 70
     2
  9
$DIMALTU
 70
     2
  9
$DIMALTTD
 70
     3
  9
$DIMTXSTY
  7
Standard
  9
$DIMAUNIT
 70
     0
  9
$DIMADEC
 70
     0
  9
$DIMALTRND
 40
0.0
  9
$DIMAZIN
 70
     0
  9
$DIMDSEP
 70
    44
  9
$DIMATFIT
 70
     3
  9
$DIMFRAC
 70
     0
  9
$DIMLDRBLK
  1

  9
$DIMLUNIT
 70
     2
  9
$DIMLWD
 70
    -2
  9
$DIMLWE
 70
    -2
  9
$DIMTMOVE
 70
     0
  9
$LUNITS
 70
     2
  9
$LUPREC
 70
     4
  9
$SKETCHINC
 40
1.0
  9
$FILLETRAD
 40
10.0
  9
$AUNITS
 70
     0
  9
$AUPREC
 70
     0
  9
$MENU
  1
.
  9
$ELEVATION
 40
0.0
  9
$PELEVATION
 40
0.0
  9
$THICKNESS
 40
0.0
  9
$LIMCHECK
 70
     0
  9
$CHAMFERA
 40
10.0
  9
$CHAMFERB
 40
10.0
  9
$CHAMFERC
 40
20.0
  9
$CHAMFERD
 40
0.0
  9
$SKPOLY
 70
     0
  9
$TDCREATE
 40
2456499.583341134
  9
$TDUCREATE
 40
2456499.208341134
  9
$TDUPDATE
 40
2456499.583341146
  9
$TDUUPDATE
 40
2456499.208341146
  9
$TDINDWG
 40
0.0000000116
  9
$TDUSRTIMER
 40
0.0000000116
  9
$USRTIMER
 70
     1
  9
$ANGBASE
 50
0.0
  9
$ANGDIR
 70
     0
  9
$PDMODE
 70
     0
  9
$PDSIZE
 40
0.0
  9
$PLINEWID
 40
0.0
  9
$SPLFRAME
 70
     0
  9
$SPLINETYPE
 70
     6
  9
$SPLINESEGS
 70
     8
  9
$HANDSEED
  5
3E1
  9
$SURFTAB1
 70
     6
  9
$SURFTAB2
 70
     6
  9
$SURFTYPE
 70
     6
  9
$SURFU
 70
     6
  9
$SURFV
 70
     6
  9
$UCSBASE
  2

  9
$UCSNAME
  2

  9
$UCSORG
 10
0.0
 20
0.0
 30
0.0
  9
$UCSXDIR
 10
1.0
 20
0.0
 30
0.0
  9
$UCSYDIR
 10
0.0
 20
1.0
 30
0.0
  9
$UCSORTHOREF
  2

  9
$UCSORTHOVIEW
 70
     0
  9
$UCSORGTOP
 10
0.0
 20
0.0
 30
0.0
  9
$UCSORGBOTTOM
 10
0.0
 20
0.0
 30
0.0
  9
$UCSORGLEFT
 10
0.0
 20
0.0
 30
0.0
  9
$UCSORGRIGHT
 10
0.0
 20
0.0
 30
0.0
  9
$UCSORGFRONT
 10
0.0
 20
0.0
 30
0.0
  9
$UCSORGBACK
 10
0.0
 20
0.0
 30
0.0
  9
$PUCSBASE
  2

  9
$PUCSNAME
  2

  9
$PUCSORG
 10
0.0
 20
0.0
 30
0.0
  9
$PUCSXDIR
 10
1.0
 20
0.0
 30
0.0
  9
$PUCSYDIR
 10
0.0
 20
1.0
 30
0.0
  9
$PUCSORTHOREF
  2

  9
$PUCSORTHOVIEW
 70
     0
  9
$PUCSORGTOP
 10
0.0
 20
0.0
 30
0.0
  9
$PUCSORGBOTTOM
 10
0.0
 20
0.0
 30
0.0
  9
$PUCSORGLEFT
 10
0.0
 20
0.0
 30
0.0
  9
$PUCSORGRIGHT
 10
0.0
 20
0.0
 30
0.0
  9
$PUCSORGFRONT
 10
0.0
 20
0.0
 30
0.0
  9
$PUCSORGBACK
 10
0.0
 20
0.0
 30
0.0
  9
$USERI1
 70
     0
  9
$USERI2
 70
     0
  9
$USERI3
 70
     0
  9
$USERI4
 70
     0
  9
$USERI5
 70
     0
  9
$USERR1
 40
0.0
  9
$USERR2
 40
0.0
  9
$USERR3
 40
0.0
  9
$USERR4
 40
0.0
  9
$USERR5
 40
0.0
  9
$WORLDVIEW
 70
     1
  9
$SHADEDGE
 70
     3
  9
$SHADEDIF
 70
    70
  9
$TILEMODE
 70
     1
  9
$MAXACTVP
 70
    64
  9
$PINSBASE
 10
0.0
 20
0.0
 30
0.0
  9
$PLIMCHECK
 70
     0
  9
$PEXTMIN
 10
1.000000000000000E+20
 20
1.000000000000000E+20
 30
1.000000000000000E+20
  9
$PEXTMAX
 10
-1.000000000000000E+20
 20
-1.000000000000000E+20
 30
-1.000000000000000E+20
  9
$PLIMMIN
 10
0.0
 20
0.0
  9
$PLIMMAX
 10
420.0
 20
297.0
  9
$UNITMODE
 70
     0
  9
$VISRETAIN
 70
     1
  9
$PLINEGEN
 70
     0
  9
$PSLTSCALE
 70
     1
  9
$TREEDEPTH
 70
  3020
  9
$CMLSTYLE
  2
Standard
  9
$CMLJUST
 70
     0
  9
$CMLSCALE
 40
20.0
  9
$PROXYGRAPHICS
 70
     1
  9
$MEASUREMENT
 70
     1
  9
$CELWEIGHT
370
    -1
  9
$ENDCAPS
280
     0
  9
$JOINSTYLE
280
     0
  9
$LWDISPLAY
290
     0
  9
$INSUNITS
 70
     4
  9
$HYPERLINKBASE
  1

  9
$STYLESHEET
  1

  9
$XEDIT
290
     1
  9
$CEPSNTYPE
380
     0
  9
$PSTYLEMODE
290
     1
  9
$FINGERPRINTGUID
  2
{45262E8D-A593-4892-B478-D9EBEC0CB2B1}
  9
$VERSIONGUID
  2
{FAEB1C32-E019-11D5-929B-00C0DF256EC4}
  9
$EXTNAMES
290
     1
  9
$PSVPSCALE
 40
0.0
  9
$OLESTARTUP
290
     0
  9
$SORTENTS
280
   127
  9
$INDEXCTL
280
     0
  9
$HIDETEXT
280
     1
  9
$XCLIPFRAME
290
     0
  9
$HALOGAP
280
     0
  9
$OBSCOLOR
 70
   257
  9
$OBSLTYPE
280
     0
  9
$INTERSECTIONDISPLAY
280
     0
  9
$INTERSECTIONCOLOR
 70
   257
  9
$DIMASSOC
280
     2
  9
$PROJECTNAME
  1

  0
ENDSEC
  0
SECTION
  2
CLASSES
  0
CLASS
  1
ACDBDICTIONARYWDFLT
  2
AcDbDictionaryWithDefault
  3
ObjectDBX Classes
 90
        0
 91
        4
280
     0
281
     0
  0
CLASS
  1
VISUALSTYLE
  2
AcDbVisualStyle
  3
ObjectDBX Classes
 90
     4095
 91
        4
280
     0
281
     0
  0
ENDSEC
  0
SECTION
  2
TABLES
  0
TABLE
  2
VPORT
  5
8
330
0
100
AcDbSymbolTable
 70
     1
  0
VPORT
  5
29
330
8
100
AcDbSymbolTableRecord
100
AcDbViewportTableRecord
  2
*Active
 70
     0
 10
0.0
 20
0.0
 11
1.0
 21
1.0
 12
0.0
 22
0.0
 13
0.0
 23
0.0
 14
10.0
 24
10.0
 15
10.0
 25
10.0
 16
0.0
 26
0.0
 36
1.0
 17
0.0
 27
0.0
 37
0.0
 40
3267.0
 41
1.414141414141414
 42
50.0
 43
0.0
 44
0.0
 50
0.0
 51
0.0
 71
     0
 72
 10000
 73
     1
 74
     3
 75
     0
 76
     0
 77
     0
 78
     0
281
     0
 65
     1
110
0.0
120
0.0
130
0.0
111
1.0
121
0.0
131
0.0
112
0.0
122
1.0
132
0.0
 79
     0
146
0.0
  0
ENDTAB
  0
TABLE
  2
LTYPE
  5
5
330
0
100
AcDbSymbolTable
 70
     6
  0
LTYPE
  5
14
330
5
100
AcDbSymbolTableRecord
100
AcDbLinetypeTableRecord
  2
ByBlock
 70
     0
  3

 72
    65
 73
     0
 40
0.0
  0
LTYPE
  5
15
330
5
100
AcDbSymbolTableRecord
100
AcDbLinetypeTableRecord
  2
ByLayer
 70
     0
  3

 72
    65
 73
     0
 40
0.0
  0
LTYPE
  5
16
330
5
100
AcDbSymbolTableRecord
100
AcDbLinetypeTableRecord
  2
Continuous
 70
     0
  3
Solid line
 72
    65
 73
     0
 40
0.0
  0
LTYPE
  5
3C
330
5
100
AcDbSymbolTableRecord
100
AcDbLinetypeTableRecord
  2
JWW_DASHED3
 70
     0
  3
---  ------  ------  ------  ---
 72
    65
 73
     2
 40
3.386666666666667
 49
2.54
 74
     0
 49
-0.8466666666666667
 74
     0
  0
LTYPE
  5
3D
330
5
100
AcDbSymbolTableRecord
100
AcDbLinetypeTableRecord
  2
JWW_CENTER2
 70
     0
  3
-------------  --  -------------
 72
    65
 73
     4
 40
13.54666666666667
 49
11.00666666666667
 74
     0
 49
-0.8466666666666667
 74
     0
 49
0.8466666666666667
 74
     0
 49
-0.8466666666666667
 74
     0
  0
LTYPE
  5
3E
330
5
100
AcDbSymbolTableRecord
100
AcDbLinetypeTableRecord
  2
JWW_DASHED2
 70
     0
  3
--    ----    ----    ----    --
 72
    65
 73
     2
 40
1.354666666666667
 49
0.6773333333333333
 74
     0
 49
-0.6773333333333333
 74
     0
  0
LTYPE
  5
3F
330
5
100
AcDbSymbolTableRecord
100
AcDbLinetypeTableRecord
  2
JWW_CENTER1
 70
     0
  3
-----  --  ----------  --  -----
 72
    65
 73
     4
 40
6.773333333333333
 49
4.233333333333333
 74
     0
 49
-0.8466666666666667
 74
     0
 49
0.8466666666666667
 74
     0
 49
-0.8466666666666667
 74
     0
  0
LTYPE
  5
40
330
5
100
AcDbSymbolTableRecord
100
AcDbLinetypeTableRecord
  2
JWW_DASHED1
 70
     0
  3
-  --  --  --  --  --  --  --  -
 72
    65
 73
     2
 40
0.6773333333333333
 49
0.3386666666666667
 74
     0
 49
-0.3386666666666667
 74
     0
  0
ENDTAB
  0
TABLE
  2
LAYER
  5
2
330
0
100
AcDbSymbolTable
 70
    12
  0
LAYER
  5
10
330
2
100
AcDbSymbolTableRecord
100
AcDbLayerTableRecord
  2
0
 70
     0
 62
     7
  6
Continuous
370
    -3
390
F
  0
LAYER
  5
41
330
2
100
AcDbSymbolTableRecord
100
AcDbLayerTableRecord
  2
3-4
 70
     0
 62
     7
  6
Continuous
370
    -3
390
F
  0
LAYER
  5
42
330
2
100
AcDbSymbolTableRecord
100
AcDbLayerTableRecord
  2
3-6
 70
     0
 62
     7
  6
Continuous
370
    -3
390
F
  0
LAYER
  5
43
330
2
100
AcDbSymbolTableRecord
100
AcDbLayerTableRecord
  2
3-1
 70
     0
 62
     7
  6
Continuous
370
    -3
390
F
  0
LAYER
  5
44
330
2
100
AcDbSymbolTableRecord
100
AcDbLayerTableRecord
  2
3-2
 70
     0
 62
     7
  6
Continuous
370
    -3
390
F
  0
LAYER
  5
45
330
2
100
AcDbSymbolTableRecord
100
AcDbLayerTableRecord
  2
3-0
 70
     0
 62
     7
  6
Continuous
370
    -3
390
F
  0
LAYER
  5
46
330
2
100
AcDbSymbolTableRecord
100
AcDbLayerTableRecord
  2
3-3
 70
     0
 62
     7
  6
Continuous
370
    -3
390
F
  0
LAYER
  5
47
330
2
100
AcDbSymbolTableRecord
100
AcDbLayerTableRecord
  2
3-5
 70
     0
 62
     7
  6
Continuous
370
    -3
390
F
  0
LAYER
  5
48
330
2
100
AcDbSymbolTableRecord
100
AcDbLayerTableRecord
  2
F-Eﾚｲﾔ
 70
     0
 62
     7
  6
Continuous
370
    -3
390
F
  0
LAYER
  5
49
330
2
100
AcDbSymbolTableRecord
100
AcDbLayerTableRecord
  2
0-4_寸法
 70
     0
 62
     7
  6
Continuous
370
    -3
390
F
  0
LAYER
  5
4A
330
2
100
AcDbSymbolTableRecord
100
AcDbLayerTableRecord
  2
0-2_本体（蓋）
 70
     0
 62
     7
  6
Continuous
370
    -3
390
F
  0
LAYER
  5
4B
330
2
100
AcDbSymbolTableRecord
100
AcDbLayerTableRecord
  2
0-0_通り芯
 70
     0
 62
     7
  6
Continuous
370
    -3
390
F
  0
ENDTAB
  0
TABLE
  2
STYLE
  5
3
330
0
100
AcDbSymbolTable
 70
     2
  0
STYLE
  5
11
330
3
100
AcDbSymbolTableRecord
100
AcDbTextStyleTableRecord
  2
Standard
 70
     0
 40
0.0
 41
1.0
 50
0.0
 71
     0
 42
2.5
  3
txt
  4

1001
ACAD
1000

1071
        0
  0
STYLE
  5
3B
330
3
100
AcDbSymbolTableRecord
100
AcDbTextStyleTableRecord
  2
ＭＳ ゴシック
 70
     0
 40
1.0
 41
1.0
 50
0.0
 71
     0
 42
10.0
  3

  4

1001
ACAD
1000
MS Gothic
1071
    32817
  0
ENDTAB
  0
TABLE
  2
VIEW
  5
6
330
0
100
AcDbSymbolTable
 70
     0
  0
ENDTAB
  0
TABLE
  2
UCS
  5
7
330
0
100
AcDbSymbolTable
 70
     0
  0
ENDTAB
  0
TABLE
  2
APPID
  5
9
330
0
100
AcDbSymbolTable
 70
     1
  0
APPID
  5
12
330
9
100
AcDbSymbolTableRecord
100
AcDbRegAppTableRecord
  2
ACAD
 70
     0
  0
ENDTAB
  0
TABLE
  2
DIMSTYLE
  5
A
330
0
100
AcDbSymbolTable
 70
     1
100
AcDbDimStyleTable
  0
DIMSTYLE
105
27
330
A
100
AcDbSymbolTableRecord
100
AcDbDimStyleTableRecord
  2
ISO-25
 70
     0
 41
2.5
 42
0.625
 43
3.75
 44
1.25
 73
     0
 74
     0
 77
     1
 78
     8
140
2.5
141
2.5
143
0.03937007874016
147
0.625
171
     3
172
     1
271
     2
272
     2
274
     3
278
    44
283
     0
284
     8
340
11
  0
ENDTAB
  0
TABLE
  2
BLOCK_RECORD
  5
1
330
0
100
AcDbSymbolTable
 70
     1
  0
BLOCK_RECORD
  5
1F
330
1
100
AcDbSymbolTableRecord
100
AcDbBlockTableRecord
  2
*Model_Space
340
22
  0
BLOCK_RECORD
  5
1B
330
1
100
AcDbSymbolTableRecord
100
AcDbBlockTableRecord
  2
*Paper_Space
340
1E
  0
BLOCK_RECORD
  5
23
330
1
100
AcDbSymbolTableRecord
100
AcDbBlockTableRecord
  2
*Paper_Space0
340
26
  0
ENDTAB
  0
ENDSEC
  0
SECTION
  2
BLOCKS
  0
BLOCK
  5
20
330
1F
100
AcDbEntity
  8
0
100
AcDbBlockBegin
  2
*Model_Space
 70
     0
 10
0.0
 20
0.0
 30
0.0
  3
*Model_Space
  1

  0
ENDBLK
  5
21
330
1F
100
AcDbEntity
  8
0
100
AcDbBlockEnd
  0
BLOCK
  5
1C
330
1B
100
AcDbEntity
 67
     1
  8
0
100
AcDbBlockBegin
  2
*Paper_Space
 70
     0
 10
0.0
 20
0.0
 30
0.0
  3
*Paper_Space
  1

  0
ENDBLK
  5
1D
330
1B
100
AcDbEntity
 67
     1
  8
0
100
AcDbBlockEnd
  0
BLOCK
  5
24
330
23
100
AcDbEntity
  8
0
100
AcDbBlockBegin
  2
*Paper_Space0
 70
     0
 10
0.0
 20
0.0
 30
0.0
  3
*Paper_Space0
  1

  0
ENDBLK
  5
25
330
23
100
AcDbEntity
  8
0
100
AcDbBlockEnd
  0
ENDSEC
  0
SECTION
  2
ENTITIES
  0
TEXT
  5
4C
330
1F
100
AcDbEntity
  8
3-4
  6
Continuous
 62
     6
370
     0
100
AcDbText
 10
2876.927738989147
 20
21.20181488085117
 30
0.0
 40
19.05
  1
・
  7
ＭＳ ゴシック
100
AcDbText
  0
LINE
  5
4D
330
1F
100
AcDbEntity
  8
3-4
  6
Continuous
 62
     7
370
     9
100
AcDbLine
 10
2958.373017232089
 20
498.4454650249737
 30
0.0
 11
2983.159138766435
 21
495.1823102194723
 31
0.0
  0
LINE
  5
4E
330
1F
100
AcDbEntity
  8
3-4
  6
Continuous
 62
     7
370
     9
100
AcDbLine
 10
2958.373017232089
 20
498.4454650249737
 30
0.0
 11
2983.159138766435
 21
501.708619830475
 31
0.0
  0
LINE
  5
4F
330
1F
100
AcDbEntity
  8
3-6
  6
Continuous
 62
     6
370
     9
100
AcDbLine
 10
3091.706955418322
 20
92.19309931471969
 30
0.0
 11
3473.298679451179
 21
92.19309931471969
 31
0.0
  0
LINE
  5
50
330
1F
100
AcDbEntity
  8
3-1
  6
Continuous
 62
     2
370
     9
100
AcDbLine
 10
2958.37400699138
 20
42.19309931471969
 30
0.0
 11
3091.706955418322
 21
42.19309931471969
 31
0.0
  0
LINE
  5
51
330
1F
100
AcDbEntity
  8
3-6
  6
Continuous
 62
     6
370
     9
100
AcDbLine
 10
3101.706823450417
 20
353.7983019294438
 30
0.0
 11
3123.435339075417
 21
375.5268175544438
 31
0.0
  0
LINE
  5
52
330
1F
100
AcDbEntity
  8
3-6
  6
Continuous
 62
     6
370
     9
100
AcDbLine
 10
3101.706823450417
 20
212.3768550003371
 30
0.0
 11
3264.856682904598
 21
375.5268175544438
 31
0.0
  0
LINE
  5
53
330
1F
100
AcDbEntity
  8
3-6
  6
Continuous
 62
     6
370
     9
100
AcDbLine
 10
3101.706823450417
 20
306.6579227196678
 30
0.0
 11
3170.575924485046
 21
375.5268175544438
 31
0.0
  0
LINE
  5
54
330
1F
100
AcDbEntity
  8
3-6
  6
Continuous
 62
     6
370
     9
100
AcDbLine
 10
3101.706823450417
 20
259.5171311101871
 30
0.0
 11
3217.716097494969
 21
375.5268175544438
 31
0.0
  0
LINE
  5
55
330
1F
100
AcDbEntity
  8
3-2
  6
Continuous
 62
     3
370
     9
100
AcDbLine
 10
3091.706955418322
 20
242.1927419016427
 30
0.0
 11
2958.373017232089
 21
242.1927419016427
 31
0.0
  0
LINE
  5
56
330
1F
100
AcDbEntity
  8
3-2
  6
Continuous
 62
     3
370
     9
100
AcDbLine
 10
3091.706955418322
 20
375.5264326480531
 30
0.0
 11
3088.374930766718
 21
375.5264326480531
 31
0.0
  0
LINE
  5
57
330
1F
100
AcDbEntity
  8
3-2
  6
Continuous
 62
     3
370
     9
100
AcDbLine
 10
3075.040893604556
 20
275.5246180893539
 30
0.0
 11
3075.040893604556
 21
362.1928903655362
 31
0.0
  0
LINE
  5
58
330
1F
100
AcDbEntity
  8
3-2
  6
Continuous
 62
     3
370
     9
100
AcDbLine
 10
2958.373017232089
 20
242.1927419016427
 30
0.0
 11
2958.373017232089
 21
245.52501399307
 31
0.0
  0
LINE
  5
59
330
1F
100
AcDbEntity
  8
3-2
  6
Continuous
 62
     3
370
     9
100
AcDbLine
 10
3058.375326670434
 20
258.858556275587
 30
0.0
 11
2971.707054394251
 21
258.858556275587
 31
0.0
  0
ARC
  5
5A
330
1F
100
AcDbEntity
  8
3-2
  6
Continuous
 62
     3
370
     9
100
AcDbCircle
 10
3058.375326670434
 20
275.5246180893539
 30
0.0
 40
16.66666494833456
100
AcDbArc
 50
270.0
 51
0.0
  0
ARC
  5
5B
330
1F
100
AcDbEntity
  8
3-2
  6
Continuous
 62
     3
370
     9
100
AcDbCircle
 10
3088.374930766718
 20
362.1928903655362
 30
0.0
 40
13.33333253860474
100
AcDbArc
 50
90.0
 51
180.0
  0
ARC
  5
5C
330
1F
100
AcDbEntity
  8
3-2
  6
Continuous
 62
     3
370
     9
100
AcDbCircle
 10
2971.707054394251
 20
245.52501399307
 30
0.0
 40
13.33333253860474
100
AcDbArc
 50
90.0
 51
180.0
  0
LINE
  5
5D
330
1F
100
AcDbEntity
  8
3-0
  6
Continuous
 62
     3
370
     9
100
AcDbLine
 10
2982.539683898756
 20
227.1927419016427
 30
0.0
 11
3075.039683898756
 21
227.1927419016427
 31
0.0
  0
LINE
  5
5E
330
1F
100
AcDbEntity
  8
3-0
  6
Continuous
 62
     3
370
     9
100
AcDbLine
 10
2973.373017232089
 20
66.35940856830928
 30
0.0
 11
2973.373017232089
 21
218.0260752349761
 31
0.0
  0
ARC
  5
5F
330
1F
100
AcDbEntity
  8
3-0
  6
Continuous
 62
     3
370
     9
100
AcDbCircle
 10
2982.539683898756
 20
218.0260752349761
 30
0.0
 40
9.166666666666666
100
AcDbArc
 50
90.0
 51
180.0
  0
LINE
  5
60
330
1F
100
AcDbEntity
  8
3-0
  6
Continuous
 62
     3
370
     9
100
AcDbLine
 10
3075.039683898756
 20
57.19274190164271
 30
0.0
 11
3075.039683898756
 21
42.19274190164271
 31
0.0
  0
LINE
  5
61
330
1F
100
AcDbEntity
  8
3-0
  6
Continuous
 62
     3
370
     9
100
AcDbLine
 10
3075.039683898756
 20
227.1927419016427
 30
0.0
 11
3075.039683898756
 21
242.1927419016427
 31
0.0
  0
ARC
  5
62
330
1F
100
AcDbEntity
  8
3-0
  6
Continuous
 62
     3
370
     9
100
AcDbCircle
 10
2982.539683898756
 20
218.0260752349761
 30
0.0
 40
24.16666666666666
100
AcDbArc
 50
90.0
 51
180.0
  0
LINE
  5
63
330
1F
100
AcDbEntity
  8
3-0
  6
Continuous
 62
     3
370
     9
100
AcDbLine
 10
2982.539683898756
 20
242.1927419016427
 30
0.0
 11
3075.039683898756
 21
242.1927419016427
 31
0.0
  0
ARC
  5
64
330
1F
100
AcDbEntity
  8
3-0
  6
Continuous
 62
     3
370
     9
100
AcDbCircle
 10
2982.539683898756
 20
66.35940856830928
 30
0.0
 40
24.16666666666666
100
AcDbArc
 50
180.0
 51
270.0
  0
ARC
  5
65
330
1F
100
AcDbEntity
  8
3-0
  6
Continuous
 62
     3
370
     9
100
AcDbCircle
 10
2982.539683898756
 20
66.35940856830928
 30
0.0
 40
9.166666666666666
100
AcDbArc
 50
180.0
 51
270.0
  0
LINE
  5
66
330
1F
100
AcDbEntity
  8
3-0
  6
Continuous
 62
     3
370
     9
100
AcDbLine
 10
2958.373017232089
 20
66.35940856830928
 30
0.0
 11
2958.373017232089
 21
218.0260752349761
 31
0.0
  0
LINE
  5
67
330
1F
100
AcDbEntity
  8
3-0
  6
Continuous
 62
     3
370
     9
100
AcDbLine
 10
2982.539683898756
 20
57.19274190164271
 30
0.0
 11
3075.039683898756
 21
57.19274190164271
 31
0.0
  0
LINE
  5
68
330
1F
100
AcDbEntity
  8
3-0
  6
Continuous
 62
     3
370
     9
100
AcDbLine
 10
2982.539683898756
 20
42.19274190164271
 30
0.0
 11
3075.039683898756
 21
42.19274190164271
 31
0.0
  0
LINE
  5
69
330
1F
100
AcDbEntity
  8
3-0
  6
JWW_DASHED3
 62
     3
370
     9
100
AcDbLine
 10
3011.706169895077
 20
57.19274190164271
 30
0.0
 11
3011.706169895077
 21
42.19274190164271
 31
0.0
  0
LINE
  5
6A
330
1F
100
AcDbEntity
  8
3-0
  6
Continuous
 62
     2
370
     9
100
AcDbLine
 10
3076.706163610891
 20
64.8594173661698
 30
0.0
 11
3076.706163610891
 21
57.19274190164271
 31
0.0
  0
LINE
  5
6B
330
1F
100
AcDbEntity
  8
3-0
  6
Continuous
 62
     2
370
     9
100
AcDbLine
 10
2990.039623413467
 20
57.19274190164271
 30
0.0
 11
3076.706163610891
 21
57.19274190164271
 31
0.0
  0
LINE
  5
6C
330
1F
100
AcDbEntity
  8
3-0
  6
Continuous
 62
     2
370
     9
100
AcDbLine
 10
2990.039623413467
 20
64.8594173661698
 30
0.0
 11
2990.039623413467
 21
57.19274190164271
 31
0.0
  0
LINE
  5
6D
330
1F
100
AcDbEntity
  8
3-0
  6
Continuous
 62
     2
370
     9
100
AcDbLine
 10
2990.039623413467
 20
64.8594173661698
 30
0.0
 11
3076.706163610891
 21
64.8594173661698
 31
0.0
  0
LINE
  5
6E
330
1F
100
AcDbEntity
  8
3-0
  6
Continuous
 62
     2
370
     9
100
AcDbLine
 10
3013.372951248137
 20
119.5562375994891
 30
0.0
 11
3053.37283577622
 21
119.5562375994891
 31
0.0
  0
LINE
  5
6F
330
1F
100
AcDbEntity
  8
3-0
  6
Continuous
 62
     2
370
     9
100
AcDbLine
 10
3016.529541065493
 20
122.713074856668
 30
0.0
 11
3016.529541065493
 21
98.19277819281666
 31
0.0
  0
LINE
  5
70
330
1F
100
AcDbEntity
  8
3-0
  6
Continuous
 62
     2
370
     9
100
AcDbLine
 10
3050.216245958864
 20
122.713074856668
 30
0.0
 11
3050.216245958864
 21
98.19277819281666
 31
0.0
  0
LINE
  5
71
330
1F
100
AcDbEntity
  8
3-0
  6
Continuous
 62
     2
370
     9
100
AcDbLine
 10
3016.529541065493
 20
122.713074856668
 30
0.0
 11
3013.372951248137
 21
119.5562375994891
 31
0.0
  0
LINE
  5
72
330
1F
100
AcDbEntity
  8
3-0
  6
Continuous
 62
     2
370
     9
100
AcDbLine
 10
3050.216245958864
 20
122.713074856668
 30
0.0
 11
3053.37283577622
 21
119.5562375994891
 31
0.0
  0
LINE
  5
73
330
1F
100
AcDbEntity
  8
3-0
  6
Continuous
 62
     2
370
     9
100
AcDbLine
 10
3013.372951248137
 20
119.5562375994891
 30
0.0
 11
3013.372951248137
 21
98.19277819281666
 31
0.0
  0
LINE
  5
74
330
1F
100
AcDbEntity
  8
3-0
  6
Continuous
 62
     2
370
     9
100
AcDbLine
 10
3053.37283577622
 20
119.5562375994891
 30
0.0
 11
3053.37283577622
 21
98.19277819281666
 31
0.0
  0
LINE
  5
75
330
1F
100
AcDbEntity
  8
3-0
  6
Continuous
 62
     2
370
     9
100
AcDbLine
 10
3016.529541065493
 20
122.713074856668
 30
0.0
 11
3050.216245958864
 21
122.713074856668
 31
0.0
  0
LINE
  5
76
330
1F
100
AcDbEntity
  8
3-0
  6
Continuous
 62
     2
370
     9
100
AcDbLine
 10
2996.872921555359
 20
94.43985840290964
 30
0.0
 11
2996.872921555359
 21
64.8594173661698
 31
0.0
  0
LINE
  5
77
330
1F
100
AcDbEntity
  8
3-0
  6
Continuous
 62
     2
370
     9
100
AcDbLine
 10
3069.873112908821
 20
94.43985840290964
 30
0.0
 11
3069.873112908821
 21
64.8594173661698
 31
0.0
  0
LINE
  5
78
330
1F
100
AcDbEntity
  8
3-0
  6
Continuous
 62
     2
370
     9
100
AcDbLine
 10
3015.155755170224
 20
94.43985840290964
 30
0.0
 11
3015.155755170224
 21
64.8594173661698
 31
0.0
  0
LINE
  5
79
330
1F
100
AcDbEntity
  8
3-0
  6
Continuous
 62
     2
370
     9
100
AcDbLine
 10
3051.590279293957
 20
94.43985840290964
 30
0.0
 11
3051.590279293957
 21
64.8594173661698
 31
0.0
  0
LINE
  5
7A
330
1F
100
AcDbEntity
  8
3-0
  6
Continuous
 62
     2
370
     9
100
AcDbLine
 10
3006.014338362791
 20
98.19277819281666
 30
0.0
 11
3060.731696101389
 21
98.19277819281666
 31
0.0
  0
ARC
  5
7B
330
1F
100
AcDbEntity
  8
3-0
  6
Continuous
 62
     2
370
     9
100
AcDbCircle
 10
3006.014338362791
 20
85.18263975848384
 30
0.0
 40
13.01010073842229
100
AcDbArc
 50
45.36129760742188
 51
134.6389617919922
  0
ARC
  5
7C
330
1F
100
AcDbEntity
  8
3-0
  6
Continuous
 62
     2
370
     9
100
AcDbCircle
 10
3033.37301723209
 20
52.09968803234375
 30
0.0
 40
46.09300123678672
100
AcDbArc
 50
66.71980285644531
 51
113.2803039550781
  0
ARC
  5
7D
330
1F
100
AcDbEntity
  8
3-0
  6
Continuous
 62
     2
370
     9
100
AcDbCircle
 10
3060.731696101389
 20
85.18263975848384
 30
0.0
 40
13.01020222741204
100
AcDbArc
 50
45.36129760742188
 51
134.63818359375
  0
LINE
  5
7E
330
1F
100
AcDbEntity
  8
3-0
  6
Continuous
 62
     2
370
     9
100
AcDbLine
 10
3031.37287866579
 20
-70.14024996473523
 30
0.0
 11
3035.372743398686
 21
-70.14024996473523
 31
0.0
  0
LINE
  5
7F
330
1F
100
AcDbEntity
  8
3-0
  6
Continuous
 62
     2
370
     9
100
AcDbLine
 10
3031.37287866579
 20
-70.14024996473523
 30
0.0
 11
3024.400436863637
 21
-149.8357711389858
 31
0.0
  0
LINE
  5
80
330
1F
100
AcDbEntity
  8
3-0
  6
Continuous
 62
     2
370
     9
100
AcDbLine
 10
3024.400436863637
 20
-149.8357711389858
 30
0.0
 11
3006.468885316972
 21
-148.266899563553
 31
0.0
  0
LINE
  5
81
330
1F
100
AcDbEntity
  8
3-0
  6
Continuous
 62
     2
370
     9
100
AcDbLine
 10
3025.678875947251
 20
-135.2249651120118
 30
0.0
 11
3007.747324400586
 21
-133.6560935365787
 31
0.0
  0
LINE
  5
82
330
1F
100
AcDbEntity
  8
3-0
  6
Continuous
 62
     2
370
     9
100
AcDbLine
 10
3026.957315030866
 20
-120.6140559851113
 30
0.0
 11
3009.025351084497
 21
-119.0452875096045
 31
0.0
  0
LINE
  5
83
330
1F
100
AcDbEntity
  8
3-0
  6
Continuous
 62
     2
370
     9
100
AcDbLine
 10
3028.235341714776
 20
-106.0032499581371
 30
0.0
 11
3010.303790168113
 21
-104.434378382704
 31
0.0
  0
LINE
  5
84
330
1F
100
AcDbEntity
  8
3-0
  6
Continuous
 62
     2
370
     9
100
AcDbLine
 10
3029.513780798392
 20
-91.39244393116286
 30
0.0
 11
3011.582229251728
 21
-89.82346925580401
 31
0.0
  0
LINE
  5
85
330
1F
100
AcDbEntity
  8
3-0
  6
Continuous
 62
     2
370
     9
100
AcDbLine
 10
3030.791807482302
 20
-76.78153480426232
 30
0.0
 11
3012.860255935638
 21
-75.21276632875583
 31
0.0
  0
LINE
  5
86
330
1F
100
AcDbEntity
  8
3-0
  6
Continuous
 62
     2
370
     9
100
AcDbLine
 10
3009.739627372504
 20
-133.8304355116102
 30
0.0
 11
3009.025351084497
 21
-119.0452875096045
 31
0.0
  0
LINE
  5
87
330
1F
100
AcDbEntity
  8
3-0
  6
Continuous
 62
     2
370
     9
100
AcDbLine
 10
3011.018066456119
 20
-119.2195263847103
 30
0.0
 11
3010.303790168113
 21
-104.434378382704
 31
0.0
  0
LINE
  5
88
330
1F
100
AcDbEntity
  8
3-0
  6
Continuous
 62
     2
370
     9
100
AcDbLine
 10
3012.29609314003
 20
-104.6087203577358
 30
0.0
 11
3011.582229251728
 21
-89.82346925580401
 31
0.0
  0
LINE
  5
89
330
1F
100
AcDbEntity
  8
3-0
  6
Continuous
 62
     2
370
     9
100
AcDbLine
 10
3013.574532223645
 20
-89.99781123083523
 30
0.0
 11
3012.860255935638
 21
-75.21276632875583
 31
0.0
  0
LINE
  5
8A
330
1F
100
AcDbEntity
  8
3-0
  6
Continuous
 62
     2
370
     9
100
AcDbLine
 10
3007.747324400586
 20
-133.6560935365787
 30
0.0
 11
3006.468885316972
 21
-148.266899563553
 31
0.0
  0
LINE
  5
8B
330
1F
100
AcDbEntity
  8
3-0
  6
Continuous
 62
     2
370
     9
100
AcDbLine
 10
3035.373155798392
 20
-70.14024996473523
 30
0.0
 11
3042.345597600545
 21
-149.8357711389858
 31
0.0
  0
LINE
  5
8C
330
1F
100
AcDbEntity
  8
3-0
  6
Continuous
 62
     2
370
     9
100
AcDbLine
 10
3042.345597600545
 20
-149.8357711389858
 30
0.0
 11
3060.277149147209
 21
-148.267002663479
 31
0.0
  0
LINE
  5
8D
330
1F
100
AcDbEntity
  8
3-0
  6
Continuous
 62
     2
370
     9
100
AcDbLine
 10
3041.06715851693
 20
-135.2249651120118
 30
0.0
 11
3058.998710063594
 21
-133.6560935365787
 31
0.0
  0
LINE
  5
8E
330
1F
100
AcDbEntity
  8
3-0
  6
Continuous
 62
     2
370
     9
100
AcDbLine
 10
3039.788719433315
 20
-120.6140559851113
 30
0.0
 11
3057.720683379684
 21
-119.0452875096045
 31
0.0
  0
LINE
  5
8F
330
1F
100
AcDbEntity
  8
3-0
  6
Continuous
 62
     2
370
     9
100
AcDbLine
 10
3038.510692749405
 20
-106.0032499581371
 30
0.0
 11
3056.442244296069
 21
-104.434378382704
 31
0.0
  0
LINE
  5
90
330
1F
100
AcDbEntity
  8
3-0
  6
Continuous
 62
     2
370
     9
100
AcDbLine
 10
3037.23225366579
 20
-91.39244393116286
 30
0.0
 11
3055.163805212454
 21
-89.82346925580401
 31
0.0
  0
LINE
  5
91
330
1F
100
AcDbEntity
  8
3-0
  6
Continuous
 62
     2
370
     9
100
AcDbLine
 10
3035.954226981879
 20
-76.78153480426232
 30
0.0
 11
3053.885778528544
 21
-75.21276632875583
 31
0.0
  0
LINE
  5
92
330
1F
100
AcDbEntity
  8
3-0
  6
Continuous
 62
     2
370
     9
100
AcDbLine
 10
3057.006407091677
 20
-133.8304355116102
 30
0.0
 11
3057.720683379684
 21
-119.0452875096045
 31
0.0
  0
LINE
  5
93
330
1F
100
AcDbEntity
  8
3-0
  6
Continuous
 62
     2
370
     9
100
AcDbLine
 10
3055.727968008061
 20
-119.2195263847103
 30
0.0
 11
3056.442244296069
 21
-104.434378382704
 31
0.0
  0
LINE
  5
94
330
1F
100
AcDbEntity
  8
3-0
  6
Continuous
 62
     2
370
     9
100
AcDbLine
 10
3054.449941324151
 20
-104.6087203577358
 30
0.0
 11
3055.163805212454
 21
-89.82346925580401
 31
0.0
  0
LINE
  5
95
330
1F
100
AcDbEntity
  8
3-0
  6
Continuous
 62
     2
370
     9
100
AcDbLine
 10
3053.171502240536
 20
-89.99781123083523
 30
0.0
 11
3053.885778528544
 21
-75.21276632875583
 31
0.0
  0
LINE
  5
96
330
1F
100
AcDbEntity
  8
3-0
  6
Continuous
 62
     2
370
     9
100
AcDbLine
 10
3058.998710063594
 20
-133.6560935365787
 30
0.0
 11
3060.277149147209
 21
-148.267002663479
 31
0.0
  0
ARC
  5
97
330
1F
100
AcDbEntity
  8
3-0
  6
Continuous
 62
     2
370
     9
100
AcDbCircle
 10
2871.817495035089
 20
-63.17461275770398
 30
0.0
 40
141.5555154955065
100
AcDbArc
 50
355.12158203125
 51
359.9159088134766
  0
ARC
  5
98
330
1F
100
AcDbEntity
  8
3-0
  6
Continuous
 62
     2
370
     9
100
AcDbCircle
 10
3194.928539429092
 20
-63.17461275770398
 30
0.0
 40
141.5555154955065
100
AcDbArc
 50
180.0840911865234
 51
184.87841796875
  0
LINE
  5
99
330
1F
100
AcDbEntity
  8
3-0
  6
JWW_CENTER2
 62
     2
370
     9
100
AcDbLine
 10
3033.37301723209
 20
140.777867294976
 30
0.0
 11
3033.37301723209
 21
-156.8165640351538
 31
0.0
  0
LINE
  5
9A
330
1F
100
AcDbEntity
  8
3-0
  6
Continuous
 62
     2
370
     9
100
AcDbLine
 10
3053.37275329628
 20
57.19274190164271
 30
0.0
 11
3053.37275329628
 21
-63.3824622087181
 31
0.0
  0
LINE
  5
9B
330
1F
100
AcDbEntity
  8
3-0
  6
Continuous
 62
     2
370
     9
100
AcDbLine
 10
3013.372868768197
 20
57.19274190164271
 30
0.0
 11
3013.372868768197
 21
-63.3824622087181
 31
0.0
  0
LINE
  5
9C
330
1F
100
AcDbEntity
  8
3-3
  6
Continuous
 62
     6
370
     9
100
AcDbLine
 10
2941.959261557469
 20
-291.1401996519714
 30
0.0
 11
3200.039683898757
 21
-33.05938912876144
 31
0.0
  0
LINE
  5
9D
330
1F
100
AcDbEntity
  8
3-3
  6
Continuous
 62
     6
370
     9
100
AcDbLine
 10
2956.101684620181
 20
-291.1401996519714
 30
0.0
 11
3200.039683898757
 21
-47.20141235815049
 31
0.0
  0
LINE
  5
9E
330
1F
100
AcDbEntity
  8
3-3
  6
Continuous
 62
     6
370
     9
100
AcDbLine
 10
2970.243695283187
 20
-291.1401996519714
 30
0.0
 11
3200.039683898757
 21
-61.34340951196094
 31
0.0
  0
LINE
  5
9F
330
1F
100
AcDbEntity
  8
3-6
  6
Continuous
 62
     6
370
     9
100
AcDbLine
 10
2866.706350565423
 20
42.19309931471969
 30
0.0
 11
2866.706350565423
 21
-291.1401996519714
 31
0.0
  0
LINE
  5
A0
330
1F
100
AcDbEntity
  8
3-6
  6
Continuous
 62
     6
370
     9
100
AcDbLine
 10
3200.039683898757
 20
-7.80685944531001
 30
0.0
 11
2866.706350565423
 21
-7.80685944531001
 31
0.0
  0
LINE
  5
A1
330
1F
100
AcDbEntity
  8
3-3
  6
Continuous
 62
     6
370
     9
100
AcDbLine
 10
2866.706350565423
 20
-152.2719218171051
 30
0.0
 11
3011.171066746447
 21
-7.80685944531001
 31
0.0
  0
LINE
  5
A2
330
1F
100
AcDbEntity
  8
3-3
  6
Continuous
 62
     6
370
     9
100
AcDbLine
 10
2866.706350565423
 20
-166.4140759351605
 30
0.0
 11
3025.313077409455
 21
-7.80685944531001
 31
0.0
  0
LINE
  5
A3
330
1F
100
AcDbEntity
  8
3-3
  6
Continuous
 62
     6
370
     9
100
AcDbLine
 10
2866.706350565423
 20
-180.556064290482
 30
0.0
 11
3039.455088072461
 21
-7.80685944531001
 31
0.0
  0
LINE
  5
A4
330
1F
100
AcDbEntity
  8
3-6
  6
Continuous
 62
     6
370
     9
100
AcDbLine
 10
3091.706955418322
 20
375.5268175544438
 30
0.0
 11
3473.298679451179
 21
375.5268175544438
 31
0.0
  0
LINE
  5
A5
330
1F
100
AcDbEntity
  8
3-2
  6
Continuous
 62
     3
370
     9
100
AcDbLine
 10
3091.706955418322
 20
42.19309931471969
 30
0.0
 11
3091.706955418322
 21
375.5264326480531
 31
0.0
  0
LINE
  5
A6
330
1F
100
AcDbEntity
  8
3-6
  6
Continuous
 62
     6
370
     9
100
AcDbLine
 10
3366.706350565424
 20
-291.1401996519714
 30
0.0
 11
2700.039683898757
 21
-291.1401996519714
 31
0.0
  0
LINE
  5
A7
330
1F
100
AcDbEntity
  8
3-6
  6
Continuous
 62
     6
370
     9
100
AcDbLine
 10
2700.039683898757
 20
-291.1401996519714
 30
0.0
 11
2700.039683898757
 21
-491.1401377920157
 31
0.0
  0
LINE
  5
A8
330
1F
100
AcDbEntity
  8
3-3
  6
Continuous
 62
     6
370
     9
100
AcDbLine
 10
2844.553613111173
 20
-491.1401377920157
 30
0.0
 11
2807.469806892846
 21
-426.9077497337915
 31
0.0
  0
LINE
  5
A9
330
1F
100
AcDbEntity
  8
3-3
  6
Continuous
 62
     6
370
     9
100
AcDbLine
 10
2917.782603820632
 20
-426.9067187345308
 30
0.0
 11
2954.870534036004
 21
-491.1401377920157
 31
0.0
  0
LINE
  5
AA
330
1F
100
AcDbEntity
  8
3-3
  6
Continuous
 62
     6
370
     9
100
AcDbLine
 10
3064.441836295295
 20
-491.1401377920157
 30
0.0
 11
3027.358030076967
 21
-426.9077497337915
 31
0.0
  0
LINE
  5
AB
330
1F
100
AcDbEntity
  8
3-3
  6
Continuous
 62
     6
370
     9
100
AcDbLine
 10
3137.670827004754
 20
-426.9067187345308
 30
0.0
 11
3174.758757220126
 21
-491.1401377920157
 31
0.0
  0
LINE
  5
AC
330
1F
100
AcDbEntity
  8
3-3
  6
Continuous
 62
     6
370
     9
100
AcDbLine
 10
2700.039697563332
 20
-291.1401996519714
 30
0.0
 11
2737.791165238496
 21
-356.5250386841188
 31
0.0
  0
LINE
  5
AD
330
1F
100
AcDbEntity
  8
3-3
  6
Continuous
 62
     6
370
     9
100
AcDbLine
 10
2700.039683898757
 20
-421.90925911671
 30
0.0
 11
2775.539362117324
 21
-291.1401996519714
 31
0.0
  0
LINE
  5
AE
330
1F
100
AcDbEntity
  8
3-3
  6
Continuous
 62
     6
370
     9
100
AcDbLine
 10
2810.351693459457
 20
-291.1401996519714
 30
0.0
 11
2848.104374565987
 21
-356.5250386841188
 31
0.0
  0
LINE
  5
AF
330
1F
100
AcDbEntity
  8
3-3
  6
Continuous
 62
     6
370
     9
100
AcDbLine
 10
2770.384763475404
 20
-491.1401377920157
 30
0.0
 11
2885.856274720133
 21
-291.1401996519714
 31
0.0
  0
LINE
  5
B0
330
1F
100
AcDbEntity
  8
3-3
  6
Continuous
 62
     6
370
     9
100
AcDbLine
 10
2920.66852723588
 20
-291.1401996519714
 30
0.0
 11
2958.41675909407
 21
-356.5250386841188
 31
0.0
  0
LINE
  5
B1
330
1F
100
AcDbEntity
  8
3-3
  6
Continuous
 62
     6
370
     9
100
AcDbLine
 10
2880.697560403191
 20
-491.1401377920157
 30
0.0
 11
2996.167022769469
 21
-291.1401996519714
 31
0.0
  0
LINE
  5
B2
330
1F
100
AcDbEntity
  8
3-3
  6
Continuous
 62
     6
370
     9
100
AcDbLine
 10
3030.23991664358
 20
-291.1401996519714
 30
0.0
 11
3067.992597750108
 21
-356.5250386841188
 31
0.0
  0
LINE
  5
B3
330
1F
100
AcDbEntity
  8
3-3
  6
Continuous
 62
     6
370
     9
100
AcDbLine
 10
2990.272986659525
 20
-491.1401377920157
 30
0.0
 11
3105.744497904254
 21
-291.1401996519714
 31
0.0
  0
LINE
  5
B4
330
1F
100
AcDbEntity
  8
3-3
  6
Continuous
 62
     6
370
     9
100
AcDbLine
 10
3140.556750420001
 20
-291.1401996519714
 30
0.0
 11
3178.304982278191
 21
-356.5250386841188
 31
0.0
  0
LINE
  5
B5
330
1F
100
AcDbEntity
  8
3-3
  6
Continuous
 62
     6
370
     9
100
AcDbLine
 10
3100.585783587313
 20
-491.1401377920157
 30
0.0
 11
3216.055245953591
 21
-291.1401996519714
 31
0.0
  0
LINE
  5
B6
330
1F
100
AcDbEntity
  8
3-6
  6
Continuous
 62
     6
370
     9
100
AcDbLine
 10
2700.039683898757
 20
-491.1401377920157
 30
0.0
 11
3366.706350565424
 21
-491.1401377920157
 31
0.0
  0
LINE
  5
B7
330
1F
100
AcDbEntity
  8
3-6
  6
Continuous
 62
     6
370
     9
100
AcDbLine
 10
3366.706350565424
 20
-291.1401996519714
 30
0.0
 11
3366.706350565424
 21
-491.1401377920157
 31
0.0
  0
LINE
  5
B8
330
1F
100
AcDbEntity
  8
3-3
  6
Continuous
 62
     6
370
     9
100
AcDbLine
 10
3210.161209843648
 20
-491.1401377920157
 30
0.0
 11
3325.632814045015
 21
-291.1401996519714
 31
0.0
  0
LINE
  5
B9
330
1F
100
AcDbEntity
  8
3-3
  6
Continuous
 62
     6
370
     9
100
AcDbLine
 10
3250.128141439431
 20
-291.1401996519714
 30
0.0
 11
3287.881622987811
 21
-356.5262824761703
 31
0.0
  0
LINE
  5
BA
330
1F
100
AcDbEntity
  8
3-3
  6
Continuous
 62
     6
370
     9
100
AcDbLine
 10
3284.330010477378
 20
-491.1401377920157
 30
0.0
 11
3247.246253261088
 21
-426.9077497337915
 31
0.0
  0
LINE
  5
BB
330
1F
100
AcDbEntity
  8
3-6
  6
Continuous
 62
     6
370
     9
100
AcDbLine
 10
3101.706823450417
 20
175.5267625678167
 30
0.0
 11
3473.298679451179
 21
175.5267625678167
 31
0.0
  0
LINE
  5
BC
330
1F
100
AcDbEntity
  8
3-6
  6
Continuous
 62
     6
370
     9
100
AcDbLine
 10
3111.997017217775
 20
175.5267625678167
 30
0.0
 11
3311.997268314226
 21
375.5268175544438
 31
0.0
  0
LINE
  5
BD
330
1F
100
AcDbEntity
  8
3-6
  6
Continuous
 62
     6
370
     9
100
AcDbLine
 10
3159.138507720272
 20
175.5267625678167
 30
0.0
 11
3359.137441324151
 21
375.5268175544438
 31
0.0
  0
LINE
  5
BE
330
1F
100
AcDbEntity
  8
3-6
  6
Continuous
 62
     6
370
     9
100
AcDbLine
 10
3206.278583576469
 20
175.5267625678167
 30
0.0
 11
3406.277999652646
 21
375.5268175544438
 31
0.0
  0
LINE
  5
BF
330
1F
100
AcDbEntity
  8
3-6
  6
Continuous
 62
     6
370
     9
100
AcDbLine
 10
3253.418839286578
 20
175.5267625678167
 30
0.0
 11
3453.41850346338
 21
375.5268175544438
 31
0.0
  0
LINE
  5
C0
330
1F
100
AcDbEntity
  8
3-3
  6
Continuous
 62
     6
370
     9
100
AcDbLine
 10
3342.800914367507
 20
-175.6259702125718
 30
0.0
 11
3380.628314889121
 21
-241.1401996519717
 31
0.0
  0
LINE
  5
C1
330
1F
100
AcDbEntity
  8
3-3
  6
Continuous
 62
     6
370
     9
100
AcDbLine
 10
3270.311323606756
 20
-241.1401996519717
 30
0.0
 11
3232.48811743972
 21
-175.6270012118324
 31
0.0
  0
LINE
  5
C2
330
1F
100
AcDbEntity
  8
3-3
  6
Continuous
 62
     6
370
     9
100
AcDbLine
 10
3200.03969756333
 20
92.19309931471969
 30
0.0
 11
3237.791165238495
 21
26.80826028257201
 31
0.0
  0
LINE
  5
C3
330
1F
100
AcDbEntity
  8
3-3
  6
Continuous
 62
     6
370
     9
100
AcDbLine
 10
3200.039683898757
 20
-38.5759601500186
 30
0.0
 11
3275.539362117324
 21
92.19309931471969
 31
0.0
  0
LINE
  5
C4
330
1F
100
AcDbEntity
  8
3-3
  6
Continuous
 62
     6
370
     9
100
AcDbLine
 10
3200.039683898757
 20
-229.6465167906436
 30
0.0
 11
3385.856274723708
 21
92.19309931471969
 31
0.0
  0
LINE
  5
C5
330
1F
100
AcDbEntity
  8
3-3
  6
Continuous
 62
     6
370
     9
100
AcDbLine
 10
3310.351693459457
 20
92.19309931471969
 30
0.0
 11
3348.104374565987
 21
26.80826028257201
 31
0.0
  0
LINE
  5
C6
330
1F
100
AcDbEntity
  8
3-6
  6
Continuous
 62
     6
370
     9
100
AcDbLine
 10
3200.039683898757
 20
92.19309931471969
 30
0.0
 11
3200.039683898757
 21
-291.1401996519714
 31
0.0
  0
LINE
  5
C7
330
1F
100
AcDbEntity
  8
3-6
  6
Continuous
 62
     6
370
     9
100
AcDbLine
 10
2866.706350565423
 20
42.19309931471969
 30
0.0
 11
3200.039683898757
 21
42.19309931471969
 31
0.0
  0
LINE
  5
C8
330
1F
100
AcDbEntity
  8
3-6
  6
Continuous
 62
     6
370
     9
100
AcDbLine
 10
3101.706823450417
 20
375.5264326480531
 30
0.0
 11
3101.706823450417
 21
175.5267625678167
 31
0.0
  0
TEXT
  5
C9
330
1F
100
AcDbEntity
  8
3-4
  6
Continuous
 62
     6
370
     0
100
AcDbText
 10
3110.337584949221
 20
133.0491959723988
 30
0.0
 40
9.525
  1
・
  7
ＭＳ ゴシック
100
AcDbText
  0
TEXT
  5
CA
330
1F
100
AcDbEntity
  8
3-4
  6
Continuous
 62
     6
370
     0
100
AcDbText
 10
3197.209995079077
 20
118.5704609507561
 30
0.0
 40
9.525
  1
・
  7
ＭＳ ゴシック
100
AcDbText
  0
TEXT
  5
CB
330
1F
100
AcDbEntity
  8
3-4
  6
Continuous
 62
     6
370
     0
100
AcDbText
 10
3246.437735392633
 20
147.5279309940415
 30
0.0
 40
9.525
  1
・
  7
ＭＳ ゴシック
100
AcDbText
  0
TEXT
  5
CC
330
1F
100
AcDbEntity
  8
3-4
  6
Continuous
 62
     6
370
     0
100
AcDbText
 10
3272.499747111383
 20
121.4662285750702
 30
0.0
 40
9.525
  1
・
  7
ＭＳ ゴシック
100
AcDbText
  0
TEXT
  5
CD
330
1F
100
AcDbEntity
  8
3-4
  6
Continuous
 62
     6
370
     0
100
AcDbText
 10
3333.310557922194
 20
138.8407312210264
 30
0.0
 40
9.525
  1
・
  7
ＭＳ ゴシック
100
AcDbText
  0
TEXT
  5
CE
330
1F
100
AcDbEntity
  8
3-4
  6
Continuous
 62
     6
370
     0
100
AcDbText
 10
3324.622945749474
 20
109.8832611777413
 30
0.0
 40
9.525
  1
・
  7
ＭＳ ゴシック
100
AcDbText
  0
TEXT
  5
CF
330
1F
100
AcDbEntity
  8
3-4
  6
Continuous
 62
     6
370
     0
100
AcDbText
 10
3142.190513317042
 20
106.9873904535009
 30
0.0
 40
9.525
  1
・
  7
ＭＳ ゴシック
100
AcDbText
  0
TEXT
  5
D0
330
1F
100
AcDbEntity
  8
3-4
  6
Continuous
 62
     6
370
     0
100
AcDbText
 10
3174.043854084567
 20
141.7364988453402
 30
0.0
 40
9.525
  1
・
  7
ＭＳ ゴシック
100
AcDbText
  0
TEXT
  5
D1
330
1F
100
AcDbEntity
  8
3-4
  6
Continuous
 62
     6
370
     0
100
AcDbText
 10
3139.295054992506
 20
156.2152338669829
 30
0.0
 40
9.525
  1
・
  7
ＭＳ ゴシック
100
AcDbText
  0
TEXT
  5
D2
330
1F
100
AcDbEntity
  8
3-4
  6
Continuous
 62
     6
370
     0
100
AcDbText
 10
3185.626924581822
 20
101.1959583047996
 30
0.0
 40
9.525
  1
・
  7
ＭＳ ゴシック
100
AcDbText
  0
TEXT
  5
D3
330
1F
100
AcDbEntity
  8
3-4
  6
Continuous
 62
     6
370
     0
100
AcDbText
 10
3368.059357014254
 20
141.7364988453402
 30
0.0
 40
9.525
  1
・
  7
ＭＳ ゴシック
100
AcDbText
  0
TEXT
  5
D4
330
1F
100
AcDbEntity
  8
3-4
  6
Continuous
 62
     6
370
     0
100
AcDbText
 10
3297.613050387417
 20
150.8896805265705
 30
0.0
 40
9.525
  1
・
  7
ＭＳ ゴシック
100
AcDbText
  0
TEXT
  5
D5
330
1F
100
AcDbEntity
  8
3-4
  6
Continuous
 62
     6
370
     0
100
AcDbText
 10
3382.607049544595
 20
108.789849168342
 30
0.0
 40
9.525
  1
・
  7
ＭＳ ゴシック
100
AcDbText
  0
TEXT
  5
D6
330
1F
100
AcDbEntity
  8
3-4
  6
Continuous
 62
     6
370
     0
100
AcDbText
 10
3169.846998563658
 20
-1.386486230616049
 30
0.0
 40
19.05
  1
・
  7
ＭＳ ゴシック
100
AcDbText
  0
TEXT
  5
D7
330
1F
100
AcDbEntity
  8
3-4
  6
Continuous
 62
     6
370
     0
100
AcDbText
 10
3145.072732828499
 20
19.01585025716096
 30
0.0
 40
19.05
  1
・
  7
ＭＳ ゴシック
100
AcDbText
  0
TEXT
  5
D8
330
1F
100
AcDbEntity
  8
3-4
  6
Continuous
 62
     6
370
     0
100
AcDbText
 10
3086.416015426141
 20
21.20181488085117
 30
0.0
 40
19.05
  1
・
  7
ＭＳ ゴシック
100
AcDbText
  0
TEXT
  5
D9
330
1F
100
AcDbEntity
  8
3-4
  6
Continuous
 62
     6
370
     0
100
AcDbText
 10
3056.176838131758
 20
-1.386486230616049
 30
0.0
 40
19.05
  1
・
  7
ＭＳ ゴシック
100
AcDbText
  0
TEXT
  5
DA
330
1F
100
AcDbEntity
  8
3-4
  6
Continuous
 62
     6
370
     0
100
AcDbText
 10
3112.283263473144
 20
0.0708235185110428
 30
0.0
 40
19.05
  1
・
  7
ＭＳ ゴシック
100
AcDbText
  0
TEXT
  5
DB
330
1F
100
AcDbEntity
  8
3-4
  6
Continuous
 62
     6
370
     0
100
AcDbText
 10
2953.800828255592
 20
21.93046975541485
 30
0.0
 40
19.05
  1
・
  7
ＭＳ ゴシック
100
AcDbText
  0
TEXT
  5
DC
330
1F
100
AcDbEntity
  8
3-4
  6
Continuous
 62
     6
370
     0
100
AcDbText
 10
2973.474509868805
 20
-0.6578313560523608
 30
0.0
 40
19.05
  1
・
  7
ＭＳ ゴシック
100
AcDbText
  0
TEXT
  5
DD
330
1F
100
AcDbEntity
  8
3-4
  6
Continuous
 62
     6
370
     0
100
AcDbText
 10
2908.259898595375
 20
-2.843795979742856
 30
0.0
 40
19.05
  1
・
  7
ＭＳ ゴシック
100
AcDbText
  0
LINE
  5
DE
330
1F
100
AcDbEntity
  8
3-3
  6
Continuous
 62
     6
370
     9
100
AcDbLine
 10
3303.717794382287
 20
-241.1401996519717
 30
0.0
 11
3473.298679451179
 21
52.58403467096997
 31
0.0
  0
LINE
  5
DF
330
1F
100
AcDbEntity
  8
3-3
  6
Continuous
 62
     6
370
     9
100
AcDbLine
 10
3414.031828509188
 20
-241.1401996519717
 30
0.0
 11
3473.298679451179
 21
-138.486437221159
 31
0.0
  0
LINE
  5
E0
330
1F
100
AcDbEntity
  8
3-3
  6
Continuous
 62
     6
370
     9
100
AcDbLine
 10
3420.668530057127
 20
92.19309931471969
 30
0.0
 11
3458.417006200376
 21
26.80808663731881
 31
0.0
  0
LINE
  5
E1
330
1F
100
AcDbEntity
  8
3-6
  6
Continuous
 62
     6
370
     9
100
AcDbLine
 10
3394.839802270399
 20
175.5267625678167
 30
0.0
 11
3473.298679451179
 21
253.9857559254523
 31
0.0
  0
LINE
  5
E2
330
1F
100
AcDbEntity
  8
3-6
  6
Continuous
 62
     6
370
     9
100
AcDbLine
 10
3347.699610249686
 20
175.5267625678167
 30
0.0
 11
3473.298679451179
 21
301.1260535645036
 31
0.0
  0
LINE
  5
E3
330
1F
100
AcDbEntity
  8
3-6
  6
Continuous
 62
     6
370
     9
100
AcDbLine
 10
3300.559548026386
 20
175.5267625678167
 30
0.0
 11
3473.298679451179
 21
348.2669805443814
 31
0.0
  0
LINE
  5
E4
330
1F
100
AcDbEntity
  8
3-6
  6
Continuous
 62
     6
370
     9
100
AcDbLine
 10
3200.039683898757
 20
-241.1401996519717
 30
0.0
 11
3473.298679451179
 21
-241.1401996519717
 31
0.0
  0
LINE
  5
E5
330
1F
100
AcDbEntity
  8
3-2
  6
JWW_DASHED2
 62
     3
370
     9
100
AcDbLine
 10
3058.374226937889
 20
348.8586662488413
 30
0.0
 11
3055.040717647348
 21
348.8586662488413
 31
0.0
  0
LINE
  5
E6
330
1F
100
AcDbEntity
  8
3-2
  6
JWW_DASHED2
 62
     3
370
     9
100
AcDbLine
 10
3018.374094969984
 20
348.8586662488413
 30
0.0
 11
2990.040503199502
 21
348.8586662488413
 31
0.0
  0
LINE
  5
E7
330
1F
100
AcDbEntity
  8
3-2
  6
JWW_DASHED2
 62
     3
370
     9
100
AcDbLine
 10
3028.20883816044
 20
260.3411524581952
 30
0.0
 11
3018.374094969984
 21
348.8586662488413
 31
0.0
  0
LINE
  5
E8
330
1F
100
AcDbEntity
  8
3-2
  6
JWW_DASHED2
 62
     3
370
     9
100
AcDbLine
 10
3043.548869964705
 20
258.8588642006997
 30
0.0
 11
3029.865447772982
 21
258.8588642006997
 31
0.0
  0
LINE
  5
E9
330
1F
100
AcDbEntity
  8
3-2
  6
JWW_DASHED2
 62
     3
370
     9
100
AcDbLine
 10
3045.204984697602
 20
260.3411524581952
 30
0.0
 11
3055.040717647348
 21
348.8586662488413
 31
0.0
  0
LINE
  5
EA
330
1F
100
AcDbEntity
  8
3-2
  6
JWW_DASHED2
 62
     3
370
     9
100
AcDbLine
 10
3018.106117642069
 20
364.1855837425069
 30
0.0
 11
3015.041080559088
 21
348.8586662488413
 31
0.0
  0
LINE
  5
EB
330
1F
100
AcDbEntity
  8
3-2
  6
JWW_DASHED2
 62
     3
370
     9
100
AcDbLine
 10
3053.674107506935
 20
365.5252229422535
 30
0.0
 11
3019.740210230752
 21
365.5252229422535
 31
0.0
  0
LINE
  5
EC
330
1F
100
AcDbEntity
  8
3-2
  6
JWW_DASHED2
 62
     3
370
     9
100
AcDbLine
 10
3055.309189854907
 20
364.1855837425069
 30
0.0
 11
3058.374226937889
 21
348.8586662488413
 31
0.0
  0
LINE
  5
ED
330
1F
100
AcDbEntity
  8
3-2
  6
JWW_DASHED2
 62
     3
370
     9
100
AcDbLine
 10
2990.308975407061
 20
364.1857074624181
 30
0.0
 11
2993.374754809511
 21
348.8586662488413
 31
0.0
  0
LINE
  5
EE
330
1F
100
AcDbEntity
  8
3-2
  6
JWW_DASHED2
 62
     3
370
     9
100
AcDbLine
 10
2980.44651895647
 20
323.273636028191
 30
0.0
 11
2990.040503199502
 21
348.8586662488413
 31
0.0
  0
LINE
  5
EF
330
1F
100
AcDbEntity
  8
3-2
  6
JWW_DASHED2
 62
     3
370
     9
100
AcDbLine
 10
2964.529457485819
 20
322.1920765634528
 30
0.0
 11
2978.88591599511
 21
322.1920765634528
 31
0.0
  0
LINE
  5
F0
330
1F
100
AcDbEntity
  8
3-2
  6
JWW_DASHED2
 62
     3
370
     9
100
AcDbLine
 10
2962.968607084637
 20
323.273636028191
 30
0.0
 11
2953.373880522137
 21
348.8586662488413
 31
0.0
  0
ARC
  5
F1
330
1F
100
AcDbEntity
  8
3-2
  6
JWW_DASHED2
 62
     3
370
     9
100
AcDbCircle
 10
3029.865447772982
 20
260.5252476862358
 30
0.0
 40
1.666666688145818
100
AcDbArc
 50
186.3410797119141
 51
270.0
  0
ARC
  5
F2
330
1F
100
AcDbEntity
  8
3-2
  6
JWW_DASHED2
 62
     3
370
     9
100
AcDbCircle
 10
3043.548869964705
 20
260.5252476862358
 30
0.0
 40
1.666666688145818
100
AcDbArc
 50
270.0
 51
353.6589202880859
  0
ARC
  5
F3
330
1F
100
AcDbEntity
  8
3-2
  6
JWW_DASHED2
 62
     3
370
     9
100
AcDbCircle
 10
3019.740210230752
 20
363.8584682969832
 30
0.0
 40
1.666666688145818
100
AcDbArc
 50
90.0
 51
168.6900634765625
  0
ARC
  5
F4
330
1F
100
AcDbEntity
  8
3-2
  6
JWW_DASHED2
 62
     3
370
     9
100
AcDbCircle
 10
3053.674107506935
 20
363.8584682969832
 30
0.0
 40
1.666666688145818
100
AcDbArc
 50
11.30836486816406
 51
90.0
  0
ARC
  5
F5
330
1F
100
AcDbEntity
  8
3-2
  6
JWW_DASHED2
 62
     3
370
     9
100
AcDbCircle
 10
2988.674635378556
 20
363.8584682969832
 30
0.0
 40
1.666666688145818
100
AcDbArc
 50
11.31385803222656
 51
90.0
  0
ARC
  5
F6
330
1F
100
AcDbEntity
  8
3-2
  6
JWW_DASHED2
 62
     3
370
     9
100
AcDbCircle
 10
2978.88591599511
 20
323.8585837689004
 30
0.0
 40
1.666666688145818
100
AcDbArc
 50
270.0
 51
339.4458312988281
  0
ARC
  5
F7
330
1F
100
AcDbEntity
  8
3-2
  6
JWW_DASHED2
 62
     3
370
     9
100
AcDbCircle
 10
2964.529457485819
 20
323.8585837689004
 30
0.0
 40
1.666666688145818
100
AcDbArc
 50
200.5569763183594
 51
270.0
  0
LINE
  5
F8
330
1F
100
AcDbEntity
  8
3-2
  6
JWW_DASHED2
 62
     3
370
     9
100
AcDbLine
 10
2897.969134956259
 20
323.273636028191
 30
0.0
 11
2888.374160953936
 21
348.8586662488413
 31
0.0
  0
LINE
  5
F9
330
1F
100
AcDbEntity
  8
3-2
  6
JWW_DASHED2
 62
     3
370
     9
100
AcDbLine
 10
2888.106431065845
 20
364.1855837425069
 30
0.0
 11
2885.041641422686
 21
348.8586662488413
 31
0.0
  0
ARC
  5
FA
330
1F
100
AcDbEntity
  8
3-2
  6
JWW_DASHED2
 62
     3
370
     9
100
AcDbCircle
 10
2889.740276214705
 20
363.8584682969832
 30
0.0
 40
1.666666688145818
100
AcDbArc
 50
90.0
 51
168.6900634765625
  0
LINE
  5
FB
330
1F
100
AcDbEntity
  8
3-2
  6
JWW_DASHED2
 62
     3
370
     9
100
AcDbLine
 10
2889.740276214705
 20
365.5252229422535
 30
0.0
 11
2923.674915810355
 21
365.5252229422535
 31
0.0
  0
LINE
  5
FC
330
1F
100
AcDbEntity
  8
3-2
  6
JWW_DASHED2
 62
     3
370
     9
100
AcDbLine
 10
2925.309008399038
 20
364.1857074624181
 30
0.0
 11
2928.374540361664
 21
348.8586662488413
 31
0.0
  0
ARC
  5
FD
330
1F
100
AcDbEntity
  8
3-2
  6
JWW_DASHED2
 62
     3
370
     9
100
AcDbCircle
 10
2923.674915810355
 20
363.8584682969832
 30
0.0
 40
1.666666688145818
100
AcDbArc
 50
11.31385803222656
 51
90.0
  0
LINE
  5
FE
330
1F
100
AcDbEntity
  8
3-2
  6
JWW_DASHED2
 62
     3
370
     9
100
AcDbLine
 10
2953.373880522137
 20
348.8586662488413
 30
0.0
 11
2925.040783631302
 21
348.8586662488413
 31
0.0
  0
LINE
  5
FF
330
1F
100
AcDbEntity
  8
3-2
  6
JWW_DASHED2
 62
     3
370
     9
100
AcDbLine
 10
2915.447046828092
 20
323.273636028191
 30
0.0
 11
2925.040783631302
 21
348.8586662488413
 31
0.0
  0
ARC
  5
100
330
1F
100
AcDbEntity
  8
3-2
  6
JWW_DASHED2
 62
     3
370
     9
100
AcDbCircle
 10
2913.886196426909
 20
323.8585837689004
 30
0.0
 40
1.666666688145818
100
AcDbArc
 50
270.0
 51
339.4458312988281
  0
LINE
  5
101
330
1F
100
AcDbEntity
  8
3-2
  6
JWW_DASHED2
 62
     3
370
     9
100
AcDbLine
 10
2899.529737917619
 20
322.1920765634528
 30
0.0
 11
2913.886196426909
 21
322.1920765634528
 31
0.0
  0
ARC
  5
102
330
1F
100
AcDbEntity
  8
3-2
  6
JWW_DASHED2
 62
     3
370
     9
100
AcDbCircle
 10
2899.529737917619
 20
323.8585837689004
 30
0.0
 40
1.666666688145818
100
AcDbArc
 50
200.5569763183594
 51
270.0
  0
LINE
  5
103
330
1F
100
AcDbEntity
  8
3-2
  6
JWW_DASHED2
 62
     3
370
     9
100
AcDbLine
 10
2953.105903194223
 20
364.1855837425069
 30
0.0
 11
2950.041360990887
 21
348.8586662488413
 31
0.0
  0
ARC
  5
104
330
1F
100
AcDbEntity
  8
3-2
  6
JWW_DASHED2
 62
     3
370
     9
100
AcDbCircle
 10
2954.740490662552
 20
363.8584682969832
 30
0.0
 40
1.666666688145818
100
AcDbArc
 50
90.0
 51
168.6900634765625
  0
LINE
  5
105
330
1F
100
AcDbEntity
  8
3-2
  6
JWW_DASHED2
 62
     3
370
     9
100
AcDbLine
 10
2988.674635378556
 20
365.5252229422535
 30
0.0
 11
2954.740490662552
 21
365.5252229422535
 31
0.0
  0
LINE
  5
106
330
1F
100
AcDbEntity
  8
3-2
  6
JWW_DASHED2
 62
     3
370
     9
100
AcDbLine
 10
2715.919534665268
 20
265.5253879021353
 30
0.0
 11
3027.633540572813
 21
265.5253879021353
 31
0.0
  0
LINE
  5
107
330
1F
100
AcDbEntity
  8
3-2
  6
JWW_DASHED2
 62
     3
370
     9
100
AcDbLine
 10
2832.969415388058
 20
323.273636028191
 30
0.0
 11
2823.374441385735
 21
348.8586662488413
 31
0.0
  0
LINE
  5
108
330
1F
100
AcDbEntity
  8
3-2
  6
JWW_DASHED2
 62
     3
370
     9
100
AcDbLine
 10
2823.106711497644
 20
364.1855837425069
 30
0.0
 11
2820.041921854485
 21
348.8586662488413
 31
0.0
  0
ARC
  5
109
330
1F
100
AcDbEntity
  8
3-2
  6
JWW_DASHED2
 62
     3
370
     9
100
AcDbCircle
 10
2824.740556646504
 20
363.8584682969832
 30
0.0
 40
1.666666688145818
100
AcDbArc
 50
90.0
 51
168.6900634765625
  0
LINE
  5
10A
330
1F
100
AcDbEntity
  8
3-2
  6
JWW_DASHED2
 62
     3
370
     9
100
AcDbLine
 10
2824.740556646504
 20
365.5252229422535
 30
0.0
 11
2858.675196242154
 21
365.5252229422535
 31
0.0
  0
LINE
  5
10B
330
1F
100
AcDbEntity
  8
3-2
  6
JWW_DASHED2
 62
     3
370
     9
100
AcDbLine
 10
2860.309288830837
 20
364.1857074624181
 30
0.0
 11
2863.374820793463
 21
348.8586662488413
 31
0.0
  0
ARC
  5
10C
330
1F
100
AcDbEntity
  8
3-2
  6
JWW_DASHED2
 62
     3
370
     9
100
AcDbCircle
 10
2858.675196242154
 20
363.8584682969832
 30
0.0
 40
1.666666688145818
100
AcDbArc
 50
11.31385803222656
 51
90.0
  0
LINE
  5
10D
330
1F
100
AcDbEntity
  8
3-2
  6
JWW_DASHED2
 62
     3
370
     9
100
AcDbLine
 10
2850.44732725989
 20
323.273636028191
 30
0.0
 11
2860.0410640631
 21
348.8586662488413
 31
0.0
  0
ARC
  5
10E
330
1F
100
AcDbEntity
  8
3-2
  6
JWW_DASHED2
 62
     3
370
     9
100
AcDbCircle
 10
2848.886476858708
 20
323.8585837689004
 30
0.0
 40
1.666666688145818
100
AcDbArc
 50
270.0
 51
339.4458312988281
  0
LINE
  5
10F
330
1F
100
AcDbEntity
  8
3-2
  6
JWW_DASHED2
 62
     3
370
     9
100
AcDbLine
 10
2834.530018349417
 20
322.1920765634528
 30
0.0
 11
2848.886476858708
 21
322.1920765634528
 31
0.0
  0
ARC
  5
110
330
1F
100
AcDbEntity
  8
3-2
  6
JWW_DASHED2
 62
     3
370
     9
100
AcDbCircle
 10
2834.530018349417
 20
323.8585837689004
 30
0.0
 40
1.666666688145818
100
AcDbArc
 50
200.5569763183594
 51
270.0
  0
LINE
  5
111
330
1F
100
AcDbEntity
  8
3-2
  6
JWW_DASHED2
 62
     3
370
     9
100
AcDbLine
 10
2767.969695819857
 20
323.273636028191
 30
0.0
 11
2758.374721817534
 21
348.8586662488413
 31
0.0
  0
LINE
  5
112
330
1F
100
AcDbEntity
  8
3-2
  6
JWW_DASHED2
 62
     3
370
     9
100
AcDbLine
 10
2758.106991929443
 20
364.1855837425069
 30
0.0
 11
2755.042202286284
 21
348.8586662488413
 31
0.0
  0
ARC
  5
113
330
1F
100
AcDbEntity
  8
3-2
  6
JWW_DASHED2
 62
     3
370
     9
100
AcDbCircle
 10
2759.740837078303
 20
363.8584682969832
 30
0.0
 40
1.666666688145818
100
AcDbArc
 50
90.0
 51
168.6900634765625
  0
LINE
  5
114
330
1F
100
AcDbEntity
  8
3-2
  6
JWW_DASHED2
 62
     3
370
     9
100
AcDbLine
 10
2759.740837078303
 20
365.5252229422535
 30
0.0
 11
2793.675476673953
 21
365.5252229422535
 31
0.0
  0
LINE
  5
115
330
1F
100
AcDbEntity
  8
3-2
  6
JWW_DASHED2
 62
     3
370
     9
100
AcDbLine
 10
2795.309569262636
 20
364.1857074624181
 30
0.0
 11
2798.375101225262
 21
348.8586662488413
 31
0.0
  0
ARC
  5
116
330
1F
100
AcDbEntity
  8
3-2
  6
JWW_DASHED2
 62
     3
370
     9
100
AcDbCircle
 10
2793.675476673953
 20
363.8584682969832
 30
0.0
 40
1.666666688145818
100
AcDbArc
 50
11.31385803222656
 51
90.0
  0
LINE
  5
117
330
1F
100
AcDbEntity
  8
3-2
  6
JWW_DASHED2
 62
     3
370
     9
100
AcDbLine
 10
2785.447607691689
 20
323.273636028191
 30
0.0
 11
2795.041344494899
 21
348.8586662488413
 31
0.0
  0
ARC
  5
118
330
1F
100
AcDbEntity
  8
3-2
  6
JWW_DASHED2
 62
     3
370
     9
100
AcDbCircle
 10
2783.886757290507
 20
323.8585837689004
 30
0.0
 40
1.666666688145818
100
AcDbArc
 50
270.0
 51
339.4458312988281
  0
LINE
  5
119
330
1F
100
AcDbEntity
  8
3-2
  6
JWW_DASHED2
 62
     3
370
     9
100
AcDbLine
 10
2769.530298781217
 20
322.1920765634528
 30
0.0
 11
2783.886757290507
 21
322.1920765634528
 31
0.0
  0
ARC
  5
11A
330
1F
100
AcDbEntity
  8
3-2
  6
JWW_DASHED2
 62
     3
370
     9
100
AcDbCircle
 10
2769.530298781217
 20
323.8585837689004
 30
0.0
 40
1.666666688145818
100
AcDbArc
 50
200.5569763183594
 51
270.0
  0
LINE
  5
11B
330
1F
100
AcDbEntity
  8
3-2
  6
JWW_DASHED2
 62
     3
370
     9
100
AcDbLine
 10
2795.041344494899
 20
348.8586662488413
 30
0.0
 11
2823.374441385735
 21
348.8586662488413
 31
0.0
  0
LINE
  5
11C
330
1F
100
AcDbEntity
  8
3-2
  6
JWW_DASHED2
 62
     3
370
     9
100
AcDbLine
 10
2860.0410640631
 20
348.8586662488413
 30
0.0
 11
2888.374160953936
 21
348.8586662488413
 31
0.0
  0
LINE
  5
11D
330
1F
100
AcDbEntity
  8
3-2
  6
JWW_DASHED2
 62
     3
370
     9
100
AcDbLine
 10
2758.374721817534
 20
348.8586662488413
 30
0.0
 11
2724.810006153416
 21
348.8586662488413
 31
0.0
  0
LINE
  5
11E
330
1F
100
AcDbEntity
  8
3-4
  6
Continuous
 62
     7
370
     9
100
AcDbLine
 10
3589.425857981584
 20
42.19309931471969
 30
0.0
 11
3589.425857981584
 21
375.5268175544438
 31
0.0
  0
LINE
  5
11F
330
1F
100
AcDbEntity
  8
3-4
  6
Continuous
 62
     7
370
     9
100
AcDbLine
 10
3589.425857981584
 20
42.19309931471969
 30
0.0
 11
3586.162703176083
 21
66.97922084906509
 31
0.0
  0
LINE
  5
120
330
1F
100
AcDbEntity
  8
3-4
  6
Continuous
 62
     7
370
     9
100
AcDbLine
 10
3589.425857981584
 20
42.19309931471969
 30
0.0
 11
3592.689012787086
 21
66.97922084906509
 31
0.0
  0
LINE
  5
121
330
1F
100
AcDbEntity
  8
3-4
  6
Continuous
 62
     7
370
     9
100
AcDbLine
 10
3589.425857981584
 20
375.5268175544438
 30
0.0
 11
3586.162703176083
 21
350.7406960200984
 31
0.0
  0
LINE
  5
122
330
1F
100
AcDbEntity
  8
3-4
  6
Continuous
 62
     7
370
     9
100
AcDbLine
 10
3589.425857981584
 20
375.5268175544438
 30
0.0
 11
3592.689012787086
 21
350.7406960200984
 31
0.0
  0
LINE
  5
123
330
1F
100
AcDbEntity
  8
3-4
  6
Continuous
 62
     7
370
     9
100
AcDbLine
 10
3592.425857981584
 20
375.5268175544438
 30
0.0
 11
3496.77064186229
 21
375.5268175544438
 31
0.0
  0
TEXT
  5
124
330
1F
100
AcDbEntity
  8
3-4
  6
Continuous
 62
     7
370
   211
100
AcDbText
 10
3577.785857981584
 20
176.3599584345818
 30
0.0
 40
30.48
  1
100
 50
90.0
 41
1.083333333333333
  7
ＭＳ ゴシック
100
AcDbText
  0
TEXT
  5
125
330
1F
100
AcDbEntity
  8
3-4
  6
Continuous
 62
     7
370
     0
100
AcDbText
 10
2843.307538705164
 20
-408.8881533339344
 30
0.0
 40
22.86
  1
クラッシャーラン基礎
 41
1.15
  7
ＭＳ ゴシック
100
AcDbText
  0
TEXT
  5
126
330
1F
100
AcDbEntity
  8
3-4
  6
Continuous
 62
     7
370
     0
100
AcDbText
 10
2909.141508053083
 20
-255.2755581887894
 30
0.0
 40
22.86
  1
コンクリート
 41
1.138888888888889
  7
ＭＳ ゴシック
100
AcDbText
  0
LINE
  5
127
330
1F
100
AcDbEntity
  8
3-4
  6
Continuous
 62
     7
370
     9
100
AcDbLine
 10
2958.373017232089
 20
-213.6585934685516
 30
0.0
 11
3075.039683898756
 21
-213.6585934685516
 31
0.0
  0
LINE
  5
128
330
1F
100
AcDbEntity
  8
3-4
  6
Continuous
 62
     7
370
     9
100
AcDbLine
 10
2958.373017232089
 20
-213.6585934685516
 30
0.0
 11
2983.159138766435
 21
-210.3954386630502
 31
0.0
  0
LINE
  5
129
330
1F
100
AcDbEntity
  8
3-4
  6
Continuous
 62
     7
370
     9
100
AcDbLine
 10
2958.373017232089
 20
-213.6585934685516
 30
0.0
 11
2983.159138766435
 21
-216.921748274053
 31
0.0
  0
LINE
  5
12A
330
1F
100
AcDbEntity
  8
3-4
  6
Continuous
 62
     7
370
     9
100
AcDbLine
 10
3075.039683898756
 20
-213.6585934685516
 30
0.0
 11
3050.253562364411
 21
-210.3954386630502
 31
0.0
  0
LINE
  5
12B
330
1F
100
AcDbEntity
  8
3-4
  6
Continuous
 62
     7
370
     9
100
AcDbLine
 10
3075.039683898756
 20
-213.6585934685516
 30
0.0
 11
3050.253562364411
 21
-216.921748274053
 31
0.0
  0
LINE
  5
12C
330
1F
100
AcDbEntity
  8
3-4
  6
Continuous
 62
     7
370
     9
100
AcDbLine
 10
2958.373017232089
 20
-216.6585934685517
 30
0.0
 11
2958.373017232089
 21
18.17378353219226
 31
0.0
  0
LINE
  5
12D
330
1F
100
AcDbEntity
  8
3-4
  6
Continuous
 62
     7
370
     9
100
AcDbLine
 10
3075.039683898756
 20
-216.6585934685517
 30
0.0
 11
3075.039683898756
 21
18.17378353219226
 31
0.0
  0
TEXT
  5
12E
330
1F
100
AcDbEntity
  8
3-4
  6
Continuous
 62
     7
370
   211
100
AcDbText
 10
2995.456350565423
 20
-202.0185934685517
 30
0.0
 40
30.48
  1
35
 41
1.0625
  7
ＭＳ ゴシック
100
AcDbText
  0
TEXT
  5
12F
330
1F
100
AcDbEntity
  8
3-4
  6
Continuous
 62
     7
370
     0
100
AcDbText
 10
3214.090897139693
 20
564.0096320212763
 30
0.0
 40
22.86
  1
受枠：L40X40X5
 41
1.154761904761905
  7
ＭＳ ゴシック
100
AcDbText
  0
TEXT
  5
130
330
1F
100
AcDbEntity
  8
3-4
  6
Continuous
 62
     7
370
     0
100
AcDbText
 10
3215.056627774132
 20
512.8259083959912
 30
0.0
 40
22.86
  1
SS400
 41
1.133333333333333
  7
ＭＳ ゴシック
100
AcDbText
  0
TEXT
  5
131
330
1F
100
AcDbEntity
  8
3-4
  6
Continuous
 62
     7
370
     0
100
AcDbText
 10
3321.286997562459
 20
513.7916390304304
 30
0.0
 40
22.86
  1
樹脂系塗装
 41
1.133333333333333
  7
ＭＳ ゴシック
100
AcDbText
  0
LINE
  5
132
330
1F
100
AcDbEntity
  8
3-4
  6
Continuous
 62
     7
370
     9
100
AcDbLine
 10
3199.466143582373
 20
548.5119792097271
 30
0.0
 11
3496.08424239598
 21
548.5119792097271
 31
0.0
  0
LINE
  5
133
330
1F
100
AcDbEntity
  8
3-5
  6
Continuous
 62
     7
370
     9
100
AcDbLine
 10
3199.466143582373
 20
548.5119792097271
 30
0.0
 11
3079.8555801055
 21
340.3976240453665
 31
0.0
  0
LINE
  5
134
330
1F
100
AcDbEntity
  8
3-4
  6
Continuous
 62
     7
370
     9
100
AcDbLine
 10
2958.373017232089
 20
498.4454650249737
 30
0.0
 11
3136.755944785164
 21
498.4454650249737
 31
0.0
  0
LINE
  5
135
330
1F
100
AcDbEntity
  8
3-4
  6
Continuous
 62
     7
370
     9
100
AcDbLine
 10
3058.374226937889
 20
498.4454650249737
 30
0.0
 11
3033.588105403544
 21
501.708619830475
 31
0.0
  0
LINE
  5
136
330
1F
100
AcDbEntity
  8
3-4
  6
Continuous
 62
     7
370
     9
100
AcDbLine
 10
3058.374226937889
 20
498.4454650249737
 30
0.0
 11
3033.588105403544
 21
495.1823102194723
 31
0.0
  0
LINE
  5
137
330
1F
100
AcDbEntity
  8
3-4
  6
Continuous
 62
     7
370
     9
100
AcDbLine
 10
3058.374226937889
 20
501.4454650249738
 30
0.0
 11
3058.374226937889
 21
388.7058134497829
 31
0.0
  0
TEXT
  5
138
330
1F
100
AcDbEntity
  8
3-4
  6
Continuous
 62
     7
370
   211
100
AcDbText
 10
2987.123622084989
 20
510.0854650249736
 30
0.0
 40
30.48
  1
30
 41
1.0625
  7
ＭＳ ゴシック
100
AcDbText
  0
LINE
  5
139
330
1F
100
AcDbEntity
  8
3-4
  6
Continuous
 62
     7
370
     9
100
AcDbLine
 10
3075.041598228113
 20
501.4454650249738
 30
0.0
 11
3075.041598228113
 21
388.7058134497829
 31
0.0
  0
TEXT
  5
13A
330
1F
100
AcDbEntity
  8
3-4
  6
Continuous
 62
     7
370
   211
100
AcDbText
 10
3056.707912583001
 20
510.0854650249736
 30
0.0
 40
30.48
  1
5
 41
0.9999999999999998
  7
ＭＳ ゴシック
100
AcDbText
  0
LINE
  5
13B
330
1F
100
AcDbEntity
  8
3-4
  6
Continuous
 62
     7
370
     9
100
AcDbLine
 10
3091.706955418322
 20
501.4454650249738
 30
0.0
 11
3091.706955418322
 21
388.7058134497829
 31
0.0
  0
LINE
  5
13C
330
1F
100
AcDbEntity
  8
3-4
  6
Continuous
 62
     7
370
     9
100
AcDbLine
 10
3091.706955418322
 20
498.4454650249737
 30
0.0
 11
3116.493076952668
 21
495.1823102194723
 31
0.0
  0
LINE
  5
13D
330
1F
100
AcDbEntity
  8
3-4
  6
Continuous
 62
     7
370
     9
100
AcDbLine
 10
3091.706955418322
 20
498.4454650249737
 30
0.0
 11
3116.493076952668
 21
501.708619830475
 31
0.0
  0
TEXT
  5
13E
330
1F
100
AcDbEntity
  8
3-4
  6
Continuous
 62
     7
370
   211
100
AcDbText
 10
3096.655158859881
 20
510.8713093023372
 30
0.0
 40
30.48
  1
5
 41
0.9999999999999998
  7
ＭＳ ゴシック
100
AcDbText
  0
LWPOLYLINE
  5
13F
330
1F
100
AcDbEntity
  8
3-5
  6
Continuous
 62
     7
370
     9
100
AcDbPolyline
 90
        4
 70
     1
 43
1.0
 10
3075.541598228113
 20
498.4454650249737
 42
0.4142135623731
 10
3075.041598228113
 20
498.9454650249736
 42
0.4142135623731
 10
3074.541598228113
 20
498.4454650249737
 42
0.4142135623731
 10
3075.041598228113
 20
497.9454650249737
 42
0.4142135623731
  0
LINE
  5
140
330
1F
100
AcDbEntity
  8
3-4
  6
Continuous
 62
     7
370
     9
100
AcDbLine
 10
2958.373017232089
 20
501.4454650249738
 30
0.0
 11
2958.373017232089
 21
294.7752150887564
 31
0.0
  0
LINE
  5
141
330
1F
100
AcDbEntity
  8
3-5
  6
Continuous
 62
     7
370
     9
100
AcDbLine
 10
2906.273289905271
 20
73.00964794684461
 30
0.0
 11
2993.442708114253
 21
163.9055372315303
 31
0.0
  0
LINE
  5
142
330
1F
100
AcDbEntity
  8
3-5
  6
Continuous
 62
     7
370
     9
100
AcDbLine
 10
2770.990881126398
 20
73.00964794684461
 30
0.0
 11
2906.273289905271
 21
73.00964794684461
 31
0.0
  0
TEXT
  5
143
330
1F
100
AcDbEntity
  8
3-4
  6
Continuous
 62
     7
370
     0
100
AcDbText
 10
2772.398561919888
 20
84.49782889131795
 30
0.0
 40
22.86
  1
モルタル
 41
1.125
  7
ＭＳ ゴシック
100
AcDbText
  0
TEXT
  5
144
330
1F
100
AcDbEntity
  8
3-4
  6
Continuous
 62
     6
370
     0
100
AcDbText
 10
3202.88699958836
 20
101.1959583047996
 30
0.0
 40
9.525
  1
・
  7
ＭＳ ゴシック
100
AcDbText
  0
LINE
  5
145
330
1F
100
AcDbEntity
  8
3-4
  6
Continuous
 62
     7
370
     9
100
AcDbLine
 10
3592.425857981584
 20
42.19309931471969
 30
0.0
 11
3140.459561033726
 21
42.19309931471969
 31
0.0
  0
LINE
  5
146
330
1F
100
AcDbEntity
  8
3-4
  6
Continuous
 62
     7
370
     9
100
AcDbLine
 10
3210.440837351244
 20
42.19309931471969
 30
0.0
 11
3210.440837351244
 21
375.5264326480531
 31
0.0
  0
LINE
  5
147
330
1F
100
AcDbEntity
  8
3-4
  6
Continuous
 62
     7
370
     9
100
AcDbLine
 10
3210.440837351244
 20
42.19309931471969
 30
0.0
 11
3207.177682545743
 21
66.97922084906509
 31
0.0
  0
LINE
  5
148
330
1F
100
AcDbEntity
  8
3-4
  6
Continuous
 62
     7
370
     9
100
AcDbLine
 10
3210.440837351244
 20
42.19309931471969
 30
0.0
 11
3213.703992156745
 21
66.97922084906509
 31
0.0
  0
LINE
  5
149
330
1F
100
AcDbEntity
  8
3-4
  6
Continuous
 62
     7
370
     9
100
AcDbLine
 10
3213.703992156745
 20
266.9788634359881
 30
0.0
 11
3207.177682545743
 21
217.4066203672973
 31
0.0
  0
LINE
  5
14A
330
1F
100
AcDbEntity
  8
3-4
  6
Continuous
 62
     7
370
     9
100
AcDbLine
 10
3207.177682545743
 20
266.9788634359881
 30
0.0
 11
3213.703992156745
 21
217.4066203672973
 31
0.0
  0
LINE
  5
14B
330
1F
100
AcDbEntity
  8
3-4
  6
Continuous
 62
     7
370
     9
100
AcDbLine
 10
3213.440837351244
 20
242.1927419016427
 30
0.0
 11
3140.459561033726
 21
242.1927419016427
 31
0.0
  0
TEXT
  5
14C
330
1F
100
AcDbEntity
  8
3-4
  6
Continuous
 62
     7
370
   211
100
AcDbText
 10
3198.800837351244
 20
120.9429206081813
 30
0.0
 40
30.48
  1
60
 50
90.0
 41
1.0625
  7
ＭＳ ゴシック
100
AcDbText
  0
LINE
  5
14D
330
1F
100
AcDbEntity
  8
3-4
  6
Continuous
 62
     7
370
     9
100
AcDbLine
 10
3210.440837351244
 20
375.5264326480531
 30
0.0
 11
3207.177682545743
 21
350.7403111137077
 31
0.0
  0
LINE
  5
14E
330
1F
100
AcDbEntity
  8
3-4
  6
Continuous
 62
     7
370
     9
100
AcDbLine
 10
3210.440837351244
 20
375.5264326480531
 30
0.0
 11
3213.703992156745
 21
350.7403111137077
 31
0.0
  0
LINE
  5
14F
330
1F
100
AcDbEntity
  8
3-4
  6
Continuous
 62
     7
370
     9
100
AcDbLine
 10
3213.440837351244
 20
375.5264326480531
 30
0.0
 11
3140.459561033726
 21
375.5264326480531
 31
0.0
  0
TEXT
  5
150
330
1F
100
AcDbEntity
  8
3-4
  6
Continuous
 62
     7
370
   211
100
AcDbText
 10
3198.800837351244
 20
287.6095872748479
 30
0.0
 40
30.48
  1
40
 50
90.0
 41
1.0625
  7
ＭＳ ゴシック
100
AcDbText
  0
TEXT
  5
151
330
1F
100
AcDbEntity
  8
3-4
  6
Continuous
 62
     7
370
     0
100
AcDbText
 10
3224.328578155908
 20
123.9918595399999
 30
0.0
 40
22.86
  1
サンドクッション
 41
1.145833333333333
  7
ＭＳ ゴシック
100
AcDbText
  0
TEXT
  5
152
330
1F
100
AcDbEntity
  8
3-4
  6
Continuous
 62
     7
370
     0
100
AcDbText
 10
3310.378685756046
 20
435.6832182595224
 30
0.0
 40
22.86
  1
インターロッキングブロック
 41
1.153846153846154
  7
ＭＳ ゴシック
100
AcDbText
  0
LINE
  5
153
330
1F
100
AcDbEntity
  8
3-4
  6
Continuous
 62
     7
370
     9
100
AcDbLine
 10
3307.828564149412
 20
422.2776902161669
 30
0.0
 11
3766.568020989726
 21
422.2776902161669
 31
0.0
  0
LINE
  5
154
330
1F
100
AcDbEntity
  8
3-5
  6
Continuous
 62
     7
370
     9
100
AcDbLine
 10
3307.828564149412
 20
422.2776902161669
 30
0.0
 11
3243.784927061013
 21
327.7059963448971
 31
0.0
  0
LINE
  5
155
330
1F
100
AcDbEntity
  8
3-5
  6
Continuous
 62
     7
370
     9
100
AcDbLine
 10
2571.75309228489
 20
-78.2488058129033
 30
0.0
 11
2828.208818989619
 21
-78.2488058129033
 31
0.0
  0
TEXT
  5
156
330
1F
100
AcDbEntity
  8
3-4
  6
Continuous
 62
     7
370
     0
100
AcDbText
 10
2580.220970053442
 20
-111.1161750846566
 30
0.0
 40
22.86
  1
Ｍ１２（別途）
 41
1.142857142857143
  7
ＭＳ ゴシック
100
AcDbText
  0
TEXT
  5
157
330
1F
100
AcDbEntity
  8
3-4
  6
Continuous
 62
     7
370
     0
100
AcDbText
 10
2581.833899152213
 20
-66.76062486842996
 30
0.0
 40
22.86
  1
アンカーボルト
 41
1.142857142857143
  7
ＭＳ ゴシック
100
AcDbText
  0
LINE
  5
158
330
1F
100
AcDbEntity
  8
3-5
  6
Continuous
 62
     7
370
     9
100
AcDbLine
 10
2828.208818989619
 20
-78.2488058129033
 30
0.0
 11
3033.37301723209
 21
72.27457569642667
 31
0.0
  0
TEXT
  5
159
330
1F
100
AcDbEntity
  8
3-4
  6
Continuous
 62
     6
370
     0
100
AcDbText
 10
2985.498623428021
 20
196.8338274679504
 30
0.0
 40
19.05
  1
・
  7
ＭＳ ゴシック
100
AcDbText
  0
TEXT
  5
15A
330
1F
100
AcDbEntity
  8
3-4
  6
Continuous
 62
     6
370
     0
100
AcDbText
 10
2981.844328291234
 20
107.5646176978587
 30
0.0
 40
19.05
  1
・
  7
ＭＳ ゴシック
100
AcDbText
  0
TEXT
  5
15B
330
1F
100
AcDbEntity
  8
3-4
  6
Continuous
 62
     6
370
     0
100
AcDbText
 10
3004.814183436754
 20
154.5484123136964
 30
0.0
 40
19.05
  1
・
  7
ＭＳ ゴシック
100
AcDbText
  0
TEXT
  5
15C
330
1F
100
AcDbEntity
  8
3-4
  6
Continuous
 62
     6
370
     0
100
AcDbText
 10
3030.916291556664
 20
201.0101647671359
 30
0.0
 40
19.05
  1
・
  7
ＭＳ ゴシック
100
AcDbText
  0
TEXT
  5
15D
330
1F
100
AcDbEntity
  8
3-4
  6
Continuous
 62
     6
370
     0
100
AcDbText
 10
3051.797978052592
 20
128.4463041937864
 30
0.0
 40
19.05
  1
・
  7
ＭＳ ゴシック
100
AcDbText
  0
TEXT
  5
15E
330
1F
100
AcDbEntity
  8
3-4
  6
Continuous
 62
     6
370
     0
100
AcDbText
 10
3060.672694813361
 20
175.9521409720225
 30
0.0
 40
19.05
  1
・
  7
ＭＳ ゴシック
100
AcDbText
  0
LINE
  5
15F
330
1F
100
AcDbEntity
  8
3-5
  6
Continuous
 62
     7
370
     9
100
AcDbLine
 10
2787.053062514638
 20
-682.6543968799992
 30
0.0
 11
3238.813696069547
 21
-682.6543968799992
 31
0.0
  0
TEXT
  5
160
330
1F
100
AcDbEntity
  8
3-0
  6
Continuous
 62
     7
370
     9
100
AcDbText
 10
2794.843047480929
 20
-665.420326773619
 30
0.0
 40
30.48
  1
納まり図　Ｓ＝１：３
 41
1.1125
  7
ＭＳ ゴシック
100
AcDbText
  0
TEXT
  5
161
330
1F
100
AcDbEntity
  8
3-5
  6
Continuous
 62
     3
370
     9
100
AcDbText
 10
2550.726488243469
 20
-832.7571131141112
 30
0.0
 40
45.72
  1
蓋とセットの図面のときにご利用下さい
 41
1.157407407407407
  7
ＭＳ ゴシック
100
AcDbText
  0
TEXT
  5
162
330
1F
100
AcDbEntity
  8
F-Eﾚｲﾔ
  6
Continuous
 62
     7
370
     9
100
AcDbText
 10
-718.0459422930056
 20
-1324.942218521105
 30
0.0
 40
30.48
  1
丸型用　インターロッキングブロック用
 41
1.118055555555555
  7
ＭＳ ゴシック
100
AcDbText
  0
TEXT
  5
163
330
1F
100
AcDbEntity
  8
F-Eﾚｲﾔ
  6
Continuous
 62
     7
370
     9
100
AcDbText
 10
-275.8764538738126
 20
-1373.24783010445
 30
0.0
 40
30.48
  1
スチール製受枠　RH-E-1200
 41
1.12
  7
ＭＳ ゴシック
100
AcDbText
  0
LINE
  5
164
330
1F
100
AcDbEntity
  8
3-0
  6
JWW_CENTER1
 62
     4
370
     9
100
AcDbLine
 10
726.6156643099686
 20
1171.348448526861
 30
0.0
 11
646.616022508569
 21
1171.348448526861
 31
0.0
  0
LINE
  5
165
330
1F
100
AcDbEntity
  8
3-0
  6
JWW_CENTER1
 62
     4
370
     9
100
AcDbLine
 10
686.6158434092686
 20
1131.34909422697
 30
0.0
 11
686.6158434092686
 21
1211.348736028369
 31
0.0
  0
LINE
  5
166
330
1F
100
AcDbEntity
  8
3-0
  6
JWW_DASHED1
 62
     3
370
     9
100
AcDbLine
 10
936.6161275723028
 20
1224.681912453434
 30
0.0
 11
936.6161275723028
 21
1118.015567851298
 31
0.0
  0
LINE
  5
167
330
1F
100
AcDbEntity
  8
3-0
  6
Continuous
 62
     3
370
     9
100
AcDbLine
 10
769.9491184175009
 20
1104.681983150526
 30
0.0
 11
769.9491184175009
 21
1238.015497154206
 31
0.0
  0
ARC
  5
168
330
1F
100
AcDbEntity
  8
3-0
  6
Continuous
 62
     3
370
     9
100
AcDbCircle
 10
769.9491184175009
 20
-2128.650715480023
 30
0.0
 40
3233.333398531763
100
AcDbArc
 50
85.29232788085938
 51
95.37037658691408
  0
ARC
  5
169
330
1F
100
AcDbEntity
  8
3-0
  6
Continuous
 62
     3
370
     9
100
AcDbCircle
 10
769.9491184175009
 20
-2128.650715480023
 30
0.0
 40
3366.666679235038
100
AcDbArc
 50
85.47917175292969
 51
95.15708923339844
  0
ARC
  5
16A
330
1F
100
AcDbEntity
  8
3-0
  6
Continuous
 62
     3
370
     9
100
AcDbCircle
 10
769.9491184175009
 20
-2128.650715480023
 30
0.0
 40
3349.999931659477
100
AcDbArc
 50
85.45663452148438
 51
95.18283081054689
  0
LINE
  5
16B
330
1F
100
AcDbEntity
  8
3-0
  6
JWW_DASHED1
 62
     3
370
     9
100
AcDbLine
 10
936.6161275723028
 20
1224.681912453434
 30
0.0
 11
603.2824517508343
 21
1224.681912453434
 31
0.0
  0
LINE
  5
16C
330
1F
100
AcDbEntity
  8
3-0
  6
JWW_DASHED1
 62
     3
370
     9
100
AcDbLine
 10
603.2824517508343
 20
1118.015567851298
 30
0.0
 11
603.2824517508343
 21
1224.681912453434
 31
0.0
  0
LINE
  5
16D
330
1F
100
AcDbEntity
  8
3-0
  6
JWW_DASHED1
 62
     3
370
     9
100
AcDbLine
 10
936.6161275723028
 20
1118.015567851298
 30
0.0
 11
603.2824517508343
 21
1118.015567851298
 31
0.0
  0
LINE
  5
16E
330
1F
100
AcDbEntity
  8
3-0
  6
Continuous
 62
     4
370
     9
100
AcDbLine
 10
473.9235675457584
 20
1164.730707586458
 30
0.0
 11
467.3297982218867
 21
1160.923711590741
 31
0.0
  0
LINE
  5
16F
330
1F
100
AcDbEntity
  8
3-0
  6
Continuous
 62
     4
370
     9
100
AcDbLine
 10
467.3297982218867
 20
1233.311227803941
 30
0.0
 11
467.3297982218867
 21
1160.923711590741
 31
0.0
  0
LINE
  5
170
330
1F
100
AcDbEntity
  8
3-0
  6
Continuous
 62
     4
370
     9
100
AcDbLine
 10
460.7360288980147
 20
1141.88943151337
 30
0.0
 11
473.9235675457584
 21
1164.730707586458
 31
0.0
  0
LINE
  5
171
330
1F
100
AcDbEntity
  8
3-0
  6
Continuous
 62
     4
370
     9
100
AcDbLine
 10
460.7360288980147
 20
1141.88943151337
 30
0.0
 11
467.3297982218867
 21
1145.696194208683
 31
0.0
  0
LINE
  5
172
330
1F
100
AcDbEntity
  8
3-0
  6
Continuous
 62
     4
370
     9
100
AcDbLine
 10
467.3297982218867
 20
1145.696194208683
 30
0.0
 11
467.3297982218867
 21
1073.309144596291
 31
0.0
  0
LINE
  5
173
330
1F
100
AcDbEntity
  8
3-0
  6
Continuous
 62
     4
370
     9
100
AcDbLine
 10
1041.908566094112
 20
1164.730707586458
 30
0.0
 11
1035.31479677024
 21
1160.923711590741
 31
0.0
  0
LINE
  5
174
330
1F
100
AcDbEntity
  8
3-0
  6
Continuous
 62
     4
370
     9
100
AcDbLine
 10
1035.31479677024
 20
1233.311227803941
 30
0.0
 11
1035.31479677024
 21
1160.923711590741
 31
0.0
  0
LINE
  5
175
330
1F
100
AcDbEntity
  8
3-0
  6
Continuous
 62
     4
370
     9
100
AcDbLine
 10
1028.721027446368
 20
1141.88943151337
 30
0.0
 11
1041.908566094112
 21
1164.730707586458
 31
0.0
  0
LINE
  5
176
330
1F
100
AcDbEntity
  8
3-0
  6
Continuous
 62
     4
370
     9
100
AcDbLine
 10
1028.721027446368
 20
1141.88943151337
 30
0.0
 11
1035.31479677024
 21
1145.696194208683
 31
0.0
  0
LINE
  5
177
330
1F
100
AcDbEntity
  8
3-0
  6
Continuous
 62
     4
370
     9
100
AcDbLine
 10
1035.31479677024
 20
1145.696194208683
 30
0.0
 11
1035.31479677024
 21
1073.309144596291
 31
0.0
  0
LINE
  5
178
330
1F
100
AcDbEntity
  8
3-0
  6
Continuous
 62
     7
370
     9
100
AcDbLine
 10
695.6604334792494
 20
1162.30385845688
 30
0.0
 11
677.5710200388836
 21
1180.393271897246
 31
0.0
  0
LINE
  5
179
330
1F
100
AcDbEntity
  8
3-0
  6
Continuous
 62
     7
370
     9
100
AcDbLine
 10
677.5710200388836
 20
1162.30385845688
 30
0.0
 11
695.6604334792494
 21
1180.393271897246
 31
0.0
  0
CIRCLE
  5
17A
330
1F
100
AcDbEntity
  8
3-0
  6
Continuous
 62
     3
370
     9
100
AcDbCircle
 10
686.6158434092686
 20
1171.348681827265
 30
0.0
 40
28.33333333333334
  0
CIRCLE
  5
17B
330
1F
100
AcDbEntity
  8
3-0
  6
Continuous
 62
     7
370
     9
100
AcDbCircle
 10
686.6158434092686
 20
1171.348681827265
 30
0.0
 40
26.66666666666666
  0
LINE
  5
17C
330
1F
100
AcDbEntity
  8
3-0
  6
Continuous
 62
     3
370
     9
100
AcDbLine
 10
1418.679259232799
 20
898.6706676084746
 30
0.0
 11
1418.679259232799
 21
765.3373480217979
 31
0.0
  0
LINE
  5
17D
330
1F
100
AcDbEntity
  8
3-0
  6
Continuous
 62
     3
370
     9
100
AcDbLine
 10
1412.012735531363
 20
898.6706676084746
 30
0.0
 11
1418.679259232799
 21
898.6706676084746
 31
0.0
  0
LINE
  5
17E
330
1F
100
AcDbEntity
  8
3-0
  6
Continuous
 62
     3
370
     9
100
AcDbLine
 10
1285.346310805856
 20
772.0039954431454
 30
0.0
 11
1285.346310805856
 21
765.3373480217979
 31
0.0
  0
LINE
  5
17F
330
1F
100
AcDbEntity
  8
3-0
  6
Continuous
 62
     3
370
     9
100
AcDbLine
 10
1402.012702539387
 20
798.670585128534
 30
0.0
 11
1402.012702539387
 21
888.6706346164979
 31
0.0
  0
LINE
  5
180
330
1F
100
AcDbEntity
  8
3-0
  6
Continuous
 62
     3
370
     9
100
AcDbLine
 10
1298.679358208728
 20
765.3373480217979
 30
0.0
 11
1298.679358208728
 21
745.3374057577569
 31
0.0
  0
LINE
  5
181
330
1F
100
AcDbEntity
  8
3-0
  6
Continuous
 62
     3
370
     9
100
AcDbLine
 10
1298.679358208728
 20
745.3374057577569
 30
0.0
 11
1405.346211829928
 21
745.3374057577569
 31
0.0
  0
LINE
  5
182
330
1F
100
AcDbEntity
  8
3-0
  6
Continuous
 62
     3
370
     9
100
AcDbLine
 10
1405.346211829928
 20
765.3373480217979
 30
0.0
 11
1405.346211829928
 21
745.3374057577569
 31
0.0
  0
LINE
  5
183
330
1F
100
AcDbEntity
  8
3-0
  6
Continuous
 62
     3
370
     9
100
AcDbLine
 10
1405.346211829928
 20
765.3373480217979
 30
0.0
 11
1405.393720275874
 21
763.5241090015277
 31
0.0
  0
LINE
  5
184
330
1F
100
AcDbEntity
  8
3-0
  6
Continuous
 62
     3
370
     9
100
AcDbLine
 10
1405.393720275874
 20
763.5241090015277
 30
0.0
 11
1405.393720275874
 21
759.9728526670683
 31
0.0
  0
LINE
  5
185
330
1F
100
AcDbEntity
  8
3-0
  6
Continuous
 62
     3
370
     9
100
AcDbLine
 10
1405.393720275874
 20
759.9728526670683
 30
0.0
 11
1406.039043333306
 21
758.3586789841079
 31
0.0
  0
LINE
  5
186
330
1F
100
AcDbEntity
  8
3-0
  6
Continuous
 62
     3
370
     9
100
AcDbLine
 10
1406.039043333306
 20
758.3586789841079
 30
0.0
 11
1406.039043333306
 21
756.7445053011479
 31
0.0
  0
LINE
  5
187
330
1F
100
AcDbEntity
  8
3-0
  6
Continuous
 62
     3
370
     9
100
AcDbLine
 10
1406.039043333306
 20
756.7445053011479
 30
0.0
 11
1407.330679207462
 21
756.4215963326089
 31
0.0
  0
LINE
  5
188
330
1F
100
AcDbEntity
  8
3-0
  6
Continuous
 62
     3
370
     9
100
AcDbLine
 10
1407.330679207462
 20
756.4215963326089
 30
0.0
 11
1408.621820201972
 21
757.3901995183141
 31
0.0
  0
LINE
  5
189
330
1F
100
AcDbEntity
  8
3-0
  6
Continuous
 62
     3
370
     9
100
AcDbLine
 10
1408.621820201972
 20
757.3901995183141
 30
0.0
 11
1409.913456076127
 21
758.3586789841079
 31
0.0
  0
LINE
  5
18A
330
1F
100
AcDbEntity
  8
3-0
  6
Continuous
 62
     3
370
     9
100
AcDbLine
 10
1409.913456076127
 20
758.3586789841079
 30
0.0
 11
1410.55877913356
 21
759.9728526670683
 31
0.0
  0
LINE
  5
18B
330
1F
100
AcDbEntity
  8
3-0
  6
Continuous
 62
     3
370
     9
100
AcDbLine
 10
1410.55877913356
 20
759.9728526670683
 30
0.0
 11
1411.204597070637
 21
761.5871500699402
 31
0.0
  0
LINE
  5
18C
330
1F
100
AcDbEntity
  8
3-0
  6
Continuous
 62
     3
370
     9
100
AcDbLine
 10
1411.204597070637
 20
761.5871500699402
 30
0.0
 11
1411.204597070637
 21
763.2013237529006
 31
0.0
  0
LINE
  5
18D
330
1F
100
AcDbEntity
  8
3-0
  6
Continuous
 62
     3
370
     9
100
AcDbLine
 10
1411.204597070637
 20
763.2013237529006
 30
0.0
 11
1411.850415007715
 21
764.8153737159496
 31
0.0
  0
LINE
  5
18E
330
1F
100
AcDbEntity
  8
3-0
  6
Continuous
 62
     3
370
     9
100
AcDbLine
 10
1410.236117604843
 20
764.8153737159496
 30
0.0
 11
1413.141556002225
 21
764.8153737159496
 31
0.0
  0
LINE
  5
18F
330
1F
100
AcDbEntity
  8
3-0
  6
Continuous
 62
     3
370
     9
100
AcDbLine
 10
1410.236117604843
 20
764.8153737159496
 30
0.0
 11
1408.944481730688
 21
764.1698032186944
 31
0.0
  0
LINE
  5
190
330
1F
100
AcDbEntity
  8
3-0
  6
Continuous
 62
     3
370
     9
100
AcDbLine
 10
1408.944481730688
 20
764.1698032186944
 30
0.0
 11
1407.653340736178
 21
763.5241090015277
 31
0.0
  0
LINE
  5
191
330
1F
100
AcDbEntity
  8
3-0
  6
Continuous
 62
     3
370
     9
100
AcDbLine
 10
1407.653340736178
 20
763.5241090015277
 30
0.0
 11
1407.0075227991
 21
761.9099353185677
 31
0.0
  0
LINE
  5
192
330
1F
100
AcDbEntity
  8
3-0
  6
Continuous
 62
     3
370
     9
100
AcDbLine
 10
1407.0075227991
 20
761.9099353185677
 30
0.0
 11
1406.362199741668
 21
760.2956379156958
 31
0.0
  0
LINE
  5
193
330
1F
100
AcDbEntity
  8
3-0
  6
Continuous
 62
     3
370
     9
100
AcDbLine
 10
1406.362199741668
 20
760.2956379156958
 30
0.0
 11
1408.621820201972
 21
759.9728526670683
 31
0.0
  0
LINE
  5
194
330
1F
100
AcDbEntity
  8
3-0
  6
Continuous
 62
     3
370
     9
100
AcDbLine
 10
1408.621820201972
 20
759.9728526670683
 30
0.0
 11
1409.913456076127
 21
760.618546884235
 31
0.0
  0
LINE
  5
195
330
1F
100
AcDbEntity
  8
3-0
  6
Continuous
 62
     3
370
     9
100
AcDbLine
 10
1409.913456076127
 20
760.618546884235
 30
0.0
 11
1411.204597070637
 21
760.9414558527735
 31
0.0
  0
LINE
  5
196
330
1F
100
AcDbEntity
  8
3-0
  6
Continuous
 62
     3
370
     9
100
AcDbLine
 10
1411.204597070637
 20
760.9414558527735
 30
0.0
 11
1412.495738065147
 21
761.9099353185677
 31
0.0
  0
LINE
  5
197
330
1F
100
AcDbEntity
  8
3-0
  6
Continuous
 62
     3
370
     9
100
AcDbLine
 10
1412.495738065147
 20
761.9099353185677
 30
0.0
 11
1410.881935541921
 21
762.8784147843614
 31
0.0
  0
LINE
  5
198
330
1F
100
AcDbEntity
  8
3-0
  6
Continuous
 62
     3
370
     9
100
AcDbLine
 10
1410.881935541921
 20
762.8784147843614
 30
0.0
 11
1409.590299667766
 21
761.9099353185677
 31
0.0
  0
LINE
  5
199
330
1F
100
AcDbEntity
  8
3-0
  6
Continuous
 62
     3
370
     9
100
AcDbLine
 10
1409.590299667766
 20
761.9099353185677
 30
0.0
 11
1407.653340736178
 21
760.9414558527735
 31
0.0
  0
LINE
  5
19A
330
1F
100
AcDbEntity
  8
3-0
  6
Continuous
 62
     3
370
     9
100
AcDbLine
 10
1407.653340736178
 20
760.9414558527735
 30
0.0
 11
1406.362199741668
 21
759.0043732012746
 31
0.0
  0
LINE
  5
19B
330
1F
100
AcDbEntity
  8
3-0
  6
Continuous
 62
     3
370
     9
100
AcDbLine
 10
1406.362199741668
 20
759.0043732012746
 30
0.0
 11
1408.621820201972
 21
759.3271584499021
 31
0.0
  0
LINE
  5
19C
330
1F
100
AcDbEntity
  8
3-0
  6
Continuous
 62
     3
370
     9
100
AcDbLine
 10
1408.621820201972
 20
759.3271584499021
 30
0.0
 11
1409.913456076127
 21
760.2956379156958
 31
0.0
  0
LINE
  5
19D
330
1F
100
AcDbEntity
  8
3-0
  6
Continuous
 62
     3
370
     9
100
AcDbLine
 10
1409.913456076127
 20
760.2956379156958
 30
0.0
 11
1411.204597070637
 21
761.264241101401
 31
0.0
  0
LINE
  5
19E
330
1F
100
AcDbEntity
  8
3-0
  6
Continuous
 62
     3
370
     9
100
AcDbLine
 10
1411.204597070637
 20
761.264241101401
 30
0.0
 11
1409.590299667766
 21
760.9414558527735
 31
0.0
  0
LINE
  5
19F
330
1F
100
AcDbEntity
  8
3-0
  6
Continuous
 62
     3
370
     9
100
AcDbLine
 10
1409.590299667766
 20
760.9414558527735
 30
0.0
 11
1408.299158673256
 21
759.9728526670683
 31
0.0
  0
LINE
  5
1A0
330
1F
100
AcDbEntity
  8
3-0
  6
Continuous
 62
     3
370
     9
100
AcDbLine
 10
1408.299158673256
 20
759.9728526670683
 30
0.0
 11
1409.267638139049
 21
761.5871500699402
 31
0.0
  0
LINE
  5
1A1
330
1F
100
AcDbEntity
  8
3-0
  6
Continuous
 62
     3
370
     9
100
AcDbLine
 10
1409.267638139049
 20
761.5871500699402
 30
0.0
 11
1409.913456076127
 21
763.2013237529006
 31
0.0
  0
LINE
  5
1A2
330
1F
100
AcDbEntity
  8
3-0
  6
Continuous
 62
     3
370
     9
100
AcDbLine
 10
1409.913456076127
 20
763.2013237529006
 30
0.0
 11
1408.299158673256
 21
763.2013237529006
 31
0.0
  0
LINE
  5
1A3
330
1F
100
AcDbEntity
  8
3-0
  6
Continuous
 62
     3
370
     9
100
AcDbLine
 10
1408.299158673256
 20
763.2013237529006
 30
0.0
 11
1407.0075227991
 21
762.2327205671947
 31
0.0
  0
LINE
  5
1A4
330
1F
100
AcDbEntity
  8
3-0
  6
Continuous
 62
     3
370
     9
100
AcDbLine
 10
1407.0075227991
 20
762.2327205671947
 30
0.0
 11
1405.71638180459
 21
761.264241101401
 31
0.0
  0
LINE
  5
1A5
330
1F
100
AcDbEntity
  8
3-0
  6
Continuous
 62
     3
370
     9
100
AcDbLine
 10
1405.71638180459
 20
761.264241101401
 30
0.0
 11
1407.330679207462
 21
761.264241101401
 31
0.0
  0
LINE
  5
1A6
330
1F
100
AcDbEntity
  8
3-0
  6
Continuous
 62
     3
370
     9
100
AcDbLine
 10
1407.330679207462
 20
761.264241101401
 30
0.0
 11
1408.621820201972
 21
762.8784147843614
 31
0.0
  0
LINE
  5
1A7
330
1F
100
AcDbEntity
  8
3-0
  6
Continuous
 62
     3
370
     9
100
AcDbLine
 10
1408.621820201972
 20
762.8784147843614
 30
0.0
 11
1407.0075227991
 21
762.8784147843614
 31
0.0
  0
LINE
  5
1A8
330
1F
100
AcDbEntity
  8
3-0
  6
Continuous
 62
     3
370
     9
100
AcDbLine
 10
1407.0075227991
 20
762.8784147843614
 30
0.0
 11
1406.362199741668
 21
761.264241101401
 31
0.0
  0
LINE
  5
1A9
330
1F
100
AcDbEntity
  8
3-0
  6
Continuous
 62
     3
370
     9
100
AcDbLine
 10
1406.362199741668
 20
761.264241101401
 30
0.0
 11
1407.976497144539
 21
762.5555058158225
 31
0.0
  0
LINE
  5
1AA
330
1F
100
AcDbEntity
  8
3-0
  6
Continuous
 62
     3
370
     9
100
AcDbLine
 10
1407.976497144539
 20
762.5555058158225
 30
0.0
 11
1407.976497144539
 21
764.1698032186944
 31
0.0
  0
LINE
  5
1AB
330
1F
100
AcDbEntity
  8
3-0
  6
Continuous
 62
     3
370
     9
100
AcDbLine
 10
1407.976497144539
 20
764.1698032186944
 30
0.0
 11
1406.362199741668
 21
763.5241090015277
 31
0.0
  0
LINE
  5
1AC
330
1F
100
AcDbEntity
  8
3-0
  6
Continuous
 62
     3
370
     9
100
AcDbLine
 10
1406.362199741668
 20
763.5241090015277
 30
0.0
 11
1407.330679207462
 21
765.1381589645766
 31
0.0
  0
LINE
  5
1AD
330
1F
100
AcDbEntity
  8
3-0
  6
Continuous
 62
     3
370
     9
100
AcDbLine
 10
1407.330679207462
 20
765.1381589645766
 30
0.0
 11
1405.71638180459
 21
763.5241090015277
 31
0.0
  0
LINE
  5
1AE
330
1F
100
AcDbEntity
  8
3-0
  6
Continuous
 62
     3
370
     9
100
AcDbLine
 10
1405.71638180459
 20
763.5241090015277
 30
0.0
 11
1406.362199741668
 21
761.9099353185677
 31
0.0
  0
LINE
  5
1AF
330
1F
100
AcDbEntity
  8
3-0
  6
Continuous
 62
     3
370
     9
100
AcDbLine
 10
1406.362199741668
 20
761.9099353185677
 30
0.0
 11
1407.330679207462
 21
760.2956379156958
 31
0.0
  0
LINE
  5
1B0
330
1F
100
AcDbEntity
  8
3-0
  6
Continuous
 62
     3
370
     9
100
AcDbLine
 10
1407.330679207462
 20
760.2956379156958
 30
0.0
 11
1408.621820201972
 21
759.9728526670683
 31
0.0
  0
LINE
  5
1B1
330
1F
100
AcDbEntity
  8
3-0
  6
Continuous
 62
     3
370
     9
100
AcDbLine
 10
1408.621820201972
 20
759.9728526670683
 30
0.0
 11
1408.621820201972
 21
760.2956379156958
 31
0.0
  0
LINE
  5
1B2
330
1F
100
AcDbEntity
  8
3-0
  6
Continuous
 62
     3
370
     9
100
AcDbLine
 10
1298.679358208728
 20
765.3373480217979
 30
0.0
 11
1298.631849762782
 21
763.5241090015277
 31
0.0
  0
LINE
  5
1B3
330
1F
100
AcDbEntity
  8
3-0
  6
Continuous
 62
     3
370
     9
100
AcDbLine
 10
1298.631849762782
 20
763.5241090015277
 30
0.0
 11
1298.631849762782
 21
759.9728526670683
 31
0.0
  0
LINE
  5
1B4
330
1F
100
AcDbEntity
  8
3-0
  6
Continuous
 62
     3
370
     9
100
AcDbLine
 10
1298.631849762782
 20
759.9728526670683
 30
0.0
 11
1297.986031825705
 21
758.3586789841079
 31
0.0
  0
LINE
  5
1B5
330
1F
100
AcDbEntity
  8
3-0
  6
Continuous
 62
     3
370
     9
100
AcDbLine
 10
1297.986031825705
 20
758.3586789841079
 30
0.0
 11
1297.986031825705
 21
756.7445053011479
 31
0.0
  0
LINE
  5
1B6
330
1F
100
AcDbEntity
  8
3-0
  6
Continuous
 62
     3
370
     9
100
AcDbLine
 10
1297.986031825705
 20
756.7445053011479
 30
0.0
 11
1296.694395951549
 21
756.4215963326089
 31
0.0
  0
LINE
  5
1B7
330
1F
100
AcDbEntity
  8
3-0
  6
Continuous
 62
     3
370
     9
100
AcDbLine
 10
1296.694395951549
 20
756.4215963326089
 30
0.0
 11
1295.403254957039
 21
757.3901995183141
 31
0.0
  0
LINE
  5
1B8
330
1F
100
AcDbEntity
  8
3-0
  6
Continuous
 62
     3
370
     9
100
AcDbLine
 10
1295.403254957039
 20
757.3901995183141
 30
0.0
 11
1294.111619082883
 21
758.3586789841079
 31
0.0
  0
LINE
  5
1B9
330
1F
100
AcDbEntity
  8
3-0
  6
Continuous
 62
     3
370
     9
100
AcDbLine
 10
1294.111619082883
 20
758.3586789841079
 30
0.0
 11
1293.466296025451
 21
759.9728526670683
 31
0.0
  0
LINE
  5
1BA
330
1F
100
AcDbEntity
  8
3-0
  6
Continuous
 62
     3
370
     9
100
AcDbLine
 10
1293.466296025451
 20
759.9728526670683
 30
0.0
 11
1292.820478088373
 21
761.5871500699402
 31
0.0
  0
LINE
  5
1BB
330
1F
100
AcDbEntity
  8
3-0
  6
Continuous
 62
     3
370
     9
100
AcDbLine
 10
1292.820478088373
 20
761.5871500699402
 30
0.0
 11
1292.820478088373
 21
763.2013237529006
 31
0.0
  0
LINE
  5
1BC
330
1F
100
AcDbEntity
  8
3-0
  6
Continuous
 62
     3
370
     9
100
AcDbLine
 10
1292.820478088373
 20
763.2013237529006
 30
0.0
 11
1292.174660151296
 21
764.8153737159496
 31
0.0
  0
LINE
  5
1BD
330
1F
100
AcDbEntity
  8
3-0
  6
Continuous
 62
     3
370
     9
100
AcDbLine
 10
1293.788957554167
 20
764.8153737159496
 30
0.0
 11
1290.883519156785
 21
764.8153737159496
 31
0.0
  0
LINE
  5
1BE
330
1F
100
AcDbEntity
  8
3-0
  6
Continuous
 62
     3
370
     9
100
AcDbLine
 10
1293.788957554167
 20
764.8153737159496
 30
0.0
 11
1295.080593428323
 21
764.1698032186944
 31
0.0
  0
LINE
  5
1BF
330
1F
100
AcDbEntity
  8
3-0
  6
Continuous
 62
     3
370
     9
100
AcDbLine
 10
1295.080593428323
 20
764.1698032186944
 30
0.0
 11
1296.371734422833
 21
763.5241090015277
 31
0.0
  0
LINE
  5
1C0
330
1F
100
AcDbEntity
  8
3-0
  6
Continuous
 62
     3
370
     9
100
AcDbLine
 10
1296.371734422833
 20
763.5241090015277
 30
0.0
 11
1297.01755235991
 21
761.9099353185677
 31
0.0
  0
LINE
  5
1C1
330
1F
100
AcDbEntity
  8
3-0
  6
Continuous
 62
     3
370
     9
100
AcDbLine
 10
1297.01755235991
 20
761.9099353185677
 30
0.0
 11
1297.663370296988
 21
760.2956379156958
 31
0.0
  0
LINE
  5
1C2
330
1F
100
AcDbEntity
  8
3-0
  6
Continuous
 62
     3
370
     9
100
AcDbLine
 10
1297.663370296988
 20
760.2956379156958
 30
0.0
 11
1295.403254957039
 21
759.9728526670683
 31
0.0
  0
LINE
  5
1C3
330
1F
100
AcDbEntity
  8
3-0
  6
Continuous
 62
     3
370
     9
100
AcDbLine
 10
1295.403254957039
 20
759.9728526670683
 30
0.0
 11
1294.111619082883
 21
760.618546884235
 31
0.0
  0
LINE
  5
1C4
330
1F
100
AcDbEntity
  8
3-0
  6
Continuous
 62
     3
370
     9
100
AcDbLine
 10
1294.111619082883
 20
760.618546884235
 30
0.0
 11
1292.820478088373
 21
760.9414558527735
 31
0.0
  0
LINE
  5
1C5
330
1F
100
AcDbEntity
  8
3-0
  6
Continuous
 62
     3
370
     9
100
AcDbLine
 10
1292.820478088373
 20
760.9414558527735
 30
0.0
 11
1291.529337093863
 21
761.9099353185677
 31
0.0
  0
LINE
  5
1C6
330
1F
100
AcDbEntity
  8
3-0
  6
Continuous
 62
     3
370
     9
100
AcDbLine
 10
1291.529337093863
 20
761.9099353185677
 30
0.0
 11
1293.143634496735
 21
762.8784147843614
 31
0.0
  0
LINE
  5
1C7
330
1F
100
AcDbEntity
  8
3-0
  6
Continuous
 62
     3
370
     9
100
AcDbLine
 10
1293.143634496735
 20
762.8784147843614
 30
0.0
 11
1294.434280611599
 21
761.9099353185677
 31
0.0
  0
LINE
  5
1C8
330
1F
100
AcDbEntity
  8
3-0
  6
Continuous
 62
     3
370
     9
100
AcDbLine
 10
1294.434280611599
 20
761.9099353185677
 30
0.0
 11
1296.371734422833
 21
760.9414558527735
 31
0.0
  0
LINE
  5
1C9
330
1F
100
AcDbEntity
  8
3-0
  6
Continuous
 62
     3
370
     9
100
AcDbLine
 10
1296.371734422833
 20
760.9414558527735
 30
0.0
 11
1297.663370296988
 21
759.0043732012746
 31
0.0
  0
LINE
  5
1CA
330
1F
100
AcDbEntity
  8
3-0
  6
Continuous
 62
     3
370
     9
100
AcDbLine
 10
1297.663370296988
 20
759.0043732012746
 30
0.0
 11
1295.403254957039
 21
759.3271584499021
 31
0.0
  0
LINE
  5
1CB
330
1F
100
AcDbEntity
  8
3-0
  6
Continuous
 62
     3
370
     9
100
AcDbLine
 10
1295.403254957039
 20
759.3271584499021
 30
0.0
 11
1294.111619082883
 21
760.2956379156958
 31
0.0
  0
LINE
  5
1CC
330
1F
100
AcDbEntity
  8
3-0
  6
Continuous
 62
     3
370
     9
100
AcDbLine
 10
1294.111619082883
 20
760.2956379156958
 30
0.0
 11
1292.820478088373
 21
761.264241101401
 31
0.0
  0
LINE
  5
1CD
330
1F
100
AcDbEntity
  8
3-0
  6
Continuous
 62
     3
370
     9
100
AcDbLine
 10
1292.820478088373
 20
761.264241101401
 30
0.0
 11
1294.434280611599
 21
760.9414558527735
 31
0.0
  0
LINE
  5
1CE
330
1F
100
AcDbEntity
  8
3-0
  6
Continuous
 62
     3
370
     9
100
AcDbLine
 10
1294.434280611599
 20
760.9414558527735
 30
0.0
 11
1295.725916485755
 21
759.9728526670683
 31
0.0
  0
LINE
  5
1CF
330
1F
100
AcDbEntity
  8
3-0
  6
Continuous
 62
     3
370
     9
100
AcDbLine
 10
1295.725916485755
 20
759.9728526670683
 30
0.0
 11
1294.757437019962
 21
761.5871500699402
 31
0.0
  0
LINE
  5
1D0
330
1F
100
AcDbEntity
  8
3-0
  6
Continuous
 62
     3
370
     9
100
AcDbLine
 10
1294.757437019962
 20
761.5871500699402
 30
0.0
 11
1294.111619082883
 21
763.2013237529006
 31
0.0
  0
LINE
  5
1D1
330
1F
100
AcDbEntity
  8
3-0
  6
Continuous
 62
     3
370
     9
100
AcDbLine
 10
1294.111619082883
 20
763.2013237529006
 30
0.0
 11
1295.725916485755
 21
763.2013237529006
 31
0.0
  0
LINE
  5
1D2
330
1F
100
AcDbEntity
  8
3-0
  6
Continuous
 62
     3
370
     9
100
AcDbLine
 10
1295.725916485755
 20
763.2013237529006
 30
0.0
 11
1297.01755235991
 21
762.2327205671947
 31
0.0
  0
LINE
  5
1D3
330
1F
100
AcDbEntity
  8
3-0
  6
Continuous
 62
     3
370
     9
100
AcDbLine
 10
1297.01755235991
 20
762.2327205671947
 30
0.0
 11
1298.308693354421
 21
761.264241101401
 31
0.0
  0
LINE
  5
1D4
330
1F
100
AcDbEntity
  8
3-0
  6
Continuous
 62
     3
370
     9
100
AcDbLine
 10
1298.308693354421
 20
761.264241101401
 30
0.0
 11
1296.694395951549
 21
761.264241101401
 31
0.0
  0
LINE
  5
1D5
330
1F
100
AcDbEntity
  8
3-0
  6
Continuous
 62
     3
370
     9
100
AcDbLine
 10
1296.694395951549
 20
761.264241101401
 30
0.0
 11
1295.403254957039
 21
762.8784147843614
 31
0.0
  0
LINE
  5
1D6
330
1F
100
AcDbEntity
  8
3-0
  6
Continuous
 62
     3
370
     9
100
AcDbLine
 10
1295.403254957039
 20
762.8784147843614
 30
0.0
 11
1297.01755235991
 21
762.8784147843614
 31
0.0
  0
LINE
  5
1D7
330
1F
100
AcDbEntity
  8
3-0
  6
Continuous
 62
     3
370
     9
100
AcDbLine
 10
1297.01755235991
 20
762.8784147843614
 30
0.0
 11
1297.663370296988
 21
761.264241101401
 31
0.0
  0
LINE
  5
1D8
330
1F
100
AcDbEntity
  8
3-0
  6
Continuous
 62
     3
370
     9
100
AcDbLine
 10
1297.663370296988
 20
761.264241101401
 30
0.0
 11
1296.049072894117
 21
762.5555058158225
 31
0.0
  0
LINE
  5
1D9
330
1F
100
AcDbEntity
  8
3-0
  6
Continuous
 62
     3
370
     9
100
AcDbLine
 10
1296.049072894117
 20
762.5555058158225
 30
0.0
 11
1296.049072894117
 21
764.1698032186944
 31
0.0
  0
LINE
  5
1DA
330
1F
100
AcDbEntity
  8
3-0
  6
Continuous
 62
     3
370
     9
100
AcDbLine
 10
1296.049072894117
 20
764.1698032186944
 30
0.0
 11
1297.663370296988
 21
763.5241090015277
 31
0.0
  0
LINE
  5
1DB
330
1F
100
AcDbEntity
  8
3-0
  6
Continuous
 62
     3
370
     9
100
AcDbLine
 10
1297.663370296988
 20
763.5241090015277
 30
0.0
 11
1296.694395951549
 21
765.1381589645766
 31
0.0
  0
LINE
  5
1DC
330
1F
100
AcDbEntity
  8
3-0
  6
Continuous
 62
     3
370
     9
100
AcDbLine
 10
1296.694395951549
 20
765.1381589645766
 30
0.0
 11
1298.308693354421
 21
763.5241090015277
 31
0.0
  0
LINE
  5
1DD
330
1F
100
AcDbEntity
  8
3-0
  6
Continuous
 62
     3
370
     9
100
AcDbLine
 10
1298.308693354421
 20
763.5241090015277
 30
0.0
 11
1297.663370296988
 21
761.9099353185677
 31
0.0
  0
LINE
  5
1DE
330
1F
100
AcDbEntity
  8
3-0
  6
Continuous
 62
     3
370
     9
100
AcDbLine
 10
1297.663370296988
 20
761.9099353185677
 30
0.0
 11
1296.694395951549
 21
760.2956379156958
 31
0.0
  0
LINE
  5
1DF
330
1F
100
AcDbEntity
  8
3-0
  6
Continuous
 62
     3
370
     9
100
AcDbLine
 10
1296.694395951549
 20
760.2956379156958
 30
0.0
 11
1295.403254957039
 21
759.9728526670683
 31
0.0
  0
LINE
  5
1E0
330
1F
100
AcDbEntity
  8
3-0
  6
Continuous
 62
     3
370
     9
100
AcDbLine
 10
1295.403254957039
 20
759.9728526670683
 30
0.0
 11
1295.403254957039
 21
760.2956379156958
 31
0.0
  0
ARC
  5
1E1
330
1F
100
AcDbEntity
  8
3-0
  6
Continuous
 62
     3
370
     9
100
AcDbCircle
 10
1412.012735531363
 20
888.6706346164979
 30
0.0
 40
9.9999991623131
100
AcDbArc
 50
90.0
 51
180.0
  0
ARC
  5
1E2
330
1F
100
AcDbEntity
  8
3-0
  6
Continuous
 62
     3
370
     9
100
AcDbCircle
 10
1295.345848918188
 20
772.0039954431454
 30
0.0
 40
9.9999991623131
100
AcDbArc
 50
90.0
 51
180.0
  0
ARC
  5
1E3
330
1F
100
AcDbEntity
  8
3-0
  6
Continuous
 62
     3
370
     9
100
AcDbCircle
 10
1385.34565096633
 20
798.670585128534
 30
0.0
 40
16.66666494833456
100
AcDbArc
 50
270.0
 51
0.0
  0
LINE
  5
1E4
330
1F
100
AcDbEntity
  8
3-0
  6
JWW_CENTER1
 62
     4
370
     9
100
AcDbLine
 10
1352.012537579505
 20
805.2790096588185
 30
0.0
 11
1352.012537579505
 21
685.2563117456989
 31
0.0
  0
LINE
  5
1E5
330
1F
100
AcDbEntity
  8
3-0
  6
Continuous
 62
     7
370
     9
100
AcDbLine
 10
1377.845749942259
 20
740.0042115405902
 30
0.0
 11
1377.845749942259
 21
745.3372820378454
 31
0.0
  0
LINE
  5
1E6
330
1F
100
AcDbEntity
  8
3-0
  6
Continuous
 62
     7
370
     9
100
AcDbLine
 10
1377.845749942259
 20
740.0042115405902
 30
0.0
 11
1326.179325216752
 21
740.0042115405902
 31
0.0
  0
LINE
  5
1E7
330
1F
100
AcDbEntity
  8
3-0
  6
Continuous
 62
     7
370
     9
100
AcDbLine
 10
1326.179325216752
 20
740.0042115405902
 30
0.0
 11
1326.179325216752
 21
745.3372820378454
 31
0.0
  0
LINE
  5
1E8
330
1F
100
AcDbEntity
  8
3-0
  6
Continuous
 62
     7
370
     9
100
AcDbLine
 10
1342.345558588796
 20
718.3372671914562
 30
0.0
 11
1342.345558588796
 21
715.3400286198766
 31
0.0
  0
LINE
  5
1E9
330
1F
100
AcDbEntity
  8
3-0
  6
Continuous
 62
     7
370
     9
100
AcDbLine
 10
1361.679021690569
 20
718.3372671914562
 30
0.0
 11
1361.679021690569
 21
715.3400286198766
 31
0.0
  0
LINE
  5
1EA
330
1F
100
AcDbEntity
  8
3-0
  6
Continuous
 62
     7
370
     9
100
AcDbLine
 10
1342.345558588796
 20
715.3400286198766
 30
0.0
 11
1339.348567457039
 21
718.3372671914562
 31
0.0
  0
LINE
  5
1EB
330
1F
100
AcDbEntity
  8
3-0
  6
Continuous
 62
     7
370
     9
100
AcDbLine
 10
1361.679021690569
 20
715.3400286198766
 30
0.0
 11
1364.676507701971
 21
718.3372671914562
 31
0.0
  0
LINE
  5
1EC
330
1F
100
AcDbEntity
  8
3-0
  6
Continuous
 62
     7
370
     9
100
AcDbLine
 10
1342.345558588796
 20
715.3400286198766
 30
0.0
 11
1361.679021690569
 21
715.3400286198766
 31
0.0
  0
LINE
  5
1ED
330
1F
100
AcDbEntity
  8
3-0
  6
Continuous
 62
     7
370
     9
100
AcDbLine
 10
1373.679358208728
 20
740.0042115405902
 30
0.0
 11
1373.679358208728
 21
720.7428771471145
 31
0.0
  0
LINE
  5
1EE
330
1F
100
AcDbEntity
  8
3-0
  6
Continuous
 62
     7
370
     9
100
AcDbLine
 10
1330.346211829928
 20
740.0042115405902
 30
0.0
 11
1330.346211829928
 21
720.7428771471145
 31
0.0
  0
ARC
  5
1EF
330
1F
100
AcDbEntity
  8
3-0
  6
Continuous
 62
     7
370
     9
100
AcDbCircle
 10
1341.179127264894
 20
743.9333084842135
 30
0.0
 40
25.59599296466725
100
AcDbArc
 50
244.9606628417968
 51
295.0396728515625
  0
ARC
  5
1F0
330
1F
100
AcDbEntity
  8
3-0
  6
Continuous
 62
     7
370
     9
100
AcDbCircle
 10
1362.845947894117
 20
743.9333084842135
 30
0.0
 40
25.59599296466725
100
AcDbArc
 50
244.9603271484375
 51
295.0393371582032
  0
LINE
  5
1F1
330
1F
100
AcDbEntity
  8
3-0
  6
Continuous
 62
     7
370
     9
100
AcDbLine
 10
1352.012537579505
 20
740.0042115405902
 30
0.0
 11
1352.012553736896
 21
720.7429564627025
 31
0.0
  0
LINE
  5
1F2
330
1F
100
AcDbEntity
  8
3-0
  6
Continuous
 62
     3
370
     9
100
AcDbLine
 10
1335.345870912839
 20
765.3373480217979
 30
0.0
 11
1335.345870912839
 21
745.3372820378454
 31
0.0
  0
LINE
  5
1F3
330
1F
100
AcDbEntity
  8
3-0
  6
Continuous
 62
     3
370
     9
100
AcDbLine
 10
1368.679204246172
 20
765.3373480217979
 30
0.0
 11
1368.679204246172
 21
745.3372820378454
 31
0.0
  0
LINE
  5
1F4
330
1F
100
AcDbEntity
  8
3-0
  6
JWW_DASHED1
 62
     7
370
     9
100
AcDbLine
 10
1325.679001895383
 20
782.021695997038
 30
0.0
 11
1325.679001895383
 21
781.0217916737699
 31
0.0
  0
LINE
  5
1F5
330
1F
100
AcDbEntity
  8
3-0
  6
JWW_DASHED1
 62
     7
370
     9
100
AcDbLine
 10
1378.345578383982
 20
782.021695997038
 30
0.0
 11
1378.345578383982
 21
781.0217916737699
 31
0.0
  0
LINE
  5
1F6
330
1F
100
AcDbEntity
  8
3-0
  6
Continuous
 62
     7
370
     9
100
AcDbLine
 10
1325.679001895383
 20
782.021695997038
 30
0.0
 11
1378.345578383982
 21
782.021695997038
 31
0.0
  0
LINE
  5
1F7
330
1F
100
AcDbEntity
  8
3-0
  6
Continuous
 62
     7
370
     9
100
AcDbLine
 10
1325.679001895383
 20
781.0217916737699
 30
0.0
 11
1378.345578383982
 21
781.0217916737699
 31
0.0
  0
LINE
  5
1F8
330
1F
100
AcDbEntity
  8
3-0
  6
Continuous
 62
     7
370
     9
100
AcDbLine
 10
1365.127343058813
 20
767.8035563486005
 30
0.0
 11
1378.345578383982
 21
781.0217916737699
 31
0.0
  0
LINE
  5
1F9
330
1F
100
AcDbEntity
  8
3-0
  6
Continuous
 62
     7
370
     9
100
AcDbLine
 10
1339.897883863289
 20
766.5218180673505
 30
0.0
 11
1364.126696416076
 21
766.5218180673505
 31
0.0
  0
LINE
  5
1FA
330
1F
100
AcDbEntity
  8
3-0
  6
Continuous
 62
     7
370
     9
100
AcDbLine
 10
1338.897237220552
 20
767.8035563486005
 30
0.0
 11
1325.679001895383
 21
781.0217916737699
 31
0.0
  0
LINE
  5
1FB
330
1F
100
AcDbEntity
  8
3-0
  6
Continuous
 62
     7
370
     9
100
AcDbLine
 10
1363.389325744623
 20
764.7672222850449
 30
0.0
 11
1361.679021690569
 21
758.188292280822
 31
0.0
  0
LINE
  5
1FC
330
1F
100
AcDbEntity
  8
3-0
  6
Continuous
 62
     7
370
     9
100
AcDbLine
 10
1340.634759655096
 20
764.7672222850449
 30
0.0
 11
1342.345558588795
 21
758.188292280822
 31
0.0
  0
LINE
  5
1FD
330
1F
100
AcDbEntity
  8
3-0
  6
Continuous
 62
     7
370
     9
100
AcDbLine
 10
1338.678995296988
 20
758.188292280822
 30
0.0
 11
1365.345584982377
 21
758.188292280822
 31
0.0
  0
LINE
  5
1FE
330
1F
100
AcDbEntity
  8
3-0
  6
Continuous
 62
     7
370
     9
100
AcDbLine
 10
1338.678995296988
 20
758.188292280822
 30
0.0
 11
1341.207335404674
 21
762.567234821996
 31
0.0
  0
LINE
  5
1FF
330
1F
100
AcDbEntity
  8
3-0
  6
Continuous
 62
     7
370
     9
100
AcDbLine
 10
1365.345584982377
 20
758.188292280822
 30
0.0
 11
1362.817739754336
 21
762.567234821996
 31
0.0
  0
ARC
  5
200
330
1F
100
AcDbEntity
  8
3-0
  6
Continuous
 62
     7
370
     9
100
AcDbCircle
 10
1369.841566559657
 20
763.0895802875787
 30
0.0
 40
6.666666269302368
100
AcDbArc
 50
135.0
 51
165.4257965087891
  0
ARC
  5
201
330
1F
100
AcDbEntity
  8
3-0
  6
Continuous
 62
     7
370
     9
100
AcDbCircle
 10
1334.183013719708
 20
763.0895802875787
 30
0.0
 40
6.666666269302368
100
AcDbArc
 50
14.57420349121094
 51
45.0
  0
LINE
  5
202
330
1F
100
AcDbEntity
  8
3-0
  6
Continuous
 62
     7
370
     9
100
AcDbLine
 10
1338.678995296988
 20
758.188292280822
 30
0.0
 11
1338.678995296988
 21
745.3372820378454
 31
0.0
  0
LINE
  5
203
330
1F
100
AcDbEntity
  8
3-0
  6
Continuous
 62
     7
370
     9
100
AcDbLine
 10
1342.345558588795
 20
758.188292280822
 30
0.0
 11
1342.345558588795
 21
745.3372820378454
 31
0.0
  0
LINE
  5
204
330
1F
100
AcDbEntity
  8
3-0
  6
Continuous
 62
     7
370
     9
100
AcDbLine
 10
1361.679021690569
 20
758.188292280822
 30
0.0
 11
1361.679021690569
 21
745.3372820378454
 31
0.0
  0
LINE
  5
205
330
1F
100
AcDbEntity
  8
3-0
  6
Continuous
 62
     7
370
     9
100
AcDbLine
 10
1365.345584982377
 20
758.188292280822
 30
0.0
 11
1365.345584982377
 21
745.3372820378454
 31
0.0
  0
LINE
  5
206
330
1F
100
AcDbEntity
  8
3-0
  6
Continuous
 62
     3
370
     9
100
AcDbLine
 10
1285.346310805856
 20
765.3373480217979
 30
0.0
 11
1338.679204246172
 21
765.3373480217979
 31
0.0
  0
LINE
  5
207
330
1F
100
AcDbEntity
  8
3-0
  6
Continuous
 62
     3
370
     9
100
AcDbLine
 10
1365.345870912839
 20
765.3373480217979
 30
0.0
 11
1418.679259232799
 21
765.3373480217979
 31
0.0
  0
LINE
  5
208
330
1F
100
AcDbEntity
  8
3-0
  6
Continuous
 62
     3
370
     9
100
AcDbLine
 10
1338.679204246172
 20
765.3373480217979
 30
0.0
 11
1325.347949097099
 21
782.0039047152104
 31
0.0
  0
LINE
  5
209
330
1F
100
AcDbEntity
  8
3-0
  6
Continuous
 62
     3
370
     9
100
AcDbLine
 10
1325.347949097099
 20
782.0039047152104
 30
0.0
 11
1295.345848918188
 21
782.0039047152104
 31
0.0
  0
LINE
  5
20A
330
1F
100
AcDbEntity
  8
3-0
  6
Continuous
 62
     3
370
     9
100
AcDbLine
 10
1385.34565096633
 20
782.0039047152104
 30
0.0
 11
1378.677126061912
 21
782.0039047152104
 31
0.0
  0
LINE
  5
20B
330
1F
100
AcDbEntity
  8
3-0
  6
Continuous
 62
     3
370
     9
100
AcDbLine
 10
1365.345870912839
 20
765.3373480217979
 30
0.0
 11
1378.677126061912
 21
782.0039047152104
 31
0.0
  0
LINE
  5
20C
330
1F
100
AcDbEntity
  8
3-0
  6
JWW_CENTER2
 62
     4
370
     9
100
AcDbLine
 10
686.2674788852456
 20
822.6567041747157
 30
0.0
 11
686.2674788852456
 21
703.1952043167403
 31
0.0
  0
LINE
  5
20D
330
1F
100
AcDbEntity
  8
3-0
  6
Continuous
 62
     3
370
     9
100
AcDbLine
 10
769.600812218579
 20
898.6727708469666
 30
0.0
 11
769.600812218579
 21
765.3373480217979
 31
0.0
  0
LINE
  5
20E
330
1F
100
AcDbEntity
  8
3-0
  6
Continuous
 62
     3
370
     9
100
AcDbLine
 10
936.2678637916363
 20
765.3373480217979
 30
0.0
 11
936.2678637916363
 21
745.3372820378454
 31
0.0
  0
LINE
  5
20F
330
1F
100
AcDbEntity
  8
3-0
  6
Continuous
 62
     3
370
     9
100
AcDbLine
 10
466.9814142561635
 20
898.6727708469666
 30
0.0
 11
1034.966660244339
 21
898.6727708469666
 31
0.0
  0
LINE
  5
210
330
1F
100
AcDbEntity
  8
3-0
  6
Continuous
 62
     3
370
     9
100
AcDbLine
 10
936.2678637916363
 20
765.3373480217979
 30
0.0
 11
936.2094679934946
 21
763.934859107102
 31
0.0
  0
LINE
  5
211
330
1F
100
AcDbEntity
  8
3-0
  6
Continuous
 62
     3
370
     9
100
AcDbLine
 10
936.2094679934946
 20
763.934859107102
 30
0.0
 11
936.8305419483088
 21
762.3825453798006
 31
0.0
  0
LINE
  5
212
330
1F
100
AcDbEntity
  8
3-0
  6
Continuous
 62
     3
370
     9
100
AcDbLine
 10
936.8305419483088
 20
762.3825453798006
 30
0.0
 11
936.8305419483088
 21
760.8304790923219
 31
0.0
  0
LINE
  5
213
330
1F
100
AcDbEntity
  8
3-0
  6
Continuous
 62
     3
370
     9
100
AcDbLine
 10
936.8305419483088
 20
760.8304790923219
 30
0.0
 11
936.5202524107244
 21
759.2781653650204
 31
0.0
  0
LINE
  5
214
330
1F
100
AcDbEntity
  8
3-0
  6
Continuous
 62
     3
370
     9
100
AcDbLine
 10
936.5202524107244
 20
759.2781653650204
 30
0.0
 11
938.0726898579373
 21
758.6572151301173
 31
0.0
  0
LINE
  5
215
330
1F
100
AcDbEntity
  8
3-0
  6
Continuous
 62
     3
370
     9
100
AcDbLine
 10
938.0726898579373
 20
758.6572151301173
 30
0.0
 11
939.0040533503359
 21
760.2095288574187
 31
0.0
  0
LINE
  5
216
330
1F
100
AcDbEntity
  8
3-0
  6
Continuous
 62
     3
370
     9
100
AcDbLine
 10
939.0040533503359
 20
760.2095288574187
 30
0.0
 11
940.2457063803192
 21
760.5199421149146
 31
0.0
  0
LINE
  5
217
330
1F
100
AcDbEntity
  8
3-0
  6
Continuous
 62
     3
370
     9
100
AcDbLine
 10
940.2457063803192
 20
760.5199421149146
 30
0.0
 11
941.4873594103019
 21
761.7615951448979
 31
0.0
  0
LINE
  5
218
330
1F
100
AcDbEntity
  8
3-0
  6
Continuous
 62
     3
370
     9
100
AcDbLine
 10
941.4873594103019
 20
761.7615951448979
 30
0.0
 11
942.7290124402853
 21
762.3825453798006
 31
0.0
  0
LINE
  5
219
330
1F
100
AcDbEntity
  8
3-0
  6
Continuous
 62
     3
370
     9
100
AcDbLine
 10
942.7290124402853
 20
762.3825453798006
 30
0.0
 11
942.7290124402853
 21
763.934859107102
 31
0.0
  0
LINE
  5
21A
330
1F
100
AcDbEntity
  8
3-0
  6
Continuous
 62
     3
370
     9
100
AcDbLine
 10
942.7290124402853
 20
763.934859107102
 30
0.0
 11
941.1765749930723
 21
764.8660988795896
 31
0.0
  0
LINE
  5
21B
330
1F
100
AcDbEntity
  8
3-0
  6
Continuous
 62
     3
370
     9
100
AcDbLine
 10
941.1765749930723
 20
764.8660988795896
 30
0.0
 11
939.934921963089
 21
764.8660988795896
 31
0.0
  0
LINE
  5
21C
330
1F
100
AcDbEntity
  8
3-0
  6
Continuous
 62
     3
370
     9
100
AcDbLine
 10
939.934921963089
 20
764.8660988795896
 30
0.0
 11
938.6932689331061
 21
764.5556856220937
 31
0.0
  0
LINE
  5
21D
330
1F
100
AcDbEntity
  8
3-0
  6
Continuous
 62
     3
370
     9
100
AcDbLine
 10
938.6932689331061
 20
764.5556856220937
 30
0.0
 11
937.4516159031227
 21
763.6244458496062
 31
0.0
  0
LINE
  5
21E
330
1F
100
AcDbEntity
  8
3-0
  6
Continuous
 62
     3
370
     9
100
AcDbLine
 10
937.4516159031227
 20
763.6244458496062
 30
0.0
 11
939.0040533503359
 21
763.0034956147038
 31
0.0
  0
LINE
  5
21F
330
1F
100
AcDbEntity
  8
3-0
  6
Continuous
 62
     3
370
     9
100
AcDbLine
 10
937.4516159031227
 20
763.6244458496062
 30
0.0
 11
939.0040533503359
 21
762.6930823572079
 31
0.0
  0
LINE
  5
220
330
1F
100
AcDbEntity
  8
3-0
  6
Continuous
 62
     3
370
     9
100
AcDbLine
 10
939.0040533503359
 20
762.6930823572079
 30
0.0
 11
940.2457063803192
 21
763.0034956147038
 31
0.0
  0
LINE
  5
221
330
1F
100
AcDbEntity
  8
3-0
  6
Continuous
 62
     3
370
     9
100
AcDbLine
 10
940.2457063803192
 20
763.0034956147038
 30
0.0
 11
938.6932689331061
 21
763.6244458496062
 31
0.0
  0
LINE
  5
222
330
1F
100
AcDbEntity
  8
3-0
  6
Continuous
 62
     3
370
     9
100
AcDbLine
 10
938.6932689331061
 20
763.6244458496062
 30
0.0
 11
937.4516159031227
 21
762.6930823572079
 31
0.0
  0
LINE
  5
223
330
1F
100
AcDbEntity
  8
3-0
  6
Continuous
 62
     3
370
     9
100
AcDbLine
 10
937.4516159031227
 20
762.6930823572079
 30
0.0
 11
936.8305419483088
 21
761.1407686299062
 31
0.0
  0
LINE
  5
224
330
1F
100
AcDbEntity
  8
3-0
  6
Continuous
 62
     3
370
     9
100
AcDbLine
 10
936.8305419483088
 20
761.1407686299062
 30
0.0
 11
938.3829793955217
 21
761.4511818874021
 31
0.0
  0
LINE
  5
225
330
1F
100
AcDbEntity
  8
3-0
  6
Continuous
 62
     3
370
     9
100
AcDbLine
 10
938.3829793955217
 20
761.4511818874021
 30
0.0
 11
939.6246324255046
 21
762.0721321223048
 31
0.0
  0
LINE
  5
226
330
1F
100
AcDbEntity
  8
3-0
  6
Continuous
 62
     3
370
     9
100
AcDbLine
 10
939.6246324255046
 20
762.0721321223048
 30
0.0
 11
938.0726898579373
 21
762.0721321223048
 31
0.0
  0
LINE
  5
227
330
1F
100
AcDbEntity
  8
3-0
  6
Continuous
 62
     3
370
     9
100
AcDbLine
 10
938.0726898579373
 20
762.0721321223048
 30
0.0
 11
936.8305419483088
 21
761.4511818874021
 31
0.0
  0
LINE
  5
228
330
1F
100
AcDbEntity
  8
3-0
  6
Continuous
 62
     3
370
     9
100
AcDbLine
 10
936.8305419483088
 20
761.4511818874021
 30
0.0
 11
938.3829793955217
 21
761.4511818874021
 31
0.0
  0
LINE
  5
229
330
1F
100
AcDbEntity
  8
3-0
  6
Continuous
 62
     3
370
     9
100
AcDbLine
 10
938.3829793955217
 20
761.4511818874021
 30
0.0
 11
940.2457063803192
 21
762.0721321223048
 31
0.0
  0
LINE
  5
22A
330
1F
100
AcDbEntity
  8
3-0
  6
Continuous
 62
     3
370
     9
100
AcDbLine
 10
940.2457063803192
 20
762.0721321223048
 30
0.0
 11
941.4873594103019
 21
763.0034956147038
 31
0.0
  0
LINE
  5
22B
330
1F
100
AcDbEntity
  8
3-0
  6
Continuous
 62
     3
370
     9
100
AcDbLine
 10
941.4873594103019
 20
763.0034956147038
 30
0.0
 11
939.934921963089
 21
763.0034956147038
 31
0.0
  0
LINE
  5
22C
330
1F
100
AcDbEntity
  8
3-0
  6
Continuous
 62
     3
370
     9
100
AcDbLine
 10
939.934921963089
 20
763.0034956147038
 30
0.0
 11
938.6932689331061
 21
761.7615951448979
 31
0.0
  0
LINE
  5
22D
330
1F
100
AcDbEntity
  8
3-0
  6
Continuous
 62
     3
370
     9
100
AcDbLine
 10
938.6932689331061
 20
761.7615951448979
 30
0.0
 11
940.866285455488
 21
762.6930823572079
 31
0.0
  0
LINE
  5
22E
330
1F
100
AcDbEntity
  8
3-0
  6
Continuous
 62
     3
370
     9
100
AcDbLine
 10
940.866285455488
 20
762.6930823572079
 30
0.0
 11
942.1079384854706
 21
763.3139088721996
 31
0.0
  0
LINE
  5
22F
330
1F
100
AcDbEntity
  8
3-0
  6
Continuous
 62
     3
370
     9
100
AcDbLine
 10
942.1079384854706
 20
763.3139088721996
 30
0.0
 11
940.5559959179036
 21
762.0721321223048
 31
0.0
  0
LINE
  5
230
330
1F
100
AcDbEntity
  8
3-0
  6
Continuous
 62
     3
370
     9
100
AcDbLine
 10
940.5559959179036
 20
762.0721321223048
 30
0.0
 11
940.866285455488
 21
763.6244458496062
 31
0.0
  0
LINE
  5
231
330
1F
100
AcDbEntity
  8
3-0
  6
Continuous
 62
     3
370
     9
100
AcDbLine
 10
940.866285455488
 20
763.6244458496062
 30
0.0
 11
938.0726898579373
 21
763.6244458496062
 31
0.0
  0
LINE
  5
232
330
1F
100
AcDbEntity
  8
3-0
  6
Continuous
 62
     3
370
     9
100
AcDbLine
 10
938.0726898579373
 20
763.6244458496062
 30
0.0
 11
937.4516159031227
 21
765.1765121370854
 31
0.0
  0
LINE
  5
233
330
1F
100
AcDbEntity
  8
3-0
  6
Continuous
 62
     3
370
     9
100
AcDbLine
 10
937.4516159031227
 20
765.1765121370854
 30
0.0
 11
937.4516159031227
 21
763.6244458496062
 31
0.0
  0
LINE
  5
234
330
1F
100
AcDbEntity
  8
3-0
  6
Continuous
 62
     3
370
     9
100
AcDbLine
 10
937.4516159031227
 20
763.6244458496062
 30
0.0
 11
936.2094679934946
 21
762.6930823572079
 31
0.0
  0
LINE
  5
235
330
1F
100
AcDbEntity
  8
3-0
  6
Continuous
 62
     3
370
     9
100
AcDbLine
 10
936.2094679934946
 20
762.6930823572079
 30
0.0
 11
936.2094679934946
 21
761.1407686299062
 31
0.0
  0
LINE
  5
236
330
1F
100
AcDbEntity
  8
3-0
  6
Continuous
 62
     3
370
     9
100
AcDbLine
 10
936.2094679934946
 20
761.1407686299062
 30
0.0
 11
937.7619054407071
 21
761.7615951448979
 31
0.0
  0
LINE
  5
237
330
1F
100
AcDbEntity
  8
3-0
  6
Continuous
 62
     3
370
     9
100
AcDbLine
 10
937.7619054407071
 20
761.7615951448979
 30
0.0
 11
937.4516159031227
 21
760.2095288574187
 31
0.0
  0
LINE
  5
238
330
1F
100
AcDbEntity
  8
3-0
  6
Continuous
 62
     3
370
     9
100
AcDbLine
 10
937.4516159031227
 20
760.2095288574187
 30
0.0
 11
937.1413263655384
 21
759.8991155999229
 31
0.0
  0
ARC
  5
239
330
1F
100
AcDbEntity
  8
3-0
  6
Continuous
 62
     3
370
     9
100
AcDbCircle
 10
775.8625243701838
 20
765.5689516957843
 30
0.0
 40
6.339023564312908
100
AcDbArc
 50
182.1183013916016
 51
357.9061584472656
  0
ARC
  5
23A
330
1F
100
AcDbEntity
  8
3-0
  6
Continuous
 62
     3
370
     9
100
AcDbCircle
 10
788.5319381687477
 20
765.5689516957843
 30
0.0
 40
6.339023564312908
100
AcDbArc
 50
182.1183013916016
 51
357.9061584472656
  0
ARC
  5
23B
330
1F
100
AcDbEntity
  8
3-0
  6
Continuous
 62
     3
370
     9
100
AcDbCircle
 10
801.2013519673123
 20
765.5689516957843
 30
0.0
 40
6.339023564312908
100
AcDbArc
 50
182.1183013916016
 51
357.9061584472656
  0
ARC
  5
23C
330
1F
100
AcDbEntity
  8
3-0
  6
Continuous
 62
     3
370
     9
100
AcDbCircle
 10
813.8707657658765
 20
765.5689516957843
 30
0.0
 40
6.339023564312908
100
AcDbArc
 50
182.1183013916016
 51
357.9061584472656
  0
ARC
  5
23D
330
1F
100
AcDbEntity
  8
3-0
  6
Continuous
 62
     3
370
     9
100
AcDbCircle
 10
826.5401795644405
 20
765.5689516957843
 30
0.0
 40
6.339023564312908
100
AcDbArc
 50
182.1183013916016
 51
357.9061584472656
  0
ARC
  5
23E
330
1F
100
AcDbEntity
  8
3-0
  6
Continuous
 62
     3
370
     9
100
AcDbCircle
 10
839.2095933630046
 20
765.5689516957843
 30
0.0
 40
6.339023564312908
100
AcDbArc
 50
182.1183013916016
 51
357.9061584472656
  0
ARC
  5
23F
330
1F
100
AcDbEntity
  8
3-0
  6
Continuous
 62
     3
370
     9
100
AcDbCircle
 10
851.8790071615686
 20
765.5689516957843
 30
0.0
 40
6.339023564312908
100
AcDbArc
 50
182.1183013916016
 51
357.9061584472656
  0
ARC
  5
240
330
1F
100
AcDbEntity
  8
3-0
  6
Continuous
 62
     3
370
     9
100
AcDbCircle
 10
864.5484209601332
 20
765.5689516957843
 30
0.0
 40
6.339023564312908
100
AcDbArc
 50
182.1183013916016
 51
357.9061584472656
  0
ARC
  5
241
330
1F
100
AcDbEntity
  8
3-0
  6
Continuous
 62
     3
370
     9
100
AcDbCircle
 10
877.2178347586973
 20
765.5689516957843
 30
0.0
 40
6.339023564312908
100
AcDbArc
 50
182.1183013916016
 51
357.9061584472656
  0
ARC
  5
242
330
1F
100
AcDbEntity
  8
3-0
  6
Continuous
 62
     3
370
     9
100
AcDbCircle
 10
889.8872485572613
 20
765.5689516957843
 30
0.0
 40
6.339023564312908
100
AcDbArc
 50
182.1183013916016
 51
357.9061584472656
  0
ARC
  5
243
330
1F
100
AcDbEntity
  8
3-0
  6
Continuous
 62
     3
370
     9
100
AcDbCircle
 10
902.5566623558254
 20
765.5689516957843
 30
0.0
 40
6.339023564312908
100
AcDbArc
 50
182.1183013916016
 51
357.9061584472656
  0
ARC
  5
244
330
1F
100
AcDbEntity
  8
3-0
  6
Continuous
 62
     3
370
     9
100
AcDbCircle
 10
915.2260761543901
 20
765.5689516957843
 30
0.0
 40
6.339023564312908
100
AcDbArc
 50
182.1183013916016
 51
357.9061584472656
  0
ARC
  5
245
330
1F
100
AcDbEntity
  8
3-0
  6
Continuous
 62
     3
370
     9
100
AcDbCircle
 10
927.895489952954
 20
765.5689516957843
 30
0.0
 40
6.339023564312908
100
AcDbArc
 50
182.1183013916016
 51
357.9061584472656
  0
LINE
  5
246
330
1F
100
AcDbEntity
  8
3-4
  6
Continuous
 62
     3
370
     9
100
AcDbLine
 10
591.6976226643163
 20
765.3373480217979
 30
0.0
 11
591.6976226643163
 21
745.3372820378454
 31
0.0
  0
LINE
  5
247
330
1F
100
AcDbEntity
  8
3-0
  6
Continuous
 62
     3
370
     9
100
AcDbLine
 10
591.6976226643163
 20
745.3372820378454
 30
0.0
 11
936.2678637916363
 21
745.3372820378454
 31
0.0
  0
LINE
  5
248
330
1F
100
AcDbEntity
  8
3-0
  6
Continuous
 62
     4
370
     9
100
AcDbLine
 10
473.5751906497447
 20
843.4257681680187
 30
0.0
 11
466.9814142561635
 21
839.6187827768656
 31
0.0
  0
LINE
  5
249
330
1F
100
AcDbEntity
  8
3-0
  6
Continuous
 62
     4
370
     9
100
AcDbLine
 10
466.9814142561635
 20
912.0061894095725
 30
0.0
 11
466.9814142561635
 21
839.6187827768656
 31
0.0
  0
LINE
  5
24A
330
1F
100
AcDbEntity
  8
3-0
  6
Continuous
 62
     4
370
     9
100
AcDbLine
 10
460.3876378625824
 20
820.5843507007464
 30
0.0
 11
473.5751906497447
 21
843.4257681680187
 31
0.0
  0
LINE
  5
24B
330
1F
100
AcDbEntity
  8
3-0
  6
Continuous
 62
     4
370
     9
100
AcDbLine
 10
460.3876378625824
 20
820.5843507007464
 30
0.0
 11
466.9814142561635
 21
824.3913360918996
 31
0.0
  0
LINE
  5
24C
330
1F
100
AcDbEntity
  8
3-0
  6
Continuous
 62
     4
370
     9
100
AcDbLine
 10
466.9814142561635
 20
824.3913360918996
 30
0.0
 11
466.9814142561635
 21
752.0040531791037
 31
0.0
  0
LINE
  5
24D
330
1F
100
AcDbEntity
  8
3-0
  6
Continuous
 62
     4
370
     9
100
AcDbLine
 10
1041.56043663792
 20
843.4257681680187
 30
0.0
 11
1034.966660244339
 21
839.6187827768656
 31
0.0
  0
LINE
  5
24E
330
1F
100
AcDbEntity
  8
3-0
  6
Continuous
 62
     4
370
     9
100
AcDbLine
 10
1034.966660244339
 20
912.0061894095725
 30
0.0
 11
1034.966660244339
 21
839.6187827768656
 31
0.0
  0
LINE
  5
24F
330
1F
100
AcDbEntity
  8
3-0
  6
Continuous
 62
     4
370
     9
100
AcDbLine
 10
1028.372883850758
 20
820.5843507007464
 30
0.0
 11
1041.56043663792
 21
843.4257681680187
 31
0.0
  0
LINE
  5
250
330
1F
100
AcDbEntity
  8
3-0
  6
Continuous
 62
     4
370
     9
100
AcDbLine
 10
1028.372883850758
 20
820.5843507007464
 30
0.0
 11
1034.966660244339
 21
824.3913360918996
 31
0.0
  0
LINE
  5
251
330
1F
100
AcDbEntity
  8
3-0
  6
Continuous
 62
     4
370
     9
100
AcDbLine
 10
1034.966660244339
 20
824.3913360918996
 30
0.0
 11
1034.966660244339
 21
752.0040531791037
 31
0.0
  0
LINE
  5
252
330
1F
100
AcDbEntity
  8
3-0
  6
Continuous
 62
     7
370
     9
100
AcDbLine
 10
711.2673139253639
 20
720.7428771471145
 30
0.0
 11
711.2673139253639
 21
740.0042115405902
 31
0.0
  0
LINE
  5
253
330
1F
100
AcDbEntity
  8
3-0
  6
Continuous
 62
     7
370
     9
100
AcDbLine
 10
698.7577462522216
 20
720.7428771471145
 30
0.0
 11
698.7577462522216
 21
740.0042115405902
 31
0.0
  0
LINE
  5
254
330
1F
100
AcDbEntity
  8
3-0
  6
Continuous
 62
     7
370
     9
100
AcDbLine
 10
673.7762217589784
 20
720.7428771471145
 30
0.0
 11
673.7762217589784
 21
740.0042115405902
 31
0.0
  0
LINE
  5
255
330
1F
100
AcDbEntity
  8
3-0
  6
Continuous
 62
     7
370
     9
100
AcDbLine
 10
705.0125300887925
 20
718.3372671914562
 30
0.0
 11
667.5219328020529
 21
718.3372671914562
 31
0.0
  0
LINE
  5
256
330
1F
100
AcDbEntity
  8
3-0
  6
Continuous
 62
     7
370
     9
100
AcDbLine
 10
712.1001963683534
 20
740.0042115405902
 30
0.0
 11
712.1001963683534
 21
745.3372820378454
 31
0.0
  0
LINE
  5
257
330
1F
100
AcDbEntity
  8
3-0
  6
Continuous
 62
     7
370
     9
100
AcDbLine
 10
661.2671489654821
 20
720.7428771471145
 30
0.0
 11
661.2671489654821
 21
740.0042115405902
 31
0.0
  0
LINE
  5
258
330
1F
100
AcDbEntity
  8
3-0
  6
Continuous
 62
     7
370
     9
100
AcDbLine
 10
712.1001963683534
 20
740.0042115405902
 30
0.0
 11
660.4337716428466
 21
740.0042115405902
 31
0.0
  0
LINE
  5
259
330
1F
100
AcDbEntity
  8
3-0
  6
Continuous
 62
     7
370
     9
100
AcDbLine
 10
660.4337716428466
 20
740.0042115405902
 30
0.0
 11
660.4337716428466
 21
745.3372820378454
 31
0.0
  0
LINE
  5
25A
330
1F
100
AcDbEntity
  8
3-0
  6
Continuous
 62
     7
370
     9
100
AcDbLine
 10
676.6004998945357
 20
718.3372671914562
 30
0.0
 11
676.6004998945357
 21
715.3400286198766
 31
0.0
  0
LINE
  5
25B
330
1F
100
AcDbEntity
  8
3-0
  6
Continuous
 62
     7
370
     9
100
AcDbLine
 10
695.9339629963097
 20
718.3372671914562
 30
0.0
 11
695.9339629963097
 21
715.3400286198766
 31
0.0
  0
LINE
  5
25C
330
1F
100
AcDbEntity
  8
3-0
  6
Continuous
 62
     7
370
     9
100
AcDbLine
 10
676.6004998945357
 20
715.3400286198766
 30
0.0
 11
673.6035087627789
 21
718.3372671914562
 31
0.0
  0
LINE
  5
25D
330
1F
100
AcDbEntity
  8
3-0
  6
Continuous
 62
     7
370
     9
100
AcDbLine
 10
695.9339629963097
 20
715.3400286198766
 30
0.0
 11
698.9314490077118
 21
718.3372671914562
 31
0.0
  0
LINE
  5
25E
330
1F
100
AcDbEntity
  8
3-0
  6
Continuous
 62
     7
370
     9
100
AcDbLine
 10
676.6004998945357
 20
715.3400286198766
 30
0.0
 11
695.9339629963097
 21
715.3400286198766
 31
0.0
  0
ARC
  5
25F
330
1F
100
AcDbEntity
  8
3-0
  6
Continuous
 62
     7
370
     9
100
AcDbCircle
 10
705.0125300887925
 20
727.6711921808985
 30
0.0
 40
9.333910491015459
100
AcDbArc
 50
227.9255676269531
 51
312.0746307373047
  0
ARC
  5
260
330
1F
100
AcDbEntity
  8
3-0
  6
Continuous
 62
     7
370
     9
100
AcDbCircle
 10
686.2674788852456
 20
751.9686692844673
 30
0.0
 40
33.63136729678592
100
AcDbArc
 50
248.1978607177734
 51
291.8021392822266
  0
ARC
  5
261
330
1F
100
AcDbEntity
  8
3-0
  6
Continuous
 62
     7
370
     9
100
AcDbCircle
 10
667.5219328020529
 20
727.6711921808985
 30
0.0
 40
9.333964618476662
100
AcDbArc
 50
227.9257202148438
 51
312.0742797851562
  0
LINE
  5
262
330
1F
100
AcDbEntity
  8
3-0
  6
Continuous
 62
     3
370
     9
100
AcDbLine
 10
669.600812218579
 20
765.3373480217979
 30
0.0
 11
669.600812218579
 21
745.3372820378454
 31
0.0
  0
LINE
  5
263
330
1F
100
AcDbEntity
  8
3-0
  6
Continuous
 62
     3
370
     9
100
AcDbLine
 10
702.9341455519124
 20
765.3373480217979
 30
0.0
 11
702.9341455519124
 21
745.3372820378454
 31
0.0
  0
LINE
  5
264
330
1F
100
AcDbEntity
  8
3-0
  6
Continuous
 62
     3
370
     9
100
AcDbLine
 10
466.9814142561635
 20
765.3373480217979
 30
0.0
 11
672.9341455519124
 21
765.3373480217979
 31
0.0
  0
LINE
  5
265
330
1F
100
AcDbEntity
  8
3-0
  6
Continuous
 62
     3
370
     9
100
AcDbLine
 10
699.600812218579
 20
765.3373480217979
 30
0.0
 11
1034.966660244339
 21
765.3373480217979
 31
0.0
  0
LINE
  5
266
330
1F
100
AcDbEntity
  8
3-0
  6
Continuous
 62
     3
370
     9
100
AcDbLine
 10
659.600812218579
 20
782.0065028333479
 30
0.0
 11
466.9814142561635
 21
782.0065028333479
 31
0.0
  0
LINE
  5
267
330
1F
100
AcDbEntity
  8
3-0
  6
Continuous
 62
     3
370
     9
100
AcDbLine
 10
1034.966660244339
 20
782.0065028333479
 30
0.0
 11
712.9341455519124
 21
782.0065028333479
 31
0.0
  0
LINE
  5
268
330
1F
100
AcDbEntity
  8
3-0
  6
Continuous
 62
     3
370
     9
100
AcDbLine
 10
672.9341455519124
 20
765.3373480217979
 30
0.0
 11
659.600812218579
 21
782.0065028333479
 31
0.0
  0
LINE
  5
269
330
1F
100
AcDbEntity
  8
3-0
  6
Continuous
 62
     3
370
     9
100
AcDbLine
 10
699.600812218579
 20
765.3373480217979
 30
0.0
 11
712.9341455519124
 21
782.0065028333479
 31
0.0
  0
LINE
  5
26A
330
1F
100
AcDbEntity
  8
3-0
  6
JWW_DASHED1
 62
     7
370
     9
100
AcDbLine
 10
659.9339432011237
 20
782.021695997038
 30
0.0
 11
659.9339432011237
 21
781.0217916737699
 31
0.0
  0
LINE
  5
26B
330
1F
100
AcDbEntity
  8
3-0
  6
JWW_DASHED1
 62
     7
370
     9
100
AcDbLine
 10
712.6005196897216
 20
782.021695997038
 30
0.0
 11
712.6005196897216
 21
781.0217916737699
 31
0.0
  0
LINE
  5
26C
330
1F
100
AcDbEntity
  8
3-0
  6
Continuous
 62
     7
370
     9
100
AcDbLine
 10
659.9339432011237
 20
782.021695997038
 30
0.0
 11
712.6005196897216
 21
782.021695997038
 31
0.0
  0
LINE
  5
26D
330
1F
100
AcDbEntity
  8
3-0
  6
Continuous
 62
     7
370
     9
100
AcDbLine
 10
659.9339432011237
 20
781.0217916737699
 30
0.0
 11
712.6005196897216
 21
781.0217916737699
 31
0.0
  0
LINE
  5
26E
330
1F
100
AcDbEntity
  8
3-0
  6
Continuous
 62
     7
370
     9
100
AcDbLine
 10
699.3822843645529
 20
767.8035563486005
 30
0.0
 11
712.6005196897216
 21
781.0217916737699
 31
0.0
  0
LINE
  5
26F
330
1F
100
AcDbEntity
  8
3-0
  6
Continuous
 62
     7
370
     9
100
AcDbLine
 10
674.1528251690289
 20
766.5218180673505
 30
0.0
 11
698.3816377218164
 21
766.5218180673505
 31
0.0
  0
LINE
  5
270
330
1F
100
AcDbEntity
  8
3-0
  6
Continuous
 62
     7
370
     9
100
AcDbLine
 10
673.1521785262925
 20
767.8035563486005
 30
0.0
 11
659.9339432011237
 21
781.0217916737699
 31
0.0
  0
LINE
  5
271
330
1F
100
AcDbEntity
  8
3-0
  6
Continuous
 62
     7
370
     9
100
AcDbLine
 10
697.6442670503639
 20
764.7672222850449
 30
0.0
 11
695.9339629963097
 21
758.188292280822
 31
0.0
  0
LINE
  5
272
330
1F
100
AcDbEntity
  8
3-0
  6
Continuous
 62
     7
370
     9
100
AcDbLine
 10
674.8897009608368
 20
764.7672222850449
 30
0.0
 11
676.6004998945357
 21
758.188292280822
 31
0.0
  0
LINE
  5
273
330
1F
100
AcDbEntity
  8
3-0
  6
Continuous
 62
     7
370
     9
100
AcDbLine
 10
672.9339366027284
 20
758.188292280822
 30
0.0
 11
699.600526288117
 21
758.188292280822
 31
0.0
  0
LINE
  5
274
330
1F
100
AcDbEntity
  8
3-0
  6
Continuous
 62
     7
370
     9
100
AcDbLine
 10
672.9339366027284
 20
758.188292280822
 30
0.0
 11
675.4622767104144
 21
762.567234821996
 31
0.0
  0
LINE
  5
275
330
1F
100
AcDbEntity
  8
3-0
  6
Continuous
 62
     7
370
     9
100
AcDbLine
 10
699.600526288117
 20
758.188292280822
 30
0.0
 11
697.0726810600763
 21
762.567234821996
 31
0.0
  0
ARC
  5
276
330
1F
100
AcDbEntity
  8
3-0
  6
Continuous
 62
     7
370
     9
100
AcDbCircle
 10
704.0965078653971
 20
763.0895802875787
 30
0.0
 40
6.666666269302368
100
AcDbArc
 50
135.0
 51
165.4257965087891
  0
ARC
  5
277
330
1F
100
AcDbEntity
  8
3-0
  6
Continuous
 62
     7
370
     9
100
AcDbCircle
 10
668.4379550254482
 20
763.0895802875787
 30
0.0
 40
6.666666269302368
100
AcDbArc
 50
14.57420349121094
 51
45.0
  0
LINE
  5
278
330
1F
100
AcDbEntity
  8
3-0
  6
Continuous
 62
     7
370
     9
100
AcDbLine
 10
672.9339366027284
 20
758.188292280822
 30
0.0
 11
672.9339366027284
 21
745.3372820378454
 31
0.0
  0
LINE
  5
279
330
1F
100
AcDbEntity
  8
3-0
  6
Continuous
 62
     7
370
     9
100
AcDbLine
 10
676.6004998945357
 20
758.188292280822
 30
0.0
 11
676.6004998945357
 21
745.3372820378454
 31
0.0
  0
LINE
  5
27A
330
1F
100
AcDbEntity
  8
3-0
  6
Continuous
 62
     7
370
     9
100
AcDbLine
 10
695.9339629963097
 20
758.188292280822
 30
0.0
 11
695.9339629963097
 21
745.3372820378454
 31
0.0
  0
LINE
  5
27B
330
1F
100
AcDbEntity
  8
3-0
  6
Continuous
 62
     7
370
     9
100
AcDbLine
 10
699.600526288117
 20
758.188292280822
 30
0.0
 11
699.600526288117
 21
745.3372820378454
 31
0.0
  0
TEXT
  5
27C
330
1F
100
AcDbEntity
  8
3-0
  6
Continuous
 62
     7
370
     9
100
AcDbText
 10
834.5734838245266
 20
647.4522900652064
 30
0.0
 40
22.86
  1
皿ネジ･平座金･六角ナット
 41
1.152777777777778
  7
ＭＳ ゴシック
100
AcDbText
  0
TEXT
  5
27D
330
1F
100
AcDbEntity
  8
3-0
  6
Continuous
 62
     7
370
     9
100
AcDbText
 10
845.7509134199427
 20
603.984508305256
 30
0.0
 40
22.86
  1
M8･S20C･ユニクロ
 41
1.145833333333333
  7
ＭＳ ゴシック
100
AcDbText
  0
LINE
  5
27E
330
1F
100
AcDbEntity
  8
3-5
  6
Continuous
 62
     7
370
     9
100
AcDbLine
 10
827.8150380226475
 20
637.4950474531042
 30
0.0
 11
1248.259256407241
 21
637.4950474531042
 31
0.0
  0
LINE
  5
27F
330
1F
100
AcDbEntity
  8
3-4
  6
Continuous
 62
     7
370
     9
100
AcDbLine
 10
1491.917486787635
 20
745.3374057577569
 30
0.0
 11
1491.917486787635
 21
898.6706676084746
 31
0.0
  0
LWPOLYLINE
  5
280
330
1F
100
AcDbEntity
  8
3-4
  6
Continuous
 62
     7
370
     9
100
AcDbPolyline
 90
        4
 70
     1
 43
1.0
 10
1492.417486787635
 20
745.3374057577569
 42
0.4142135623731
 10
1491.917486787635
 20
745.8374057577568
 42
0.4142135623731
 10
1491.417486787635
 20
745.3374057577569
 42
0.4142135623731
 10
1491.917486787635
 20
744.8374057577569
 42
0.4142135623731
  0
LWPOLYLINE
  5
281
330
1F
100
AcDbEntity
  8
3-4
  6
Continuous
 62
     7
370
     9
100
AcDbPolyline
 90
        4
 70
     1
 43
1.0
 10
1492.417486787635
 20
765.3373480217979
 42
0.4142135623731
 10
1491.917486787635
 20
765.8373480217979
 42
0.4142135623731
 10
1491.417486787635
 20
765.3373480217979
 42
0.4142135623731
 10
1491.917486787635
 20
764.837348021798
 42
0.4142135623731
  0
LINE
  5
282
330
1F
100
AcDbEntity
  8
3-4
  6
Continuous
 62
     7
370
     9
100
AcDbLine
 10
1553.363300236984
 20
745.3374057577569
 30
0.0
 11
1434.384889173432
 21
745.3374057577569
 31
0.0
  0
LINE
  5
283
330
1F
100
AcDbEntity
  8
3-4
  6
Continuous
 62
     7
370
     9
100
AcDbLine
 10
1494.917486787635
 20
765.3373480217979
 30
0.0
 11
1434.384889173432
 21
765.3373480217979
 31
0.0
  0
TEXT
  5
284
330
1F
100
AcDbEntity
  8
3-4
  6
Continuous
 62
     7
370
   211
100
AcDbText
 10
1480.277486787636
 20
745.337376889777
 30
0.0
 40
30.48
  1
6
 50
90.0
 41
0.9999999999999998
  7
ＭＳ ゴシック
100
AcDbText
  0
LWPOLYLINE
  5
285
330
1F
100
AcDbEntity
  8
3-4
  6
Continuous
 62
     7
370
     9
100
AcDbPolyline
 90
        4
 70
     1
 43
1.0
 10
1492.417486787635
 20
898.6706676084746
 42
0.4142135623731
 10
1491.917486787635
 20
899.1706676084744
 42
0.4142135623731
 10
1491.417486787635
 20
898.6706676084746
 42
0.4142135623731
 10
1491.917486787635
 20
898.1706676084746
 42
0.4142135623731
  0
LINE
  5
286
330
1F
100
AcDbEntity
  8
3-4
  6
Continuous
 62
     7
370
     9
100
AcDbLine
 10
1553.363300236984
 20
898.6706676084746
 30
0.0
 11
1434.384889173432
 21
898.6706676084746
 31
0.0
  0
TEXT
  5
287
330
1F
100
AcDbEntity
  8
3-4
  6
Continuous
 62
     7
370
   211
100
AcDbText
 10
1480.277486787636
 20
810.754007815136
 30
0.0
 40
30.48
  1
40
 50
90.0
 41
1.0625
  7
ＭＳ ゴシック
100
AcDbText
  0
LINE
  5
288
330
1F
100
AcDbEntity
  8
3-4
  6
Continuous
 62
     7
370
     9
100
AcDbLine
 10
1550.363300236984
 20
745.3374057577569
 30
0.0
 11
1550.363300236984
 21
898.6706676084746
 31
0.0
  0
LWPOLYLINE
  5
289
330
1F
100
AcDbEntity
  8
3-4
  6
Continuous
 62
     7
370
     9
100
AcDbPolyline
 90
        4
 70
     1
 43
1.0
 10
1550.863300236984
 20
745.3374057577569
 42
0.4142135623731
 10
1550.363300236984
 20
745.8374057577568
 42
0.4142135623731
 10
1549.863300236984
 20
745.3374057577569
 42
0.4142135623731
 10
1550.363300236984
 20
744.8374057577569
 42
0.4142135623731
  0
LWPOLYLINE
  5
28A
330
1F
100
AcDbEntity
  8
3-4
  6
Continuous
 62
     7
370
     9
100
AcDbPolyline
 90
        4
 70
     1
 43
1.0
 10
1550.863300236984
 20
898.6706676084746
 42
0.4142135623731
 10
1550.363300236984
 20
899.1706676084744
 42
0.4142135623731
 10
1549.863300236984
 20
898.6706676084746
 42
0.4142135623731
 10
1550.363300236984
 20
898.1706676084746
 42
0.4142135623731
  0
TEXT
  5
28B
330
1F
100
AcDbEntity
  8
3-4
  6
Continuous
 62
     7
370
   211
100
AcDbText
 10
1538.723300236984
 20
800.7540366831156
 30
0.0
 40
30.48
  1
46
 50
90.0
 41
1.0625
  7
ＭＳ ゴシック
100
AcDbText
  0
LINE
  5
28C
330
1F
100
AcDbEntity
  8
3-4
  6
Continuous
 62
     7
370
     9
100
AcDbLine
 10
1285.346310805856
 20
963.2947893979056
 30
0.0
 11
1418.679259232799
 21
963.2947893979056
 31
0.0
  0
LWPOLYLINE
  5
28D
330
1F
100
AcDbEntity
  8
3-4
  6
Continuous
 62
     7
370
     9
100
AcDbPolyline
 90
        4
 70
     1
 43
1.0
 10
1285.846310805856
 20
963.2947893979056
 42
0.4142135623731
 10
1285.346310805856
 20
963.7947893979056
 42
0.4142135623731
 10
1284.846310805856
 20
963.2947893979056
 42
0.4142135623731
 10
1285.346310805856
 20
962.7947893979057
 42
0.4142135623731
  0
LWPOLYLINE
  5
28E
330
1F
100
AcDbEntity
  8
3-4
  6
Continuous
 62
     7
370
     9
100
AcDbPolyline
 90
        4
 70
     1
 43
1.0
 10
1419.179259232799
 20
963.2947893979056
 42
0.4142135623731
 10
1418.679259232799
 20
963.7947893979056
 42
0.4142135623731
 10
1418.179259232799
 20
963.2947893979056
 42
0.4142135623731
 10
1418.679259232799
 20
962.7947893979057
 42
0.4142135623731
  0
LINE
  5
28F
330
1F
100
AcDbEntity
  8
3-4
  6
Continuous
 62
     7
370
     9
100
AcDbLine
 10
1418.679259232799
 20
966.2947893979058
 30
0.0
 11
1418.679259232799
 21
910.3282709594337
 31
0.0
  0
TEXT
  5
290
330
1F
100
AcDbEntity
  8
3-4
  6
Continuous
 62
     7
370
   211
100
AcDbText
 10
1330.762785019328
 20
974.9347893979053
 30
0.0
 40
30.48
  1
40
 41
1.062500000000007
  7
ＭＳ ゴシック
100
AcDbText
  0
LINE
  5
291
330
1F
100
AcDbEntity
  8
3-4
  6
Continuous
 62
     7
370
     9
100
AcDbLine
 10
1285.346310805856
 20
966.2947893979058
 30
0.0
 11
1285.346310805856
 21
816.2670399393878
 31
0.0
  0
LINE
  5
292
330
1F
100
AcDbEntity
  8
3-5
  6
Continuous
 62
     7
370
     9
100
AcDbLine
 10
827.8150380226475
 20
637.4950474531042
 30
0.0
 11
686.2674788852456
 21
715.3400286198766
 31
0.0
  0
TEXT
  5
293
330
1F
100
AcDbEntity
  8
3-0
  6
Continuous
 62
     7
370
     9
100
AcDbText
 10
815.6518413883862
 20
501.5409103151581
 30
0.0
 40
30.48
  1
接続部詳細図　Ｓ＝１：３
 41
1.114583333333333
  7
ＭＳ ゴシック
100
AcDbText
  0
LINE
  5
294
330
1F
100
AcDbEntity
  8
3-5
  6
Continuous
 62
     7
370
     9
100
AcDbLine
 10
809.2515598720101
 20
484.2056029072845
 30
0.0
 11
1340.324043995051
 21
484.2056029072845
 31
0.0
  0
LINE
  5
295
330
1F
100
AcDbEntity
  8
3-4
  6
Continuous
 62
     7
370
     9
100
AcDbLine
 10
1040.90361953821
 20
-516.8183668171689
 30
0.0
 11
1104.23713354189
 21
-516.8183668171689
 31
0.0
  0
LINE
  5
296
330
1F
100
AcDbEntity
  8
3-2
  6
Continuous
 62
     3
370
     9
100
AcDbLine
 10
1120.904405061456
 20
-96.94058154449053
 30
0.0
 11
987.5704668752232
 21
-96.94058154449053
 31
0.0
  0
LINE
  5
297
330
1F
100
AcDbEntity
  8
3-2
  6
Continuous
 62
     3
370
     9
100
AcDbLine
 10
1120.904405061456
 20
36.39310920191988
 30
0.0
 11
1117.572380409851
 21
36.39310920191988
 31
0.0
  0
LINE
  5
298
330
1F
100
AcDbEntity
  8
3-2
  6
Continuous
 62
     3
370
     9
100
AcDbLine
 10
1104.238343247689
 20
-63.60870535677932
 30
0.0
 11
1104.238343247689
 21
23.05956691940295
 31
0.0
  0
LINE
  5
299
330
1F
100
AcDbEntity
  8
3-2
  6
Continuous
 62
     3
370
     9
100
AcDbLine
 10
987.5704668752232
 20
-96.94058154449053
 30
0.0
 11
987.5704668752232
 21
-93.60830945306319
 31
0.0
  0
LINE
  5
29A
330
1F
100
AcDbEntity
  8
3-2
  6
Continuous
 62
     3
370
     9
100
AcDbLine
 10
1087.572776313567
 20
-80.27476717054626
 30
0.0
 11
1000.904504037385
 21
-80.27476717054626
 31
0.0
  0
LINE
  5
29B
330
1F
100
AcDbEntity
  8
3-2
  6
Continuous
 62
     3
370
     9
100
AcDbLine
 10
1120.904405061456
 20
-96.94058154449053
 30
0.0
 11
1120.904405061456
 21
36.39310920191988
 31
0.0
  0
ARC
  5
29C
330
1F
100
AcDbEntity
  8
3-2
  6
Continuous
 62
     3
370
     9
100
AcDbCircle
 10
1087.572776313567
 20
-63.60870535677932
 30
0.0
 40
16.66666494833456
100
AcDbArc
 50
270.0
 51
0.0
  0
ARC
  5
29D
330
1F
100
AcDbEntity
  8
3-2
  6
Continuous
 62
     3
370
     9
100
AcDbCircle
 10
1117.572380409851
 20
23.05956691940295
 30
0.0
 40
13.33333253860474
100
AcDbArc
 50
90.0
 51
180.0
  0
ARC
  5
29E
330
1F
100
AcDbEntity
  8
3-2
  6
Continuous
 62
     3
370
     9
100
AcDbCircle
 10
1000.904504037385
 20
-93.60830945306319
 30
0.0
 40
13.33333253860474
100
AcDbArc
 50
90.0
 51
180.0
  0
LINE
  5
29F
330
1F
100
AcDbEntity
  8
3-0
  6
Continuous
 62
     3
370
     9
100
AcDbLine
 10
1011.73713354189
 20
-111.9405815444905
 30
0.0
 11
1104.23713354189
 21
-111.9405815444905
 31
0.0
  0
LINE
  5
2A0
330
1F
100
AcDbEntity
  8
3-0
  6
Continuous
 62
     3
370
     9
100
AcDbLine
 10
1002.570466875223
 20
-272.7739148778239
 30
0.0
 11
1002.570466875223
 21
-121.1072482111571
 31
0.0
  0
ARC
  5
2A1
330
1F
100
AcDbEntity
  8
3-0
  6
Continuous
 62
     3
370
     9
100
AcDbCircle
 10
1011.73713354189
 20
-121.1072482111571
 30
0.0
 40
9.166666666666666
100
AcDbArc
 50
90.0
 51
180.0
  0
LINE
  5
2A2
330
1F
100
AcDbEntity
  8
3-0
  6
Continuous
 62
     3
370
     9
100
AcDbLine
 10
1104.23713354189
 20
-281.9405815444906
 30
0.0
 11
1104.23713354189
 21
-296.9405815444906
 31
0.0
  0
LINE
  5
2A3
330
1F
100
AcDbEntity
  8
3-0
  6
Continuous
 62
     3
370
     9
100
AcDbLine
 10
1104.23713354189
 20
-111.9405815444905
 30
0.0
 11
1104.23713354189
 21
-96.94058154449053
 31
0.0
  0
ARC
  5
2A4
330
1F
100
AcDbEntity
  8
3-0
  6
Continuous
 62
     3
370
     9
100
AcDbCircle
 10
1011.73713354189
 20
-121.1072482111571
 30
0.0
 40
24.16666666666666
100
AcDbArc
 50
90.0
 51
180.0
  0
LINE
  5
2A5
330
1F
100
AcDbEntity
  8
3-0
  6
Continuous
 62
     3
370
     9
100
AcDbLine
 10
1011.73713354189
 20
-96.94058154449053
 30
0.0
 11
1104.23713354189
 21
-96.94058154449053
 31
0.0
  0
ARC
  5
2A6
330
1F
100
AcDbEntity
  8
3-0
  6
Continuous
 62
     3
370
     9
100
AcDbCircle
 10
1011.73713354189
 20
-272.7739148778239
 30
0.0
 40
24.16666666666666
100
AcDbArc
 50
180.0
 51
270.0
  0
ARC
  5
2A7
330
1F
100
AcDbEntity
  8
3-0
  6
Continuous
 62
     3
370
     9
100
AcDbCircle
 10
1011.73713354189
 20
-272.7739148778239
 30
0.0
 40
9.166666666666666
100
AcDbArc
 50
180.0
 51
270.0
  0
LINE
  5
2A8
330
1F
100
AcDbEntity
  8
3-0
  6
Continuous
 62
     3
370
     9
100
AcDbLine
 10
987.5704668752232
 20
-272.7739148778239
 30
0.0
 11
987.5704668752232
 21
-121.1072482111571
 31
0.0
  0
LINE
  5
2A9
330
1F
100
AcDbEntity
  8
3-0
  6
Continuous
 62
     3
370
     9
100
AcDbLine
 10
1011.73713354189
 20
-281.9405815444906
 30
0.0
 11
1104.23713354189
 21
-281.9405815444906
 31
0.0
  0
LINE
  5
2AA
330
1F
100
AcDbEntity
  8
3-0
  6
Continuous
 62
     3
370
     9
100
AcDbLine
 10
1011.73713354189
 20
-296.9405815444906
 30
0.0
 11
1104.23713354189
 21
-296.9405815444906
 31
0.0
  0
LINE
  5
2AB
330
1F
100
AcDbEntity
  8
3-0
  6
JWW_DASHED3
 62
     3
370
     9
100
AcDbLine
 10
1040.90361953821
 20
-281.9405815444906
 30
0.0
 11
1040.90361953821
 21
-296.9405815444906
 31
0.0
  0
TEXT
  5
2AC
330
1F
100
AcDbEntity
  8
3-4
  6
Continuous
 62
     7
370
     0
100
AcDbText
 10
1247.481972391128
 20
213.5054306979002
 30
0.0
 40
22.86
  1
受枠：L40X40X5
 41
1.154761904761905
  7
ＭＳ ゴシック
100
AcDbText
  0
TEXT
  5
2AD
330
1F
100
AcDbEntity
  8
3-4
  6
Continuous
 62
     7
370
     0
100
AcDbText
 10
1248.447703025568
 20
162.3217070726154
 30
0.0
 40
22.86
  1
SS400
 41
1.133333333333333
  7
ＭＳ ゴシック
100
AcDbText
  0
TEXT
  5
2AE
330
1F
100
AcDbEntity
  8
3-4
  6
Continuous
 62
     7
370
     0
100
AcDbText
 10
1354.678072813895
 20
163.2874377070543
 30
0.0
 40
22.86
  1
樹脂系塗装
 41
1.133333333333333
  7
ＭＳ ゴシック
100
AcDbText
  0
LINE
  5
2AF
330
1F
100
AcDbEntity
  8
3-4
  6
Continuous
 62
     7
370
     9
100
AcDbLine
 10
1232.857218833808
 20
198.007777886351
 30
0.0
 11
1529.475317647416
 21
198.007777886351
 31
0.0
  0
LINE
  5
2B0
330
1F
100
AcDbEntity
  8
3-5
  6
Continuous
 62
     7
370
     9
100
AcDbLine
 10
1232.857218833808
 20
198.007777886351
 30
0.0
 11
1113.246655356936
 21
-10.10657727800933
 31
0.0
  0
LINE
  5
2B1
330
1F
100
AcDbEntity
  8
3-4
  6
Continuous
 62
     7
370
     9
100
AcDbLine
 10
1216.809462280524
 20
-296.9405815444906
 30
0.0
 11
1216.809462280524
 21
36.39310920191988
 31
0.0
  0
LINE
  5
2B2
330
1F
100
AcDbEntity
  8
3-4
  6
Continuous
 62
     7
370
     9
100
AcDbLine
 10
1278.292902461667
 20
-296.9405815444906
 30
0.0
 11
1143.023073049189
 21
-296.9405815444906
 31
0.0
  0
LINE
  5
2B3
330
1F
100
AcDbEntity
  8
3-4
  6
Continuous
 62
     7
370
     9
100
AcDbLine
 10
1219.809462280524
 20
-96.94058154449053
 30
0.0
 11
1143.023073049189
 21
-96.94058154449053
 31
0.0
  0
TEXT
  5
2B4
330
1F
100
AcDbEntity
  8
3-4
  6
Continuous
 62
     7
370
   211
100
AcDbText
 10
1205.169462280524
 20
-218.1905815444905
 30
0.0
 40
30.48
  1
60
 50
90.0
 41
1.0625
  7
ＭＳ ゴシック
100
AcDbText
  0
LINE
  5
2B5
330
1F
100
AcDbEntity
  8
3-4
  6
Continuous
 62
     7
370
     9
100
AcDbLine
 10
1278.292902461667
 20
36.39310920191988
 30
0.0
 11
1143.023073049189
 21
36.39310920191988
 31
0.0
  0
TEXT
  5
2B6
330
1F
100
AcDbEntity
  8
3-4
  6
Continuous
 62
     7
370
   211
100
AcDbText
 10
1205.169462280524
 20
-51.52373617128532
 30
0.0
 40
30.48
  1
40
 50
90.0
 41
1.0625
  7
ＭＳ ゴシック
100
AcDbText
  0
LINE
  5
2B7
330
1F
100
AcDbEntity
  8
3-4
  6
Continuous
 62
     7
370
     9
100
AcDbLine
 10
1275.292902461667
 20
-296.9405815444906
 30
0.0
 11
1275.292902461667
 21
36.39310920191988
 31
0.0
  0
TEXT
  5
2B8
330
1F
100
AcDbEntity
  8
3-4
  6
Continuous
 62
     7
370
   211
100
AcDbText
 10
1263.652902461667
 20
-162.773736171285
 30
0.0
 40
30.48
  1
100
 50
90.0
 41
1.083333333333324
  7
ＭＳ ゴシック
100
AcDbText
  0
LINE
  5
2B9
330
1F
100
AcDbEntity
  8
3-4
  6
Continuous
 62
     7
370
     9
100
AcDbLine
 10
987.5704668752232
 20
-394.0396255313068
 30
0.0
 11
1104.23713354189
 21
-394.0396255313068
 31
0.0
  0
LINE
  5
2BA
330
1F
100
AcDbEntity
  8
3-4
  6
Continuous
 62
     7
370
     9
100
AcDbLine
 10
987.5704668752232
 20
-397.0396255313067
 30
0.0
 11
987.5704668752232
 21
-315.0527310064554
 31
0.0
  0
LINE
  5
2BB
330
1F
100
AcDbEntity
  8
3-4
  6
Continuous
 62
     7
370
     9
100
AcDbLine
 10
1104.23713354189
 20
-397.0396255313067
 30
0.0
 11
1104.23713354189
 21
-315.0527310064554
 31
0.0
  0
TEXT
  5
2BC
330
1F
100
AcDbEntity
  8
3-4
  6
Continuous
 62
     7
370
   211
100
AcDbText
 10
1024.653800208557
 20
-382.3996255313069
 30
0.0
 40
30.48
  1
35
 41
1.0625
  7
ＭＳ ゴシック
100
AcDbText
  0
LINE
  5
2BD
330
1F
100
AcDbEntity
  8
3-4
  6
Continuous
 62
     7
370
     9
100
AcDbLine
 10
1104.239047871247
 20
113.1928726459419
 30
0.0
 11
1104.239047871247
 21
58.64795099110566
 31
0.0
  0
TEXT
  5
2BE
330
1F
100
AcDbEntity
  8
3-4
  6
Continuous
 62
     7
370
   211
100
AcDbText
 10
1024.654757373235
 20
121.8328726459415
 30
0.0
 40
30.48
  1
35
 41
1.0625
  7
ＭＳ ゴシック
100
AcDbText
  0
LINE
  5
2BF
330
1F
100
AcDbEntity
  8
3-4
  6
Continuous
 62
     7
370
     9
100
AcDbLine
 10
1120.904405061456
 20
113.1928726459419
 30
0.0
 11
1120.904405061456
 21
58.64795099110566
 31
0.0
  0
TEXT
  5
2C0
330
1F
100
AcDbEntity
  8
3-4
  6
Continuous
 62
     7
370
   211
100
AcDbText
 10
1102.571726466351
 20
121.8328726459415
 30
0.0
 40
30.48
  1
5
 41
0.9999999999999998
  7
ＭＳ ゴシック
100
AcDbText
  0
LINE
  5
2C1
330
1F
100
AcDbEntity
  8
3-4
  6
Continuous
 62
     7
370
     9
100
AcDbLine
 10
943.2154441759939
 20
-96.94058154449053
 30
0.0
 11
969.6185617660075
 21
-96.94058154449053
 31
0.0
  0
LINE
  5
2C2
330
1F
100
AcDbEntity
  8
3-4
  6
Continuous
 62
     7
370
     9
100
AcDbLine
 10
943.2154441759939
 20
-80.27476717054626
 30
0.0
 11
969.6185617660075
 21
-80.27476717054626
 31
0.0
  0
TEXT
  5
2C3
330
1F
100
AcDbEntity
  8
3-4
  6
Continuous
 62
     7
370
   211
100
AcDbText
 10
934.5754441759939
 20
-98.60767435751839
 30
0.0
 40
30.48
  1
5
 50
90.0
 41
0.9999999999999998
  7
ＭＳ ゴシック
100
AcDbText
  0
TEXT
  5
2C4
330
1F
100
AcDbEntity
  8
3-4
  6
Continuous
 62
     7
370
   211
100
AcDbText
 10
934.5754441759939
 20
-43.19082898431319
 30
0.0
 40
30.48
  1
35
 50
90.0
 41
1.0625
  7
ＭＳ ゴシック
100
AcDbText
  0
LINE
  5
2C5
330
1F
100
AcDbEntity
  8
3-0
  6
JWW_CENTER2
 62
     4
370
     9
100
AcDbLine
 10
1062.570466875223
 20
-261.8345135083767
 30
0.0
 11
1062.570466875223
 21
-318.3547226625315
 31
0.0
  0
LINE
  5
2C6
330
1F
100
AcDbEntity
  8
3-0
  6
JWW_CENTER2
 62
     4
370
     9
100
AcDbLine
 10
1033.202761414715
 20
-617.580732679017
 30
0.0
 11
1116.094544748039
 21
-617.580732679017
 31
0.0
  0
LINE
  5
2C7
330
1F
100
AcDbEntity
  8
3-0
  6
JWW_CENTER2
 62
     4
370
     9
100
AcDbLine
 10
1062.570466875223
 20
-588.2280129465205
 30
0.0
 11
1062.570466875223
 21
-644.7482221006755
 31
0.0
  0
LINE
  5
2C8
330
1F
100
AcDbEntity
  8
3-0
  6
Continuous
 62
     3
370
     9
100
AcDbLine
 10
987.5704668752232
 20
-554.2473993456842
 30
0.0
 11
1104.23713354189
 21
-554.2473993456842
 31
0.0
  0
LINE
  5
2C9
330
1F
100
AcDbEntity
  8
3-0
  6
Continuous
 62
     3
370
     9
100
AcDbLine
 10
987.5704668752232
 20
-554.2473993456842
 30
0.0
 11
987.5704668752232
 21
-680.9140660123508
 31
0.0
  0
LINE
  5
2CA
330
1F
100
AcDbEntity
  8
3-0
  6
Continuous
 62
     3
370
     9
100
AcDbLine
 10
987.5704668752232
 20
-680.9140660123508
 30
0.0
 11
1104.23713354189
 21
-680.9140660123508
 31
0.0
  0
ARC
  5
2CB
330
1F
100
AcDbEntity
  8
3-0
  6
Continuous
 62
     3
370
     9
100
AcDbCircle
 10
1062.570286204877
 20
-617.580732679017
 30
0.0
 40
21.66666666666666
100
AcDbArc
 50
90.0
 51
270.0
  0
LINE
  5
2CC
330
1F
100
AcDbEntity
  8
3-0
  6
Continuous
 62
     3
370
     9
100
AcDbLine
 10
1104.23713354189
 20
-554.2473993456842
 30
0.0
 11
1104.23713354189
 21
-595.9140660123508
 31
0.0
  0
LINE
  5
2CD
330
1F
100
AcDbEntity
  8
3-0
  6
Continuous
 62
     3
370
     9
100
AcDbLine
 10
1062.570466875223
 20
-595.9140660123508
 30
0.0
 11
1104.23713354189
 21
-595.9140660123508
 31
0.0
  0
LINE
  5
2CE
330
1F
100
AcDbEntity
  8
3-0
  6
Continuous
 62
     3
370
     9
100
AcDbLine
 10
1062.570466875223
 20
-639.2473993456842
 30
0.0
 11
1104.23713354189
 21
-639.2473993456842
 31
0.0
  0
LINE
  5
2CF
330
1F
100
AcDbEntity
  8
3-0
  6
Continuous
 62
     3
370
     9
100
AcDbLine
 10
1104.23713354189
 20
-639.2473993456842
 30
0.0
 11
1104.23713354189
 21
-680.9140660123508
 31
0.0
  0
LINE
  5
2D0
330
1F
100
AcDbEntity
  8
3-4
  6
Continuous
 62
     7
370
     9
100
AcDbLine
 10
1219.809462280524
 20
-639.2473993456842
 30
0.0
 11
1143.023073049189
 21
-639.2473993456842
 31
0.0
  0
LINE
  5
2D1
330
1F
100
AcDbEntity
  8
3-4
  6
Continuous
 62
     7
370
     9
100
AcDbLine
 10
1219.809462280524
 20
-595.9140660123508
 30
0.0
 11
1143.023073049189
 21
-595.9140660123508
 31
0.0
  0
TEXT
  5
2D2
330
1F
100
AcDbEntity
  8
3-4
  6
Continuous
 62
     7
370
   211
100
AcDbText
 10
1205.169462280524
 20
-638.830732679017
 30
0.0
 40
30.48
  1
13
 50
90.0
 41
1.0625
  7
ＭＳ ゴシック
100
AcDbText
  0
LINE
  5
2D3
330
1F
100
AcDbEntity
  8
3-4
  6
Continuous
 62
     7
370
     9
100
AcDbLine
 10
1275.292902461667
 20
-680.9140660123508
 30
0.0
 11
1275.292902461667
 21
-554.2473993456842
 31
0.0
  0
LINE
  5
2D4
330
1F
100
AcDbEntity
  8
3-4
  6
Continuous
 62
     7
370
     9
100
AcDbLine
 10
1278.292902461667
 20
-680.9140660123508
 30
0.0
 11
1143.023073049189
 21
-680.9140660123508
 31
0.0
  0
LINE
  5
2D5
330
1F
100
AcDbEntity
  8
3-4
  6
Continuous
 62
     7
370
     9
100
AcDbLine
 10
1278.292902461667
 20
-554.2473993456842
 30
0.0
 11
1143.023073049189
 21
-554.2473993456842
 31
0.0
  0
TEXT
  5
2D6
330
1F
100
AcDbEntity
  8
3-4
  6
Continuous
 62
     7
370
   211
100
AcDbText
 10
1263.652902461667
 20
-638.830732679017
 30
0.0
 40
30.48
  1
38
 50
90.0
 41
1.0625
  7
ＭＳ ゴシック
100
AcDbText
  0
LINE
  5
2D7
330
1F
100
AcDbEntity
  8
3-4
  6
Continuous
 62
     7
370
     9
100
AcDbLine
 10
1104.23713354189
 20
-513.8183668171685
 30
0.0
 11
1104.23713354189
 21
-546.4089699893891
 31
0.0
  0
TEXT
  5
2D8
330
1F
100
AcDbEntity
  8
3-4
  6
Continuous
 62
     7
370
   211
100
AcDbText
 10
1051.32037654005
 20
-505.1783668171687
 30
0.0
 40
30.48
  1
19
 41
1.0625
  7
ＭＳ ゴシック
100
AcDbText
  0
LINE
  5
2D9
330
1F
100
AcDbEntity
  8
3-4
  6
Continuous
 62
     7
370
     9
100
AcDbLine
 10
1040.90361953821
 20
-513.8183668171685
 30
0.0
 11
1040.90361953821
 21
-592.9142311191702
 31
0.0
  0
TEXT
  5
2DA
330
1F
100
AcDbEntity
  8
3-0
  6
Continuous
 62
     7
370
     9
100
AcDbText
 10
824.4587120980675
 20
-821.8057264192524
 30
0.0
 40
30.48
  1
断面詳細図　Ｓ＝１：３
 41
1.113636363636363
  7
ＭＳ ゴシック
100
AcDbText
  0
LINE
  5
2DB
330
1F
100
AcDbEntity
  8
3-5
  6
Continuous
 62
     7
370
     9
100
AcDbLine
 10
813.46070410526
 20
-842.1976518992495
 30
0.0
 11
1315.986005182424
 21
-842.1976518992495
 31
0.0
  0
LINE
  5
2DC
330
1F
100
AcDbEntity
  8
3-4
  6
Continuous
 62
     7
370
     9
100
AcDbLine
 10
987.5704668752232
 20
113.1928726459419
 30
0.0
 11
987.5704668752232
 21
-8.131931916147579
 31
0.0
  0
LINE
  5
2DD
330
1F
100
AcDbEntity
  8
3-4
  6
Continuous
 62
     7
370
     9
100
AcDbLine
 10
943.2154441759939
 20
36.39310920191988
 30
0.0
 11
1027.813158982353
 21
36.39310920191988
 31
0.0
  0
LWPOLYLINE
  5
2DE
330
1F
100
AcDbEntity
  8
3-4
  6
Continuous
 62
     7
370
     9
100
AcDbPolyline
 90
        4
 70
     1
 43
1.0
 10
1275.792902461667
 20
-680.9140660123508
 42
0.4142135623731
 10
1275.292902461667
 20
-680.4140660123508
 42
0.4142135623731
 10
1274.792902461667
 20
-680.9140660123508
 42
0.4142135623731
 10
1275.292902461667
 20
-681.4140660123508
 42
0.4142135623731
  0
LWPOLYLINE
  5
2DF
330
1F
100
AcDbEntity
  8
3-4
  6
Continuous
 62
     7
370
     9
100
AcDbPolyline
 90
        4
 70
     1
 43
1.0
 10
1275.792902461667
 20
-554.2473993456842
 42
0.4142135623731
 10
1275.292902461667
 20
-553.7473993456842
 42
0.4142135623731
 10
1274.792902461667
 20
-554.2473993456842
 42
0.4142135623731
 10
1275.292902461667
 20
-554.7473993456842
 42
0.4142135623731
  0
LWPOLYLINE
  5
2E0
330
1F
100
AcDbEntity
  8
3-4
  6
Continuous
 62
     7
370
     9
100
AcDbPolyline
 90
        4
 70
     1
 43
1.0
 10
1217.309462280524
 20
-595.9140660123508
 42
0.4142135623731
 10
1216.809462280524
 20
-595.4140660123508
 42
0.4142135623731
 10
1216.309462280524
 20
-595.9140660123508
 42
0.4142135623731
 10
1216.809462280524
 20
-596.4140660123508
 42
0.4142135623731
  0
LWPOLYLINE
  5
2E1
330
1F
100
AcDbEntity
  8
3-4
  6
Continuous
 62
     7
370
     9
100
AcDbPolyline
 90
        4
 70
     1
 43
1.0
 10
1217.309462280524
 20
-639.2473993456842
 42
0.4142135623731
 10
1216.809462280524
 20
-638.7473993456842
 42
0.4142135623731
 10
1216.309462280524
 20
-639.2473993456842
 42
0.4142135623731
 10
1216.809462280524
 20
-639.7473993456842
 42
0.4142135623731
  0
LWPOLYLINE
  5
2E2
330
1F
100
AcDbEntity
  8
3-4
  6
Continuous
 62
     7
370
     9
100
AcDbPolyline
 90
        4
 70
     1
 43
1.0
 10
1104.73713354189
 20
-516.8183668171689
 42
0.4142135623731
 10
1104.23713354189
 20
-516.3183668171689
 42
0.4142135623731
 10
1103.73713354189
 20
-516.8183668171689
 42
0.4142135623731
 10
1104.23713354189
 20
-517.3183668171689
 42
0.4142135623731
  0
LWPOLYLINE
  5
2E3
330
1F
100
AcDbEntity
  8
3-4
  6
Continuous
 62
     7
370
     9
100
AcDbPolyline
 90
        4
 70
     1
 43
1.0
 10
1041.40361953821
 20
-516.8183668171689
 42
0.4142135623731
 10
1040.90361953821
 20
-516.3183668171689
 42
0.4142135623731
 10
1040.40361953821
 20
-516.8183668171689
 42
0.4142135623731
 10
1040.90361953821
 20
-517.3183668171689
 42
0.4142135623731
  0
LINE
  5
2E4
330
1F
100
AcDbEntity
  8
3-4
  6
Continuous
 62
     7
370
     9
100
AcDbLine
 10
1216.809462280524
 20
-639.2473993456842
 30
0.0
 11
1216.809462280524
 21
-595.9140660123508
 31
0.0
  0
LWPOLYLINE
  5
2E5
330
1F
100
AcDbEntity
  8
3-4
  6
Continuous
 62
     7
370
     9
100
AcDbPolyline
 90
        4
 70
     1
 43
1.0
 10
1121.404405061456
 20
110.1928726459418
 42
0.4142135623731
 10
1120.904405061456
 20
110.6928726459418
 42
0.4142135623731
 10
1120.404405061456
 20
110.1928726459418
 42
0.4142135623731
 10
1120.904405061456
 20
109.6928726459418
 42
0.4142135623731
  0
LWPOLYLINE
  5
2E6
330
1F
100
AcDbEntity
  8
3-4
  6
Continuous
 62
     7
370
     9
100
AcDbPolyline
 90
        4
 70
     1
 43
1.0
 10
1104.739047871247
 20
110.1928726459418
 42
0.4142135623731
 10
1104.239047871247
 20
110.6928726459418
 42
0.4142135623731
 10
1103.739047871247
 20
110.1928726459418
 42
0.4142135623731
 10
1104.239047871247
 20
109.6928726459418
 42
0.4142135623731
  0
LWPOLYLINE
  5
2E7
330
1F
100
AcDbEntity
  8
3-4
  6
Continuous
 62
     7
370
     9
100
AcDbPolyline
 90
        4
 70
     1
 43
1.0
 10
988.0704668752231
 20
110.1928726459418
 42
0.4142135623731
 10
987.5704668752232
 20
110.6928726459418
 42
0.4142135623731
 10
987.0704668752232
 20
110.1928726459418
 42
0.4142135623731
 10
987.5704668752232
 20
109.6928726459418
 42
0.4142135623731
  0
LWPOLYLINE
  5
2E8
330
1F
100
AcDbEntity
  8
3-4
  6
Continuous
 62
     7
370
     9
100
AcDbPolyline
 90
        4
 70
     1
 43
1.0
 10
946.7154441759938
 20
36.39310920191988
 42
0.4142135623731
 10
946.2154441759938
 20
36.89310920191988
 42
0.4142135623731
 10
945.7154441759939
 20
36.39310920191988
 42
0.4142135623731
 10
946.2154441759938
 20
35.89310920191988
 42
0.4142135623731
  0
LWPOLYLINE
  5
2E9
330
1F
100
AcDbEntity
  8
3-4
  6
Continuous
 62
     7
370
     9
100
AcDbPolyline
 90
        4
 70
     1
 43
1.0
 10
946.7154441759938
 20
-80.27476717054626
 42
0.4142135623731
 10
946.2154441759938
 20
-79.77476717054626
 42
0.4142135623731
 10
945.7154441759939
 20
-80.27476717054626
 42
0.4142135623731
 10
946.2154441759938
 20
-80.77476717054626
 42
0.4142135623731
  0
LWPOLYLINE
  5
2EA
330
1F
100
AcDbEntity
  8
3-4
  6
Continuous
 62
     7
370
     9
100
AcDbPolyline
 90
        4
 70
     1
 43
1.0
 10
946.7154441759938
 20
-96.94058154449053
 42
0.4142135623731
 10
946.2154441759938
 20
-96.44058154449053
 42
0.4142135623731
 10
945.7154441759939
 20
-96.94058154449053
 42
0.4142135623731
 10
946.2154441759938
 20
-97.44058154449053
 42
0.4142135623731
  0
LWPOLYLINE
  5
2EB
330
1F
100
AcDbEntity
  8
3-4
  6
Continuous
 62
     7
370
     9
100
AcDbPolyline
 90
        4
 70
     1
 43
1.0
 10
1217.309462280524
 20
36.39310920191988
 42
0.4142135623731
 10
1216.809462280524
 20
36.89310920191988
 42
0.4142135623731
 10
1216.309462280524
 20
36.39310920191988
 42
0.4142135623731
 10
1216.809462280524
 20
35.89310920191988
 42
0.4142135623731
  0
LWPOLYLINE
  5
2EC
330
1F
100
AcDbEntity
  8
3-4
  6
Continuous
 62
     7
370
     9
100
AcDbPolyline
 90
        4
 70
     1
 43
1.0
 10
1217.309462280524
 20
-96.94058154449053
 42
0.4142135623731
 10
1216.809462280524
 20
-96.44058154449053
 42
0.4142135623731
 10
1216.309462280524
 20
-96.94058154449053
 42
0.4142135623731
 10
1216.809462280524
 20
-97.44058154449053
 42
0.4142135623731
  0
LWPOLYLINE
  5
2ED
330
1F
100
AcDbEntity
  8
3-4
  6
Continuous
 62
     7
370
     9
100
AcDbPolyline
 90
        4
 70
     1
 43
1.0
 10
1217.309462280524
 20
-296.9405815444906
 42
0.4142135623731
 10
1216.809462280524
 20
-296.4405815444905
 42
0.4142135623731
 10
1216.309462280524
 20
-296.9405815444906
 42
0.4142135623731
 10
1216.809462280524
 20
-297.4405815444906
 42
0.4142135623731
  0
LWPOLYLINE
  5
2EE
330
1F
100
AcDbEntity
  8
3-4
  6
Continuous
 62
     7
370
     9
100
AcDbPolyline
 90
        4
 70
     1
 43
1.0
 10
1275.792902461667
 20
-296.9405815444906
 42
0.4142135623731
 10
1275.292902461667
 20
-296.4405815444905
 42
0.4142135623731
 10
1274.792902461667
 20
-296.9405815444906
 42
0.4142135623731
 10
1275.292902461667
 20
-297.4405815444906
 42
0.4142135623731
  0
LWPOLYLINE
  5
2EF
330
1F
100
AcDbEntity
  8
3-4
  6
Continuous
 62
     7
370
     9
100
AcDbPolyline
 90
        4
 70
     1
 43
1.0
 10
1275.792902461667
 20
36.39310920191988
 42
0.4142135623731
 10
1275.292902461667
 20
36.89310920191988
 42
0.4142135623731
 10
1274.792902461667
 20
36.39310920191988
 42
0.4142135623731
 10
1275.292902461667
 20
35.89310920191988
 42
0.4142135623731
  0
LWPOLYLINE
  5
2F0
330
1F
100
AcDbEntity
  8
3-4
  6
Continuous
 62
     7
370
     9
100
AcDbPolyline
 90
        4
 70
     1
 43
1.0
 10
1104.73713354189
 20
-394.0396255313068
 42
0.4142135623731
 10
1104.23713354189
 20
-393.5396255313069
 42
0.4142135623731
 10
1103.73713354189
 20
-394.0396255313068
 42
0.4142135623731
 10
1104.23713354189
 20
-394.5396255313068
 42
0.4142135623731
  0
LWPOLYLINE
  5
2F1
330
1F
100
AcDbEntity
  8
3-4
  6
Continuous
 62
     7
370
     9
100
AcDbPolyline
 90
        4
 70
     1
 43
1.0
 10
988.0704668752231
 20
-394.0396255313068
 42
0.4142135623731
 10
987.5704668752232
 20
-393.5396255313069
 42
0.4142135623731
 10
987.0704668752232
 20
-394.0396255313068
 42
0.4142135623731
 10
987.5704668752232
 20
-394.5396255313068
 42
0.4142135623731
  0
LINE
  5
2F2
330
1F
100
AcDbEntity
  8
3-4
  6
Continuous
 62
     7
370
     9
100
AcDbLine
 10
946.2154441759938
 20
-96.94058154449053
 30
0.0
 11
946.2154441759938
 21
36.39310920191988
 31
0.0
  0
LINE
  5
2F3
330
1F
100
AcDbEntity
  8
3-4
  6
Continuous
 62
     7
370
     9
100
AcDbLine
 10
987.5704668752232
 20
110.1928726459418
 30
0.0
 11
1120.904405061456
 21
110.1928726459418
 31
0.0
  0
TEXT
  5
2F4
330
1F
100
AcDbEntity
  8
0-4_寸法
  6
Continuous
 62
     2
370
     9
100
AcDbText
 10
-528.103545850494
 20
392.956510629502
 30
0.0
 40
30.48
  1
180ﾟ
 50
270.0
 41
1.09375
  7
ＭＳ ゴシック
100
AcDbText
  0
ARC
  5
2F5
330
1F
100
AcDbEntity
  8
0-4_寸法
  6
Continuous
 62
     7
370
     9
100
AcDbCircle
 10
-701.6811105572988
 20
349.206510629502
 30
0.0
 40
161.9375647068048
100
AcDbArc
 50
270.0
 51
90.0
  0
LINE
  5
2F6
330
1F
100
AcDbEntity
  8
0-4_寸法
  6
Continuous
 62
     7
370
     9
100
AcDbLine
 10
-701.6811105572988
 20
187.2689459226972
 30
0.0
 11
-676.8949890229535
 21
190.5321007281985
 31
0.0
  0
LINE
  5
2F7
330
1F
100
AcDbEntity
  8
0-4_寸法
  6
Continuous
 62
     7
370
     9
100
AcDbLine
 10
-701.6811105572988
 20
187.2689459226972
 30
0.0
 11
-676.8949890229535
 21
184.0057911171959
 31
0.0
  0
LINE
  5
2F8
330
1F
100
AcDbEntity
  8
0-4_寸法
  6
Continuous
 62
     7
370
     9
100
AcDbLine
 10
-701.6811105572988
 20
511.1440753363069
 30
0.0
 11
-676.8949890229535
 21
514.4072301418082
 31
0.0
  0
LINE
  5
2F9
330
1F
100
AcDbEntity
  8
0-4_寸法
  6
Continuous
 62
     7
370
     9
100
AcDbLine
 10
-701.6811105572988
 20
511.1440753363069
 30
0.0
 11
-676.8949890229535
 21
507.8809205308055
 31
0.0
  0
CIRCLE
  5
2FA
330
1F
100
AcDbEntity
  8
0-2_本体（蓋）
  6
Continuous
 62
     3
370
     9
100
AcDbCircle
 10
-701.6811105572988
 20
349.206510629502
 30
0.0
 40
570.0
  0
CIRCLE
  5
2FB
330
1F
100
AcDbEntity
  8
0-2_本体（蓋）
  6
Continuous
 62
     3
370
     9
100
AcDbCircle
 10
-701.6811105572988
 20
349.206510629502
 30
0.0
 40
610.0
  0
LINE
  5
2FC
330
1F
100
AcDbEntity
  8
0-2_本体（蓋）
  6
Continuous
 62
     7
370
     9
100
AcDbLine
 10
-701.6811105572988
 20
919.2066615222832
 30
0.0
 11
-701.6811105572988
 21
959.2068546416151
 31
0.0
  0
LINE
  5
2FD
330
1F
100
AcDbEntity
  8
0-2_本体（蓋）
  6
JWW_CENTER1
 62
     4
370
     9
100
AcDbLine
 10
-726.6812342835225
 20
927.2067991271286
 30
0.0
 11
-726.6809868310752
 21
951.2064695843231
 31
0.0
  0
LINE
  5
2FE
330
1F
100
AcDbEntity
  8
0-2_本体（蓋）
  6
JWW_CENTER1
 62
     4
370
     9
100
AcDbLine
 10
-697.5132120071727
 20
939.2069350960163
 30
0.0
 11
-738.6809457858964
 21
939.206510629502
 31
0.0
  0
LINE
  5
2FF
330
1F
100
AcDbEntity
  8
0-2_本体（蓋）
  6
Continuous
 62
     7
370
     9
100
AcDbLine
 10
-723.9674232995345
 20
936.4929470979614
 30
0.0
 11
-729.394797815064
 21
941.9203216134905
 31
0.0
  0
LINE
  5
300
330
1F
100
AcDbEntity
  8
0-2_本体（蓋）
  6
Continuous
 62
     7
370
     9
100
AcDbLine
 10
-729.3947978150636
 20
936.4931945504078
 30
0.0
 11
-723.967670751981
 21
941.9203216134905
 31
0.0
  0
CIRCLE
  5
301
330
1F
100
AcDbEntity
  8
0-2_本体（蓋）
  6
Continuous
 62
     3
370
     9
100
AcDbCircle
 10
-726.6812342835225
 20
939.2067580819493
 30
0.0
 40
6.999999779531853
  0
LINE
  5
302
330
1F
100
AcDbEntity
  8
0-2_本体（蓋）
  6
JWW_DASHED1
 62
     4
370
     9
100
AcDbLine
 10
-651.6811166105812
 20
923.2067303247056
 30
0.0
 11
-651.6811166105812
 21
955.2067858391927
 31
0.0
  0
LINE
  5
303
330
1F
100
AcDbEntity
  8
0-2_本体（蓋）
  6
JWW_DASHED1
 62
     4
370
     9
100
AcDbLine
 10
-651.6811166105812
 20
923.2067303247056
 30
0.0
 11
-751.6811105572988
 21
923.2067303247056
 31
0.0
  0
LINE
  5
304
330
1F
100
AcDbEntity
  8
0-2_本体（蓋）
  6
JWW_DASHED1
 62
     4
370
     9
100
AcDbLine
 10
-651.6811166105812
 20
955.2067858391927
 30
0.0
 11
-751.6811105572988
 21
955.2067858391927
 31
0.0
  0
LINE
  5
305
330
1F
100
AcDbEntity
  8
0-2_本体（蓋）
  6
JWW_DASHED1
 62
     4
370
     9
100
AcDbLine
 10
-751.6811105572988
 20
923.2067303247056
 30
0.0
 11
-751.6811105572988
 21
955.2067858391927
 31
0.0
  0
LINE
  5
306
330
1F
100
AcDbEntity
  8
0-2_本体（蓋）
  6
Continuous
 62
     2
370
     9
100
AcDbLine
 10
-701.6810486939959
 20
-220.7938877157257
 30
0.0
 11
-701.681048694346
 21
-220.7940009196197
 31
0.0
  0
LINE
  5
307
330
1F
100
AcDbEntity
  8
0-2_本体（蓋）
  6
Continuous
 62
     7
370
     9
100
AcDbLine
 10
-701.6811105572988
 20
-260.7939676330747
 30
0.0
 11
-701.6810486939959
 21
-220.7938877157257
 31
0.0
  0
LINE
  5
308
330
1F
100
AcDbEntity
  8
0-2_本体（蓋）
  6
Continuous
 62
     2
370
     9
100
AcDbLine
 10
-679.3945812897095
 20
-238.0804207438501
 30
0.0
 11
-673.9677016790736
 21
-243.5073003544861
 31
0.0
  0
LINE
  5
309
330
1F
100
AcDbEntity
  8
0-2_本体（蓋）
  6
Continuous
 62
     2
370
     9
100
AcDbLine
 10
-673.9675779528502
 20
-238.0802970176269
 30
0.0
 11
-679.3944575634862
 21
-243.5071766282628
 31
0.0
  0
LINE
  5
30A
330
1F
100
AcDbEntity
  8
0-2_本体（蓋）
  6
JWW_CENTER1
 62
     4
370
     9
100
AcDbLine
 10
-676.6808940319447
 20
-228.7936541419005
 30
0.0
 11
-676.681265210615
 21
-252.7936957777658
 31
0.0
  0
CIRCLE
  5
30B
330
1F
100
AcDbEntity
  8
0-2_本体（蓋）
  6
Continuous
 62
     3
370
     9
100
AcDbCircle
 10
-676.6811414843914
 20
-240.7938605491682
 30
0.0
 40
6.999999779531853
  0
LINE
  5
30C
330
1F
100
AcDbEntity
  8
0-2_本体（蓋）
  6
JWW_DASHED1
 62
     4
370
     9
100
AcDbLine
 10
-751.6811663669365
 20
-224.7938327919248
 30
0.0
 11
-751.6811663669368
 21
-256.7938883064114
 31
0.0
  0
LINE
  5
30D
330
1F
100
AcDbEntity
  8
0-2_本体（蓋）
  6
JWW_DASHED1
 62
     4
370
     9
100
AcDbLine
 10
-751.6811663669365
 20
-224.7938327919248
 30
0.0
 11
-651.6811105572988
 21
-224.7937296866473
 31
0.0
  0
LINE
  5
30E
330
1F
100
AcDbEntity
  8
0-2_本体（蓋）
  6
JWW_DASHED1
 62
     4
370
     9
100
AcDbLine
 10
-751.6811663669368
 20
-256.7938883064114
 30
0.0
 11
-651.6811105572988
 21
-256.793785201134
 31
0.0
  0
LINE
  5
30F
330
1F
100
AcDbEntity
  8
0-2_本体（蓋）
  6
JWW_DASHED1
 62
     4
370
     9
100
AcDbLine
 10
-651.6811105572988
 20
-224.7937296866473
 30
0.0
 11
-651.6811105572988
 21
-256.793785201134
 31
0.0
  0
LINE
  5
310
330
1F
100
AcDbEntity
  8
0-2_本体（蓋）
  6
JWW_CENTER1
 62
     4
370
     9
100
AcDbLine
 10
-692.7645034404873
 20
-240.7939237020628
 30
0.0
 11
-664.6810588033472
 21
-240.793489370498
 31
0.0
  0
LINE
  5
311
330
1F
100
AcDbEntity
  8
0-2_本体（蓋）
  6
JWW_CENTER2
 62
     4
370
     9
100
AcDbLine
 10
-466.805663785665
 20
-194.8222725224906
 30
0.0
 11
-482.4710231088992
 21
-201.3110768136222
 31
0.0
  0
LINE
  5
312
330
1F
100
AcDbEntity
  8
0-2_本体（蓋）
  6
JWW_DASHED1
 62
     3
370
     9
100
AcDbLine
 10
-452.6730638974579
 20
-202.4982604808579
 30
0.0
 11
-487.7804861328869
 21
-217.0402309107314
 31
0.0
  0
LINE
  5
313
330
1F
100
AcDbEntity
  8
0-2_本体（蓋）
  6
JWW_DASHED1
 62
     3
370
     9
100
AcDbLine
 10
-480.9463938423065
 20
-200.6795546938086
 30
0.0
 11
-476.1628509377429
 21
-212.2280488501997
 31
0.0
  0
ARC
  5
314
330
1F
100
AcDbEntity
  8
0-2_本体（蓋）
  6
JWW_DASHED1
 62
     3
370
     9
100
AcDbCircle
 10
-474.9411976228475
 20
-198.1920623081452
 30
0.0
 40
6.5
100
AcDbArc
 50
22.5
 51
202.5
  0
LINE
  5
315
330
1F
100
AcDbEntity
  8
0-2_本体（蓋）
  6
JWW_DASHED1
 62
     3
370
     9
100
AcDbLine
 10
-468.9359599196598
 20
-195.7046700730623
 30
0.0
 11
-464.1524170150961
 21
-207.2531642294535
 31
0.0
  0
LINE
  5
316
330
1F
100
AcDbEntity
  8
0-2_本体（蓋）
  6
JWW_DASHED1
 62
     3
370
     9
100
AcDbLine
 10
-466.0669840302362
 20
-170.1624768429629
 30
0.0
 11
-452.6730638974579
 21
-202.4982604808579
 31
0.0
  0
LINE
  5
317
330
1F
100
AcDbEntity
  8
0-2_本体（蓋）
  6
JWW_CENTER2
 62
     4
370
     9
100
AcDbLine
 10
-463.8915944589888
 20
-224.8681641251734
 30
0.0
 11
-487.4630171815477
 21
-167.9617157039423
 31
0.0
  0
LINE
  5
318
330
1F
100
AcDbEntity
  8
0-2_本体（蓋）
  6
JWW_DASHED1
 62
     3
370
     9
100
AcDbLine
 10
-487.7804861328869
 20
-217.0402309107314
 30
0.0
 11
-501.1744062656651
 21
-184.7044472728363
 31
0.0
  0
LINE
  5
319
330
1F
100
AcDbEntity
  8
0-2_本体（蓋）
  6
JWW_DASHED1
 62
     3
370
     9
100
AcDbLine
 10
-499.4523308200223
 20
-188.8619051691371
 30
0.0
 11
-464.3449085845933
 21
-174.3199347392637
 31
0.0
  0
LINE
  5
31A
330
1F
100
AcDbEntity
  8
0-2_本体（蓋）
  6
JWW_DASHED1
 62
     3
370
     9
100
AcDbLine
 10
-466.0669840302361
 20
-170.1624768429629
 30
0.0
 11
-501.1744062656651
 21
-184.7044472728363
 31
0.0
  0
LINE
  5
31B
330
1F
100
AcDbEntity
  8
0-2_本体（蓋）
  6
JWW_CENTER2
 62
     4
370
     9
100
AcDbLine
 10
-150.9126476834169
 20
130.6020900485046
 30
0.0
 11
-157.4014519745483
 21
114.9367307252703
 31
0.0
  0
LINE
  5
31C
330
1F
100
AcDbEntity
  8
0-2_本体（蓋）
  6
JWW_DASHED1
 62
     3
370
     9
100
AcDbLine
 10
-150.0336177588752
 20
100.0601818921553
 30
0.0
 11
-182.3694013967702
 21
113.4541020249334
 31
0.0
  0
LINE
  5
31D
330
1F
100
AcDbEntity
  8
0-2_本体（蓋）
  6
JWW_DASHED1
 62
     3
370
     9
100
AcDbLine
 10
-135.4916473290018
 20
135.1676041275843
 30
0.0
 11
-150.0336177588752
 21
100.0601818921553
 31
0.0
  0
LINE
  5
31E
330
1F
100
AcDbEntity
  8
0-2_本体（蓋）
  6
JWW_DASHED1
 62
     3
370
     9
100
AcDbLine
 10
-156.7699298547347
 20
116.461359991863
 30
0.0
 11
-145.2214356983435
 21
111.6778170872994
 31
0.0
  0
ARC
  5
31F
330
1F
100
AcDbEntity
  8
0-2_本体（蓋）
  6
JWW_DASHED1
 62
     3
370
     9
100
AcDbCircle
 10
-154.2825376196519
 20
122.4665976950508
 30
0.0
 40
6.5
100
AcDbArc
 50
67.5
 51
247.5
  0
LINE
  5
320
330
1F
100
AcDbEntity
  8
0-2_本体（蓋）
  6
JWW_DASHED1
 62
     3
370
     9
100
AcDbLine
 10
-151.7950452339886
 20
128.4717939145099
 30
0.0
 11
-140.2465510775974
 21
123.6882510099462
 31
0.0
  0
LINE
  5
321
330
1F
100
AcDbEntity
  8
0-2_本体（蓋）
  6
JWW_DASHED1
 62
     3
370
     9
100
AcDbLine
 10
-167.8274309668968
 20
148.5615242603624
 30
0.0
 11
-135.4916473290018
 21
135.1676041275843
 31
0.0
  0
LINE
  5
322
330
1F
100
AcDbEntity
  8
0-2_本体（蓋）
  6
JWW_CENTER2
 62
     4
370
     9
100
AcDbLine
 10
-127.6064358026236
 20
111.4169945311922
 30
0.0
 11
-184.5128842238547
 21
134.988417253751
 31
0.0
  0
LINE
  5
323
330
1F
100
AcDbEntity
  8
0-2_本体（蓋）
  6
JWW_DASHED1
 62
     3
370
     9
100
AcDbLine
 10
-178.2119435004693
 20
111.7320265792904
 30
0.0
 11
-163.6699730705961
 21
146.8394488147194
 31
0.0
  0
LINE
  5
324
330
1F
100
AcDbEntity
  8
0-2_本体（蓋）
  6
JWW_CENTER2
 62
     4
370
     9
100
AcDbLine
 10
-157.6523274053061
 20
584.0819574011358
 30
0.0
 11
-151.1635231141747
 21
568.4165980779014
 31
0.0
  0
LINE
  5
325
330
1F
100
AcDbEntity
  8
0-2_本体（蓋）
  6
JWW_DASHED1
 62
     3
370
     9
100
AcDbLine
 10
-135.4343690170654
 20
563.1071350539137
 30
0.0
 11
-167.7701526549605
 21
549.7132149211357
 31
0.0
  0
LINE
  5
326
330
1F
100
AcDbEntity
  8
0-2_本体（蓋）
  6
JWW_DASHED1
 62
     3
370
     9
100
AcDbLine
 10
-149.9763394469389
 20
598.2145572893428
 30
0.0
 11
-135.4343690170654
 21
563.1071350539137
 31
0.0
  0
LINE
  5
327
330
1F
100
AcDbEntity
  8
0-2_本体（蓋）
  6
JWW_DASHED1
 62
     3
370
     9
100
AcDbLine
 10
-151.7950452339883
 20
569.9412273444941
 30
0.0
 11
-140.2465510775971
 21
574.7247702490578
 31
0.0
  0
ARC
  5
328
330
1F
100
AcDbEntity
  8
0-2_本体（蓋）
  6
JWW_DASHED1
 62
     3
370
     9
100
AcDbCircle
 10
-154.2825376196517
 20
575.9464235639533
 30
0.0
 40
6.5
100
AcDbArc
 50
112.5
 51
292.5
  0
LINE
  5
329
330
1F
100
AcDbEntity
  8
0-2_本体（蓋）
  6
JWW_DASHED1
 62
     3
370
     9
100
AcDbLine
 10
-156.7699298547345
 20
581.951661267141
 30
0.0
 11
-145.2214356983433
 21
586.7352041717047
 31
0.0
  0
LINE
  5
32A
330
1F
100
AcDbEntity
  8
0-2_本体（蓋）
  6
JWW_DASHED1
 62
     3
370
     9
100
AcDbLine
 10
-182.3121230848339
 20
584.8206371565645
 30
0.0
 11
-149.9763394469389
 21
598.2145572893428
 31
0.0
  0
LINE
  5
32B
330
1F
100
AcDbEntity
  8
0-2_本体（蓋）
  6
JWW_CENTER2
 62
     4
370
     9
100
AcDbLine
 10
-127.6064358026234
 20
586.9960267278119
 30
0.0
 11
-184.5128842238545
 21
563.4246040052531
 31
0.0
  0
LINE
  5
32C
330
1F
100
AcDbEntity
  8
0-2_本体（蓋）
  6
JWW_DASHED1
 62
     3
370
     9
100
AcDbLine
 10
-178.2119435004691
 20
586.6809946797136
 30
0.0
 11
-163.6699730705959
 21
551.5735724442847
 31
0.0
  0
LINE
  5
32D
330
1F
100
AcDbEntity
  8
0-2_本体（蓋）
  6
JWW_CENTER2
 62
     4
370
     9
100
AcDbLine
 10
-483.0766899763013
 20
899.9749735033843
 30
0.0
 11
-467.4113306530671
 21
893.4861692122525
 31
0.0
  0
LINE
  5
32E
330
1F
100
AcDbEntity
  8
0-2_本体（蓋）
  6
JWW_DASHED1
 62
     3
370
     9
100
AcDbLine
 10
-452.5347818199521
 20
900.8540034279258
 30
0.0
 11
-465.9287019527302
 21
868.5182197900308
 31
0.0
  0
LINE
  5
32F
330
1F
100
AcDbEntity
  8
0-2_本体（蓋）
  6
JWW_DASHED1
 62
     3
370
     9
100
AcDbLine
 10
-487.6422040553809
 20
915.3959738577993
 30
0.0
 11
-452.5347818199519
 21
900.8540034279257
 31
0.0
  0
LINE
  5
330
330
1F
100
AcDbEntity
  8
0-2_本体（蓋）
  6
JWW_DASHED1
 62
     3
370
     9
100
AcDbLine
 10
-468.9359599196597
 20
894.1176913320662
 30
0.0
 11
-464.152417015096
 21
905.6661854884574
 31
0.0
  0
ARC
  5
331
330
1F
100
AcDbEntity
  8
0-2_本体（蓋）
  6
JWW_DASHED1
 62
     3
370
     9
100
AcDbCircle
 10
-474.9411976228477
 20
896.6050835671491
 30
0.0
 40
6.5
100
AcDbArc
 50
157.5
 51
337.5
  0
LINE
  5
332
330
1F
100
AcDbEntity
  8
0-2_本体（蓋）
  6
JWW_DASHED1
 62
     3
370
     9
100
AcDbLine
 10
-480.9463938423066
 20
899.0925759528126
 30
0.0
 11
-476.162850937743
 21
910.6410701092036
 31
0.0
  0
LINE
  5
333
330
1F
100
AcDbEntity
  8
0-2_本体（蓋）
  6
JWW_DASHED1
 62
     3
370
     9
100
AcDbLine
 10
-501.0361241881591
 20
883.0601902199043
 30
0.0
 11
-487.6422040553809
 21
915.3959738577992
 31
0.0
  0
LINE
  5
334
330
1F
100
AcDbEntity
  8
0-2_本体（蓋）
  6
JWW_CENTER2
 62
     4
370
     9
100
AcDbLine
 10
-463.8915944589888
 20
923.2811853841774
 30
0.0
 11
-487.4630171815478
 21
866.3747369629464
 31
0.0
  0
LINE
  5
335
330
1F
100
AcDbEntity
  8
0-2_本体（蓋）
  6
JWW_DASHED1
 62
     3
370
     9
100
AcDbLine
 10
-499.4523308200223
 20
887.2749264281413
 30
0.0
 11
-464.3449085845934
 21
872.7329559982677
 31
0.0
  0
CIRCLE
  5
336
330
1F
100
AcDbEntity
  8
0-2_本体（蓋）
  6
Continuous
 62
     7
370
     9
100
AcDbCircle
 10
-701.6811105572988
 20
349.206510629502
 30
0.0
 40
605.0
  0
TEXT
  5
337
330
1F
100
AcDbEntity
  8
0-4_寸法
  6
Continuous
 62
     2
370
     9
100
AcDbText
 10
-582.8720647550535
 20
33.83380189765117
 30
0.0
 40
30.48
  1
22.5ﾟ
 50
191.25
 41
1.1
  7
ＭＳ ゴシック
100
AcDbText
  0
ARC
  5
338
330
1F
100
AcDbEntity
  8
0-4_寸法
  6
Continuous
 62
     7
370
     9
100
AcDbCircle
 10
-701.6811105572988
 20
349.206510629502
 30
0.0
 40
320.8514055690836
100
AcDbArc
 50
270.0
 51
292.5
  0
LINE
  5
339
330
1F
100
AcDbEntity
  8
0-4_寸法
  6
Continuous
 62
     7
370
     9
100
AcDbLine
 10
-701.6811105572988
 20
28.35510506041842
 30
0.0
 11
-676.8949890229535
 21
31.61825986591971
 31
0.0
  0
LINE
  5
33A
330
1F
100
AcDbEntity
  8
0-4_寸法
  6
Continuous
 62
     7
370
     9
100
AcDbLine
 10
-701.6811105572988
 20
28.35510506041842
 30
0.0
 11
-676.8949890229535
 21
25.09195025491714
 31
0.0
  0
LINE
  5
33B
330
1F
100
AcDbEntity
  8
0-4_寸法
  6
Continuous
 62
     7
370
     9
100
AcDbLine
 10
-557.2459583003474
 20
65.27846404674781
 30
0.0
 11
-600.5472284895694
 21
40.27846404674782
 31
0.0
  0
LINE
  5
33C
330
1F
100
AcDbEntity
  8
0-4_寸法
  6
Continuous
 62
     7
370
     9
100
AcDbLine
 10
-554.7484477377317
 20
59.24894017431085
 30
0.0
 11
-603.0447390521852
 21
46.3079879191848
 31
0.0
  0
LINE
  5
33D
330
1F
100
AcDbEntity
  8
0-4_寸法
  6
Continuous
 62
     7
370
     9
100
AcDbLine
 10
-701.6811105572988
 20
-157.7291890917468
 30
0.0
 11
-701.6811105572988
 21
31.35510506041843
 31
0.0
  0
LINE
  5
33E
330
1F
100
AcDbEntity
  8
0-4_寸法
  6
Continuous
 62
     7
370
     9
100
AcDbLine
 10
-507.6852169995728
 20
-119.1410066422473
 30
0.0
 11
-580.0446436920537
 21
55.55010264428169
 31
0.0
  0
TEXT
  5
33F
330
1F
100
AcDbEntity
  8
0-4_寸法
  6
Continuous
 62
     2
370
     9
100
AcDbText
 10
-443.5932126045903
 20
137.0805534539192
 30
0.0
 40
30.48
  1
45ﾟ
 50
225.0
 41
1.083333333333333
  7
ＭＳ ゴシック
100
AcDbText
  0
ARC
  5
340
330
1F
100
AcDbEntity
  8
0-4_寸法
  6
Continuous
 62
     7
370
     9
100
AcDbCircle
 10
-701.6811105572988
 20
349.206510629502
 30
0.0
 40
320.8514055690836
100
AcDbArc
 50
292.5
 51
337.5
  0
LINE
  5
341
330
1F
100
AcDbEntity
  8
0-4_寸法
  6
Continuous
 62
     7
370
     9
100
AcDbLine
 10
-398.7825878469815
 20
250.5701391243883
 30
0.0
 11
-411.7235401021076
 21
202.2738478099349
 31
0.0
  0
LINE
  5
342
330
1F
100
AcDbEntity
  8
0-4_寸法
  6
Continuous
 62
     7
370
     9
100
AcDbLine
 10
-392.7530639745446
 20
248.0726285617726
 30
0.0
 11
-417.7530639745446
 21
204.7713583725507
 31
0.0
  0
LINE
  5
343
330
1F
100
AcDbEntity
  8
0-4_寸法
  6
Continuous
 62
     7
370
     9
100
AcDbLine
 10
-233.3335932855493
 20
155.210617071776
 30
0.0
 11
-408.0247025720785
 21
227.5700437642569
 31
0.0
  0
TEXT
  5
344
330
1F
100
AcDbEntity
  8
0-4_寸法
  6
Continuous
 62
     2
370
     9
100
AcDbText
 10
-369.1897049882152
 20
381.706510629502
 30
0.0
 40
30.48
  1
45ﾟ
 50
270.0
 41
1.083333333333333
  7
ＭＳ ゴシック
100
AcDbText
  0
ARC
  5
345
330
1F
100
AcDbEntity
  8
0-4_寸法
  6
Continuous
 62
     7
370
     9
100
AcDbCircle
 10
-701.6811105572988
 20
349.206510629502
 30
0.0
 40
320.8514055690836
100
AcDbArc
 50
337.5
 51
22.50000000000002
  0
LINE
  5
346
330
1F
100
AcDbEntity
  8
0-4_寸法
  6
Continuous
 62
     7
370
     9
100
AcDbLine
 10
-417.7530639745447
 20
493.6416628864533
 30
0.0
 11
-392.7530639745447
 21
450.3403926972314
 31
0.0
  0
LINE
  5
347
330
1F
100
AcDbEntity
  8
0-4_寸法
  6
Continuous
 62
     7
370
     9
100
AcDbLine
 10
-411.7235401021077
 20
496.1391734490691
 30
0.0
 11
-398.7825878469816
 21
447.8428821346156
 31
0.0
  0
LINE
  5
348
330
1F
100
AcDbEntity
  8
0-4_寸法
  6
Continuous
 62
     7
370
     9
100
AcDbLine
 10
-233.3335932855495
 20
543.202404187228
 30
0.0
 11
-408.0247025720785
 21
470.8429774947471
 31
0.0
  0
TEXT
  5
349
330
1F
100
AcDbEntity
  8
0-4_寸法
  6
Continuous
 62
     2
370
     9
100
AcDbText
 10
-489.555153381716
 20
607.2944085822104
 30
0.0
 40
30.48
  1
45ﾟ
 50
315.0
 41
1.083333333333333
  7
ＭＳ ゴシック
100
AcDbText
  0
ARC
  5
34A
330
1F
100
AcDbEntity
  8
0-4_寸法
  6
Continuous
 62
     7
370
     9
100
AcDbCircle
 10
-701.6811105572988
 20
349.206510629502
 30
0.0
 40
320.8514055690836
100
AcDbArc
 50
22.50000000000001
 51
67.5
  0
LINE
  5
34B
330
1F
100
AcDbEntity
  8
0-4_寸法
  6
Continuous
 62
     7
370
     9
100
AcDbLine
 10
-603.0447390521852
 20
652.1050333398192
 30
0.0
 11
-554.7484477377317
 21
639.1640810846931
 31
0.0
  0
LINE
  5
34C
330
1F
100
AcDbEntity
  8
0-4_寸法
  6
Continuous
 62
     7
370
     9
100
AcDbLine
 10
-600.5472284895694
 20
658.1345572122561
 30
0.0
 11
-557.2459583003474
 21
633.1345572122561
 31
0.0
  0
LINE
  5
34D
330
1F
100
AcDbEntity
  8
0-4_寸法
  6
Continuous
 62
     7
370
     9
100
AcDbLine
 10
-507.6852169995728
 20
817.5540279012513
 30
0.0
 11
-580.0446436920537
 21
642.8629186147223
 31
0.0
  0
TEXT
  5
34E
330
1F
100
AcDbEntity
  8
0-4_寸法
  6
Continuous
 62
     2
370
     9
100
AcDbText
 10
-690.7584455994089
 20
686.0391547831271
 30
0.0
 40
30.48
  1
22.5ﾟ
 50
348.75
 41
1.1
  7
ＭＳ ゴシック
100
AcDbText
  0
ARC
  5
34F
330
1F
100
AcDbEntity
  8
0-4_寸法
  6
Continuous
 62
     7
370
     9
100
AcDbCircle
 10
-701.6811105572988
 20
349.206510629502
 30
0.0
 40
320.8514055690836
100
AcDbArc
 50
67.5
 51
90.0
  0
LINE
  5
350
330
1F
100
AcDbEntity
  8
0-4_寸法
  6
Continuous
 62
     7
370
     9
100
AcDbLine
 10
-701.6811105572988
 20
670.0579161985855
 30
0.0
 11
-676.8949890229535
 21
673.3210710040869
 31
0.0
  0
LINE
  5
351
330
1F
100
AcDbEntity
  8
0-4_寸法
  6
Continuous
 62
     7
370
     9
100
AcDbLine
 10
-701.6811105572988
 20
670.0579161985855
 30
0.0
 11
-676.8949890229535
 21
666.7947613930842
 31
0.0
  0
LINE
  5
352
330
1F
100
AcDbEntity
  8
0-4_寸法
  6
Continuous
 62
     7
370
     9
100
AcDbLine
 10
-701.6811105572988
 20
856.1422103507507
 30
0.0
 11
-701.6811105572988
 21
667.0579161985856
 31
0.0
  0
LINE
  5
353
330
1F
100
AcDbEntity
  8
0-0_通り芯
  6
JWW_CENTER1
 62
     7
370
     9
100
AcDbLine
 10
-701.6811105572988
 20
1049.758216877029
 30
0.0
 11
-701.6811105572988
 21
-346.1626600363093
 31
0.0
  0
LINE
  5
354
330
1F
100
AcDbEntity
  8
0-0_通り芯
  6
JWW_CENTER1
 62
     7
370
     9
100
AcDbLine
 10
-1405.602179918627
 20
349.206510629502
 30
0.0
 11
-5.646849603805606
 21
349.206510629502
 31
0.0
  0
LINE
  5
355
330
1F
100
AcDbEntity
  8
0-2_本体（蓋）
  6
Continuous
 62
     3
370
     9
100
AcDbLine
 10
-651.6811105572988
 20
-874.7904650893208
 30
0.0
 11
-751.6811105572988
 21
-874.7904650893208
 31
0.0
  0
LINE
  5
356
330
1F
100
AcDbEntity
  8
0-2_本体（蓋）
  6
Continuous
 62
     3
370
     9
100
AcDbLine
 10
-751.6811105572988
 20
-874.7904650893208
 30
0.0
 11
-751.6811105572988
 21
-868.7904650893211
 31
0.0
  0
LINE
  5
357
330
1F
100
AcDbEntity
  8
0-2_本体（蓋）
  6
Continuous
 62
     3
370
     9
100
AcDbLine
 10
-651.6811105572988
 20
-874.7904650893208
 30
0.0
 11
-651.6811105572988
 21
-868.7904650893211
 31
0.0
  0
LINE
  5
358
330
1F
100
AcDbEntity
  8
0-2_本体（蓋）
  6
Continuous
 62
     7
370
     9
100
AcDbLine
 10
-680.6815505912105
 20
-883.7896199055838
 30
0.0
 11
-672.6813297806257
 21
-883.7896199055838
 31
0.0
  0
LINE
  5
359
330
1F
100
AcDbEntity
  8
0-2_本体（蓋）
  6
Continuous
 62
     7
370
     9
100
AcDbLine
 10
-669.1814737670368
 20
-882.1686486972103
 30
0.0
 11
-669.1814737670368
 21
-876.3904392613165
 31
0.0
  0
LINE
  5
35A
330
1F
100
AcDbEntity
  8
0-2_本体（蓋）
  6
Continuous
 62
     7
370
     9
100
AcDbLine
 10
-672.933994118373
 20
-882.1686486972103
 30
0.0
 11
-672.933994118373
 21
-876.3904392613165
 31
0.0
  0
LINE
  5
35B
330
1F
100
AcDbEntity
  8
0-2_本体（蓋）
  6
Continuous
 62
     7
370
     9
100
AcDbLine
 10
-680.4285363028566
 20
-882.1686486972103
 30
0.0
 11
-680.4285363028566
 21
-876.3904392613165
 31
0.0
  0
LINE
  5
35C
330
1F
100
AcDbEntity
  8
0-2_本体（蓋）
  6
Continuous
 62
     7
370
     9
100
AcDbLine
 10
-671.0579089180078
 20
-882.8905967980039
 30
0.0
 11
-682.3049714538283
 21
-882.8905967980039
 31
0.0
  0
LINE
  5
35D
330
1F
100
AcDbEntity
  8
0-2_本体（蓋）
  6
Continuous
 62
     7
370
     9
100
AcDbLine
 10
-668.9312590835334
 20
-876.3904392613165
 30
0.0
 11
-668.9312590835334
 21
-874.7904650893208
 31
0.0
  0
LINE
  5
35E
330
1F
100
AcDbEntity
  8
0-2_本体（蓋）
  6
Continuous
 62
     7
370
     9
100
AcDbLine
 10
-684.1814066047996
 20
-882.1686486972103
 30
0.0
 11
-684.1814066047996
 21
-876.3904392613165
 31
0.0
  0
LINE
  5
35F
330
1F
100
AcDbEntity
  8
0-2_本体（蓋）
  6
Continuous
 62
     7
370
     9
100
AcDbLine
 10
-668.9312590835334
 20
-876.3904392613165
 30
0.0
 11
-684.4312713376962
 21
-876.3904392613165
 31
0.0
  0
LINE
  5
360
330
1F
100
AcDbEntity
  8
0-2_本体（蓋）
  6
Continuous
 62
     7
370
     9
100
AcDbLine
 10
-684.4312713376962
 20
-876.3904392613165
 30
0.0
 11
-684.4312713376962
 21
-874.7904650893208
 31
0.0
  0
LINE
  5
361
330
1F
100
AcDbEntity
  8
0-2_本体（蓋）
  6
Continuous
 62
     7
370
     9
100
AcDbLine
 10
-679.581305885009
 20
-882.8905967980039
 30
0.0
 11
-679.581305885009
 21
-883.7896199055838
 31
0.0
  0
LINE
  5
362
330
1F
100
AcDbEntity
  8
0-2_本体（蓋）
  6
Continuous
 62
     7
370
     9
100
AcDbLine
 10
-680.6815505912105
 20
-882.8905967980039
 30
0.0
 11
-680.6815505912105
 21
-883.7896199055838
 31
0.0
  0
LINE
  5
363
330
1F
100
AcDbEntity
  8
0-2_本体（蓋）
  6
Continuous
 62
     7
370
     9
100
AcDbLine
 10
-673.7815744868271
 20
-882.8905967980039
 30
0.0
 11
-673.7815744868271
 21
-883.7896199055838
 31
0.0
  0
LINE
  5
364
330
1F
100
AcDbEntity
  8
0-2_本体（蓋）
  6
Continuous
 62
     7
370
     9
100
AcDbLine
 10
-672.6813297806257
 20
-882.8905967980039
 30
0.0
 11
-672.6813297806257
 21
-883.7896199055838
 31
0.0
  0
ARC
  5
365
330
1F
100
AcDbEntity
  8
0-2_本体（蓋）
  6
Continuous
 62
     7
370
     9
100
AcDbCircle
 10
-671.0579089180078
 20
-880.0902920464051
 30
0.0
 40
2.800173007498377
100
AcDbArc
 50
227.9255676269531
 51
312.0746307373046
  0
ARC
  5
366
330
1F
100
AcDbEntity
  8
0-2_本体（蓋）
  6
Continuous
 62
     7
370
     9
100
AcDbCircle
 10
-676.681265210615
 20
-872.8009958925152
 30
0.0
 40
10.08940884275326
100
AcDbArc
 50
248.1978607177734
 51
291.8021392822266
  0
ARC
  5
367
330
1F
100
AcDbEntity
  8
0-2_本体（蓋）
  6
Continuous
 62
     7
370
     9
100
AcDbCircle
 10
-682.3049714538283
 20
-880.0902920464051
 30
0.0
 40
2.800189240558728
100
AcDbArc
 50
227.9257202148438
 51
312.0742797851562
  0
LINE
  5
368
330
1F
100
AcDbEntity
  8
0-2_本体（蓋）
  6
JWW_CENTER1
 62
     4
370
     9
100
AcDbLine
 10
-676.681265210615
 20
-853.6540862565982
 30
0.0
 11
-676.681265210615
 21
-895.0450750189435
 31
0.0
  0
LINE
  5
369
330
1F
100
AcDbEntity
  8
0-2_本体（蓋）
  6
JWW_CENTER1
 62
     7
370
     9
100
AcDbLine
 10
-701.6811105572988
 20
-803.0354460670901
 30
0.0
 11
-701.6811105572988
 21
-916.2019482059128
 31
0.0
  0
LINE
  5
36A
330
1F
100
AcDbEntity
  8
0-2_本体（蓋）
  6
Continuous
 62
     3
370
     9
100
AcDbLine
 10
-452.6730638974579
 20
-868.7904650893211
 30
0.0
 11
-452.6730638974579
 21
-873.2904650893211
 31
0.0
  0
LINE
  5
36B
330
1F
100
AcDbEntity
  8
0-2_本体（蓋）
  6
Continuous
 62
     3
370
     9
100
AcDbLine
 10
-452.6730638974579
 20
-924.2904650893211
 30
0.0
 11
-452.6730638974579
 21
-928.7904650893211
 31
0.0
  0
LINE
  5
36C
330
1F
100
AcDbEntity
  8
0-2_本体（蓋）
  6
Continuous
 62
     3
370
     9
100
AcDbLine
 10
-464.3449085845933
 20
-873.2904650893211
 30
0.0
 11
-464.3449085845933
 21
-924.2904650893211
 31
0.0
  0
LINE
  5
36D
330
1F
100
AcDbEntity
  8
0-2_本体（蓋）
  6
Continuous
 62
     3
370
     9
100
AcDbLine
 10
-487.7804861328869
 20
-868.7904650893211
 30
0.0
 11
-487.7804861328869
 21
-873.2904650893211
 31
0.0
  0
LINE
  5
36E
330
1F
100
AcDbEntity
  8
0-2_本体（蓋）
  6
Continuous
 62
     3
370
     9
100
AcDbLine
 10
-487.7804861328869
 20
-924.2904650893211
 30
0.0
 11
-487.7804861328869
 21
-928.7904650893211
 31
0.0
  0
LINE
  5
36F
330
1F
100
AcDbEntity
  8
0-2_本体（蓋）
  6
Continuous
 62
     3
370
     9
100
AcDbLine
 10
-501.1744062656651
 20
-868.7904650893211
 30
0.0
 11
-501.1744062656651
 21
-928.7904650893211
 31
0.0
  0
LINE
  5
370
330
1F
100
AcDbEntity
  8
0-2_本体（蓋）
  6
Continuous
 62
     3
370
     9
100
AcDbLine
 10
-452.6730638974579
 20
-928.7904650893211
 30
0.0
 11
-501.1744062656651
 21
-928.7904650893211
 31
0.0
  0
LINE
  5
371
330
1F
100
AcDbEntity
  8
0-2_本体（蓋）
  6
Continuous
 62
     3
370
     9
100
AcDbLine
 10
-499.4523308200223
 20
-873.2904650893211
 30
0.0
 11
-499.4523308200223
 21
-924.2904650893211
 31
0.0
  0
LINE
  5
372
330
1F
100
AcDbEntity
  8
0-2_本体（蓋）
  6
Continuous
 62
     3
370
     9
100
AcDbLine
 10
-452.6730638974579
 20
-873.2904650893211
 30
0.0
 11
-499.4523308200223
 21
-873.2904650893211
 31
0.0
  0
LINE
  5
373
330
1F
100
AcDbEntity
  8
0-2_本体（蓋）
  6
Continuous
 62
     3
370
     9
100
AcDbLine
 10
-452.6730638974579
 20
-924.2904650893211
 30
0.0
 11
-499.4523308200223
 21
-924.2904650893211
 31
0.0
  0
LINE
  5
374
330
1F
100
AcDbEntity
  8
0-2_本体（蓋）
  6
Continuous
 62
     3
370
     9
100
AcDbLine
 10
-135.4916473290018
 20
-868.7904650893211
 30
0.0
 11
-135.4916473290018
 21
-873.2904650893211
 31
0.0
  0
LINE
  5
375
330
1F
100
AcDbEntity
  8
0-2_本体（蓋）
  6
Continuous
 62
     3
370
     9
100
AcDbLine
 10
-135.4916473290018
 20
-924.2904650893211
 30
0.0
 11
-135.4916473290018
 21
-928.7904650893211
 31
0.0
  0
LINE
  5
376
330
1F
100
AcDbEntity
  8
0-2_本体（蓋）
  6
Continuous
 62
     3
370
     9
100
AcDbLine
 10
-182.3694013967702
 20
-868.7904650893211
 30
0.0
 11
-182.3694013967702
 21
-928.7904650893211
 31
0.0
  0
LINE
  5
377
330
1F
100
AcDbEntity
  8
0-2_本体（蓋）
  6
Continuous
 62
     3
370
     9
100
AcDbLine
 10
-182.3694013967702
 20
-928.7904650893211
 30
0.0
 11
-135.4916473290018
 21
-928.7904650893211
 31
0.0
  0
LINE
  5
378
330
1F
100
AcDbEntity
  8
0-2_本体（蓋）
  6
Continuous
 62
     3
370
     9
100
AcDbLine
 10
-178.2119435004693
 20
-873.2904650893211
 30
0.0
 11
-178.2119435004693
 21
-924.2904650893211
 31
0.0
  0
LINE
  5
379
330
1F
100
AcDbEntity
  8
0-2_本体（蓋）
  6
Continuous
 62
     3
370
     9
100
AcDbLine
 10
-135.4916473290018
 20
-873.2904650893211
 30
0.0
 11
-178.2119435004693
 21
-873.2904650893211
 31
0.0
  0
LINE
  5
37A
330
1F
100
AcDbEntity
  8
0-2_本体（蓋）
  6
Continuous
 62
     3
370
     9
100
AcDbLine
 10
-178.2119435004693
 20
-924.2904650893211
 30
0.0
 11
-135.4916473290018
 21
-924.2904650893211
 31
0.0
  0
LINE
  5
37B
330
1F
100
AcDbEntity
  8
0-2_本体（蓋）
  6
Continuous
 62
     3
370
     9
100
AcDbLine
 10
-150.0336177588752
 20
-868.7904650893211
 30
0.0
 11
-150.0336177588752
 21
-873.2904650893211
 31
0.0
  0
LINE
  5
37C
330
1F
100
AcDbEntity
  8
0-2_本体（蓋）
  6
Continuous
 62
     3
370
     9
100
AcDbLine
 10
-150.0336177588752
 20
-924.2904650893211
 30
0.0
 11
-150.0336177588752
 21
-928.7904650893211
 31
0.0
  0
LINE
  5
37D
330
1F
100
AcDbEntity
  8
0-2_本体（蓋）
  6
Continuous
 62
     3
370
     9
100
AcDbLine
 10
-163.6699730705961
 20
-873.2904650893211
 30
0.0
 11
-163.6699730705961
 21
-924.2904650893211
 31
0.0
  0
LINE
  5
37E
330
1F
100
AcDbEntity
  8
0-2_本体（蓋）
  6
JWW_DASHED3
 62
     3
370
     9
100
AcDbLine
 10
-106.681729745998
 20
-831.7910623619217
 30
0.0
 11
-106.681729745998
 21
-859.2905309554453
 31
0.0
  0
LINE
  5
37F
330
1F
100
AcDbEntity
  8
0-2_本体（蓋）
  6
JWW_DASHED3
 62
     3
370
     9
100
AcDbLine
 10
-141.681339733706
 20
-866.791022300236
 30
0.0
 11
-141.681339733706
 21
-868.7904650893211
 31
0.0
  0
ARC
  5
380
330
1F
100
AcDbEntity
  8
0-2_本体（蓋）
  6
JWW_DASHED3
 62
     3
370
     9
100
AcDbCircle
 10
-111.1810446911748
 20
-859.2905309554453
 30
0.0
 40
4.500000151197883
100
AcDbArc
 50
270.0
 51
0.0
  0
ARC
  5
381
330
1F
100
AcDbEntity
  8
0-2_本体（蓋）
  6
JWW_DASHED3
 62
     3
370
     9
100
AcDbCircle
 10
-103.681603198203
 20
-831.7910623619217
 30
0.0
 40
3.000000100798588
100
AcDbArc
 50
90.0
 51
180.0
  0
ARC
  5
382
330
1F
100
AcDbEntity
  8
0-2_本体（蓋）
  6
JWW_DASHED3
 62
     3
370
     9
100
AcDbCircle
 10
-138.6815631365173
 20
-866.791022300236
 30
0.0
 40
3.000000100798588
100
AcDbArc
 50
90.0
 51
180.0
  0
LINE
  5
383
330
1F
100
AcDbEntity
  8
0-2_本体（蓋）
  6
JWW_DASHED3
 62
     3
370
     9
100
AcDbLine
 10
-101.6812855326023
 20
-828.7905858635202
 30
0.0
 11
-101.6812855326023
 21
-868.7904650893211
 31
0.0
  0
LINE
  5
384
330
1F
100
AcDbEntity
  8
0-4_寸法
  6
Continuous
 62
     7
370
     9
100
AcDbLine
 10
-7.050892390634154
 20
-928.7904650893211
 30
0.0
 11
-7.050892390634154
 21
-828.7905858635202
 31
0.0
  0
LWPOLYLINE
  5
385
330
1F
100
AcDbEntity
  8
0-4_寸法
  6
Continuous
 62
     7
370
     9
100
AcDbPolyline
 90
        4
 70
     1
 43
1.0
 10
-6.550892390634154
 20
-928.7904650893211
 42
0.4142135623731
 10
-7.050892390634154
 20
-928.2904650893211
 42
0.4142135623731
 10
-7.550892390634154
 20
-928.7904650893211
 42
0.4142135623731
 10
-7.050892390634154
 20
-929.2904650893211
 42
0.4142135623731
  0
LWPOLYLINE
  5
386
330
1F
100
AcDbEntity
  8
0-4_寸法
  6
Continuous
 62
     7
370
     9
100
AcDbPolyline
 90
        4
 70
     1
 43
1.0
 10
-6.550892390634154
 20
-868.7904650893211
 42
0.4142135623731
 10
-7.050892390634154
 20
-868.2904650893211
 42
0.4142135623731
 10
-7.550892390634154
 20
-868.7904650893211
 42
0.4142135623731
 10
-7.050892390634154
 20
-869.2904650893211
 42
0.4142135623731
  0
LINE
  5
387
330
1F
100
AcDbEntity
  8
0-4_寸法
  6
Continuous
 62
     7
370
     9
100
AcDbLine
 10
75.99517093361875
 20
-928.7904650893211
 30
0.0
 11
-82.4566042178289
 21
-928.7904650893211
 31
0.0
  0
LINE
  5
388
330
1F
100
AcDbEntity
  8
0-4_寸法
  6
Continuous
 62
     7
370
     9
100
AcDbLine
 10
-4.050892390634147
 20
-868.7904650893211
 30
0.0
 11
-82.4566042178289
 21
-868.7904650893211
 31
0.0
  0
TEXT
  5
389
330
1F
100
AcDbEntity
  8
0-4_寸法
  6
Continuous
 62
     2
370
   211
100
AcDbText
 10
-18.69089239063417
 20
-920.0404650893211
 30
0.0
 40
30.48
  1
60
 50
90.0
 41
1.0625
  7
ＭＳ ゴシック
100
AcDbText
  0
LWPOLYLINE
  5
38A
330
1F
100
AcDbEntity
  8
0-4_寸法
  6
Continuous
 62
     7
370
     9
100
AcDbPolyline
 90
        4
 70
     1
 43
1.0
 10
-6.550892390634154
 20
-828.7905858635202
 42
0.4142135623731
 10
-7.050892390634154
 20
-828.2905858635202
 42
0.4142135623731
 10
-7.550892390634154
 20
-828.7905858635202
 42
0.4142135623731
 10
-7.050892390634154
 20
-829.2905858635202
 42
0.4142135623731
  0
LINE
  5
38B
330
1F
100
AcDbEntity
  8
0-4_寸法
  6
Continuous
 62
     7
370
     9
100
AcDbLine
 10
75.99517093361875
 20
-828.7905858635202
 30
0.0
 11
-82.4566042178289
 21
-828.7905858635202
 31
0.0
  0
TEXT
  5
38C
330
1F
100
AcDbEntity
  8
0-4_寸法
  6
Continuous
 62
     2
370
   211
100
AcDbText
 10
-18.69089239063417
 20
-870.0405254764206
 30
0.0
 40
30.48
  1
40
 50
90.0
 41
1.0625
  7
ＭＳ ゴシック
100
AcDbText
  0
LINE
  5
38D
330
1F
100
AcDbEntity
  8
0-4_寸法
  6
Continuous
 62
     7
370
     9
100
AcDbLine
 10
72.99517093361874
 20
-928.7904650893211
 30
0.0
 11
72.99517093361874
 21
-828.7905858635202
 31
0.0
  0
LWPOLYLINE
  5
38E
330
1F
100
AcDbEntity
  8
0-4_寸法
  6
Continuous
 62
     7
370
     9
100
AcDbPolyline
 90
        4
 70
     1
 43
1.0
 10
73.49517093361874
 20
-928.7904650893211
 42
0.4142135623731
 10
72.99517093361874
 20
-928.2904650893211
 42
0.4142135623731
 10
72.49517093361875
 20
-928.7904650893211
 42
0.4142135623731
 10
72.99517093361874
 20
-929.2904650893211
 42
0.4142135623731
  0
LWPOLYLINE
  5
38F
330
1F
100
AcDbEntity
  8
0-4_寸法
  6
Continuous
 62
     7
370
     9
100
AcDbPolyline
 90
        4
 70
     1
 43
1.0
 10
73.49517093361874
 20
-828.7905858635202
 42
0.4142135623731
 10
72.99517093361874
 20
-828.2905858635202
 42
0.4142135623731
 10
72.49517093361875
 20
-828.7905858635202
 42
0.4142135623731
 10
72.99517093361874
 20
-829.2905858635202
 42
0.4142135623731
  0
TEXT
  5
390
330
1F
100
AcDbEntity
  8
0-4_寸法
  6
Continuous
 62
     2
370
   211
100
AcDbText
 10
61.35517093361877
 20
-911.2905254764206
 30
0.0
 40
30.48
  1
100
 50
90.0
 41
1.083333333333333
  7
ＭＳ ゴシック
100
AcDbText
  0
LWPOLYLINE
  5
391
330
1F
100
AcDbEntity
  8
0-4_寸法
  6
Continuous
 62
     7
370
     9
100
AcDbPolyline
 90
        4
 70
     1
 43
1.0
 10
-131.1810772707515
 20
-518.7117774726129
 42
0.4142135623731
 10
-131.6810772707515
 20
-518.2117774726129
 42
0.4142135623731
 10
-132.1810772707515
 20
-518.7117774726129
 42
0.4142135623731
 10
-131.6810772707515
 20
-519.2117774726128
 42
0.4142135623731
  0
LWPOLYLINE
  5
392
330
1F
100
AcDbEntity
  8
0-4_寸法
  6
Continuous
 62
     7
370
     9
100
AcDbPolyline
 90
        4
 70
     1
 43
1.0
 10
-91.18111055729895
 20
-611.1426867550185
 42
0.4142135623731
 10
-91.68111055729895
 20
-610.6426867550185
 42
0.4142135623731
 10
-92.18111055729895
 20
-611.1426867550185
 42
0.4142135623731
 10
-91.68111055729895
 20
-611.6426867550184
 42
0.4142135623731
  0
LINE
  5
393
330
1F
100
AcDbEntity
  8
0-4_寸法
  6
Continuous
 62
     7
370
     9
100
AcDbLine
 10
-131.6810772707515
 20
-521.7117774726128
 30
0.0
 11
-131.6810772707515
 21
248.0711581326851
 31
0.0
  0
LINE
  5
394
330
1F
100
AcDbEntity
  8
0-4_寸法
  6
Continuous
 62
     7
370
     9
100
AcDbLine
 10
-91.68111055729895
 20
-614.1426867550184
 30
0.0
 11
-91.68111055729895
 21
248.0711581326851
 31
0.0
  0
LWPOLYLINE
  5
395
330
1F
100
AcDbEntity
  8
0-4_寸法
  6
Continuous
 62
     7
370
     9
100
AcDbPolyline
 90
        4
 70
     1
 43
1.0
 10
-1271.181143843846
 20
-518.7117774726129
 42
0.4142135623731
 10
-1271.681143843846
 20
-518.2117774726129
 42
0.4142135623731
 10
-1272.181143843846
 20
-518.7117774726129
 42
0.4142135623731
 10
-1271.681143843846
 20
-519.2117774726128
 42
0.4142135623731
  0
LWPOLYLINE
  5
396
330
1F
100
AcDbEntity
  8
0-4_寸法
  6
Continuous
 62
     7
370
     9
100
AcDbPolyline
 90
        4
 70
     1
 43
1.0
 10
-1311.181110557299
 20
-611.1426867550185
 42
0.4142135623731
 10
-1311.681110557299
 20
-610.6426867550185
 42
0.4142135623731
 10
-1312.181110557299
 20
-611.1426867550185
 42
0.4142135623731
 10
-1311.681110557299
 20
-611.6426867550184
 42
0.4142135623731
  0
LINE
  5
397
330
1F
100
AcDbEntity
  8
0-4_寸法
  6
Continuous
 62
     7
370
     9
100
AcDbLine
 10
-1271.681143843846
 20
-521.7117774726128
 30
0.0
 11
-1271.681143843846
 21
248.0711581326851
 31
0.0
  0
LINE
  5
398
330
1F
100
AcDbEntity
  8
0-4_寸法
  6
Continuous
 62
     7
370
     9
100
AcDbLine
 10
-1311.681110557299
 20
-614.1426867550184
 30
0.0
 11
-1311.681110557299
 21
248.0711581326851
 31
0.0
  0
LINE
  5
399
330
1F
100
AcDbEntity
  8
0-2_本体（蓋）
  6
Continuous
 62
     3
370
     9
100
AcDbLine
 10
-101.6812855326023
 20
-828.7905858635202
 30
0.0
 11
-1301.681285532602
 21
-828.7905858635202
 31
0.0
  0
LINE
  5
39A
330
1F
100
AcDbEntity
  8
0-2_本体（蓋）
  6
Continuous
 62
     3
370
     9
100
AcDbLine
 10
-101.6812855326023
 20
-868.7904650893211
 30
0.0
 11
-1301.681285532602
 21
-868.7904650893211
 31
0.0
  0
LINE
  5
39B
330
1F
100
AcDbEntity
  8
0-2_本体（蓋）
  6
JWW_DASHED3
 62
     3
370
     9
100
AcDbLine
 10
-1292.181176423423
 20
-863.7905458018348
 30
0.0
 11
-111.1810446911748
 21
-863.7905458018348
 31
0.0
  0
LINE
  5
39C
330
1F
100
AcDbEntity
  8
0-4_寸法
  6
Continuous
 62
     7
370
     9
100
AcDbLine
 10
-1271.681143843846
 20
-518.7117774726129
 30
0.0
 11
-131.6810772707515
 21
-518.7117774726129
 31
0.0
  0
LINE
  5
39D
330
1F
100
AcDbEntity
  8
0-4_寸法
  6
Continuous
 62
     7
370
     9
100
AcDbLine
 10
-1311.681110557299
 20
-611.1426867550185
 30
0.0
 11
-91.68111055729895
 21
-611.1426867550185
 31
0.0
  0
TEXT
  5
39E
330
1F
100
AcDbEntity
  8
0-4_寸法
  6
Continuous
 62
     2
370
   211
100
AcDbText
 10
-745.4311105572988
 20
-507.0717774726129
 30
0.0
 40
30.48
  1
1140
 41
1.09375
  7
ＭＳ ゴシック
100
AcDbText
  0
TEXT
  5
39F
330
1F
100
AcDbEntity
  8
0-4_寸法
  6
Continuous
 62
     2
370
   211
100
AcDbText
 10
-745.4311105572988
 20
-599.5026867550184
 30
0.0
 40
30.48
  1
1220
 41
1.09375
  7
ＭＳ ゴシック
100
AcDbText
  0
LINE
  5
3A0
330
1F
100
AcDbEntity
  8
0-2_本体（蓋）
  6
Continuous
 62
     3
370
     9
100
AcDbLine
 10
-950.6891572171398
 20
-868.7904650893211
 30
0.0
 11
-950.6891572171398
 21
-873.2904650893211
 31
0.0
  0
LINE
  5
3A1
330
1F
100
AcDbEntity
  8
0-2_本体（蓋）
  6
Continuous
 62
     3
370
     9
100
AcDbLine
 10
-950.6891572171398
 20
-924.2904650893211
 30
0.0
 11
-950.6891572171398
 21
-928.7904650893211
 31
0.0
  0
LINE
  5
3A2
330
1F
100
AcDbEntity
  8
0-2_本体（蓋）
  6
Continuous
 62
     3
370
     9
100
AcDbLine
 10
-939.0173125300043
 20
-873.2904650893211
 30
0.0
 11
-939.0173125300043
 21
-924.2904650893211
 31
0.0
  0
LINE
  5
3A3
330
1F
100
AcDbEntity
  8
0-2_本体（蓋）
  6
Continuous
 62
     3
370
     9
100
AcDbLine
 10
-915.5817349817107
 20
-868.7904650893211
 30
0.0
 11
-915.5817349817107
 21
-873.2904650893211
 31
0.0
  0
LINE
  5
3A4
330
1F
100
AcDbEntity
  8
0-2_本体（蓋）
  6
Continuous
 62
     3
370
     9
100
AcDbLine
 10
-915.5817349817107
 20
-924.2904650893211
 30
0.0
 11
-915.5817349817107
 21
-928.7904650893211
 31
0.0
  0
LINE
  5
3A5
330
1F
100
AcDbEntity
  8
0-2_本体（蓋）
  6
Continuous
 62
     3
370
     9
100
AcDbLine
 10
-902.1878148489325
 20
-868.7904650893211
 30
0.0
 11
-902.1878148489325
 21
-928.7904650893211
 31
0.0
  0
LINE
  5
3A6
330
1F
100
AcDbEntity
  8
0-2_本体（蓋）
  6
Continuous
 62
     3
370
     9
100
AcDbLine
 10
-950.6891572171398
 20
-928.7904650893211
 30
0.0
 11
-902.1878148489325
 21
-928.7904650893211
 31
0.0
  0
LINE
  5
3A7
330
1F
100
AcDbEntity
  8
0-2_本体（蓋）
  6
Continuous
 62
     3
370
     9
100
AcDbLine
 10
-903.9098902945752
 20
-873.2904650893211
 30
0.0
 11
-903.9098902945752
 21
-924.2904650893211
 31
0.0
  0
LINE
  5
3A8
330
1F
100
AcDbEntity
  8
0-2_本体（蓋）
  6
Continuous
 62
     3
370
     9
100
AcDbLine
 10
-950.6891572171398
 20
-873.2904650893211
 30
0.0
 11
-903.9098902945752
 21
-873.2904650893211
 31
0.0
  0
LINE
  5
3A9
330
1F
100
AcDbEntity
  8
0-2_本体（蓋）
  6
Continuous
 62
     3
370
     9
100
AcDbLine
 10
-950.6891572171398
 20
-924.2904650893211
 30
0.0
 11
-903.9098902945752
 21
-924.2904650893211
 31
0.0
  0
LINE
  5
3AA
330
1F
100
AcDbEntity
  8
0-2_本体（蓋）
  6
Continuous
 62
     3
370
     9
100
AcDbLine
 10
-1267.870573785596
 20
-868.7904650893211
 30
0.0
 11
-1267.870573785596
 21
-873.2904650893211
 31
0.0
  0
LINE
  5
3AB
330
1F
100
AcDbEntity
  8
0-2_本体（蓋）
  6
Continuous
 62
     3
370
     9
100
AcDbLine
 10
-1267.870573785596
 20
-924.2904650893211
 30
0.0
 11
-1267.870573785596
 21
-928.7904650893211
 31
0.0
  0
LINE
  5
3AC
330
1F
100
AcDbEntity
  8
0-2_本体（蓋）
  6
Continuous
 62
     3
370
     9
100
AcDbLine
 10
-1220.992819717827
 20
-868.7904650893211
 30
0.0
 11
-1220.992819717827
 21
-928.7904650893211
 31
0.0
  0
LINE
  5
3AD
330
1F
100
AcDbEntity
  8
0-2_本体（蓋）
  6
Continuous
 62
     3
370
     9
100
AcDbLine
 10
-1220.992819717827
 20
-928.7904650893211
 30
0.0
 11
-1267.870573785596
 21
-928.7904650893211
 31
0.0
  0
LINE
  5
3AE
330
1F
100
AcDbEntity
  8
0-2_本体（蓋）
  6
Continuous
 62
     3
370
     9
100
AcDbLine
 10
-1225.150277614128
 20
-873.2904650893211
 30
0.0
 11
-1225.150277614128
 21
-924.2904650893211
 31
0.0
  0
LINE
  5
3AF
330
1F
100
AcDbEntity
  8
0-2_本体（蓋）
  6
Continuous
 62
     3
370
     9
100
AcDbLine
 10
-1267.870573785596
 20
-873.2904650893211
 30
0.0
 11
-1225.150277614128
 21
-873.2904650893211
 31
0.0
  0
LINE
  5
3B0
330
1F
100
AcDbEntity
  8
0-2_本体（蓋）
  6
Continuous
 62
     3
370
     9
100
AcDbLine
 10
-1225.150277614128
 20
-924.2904650893211
 30
0.0
 11
-1267.870573785596
 21
-924.2904650893211
 31
0.0
  0
LINE
  5
3B1
330
1F
100
AcDbEntity
  8
0-2_本体（蓋）
  6
Continuous
 62
     3
370
     9
100
AcDbLine
 10
-1253.328603355722
 20
-868.7904650893211
 30
0.0
 11
-1253.328603355722
 21
-873.2904650893211
 31
0.0
  0
LINE
  5
3B2
330
1F
100
AcDbEntity
  8
0-2_本体（蓋）
  6
Continuous
 62
     3
370
     9
100
AcDbLine
 10
-1253.328603355722
 20
-924.2904650893211
 30
0.0
 11
-1253.328603355722
 21
-928.7904650893211
 31
0.0
  0
LINE
  5
3B3
330
1F
100
AcDbEntity
  8
0-2_本体（蓋）
  6
Continuous
 62
     3
370
     9
100
AcDbLine
 10
-1239.692248044001
 20
-873.2904650893211
 30
0.0
 11
-1239.692248044001
 21
-924.2904650893211
 31
0.0
  0
LINE
  5
3B4
330
1F
100
AcDbEntity
  8
0-2_本体（蓋）
  6
JWW_DASHED3
 62
     3
370
     9
100
AcDbLine
 10
-1296.6804913686
 20
-831.7910623619217
 30
0.0
 11
-1296.6804913686
 21
-859.2905309554453
 31
0.0
  0
LINE
  5
3B5
330
1F
100
AcDbEntity
  8
0-2_本体（蓋）
  6
JWW_DASHED3
 62
     3
370
     9
100
AcDbLine
 10
-1261.680881380892
 20
-866.791022300236
 30
0.0
 11
-1261.680881380892
 21
-868.7904650893211
 31
0.0
  0
ARC
  5
3B6
330
1F
100
AcDbEntity
  8
0-2_本体（蓋）
  6
JWW_DASHED3
 62
     3
370
     9
100
AcDbCircle
 10
-1292.181176423423
 20
-859.2905309554453
 30
0.0
 40
4.500000151197883
100
AcDbArc
 50
180.0
 51
270.0
  0
ARC
  5
3B7
330
1F
100
AcDbEntity
  8
0-2_本体（蓋）
  6
JWW_DASHED3
 62
     3
370
     9
100
AcDbCircle
 10
-1299.680617916395
 20
-831.7910623619217
 30
0.0
 40
3.000000100798588
100
AcDbArc
 50
0.0
 51
90.0
  0
ARC
  5
3B8
330
1F
100
AcDbEntity
  8
0-2_本体（蓋）
  6
JWW_DASHED3
 62
     3
370
     9
100
AcDbCircle
 10
-1264.68065797808
 20
-866.791022300236
 30
0.0
 40
3.000000100798588
100
AcDbArc
 50
0.0
 51
90.0
  0
LINE
  5
3B9
330
1F
100
AcDbEntity
  8
0-2_本体（蓋）
  6
JWW_DASHED3
 62
     3
370
     9
100
AcDbLine
 10
-1301.680935581995
 20
-828.7905858635202
 30
0.0
 11
-1301.680935581995
 21
-868.7904650893211
 31
0.0
  0
LINE
  5
3BA
330
1F
100
AcDbEntity
  8
0-2_本体（蓋）
  6
JWW_CENTER2
 62
     4
370
     9
100
AcDbLine
 10
-936.5565573289325
 20
-194.8222725224906
 30
0.0
 11
-920.8911980056984
 21
-201.3110768136222
 31
0.0
  0
LINE
  5
3BB
330
1F
100
AcDbEntity
  8
0-2_本体（蓋）
  6
JWW_DASHED1
 62
     3
370
     9
100
AcDbLine
 10
-950.6891572171396
 20
-202.4982604808579
 30
0.0
 11
-915.5817349817106
 21
-217.0402309107314
 31
0.0
  0
LINE
  5
3BC
330
1F
100
AcDbEntity
  8
0-2_本体（蓋）
  6
JWW_DASHED1
 62
     3
370
     9
100
AcDbLine
 10
-922.415827272291
 20
-200.6795546938086
 30
0.0
 11
-927.1993701768547
 21
-212.2280488501997
 31
0.0
  0
ARC
  5
3BD
330
1F
100
AcDbEntity
  8
0-2_本体（蓋）
  6
JWW_DASHED1
 62
     3
370
     9
100
AcDbCircle
 10
-928.42102349175
 20
-198.1920623081451
 30
0.0
 40
6.5
100
AcDbArc
 50
337.5
 51
157.5
  0
LINE
  5
3BE
330
1F
100
AcDbEntity
  8
0-2_本体（蓋）
  6
JWW_DASHED1
 62
     3
370
     9
100
AcDbLine
 10
-934.4262611949378
 20
-195.7046700730623
 30
0.0
 11
-939.2098040995015
 21
-207.2531642294535
 31
0.0
  0
LINE
  5
3BF
330
1F
100
AcDbEntity
  8
0-2_本体（蓋）
  6
JWW_DASHED1
 62
     3
370
     9
100
AcDbLine
 10
-937.2952370843614
 20
-170.1624768429628
 30
0.0
 11
-950.6891572171396
 21
-202.4982604808579
 31
0.0
  0
LINE
  5
3C0
330
1F
100
AcDbEntity
  8
0-2_本体（蓋）
  6
JWW_CENTER2
 62
     4
370
     9
100
AcDbLine
 10
-939.4706266556088
 20
-224.8681641251734
 30
0.0
 11
-915.8992039330498
 21
-167.9617157039423
 31
0.0
  0
LINE
  5
3C1
330
1F
100
AcDbEntity
  8
0-2_本体（蓋）
  6
JWW_DASHED1
 62
     3
370
     9
100
AcDbLine
 10
-915.5817349817106
 20
-217.0402309107314
 30
0.0
 11
-902.1878148489325
 21
-184.7044472728363
 31
0.0
  0
LINE
  5
3C2
330
1F
100
AcDbEntity
  8
0-2_本体（蓋）
  6
JWW_DASHED1
 62
     3
370
     9
100
AcDbLine
 10
-903.9098902945752
 20
-188.8619051691371
 30
0.0
 11
-939.0173125300042
 21
-174.3199347392637
 31
0.0
  0
LINE
  5
3C3
330
1F
100
AcDbEntity
  8
0-2_本体（蓋）
  6
JWW_DASHED1
 62
     3
370
     9
100
AcDbLine
 10
-937.2952370843615
 20
-170.1624768429629
 30
0.0
 11
-902.1878148489325
 21
-184.7044472728363
 31
0.0
  0
LINE
  5
3C4
330
1F
100
AcDbEntity
  8
0-2_本体（蓋）
  6
JWW_CENTER2
 62
     4
370
     9
100
AcDbLine
 10
-1252.44957343118
 20
130.6020900485046
 30
0.0
 11
-1245.960769140049
 21
114.9367307252703
 31
0.0
  0
LINE
  5
3C5
330
1F
100
AcDbEntity
  8
0-2_本体（蓋）
  6
JWW_DASHED1
 62
     3
370
     9
100
AcDbLine
 10
-1253.328603355722
 20
100.0601818921553
 30
0.0
 11
-1220.992819717827
 21
113.4541020249334
 31
0.0
  0
LINE
  5
3C6
330
1F
100
AcDbEntity
  8
0-2_本体（蓋）
  6
JWW_DASHED1
 62
     3
370
     9
100
AcDbLine
 10
-1267.870573785596
 20
135.1676041275843
 30
0.0
 11
-1253.328603355722
 21
100.0601818921553
 31
0.0
  0
LINE
  5
3C7
330
1F
100
AcDbEntity
  8
0-2_本体（蓋）
  6
JWW_DASHED1
 62
     3
370
     9
100
AcDbLine
 10
-1246.592291259863
 20
116.461359991863
 30
0.0
 11
-1258.140785416254
 21
111.6778170872994
 31
0.0
  0
ARC
  5
3C8
330
1F
100
AcDbEntity
  8
0-2_本体（蓋）
  6
JWW_DASHED1
 62
     3
370
     9
100
AcDbCircle
 10
-1249.079683494946
 20
122.4665976950508
 30
0.0
 40
6.5
100
AcDbArc
 50
292.5
 51
112.5
  0
LINE
  5
3C9
330
1F
100
AcDbEntity
  8
0-2_本体（蓋）
  6
JWW_DASHED1
 62
     3
370
     9
100
AcDbLine
 10
-1251.567175880609
 20
128.4717939145099
 30
0.0
 11
-1263.115670037
 21
123.6882510099462
 31
0.0
  0
LINE
  5
3CA
330
1F
100
AcDbEntity
  8
0-2_本体（蓋）
  6
JWW_DASHED1
 62
     3
370
     9
100
AcDbLine
 10
-1235.534790147701
 20
148.5615242603625
 30
0.0
 11
-1267.870573785596
 21
135.1676041275843
 31
0.0
  0
LINE
  5
3CB
330
1F
100
AcDbEntity
  8
0-2_本体（蓋）
  6
JWW_CENTER2
 62
     4
370
     9
100
AcDbLine
 10
-1275.755785311974
 20
111.4169945311922
 30
0.0
 11
-1218.849336890743
 21
134.9884172537511
 31
0.0
  0
LINE
  5
3CC
330
1F
100
AcDbEntity
  8
0-2_本体（蓋）
  6
JWW_DASHED1
 62
     3
370
     9
100
AcDbLine
 10
-1225.150277614128
 20
111.7320265792904
 30
0.0
 11
-1239.692248044001
 21
146.8394488147194
 31
0.0
  0
LINE
  5
3CD
330
1F
100
AcDbEntity
  8
0-2_本体（蓋）
  6
JWW_CENTER2
 62
     4
370
     9
100
AcDbLine
 10
-1245.709893709291
 20
584.0819574011358
 30
0.0
 11
-1252.198698000423
 21
568.4165980779015
 31
0.0
  0
LINE
  5
3CE
330
1F
100
AcDbEntity
  8
0-2_本体（蓋）
  6
JWW_DASHED1
 62
     3
370
     9
100
AcDbLine
 10
-1267.927852097532
 20
563.1071350539138
 30
0.0
 11
-1235.592068459637
 21
549.7132149211358
 31
0.0
  0
LINE
  5
3CF
330
1F
100
AcDbEntity
  8
0-2_本体（蓋）
  6
JWW_DASHED1
 62
     3
370
     9
100
AcDbLine
 10
-1253.385881667659
 20
598.2145572893428
 30
0.0
 11
-1267.927852097532
 21
563.1071350539138
 31
0.0
  0
LINE
  5
3D0
330
1F
100
AcDbEntity
  8
0-2_本体（蓋）
  6
JWW_DASHED1
 62
     3
370
     9
100
AcDbLine
 10
-1251.567175880609
 20
569.9412273444942
 30
0.0
 11
-1263.115670037
 21
574.7247702490579
 31
0.0
  0
ARC
  5
3D1
330
1F
100
AcDbEntity
  8
0-2_本体（蓋）
  6
JWW_DASHED1
 62
     3
370
     9
100
AcDbCircle
 10
-1249.079683494946
 20
575.9464235639534
 30
0.0
 40
6.5
100
AcDbArc
 50
247.5
 51
67.49999999999999
  0
LINE
  5
3D2
330
1F
100
AcDbEntity
  8
0-2_本体（蓋）
  6
JWW_DASHED1
 62
     3
370
     9
100
AcDbLine
 10
-1246.592291259863
 20
581.9516612671412
 30
0.0
 11
-1258.140785416254
 21
586.7352041717048
 31
0.0
  0
LINE
  5
3D3
330
1F
100
AcDbEntity
  8
0-2_本体（蓋）
  6
JWW_DASHED1
 62
     3
370
     9
100
AcDbLine
 10
-1221.050098029764
 20
584.8206371565647
 30
0.0
 11
-1253.385881667659
 21
598.2145572893428
 31
0.0
  0
LINE
  5
3D4
330
1F
100
AcDbEntity
  8
0-2_本体（蓋）
  6
JWW_CENTER2
 62
     4
370
     9
100
AcDbLine
 10
-1275.755785311974
 20
586.996026727812
 30
0.0
 11
-1218.849336890743
 21
563.4246040052531
 31
0.0
  0
LINE
  5
3D5
330
1F
100
AcDbEntity
  8
0-2_本体（蓋）
  6
JWW_DASHED1
 62
     3
370
     9
100
AcDbLine
 10
-1225.150277614129
 20
586.6809946797138
 30
0.0
 11
-1239.692248044002
 21
551.5735724442847
 31
0.0
  0
LINE
  5
3D6
330
1F
100
AcDbEntity
  8
0-2_本体（蓋）
  6
JWW_CENTER2
 62
     4
370
     9
100
AcDbLine
 10
-920.2855311382962
 20
899.9749735033843
 30
0.0
 11
-935.9508904615304
 21
893.4861692122525
 31
0.0
  0
LINE
  5
3D7
330
1F
100
AcDbEntity
  8
0-2_本体（蓋）
  6
JWW_DASHED1
 62
     3
370
     9
100
AcDbLine
 10
-950.8274392946455
 20
900.8540034279258
 30
0.0
 11
-937.4335191618673
 21
868.5182197900308
 31
0.0
  0
LINE
  5
3D8
330
1F
100
AcDbEntity
  8
0-2_本体（蓋）
  6
JWW_DASHED1
 62
     3
370
     9
100
AcDbLine
 10
-915.7200170592165
 20
915.3959738577993
 30
0.0
 11
-950.8274392946455
 21
900.8540034279257
 31
0.0
  0
LINE
  5
3D9
330
1F
100
AcDbEntity
  8
0-2_本体（蓋）
  6
JWW_DASHED1
 62
     3
370
     9
100
AcDbLine
 10
-934.4262611949378
 20
894.1176913320662
 30
0.0
 11
-939.2098040995015
 21
905.6661854884574
 31
0.0
  0
ARC
  5
3DA
330
1F
100
AcDbEntity
  8
0-2_本体（蓋）
  6
JWW_DASHED1
 62
     3
370
     9
100
AcDbCircle
 10
-928.4210234917498
 20
896.6050835671491
 30
0.0
 40
6.5
100
AcDbArc
 50
202.5
 51
22.50000000000002
  0
LINE
  5
3DB
330
1F
100
AcDbEntity
  8
0-2_本体（蓋）
  6
JWW_DASHED1
 62
     3
370
     9
100
AcDbLine
 10
-922.4158272722909
 20
899.0925759528126
 30
0.0
 11
-927.1993701768545
 21
910.6410701092036
 31
0.0
  0
LINE
  5
3DC
330
1F
100
AcDbEntity
  8
0-2_本体（蓋）
  6
JWW_DASHED1
 62
     3
370
     9
100
AcDbLine
 10
-902.3260969264385
 20
883.0601902199043
 30
0.0
 11
-915.7200170592165
 21
915.3959738577992
 31
0.0
  0
LINE
  5
3DD
330
1F
100
AcDbEntity
  8
0-2_本体（蓋）
  6
JWW_CENTER2
 62
     4
370
     9
100
AcDbLine
 10
-939.4706266556088
 20
923.2811853841774
 30
0.0
 11
-915.8992039330496
 21
866.3747369629464
 31
0.0
  0
LINE
  5
3DE
330
1F
100
AcDbEntity
  8
0-2_本体（蓋）
  6
JWW_DASHED1
 62
     3
370
     9
100
AcDbLine
 10
-903.9098902945752
 20
887.2749264281413
 30
0.0
 11
-939.0173125300041
 21
872.7329559982677
 31
0.0
  0
ENDSEC
  0
SECTION
  2
OBJECTS
  0
DICTIONARY
  5
C
330
0
100
AcDbDictionary
281
     1
  3
ACAD_GROUP
350
D
  3
ACAD_LAYOUT
350
1A
  3
ACAD_MLEADERSTYLE
350
3E0
  3
ACAD_MLINESTYLE
350
17
  3
ACAD_PLOTSETTINGS
350
19
  3
ACAD_PLOTSTYLENAME
350
E
  3
ACAD_TABLESTYLE
350
3DF
  3
ACAD_VISUALSTYLE
350
2A
  0
DICTIONARY
  5
D
102
{ACAD_REACTORS
330
C
102
}
330
C
100
AcDbDictionary
281
     1
  0
DICTIONARY
  5
1A
102
{ACAD_REACTORS
330
C
102
}
330
C
100
AcDbDictionary
281
     1
  3
Layout1
350
1E
  3
Layout2
350
26
  3
Model
350
22
  0
DICTIONARY
  5
3E0
102
{ACAD_REACTORS
330
C
102
}
330
C
100
AcDbDictionary
281
     1
  0
DICTIONARY
  5
17
102
{ACAD_REACTORS
330
C
102
}
330
C
100
AcDbDictionary
281
     1
  3
Standard
350
18
  0
DICTIONARY
  5
19
102
{ACAD_REACTORS
330
C
102
}
330
C
100
AcDbDictionary
281
     1
  0
ACDBDICTIONARYWDFLT
  5
E
102
{ACAD_REACTORS
330
C
102
}
330
C
100
AcDbDictionary
281
     1
  3
Normal
350
F
100
AcDbDictionaryWithDefault
340
F
  0
DICTIONARY
  5
3DF
102
{ACAD_REACTORS
330
C
102
}
330
C
100
AcDbDictionary
281
     1
  0
DICTIONARY
  5
2A
102
{ACAD_REACTORS
330
C
102
}
330
C
100
AcDbDictionary
281
     1
  3
2dWireframe
350
2F
  3
3D Hidden
350
31
  3
3dWireframe
350
30
  3
Basic
350
32
  3
Brighten
350
36
  3
ColorChange
350
3A
  3
Conceptual
350
34
  3
Dim
350
35
  3
Facepattern
350
39
  3
Flat
350
2B
  3
FlatWithEdges
350
2C
  3
Gouraud
350
2D
  3
GouraudWithEdges
350
2E
  3
Linepattern
350
38
  3
Realistic
350
33
  3
Thicken
350
37
  0
LAYOUT
  5
1E
102
{ACAD_REACTORS
330
1A
102
}
330
1A
100
AcDbPlotSettings
  1

  2
none_device
  4

  6

 40
0.0
 41
0.0
 42
0.0
 43
0.0
 44
0.0
 45
0.0
 46
0.0
 47
0.0
 48
0.0
 49
0.0
140
0.0
141
0.0
142
1.0
143
1.0
 70
   688
 72
     0
 73
     0
 74
     5
  7

 75
    16
 76
     0
 77
     5
 78
   300
147
1.0
148
0.0
149
0.0
100
AcDbLayout
  1
Layout1
 70
     1
 71
     1
 10
0.0
 20
0.0
 11
420.0
 21
297.0
 12
0.0
 22
0.0
 32
0.0
 14
1.000000000000000E+20
 24
1.000000000000000E+20
 34
1.000000000000000E+20
 15
-1.000000000000000E+20
 25
-1.000000000000000E+20
 35
-1.000000000000000E+20
146
0.0
 13
0.0
 23
0.0
 33
0.0
 16
1.0
 26
0.0
 36
0.0
 17
0.0
 27
1.0
 37
0.0
 76
     0
330
1B
  0
LAYOUT
  5
26
102
{ACAD_REACTORS
330
1A
102
}
330
1A
100
AcDbPlotSettings
  1

  2
none_device
  4

  6

 40
0.0
 41
0.0
 42
0.0
 43
0.0
 44
0.0
 45
0.0
 46
0.0
 47
0.0
 48
0.0
 49
0.0
140
0.0
141
0.0
142
1.0
143
1.0
 70
   688
 72
     0
 73
     0
 74
     5
  7

 75
    16
 76
     0
 77
     5
 78
   300
147
1.0
148
0.0
149
0.0
100
AcDbLayout
  1
Layout2
 70
     1
 71
     2
 10
0.0
 20
0.0
 11
0.0
 21
0.0
 12
0.0
 22
0.0
 32
0.0
 14
0.0
 24
0.0
 34
0.0
 15
0.0
 25
0.0
 35
0.0
146
0.0
 13
0.0
 23
0.0
 33
0.0
 16
1.0
 26
0.0
 36
0.0
 17
0.0
 27
1.0
 37
0.0
 76
     0
330
23
  0
LAYOUT
  5
22
102
{ACAD_REACTORS
330
1A
102
}
330
1A
100
AcDbPlotSettings
  1

  2
none_device
  4

  6

 40
0.0
 41
0.0
 42
0.0
 43
0.0
 44
0.0
 45
0.0
 46
0.0
 47
0.0
 48
0.0
 49
0.0
140
0.0
141
0.0
142
1.0
143
1.0
 70
  1712
 72
     0
 73
     0
 74
     0
  7

 75
     0
 76
     0
 77
     5
 78
   300
147
1.0
148
0.0
149
0.0
100
AcDbLayout
  1
Model
 70
     1
 71
     0
 10
-2100.0
 20
-1485.0
 11
2100.0
 21
1485.0
 12
0.0
 22
0.0
 32
0.0
 14
-2100.0
 24
-1485.0
 34
0.0
 15
2100.0
 25
1485.0
 35
0.0
146
0.0
 13
0.0
 23
0.0
 33
0.0
 16
1.0
 26
0.0
 36
0.0
 17
0.0
 27
1.0
 37
0.0
 76
     0
330
1F
331
29
  0
MLINESTYLE
  5
18
102
{ACAD_REACTORS
330
17
102
}
330
17
100
AcDbMlineStyle
  2
Standard
 70
     0
  3

 62
   256
 51
90.0
 52
90.0
 71
     2
 49
0.5
 62
   256
  6
BYLAYER
 49
-0.5
 62
   256
  6
BYLAYER
  0
ACDBPLACEHOLDER
  5
F
102
{ACAD_REACTORS
330
E
102
}
330
E
  0
VISUALSTYLE
  5
2F
102
{ACAD_REACTORS
330
2A
102
}
330
2A
100
AcDbVisualStyle
  2
2dWireframe
 70
     4
 71
     0
 72
     2
 73
     0
 90
        0
 40
-0.6
 41
-30.0
 62
     5
 63
     7
421
 16777215
 74
     1
 91
        4
 64
     7
 65
   257
 75
     1
175
     1
 42
1.0
 92
        0
 66
   257
 43
1.0
 76
     1
 77
     6
 78
     2
 67
     7
 79
     5
170
     0
171
     0
290
     0
174
     0
 93
        1
 44
0.0
173
     0
291
     0
 45
0.0
1001
ACAD
1000
AcDbSavedByObjectVersion
1070
     0
  0
VISUALSTYLE
  5
31
102
{ACAD_REACTORS
330
2A
102
}
330
2A
100
AcDbVisualStyle
  2
3D Hidden
 70
     6
 71
     1
 72
     2
 73
     2
 90
        0
 40
-0.6
 41
-30.0
 62
     5
 63
     7
421
 16777215
 74
     2
 91
        2
 64
     7
 65
   257
 75
     2
175
     1
 42
40.0
 92
        0
 66
   257
 43
1.0
 76
     1
 77
     6
 78
     2
 67
     7
 79
     3
170
     0
171
     0
290
     0
174
     0
 93
        1
 44
0.0
173
     0
291
     0
 45
0.0
1001
ACAD
1000
AcDbSavedByObjectVersion
1070
     0
  0
VISUALSTYLE
  5
30
102
{ACAD_REACTORS
330
2A
102
}
330
2A
100
AcDbVisualStyle
  2
3dWireframe
 70
     5
 71
     0
 72
     2
 73
     0
 90
        0
 40
-0.6
 41
-30.0
 62
     5
 63
     7
421
 16777215
 74
     1
 91
        4
 64
     7
 65
   257
 75
     1
175
     1
 42
1.0
 92
        0
 66
   257
 43
1.0
 76
     1
 77
     6
 78
     2
 67
     7
 79
     5
170
     0
171
     0
290
     0
174
     0
 93
        1
 44
0.0
173
     0
291
     0
 45
0.0
1001
ACAD
1000
AcDbSavedByObjectVersion
1070
     0
  0
VISUALSTYLE
  5
32
102
{ACAD_REACTORS
330
2A
102
}
330
2A
100
AcDbVisualStyle
  2
Basic
 70
     7
 71
     1
 72
     0
 73
     1
 90
        0
 40
-0.6
 41
-30.0
 62
     5
 63
     7
421
 16777215
 74
     0
 91
        4
 64
     7
 65
   257
 75
     1
175
     1
 42
1.0
 92
        8
 66
     7
 43
1.0
 76
     1
 77
     6
 78
     2
 67
     7
 79
     5
170
     0
171
     0
290
     0
174
     0
 93
        1
 44
0.0
173
     0
291
     1
 45
0.0
1001
ACAD
1000
AcDbSavedByObjectVersion
1070
     0
  0
VISUALSTYLE
  5
36
102
{ACAD_REACTORS
330
2A
102
}
330
2A
100
AcDbVisualStyle
  2
Brighten
 70
    12
 71
     2
 72
     2
 73
     0
 90
        0
 40
-0.6
 41
-30.0
 62
     5
 63
     7
421
 16777215
 74
     1
 91
        4
 64
     7
 65
   257
 75
     1
175
     1
 42
1.0
 92
        8
 66
     7
 43
1.0
 76
     1
 77
     6
 78
     2
 67
     7
 79
     5
170
     0
171
     0
290
     0
174
     0
 93
        1
 44
50.0
173
     0
291
     1
 45
0.0
1001
ACAD
1000
AcDbSavedByObjectVersion
1070
     0
  0
VISUALSTYLE
  5
3A
102
{ACAD_REACTORS
330
2A
102
}
330
2A
100
AcDbVisualStyle
  2
ColorChange
 70
    16
 71
     2
 72
     2
 73
     3
 90
        0
 40
-0.6
 41
-30.0
 62
     5
 63
     8
421
  8421504
 74
     1
 91
        4
 64
     7
 65
   257
 75
     1
175
     1
 42
1.0
 92
        8
 66
     8
424
  8421504
 43
1.0
 76
     1
 77
     6
 78
     2
 67
     7
 79
     5
170
     0
171
     0
290
     0
174
     0
 93
        1
 44
0.0
173
     0
291
     1
 45
0.0
1001
ACAD
1000
AcDbSavedByObjectVersion
1070
     0
  0
VISUALSTYLE
  5
34
102
{ACAD_REACTORS
330
2A
102
}
330
2A
100
AcDbVisualStyle
  2
Conceptual
 70
     9
 71
     3
 72
     2
 73
     0
 90
        0
 40
-0.6
 41
-30.0
 62
     5
 63
     7
421
 16777215
 74
     2
 91
        2
 64
     7
 65
   257
 75
     1
175
     1
 42
40.0
 92
        8
 66
     7
 43
1.0
 76
     1
 77
     6
 78
     2
 67
     7
 79
     3
170
     0
171
     0
290
     0
174
     0
 93
        1
 44
0.0
173
     0
291
     0
 45
0.0
1001
ACAD
1000
AcDbSavedByObjectVersion
1070
     0
  0
VISUALSTYLE
  5
35
102
{ACAD_REACTORS
330
2A
102
}
330
2A
100
AcDbVisualStyle
  2
Dim
 70
    11
 71
     2
 72
     2
 73
     0
 90
        0
 40
-0.6
 41
-30.0
 62
     5
 63
     7
421
 16777215
 74
     1
 91
        4
 64
     7
 65
   257
 75
     1
175
     1
 42
1.0
 92
        8
 66
     7
 43
1.0
 76
     1
 77
     6
 78
     2
 67
     7
 79
     5
170
     0
171
     0
290
     0
174
     0
 93
        1
 44
-50.0
173
     0
291
     1
 45
0.0
1001
ACAD
1000
AcDbSavedByObjectVersion
1070
     0
  0
VISUALSTYLE
  5
39
102
{ACAD_REACTORS
330
2A
102
}
330
2A
100
AcDbVisualStyle
  2
Facepattern
 70
    15
 71
     2
 72
     2
 73
     0
 90
        0
 40
-0.6
 41
-30.0
 62
     5
 63
     7
421
 16777215
 74
     1
 91
        4
 64
     7
 65
   257
 75
     1
175
     1
 42
1.0
 92
        8
 66
     7
 43
1.0
 76
     1
 77
     6
 78
     2
 67
     7
 79
     5
170
     0
171
     0
290
     0
174
     0
 93
        1
 44
0.0
173
     0
291
     1
 45
0.0
1001
ACAD
1000
AcDbSavedByObjectVersion
1070
     0
  0
VISUALSTYLE
  5
2B
102
{ACAD_REACTORS
330
2A
102
}
330
2A
100
AcDbVisualStyle
  2
Flat
 70
     0
 71
     2
 72
     1
 73
     1
 90
        2
 40
-0.6
 41
30.0
 62
     5
 63
     7
421
 16777215
 74
     0
 91
        4
 64
     7
 65
   257
 75
     1
175
     1
 42
1.0
 92
        8
 66
     7
 43
1.0
 76
     1
 77
     6
 78
     2
 67
     7
 79
     5
170
     0
171
     0
290
     0
174
     0
 93
       13
 44
0.0
173
     0
291
     1
 45
0.0
1001
ACAD
1000
AcDbSavedByObjectVersion
1070
     0
  0
VISUALSTYLE
  5
2C
102
{ACAD_REACTORS
330
2A
102
}
330
2A
100
AcDbVisualStyle
  2
FlatWithEdges
 70
     1
 71
     2
 72
     1
 73
     1
 90
        2
 40
-0.6
 41
30.0
 62
     5
 63
     7
421
 16777215
 74
     1
 91
        4
 64
     7
 65
   257
 75
     1
175
     1
 42
1.0
 92
        0
 66
   257
 43
1.0
 76
     1
 77
     6
 78
     2
 67
     7
 79
     5
170
     0
171
     0
290
     0
174
     0
 93
       13
 44
0.0
173
     0
291
     1
 45
0.0
1001
ACAD
1000
AcDbSavedByObjectVersion
1070
     0
  0
VISUALSTYLE
  5
2D
102
{ACAD_REACTORS
330
2A
102
}
330
2A
100
AcDbVisualStyle
  2
Gouraud
 70
     2
 71
     2
 72
     2
 73
     1
 90
        2
 40
-0.6
 41
30.0
 62
     5
 63
     7
421
 16777215
 74
     0
 91
        4
 64
     7
 65
   257
 75
     1
175
     1
 42
1.0
 92
        0
 66
     7
 43
1.0
 76
     1
 77
     6
 78
     2
 67
     7
 79
     5
170
     0
171
     0
290
     0
174
     0
 93
       13
 44
0.0
173
     0
291
     1
 45
0.0
1001
ACAD
1000
AcDbSavedByObjectVersion
1070
     0
  0
VISUALSTYLE
  5
2E
102
{ACAD_REACTORS
330
2A
102
}
330
2A
100
AcDbVisualStyle
  2
GouraudWithEdges
 70
     3
 71
     2
 72
     2
 73
     1
 90
        2
 40
-0.6
 41
30.0
 62
     5
 63
     7
421
 16777215
 74
     1
 91
        4
 64
     7
 65
   257
 75
     1
175
     1
 42
1.0
 92
        0
 66
   257
 43
1.0
 76
     1
 77
     6
 78
     2
 67
     7
 79
     5
170
     0
171
     0
290
     0
174
     0
 93
       13
 44
0.0
173
     0
291
     1
 45
0.0
1001
ACAD
1000
AcDbSavedByObjectVersion
1070
     0
  0
VISUALSTYLE
  5
38
102
{ACAD_REACTORS
330
2A
102
}
330
2A
100
AcDbVisualStyle
  2
Linepattern
 70
    14
 71
     2
 72
     2
 73
     0
 90
        0
 40
-0.6
 41
-30.0
 62
     5
 63
     7
421
 16777215
 74
     1
 91
        4
 64
     7
 65
   257
 75
     7
175
     7
 42
1.0
 92
        8
 66
     7
 43
1.0
 76
     1
 77
     6
 78
     2
 67
     7
 79
     5
170
     0
171
     0
290
     0
174
     0
 93
        1
 44
0.0
173
     0
291
     1
 45
0.0
1001
ACAD
1000
AcDbSavedByObjectVersion
1070
     0
  0
VISUALSTYLE
  5
33
102
{ACAD_REACTORS
330
2A
102
}
330
2A
100
AcDbVisualStyle
  2
Realistic
 70
     8
 71
     2
 72
     2
 73
     0
 90
        0
 40
-0.6
 41
-30.0
 62
     5
 63
     7
421
 16777215
 74
     1
 91
        0
 64
     7
 65
   257
 75
     1
175
     1
 42
1.0
 92
        8
 66
     8
424
  7895160
 43
1.0
 76
     1
 77
     6
 78
     2
 67
     7
 79
     5
170
     0
171
     0
290
     0
174
     0
 93
       13
 44
0.0
173
     0
291
     0
 45
0.0
1001
ACAD
1000
AcDbSavedByObjectVersion
1070
     0
  0
VISUALSTYLE
  5
37
102
{ACAD_REACTORS
330
2A
102
}
330
2A
100
AcDbVisualStyle
  2
Thicken
 70
    13
 71
     2
 72
     2
 73
     0
 90
        0
 40
-0.6
 41
-30.0
 62
     5
 63
     7
421
 16777215
 74
     1
 91
        4
 64
     7
 65
   257
 75
     1
175
     1
 42
1.0
 92
       12
 66
     7
 43
1.0
 76
     1
 77
     6
 78
     2
 67
     7
 79
     5
170
     0
171
     0
290
     0
174
     0
 93
        1
 44
0.0
173
     0
291
     1
 45
0.0
1001
ACAD
1000
AcDbSavedByObjectVersion
1070
     0
  0
ENDSEC
  0
EOF
