  0
SECTION
  2
HEADER
  9
$ACADVER
  1
AC1018
  9
$ACADMAINTVER
 70
     0
  9
$DWGCODEPAGE
  3
ANSI_932
  9
$INSBASE
 10
0.0
 20
0.0
 30
0.0
  9
$EXTMIN
 10
-2100.0
 20
-1485.0
 30
0.0
  9
$EXTMAX
 10
2100.0
 20
1485.0
 30
0.0
  9
$LIMMIN
 10
-2100.0
 20
-1485.0
  9
$LIMMAX
 10
2100.0
 20
1485.0
  9
$ORTHOMODE
 70
     0
  9
$REGENMODE
 70
     1
  9
$FILLMODE
 70
     1
  9
$QTEXTMODE
 70
     0
  9
$MIRRTEXT
 70
     1
  9
$LTSCALE
 40
10.0
  9
$ATTMODE
 70
     1
  9
$TEXTSIZE
 40
2.5
  9
$TRACEWID
 40
1.0
  9
$TEXTSTYLE
  7
Standard
  9
$CLAYER
  8
0
  9
$CELTYPE
  6
ByLayer
  9
$CECOLOR
 62
   256
  9
$CELTSCALE
 40
1.0
  9
$DISPSILH
 70
     0
  9
$DIMSCALE
 40
1.0
  9
$DIMASZ
 40
2.5
  9
$DIMEXO
 40
0.625
  9
$DIMDLI
 40
3.75
  9
$DIMRND
 40
0.0
  9
$DIMDLE
 40
0.0
  9
$DIMEXE
 40
1.25
  9
$DIMTP
 40
0.0
  9
$DIMTM
 40
0.0
  9
$DIMTXT
 40
2.5
  9
$DIMCEN
 40
2.5
  9
$DIMTSZ
 40
0.0
  9
$DIMTOL
 70
     0
  9
$DIMLIM
 70
     0
  9
$DIMTIH
 70
     0
  9
$DIMTOH
 70
     0
  9
$DIMSE1
 70
     0
  9
$DIMSE2
 70
     0
  9
$DIMTAD
 70
     1
  9
$DIMZIN
 70
     8
  9
$DIMBLK
  1

  9
$DIMASO
 70
     1
  9
$DIMSHO
 70
     1
  9
$DIMPOST
  1

  9
$DIMAPOST
  1

  9
$DIMALT
 70
     0
  9
$DIMALTD
 70
     3
  9
$DIMALTF
 40
0.03937007874016
  9
$DIMLFAC
 40
1.0
  9
$DIMTOFL
 70
     1
  9
$DIMTVP
 40
0.0
  9
$DIMTIX
 70
     0
  9
$DIMSOXD
 70
     0
  9
$DIMSAH
 70
     0
  9
$DIMBLK1
  1

  9
$DIMBLK2
  1

  9
$DIMSTYLE
  2
ISO-25
  9
$DIMCLRD
 70
     0
  9
$DIMCLRE
 70
     0
  9
$DIMCLRT
 70
     0
  9
$DIMTFAC
 40
1.0
  9
$DIMGAP
 40
0.625
  9
$DIMJUST
 70
     0
  9
$DIMSD1
 70
     0
  9
$DIMSD2
 70
     0
  9
$DIMTOLJ
 70
     0
  9
$DIMTZIN
 70
     8
  9
$DIMALTZ
 70
     0
  9
$DIMALTTZ
 70
     0
  9
$DIMUPT
 70
     0
  9
$DIMDEC
 70
     2
  9
$DIMTDEC
 70
     2
  9
$DIMALTU
 70
     2
  9
$DIMALTTD
 70
     3
  9
$DIMTXSTY
  7
Standard
  9
$DIMAUNIT
 70
     0
  9
$DIMADEC
 70
     0
  9
$DIMALTRND
 40
0.0
  9
$DIMAZIN
 70
     0
  9
$DIMDSEP
 70
    44
  9
$DIMATFIT
 70
     3
  9
$DIMFRAC
 70
     0
  9
$DIMLDRBLK
  1

  9
$DIMLUNIT
 70
     2
  9
$DIMLWD
 70
    -2
  9
$DIMLWE
 70
    -2
  9
$DIMTMOVE
 70
     0
  9
$LUNITS
 70
     2
  9
$LUPREC
 70
     4
  9
$SKETCHINC
 40
1.0
  9
$FILLETRAD
 40
10.0
  9
$AUNITS
 70
     0
  9
$AUPREC
 70
     0
  9
$MENU
  1
.
  9
$ELEVATION
 40
0.0
  9
$PELEVATION
 40
0.0
  9
$THICKNESS
 40
0.0
  9
$LIMCHECK
 70
     0
  9
$CHAMFERA
 40
10.0
  9
$CHAMFERB
 40
10.0
  9
$CHAMFERC
 40
20.0
  9
$CHAMFERD
 40
0.0
  9
$SKPOLY
 70
     0
  9
$TDCREATE
 40
2456499.584911088
  9
$TDUCREATE
 40
2456499.209911088
  9
$TDUPDATE
 40
2456499.5849111
  9
$TDUUPDATE
 40
2456499.2099111
  9
$TDINDWG
 40
0.0000000116
  9
$TDUSRTIMER
 40
0.0000000116
  9
$USRTIMER
 70
     1
  9
$ANGBASE
 50
0.0
  9
$ANGDIR
 70
     0
  9
$PDMODE
 70
     0
  9
$PDSIZE
 40
0.0
  9
$PLINEWID
 40
0.0
  9
$SPLFRAME
 70
     0
  9
$SPLINETYPE
 70
     6
  9
$SPLINESEGS
 70
     8
  9
$HANDSEED
  5
1F3
  9
$SURFTAB1
 70
     6
  9
$SURFTAB2
 70
     6
  9
$SURFTYPE
 70
     6
  9
$SURFU
 70
     6
  9
$SURFV
 70
     6
  9
$UCSBASE
  2

  9
$UCSNAME
  2

  9
$UCSORG
 10
0.0
 20
0.0
 30
0.0
  9
$UCSXDIR
 10
1.0
 20
0.0
 30
0.0
  9
$UCSYDIR
 10
0.0
 20
1.0
 30
0.0
  9
$UCSORTHOREF
  2

  9
$UCSORTHOVIEW
 70
     0
  9
$UCSORGTOP
 10
0.0
 20
0.0
 30
0.0
  9
$UCSORGBOTTOM
 10
0.0
 20
0.0
 30
0.0
  9
$UCSORGLEFT
 10
0.0
 20
0.0
 30
0.0
  9
$UCSORGRIGHT
 10
0.0
 20
0.0
 30
0.0
  9
$UCSORGFRONT
 10
0.0
 20
0.0
 30
0.0
  9
$UCSORGBACK
 10
0.0
 20
0.0
 30
0.0
  9
$PUCSBASE
  2

  9
$PUCSNAME
  2

  9
$PUCSORG
 10
0.0
 20
0.0
 30
0.0
  9
$PUCSXDIR
 10
1.0
 20
0.0
 30
0.0
  9
$PUCSYDIR
 10
0.0
 20
1.0
 30
0.0
  9
$PUCSORTHOREF
  2

  9
$PUCSORTHOVIEW
 70
     0
  9
$PUCSORGTOP
 10
0.0
 20
0.0
 30
0.0
  9
$PUCSORGBOTTOM
 10
0.0
 20
0.0
 30
0.0
  9
$PUCSORGLEFT
 10
0.0
 20
0.0
 30
0.0
  9
$PUCSORGRIGHT
 10
0.0
 20
0.0
 30
0.0
  9
$PUCSORGFRONT
 10
0.0
 20
0.0
 30
0.0
  9
$PUCSORGBACK
 10
0.0
 20
0.0
 30
0.0
  9
$USERI1
 70
     0
  9
$USERI2
 70
     0
  9
$USERI3
 70
     0
  9
$USERI4
 70
     0
  9
$USERI5
 70
     0
  9
$USERR1
 40
0.0
  9
$USERR2
 40
0.0
  9
$USERR3
 40
0.0
  9
$USERR4
 40
0.0
  9
$USERR5
 40
0.0
  9
$WORLDVIEW
 70
     1
  9
$SHADEDGE
 70
     3
  9
$SHADEDIF
 70
    70
  9
$TILEMODE
 70
     1
  9
$MAXACTVP
 70
    64
  9
$PINSBASE
 10
0.0
 20
0.0
 30
0.0
  9
$PLIMCHECK
 70
     0
  9
$PEXTMIN
 10
1.000000000000000E+20
 20
1.000000000000000E+20
 30
1.000000000000000E+20
  9
$PEXTMAX
 10
-1.000000000000000E+20
 20
-1.000000000000000E+20
 30
-1.000000000000000E+20
  9
$PLIMMIN
 10
0.0
 20
0.0
  9
$PLIMMAX
 10
420.0
 20
297.0
  9
$UNITMODE
 70
     0
  9
$VISRETAIN
 70
     1
  9
$PLINEGEN
 70
     0
  9
$PSLTSCALE
 70
     1
  9
$TREEDEPTH
 70
  3020
  9
$CMLSTYLE
  2
Standard
  9
$CMLJUST
 70
     0
  9
$CMLSCALE
 40
20.0
  9
$PROXYGRAPHICS
 70
     1
  9
$MEASUREMENT
 70
     1
  9
$CELWEIGHT
370
    -1
  9
$ENDCAPS
280
     0
  9
$JOINSTYLE
280
     0
  9
$LWDISPLAY
290
     0
  9
$INSUNITS
 70
     4
  9
$HYPERLINKBASE
  1

  9
$STYLESHEET
  1

  9
$XEDIT
290
     1
  9
$CEPSNTYPE
380
     0
  9
$PSTYLEMODE
290
     1
  9
$FINGERPRINTGUID
  2
{B6B10622-5B68-4174-9D65-17947EC4612D}
  9
$VERSIONGUID
  2
{FAEB1C32-E019-11D5-929B-00C0DF256EC4}
  9
$EXTNAMES
290
     1
  9
$PSVPSCALE
 40
0.0
  9
$OLESTARTUP
290
     0
  9
$SORTENTS
280
   127
  9
$INDEXCTL
280
     0
  9
$HIDETEXT
280
     1
  9
$XCLIPFRAME
290
     0
  9
$HALOGAP
280
     0
  9
$OBSCOLOR
 70
   257
  9
$OBSLTYPE
280
     0
  9
$INTERSECTIONDISPLAY
280
     0
  9
$INTERSECTIONCOLOR
 70
   257
  9
$DIMASSOC
280
     2
  9
$PROJECTNAME
  1

  0
ENDSEC
  0
SECTION
  2
CLASSES
  0
CLASS
  1
ACDBDICTIONARYWDFLT
  2
AcDbDictionaryWithDefault
  3
ObjectDBX Classes
 90
        0
 91
        4
280
     0
281
     0
  0
CLASS
  1
VISUALSTYLE
  2
AcDbVisualStyle
  3
ObjectDBX Classes
 90
     4095
 91
        4
280
     0
281
     0
  0
ENDSEC
  0
SECTION
  2
TABLES
  0
TABLE
  2
VPORT
  5
8
330
0
100
AcDbSymbolTable
 70
     1
  0
VPORT
  5
29
330
8
100
AcDbSymbolTableRecord
100
AcDbViewportTableRecord
  2
*Active
 70
     0
 10
0.0
 20
0.0
 11
1.0
 21
1.0
 12
0.0
 22
0.0
 13
0.0
 23
0.0
 14
10.0
 24
10.0
 15
10.0
 25
10.0
 16
0.0
 26
0.0
 36
1.0
 17
0.0
 27
0.0
 37
0.0
 40
3267.0
 41
1.414141414141414
 42
50.0
 43
0.0
 44
0.0
 50
0.0
 51
0.0
 71
     0
 72
 10000
 73
     1
 74
     3
 75
     0
 76
     0
 77
     0
 78
     0
281
     0
 65
     1
110
0.0
120
0.0
130
0.0
111
1.0
121
0.0
131
0.0
112
0.0
122
1.0
132
0.0
 79
     0
146
0.0
  0
ENDTAB
  0
TABLE
  2
LTYPE
  5
5
330
0
100
AcDbSymbolTable
 70
     2
  0
LTYPE
  5
14
330
5
100
AcDbSymbolTableRecord
100
AcDbLinetypeTableRecord
  2
ByBlock
 70
     0
  3

 72
    65
 73
     0
 40
0.0
  0
LTYPE
  5
15
330
5
100
AcDbSymbolTableRecord
100
AcDbLinetypeTableRecord
  2
ByLayer
 70
     0
  3

 72
    65
 73
     0
 40
0.0
  0
LTYPE
  5
16
330
5
100
AcDbSymbolTableRecord
100
AcDbLinetypeTableRecord
  2
Continuous
 70
     0
  3
Solid line
 72
    65
 73
     0
 40
0.0
  0
LTYPE
  5
3C
330
5
100
AcDbSymbolTableRecord
100
AcDbLinetypeTableRecord
  2
JWW_CENTER1
 70
     0
  3
-----  --  ----------  --  -----
 72
    65
 73
     4
 40
6.773333333333333
 49
4.233333333333333
 74
     0
 49
-0.8466666666666667
 74
     0
 49
0.8466666666666667
 74
     0
 49
-0.8466666666666667
 74
     0
  0
ENDTAB
  0
TABLE
  2
LAYER
  5
2
330
0
100
AcDbSymbolTable
 70
     9
  0
LAYER
  5
10
330
2
100
AcDbSymbolTableRecord
100
AcDbLayerTableRecord
  2
0
 70
     0
 62
     7
  6
Continuous
370
    -3
390
F
  0
LAYER
  5
3D
330
2
100
AcDbSymbolTableRecord
100
AcDbLayerTableRecord
  2
0-F
 70
     0
 62
     7
  6
Continuous
370
    -3
390
F
  0
LAYER
  5
3E
330
2
100
AcDbSymbolTableRecord
100
AcDbLayerTableRecord
  2
1-5_仕様文
 70
     0
 62
     7
  6
Continuous
370
    -3
390
F
  0
LAYER
  5
3F
330
2
100
AcDbSymbolTableRecord
100
AcDbLayerTableRecord
  2
1-2_蓋
 70
     0
 62
     7
  6
Continuous
370
    -3
390
F
  0
LAYER
  5
40
330
2
100
AcDbSymbolTableRecord
100
AcDbLayerTableRecord
  2
1-1_ピット
 70
     0
 62
     7
  6
Continuous
370
    -3
390
F
  0
LAYER
  5
41
330
2
100
AcDbSymbolTableRecord
100
AcDbLayerTableRecord
  2
1-0_通り芯
 70
     0
 62
     7
  6
Continuous
370
    -3
390
F
  0
LAYER
  5
42
330
2
100
AcDbSymbolTableRecord
100
AcDbLayerTableRecord
  2
1-4_寸法
 70
     0
 62
     7
  6
Continuous
370
    -3
390
F
  0
LAYER
  5
43
330
2
100
AcDbSymbolTableRecord
100
AcDbLayerTableRecord
  2
F-4ﾚｲﾔ
 70
     0
 62
     7
  6
Continuous
370
    -3
390
F
  0
LAYER
  5
44
330
2
100
AcDbSymbolTableRecord
100
AcDbLayerTableRecord
  2
F-5ﾚｲﾔ
 70
     0
 62
     7
  6
Continuous
370
    -3
390
F
  0
ENDTAB
  0
TABLE
  2
STYLE
  5
3
330
0
100
AcDbSymbolTable
 70
     2
  0
STYLE
  5
11
330
3
100
AcDbSymbolTableRecord
100
AcDbTextStyleTableRecord
  2
Standard
 70
     0
 40
0.0
 41
1.0
 50
0.0
 71
     0
 42
2.5
  3
txt
  4

1001
ACAD
1000

1071
        0
  0
STYLE
  5
3B
330
3
100
AcDbSymbolTableRecord
100
AcDbTextStyleTableRecord
  2
ＭＳ ゴシック
 70
     0
 40
1.0
 41
1.0
 50
0.0
 71
     0
 42
10.0
  3

  4

1001
ACAD
1000
MS Gothic
1071
    32817
  0
ENDTAB
  0
TABLE
  2
VIEW
  5
6
330
0
100
AcDbSymbolTable
 70
     0
  0
ENDTAB
  0
TABLE
  2
UCS
  5
7
330
0
100
AcDbSymbolTable
 70
     0
  0
ENDTAB
  0
TABLE
  2
APPID
  5
9
330
0
100
AcDbSymbolTable
 70
     1
  0
APPID
  5
12
330
9
100
AcDbSymbolTableRecord
100
AcDbRegAppTableRecord
  2
ACAD
 70
     0
  0
ENDTAB
  0
TABLE
  2
DIMSTYLE
  5
A
330
0
100
AcDbSymbolTable
 70
     1
100
AcDbDimStyleTable
  0
DIMSTYLE
105
27
330
A
100
AcDbSymbolTableRecord
100
AcDbDimStyleTableRecord
  2
ISO-25
 70
     0
 41
2.5
 42
0.625
 43
3.75
 44
1.25
 73
     0
 74
     0
 77
     1
 78
     8
140
2.5
141
2.5
143
0.03937007874016
147
0.625
171
     3
172
     1
271
     2
272
     2
274
     3
278
    44
283
     0
284
     8
340
11
  0
ENDTAB
  0
TABLE
  2
BLOCK_RECORD
  5
1
330
0
100
AcDbSymbolTable
 70
     1
  0
BLOCK_RECORD
  5
1F
330
1
100
AcDbSymbolTableRecord
100
AcDbBlockTableRecord
  2
*Model_Space
340
22
  0
BLOCK_RECORD
  5
1B
330
1
100
AcDbSymbolTableRecord
100
AcDbBlockTableRecord
  2
*Paper_Space
340
1E
  0
BLOCK_RECORD
  5
23
330
1
100
AcDbSymbolTableRecord
100
AcDbBlockTableRecord
  2
*Paper_Space0
340
26
  0
ENDTAB
  0
ENDSEC
  0
SECTION
  2
BLOCKS
  0
BLOCK
  5
20
330
1F
100
AcDbEntity
  8
0
100
AcDbBlockBegin
  2
*Model_Space
 70
     0
 10
0.0
 20
0.0
 30
0.0
  3
*Model_Space
  1

  0
ENDBLK
  5
21
330
1F
100
AcDbEntity
  8
0
100
AcDbBlockEnd
  0
BLOCK
  5
1C
330
1B
100
AcDbEntity
 67
     1
  8
0
100
AcDbBlockBegin
  2
*Paper_Space
 70
     0
 10
0.0
 20
0.0
 30
0.0
  3
*Paper_Space
  1

  0
ENDBLK
  5
1D
330
1B
100
AcDbEntity
 67
     1
  8
0
100
AcDbBlockEnd
  0
BLOCK
  5
24
330
23
100
AcDbEntity
  8
0
100
AcDbBlockBegin
  2
*Paper_Space0
 70
     0
 10
0.0
 20
0.0
 30
0.0
  3
*Paper_Space0
  1

  0
ENDBLK
  5
25
330
23
100
AcDbEntity
  8
0
100
AcDbBlockEnd
  0
ENDSEC
  0
SECTION
  2
ENTITIES
  0
TEXT
  5
45
330
1F
100
AcDbEntity
  8
0-F
  6
Continuous
 62
     7
370
     9
100
AcDbText
 10
-693.3596607602458
 20
-626.1111902293369
 30
0.0
 40
22.86
  1
162
 41
1.111111111111111
  7
ＭＳ ゴシック
100
AcDbText
  0
TEXT
  5
46
330
1F
100
AcDbEntity
  8
0-F
  6
Continuous
 62
     7
370
     9
100
AcDbText
 10
-865.7086455287252
 20
-407.5862076811225
 30
0.0
 40
22.86
  1
呼称
 41
1.083333333333333
  7
ＭＳ ゴシック
100
AcDbText
  0
TEXT
  5
47
330
1F
100
AcDbEntity
  8
0-F
  6
Continuous
 62
     7
370
     9
100
AcDbText
 10
-933.9943925276042
 20
-317.1117076304338
 30
0.0
 40
22.86
  1
寸法表
 41
1.111111111111111
  7
ＭＳ ゴシック
100
AcDbText
  0
TEXT
  5
48
330
1F
100
AcDbEntity
  8
0-F
  6
Continuous
 62
     7
370
     9
100
AcDbText
 10
-860.3228671335431
 20
-621.6919131909107
 30
0.0
 40
22.86
  1
100
 41
1.111111111111111
  7
ＭＳ ゴシック
100
AcDbText
  0
LINE
  5
49
330
1F
100
AcDbEntity
  8
0-F
  6
Continuous
 62
     7
370
    80
100
AcDbLine
 10
-744.508822423186
 20
-638.0389172376051
 30
0.0
 11
-744.508822423186
 21
-357.2389172376049
 31
0.0
  0
LINE
  5
4A
330
1F
100
AcDbEntity
  8
0-F
  6
Continuous
 62
     7
370
    80
100
AcDbLine
 10
-910.9088224231856
 20
-357.2389172376049
 30
0.0
 11
-910.9088224231856
 21
-638.0389172376051
 31
0.0
  0
LINE
  5
4B
330
1F
100
AcDbEntity
  8
0-F
  6
Continuous
 62
     7
370
    80
100
AcDbLine
 10
-573.8837368900578
 20
-357.2389172376049
 30
0.0
 11
-573.8837368900578
 21
-638.0389172376051
 31
0.0
  0
LINE
  5
4C
330
1F
100
AcDbEntity
  8
0-F
  6
Continuous
 62
     7
370
    80
100
AcDbLine
 10
-407.4837368900579
 20
-638.0389172376051
 30
0.0
 11
-407.4837368900579
 21
-357.2389172376049
 31
0.0
  0
LINE
  5
4D
330
1F
100
AcDbEntity
  8
0-F
  6
Continuous
 62
     7
370
    80
100
AcDbLine
 10
-241.0837368900575
 20
-357.2389172376049
 30
0.0
 11
-241.0837368900575
 21
-638.0389172376051
 31
0.0
  0
TEXT
  5
4E
330
1F
100
AcDbEntity
  8
0-F
  6
Continuous
 62
     7
370
     9
100
AcDbText
 10
-680.09439943078
 20
-408.7649853696272
 30
0.0
 40
22.86
  1
Ａ
  7
ＭＳ ゴシック
100
AcDbText
  0
TEXT
  5
4F
330
1F
100
AcDbEntity
  8
0-F
  6
Continuous
 62
     7
370
     9
100
AcDbText
 10
-506.6255974300726
 20
-407.744580651976
 30
0.0
 40
22.86
  1
ａ
  7
ＭＳ ゴシック
100
AcDbText
  0
TEXT
  5
50
330
1F
100
AcDbEntity
  8
0-F
  6
Continuous
 62
     7
370
     9
100
AcDbText
 10
-340.2996284529239
 20
-410.8057948049296
 30
0.0
 40
22.86
  1
ｂ
  7
ＭＳ ゴシック
100
AcDbText
  0
TEXT
  5
51
330
1F
100
AcDbEntity
  8
0-F
  6
Continuous
 62
     7
370
     9
100
AcDbText
 10
-181.1164924993336
 20
-469.9892684287004
 30
0.0
 40
22.86
  1
Rp2
 41
1.111111111111111
  7
ＭＳ ゴシック
100
AcDbText
  0
TEXT
  5
52
330
1F
100
AcDbEntity
  8
0-F
  6
Continuous
 62
     7
370
     9
100
AcDbText
 10
-183.1573019346361
 20
-572.0297401938224
 30
0.0
 40
22.86
  1
Rp3
 41
1.111111111111111
  7
ＭＳ ゴシック
100
AcDbText
  0
TEXT
  5
53
330
1F
100
AcDbEntity
  8
0-F
  6
Continuous
 62
     7
370
     9
100
AcDbText
 10
-181.1164924993336
 20
-625.0907855116857
 30
0.0
 40
22.86
  1
Rp4
 41
1.111111111111111
  7
ＭＳ ゴシック
100
AcDbText
  0
TEXT
  5
54
330
1F
100
AcDbEntity
  8
0-F
  6
Continuous
 62
     7
370
     9
100
AcDbText
 10
-118.629132776323
 20
-573.549658072328
 30
0.0
 40
22.86
  1
(87.884)
 41
1.145833333333333
  7
ＭＳ ゴシック
100
AcDbText
  0
TEXT
  5
55
330
1F
100
AcDbEntity
  8
0-F
  6
Continuous
 62
     7
370
     9
100
AcDbText
 10
-94.01884710936187
 20
-519.8544893444126
 30
0.0
 40
22.86
  1
(75.184)
 41
1.145833333333333
  7
ＭＳ ゴシック
100
AcDbText
  0
TEXT
  5
56
330
1F
100
AcDbEntity
  8
0-F
  6
Continuous
 62
     7
370
     9
100
AcDbText
 10
-118.629132776323
 20
-470.6339180104901
 30
0.0
 40
22.86
  1
(59.614)
 41
1.145833333333333
  7
ＭＳ ゴシック
100
AcDbText
  0
TEXT
  5
57
330
1F
100
AcDbEntity
  8
0-F
  6
Continuous
 62
     7
370
     9
100
AcDbText
 10
-221.0800555807346
 20
-518.9686948759589
 30
0.0
 40
22.86
  1
Rp2 1/2
 41
1.142857142857143
  7
ＭＳ ゴシック
100
AcDbText
  0
TEXT
  5
58
330
1F
100
AcDbEntity
  8
0-F
  6
Continuous
 62
     7
370
     9
100
AcDbText
 10
-175.7412961014934
 20
-410.8390786435176
 30
0.0
 40
22.86
  1
ねじ径ｄ
 41
1.125
  7
ＭＳ ゴシック
100
AcDbText
  0
TEXT
  5
59
330
1F
100
AcDbEntity
  8
0-F
  6
Continuous
 62
     7
370
     9
100
AcDbText
 10
-120.9662195977741
 20
-627.0908265107045
 30
0.0
 40
22.86
  1
(113.030)
 41
1.148148148148148
  7
ＭＳ ゴシック
100
AcDbText
  0
LINE
  5
5A
330
1F
100
AcDbEntity
  8
0-F
  6
Continuous
 62
     7
370
    80
100
AcDbLine
 10
54.01315069503951
 20
-638.0389172376051
 30
0.0
 11
54.01315069503951
 21
-357.2389172376049
 31
0.0
  0
LINE
  5
5B
330
1F
100
AcDbEntity
  8
0-F
  6
Continuous
 62
     7
370
    80
100
AcDbLine
 10
220.4131506950399
 20
-357.2389172376049
 30
0.0
 11
220.4131506950399
 21
-638.0389172376051
 31
0.0
  0
TEXT
  5
5C
330
1F
100
AcDbEntity
  8
0-F
  6
Continuous
 62
     7
370
     9
100
AcDbText
 10
116.9675782158659
 20
-409.7853900872784
 30
0.0
 40
22.86
  1
ｈ
  7
ＭＳ ゴシック
100
AcDbText
  0
LINE
  5
5D
330
1F
100
AcDbEntity
  8
0-F
  6
Continuous
 62
     7
370
    80
100
AcDbLine
 10
379.9181698212642
 20
-357.2389172376049
 30
0.0
 11
379.9181698212642
 21
-638.0389172376051
 31
0.0
  0
TEXT
  5
5E
330
1F
100
AcDbEntity
  8
0-F
  6
Continuous
 62
     7
370
     9
100
AcDbText
 10
-694.380065477897
 20
-522.0299090289126
 30
0.0
 40
22.86
  1
109
 41
1.111111111111111
  7
ＭＳ ゴシック
100
AcDbText
  0
TEXT
  5
5F
330
1F
100
AcDbEntity
  8
0-F
  6
Continuous
 62
     7
370
     9
100
AcDbText
 10
-693.3596607602458
 20
-576.1113590644272
 30
0.0
 40
22.86
  1
128
 41
1.111111111111111
  7
ＭＳ ゴシック
100
AcDbText
  0
TEXT
  5
60
330
1F
100
AcDbEntity
  8
0-F
  6
Continuous
 62
     7
370
     9
100
AcDbText
 10
117.9879829335171
 20
-471.0096731463516
 30
0.0
 40
22.86
  1
49
 41
1.083333333333333
  7
ＭＳ ゴシック
100
AcDbText
  0
TEXT
  5
61
330
1F
100
AcDbEntity
  8
0-F
  6
Continuous
 62
     7
370
     9
100
AcDbText
 10
117.9879829335171
 20
-519.9890995936101
 30
0.0
 40
22.86
  1
56
 41
1.083333333333333
  7
ＭＳ ゴシック
100
AcDbText
  0
TEXT
  5
62
330
1F
100
AcDbEntity
  8
0-F
  6
Continuous
 62
     7
370
     9
100
AcDbText
 10
119.0083876511683
 20
-573.0501449114736
 30
0.0
 40
22.86
  1
59
 41
1.083333333333333
  7
ＭＳ ゴシック
100
AcDbText
  0
TEXT
  5
63
330
1F
100
AcDbEntity
  8
0-F
  6
Continuous
 62
     7
370
     9
100
AcDbText
 10
119.4970970858868
 20
-622.9818678171348
 30
0.0
 40
22.86
  1
68
 41
1.083333333333333
  7
ＭＳ ゴシック
100
AcDbText
  0
LINE
  5
64
330
1F
100
AcDbEntity
  8
0-F
  6
Continuous
 62
     7
370
    80
100
AcDbLine
 10
539.4231889474885
 20
-357.2389172376049
 30
0.0
 11
539.4231889474885
 21
-638.0389172376051
 31
0.0
  0
TEXT
  5
65
330
1F
100
AcDbEntity
  8
0-F
  6
Continuous
 62
     7
370
     9
100
AcDbText
 10
321.2336586477126
 20
-341.1635450502818
 30
0.0
 40
22.86
  1
単位（ｍｍ）
 41
1.138888888888889
  7
ＭＳ ゴシック
100
AcDbText
  0
LINE
  5
66
330
1F
100
AcDbEntity
  8
0-F
  6
Continuous
 62
     7
370
    80
100
AcDbLine
 10
-910.9088224231856
 20
-357.2389172376049
 30
0.0
 11
539.4231889474885
 21
-357.2389172376049
 31
0.0
  0
LINE
  5
67
330
1F
100
AcDbEntity
  8
0-F
  6
Continuous
 62
     7
370
    80
100
AcDbLine
 10
539.4231889474885
 20
-638.0389172376051
 30
0.0
 11
-910.9088224231856
 21
-638.0389172376051
 31
0.0
  0
LINE
  5
68
330
1F
100
AcDbEntity
  8
0-F
  6
Continuous
 62
     7
370
    80
100
AcDbLine
 10
539.4231889474885
 20
-586.038917237605
 30
0.0
 11
-910.9088224231856
 21
-586.038917237605
 31
0.0
  0
LINE
  5
69
330
1F
100
AcDbEntity
  8
0-F
  6
Continuous
 62
     7
370
    80
100
AcDbLine
 10
539.4231889474885
 20
-534.0389172376048
 30
0.0
 11
-910.9088224231856
 21
-534.0389172376048
 31
0.0
  0
LINE
  5
6A
330
1F
100
AcDbEntity
  8
0-F
  6
Continuous
 62
     7
370
    80
100
AcDbLine
 10
539.4231889474885
 20
-482.0389172376051
 30
0.0
 11
-910.9088224231856
 21
-482.0389172376051
 31
0.0
  0
LINE
  5
6B
330
1F
100
AcDbEntity
  8
0-F
  6
Continuous
 62
     7
370
    80
100
AcDbLine
 10
-910.9088224231856
 20
-430.0389172376051
 30
0.0
 11
539.4231889474885
 21
-430.0389172376051
 31
0.0
  0
TEXT
  5
6C
330
1F
100
AcDbEntity
  8
0-F
  6
Continuous
 62
     7
370
     9
100
AcDbText
 10
295.2425586361052
 20
-468.3639332269692
 30
0.0
 40
22.86
  1
3
  7
ＭＳ ゴシック
100
AcDbText
  0
TEXT
  5
6D
330
1F
100
AcDbEntity
  8
0-F
  6
Continuous
 62
     7
370
     9
100
AcDbText
 10
295.864108089528
 20
-520.5740873144786
 30
0.0
 40
22.86
  1
3
  7
ＭＳ ゴシック
100
AcDbText
  0
TEXT
  5
6E
330
1F
100
AcDbEntity
  8
0-F
  6
Continuous
 62
     7
370
     9
100
AcDbText
 10
295.864108089528
 20
-570.9195930417196
 30
0.0
 40
22.86
  1
3
  7
ＭＳ ゴシック
100
AcDbText
  0
TEXT
  5
6F
330
1F
100
AcDbEntity
  8
0-F
  6
Continuous
 62
     7
370
     9
100
AcDbText
 10
297.1072069963737
 20
-624.3728460360744
 30
0.0
 40
22.86
  1
4
  7
ＭＳ ゴシック
100
AcDbText
  0
TEXT
  5
70
330
1F
100
AcDbEntity
  8
0-F
  6
Continuous
 62
     7
370
     9
100
AcDbText
 10
437.2475777623295
 20
-468.3639332269692
 30
0.0
 40
22.86
  1
3.5
 41
1.111111111111111
  7
ＭＳ ゴシック
100
AcDbText
  0
TEXT
  5
71
330
1F
100
AcDbEntity
  8
0-F
  6
Continuous
 62
     7
370
     9
100
AcDbText
 10
437.8691272157523
 20
-520.5740873144786
 30
0.0
 40
22.86
  1
4.5
 41
1.111111111111111
  7
ＭＳ ゴシック
100
AcDbText
  0
TEXT
  5
72
330
1F
100
AcDbEntity
  8
0-F
  6
Continuous
 62
     7
370
     9
100
AcDbText
 10
-519.8908587595384
 20
-576.1113590644272
 30
0.0
 40
22.86
  1
102
 41
1.111111111111111
  7
ＭＳ ゴシック
100
AcDbText
  0
TEXT
  5
73
330
1F
100
AcDbEntity
  8
0-F
  6
Continuous
 62
     7
370
     9
100
AcDbText
 10
-517.850049324236
 20
-625.0907855116857
 30
0.0
 40
22.86
  1
132
 41
1.111111111111111
  7
ＭＳ ゴシック
100
AcDbText
  0
TEXT
  5
74
330
1F
100
AcDbEntity
  8
0-F
  6
Continuous
 62
     7
370
     9
100
AcDbText
 10
-339.2792237352727
 20
-471.0096731463516
 30
0.0
 40
22.86
  1
30
 41
1.083333333333333
  7
ＭＳ ゴシック
100
AcDbText
  0
TEXT
  5
75
330
1F
100
AcDbEntity
  8
0-F
  6
Continuous
 62
     7
370
     9
100
AcDbText
 10
-338.2588190176215
 20
-521.0095043112614
 30
0.0
 40
22.86
  1
47
 41
1.083333333333333
  7
ＭＳ ゴシック
100
AcDbText
  0
TEXT
  5
76
330
1F
100
AcDbEntity
  8
0-F
  6
Continuous
 62
     7
370
     9
100
AcDbText
 10
-339.2792237352727
 20
-571.0093354761711
 30
0.0
 40
22.86
  1
58
 41
1.083333333333333
  7
ＭＳ ゴシック
100
AcDbText
  0
TEXT
  5
77
330
1F
100
AcDbEntity
  8
0-F
  6
Continuous
 62
     7
370
     9
100
AcDbText
 10
-336.5467023044316
 20
-622.9818678171348
 30
0.0
 40
22.86
  1
75
 41
1.083333333333333
  7
ＭＳ ゴシック
100
AcDbText
  0
TEXT
  5
78
330
1F
100
AcDbEntity
  8
0-F
  6
Continuous
 62
     7
370
     9
100
AcDbText
 10
-933.9943925276042
 20
-205.3661629262975
 30
0.0
 40
22.86
  1
＊キーハンドル(NH-S)は付属していません。
 41
1.158333333333333
  7
ＭＳ ゴシック
100
AcDbText
  0
TEXT
  5
79
330
1F
100
AcDbEntity
  8
0-F
  6
Continuous
 62
     7
370
     9
100
AcDbText
 10
-664.4928167378486
 20
-711.3419816343009
 30
0.0
 40
22.86
  1
＊dねじ部は管用平行めねじ(JIS B 0202)に準拠しています。
 41
1.160606060606061
  7
ＭＳ ゴシック
100
AcDbText
  0
LINE
  5
7A
330
1F
100
AcDbEntity
  8
1-5_仕様文
  6
Continuous
 62
     7
370
     9
100
AcDbLine
 10
-388.6963717801856
 20
409.6660747227741
 30
0.0
 11
-397.1302862383146
 21
415.0390708062424
 31
0.0
  0
LINE
  5
7B
330
1F
100
AcDbEntity
  8
1-5_仕様文
  6
Continuous
 62
     7
370
     9
100
AcDbLine
 10
-388.6963717801856
 20
409.6660747227741
 30
0.0
 11
-398.2335412876679
 21
412.6731327178168
 31
0.0
  0
LINE
  5
7C
330
1F
100
AcDbEntity
  8
1-2_蓋
  6
Continuous
 62
     5
370
    80
100
AcDbLine
 10
89.2571832621512
 20
409.6660747227741
 30
0.0
 11
88.26418826215148
 21
405.960169722774
 31
0.0
  0
LINE
  5
7D
330
1F
100
AcDbEntity
  8
1-2_蓋
  6
Continuous
 62
     5
370
    80
100
AcDbLine
 10
-420.7428167378486
 20
409.6660747227741
 30
0.0
 11
-419.7498217378485
 21
405.960169722774
 31
0.0
  0
ARC
  5
7E
330
1F
100
AcDbEntity
  8
1-2_蓋
  6
Continuous
 62
     3
370
    60
100
AcDbCircle
 10
-165.7428167378485
 20
906.4505186478377
 30
0.0
 40
145.0
100
AcDbArc
 50
89.99999999999982
 51
194.9881956216126
  0
ARC
  5
7F
330
1F
100
AcDbEntity
  8
1-2_蓋
  6
Continuous
 62
     3
370
    60
100
AcDbCircle
 10
-165.7428167378485
 20
906.4504436478376
 30
0.0
 40
255.0
100
AcDbArc
 50
351.5435192817673
 51
188.4564807182308
  0
ARC
  5
80
330
1F
100
AcDbEntity
  8
1-2_蓋
  6
Continuous
 62
     3
370
    60
100
AcDbCircle
 10
-165.7428167378485
 20
906.4505186478377
 30
0.0
 40
321.25
100
AcDbArc
 50
353.2965106400448
 51
186.7034893599531
  0
LINE
  5
81
330
1F
100
AcDbEntity
  8
1-2_蓋
  6
Continuous
 62
     3
370
    60
100
AcDbLine
 10
-200.7428167378485
 20
926.4504086478373
 30
0.0
 11
-188.1036567378486
 21
926.4504086478373
 31
0.0
  0
ARC
  5
82
330
1F
100
AcDbEntity
  8
1-2_蓋
  6
Continuous
 62
     3
370
    60
100
AcDbCircle
 10
-200.7428167378485
 20
906.4504086478373
 30
0.0
 40
20.0
100
AcDbArc
 50
89.99998099998291
 51
180.0000199999658
  0
ARC
  5
83
330
1F
100
AcDbEntity
  8
1-2_蓋
  6
Continuous
 62
     3
370
    60
100
AcDbCircle
 10
-165.7428167378485
 20
906.4504836478375
 30
0.0
 40
30.00001
100
AcDbArc
 50
89.99999999999982
 51
138.1899139999736
  0
LINE
  5
84
330
1F
100
AcDbEntity
  8
1-2_蓋
  6
Continuous
 62
     3
370
    60
100
AcDbLine
 10
-200.7428167378485
 20
886.4506286478377
 30
0.0
 11
-188.1036567378486
 21
886.4506286478377
 31
0.0
  0
ARC
  5
85
330
1F
100
AcDbEntity
  8
1-2_蓋
  6
Continuous
 62
     3
370
    60
100
AcDbCircle
 10
-200.7428167378485
 20
906.4506286478377
 30
0.0
 40
20.0
100
AcDbArc
 50
179.9999800000334
 51
270.0000190000163
  0
ARC
  5
86
330
1F
100
AcDbEntity
  8
1-2_蓋
  6
Continuous
 62
     3
370
    60
100
AcDbCircle
 10
-165.7428167378485
 20
906.4505536478375
 30
0.0
 40
30.00001
100
AcDbArc
 50
221.8100860000256
 51
269.9999999999994
  0
CIRCLE
  5
87
330
1F
100
AcDbEntity
  8
1-1_ピット
  6
Continuous
 62
     3
370
    60
100
AcDbCircle
 10
-15.74281673784883
 20
906.4506686478376
 30
0.0
 40
27.5
  0
ARC
  5
88
330
1F
100
AcDbEntity
  8
1-1_ピット
  6
Continuous
 62
     3
370
    60
100
AcDbCircle
 10
-90.89685673784872
 20
1081.087668647838
 30
0.0
 40
10.0
100
AcDbArc
 50
329.9999999999371
 51
66.80098599998651
  0
LINE
  5
89
330
1F
100
AcDbEntity
  8
1-1_ピット
  6
Continuous
 62
     3
370
    60
100
AcDbLine
 10
-82.23660673784865
 20
1076.087668647838
 30
0.0
 11
-125.2876567378486
 21
1001.521063647838
 31
0.0
  0
ARC
  5
8A
330
1F
100
AcDbEntity
  8
1-1_ピット
  6
Continuous
 62
     3
370
    60
100
AcDbCircle
 10
-133.9479117378484
 20
1006.521063647838
 30
0.0
 40
10.0
100
AcDbArc
 50
252.3736249999517
 51
329.9999999999371
  0
ARC
  5
8B
330
1F
100
AcDbEntity
  8
1-1_ピット
  6
Continuous
 62
     3
370
    60
100
AcDbCircle
 10
-94.97676673784854
 20
984.0210636478375
 30
0.0
 40
10.0
100
AcDbArc
 50
149.9999999999715
 51
227.6263749999563
  0
LINE
  5
8C
330
1F
100
AcDbEntity
  8
1-1_ピット
  6
Continuous
 62
     3
370
    60
100
AcDbLine
 10
-60.58597173784862
 20
1063.587668647838
 30
0.0
 11
-103.6370217378486
 21
989.0210636478375
 31
0.0
  0
ARC
  5
8D
330
1F
100
AcDbEntity
  8
1-1_ピット
  6
Continuous
 62
     3
370
    60
100
AcDbCircle
 10
-51.92571673784884
 20
1058.587668647838
 30
0.0
 40
10.0
100
AcDbArc
 50
53.19901399998967
 51
149.9999999999715
  0
ARC
  5
8E
330
1F
100
AcDbEntity
  8
1-1_ピット
  6
Continuous
 62
     3
370
    60
100
AcDbCircle
 10
-165.7428167378485
 20
906.4506686478376
 30
0.0
 40
95.0
100
AcDbArc
 50
19.90174199999618
 51
47.62637499999094
  0
ARC
  5
8F
330
1F
100
AcDbEntity
  8
1-1_ピット
  6
Continuous
 62
     3
370
    60
100
AcDbCircle
 10
-67.01365173784852
 20
942.1935236478375
 30
0.0
 40
10.0
100
AcDbArc
 50
199.9017419999616
 51
325.1181759999378
  0
ARC
  5
90
330
1F
100
AcDbEntity
  8
1-1_ピット
  6
Continuous
 62
     3
370
    60
100
AcDbCircle
 10
-165.7428167378485
 20
906.4506686478376
 30
0.0
 40
200.0
100
AcDbArc
 50
16.35417699999688
 51
53.19901399998985
  0
ARC
  5
91
330
1F
100
AcDbEntity
  8
1-1_ピット
  6
Continuous
 62
     3
370
    60
100
AcDbCircle
 10
-15.74281673784883
 20
906.4506686478376
 30
0.0
 40
52.5
100
AcDbArc
 50
58.86876799998883
 51
145.1181759999722
  0
ARC
  5
92
330
1F
100
AcDbEntity
  8
1-1_ピット
  6
Continuous
 62
     3
370
    60
100
AcDbCircle
 10
16.56968326215162
 20
959.9497536478375
 30
0.0
 40
10.0
100
AcDbArc
 50
238.8687679999545
 51
16.3541769999957
  0
ARC
  5
93
330
1F
100
AcDbEntity
  8
1-1_ピット
  6
Continuous
 62
     3
370
    60
100
AcDbCircle
 10
-165.7428167378485
 20
906.4506686478376
 30
0.0
 40
218.82686
100
AcDbArc
 50
350.1325974886817
 51
189.8674025113163
  0
ARC
  5
94
330
1F
100
AcDbEntity
  8
1-1_ピット
  6
Continuous
 62
     3
370
    60
100
AcDbCircle
 10
-165.7428167378485
 20
906.4506686478376
 30
0.0
 40
200.0
100
AcDbArc
 50
66.80098599998722
 51
89.99999999999982
  0
ARC
  5
95
330
1F
100
AcDbEntity
  8
1-1_ピット
  6
Continuous
 62
     3
370
    60
100
AcDbCircle
 10
-165.7428167378485
 20
906.4506686478376
 30
0.0
 40
95.0
100
AcDbArc
 50
72.37362499998618
 51
89.99999999999982
  0
ARC
  5
96
330
1F
100
AcDbEntity
  8
1-1_ピット
  6
Continuous
 62
     3
370
    60
100
AcDbCircle
 10
-165.7428167378485
 20
906.4506686478376
 30
0.0
 40
70.0
100
AcDbArc
 50
327.6075812003685
 51
89.99999999999898
  0
ARC
  5
97
330
1F
100
AcDbEntity
  8
1-1_ピット
  6
Continuous
 62
     3
370
    60
100
AcDbCircle
 10
-67.01365173784852
 20
870.7075136478377
 30
0.0
 40
10.0
100
AcDbArc
 50
34.88182400006136
 51
160.0982580000376
  0
ARC
  5
98
330
1F
100
AcDbEntity
  8
1-1_ピット
  6
Continuous
 62
     3
370
    60
100
AcDbCircle
 10
-15.74281673784883
 20
906.4503686478374
 30
0.0
 40
52.5
100
AcDbArc
 50
214.881824000027
 51
225.5843093526741
  0
ARC
  5
99
330
1F
100
AcDbEntity
  8
1-1_ピット
  6
Continuous
 62
     3
370
    60
100
AcDbCircle
 10
-165.7428167378485
 20
906.4503686478374
 30
0.0
 40
95.0
100
AcDbArc
 50
336.7505982318328
 51
340.0982580000031
  0
LINE
  5
9A
330
1F
100
AcDbEntity
  8
1-2_蓋
  6
JWW_CENTER1
 62
     4
370
    80
100
AcDbLine
 10
170.3471932621515
 20
906.4505186478377
 30
0.0
 11
-503.4818017378485
 21
906.4505186478377
 31
0.0
  0
LINE
  5
9B
330
1F
100
AcDbEntity
  8
1-2_蓋
  6
JWW_CENTER1
 62
     4
370
    80
100
AcDbLine
 10
-165.7428167378485
 20
839.1386636478376
 30
0.0
 11
-165.7428167378485
 21
1246.638583647838
 31
0.0
  0
LINE
  5
9C
330
1F
100
AcDbEntity
  8
1-2_蓋
  6
Continuous
 62
     4
370
    80
100
AcDbLine
 10
-385.8837717378485
 20
114.6660747227741
 30
0.0
 11
-385.4528167378486
 21
115.0970297227741
 31
0.0
  0
LINE
  5
9D
330
1F
100
AcDbEntity
  8
1-2_蓋
  6
Continuous
 62
     4
370
    80
100
AcDbLine
 10
-144.4928167378485
 20
314.6660747227741
 30
0.0
 11
-144.4928167378485
 21
259.6660747227741
 31
0.0
  0
LINE
  5
9E
330
1F
100
AcDbEntity
  8
1-2_蓋
  6
Continuous
 62
     4
370
    80
100
AcDbLine
 10
-186.9928167378485
 20
314.6660747227741
 30
0.0
 11
-186.9928167378485
 21
259.6660747227741
 31
0.0
  0
LINE
  5
9F
330
1F
100
AcDbEntity
  8
1-2_蓋
  6
Continuous
 62
     4
370
    80
100
AcDbLine
 10
-140.7428167378485
 20
263.4160747227741
 30
0.0
 11
-140.7428167378485
 21
259.6660747227741
 31
0.0
  0
LINE
  5
A0
330
1F
100
AcDbEntity
  8
1-2_蓋
  6
Continuous
 62
     4
370
    80
100
AcDbLine
 10
-140.7428167378485
 20
314.6660747227741
 30
0.0
 11
-140.7428167378485
 21
324.6660747227741
 31
0.0
  0
LINE
  5
A1
330
1F
100
AcDbEntity
  8
1-2_蓋
  6
Continuous
 62
     4
370
    80
100
AcDbLine
 10
-190.7428167378485
 20
314.6660747227741
 30
0.0
 11
-190.7428167378485
 21
324.6660747227741
 31
0.0
  0
LINE
  5
A2
330
1F
100
AcDbEntity
  8
1-2_蓋
  6
Continuous
 62
     4
370
    80
100
AcDbLine
 10
-190.7428167378485
 20
263.4160747227741
 30
0.0
 11
-190.7428167378485
 21
259.6660747227741
 31
0.0
  0
LINE
  5
A3
330
1F
100
AcDbEntity
  8
1-2_蓋
  6
Continuous
 62
     4
370
    80
100
AcDbLine
 10
-385.4528167378486
 20
199.6660747227741
 30
0.0
 11
-385.4528167378486
 21
114.6660747227741
 31
0.0
  0
LINE
  5
A4
330
1F
100
AcDbEntity
  8
1-2_蓋
  6
Continuous
 62
     4
370
    80
100
AcDbLine
 10
53.96718326215122
 20
199.6660747227741
 30
0.0
 11
53.96718326215122
 21
114.6660747227741
 31
0.0
  0
LINE
  5
A5
330
1F
100
AcDbEntity
  8
1-2_蓋
  6
Continuous
 62
     3
370
    60
100
AcDbLine
 10
-384.5696767378486
 20
239.6660747227741
 30
0.0
 11
53.25718326215151
 21
239.6660747227741
 31
0.0
  0
LINE
  5
A6
330
1F
100
AcDbEntity
  8
1-2_蓋
  6
Continuous
 62
     3
370
    60
100
AcDbLine
 10
-384.5696767378486
 20
239.6660747227741
 30
0.0
 11
-384.5696767378486
 21
274.6660747227741
 31
0.0
  0
LINE
  5
A7
330
1F
100
AcDbEntity
  8
1-2_蓋
  6
Continuous
 62
     3
370
    60
100
AcDbLine
 10
53.08404326215152
 20
239.6660747227741
 30
0.0
 11
53.08404326215152
 21
274.6660747227741
 31
0.0
  0
ARC
  5
A8
330
1F
100
AcDbEntity
  8
1-2_蓋
  6
Continuous
 62
     3
370
    60
100
AcDbCircle
 10
-424.5794517378483
 20
404.6660747227741
 30
0.0
 40
5.0
100
AcDbArc
 50
14.99999999999777
 51
89.9999999999827
  0
ARC
  5
A9
330
1F
100
AcDbEntity
  8
1-2_蓋
  6
Continuous
 62
     3
370
    60
100
AcDbCircle
 10
93.09381826215132
 20
404.6660747227741
 30
0.0
 40
5.0
100
AcDbArc
 50
89.99999999998353
 51
164.9999999999681
  0
LINE
  5
AA
330
1F
100
AcDbEntity
  8
1-2_蓋
  6
Continuous
 62
     3
370
    60
100
AcDbLine
 10
-386.9928167378486
 20
219.6660747227741
 30
0.0
 11
-386.9928167378486
 21
199.6660747227741
 31
0.0
  0
LINE
  5
AB
330
1F
100
AcDbEntity
  8
1-2_蓋
  6
Continuous
 62
     3
370
    60
100
AcDbLine
 10
55.50718326215119
 20
219.6660747227741
 30
0.0
 11
55.50718326215119
 21
199.6660747227741
 31
0.0
  0
LINE
  5
AC
330
1F
100
AcDbEntity
  8
1-2_蓋
  6
Continuous
 62
     3
370
    60
100
AcDbLine
 10
-386.9928167378486
 20
219.6660747227741
 30
0.0
 11
55.50718326215119
 21
219.6660747227741
 31
0.0
  0
LINE
  5
AD
330
1F
100
AcDbEntity
  8
1-2_蓋
  6
Continuous
 62
     3
370
    60
100
AcDbLine
 10
-386.9928167378486
 20
199.6660747227741
 30
0.0
 11
55.50718326215119
 21
199.6660747227741
 31
0.0
  0
LINE
  5
AE
330
1F
100
AcDbEntity
  8
1-2_蓋
  6
Continuous
 62
     3
370
    60
100
AcDbLine
 10
-343.2428167378486
 20
239.6660747227741
 30
0.0
 11
-345.7428167378486
 21
219.6660747227741
 31
0.0
  0
LINE
  5
AF
330
1F
100
AcDbEntity
  8
1-2_蓋
  6
Continuous
 62
     3
370
    60
100
AcDbLine
 10
-288.2428167378486
 20
239.6660747227741
 30
0.0
 11
-285.7428167378486
 21
219.6660747227741
 31
0.0
  0
LINE
  5
B0
330
1F
100
AcDbEntity
  8
1-2_蓋
  6
Continuous
 62
     3
370
    60
100
AcDbLine
 10
-235.7428167378485
 20
239.6660747227741
 30
0.0
 11
-238.2428167378485
 21
219.6660747227741
 31
0.0
  0
LINE
  5
B1
330
1F
100
AcDbEntity
  8
1-2_蓋
  6
Continuous
 62
     3
370
    60
100
AcDbLine
 10
-95.74281673784854
 20
239.6660747227741
 30
0.0
 11
-93.24281673784854
 21
219.6660747227741
 31
0.0
  0
LINE
  5
B2
330
1F
100
AcDbEntity
  8
1-2_蓋
  6
Continuous
 62
     3
370
    60
100
AcDbLine
 10
-43.24281673784883
 20
239.6660747227741
 30
0.0
 11
-45.74281673784883
 21
219.6660747227741
 31
0.0
  0
LINE
  5
B3
330
1F
100
AcDbEntity
  8
1-2_蓋
  6
Continuous
 62
     3
370
    60
100
AcDbLine
 10
11.75718326215117
 20
239.6660747227741
 30
0.0
 11
14.25718326215117
 21
219.6660747227741
 31
0.0
  0
LINE
  5
B4
330
1F
100
AcDbEntity
  8
1-2_蓋
  6
Continuous
 62
     3
370
    60
100
AcDbLine
 10
105.1146232621515
 20
372.2542647227741
 30
0.0
 11
85.72544326215153
 21
299.892864722774
 31
0.0
  0
ARC
  5
B5
330
1F
100
AcDbEntity
  8
1-2_蓋
  6
Continuous
 62
     3
370
    60
100
AcDbCircle
 10
114.7738832621518
 20
369.6660747227741
 30
0.0
 40
10.0
100
AcDbArc
 50
89.9999999999827
 51
164.9999999999685
  0
ARC
  5
B6
330
1F
100
AcDbEntity
  8
1-2_蓋
  6
Continuous
 62
     3
370
    60
100
AcDbCircle
 10
131.4601682621513
 20
354.6660747227741
 30
0.0
 40
5.0
100
AcDbArc
 50
269.9999999999489
 51
344.9999999999341
  0
LINE
  5
B7
330
1F
100
AcDbEntity
  8
1-2_蓋
  6
Continuous
 62
     3
370
    60
100
AcDbLine
 10
85.72544326215153
 20
299.892864722774
 30
0.0
 11
79.4256932621515
 21
119.4915747227741
 31
0.0
  0
ARC
  5
B8
330
1F
100
AcDbEntity
  8
1-2_蓋
  6
Continuous
 62
     3
370
    60
100
AcDbCircle
 10
74.42873826215177
 20
119.6660747227741
 30
0.0
 40
5.0
100
AcDbArc
 50
269.9999999999489
 51
357.9999999999312
  0
LINE
  5
B9
330
1F
100
AcDbEntity
  8
1-2_蓋
  6
Continuous
 62
     3
370
    60
100
AcDbLine
 10
102.8987732621515
 20
349.6660747227741
 30
0.0
 11
131.4601682621513
 21
349.6660747227741
 31
0.0
  0
ARC
  5
BA
330
1F
100
AcDbEntity
  8
1-2_蓋
  6
Continuous
 62
     3
370
    60
100
AcDbCircle
 10
102.8987732621515
 20
344.6660747227741
 30
0.0
 40
5.0
100
AcDbArc
 50
89.99999999998353
 51
164.9999999999681
  0
LINE
  5
BB
330
1F
100
AcDbEntity
  8
1-2_蓋
  6
Continuous
 62
     3
370
    60
100
AcDbLine
 10
142.3422832621513
 20
375.9601697227741
 30
0.0
 11
136.2897982621517
 21
353.3719797227741
 31
0.0
  0
ARC
  5
BC
330
1F
100
AcDbEntity
  8
1-2_蓋
  6
Continuous
 62
     3
370
    60
100
AcDbCircle
 10
147.1719132621512
 20
374.6660747227741
 30
0.0
 40
5.0
100
AcDbArc
 50
89.99999999998353
 51
164.9999999999681
  0
LINE
  5
BD
330
1F
100
AcDbEntity
  8
1-2_蓋
  6
Continuous
 62
     3
370
    60
100
AcDbLine
 10
155.5071832621512
 20
409.6660747227741
 30
0.0
 11
155.5071832621512
 21
384.6660747227741
 31
0.0
  0
LINE
  5
BE
330
1F
100
AcDbEntity
  8
1-2_蓋
  6
Continuous
 62
     3
370
    60
100
AcDbLine
 10
150.5071832621512
 20
379.6660747227741
 30
0.0
 11
114.7738832621518
 21
379.6660747227741
 31
0.0
  0
ARC
  5
BF
330
1F
100
AcDbEntity
  8
1-2_蓋
  6
Continuous
 62
     3
370
    60
100
AcDbCircle
 10
150.5071832621512
 20
384.6660747227741
 30
0.0
 40
5.0
100
AcDbArc
 50
269.9999999999489
 51
359.9999999999993
  0
ARC
  5
C0
330
1F
100
AcDbEntity
  8
1-2_蓋
  6
Continuous
 62
     3
370
    60
100
AcDbCircle
 10
-446.2595167378486
 20
369.6660747227741
 30
0.0
 40
10.0
100
AcDbArc
 50
14.99999999999699
 51
89.9999999999827
  0
ARC
  5
C1
330
1F
100
AcDbEntity
  8
1-2_蓋
  6
Continuous
 62
     3
370
    60
100
AcDbCircle
 10
-462.9458017378483
 20
354.6660747227741
 30
0.0
 40
5.0
100
AcDbArc
 50
194.9999999999628
 51
269.9999999999481
  0
LINE
  5
C2
330
1F
100
AcDbEntity
  8
1-2_蓋
  6
Continuous
 62
     3
370
    60
100
AcDbLine
 10
-434.3844067378485
 20
349.6660747227741
 30
0.0
 11
-462.9458017378483
 21
349.6660747227741
 31
0.0
  0
ARC
  5
C3
330
1F
100
AcDbEntity
  8
1-2_蓋
  6
Continuous
 62
     3
370
    60
100
AcDbCircle
 10
-434.3844067378485
 20
344.6660747227741
 30
0.0
 40
5.0
100
AcDbArc
 50
14.99999999999699
 51
89.9999999999827
  0
LINE
  5
C4
330
1F
100
AcDbEntity
  8
1-2_蓋
  6
Continuous
 62
     3
370
    60
100
AcDbLine
 10
-473.8279167378483
 20
375.9601697227741
 30
0.0
 11
-467.7754317378485
 21
353.3719797227741
 31
0.0
  0
ARC
  5
C5
330
1F
100
AcDbEntity
  8
1-2_蓋
  6
Continuous
 62
     3
370
    60
100
AcDbCircle
 10
-478.6575467378485
 20
374.6660747227741
 30
0.0
 40
5.0
100
AcDbArc
 50
14.99999999999699
 51
89.9999999999827
  0
LINE
  5
C6
330
1F
100
AcDbEntity
  8
1-2_蓋
  6
Continuous
 62
     3
370
    60
100
AcDbLine
 10
-481.9928167378486
 20
379.6660747227741
 30
0.0
 11
-446.2595167378486
 21
379.6660747227741
 31
0.0
  0
ARC
  5
C7
330
1F
100
AcDbEntity
  8
1-2_蓋
  6
Continuous
 62
     3
370
    60
100
AcDbCircle
 10
-481.9928167378486
 20
384.6660747227741
 30
0.0
 40
5.0
100
AcDbArc
 50
179.9999999999654
 51
269.9999999999481
  0
LINE
  5
C8
330
1F
100
AcDbEntity
  8
1-2_蓋
  6
Continuous
 62
     3
370
    60
100
AcDbLine
 10
-486.9928167378486
 20
409.6660747227741
 30
0.0
 11
-486.9928167378486
 21
384.6660747227741
 31
0.0
  0
LINE
  5
C9
330
1F
100
AcDbEntity
  8
1-2_蓋
  6
Continuous
 62
     3
370
    60
100
AcDbLine
 10
-417.2110767378485
 20
299.892864722774
 30
0.0
 11
-410.9113267378485
 21
119.4915747227741
 31
0.0
  0
ARC
  5
CA
330
1F
100
AcDbEntity
  8
1-2_蓋
  6
Continuous
 62
     3
370
    60
100
AcDbCircle
 10
-405.9143717378486
 20
119.6660747227741
 30
0.0
 40
5.0
100
AcDbArc
 50
181.9999999999649
 51
269.9999999999482
  0
LINE
  5
CB
330
1F
100
AcDbEntity
  8
1-2_蓋
  6
Continuous
 62
     3
370
    60
100
AcDbLine
 10
-436.6002567378486
 20
372.2542647227741
 30
0.0
 11
-417.2110767378485
 21
299.892864722774
 31
0.0
  0
LINE
  5
CC
330
1F
100
AcDbEntity
  8
1-2_蓋
  6
Continuous
 62
     3
370
    60
100
AcDbLine
 10
155.5071832621512
 20
409.6660747227741
 30
0.0
 11
-486.9928167378486
 21
409.6660747227741
 31
0.0
  0
LINE
  5
CD
330
1F
100
AcDbEntity
  8
1-2_蓋
  6
Continuous
 62
     3
370
    60
100
AcDbLine
 10
82.74105826215178
 20
409.6660747227741
 30
0.0
 11
-414.2266917378486
 21
409.6660747227741
 31
0.0
  0
LINE
  5
CE
330
1F
100
AcDbEntity
  8
1-2_蓋
  6
Continuous
 62
     3
370
    60
100
AcDbLine
 10
-309.7498217378485
 20
405.960169722774
 30
0.0
 11
-293.3261167378486
 21
344.6660747227741
 31
0.0
  0
ARC
  5
CF
330
1F
100
AcDbEntity
  8
1-2_蓋
  6
Continuous
 62
     3
370
    60
100
AcDbCircle
 10
-414.2266917378486
 20
404.6660747227741
 30
0.0
 40
5.0
100
AcDbArc
 50
89.9999999999827
 51
195.0729155808198
  0
ARC
  5
D0
330
1F
100
AcDbEntity
  8
1-2_蓋
  6
Continuous
 62
     3
370
    60
100
AcDbCircle
 10
-314.5794517378483
 20
404.6660747227741
 30
0.0
 40
5.0
100
AcDbArc
 50
14.99999999999777
 51
89.9999999999827
  0
ARC
  5
D1
330
1F
100
AcDbEntity
  8
1-2_蓋
  6
Continuous
 62
     3
370
    60
100
AcDbCircle
 10
82.74105826215178
 20
404.6660747227741
 30
0.0
 40
5.0
100
AcDbArc
 50
344.9999999999341
 51
89.99999999998278
  0
ARC
  5
D2
330
1F
100
AcDbEntity
  8
1-2_蓋
  6
Continuous
 62
     3
370
    60
100
AcDbCircle
 10
-16.90618173784872
 20
404.6660747227741
 30
0.0
 40
5.0
100
AcDbArc
 50
89.99999999998353
 51
164.9999999999681
  0
LINE
  5
D3
330
1F
100
AcDbEntity
  8
1-2_蓋
  6
Continuous
 62
     3
370
    60
100
AcDbLine
 10
-304.2266917378486
 20
409.6660747227741
 30
0.0
 11
-27.25894173784825
 21
409.6660747227741
 31
0.0
  0
ARC
  5
D4
330
1F
100
AcDbEntity
  8
1-2_蓋
  6
Continuous
 62
     3
370
    60
100
AcDbCircle
 10
-304.2266917378486
 20
404.6660747227741
 30
0.0
 40
5.0
100
AcDbArc
 50
89.9999999999827
 51
194.999999999962
  0
ARC
  5
D5
330
1F
100
AcDbEntity
  8
1-2_蓋
  6
Continuous
 62
     3
370
    60
100
AcDbCircle
 10
-27.25894173784825
 20
404.6660747227741
 30
0.0
 40
5.0
100
AcDbArc
 50
344.9999999999341
 51
89.99999999998278
  0
LINE
  5
D6
330
1F
100
AcDbEntity
  8
1-2_蓋
  6
Continuous
 62
     3
370
    60
100
AcDbLine
 10
-144.4928167378485
 20
314.6660747227741
 30
0.0
 11
-144.4928167378485
 21
324.6660747227741
 31
0.0
  0
LINE
  5
D7
330
1F
100
AcDbEntity
  8
1-2_蓋
  6
Continuous
 62
     3
370
    60
100
AcDbLine
 10
-140.7428167378485
 20
314.6660747227741
 30
0.0
 11
-190.7428167378485
 21
314.6660747227741
 31
0.0
  0
LINE
  5
D8
330
1F
100
AcDbEntity
  8
1-2_蓋
  6
Continuous
 62
     3
370
    60
100
AcDbLine
 10
-186.9928167378485
 20
314.6660747227741
 30
0.0
 11
-186.9928167378485
 21
324.6660747227741
 31
0.0
  0
LINE
  5
D9
330
1F
100
AcDbEntity
  8
1-2_蓋
  6
Continuous
 62
     3
370
    60
100
AcDbLine
 10
-144.4928167378485
 20
259.6660747227741
 30
0.0
 11
-140.7428167378485
 21
263.4160747227741
 31
0.0
  0
LINE
  5
DA
330
1F
100
AcDbEntity
  8
1-2_蓋
  6
Continuous
 62
     3
370
    60
100
AcDbLine
 10
-140.7428167378485
 20
314.6660747227741
 30
0.0
 11
-140.7428167378485
 21
263.4160747227741
 31
0.0
  0
LINE
  5
DB
330
1F
100
AcDbEntity
  8
1-2_蓋
  6
Continuous
 62
     3
370
    60
100
AcDbLine
 10
-186.9928167378485
 20
259.6660747227741
 30
0.0
 11
-190.7428167378485
 21
263.4160747227741
 31
0.0
  0
LINE
  5
DC
330
1F
100
AcDbEntity
  8
1-2_蓋
  6
Continuous
 62
     3
370
    60
100
AcDbLine
 10
-190.7428167378485
 20
314.6660747227741
 30
0.0
 11
-190.7428167378485
 21
263.4160747227741
 31
0.0
  0
LINE
  5
DD
330
1F
100
AcDbEntity
  8
1-2_蓋
  6
Continuous
 62
     3
370
    60
100
AcDbLine
 10
-140.7428167378485
 20
263.4160747227741
 30
0.0
 11
-190.7428167378485
 21
263.4160747227741
 31
0.0
  0
LINE
  5
DE
330
1F
100
AcDbEntity
  8
1-2_蓋
  6
Continuous
 62
     3
370
    60
100
AcDbLine
 10
-186.9928167378485
 20
259.6660747227741
 30
0.0
 11
-144.4928167378485
 21
259.6660747227741
 31
0.0
  0
LINE
  5
DF
330
1F
100
AcDbEntity
  8
1-2_蓋
  6
Continuous
 62
     3
370
    60
100
AcDbLine
 10
-208.2428167378485
 20
324.6660747227741
 30
0.0
 11
-123.2428167378485
 21
324.6660747227741
 31
0.0
  0
LINE
  5
E0
330
1F
100
AcDbEntity
  8
1-2_蓋
  6
Continuous
 62
     3
370
    60
100
AcDbLine
 10
-38.15951173784826
 20
344.6660747227741
 30
0.0
 11
-108.6111313698449
 21
344.6660747227741
 31
0.0
  0
LINE
  5
E1
330
1F
100
AcDbEntity
  8
1-2_蓋
  6
Continuous
 62
     3
370
    60
100
AcDbLine
 10
-293.3261167378486
 20
344.6660747227741
 30
0.0
 11
-222.8745021058522
 21
344.6660747227741
 31
0.0
  0
LINE
  5
E2
330
1F
100
AcDbEntity
  8
1-2_蓋
  6
Continuous
 62
     3
370
    60
100
AcDbLine
 10
-285.7428167378486
 20
269.6660747227741
 30
0.0
 11
-285.7428167378486
 21
249.6660747227741
 31
0.0
  0
LINE
  5
E3
330
1F
100
AcDbEntity
  8
1-2_蓋
  6
Continuous
 62
     3
370
    60
100
AcDbLine
 10
-45.74281673784883
 20
269.6660747227741
 30
0.0
 11
-115.7428167378485
 21
314.6660747227741
 31
0.0
  0
LINE
  5
E4
330
1F
100
AcDbEntity
  8
1-2_蓋
  6
Continuous
 62
     3
370
    60
100
AcDbLine
 10
-45.74281673784883
 20
269.6660747227741
 30
0.0
 11
-10.74281673784883
 21
269.6660747227741
 31
0.0
  0
LINE
  5
E5
330
1F
100
AcDbEntity
  8
1-2_蓋
  6
Continuous
 62
     3
370
    60
100
AcDbLine
 10
-10.74281673784883
 20
249.6660747227741
 30
0.0
 11
-10.74281673784883
 21
269.6660747227741
 31
0.0
  0
LINE
  5
E6
330
1F
100
AcDbEntity
  8
1-2_蓋
  6
Continuous
 62
     3
370
    60
100
AcDbLine
 10
-115.7428167378485
 20
324.6660747227741
 30
0.0
 11
-115.7428167378485
 21
314.6660747227741
 31
0.0
  0
LINE
  5
E7
330
1F
100
AcDbEntity
  8
1-2_蓋
  6
Continuous
 62
     3
370
    60
100
AcDbLine
 10
-285.7428167378486
 20
269.6660747227741
 30
0.0
 11
-215.7428167378485
 21
314.6660747227741
 31
0.0
  0
LINE
  5
E8
330
1F
100
AcDbEntity
  8
1-2_蓋
  6
Continuous
 62
     3
370
    60
100
AcDbLine
 10
-285.7428167378486
 20
269.6660747227741
 30
0.0
 11
-320.7428167378486
 21
269.6660747227741
 31
0.0
  0
LINE
  5
E9
330
1F
100
AcDbEntity
  8
1-2_蓋
  6
Continuous
 62
     3
370
    60
100
AcDbLine
 10
-320.7428167378486
 20
249.6660747227741
 30
0.0
 11
-320.7428167378486
 21
269.6660747227741
 31
0.0
  0
LINE
  5
EA
330
1F
100
AcDbEntity
  8
1-2_蓋
  6
Continuous
 62
     3
370
    60
100
AcDbLine
 10
-320.7428167378486
 20
249.6660747227741
 30
0.0
 11
-10.74281673784883
 21
249.6660747227741
 31
0.0
  0
LINE
  5
EB
330
1F
100
AcDbEntity
  8
1-2_蓋
  6
Continuous
 62
     3
370
    60
100
AcDbLine
 10
-215.7428167378485
 20
324.6660747227741
 30
0.0
 11
-115.7428167378485
 21
324.6660747227741
 31
0.0
  0
LINE
  5
EC
330
1F
100
AcDbEntity
  8
1-2_蓋
  6
Continuous
 62
     3
370
    60
100
AcDbLine
 10
-215.7428167378485
 20
324.6660747227741
 30
0.0
 11
-215.7428167378485
 21
249.6660747227741
 31
0.0
  0
LINE
  5
ED
330
1F
100
AcDbEntity
  8
1-2_蓋
  6
Continuous
 62
     3
370
    60
100
AcDbLine
 10
-205.7428167378485
 20
249.6660747227741
 30
0.0
 11
-205.7428167378485
 21
259.6660747227741
 31
0.0
  0
LINE
  5
EE
330
1F
100
AcDbEntity
  8
1-2_蓋
  6
Continuous
 62
     3
370
    60
100
AcDbLine
 10
-125.7428167378485
 20
249.6660747227741
 30
0.0
 11
-125.7428167378485
 21
259.6660747227741
 31
0.0
  0
LINE
  5
EF
330
1F
100
AcDbEntity
  8
1-2_蓋
  6
Continuous
 62
     3
370
    60
100
AcDbLine
 10
-205.7428167378485
 20
259.6660747227741
 30
0.0
 11
-125.7428167378485
 21
259.6660747227741
 31
0.0
  0
LINE
  5
F0
330
1F
100
AcDbEntity
  8
1-2_蓋
  6
Continuous
 62
     3
370
    60
100
AcDbLine
 10
-384.5696767378486
 20
274.6660747227741
 30
0.0
 11
-277.9650367378487
 21
274.6660747227741
 31
0.0
  0
LINE
  5
F1
330
1F
100
AcDbEntity
  8
1-2_蓋
  6
Continuous
 62
     3
370
    60
100
AcDbLine
 10
-53.52059673784838
 20
274.6660747227741
 30
0.0
 11
53.08404326215152
 21
274.6660747227741
 31
0.0
  0
LINE
  5
F2
330
1F
100
AcDbEntity
  8
1-2_蓋
  6
Continuous
 62
     3
370
    60
100
AcDbLine
 10
-384.5696767378486
 20
274.6660747227741
 30
0.0
 11
-277.9650367378487
 21
274.6660747227741
 31
0.0
  0
LINE
  5
F3
330
1F
100
AcDbEntity
  8
1-2_蓋
  6
Continuous
 62
     3
370
    60
100
AcDbLine
 10
-53.52059673784838
 20
274.6660747227741
 30
0.0
 11
53.08404326215152
 21
274.6660747227741
 31
0.0
  0
LINE
  5
F4
330
1F
100
AcDbEntity
  8
1-2_蓋
  6
Continuous
 62
     3
370
    60
100
AcDbLine
 10
-21.73581173784855
 20
405.960169722774
 30
0.0
 11
-38.15951173784826
 21
344.6660747227741
 31
0.0
  0
LINE
  5
F5
330
1F
100
AcDbEntity
  8
1-2_蓋
  6
Continuous
 62
     3
370
    60
100
AcDbLine
 10
88.26418826215148
 20
405.960169722774
 30
0.0
 11
53.08404326215152
 21
274.6660747227741
 31
0.0
  0
LINE
  5
F6
330
1F
100
AcDbEntity
  8
1-2_蓋
  6
Continuous
 62
     3
370
    60
100
AcDbLine
 10
-405.9143717378486
 20
114.6660747227741
 30
0.0
 11
74.42873826215177
 21
114.6660747227741
 31
0.0
  0
LINE
  5
F7
330
1F
100
AcDbEntity
  8
1-2_蓋
  6
Continuous
 62
     3
370
    60
100
AcDbLine
 10
-377.9528167378486
 20
199.6660747227741
 30
0.0
 11
-377.9528167378486
 21
122.1660747227741
 31
0.0
  0
LINE
  5
F8
330
1F
100
AcDbEntity
  8
1-2_蓋
  6
Continuous
 62
     3
370
    60
100
AcDbLine
 10
-385.4528167378486
 20
114.6660747227741
 30
0.0
 11
-377.9528167378486
 21
122.1660747227741
 31
0.0
  0
LINE
  5
F9
330
1F
100
AcDbEntity
  8
1-2_蓋
  6
Continuous
 62
     3
370
    60
100
AcDbLine
 10
53.96718326215122
 20
114.6660747227741
 30
0.0
 11
46.46718326215121
 21
122.1660747227741
 31
0.0
  0
LINE
  5
FA
330
1F
100
AcDbEntity
  8
1-2_蓋
  6
Continuous
 62
     3
370
    60
100
AcDbLine
 10
46.46718326215121
 20
199.6660747227741
 30
0.0
 11
46.46718326215121
 21
122.1660747227741
 31
0.0
  0
LINE
  5
FB
330
1F
100
AcDbEntity
  8
1-2_蓋
  6
Continuous
 62
     3
370
    60
100
AcDbLine
 10
-377.9528167378486
 20
122.1660747227741
 30
0.0
 11
46.46718326215121
 21
122.1660747227741
 31
0.0
  0
LINE
  5
FC
330
1F
100
AcDbEntity
  8
1-2_蓋
  6
Continuous
 62
     3
370
    60
100
AcDbLine
 10
-386.9928167378486
 20
199.6660747227741
 30
0.0
 11
55.50718326215119
 21
199.6660747227741
 31
0.0
  0
LINE
  5
FD
330
1F
100
AcDbEntity
  8
1-2_蓋
  6
Continuous
 62
     3
370
    60
100
AcDbLine
 10
-328.2428167378486
 20
274.6661897227741
 30
0.0
 11
-328.2428167378486
 21
344.6661147227741
 31
0.0
  0
LINE
  5
FE
330
1F
100
AcDbEntity
  8
1-2_蓋
  6
Continuous
 62
     3
370
    60
100
AcDbLine
 10
-3.24281673784883
 20
274.6661497227741
 30
0.0
 11
-3.24281673784883
 21
344.6661147227741
 31
0.0
  0
LINE
  5
FF
330
1F
100
AcDbEntity
  8
1-2_蓋
  6
Continuous
 62
     3
370
    60
100
AcDbLine
 10
-328.2428167378486
 20
344.6660747227741
 30
0.0
 11
-222.8745021058522
 21
344.6660747227741
 31
0.0
  0
LINE
  5
100
330
1F
100
AcDbEntity
  8
1-2_蓋
  6
Continuous
 62
     3
370
    60
100
AcDbLine
 10
-108.6111313698449
 20
344.6660747227741
 30
0.0
 11
-3.24281673784883
 21
344.6660747227741
 31
0.0
  0
ARC
  5
101
330
1F
100
AcDbEntity
  8
1-2_蓋
  6
Continuous
 62
     3
370
    60
100
AcDbCircle
 10
-270.7428167378486
 20
349.6660747227742
 30
0.0
 40
5.0
100
AcDbArc
 50
269.9999999999481
 51
359.9999999999993
  0
LINE
  5
102
330
1F
100
AcDbEntity
  8
1-2_蓋
  6
Continuous
 62
     3
370
    60
100
AcDbLine
 10
-265.7428167378486
 20
384.6660747227741
 30
0.0
 11
-265.7428167378486
 21
349.6660747227742
 31
0.0
  0
ARC
  5
103
330
1F
100
AcDbEntity
  8
1-2_蓋
  6
Continuous
 62
     3
370
    60
100
AcDbCircle
 10
-255.7428167378485
 20
384.6660747227741
 30
0.0
 40
10.0
100
AcDbArc
 50
89.9999999999827
 51
179.9999999999654
  0
LINE
  5
104
330
1F
100
AcDbEntity
  8
1-2_蓋
  6
Continuous
 62
     3
370
    60
100
AcDbLine
 10
-255.7428167378485
 20
394.6660747227741
 30
0.0
 11
-243.9452317378483
 21
394.6660747227741
 31
0.0
  0
ARC
  5
105
330
1F
100
AcDbEntity
  8
1-2_蓋
  6
Continuous
 62
     3
370
    60
100
AcDbCircle
 10
-243.9452317378483
 20
384.6660747227741
 30
0.0
 40
10.0
100
AcDbArc
 50
14.99999999999699
 51
89.9999999999827
  0
LINE
  5
106
330
1F
100
AcDbEntity
  8
1-2_蓋
  6
Continuous
 62
     3
370
    60
100
AcDbLine
 10
-234.2859717378487
 20
387.2542647227741
 30
0.0
 11
-218.5085117378485
 21
328.3719747227742
 31
0.0
  0
ARC
  5
107
330
1F
100
AcDbEntity
  8
1-2_蓋
  6
Continuous
 62
     3
370
    60
100
AcDbCircle
 10
-213.6788817378483
 20
329.6660747227742
 30
0.0
 40
5.0
100
AcDbArc
 50
194.9999999999628
 51
269.999999999949
  0
LINE
  5
108
330
1F
100
AcDbEntity
  8
1-2_蓋
  6
Continuous
 62
     3
370
    60
100
AcDbLine
 10
-220.7428167378485
 20
409.6660747227741
 30
0.0
 11
-220.7428167378485
 21
394.6660747227741
 31
0.0
  0
LINE
  5
109
330
1F
100
AcDbEntity
  8
1-2_蓋
  6
Continuous
 62
     3
370
    60
100
AcDbLine
 10
-220.7428167378485
 20
394.6660747227741
 30
0.0
 11
-211.0178417378485
 21
358.3719747227742
 31
0.0
  0
ARC
  5
10A
330
1F
100
AcDbEntity
  8
1-2_蓋
  6
Continuous
 62
     3
370
    60
100
AcDbCircle
 10
-214.2266917378485
 20
389.6660747227741
 30
0.0
 40
5.0
100
AcDbArc
 50
89.99999999998353
 51
194.999999999962
  0
LINE
  5
10B
330
1F
100
AcDbEntity
  8
1-2_蓋
  6
Continuous
 62
     3
370
    60
100
AcDbLine
 10
-214.2266917378485
 20
394.6660747227741
 30
0.0
 11
-117.2589417378485
 21
394.6660747227741
 31
0.0
  0
LINE
  5
10C
330
1F
100
AcDbEntity
  8
1-2_蓋
  6
Continuous
 62
     3
370
    60
100
AcDbLine
 10
-188.1034967378487
 20
409.6660747227741
 30
0.0
 11
-188.1034967378487
 21
394.6660747227741
 31
0.0
  0
LINE
  5
10D
330
1F
100
AcDbEntity
  8
1-2_蓋
  6
Continuous
 62
     3
370
    60
100
AcDbLine
 10
-143.3821367378484
 20
409.6660747227741
 30
0.0
 11
-143.3821367378484
 21
394.6660747227741
 31
0.0
  0
LINE
  5
10E
330
1F
100
AcDbEntity
  8
1-2_蓋
  6
Continuous
 62
     3
370
    60
100
AcDbLine
 10
-110.7428167378485
 20
409.6660747227741
 30
0.0
 11
-110.7428167378485
 21
394.6660747227741
 31
0.0
  0
ARC
  5
10F
330
1F
100
AcDbEntity
  8
1-2_蓋
  6
Continuous
 62
     3
370
    60
100
AcDbCircle
 10
-117.2589417378485
 20
389.6660747227741
 30
0.0
 40
5.0
100
AcDbArc
 50
344.9999999999341
 51
89.99999999998278
  0
LINE
  5
110
330
1F
100
AcDbEntity
  8
1-2_蓋
  6
Continuous
 62
     3
370
    60
100
AcDbLine
 10
-110.7428167378485
 20
394.6660747227741
 30
0.0
 11
-120.4677917378486
 21
358.3719747227742
 31
0.0
  0
ARC
  5
111
330
1F
100
AcDbEntity
  8
1-2_蓋
  6
Continuous
 62
     3
370
    60
100
AcDbCircle
 10
-125.2974217378484
 20
359.6660747227741
 30
0.0
 40
5.0
100
AcDbArc
 50
269.9999999999489
 51
344.9999999999341
  0
LINE
  5
112
330
1F
100
AcDbEntity
  8
1-2_蓋
  6
Continuous
 62
     3
370
    60
100
AcDbLine
 10
-206.1882117378487
 20
354.6660747227741
 30
0.0
 11
-125.2974217378484
 21
354.6660747227741
 31
0.0
  0
ARC
  5
113
330
1F
100
AcDbEntity
  8
1-2_蓋
  6
Continuous
 62
     3
370
    60
100
AcDbCircle
 10
-206.1882117378487
 20
359.6660747227741
 30
0.0
 40
5.0
100
AcDbArc
 50
194.9999999999621
 51
269.999999999949
  0
ARC
  5
114
330
1F
100
AcDbEntity
  8
1-2_蓋
  6
Continuous
 62
     3
370
    60
100
AcDbCircle
 10
-117.8067517378487
 20
329.6660747227742
 30
0.0
 40
5.0
100
AcDbArc
 50
269.9999999999489
 51
344.9999999999341
  0
LINE
  5
115
330
1F
100
AcDbEntity
  8
1-2_蓋
  6
Continuous
 62
     3
370
    60
100
AcDbLine
 10
-97.19966173784842
 20
387.2542647227741
 30
0.0
 11
-112.9771217378483
 21
328.3719747227742
 31
0.0
  0
ARC
  5
116
330
1F
100
AcDbEntity
  8
1-2_蓋
  6
Continuous
 62
     3
370
    60
100
AcDbCircle
 10
-87.54040173784874
 20
384.6660747227741
 30
0.0
 40
10.0
100
AcDbArc
 50
89.9999999999827
 51
164.9999999999681
  0
LINE
  5
117
330
1F
100
AcDbEntity
  8
1-2_蓋
  6
Continuous
 62
     3
370
    60
100
AcDbLine
 10
-75.74281673784854
 20
394.6660747227741
 30
0.0
 11
-87.54040173784874
 21
394.6660747227741
 31
0.0
  0
ARC
  5
118
330
1F
100
AcDbEntity
  8
1-2_蓋
  6
Continuous
 62
     3
370
    60
100
AcDbCircle
 10
-75.74281673784854
 20
384.6660747227741
 30
0.0
 40
10.0
100
AcDbArc
 50
0.0
 51
89.9999999999827
  0
LINE
  5
119
330
1F
100
AcDbEntity
  8
1-2_蓋
  6
Continuous
 62
     3
370
    60
100
AcDbLine
 10
-65.74281673784854
 20
384.6660747227741
 30
0.0
 11
-65.74281673784854
 21
349.6660747227742
 31
0.0
  0
ARC
  5
11A
330
1F
100
AcDbEntity
  8
1-2_蓋
  6
Continuous
 62
     3
370
    60
100
AcDbCircle
 10
-60.74281673784854
 20
349.6660747227742
 30
0.0
 40
5.0
100
AcDbArc
 50
179.9999999999654
 51
269.9999999999489
  0
LINE
  5
11B
330
1F
100
AcDbEntity
  8
1-2_蓋
  6
Continuous
 62
     5
370
    80
100
AcDbLine
 10
-21.73581173784855
 20
405.960169722774
 30
0.0
 11
-20.74281673784883
 21
409.6660747227741
 31
0.0
  0
LINE
  5
11C
330
1F
100
AcDbEntity
  8
1-2_蓋
  6
Continuous
 62
     5
370
    80
100
AcDbLine
 10
-309.7498217378485
 20
405.960169722774
 30
0.0
 11
-310.7428167378486
 21
409.6660747227741
 31
0.0
  0
LINE
  5
11D
330
1F
100
AcDbEntity
  8
1-2_蓋
  6
Continuous
 62
     1
370
    40
100
AcDbLine
 10
-116.0981567378487
 20
324.6660747227742
 30
0.0
 11
-115.7428167378485
 21
324.3107347227741
 31
0.0
  0
LINE
  5
11E
330
1F
100
AcDbEntity
  8
1-2_蓋
  6
JWW_CENTER1
 62
     4
370
    80
100
AcDbLine
 10
-165.7428167378485
 20
472.1660747227741
 30
0.0
 11
-165.7428167378485
 21
91.66607472277406
 31
0.0
  0
LINE
  5
11F
330
1F
100
AcDbEntity
  8
1-0_通り芯
  6
Continuous
 62
     4
370
    80
100
AcDbLine
 10
-3.242816737848528
 20
304.1324874176048
 30
0.0
 11
84.48655843740626
 21
391.8618625928596
 31
0.0
  0
LINE
  5
120
330
1F
100
AcDbEntity
  8
1-0_通り芯
  6
Continuous
 62
     4
370
    80
100
AcDbLine
 10
-3.242816737848528
 20
318.2746192230247
 30
0.0
 11
86.47449880246471
 21
407.9919347633379
 31
0.0
  0
LINE
  5
121
330
1F
100
AcDbEntity
  8
1-0_通り芯
  6
Continuous
 62
     4
370
    80
100
AcDbLine
 10
-3.242816737848528
 20
332.4167510284446
 30
0.0
 11
74.00650695648099
 21
409.6660747227741
 31
0.0
  0
LINE
  5
122
330
1F
100
AcDbEntity
  8
1-0_通り芯
  6
Continuous
 62
     4
370
    80
100
AcDbLine
 10
-5.135624848938924
 20
344.6660747227741
 30
0.0
 11
59.86437515106108
 21
409.6660747227741
 31
0.0
  0
LINE
  5
123
330
1F
100
AcDbEntity
  8
1-0_通り芯
  6
Continuous
 62
     4
370
    80
100
AcDbLine
 10
-19.27775665435885
 20
344.6660747227741
 30
0.0
 11
45.72224334564115
 21
409.6660747227741
 31
0.0
  0
LINE
  5
124
330
1F
100
AcDbEntity
  8
1-0_通り芯
  6
Continuous
 62
     4
370
    80
100
AcDbLine
 10
-33.41988845977877
 20
344.6660747227741
 30
0.0
 11
31.58011154022123
 21
409.6660747227741
 31
0.0
  0
LINE
  5
125
330
1F
100
AcDbEntity
  8
1-0_通り芯
  6
Continuous
 62
     4
370
    80
100
AcDbLine
 10
-34.71795557391303
 20
357.5101394140598
 30
0.0
 11
17.43797973480131
 21
409.6660747227741
 31
0.0
  0
LINE
  5
126
330
1F
100
AcDbEntity
  8
1-0_通り芯
  6
Continuous
 62
     4
370
    80
100
AcDbLine
 10
-29.54157729735456
 20
376.8286494960382
 30
0.0
 11
3.295847929381388
 21
409.6660747227741
 31
0.0
  0
LINE
  5
127
330
1F
100
AcDbEntity
  8
1-0_通り芯
  6
Continuous
 62
     4
370
    80
100
AcDbLine
 10
-24.36519902079613
 20
396.1471595780165
 30
0.0
 11
-10.84628387603853
 21
409.6660747227741
 31
0.0
  0
LINE
  5
128
330
1F
100
AcDbEntity
  8
1-0_通り芯
  6
Continuous
 62
     4
370
    80
100
AcDbLine
 10
-329.6939973464976
 20
274.6660747227741
 30
0.0
 11
-328.2428167378486
 21
276.1172553314231
 31
0.0
  0
LINE
  5
129
330
1F
100
AcDbEntity
  8
1-0_通り芯
  6
Continuous
 62
     4
370
    80
100
AcDbLine
 10
-343.8361291519175
 20
274.6660747227741
 30
0.0
 11
-328.2428167378486
 21
290.259387136843
 31
0.0
  0
LINE
  5
12A
330
1F
100
AcDbEntity
  8
1-0_通り芯
  6
Continuous
 62
     4
370
    80
100
AcDbLine
 10
-357.9782609573374
 20
274.6660747227741
 30
0.0
 11
-328.2428167378486
 21
304.401518942263
 31
0.0
  0
LINE
  5
12B
330
1F
100
AcDbEntity
  8
1-0_通り芯
  6
Continuous
 62
     4
370
    80
100
AcDbLine
 10
-372.1203927627573
 20
274.6660747227741
 30
0.0
 11
-328.2428167378486
 21
318.5436507476829
 31
0.0
  0
LINE
  5
12C
330
1F
100
AcDbEntity
  8
1-0_通り芯
  6
Continuous
 62
     4
370
    80
100
AcDbLine
 10
-302.1203927627573
 20
344.6660747227741
 30
0.0
 11
-295.1845661268456
 21
351.6019013586858
 31
0.0
  0
LINE
  5
12D
330
1F
100
AcDbEntity
  8
1-0_通り芯
  6
Continuous
 62
     4
370
    80
100
AcDbLine
 10
-384.9274175506984
 20
276.0011817402531
 30
0.0
 11
-328.2428167378486
 21
332.6857825531028
 31
0.0
  0
LINE
  5
12E
330
1F
100
AcDbEntity
  8
1-0_通り芯
  6
Continuous
 62
     4
370
    80
100
AcDbLine
 10
-316.2625245681772
 20
344.6660747227741
 30
0.0
 11
-298.1731505354377
 21
362.7554487555136
 31
0.0
  0
LINE
  5
12F
330
1F
100
AcDbEntity
  8
1-0_通り芯
  6
Continuous
 62
     4
370
    80
100
AcDbLine
 10
-387.9160014250786
 20
287.1547296712927
 30
0.0
 11
-301.1617349440299
 21
373.9089961523413
 31
0.0
  0
LINE
  5
130
330
1F
100
AcDbEntity
  8
1-0_通り芯
  6
Continuous
 62
     4
370
    80
100
AcDbLine
 10
-390.9045852994587
 20
298.3082776023324
 30
0.0
 11
-304.1503193526221
 21
385.0625435491691
 31
0.0
  0
LINE
  5
131
330
1F
100
AcDbEntity
  8
1-0_通り芯
  6
Continuous
 62
     4
370
    80
100
AcDbLine
 10
-393.893169173839
 20
309.4618255333722
 30
0.0
 11
-307.1389037612142
 21
396.2160909459968
 31
0.0
  0
LINE
  5
132
330
1F
100
AcDbEntity
  8
1-0_通り芯
  6
Continuous
 62
     4
370
    80
100
AcDbLine
 10
-396.8817530482192
 20
320.6153734644119
 30
0.0
 11
-310.2795014693513
 21
407.2176155065366
 31
0.0
  0
LINE
  5
133
330
1F
100
AcDbEntity
  8
1-0_通り芯
  6
Continuous
 62
     4
370
    80
100
AcDbLine
 10
-399.8703369225994
 20
331.7689213954515
 30
0.0
 11
-321.9731835952768
 21
409.6660747227742
 31
0.0
  0
LINE
  5
134
330
1F
100
AcDbEntity
  8
1-0_通り芯
  6
Continuous
 62
     4
370
    80
100
AcDbLine
 10
-402.8589207969796
 20
342.9224693264913
 30
0.0
 11
-336.1153154006967
 21
409.6660747227742
 31
0.0
  0
LINE
  5
135
330
1F
100
AcDbEntity
  8
1-0_通り芯
  6
Continuous
 62
     4
370
    80
100
AcDbLine
 10
-405.8475046713598
 20
354.076017257531
 30
0.0
 11
-350.2574472061166
 21
409.6660747227742
 31
0.0
  0
LINE
  5
136
330
1F
100
AcDbEntity
  8
1-0_通り芯
  6
Continuous
 62
     4
370
    80
100
AcDbLine
 10
-408.83608854574
 20
365.2295651885707
 30
0.0
 11
-364.3995790115366
 21
409.6660747227742
 31
0.0
  0
LINE
  5
137
330
1F
100
AcDbEntity
  8
1-0_通り芯
  6
Continuous
 62
     4
370
    80
100
AcDbLine
 10
-411.8246724201202
 20
376.3831131196104
 30
0.0
 11
-378.5417108169565
 21
409.6660747227742
 31
0.0
  0
LINE
  5
138
330
1F
100
AcDbEntity
  8
1-0_通り芯
  6
Continuous
 62
     4
370
    80
100
AcDbLine
 10
-414.8132562945005
 20
387.5366610506501
 30
0.0
 11
-392.6838426223764
 21
409.6660747227742
 31
0.0
  0
LINE
  5
139
330
1F
100
AcDbEntity
  8
1-0_通り芯
  6
Continuous
 62
     4
370
    80
100
AcDbLine
 10
-417.8018401688806
 20
398.6902089816899
 30
0.0
 11
-406.8259744277964
 21
409.6660747227742
 31
0.0
  0
LINE
  5
13A
330
1F
100
AcDbEntity
  8
1-0_通り芯
  6
Continuous
 62
     4
370
    80
100
AcDbLine
 10
-3.242816737848528
 20
289.9903556121848
 30
0.0
 11
79.31017927991891
 21
372.5433516299523
 31
0.0
  0
LINE
  5
13B
330
1F
100
AcDbEntity
  8
1-0_通り芯
  6
Continuous
 62
     4
370
    80
100
AcDbLine
 10
-3.242816737848528
 20
275.8482238067649
 30
0.0
 11
74.13380012243155
 21
353.224840667045
 31
0.0
  0
LINE
  5
13C
330
1F
100
AcDbEntity
  8
1-0_通り芯
  6
Continuous
 62
     4
370
    80
100
AcDbLine
 10
9.717165983580607
 20
274.6660747227741
 30
0.0
 11
68.95742096494419
 21
333.9063297041377
 31
0.0
  0
LINE
  5
13D
330
1F
100
AcDbEntity
  8
1-0_通り芯
  6
Continuous
 62
     4
370
    80
100
AcDbLine
 10
23.85929778900053
 20
274.6660747227741
 30
0.0
 11
63.7810418074568
 21
314.5878187412304
 31
0.0
  0
LINE
  5
13E
330
1F
100
AcDbEntity
  8
1-0_通り芯
  6
Continuous
 62
     4
370
    80
100
AcDbLine
 10
38.00142959442045
 20
274.6660747227741
 30
0.0
 11
58.60466264996944
 21
295.2693077783231
 31
0.0
  0
LINE
  5
13F
330
1F
100
AcDbEntity
  8
1-0_通り芯
  6
Continuous
 62
     4
370
    80
100
AcDbLine
 10
52.14356139984037
 20
274.6660747227741
 30
0.0
 11
53.42828349248208
 21
275.9507968154159
 31
0.0
  0
LINE
  5
140
330
1F
100
AcDbEntity
  8
1-4_寸法
  6
Continuous
 62
     7
370
    80
100
AcDbLine
 10
-22.25894173784852
 20
419.8089318656313
 30
0.0
 11
-22.25894173784852
 21
540.3895251500087
 31
0.0
  0
LINE
  5
141
330
1F
100
AcDbEntity
  8
1-4_寸法
  6
Continuous
 62
     7
370
    80
100
AcDbLine
 10
-22.25894173784852
 20
530.3895251500087
 30
0.0
 11
-32.17339035158645
 21
529.0842632278084
 31
0.0
  0
LINE
  5
142
330
1F
100
AcDbEntity
  8
1-4_寸法
  6
Continuous
 62
     7
370
    80
100
AcDbLine
 10
-22.25894173784852
 20
530.3895251500087
 30
0.0
 11
-32.17339035158645
 21
531.6947870722096
 31
0.0
  0
LINE
  5
143
330
1F
100
AcDbEntity
  8
1-4_寸法
  6
Continuous
 62
     7
370
    80
100
AcDbLine
 10
-309.2266917378486
 20
419.8089318656313
 30
0.0
 11
-309.2266917378486
 21
540.3895251500087
 31
0.0
  0
LINE
  5
144
330
1F
100
AcDbEntity
  8
1-4_寸法
  6
Continuous
 62
     7
370
    80
100
AcDbLine
 10
-309.2266917378486
 20
530.3895251500087
 30
0.0
 11
-299.3122431241106
 21
531.694787072209
 31
0.0
  0
LINE
  5
145
330
1F
100
AcDbEntity
  8
1-4_寸法
  6
Continuous
 62
     7
370
    80
100
AcDbLine
 10
-309.2266917378486
 20
530.3895251500087
 30
0.0
 11
-299.3122431241106
 21
529.0842632278078
 31
0.0
  0
LINE
  5
146
330
1F
100
AcDbEntity
  8
1-4_寸法
  6
Continuous
 62
     7
370
    80
100
AcDbLine
 10
-309.2266917378486
 20
530.3895251500087
 30
0.0
 11
-22.25894173784852
 21
530.3895251500087
 31
0.0
  0
LINE
  5
147
330
1F
100
AcDbEntity
  8
1-4_寸法
  6
Continuous
 62
     7
370
    80
100
AcDbLine
 10
87.7410582621515
 20
419.8089318656313
 30
0.0
 11
87.7410582621515
 21
595.0755416968688
 31
0.0
  0
LINE
  5
148
330
1F
100
AcDbEntity
  8
1-4_寸法
  6
Continuous
 62
     7
370
    80
100
AcDbLine
 10
87.7410582621515
 20
585.0755416968688
 30
0.0
 11
77.82660964841357
 21
583.7702797746684
 31
0.0
  0
LINE
  5
149
330
1F
100
AcDbEntity
  8
1-4_寸法
  6
Continuous
 62
     7
370
    80
100
AcDbLine
 10
87.7410582621515
 20
585.0755416968688
 30
0.0
 11
77.82660964841357
 21
586.3808036190696
 31
0.0
  0
LINE
  5
14A
330
1F
100
AcDbEntity
  8
1-4_寸法
  6
Continuous
 62
     7
370
    80
100
AcDbLine
 10
-419.2266917378486
 20
419.6660747227741
 30
0.0
 11
-419.2266917378486
 21
595.0755416968688
 31
0.0
  0
LINE
  5
14B
330
1F
100
AcDbEntity
  8
1-4_寸法
  6
Continuous
 62
     7
370
    80
100
AcDbLine
 10
-419.2266917378486
 20
585.0755416968688
 30
0.0
 11
-409.3122431241106
 21
586.3808036190691
 31
0.0
  0
LINE
  5
14C
330
1F
100
AcDbEntity
  8
1-4_寸法
  6
Continuous
 62
     7
370
    80
100
AcDbLine
 10
-419.2266917378486
 20
585.0755416968688
 30
0.0
 11
-409.3122431241106
 21
583.7702797746679
 31
0.0
  0
LINE
  5
14D
330
1F
100
AcDbEntity
  8
1-4_寸法
  6
Continuous
 62
     7
370
    80
100
AcDbLine
 10
-419.2266917378486
 20
585.0755416968688
 30
0.0
 11
87.7410582621515
 21
585.0755416968688
 31
0.0
  0
LINE
  5
14E
330
1F
100
AcDbEntity
  8
1-4_寸法
  6
Continuous
 62
     7
370
    80
100
AcDbLine
 10
155.5071832621512
 20
417.2375032942028
 30
0.0
 11
155.5071832621512
 21
653.2944937290586
 31
0.0
  0
LINE
  5
14F
330
1F
100
AcDbEntity
  8
1-4_寸法
  6
Continuous
 62
     7
370
    80
100
AcDbLine
 10
155.5889787776723
 20
643.3164995603508
 30
0.0
 11
145.6745300196168
 21
642.0112387343536
 31
0.0
  0
LINE
  5
150
330
1F
100
AcDbEntity
  8
1-4_寸法
  6
Continuous
 62
     7
370
    80
100
AcDbLine
 10
155.5889787776723
 20
643.3164995603508
 30
0.0
 11
145.6745300196168
 21
644.6217603863479
 31
0.0
  0
LINE
  5
151
330
1F
100
AcDbEntity
  8
1-4_寸法
  6
Continuous
 62
     7
370
    80
100
AcDbLine
 10
-486.9928167378486
 20
417.2375032942028
 30
0.0
 11
-486.9928167378486
 21
653.2944937290586
 31
0.0
  0
LINE
  5
152
330
1F
100
AcDbEntity
  8
1-4_寸法
  6
Continuous
 62
     7
370
    80
100
AcDbLine
 10
-487.0435151687077
 20
643.2855371910814
 30
0.0
 11
-477.1290665549698
 21
644.5907991132817
 31
0.0
  0
LINE
  5
153
330
1F
100
AcDbEntity
  8
1-4_寸法
  6
Continuous
 62
     7
370
    80
100
AcDbLine
 10
-487.0435151687077
 20
643.2855371910814
 30
0.0
 11
-477.1290665549698
 21
641.9802752688805
 31
0.0
  0
LINE
  5
154
330
1F
100
AcDbEntity
  8
1-4_寸法
  6
Continuous
 62
     7
370
    80
100
AcDbLine
 10
-486.9928167378486
 20
643.2944937290586
 30
0.0
 11
155.5071832621512
 21
643.2944937290586
 31
0.0
  0
LINE
  5
155
330
1F
100
AcDbEntity
  8
1-4_寸法
  6
Continuous
 62
     7
370
    80
100
AcDbLine
 10
-385.4528167378485
 20
-27.36150660678749
 30
0.0
 11
-375.5383681241105
 21
-26.05624468458718
 31
0.0
  0
LINE
  5
156
330
1F
100
AcDbEntity
  8
1-4_寸法
  6
Continuous
 62
     7
370
    80
100
AcDbLine
 10
-385.4528167378485
 20
-27.36150660678749
 30
0.0
 11
-375.5383681241105
 21
-28.66676852898838
 31
0.0
  0
LINE
  5
157
330
1F
100
AcDbEntity
  8
1-4_寸法
  6
Continuous
 62
     7
370
    80
100
AcDbLine
 10
53.96718326215151
 20
-27.36150660678749
 30
0.0
 11
44.05273464841358
 21
-28.66676852898781
 31
0.0
  0
LINE
  5
158
330
1F
100
AcDbEntity
  8
1-4_寸法
  6
Continuous
 62
     7
370
    80
100
AcDbLine
 10
53.96718326215151
 20
-27.36150660678749
 30
0.0
 11
44.05273464841358
 21
-26.05624468458661
 31
0.0
  0
LINE
  5
159
330
1F
100
AcDbEntity
  8
1-4_寸法
  6
Continuous
 62
     7
370
    80
100
AcDbLine
 10
-385.4528167378485
 20
-27.36150660678753
 30
0.0
 11
53.96718326215151
 21
-27.36150660678753
 31
0.0
  0
TEXT
  5
15A
330
1F
100
AcDbEntity
  8
1-4_寸法
  6
Continuous
 62
     7
370
     9
100
AcDbText
 10
-173.2428167378485
 20
-19.89230903964446
 30
0.0
 40
22.86
  1
d
  7
ＭＳ ゴシック
100
AcDbText
  0
TEXT
  5
15B
330
1F
100
AcDbEntity
  8
1-4_寸法
  6
Continuous
 62
     7
370
     9
100
AcDbText
 10
-180.7428167378485
 20
534.6120510704757
 30
0.0
 40
22.86
  1
ｂ
  7
ＭＳ ゴシック
100
AcDbText
  0
TEXT
  5
15C
330
1F
100
AcDbEntity
  8
1-4_寸法
  6
Continuous
 62
     7
370
     9
100
AcDbText
 10
-180.7428167378485
 20
593.8705736274235
 30
0.0
 40
22.86
  1
ａ
  7
ＭＳ ゴシック
100
AcDbText
  0
TEXT
  5
15D
330
1F
100
AcDbEntity
  8
1-4_寸法
  6
Continuous
 62
     7
370
     9
100
AcDbText
 10
-173.2428167378485
 20
650.3828917169238
 30
0.0
 40
22.86
  1
A
  7
ＭＳ ゴシック
100
AcDbText
  0
TEXT
  5
15E
330
1F
100
AcDbEntity
  8
1-4_寸法
  6
Continuous
 62
     7
370
     9
100
AcDbText
 10
267.7333668944549
 20
267.4474128537508
 30
0.0
 40
22.86
  1
ｈ
 50
90.0
  7
ＭＳ ゴシック
100
AcDbText
  0
LINE
  5
15F
330
1F
100
AcDbEntity
  8
1-4_寸法
  6
Continuous
 62
     7
370
    80
100
AcDbLine
 10
276.4984800366741
 20
114.4264832436309
 30
0.0
 11
275.1932192106775
 21
124.3409320016869
 31
0.0
  0
LINE
  5
160
330
1F
100
AcDbEntity
  8
1-4_寸法
  6
Continuous
 62
     7
370
    80
100
AcDbLine
 10
276.4984800366741
 20
114.4264832436309
 30
0.0
 11
277.8037408626718
 21
124.3409320016869
 31
0.0
  0
LINE
  5
161
330
1F
100
AcDbEntity
  8
1-4_寸法
  6
Continuous
 62
     7
370
    80
100
AcDbLine
 10
83.23876796320599
 20
114.5232175799168
 30
0.0
 11
286.4063628944006
 21
114.5232175799168
 31
0.0
  0
LINE
  5
162
330
1F
100
AcDbEntity
  8
1-4_寸法
  6
Continuous
 62
     7
370
    80
100
AcDbLine
 10
276.4063628944006
 20
409.6660747227741
 30
0.0
 11
276.4063628944006
 21
114.5232175799168
 31
0.0
  0
LINE
  5
163
330
1F
100
AcDbEntity
  8
1-4_寸法
  6
Continuous
 62
     7
370
    80
100
AcDbLine
 10
276.4169381186613
 20
409.7374781178672
 30
0.0
 11
277.7222000408617
 21
399.8230295041287
 31
0.0
  0
LINE
  5
164
330
1F
100
AcDbEntity
  8
1-4_寸法
  6
Continuous
 62
     7
370
    80
100
AcDbLine
 10
276.4169381186613
 20
409.7374781178672
 30
0.0
 11
275.111676196461
 21
399.8230295041287
 31
0.0
  0
LINE
  5
165
330
1F
100
AcDbEntity
  8
1-4_寸法
  6
Continuous
 62
     7
370
    80
100
AcDbLine
 10
164.2528975478659
 20
409.6660747227741
 30
0.0
 11
286.4063628944006
 21
409.6660747227741
 31
0.0
  0
LINE
  5
166
330
1F
100
AcDbEntity
  8
1-4_寸法
  6
Continuous
 62
     7
370
    80
100
AcDbLine
 10
-81.64160923784856
 20
394.6660747227741
 30
0.0
 11
-82.94687006384575
 21
384.7516259647181
 31
0.0
  0
LINE
  5
167
330
1F
100
AcDbEntity
  8
1-4_寸法
  6
Continuous
 62
     7
370
    80
100
AcDbLine
 10
-81.64160923784856
 20
394.6660747227741
 30
0.0
 11
-80.33634841185136
 21
384.7516259647181
 31
0.0
  0
LINE
  5
168
330
1F
100
AcDbEntity
  8
1-4_寸法
  6
Continuous
 62
     7
370
    80
100
AcDbLine
 10
-81.64160923784856
 20
394.6660747227741
 30
0.0
 11
-81.64160923784856
 21
409.6660747227741
 31
0.0
  0
LINE
  5
169
330
1F
100
AcDbEntity
  8
1-4_寸法
  6
Continuous
 62
     7
370
    80
100
AcDbLine
 10
-81.64160923784856
 20
409.6660747227741
 30
0.0
 11
-82.94687006384575
 21
419.5805234808301
 31
0.0
  0
LINE
  5
16A
330
1F
100
AcDbEntity
  8
1-4_寸法
  6
Continuous
 62
     7
370
    80
100
AcDbLine
 10
-81.64160923784856
 20
474.0861415369105
 30
0.0
 11
-81.64160923784856
 21
409.6660747227741
 31
0.0
  0
LINE
  5
16B
330
1F
100
AcDbEntity
  8
1-4_寸法
  6
Continuous
 62
     7
370
    80
100
AcDbLine
 10
-81.64160923784856
 20
409.6660747227741
 30
0.0
 11
-80.33634841185136
 21
419.5805234808301
 31
0.0
  0
LINE
  5
16C
330
1F
100
AcDbEntity
  8
1-4_寸法
  6
Continuous
 62
     7
370
    80
100
AcDbLine
 10
-81.64160923784856
 20
367.25576624977
 30
0.0
 11
-81.64160923784856
 21
394.6660747227741
 31
0.0
  0
TEXT
  5
16D
330
1F
100
AcDbEntity
  8
1-4_寸法
  6
Continuous
 62
     7
370
     9
100
AcDbText
 10
-85.8641351498071
 20
437.3278167841759
 30
0.0
 40
22.86
  1
t1
 50
90.00000003
 41
1.083333333333333
  7
ＭＳ ゴシック
100
AcDbText
  0
LINE
  5
16E
330
1F
100
AcDbEntity
  8
1-2_蓋
  6
Continuous
 62
     3
370
    60
100
AcDbLine
 10
-419.7498205602683
 20
405.9601714713901
 30
0.0
 11
-384.5696767378486
 21
274.6660747227741
 31
0.0
  0
LINE
  5
16F
330
1F
100
AcDbEntity
  8
1-5_仕様文
  6
Continuous
 62
     7
370
     9
100
AcDbLine
 10
-270.8626874823431
 20
409.6660747227741
 30
0.0
 11
-280.1014828074559
 21
413.492909046425
 31
0.0
  0
LINE
  5
170
330
1F
100
AcDbEntity
  8
1-5_仕様文
  6
Continuous
 62
     7
370
     9
100
AcDbLine
 10
-270.8626874823431
 20
409.6660747227741
 30
0.0
 11
-278.7962208852554
 21
415.7536890128613
 31
0.0
  0
TEXT
  5
171
330
1F
100
AcDbEntity
  8
1-5_仕様文
  6
Continuous
 62
     7
370
     9
100
AcDbText
 10
-737.4366929165025
 20
483.6352657118475
 30
0.0
 40
22.86
  1
共栓
 41
1.083333333333333
  7
ＭＳ ゴシック
100
AcDbText
  0
LINE
  5
172
330
1F
100
AcDbEntity
  8
1-5_仕様文
  6
Continuous
 62
     7
370
     9
100
AcDbLine
 10
-528.1529622432823
 20
474.6957508359015
 30
0.0
 11
-759.4144290042503
 21
474.6957508359015
 31
0.0
  0
TEXT
  5
173
330
1F
100
AcDbEntity
  8
1-5_仕様文
  6
Continuous
 62
     7
370
     9
100
AcDbText
 10
-742.9311269384395
 20
443.6043892663071
 30
0.0
 40
22.86
  1
クロロプレン
 41
1.138888888888889
  7
ＭＳ ゴシック
100
AcDbText
  0
LINE
  5
174
330
1F
100
AcDbEntity
  8
1-5_仕様文
  6
Continuous
 62
     7
370
     9
100
AcDbLine
 10
-388.6963717801856
 20
409.6660747227741
 30
0.0
 11
-528.1529622432824
 21
474.6957508359015
 31
0.0
  0
LINE
  5
175
330
1F
100
AcDbEntity
  8
1-5_仕様文
  6
Continuous
 62
     7
370
     9
100
AcDbLine
 10
-562.4103213900127
 20
577.9911796409658
 30
0.0
 11
-749.1606123838087
 21
577.9911796409658
 31
0.0
  0
TEXT
  5
176
330
1F
100
AcDbEntity
  8
1-5_仕様文
  6
Continuous
 62
     7
370
     9
100
AcDbText
 10
-738.8108609205287
 20
585.7605448762125
 30
0.0
 40
22.86
  1
補助栓
 41
1.111111111111111
  7
ＭＳ ゴシック
100
AcDbText
  0
TEXT
  5
177
330
1F
100
AcDbEntity
  8
1-5_仕様文
  6
Continuous
 62
     7
370
     9
100
AcDbText
 10
-738.8108609205287
 20
546.5883809888214
 30
0.0
 40
22.86
  1
ＳＣＳ１３
 41
1.133333333333333
  7
ＭＳ ゴシック
100
AcDbText
  0
LINE
  5
178
330
1F
100
AcDbEntity
  8
1-5_仕様文
  6
Continuous
 62
     7
370
     9
100
AcDbLine
 10
-270.8626874823431
 20
409.6660747227741
 30
0.0
 11
-562.4103213900127
 21
577.9911796409658
 31
0.0
  0
LINE
  5
179
330
1F
100
AcDbEntity
  8
1-5_仕様文
  6
Continuous
 62
     7
370
     9
100
AcDbLine
 10
-422.4243818475371
 20
319.3491829561503
 30
0.0
 11
-615.5613260701192
 21
267.5982947230945
 31
0.0
  0
LINE
  5
17A
330
1F
100
AcDbEntity
  8
1-5_仕様文
  6
Continuous
 62
     7
370
     9
100
AcDbLine
 10
-422.4243818475371
 20
319.3491829561503
 30
0.0
 11
-432.3388304612752
 21
318.0439210339497
 31
0.0
  0
LINE
  5
17B
330
1F
100
AcDbEntity
  8
1-5_仕様文
  6
Continuous
 62
     7
370
     9
100
AcDbLine
 10
-422.4243818475371
 20
319.3491829561503
 30
0.0
 11
-431.66317717265
 21
315.5223486324994
 31
0.0
  0
LINE
  5
17C
330
1F
100
AcDbEntity
  8
1-5_仕様文
  6
Continuous
 62
     7
370
     9
100
AcDbLine
 10
-615.5613260701192
 20
267.5982947230945
 30
0.0
 11
-802.3116170639153
 21
267.5982947230945
 31
0.0
  0
TEXT
  5
17D
330
1F
100
AcDbEntity
  8
1-5_仕様文
  6
Continuous
 62
     7
370
     9
100
AcDbText
 10
-791.9618656006353
 20
236.1954960709501
 30
0.0
 40
22.86
  1
ＳＣＳ１３
 41
1.133333333333333
  7
ＭＳ ゴシック
100
AcDbText
  0
TEXT
  5
17E
330
1F
100
AcDbEntity
  8
1-5_仕様文
  6
Continuous
 62
     7
370
     9
100
AcDbText
 10
-791.9618656006353
 20
275.3676599583412
 30
0.0
 40
22.86
  1
金具枠
 41
1.111111111111111
  7
ＭＳ ゴシック
100
AcDbText
  0
LINE
  5
17F
330
1F
100
AcDbEntity
  8
1-5_仕様文
  6
Continuous
 62
     7
370
     9
100
AcDbLine
 10
-254.3301344807433
 20
249.6660747227741
 30
0.0
 11
-264.2445830944814
 21
248.3608128005736
 31
0.0
  0
LINE
  5
180
330
1F
100
AcDbEntity
  8
1-5_仕様文
  6
Continuous
 62
     7
370
     9
100
AcDbLine
 10
-254.3301344807433
 20
249.6660747227741
 30
0.0
 11
-263.5689298058561
 21
245.8392403991232
 31
0.0
  0
LINE
  5
181
330
1F
100
AcDbEntity
  8
1-5_仕様文
  6
Continuous
 62
     7
370
     9
100
AcDbLine
 10
-254.3301344807433
 20
249.6660747227741
 30
0.0
 11
-588.3035514364865
 21
160.1781673560199
 31
0.0
  0
LINE
  5
182
330
1F
100
AcDbEntity
  8
1-5_仕様文
  6
Continuous
 62
     7
370
     9
100
AcDbLine
 10
-588.3035514364865
 20
160.1781673560199
 30
0.0
 11
-775.0538424302828
 21
160.1781673560199
 31
0.0
  0
TEXT
  5
183
330
1F
100
AcDbEntity
  8
1-5_仕様文
  6
Continuous
 62
     7
370
     9
100
AcDbText
 10
-764.7040909670027
 20
167.9475325912665
 30
0.0
 40
22.86
  1
吊金具
 41
1.111111111111111
  7
ＭＳ ゴシック
100
AcDbText
  0
TEXT
  5
184
330
1F
100
AcDbEntity
  8
1-5_仕様文
  6
Continuous
 62
     7
370
     9
100
AcDbText
 10
-764.7040909670027
 20
128.7753687038755
 30
0.0
 40
22.86
  1
ＳＣＳ１３
 41
1.133333333333333
  7
ＭＳ ゴシック
100
AcDbText
  0
LINE
  5
185
330
1F
100
AcDbEntity
  8
1-4_寸法
  6
Continuous
 62
     7
370
    80
100
AcDbLine
 10
-385.4528167378485
 20
99.80893186563144
 30
0.0
 11
-385.4528167378485
 21
-37.36150660678753
 31
0.0
  0
LINE
  5
186
330
1F
100
AcDbEntity
  8
1-4_寸法
  6
Continuous
 62
     7
370
    80
100
AcDbLine
 10
53.96718326215151
 20
99.6660747227741
 30
0.0
 11
53.96718326215151
 21
-37.36150660678753
 31
0.0
  0
TEXT
  5
187
330
1F
100
AcDbEntity
  8
F-4ﾚｲﾔ
  6
Continuous
 62
     2
370
     9
100
AcDbText
 10
-190.5809640540048
 20
-1116.665978585364
 30
0.0
 40
30.48
  1
共栓　ステンレス製　キーハンドルタイプ
 41
1.118421052631579
  7
ＭＳ ゴシック
100
AcDbText
  0
TEXT
  5
188
330
1F
100
AcDbEntity
  8
F-5ﾚｲﾔ
  6
Continuous
 62
     2
370
     9
100
AcDbText
 10
79.41903594599523
 20
-1161.823977020394
 30
0.0
 40
30.48
  1
ＳＫＡ－ＫＲＳ
 41
1.107142857142857
  7
ＭＳ ゴシック
100
AcDbText
  0
LINE
  5
189
330
1F
100
AcDbEntity
  8
1-4_寸法
  6
Continuous
 62
     7
370
    80
100
AcDbLine
 10
66.01991609923788
 20
322.9434129856713
 30
0.0
 11
90.16806047578737
 21
316.4729367651601
 31
0.0
  0
LINE
  5
18A
330
1F
100
AcDbEntity
  8
1-4_寸法
  6
Continuous
 62
     7
370
    80
100
AcDbLine
 10
66.01991609923788
 20
322.9434129856713
 30
0.0
 11
56.10546765181113
 21
324.2486761711314
 31
0.0
  0
LINE
  5
18B
330
1F
100
AcDbEntity
  8
1-4_寸法
  6
Continuous
 62
     7
370
    80
100
AcDbLine
 10
66.01991609923788
 20
322.9434129856713
 30
0.0
 11
56.78112041548773
 21
326.770246443495
 31
0.0
  0
LINE
  5
18C
330
1F
100
AcDbEntity
  8
1-4_寸法
  6
Continuous
 62
     7
370
    80
100
AcDbLine
 10
90.16806047578734
 20
316.4729367651601
 30
0.0
 11
99.40685615953748
 21
312.6461033073363
 31
0.0
  0
LINE
  5
18D
330
1F
100
AcDbEntity
  8
1-4_寸法
  6
Continuous
 62
     7
370
    80
100
AcDbLine
 10
90.16806047578734
 20
316.4729367651601
 30
0.0
 11
100.0825089232141
 21
315.1676735796999
 31
0.0
  0
TEXT
  5
18E
330
1F
100
AcDbEntity
  8
1-4_寸法
  6
Continuous
 62
     7
370
     9
100
AcDbText
 10
129.118545978624
 20
311.4506793757814
 30
0.0
 40
22.86
  1
t2
 50
344.99999903
 41
1.083333333333333
  7
ＭＳ ゴシック
100
AcDbText
  0
LINE
  5
18F
330
1F
100
AcDbEntity
  8
1-4_寸法
  6
Continuous
 62
     7
370
    80
100
AcDbLine
 10
165.5432712894542
 20
296.27620853707
 30
0.0
 11
90.16806047578734
 21
316.4729367651601
 31
0.0
  0
LINE
  5
190
330
1F
100
AcDbEntity
  8
1-4_寸法
  6
Continuous
 62
     7
370
    80
100
AcDbLine
 10
39.53165069445723
 20
330.0409227881497
 30
0.0
 11
66.01991609923788
 21
322.9434129856713
 31
0.0
  0
LINE
  5
191
330
1F
100
AcDbEntity
  8
1-2_蓋
  6
Continuous
 62
     4
370
    80
100
AcDbLine
 10
-175.5743417378484
 20
1203.405133647838
 30
0.0
 11
-171.9946467378485
 21
1203.405133647838
 31
0.0
  0
LINE
  5
192
330
1F
100
AcDbEntity
  8
1-2_蓋
  6
Continuous
 62
     4
370
    80
100
AcDbLine
 10
-175.5754717378484
 20
1203.405133647838
 30
0.0
 11
-175.5754717378484
 21
1192.359218647838
 31
0.0
  0
LINE
  5
193
330
1F
100
AcDbEntity
  8
1-2_蓋
  6
Continuous
 62
     4
370
    80
100
AcDbLine
 10
-170.2508717378485
 20
1192.661028647838
 30
0.0
 11
-170.2508717378485
 21
1195.653473647838
 31
0.0
  0
LINE
  5
194
330
1F
100
AcDbEntity
  8
1-2_蓋
  6
Continuous
 62
     4
370
    80
100
AcDbLine
 10
-168.8439567378484
 20
1197.183298647838
 30
0.0
 11
-156.5876617378484
 21
1197.183298647838
 31
0.0
  0
LINE
  5
195
330
1F
100
AcDbEntity
  8
1-2_蓋
  6
Continuous
 62
     4
370
    80
100
AcDbLine
 10
-156.5876617378485
 20
1197.183298647838
 30
0.0
 11
-156.5876617378485
 21
1193.484413647838
 31
0.0
  0
LINE
  5
196
330
1F
100
AcDbEntity
  8
1-2_蓋
  6
Continuous
 62
     4
370
    80
100
AcDbLine
 10
-156.5876617378485
 20
1193.484413647838
 30
0.0
 11
-165.7428167378485
 21
1193.484413647838
 31
0.0
  0
LINE
  5
197
330
1F
100
AcDbEntity
  8
1-2_蓋
  6
Continuous
 62
     4
370
    80
100
AcDbLine
 10
-161.7354567378485
 20
1198.098638647838
 30
0.0
 11
-160.4657117378487
 21
1198.098638647838
 31
0.0
  0
LINE
  5
198
330
1F
100
AcDbEntity
  8
1-2_蓋
  6
Continuous
 62
     4
370
    80
100
AcDbLine
 10
-160.4657117378487
 20
1198.098638647838
 30
0.0
 11
-160.4657117378487
 21
1201.977368647837
 31
0.0
  0
LINE
  5
199
330
1F
100
AcDbEntity
  8
1-2_蓋
  6
Continuous
 62
     4
370
    80
100
AcDbLine
 10
-160.4657117378487
 20
1201.977368647838
 30
0.0
 11
-159.4822117378486
 21
1198.090888647838
 31
0.0
  0
LINE
  5
19A
330
1F
100
AcDbEntity
  8
1-2_蓋
  6
Continuous
 62
     4
370
    80
100
AcDbLine
 10
-159.4822117378486
 20
1198.090888647838
 30
0.0
 11
-158.8274967378485
 21
1198.090888647838
 31
0.0
  0
LINE
  5
19B
330
1F
100
AcDbEntity
  8
1-2_蓋
  6
Continuous
 62
     4
370
    80
100
AcDbLine
 10
-158.8274967378485
 20
1198.090888647838
 30
0.0
 11
-157.8727567378486
 21
1201.921873647837
 31
0.0
  0
LINE
  5
19C
330
1F
100
AcDbEntity
  8
1-2_蓋
  6
Continuous
 62
     4
370
    80
100
AcDbLine
 10
-157.8727567378486
 20
1201.921873647838
 30
0.0
 11
-157.8727567378486
 21
1198.098638647838
 31
0.0
  0
LINE
  5
19D
330
1F
100
AcDbEntity
  8
1-2_蓋
  6
Continuous
 62
     4
370
    80
100
AcDbLine
 10
-157.8727567378486
 20
1198.098638647838
 30
0.0
 11
-156.6030117378484
 21
1198.098638647838
 31
0.0
  0
LINE
  5
19E
330
1F
100
AcDbEntity
  8
1-2_蓋
  6
Continuous
 62
     4
370
    80
100
AcDbLine
 10
-156.6030117378484
 20
1198.098638647838
 30
0.0
 11
-156.6030117378484
 21
1203.415618647838
 31
0.0
  0
LINE
  5
19F
330
1F
100
AcDbEntity
  8
1-2_蓋
  6
Continuous
 62
     4
370
    80
100
AcDbLine
 10
-156.6030117378484
 20
1203.415618647838
 30
0.0
 11
-158.6219867378484
 21
1203.415618647838
 31
0.0
  0
LINE
  5
1A0
330
1F
100
AcDbEntity
  8
1-2_蓋
  6
Continuous
 62
     4
370
    80
100
AcDbLine
 10
-158.6219867378484
 20
1203.415618647838
 30
0.0
 11
-159.1521567378485
 21
1201.255543647838
 31
0.0
  0
LINE
  5
1A1
330
1F
100
AcDbEntity
  8
1-2_蓋
  6
Continuous
 62
     4
370
    80
100
AcDbLine
 10
-159.1575517378483
 20
1201.255543647838
 30
0.0
 11
-159.6877217378483
 21
1203.415618647837
 31
0.0
  0
LINE
  5
1A2
330
1F
100
AcDbEntity
  8
1-2_蓋
  6
Continuous
 62
     4
370
    80
100
AcDbLine
 10
-159.6877217378484
 20
1203.415618647838
 30
0.0
 11
-161.7354567378486
 21
1203.415618647837
 31
0.0
  0
LINE
  5
1A3
330
1F
100
AcDbEntity
  8
1-2_蓋
  6
Continuous
 62
     4
370
    80
100
AcDbLine
 10
-161.7354567378486
 20
1203.415618647838
 30
0.0
 11
-161.7354567378486
 21
1198.098638647838
 31
0.0
  0
LINE
  5
1A4
330
1F
100
AcDbEntity
  8
1-2_蓋
  6
Continuous
 62
     4
370
    80
100
AcDbLine
 10
-163.1522567378483
 20
1203.436143647838
 30
0.0
 11
-165.2305167378485
 21
1203.436143647838
 31
0.0
  0
LINE
  5
1A5
330
1F
100
AcDbEntity
  8
1-2_蓋
  6
Continuous
 62
     4
370
    80
100
AcDbLine
 10
-163.7533667378484
 20
1199.564883647838
 30
0.0
 11
-163.7533667378484
 21
1201.943688647837
 31
0.0
  0
LINE
  5
1A6
330
1F
100
AcDbEntity
  8
1-2_蓋
  6
Continuous
 62
     4
370
    80
100
AcDbLine
 10
-163.9131267378486
 20
1202.477658647838
 30
0.0
 11
-164.4492117378485
 21
1202.477658647838
 31
0.0
  0
LINE
  5
1A7
330
1F
100
AcDbEntity
  8
1-2_蓋
  6
Continuous
 62
     4
370
    80
100
AcDbLine
 10
-166.6118117378484
 20
1201.648213647838
 30
0.0
 11
-167.9679917378486
 21
1201.648213647838
 31
0.0
  0
LINE
  5
1A8
330
1F
100
AcDbEntity
  8
1-2_蓋
  6
Continuous
 62
     4
370
    80
100
AcDbLine
 10
-167.9696717378484
 20
1199.800638647838
 30
0.0
 11
-166.6050817378483
 21
1199.800638647838
 31
0.0
  0
LINE
  5
1A9
330
1F
100
AcDbEntity
  8
1-2_蓋
  6
Continuous
 62
     4
370
    80
100
AcDbLine
 10
-166.6050817378483
 20
1199.800638647838
 30
0.0
 11
-166.6050817378483
 21
1198.846038647838
 31
0.0
  0
LINE
  5
1AA
330
1F
100
AcDbEntity
  8
1-2_蓋
  6
Continuous
 62
     4
370
    80
100
AcDbLine
 10
-170.2076017378484
 20
1198.846038647838
 30
0.0
 11
-170.2076017378483
 21
1202.656323647837
 31
0.0
  0
LINE
  5
1AB
330
1F
100
AcDbEntity
  8
1-2_蓋
  6
Continuous
 62
     4
370
    80
100
AcDbLine
 10
-169.4467317378486
 20
1203.417193647838
 30
0.0
 11
-167.3659517378485
 21
1203.417193647838
 31
0.0
  0
ARC
  5
1AC
330
1F
100
AcDbEntity
  8
1-2_蓋
  6
Continuous
 62
     4
370
    80
100
AcDbCircle
 10
-169.4467317378486
 20
1202.656323647838
 30
0.0
 40
0.76087
100
AcDbArc
 50
89.9999999999784
 51
179.9999999999568
  0
LINE
  5
1AD
330
1F
100
AcDbEntity
  8
1-2_蓋
  6
Continuous
 62
     4
370
    80
100
AcDbLine
 10
-166.6050817378483
 20
1201.648213647838
 30
0.0
 11
-166.6050817378483
 21
1202.656323647838
 31
0.0
  0
ARC
  5
1AE
330
1F
100
AcDbEntity
  8
1-2_蓋
  6
Continuous
 62
     4
370
    80
100
AcDbCircle
 10
-167.3659517378486
 20
1202.656323647837
 30
0.0
 40
0.76087
100
AcDbArc
 50
0.0
 51
89.9999999999784
  0
LINE
  5
1AF
330
1F
100
AcDbEntity
  8
1-2_蓋
  6
Continuous
 62
     4
370
    80
100
AcDbLine
 10
-169.4467317378486
 20
1198.085168647838
 30
0.0
 11
-167.3659517378485
 21
1198.085168647838
 31
0.0
  0
ARC
  5
1B0
330
1F
100
AcDbEntity
  8
1-2_蓋
  6
Continuous
 62
     4
370
    80
100
AcDbCircle
 10
-169.4467317378486
 20
1198.846038647838
 30
0.0
 40
0.76087
100
AcDbArc
 50
179.9999999999568
 51
269.9999999999459
  0
ARC
  5
1B1
330
1F
100
AcDbEntity
  8
1-2_蓋
  6
Continuous
 62
     4
370
    80
100
AcDbCircle
 10
-167.3659517378486
 20
1198.846038647838
 30
0.0
 40
0.76087
100
AcDbArc
 50
269.9999999999459
 51
359.9999999999993
  0
LINE
  5
1B2
330
1F
100
AcDbEntity
  8
1-2_蓋
  6
Continuous
 62
     4
370
    80
100
AcDbLine
 10
-165.9913867378485
 20
1202.675273647838
 30
0.0
 11
-165.9913867378485
 21
1198.863253647837
 31
0.0
  0
LINE
  5
1B3
330
1F
100
AcDbEntity
  8
1-2_蓋
  6
Continuous
 62
     4
370
    80
100
AcDbLine
 10
-165.2305167378486
 20
1198.102383647838
 30
0.0
 11
-163.1522567378485
 21
1198.102383647838
 31
0.0
  0
LINE
  5
1B4
330
1F
100
AcDbEntity
  8
1-2_蓋
  6
Continuous
 62
     4
370
    80
100
AcDbLine
 10
-162.3913867378486
 20
1198.863253647838
 30
0.0
 11
-162.3913867378486
 21
1202.675273647838
 31
0.0
  0
ARC
  5
1B5
330
1F
100
AcDbEntity
  8
1-2_蓋
  6
Continuous
 62
     4
370
    80
100
AcDbCircle
 10
-165.2305167378485
 20
1202.675273647838
 30
0.0
 40
0.76087
100
AcDbArc
 50
89.9999999999784
 51
179.9999999999568
  0
ARC
  5
1B6
330
1F
100
AcDbEntity
  8
1-2_蓋
  6
Continuous
 62
     4
370
    80
100
AcDbCircle
 10
-163.1522567378484
 20
1202.675273647838
 30
0.0
 40
0.76087
100
AcDbArc
 50
0.0
 51
89.9999999999784
  0
ARC
  5
1B7
330
1F
100
AcDbEntity
  8
1-2_蓋
  6
Continuous
 62
     4
370
    80
100
AcDbCircle
 10
-165.2305167378485
 20
1198.863253647838
 30
0.0
 40
0.76087
100
AcDbArc
 50
179.9999999999568
 51
269.9999999999459
  0
ARC
  5
1B8
330
1F
100
AcDbEntity
  8
1-2_蓋
  6
Continuous
 62
     4
370
    80
100
AcDbCircle
 10
-163.1522567378484
 20
1198.863253647838
 30
0.0
 40
0.76087
100
AcDbArc
 50
269.9999999999459
 51
359.9999999999993
  0
ARC
  5
1B9
330
1F
100
AcDbEntity
  8
1-2_蓋
  6
Continuous
 62
     4
370
    80
100
AcDbCircle
 10
-165.4412317378485
 20
1201.952673647838
 30
0.0
 40
1.68789
100
AcDbArc
 50
359.6950099999328
 51
8.731643000000101
  0
ARC
  5
1BA
330
1F
100
AcDbEntity
  8
1-2_蓋
  6
Continuous
 62
     4
370
    80
100
AcDbCircle
 10
-164.3516017378484
 20
1202.130053647838
 30
0.0
 40
0.5840449999999999
100
AcDbArc
 50
7.75908100000419
 51
29.98554399998307
  0
ARC
  5
1BB
330
1F
100
AcDbEntity
  8
1-2_蓋
  6
Continuous
 62
     4
370
    80
100
AcDbCircle
 10
-163.9835967378486
 20
1202.323783647837
 30
0.0
 40
0.16924
100
AcDbArc
 50
35.4526070000245
 51
65.39268700001985
  0
ARC
  5
1BC
330
1F
100
AcDbEntity
  8
1-2_蓋
  6
Continuous
 62
     4
370
    80
100
AcDbCircle
 10
-162.9211017378485
 20
1201.952673647838
 30
0.0
 40
1.68789
100
AcDbArc
 50
171.2683569999694
 51
180.4674139999642
  0
ARC
  5
1BD
330
1F
100
AcDbEntity
  8
1-2_蓋
  6
Continuous
 62
     4
370
    80
100
AcDbCircle
 10
-164.0107317378484
 20
1202.130053647838
 30
0.0
 40
0.5840449999999999
100
AcDbArc
 50
150.0144559999613
 51
172.2409189999678
  0
ARC
  5
1BE
330
1F
100
AcDbEntity
  8
1-2_蓋
  6
Continuous
 62
     4
370
    80
100
AcDbCircle
 10
-164.3787417378486
 20
1202.323783647837
 30
0.0
 40
0.16924
100
AcDbArc
 50
114.6073129999798
 51
144.5473929999472
  0
LINE
  5
1BF
330
1F
100
AcDbEntity
  8
1-2_蓋
  6
Continuous
 62
     4
370
    80
100
AcDbLine
 10
-164.6089367378483
 20
1201.938903647838
 30
0.0
 11
-164.6089367378484
 21
1199.564883647838
 31
0.0
  0
LINE
  5
1C0
330
1F
100
AcDbEntity
  8
1-2_蓋
  6
Continuous
 62
     4
370
    80
100
AcDbLine
 10
-164.3029067378486
 20
1199.061488647838
 30
0.0
 11
-164.0593967378486
 21
1199.061488647838
 31
0.0
  0
ARC
  5
1C1
330
1F
100
AcDbEntity
  8
1-2_蓋
  6
Continuous
 62
     4
370
    80
100
AcDbCircle
 10
-163.1602317378487
 20
1199.592143647838
 30
0.0
 40
1.448955
100
AcDbArc
 50
181.0778869999689
 51
195.1584829999579
  0
ARC
  5
1C2
330
1F
100
AcDbEntity
  8
1-2_蓋
  6
Continuous
 62
     4
370
    80
100
AcDbCircle
 10
-164.2582767378486
 20
1199.294198647838
 30
0.0
 40
0.31121
100
AcDbArc
 50
195.0758669999515
 51
219.3321559999692
  0
ARC
  5
1C3
330
1F
100
AcDbEntity
  8
1-2_蓋
  6
Continuous
 62
     4
370
    80
100
AcDbCircle
 10
-164.4289817378485
 20
1199.172018647838
 30
0.0
 40
0.102655
100
AcDbArc
 50
226.9961459999735
 51
264.8891549999113
  0
ARC
  5
1C4
330
1F
100
AcDbEntity
  8
1-2_蓋
  6
Continuous
 62
     4
370
    80
100
AcDbCircle
 10
-164.3019067378486
 20
1200.184783647838
 30
0.0
 40
1.1233
100
AcDbArc
 50
263.0348649999492
 51
269.949003999946
  0
ARC
  5
1C5
330
1F
100
AcDbEntity
  8
1-2_蓋
  6
Continuous
 62
     4
370
    80
100
AcDbCircle
 10
-165.2020717378487
 20
1199.592143647838
 30
0.0
 40
1.448955
100
AcDbArc
 50
344.8415169999374
 51
358.9221129999287
  0
ARC
  5
1C6
330
1F
100
AcDbEntity
  8
1-2_蓋
  6
Continuous
 62
     4
370
    80
100
AcDbCircle
 10
-164.1040267378487
 20
1199.294198647838
 30
0.0
 40
0.31121
100
AcDbArc
 50
320.6678439999559
 51
344.9241329999394
  0
ARC
  5
1C7
330
1F
100
AcDbEntity
  8
1-2_蓋
  6
Continuous
 62
     4
370
    80
100
AcDbCircle
 10
-163.9333217378486
 20
1199.172018647838
 30
0.0
 40
0.102655
100
AcDbArc
 50
275.1108449999296
 51
313.0038539999674
  0
ARC
  5
1C8
330
1F
100
AcDbEntity
  8
1-2_蓋
  6
Continuous
 62
     4
370
    80
100
AcDbCircle
 10
-164.0603967378486
 20
1200.184783647838
 30
0.0
 40
1.1233
100
AcDbArc
 50
270.0509959999514
 51
276.9651349999472
  0
ARC
  5
1C9
330
1F
100
AcDbEntity
  8
1-2_蓋
  6
Continuous
 62
     4
370
    80
100
AcDbCircle
 10
-169.6575367378484
 20
1201.932838647838
 30
0.0
 40
1.68789
100
AcDbArc
 50
359.6950099999328
 51
8.731643000000101
  0
ARC
  5
1CA
330
1F
100
AcDbEntity
  8
1-2_蓋
  6
Continuous
 62
     4
370
    80
100
AcDbCircle
 10
-168.5679067378486
 20
1202.110218647838
 30
0.0
 40
0.5840449999999999
100
AcDbArc
 50
7.75908100000419
 51
29.98554399998307
  0
ARC
  5
1CB
330
1F
100
AcDbEntity
  8
1-2_蓋
  6
Continuous
 62
     4
370
    80
100
AcDbCircle
 10
-168.1999017378486
 20
1202.303948647838
 30
0.0
 40
0.16924
100
AcDbArc
 50
35.4526070000245
 51
65.39268700001985
  0
ARC
  5
1CC
330
1F
100
AcDbEntity
  8
1-2_蓋
  6
Continuous
 62
     4
370
    80
100
AcDbCircle
 10
-168.2270367378486
 20
1202.110218647838
 30
0.0
 40
0.5840449999999999
100
AcDbArc
 50
150.0144559999613
 51
172.2409189999678
  0
ARC
  5
1CD
330
1F
100
AcDbEntity
  8
1-2_蓋
  6
Continuous
 62
     4
370
    80
100
AcDbCircle
 10
-168.5950467378485
 20
1202.303948647838
 30
0.0
 40
0.16924
100
AcDbArc
 50
114.6073129999798
 51
144.5473929999472
  0
ARC
  5
1CE
330
1F
100
AcDbEntity
  8
1-2_蓋
  6
Continuous
 62
     4
370
    80
100
AcDbCircle
 10
-167.1374067378486
 20
1201.932838647838
 30
0.0
 40
1.68789
100
AcDbArc
 50
171.2683569999694
 51
180.4674139999642
  0
LINE
  5
1CF
330
1F
100
AcDbEntity
  8
1-2_蓋
  6
Continuous
 62
     4
370
    80
100
AcDbLine
 10
-168.1294267378487
 20
1202.457818647837
 30
0.0
 11
-168.6655167378486
 21
1202.457818647837
 31
0.0
  0
LINE
  5
1D0
330
1F
100
AcDbEntity
  8
1-2_蓋
  6
Continuous
 62
     4
370
    80
100
AcDbLine
 10
-167.9696717378484
 20
1201.923853647838
 30
0.0
 11
-167.9696717378484
 21
1201.648213647838
 31
0.0
  0
LINE
  5
1D1
330
1F
100
AcDbEntity
  8
1-2_蓋
  6
Continuous
 62
     4
370
    80
100
AcDbLine
 10
-168.8252417378486
 20
1201.919068647838
 30
0.0
 11
-168.8252417378486
 21
1199.545863647838
 31
0.0
  0
ARC
  5
1D2
330
1F
100
AcDbEntity
  8
1-2_蓋
  6
Continuous
 62
     4
370
    80
100
AcDbCircle
 10
-167.3765367378487
 20
1199.573118647838
 30
0.0
 40
1.448955
100
AcDbArc
 50
181.0778869999689
 51
195.1584829999579
  0
ARC
  5
1D3
330
1F
100
AcDbEntity
  8
1-2_蓋
  6
Continuous
 62
     4
370
    80
100
AcDbCircle
 10
-168.4745817378486
 20
1199.275178647838
 30
0.0
 40
0.31121
100
AcDbArc
 50
195.0758669999515
 51
219.3321559999692
  0
ARC
  5
1D4
330
1F
100
AcDbEntity
  8
1-2_蓋
  6
Continuous
 62
     4
370
    80
100
AcDbCircle
 10
-168.6452817378484
 20
1199.152998647838
 30
0.0
 40
0.102655
100
AcDbArc
 50
226.9961459999735
 51
264.8891549999113
  0
ARC
  5
1D5
330
1F
100
AcDbEntity
  8
1-2_蓋
  6
Continuous
 62
     4
370
    80
100
AcDbCircle
 10
-168.5182117378487
 20
1200.165763647837
 30
0.0
 40
1.1233
100
AcDbArc
 50
263.0348649999492
 51
269.949003999946
  0
ARC
  5
1D6
330
1F
100
AcDbEntity
  8
1-2_蓋
  6
Continuous
 62
     4
370
    80
100
AcDbCircle
 10
-169.4183717378487
 20
1199.573118647838
 30
0.0
 40
1.448955
100
AcDbArc
 50
344.8415169999374
 51
358.9221129999287
  0
ARC
  5
1D7
330
1F
100
AcDbEntity
  8
1-2_蓋
  6
Continuous
 62
     4
370
    80
100
AcDbCircle
 10
-168.3203317378486
 20
1199.275178647838
 30
0.0
 40
0.31121
100
AcDbArc
 50
320.6678439999559
 51
344.9241329999394
  0
ARC
  5
1D8
330
1F
100
AcDbEntity
  8
1-2_蓋
  6
Continuous
 62
     4
370
    80
100
AcDbCircle
 10
-168.1496267378485
 20
1199.152998647838
 30
0.0
 40
0.102655
100
AcDbArc
 50
275.1108449999296
 51
313.0038539999674
  0
ARC
  5
1D9
330
1F
100
AcDbEntity
  8
1-2_蓋
  6
Continuous
 62
     4
370
    80
100
AcDbCircle
 10
-168.2767017378485
 20
1200.165763647837
 30
0.0
 40
1.1233
100
AcDbArc
 50
270.0509959999514
 51
276.9651349999472
  0
LINE
  5
1DA
330
1F
100
AcDbEntity
  8
1-2_蓋
  6
Continuous
 62
     4
370
    80
100
AcDbLine
 10
-168.5192117378485
 20
1199.042463647838
 30
0.0
 11
-168.2757017378485
 21
1199.042463647838
 31
0.0
  0
LINE
  5
1DB
330
1F
100
AcDbEntity
  8
1-2_蓋
  6
Continuous
 62
     4
370
    80
100
AcDbLine
 10
-167.9696717378484
 20
1199.545863647838
 30
0.0
 11
-167.9696717378484
 21
1199.800638647837
 31
0.0
  0
ARC
  5
1DC
330
1F
100
AcDbEntity
  8
1-2_蓋
  6
Continuous
 62
     4
370
    80
100
AcDbCircle
 10
-168.6166717378485
 20
1195.562418647838
 30
0.0
 40
1.63674
100
AcDbArc
 50
97.9821249999818
 51
176.8109459999621
  0
ARC
  5
1DD
330
1F
100
AcDbEntity
  8
1-2_蓋
  6
Continuous
 62
     4
370
    80
100
AcDbCircle
 10
-171.1219567378485
 20
1192.718698647838
 30
0.0
 40
0.87299
100
AcDbArc
 50
178.5022219999605
 51
356.2122729999249
  0
LINE
  5
1DE
330
1F
100
AcDbEntity
  8
1-2_蓋
  6
Continuous
 62
     4
370
    80
100
AcDbLine
 10
-171.9946467378485
 20
1192.741513647838
 30
0.0
 11
-171.9946467378485
 21
1203.405133647838
 31
0.0
  0
ARC
  5
1DF
330
1F
100
AcDbEntity
  8
1-2_蓋
  6
Continuous
 62
     4
370
    80
100
AcDbCircle
 10
-165.7406767378485
 20
1192.309113647838
 30
0.0
 40
1.1753
100
AcDbArc
 50
90.10421699998497
 51
124.9001369999793
  0
ARC
  5
1E0
330
1F
100
AcDbEntity
  8
1-2_蓋
  6
Continuous
 62
     4
370
    80
100
AcDbCircle
 10
-165.8323317378485
 20
1192.592243647838
 30
0.0
 40
0.894875
100
AcDbArc
 50
130.4678159999683
 51
181.5790089999729
  0
ARC
  5
1E1
330
1F
100
AcDbEntity
  8
1-2_蓋
  6
Continuous
 62
     4
370
    80
100
AcDbCircle
 10
-171.1138317378486
 20
1192.502263647837
 30
0.0
 40
4.38745
100
AcDbArc
 50
278.3281729999471
 51
0.8530259999996986
  0
ARC
  5
1E2
330
1F
100
AcDbEntity
  8
1-2_蓋
  6
Continuous
 62
     4
370
    80
100
AcDbCircle
 10
-171.1586767378485
 20
1192.528443647838
 30
0.0
 40
4.420035
100
AcDbArc
 50
182.1941559999667
 51
278.8542269999467
  0
ELLIPSE
  5
1E3
330
1F
100
AcDbEntity
  8
1-2_蓋
  6
Continuous
 62
     4
370
    80
100
AcDbEllipse
 10
-166.2374567378485
 20
1193.752798647838
 30
0.0
 11
-11.64401725756448
 21
-4.238075689035556
 31
0.0
210
0.0
220
0.0
230
1.0
 40
0.5438600000000059
 41
5.602576987789436
 42
9.632473847123213
  0
ELLIPSE
  5
1E4
330
1F
100
AcDbEntity
  8
1-2_蓋
  6
Continuous
 62
     4
370
    80
100
AcDbEllipse
 10
-166.2374567378485
 20
1193.752798647838
 30
0.0
 11
-12.25686027112048
 21
-4.461132304247713
 31
0.0
210
0.0
220
0.0
230
1.0
 40
0.5666669999999989
 41
5.584595628390926
 42
9.644795789492466
  0
ARC
  5
1E5
330
1F
100
AcDbEntity
  8
1-2_蓋
  6
Continuous
 62
     4
370
    80
100
AcDbCircle
 10
-176.9842217378483
 20
1194.636618647838
 30
0.0
 40
0.313045
100
AcDbArc
 50
322.017939999925
 51
147.7553339999777
  0
ARC
  5
1E6
330
1F
100
AcDbEntity
  8
1-2_蓋
  6
Continuous
 62
     4
370
    80
100
AcDbCircle
 10
-155.0880167378484
 20
1199.431193647838
 30
0.0
 40
0.322825
100
AcDbArc
 50
36.28353599998898
 51
224.3227759999773
  0
TEXT
  5
1E7
330
1F
100
AcDbEntity
  8
0-F
  6
Continuous
 62
     7
370
     9
100
AcDbText
 10
-842.8228671335431
 20
-571.1251012758347
 30
0.0
 40
22.86
  1
80
 41
1.083333333333333
  7
ＭＳ ゴシック
100
AcDbText
  0
TEXT
  5
1E8
330
1F
100
AcDbEntity
  8
0-F
  6
Continuous
 62
     7
370
     9
100
AcDbText
 10
-842.8228671335431
 20
-521.0690052081602
 30
0.0
 40
22.86
  1
65
 41
1.083333333333333
  7
ＭＳ ゴシック
100
AcDbText
  0
TEXT
  5
1E9
330
1F
100
AcDbEntity
  8
0-F
  6
Continuous
 62
     7
370
     9
100
AcDbText
 10
-842.8228671335431
 20
-466.5224193192615
 30
0.0
 40
22.86
  1
50
 41
1.083333333333333
  7
ＭＳ ゴシック
100
AcDbText
  0
TEXT
  5
1EA
330
1F
100
AcDbEntity
  8
0-F
  6
Continuous
 62
     7
370
     9
100
AcDbText
 10
-676.880065477897
 20
-471.0096731463516
 30
0.0
 40
22.86
  1
85
 41
1.083333333333333
  7
ＭＳ ゴシック
100
AcDbText
  0
TEXT
  5
1EB
330
1F
100
AcDbEntity
  8
0-F
  6
Continuous
 62
     7
370
     9
100
AcDbText
 10
-502.3908587595384
 20
-518.9686948759589
 30
0.0
 40
22.86
  1
87
 41
1.083333333333333
  7
ＭＳ ゴシック
100
AcDbText
  0
TEXT
  5
1EC
330
1F
100
AcDbEntity
  8
0-F
  6
Continuous
 62
     7
370
     9
100
AcDbText
 10
-502.3908587595384
 20
-469.9892684287004
 30
0.0
 40
22.86
  1
67
 41
1.083333333333333
  7
ＭＳ ゴシック
100
AcDbText
  0
TEXT
  5
1ED
330
1F
100
AcDbEntity
  8
0-F
  6
Continuous
 62
     7
370
     9
100
AcDbText
 10
437.8691272157523
 20
-570.9195930417196
 30
0.0
 40
22.86
  1
5
  7
ＭＳ ゴシック
100
AcDbText
  0
TEXT
  5
1EE
330
1F
100
AcDbEntity
  8
0-F
  6
Continuous
 62
     7
370
     9
100
AcDbText
 10
437.8691272157523
 20
-624.3728460360744
 30
0.0
 40
22.86
  1
5
  7
ＭＳ ゴシック
100
AcDbText
  0
TEXT
  5
1EF
330
1F
100
AcDbEntity
  8
0-F
  6
Continuous
 62
     7
370
     9
100
AcDbText
 10
283.9156602581521
 20
-410.8057948049296
 30
0.0
 40
22.86
  1
t1
 41
1.083333333333333
  7
ＭＳ ゴシック
100
AcDbText
  0
TEXT
  5
1F0
330
1F
100
AcDbEntity
  8
0-F
  6
Continuous
 62
     7
370
     9
100
AcDbText
 10
443.4206793843764
 20
-410.8057948049296
 30
0.0
 40
22.86
  1
t2
 41
1.083333333333333
  7
ＭＳ ゴシック
100
AcDbText
  0
ENDSEC
  0
SECTION
  2
OBJECTS
  0
DICTIONARY
  5
C
330
0
100
AcDbDictionary
281
     1
  3
ACAD_GROUP
350
D
  3
ACAD_LAYOUT
350
1A
  3
ACAD_MLEADERSTYLE
350
1F2
  3
ACAD_MLINESTYLE
350
17
  3
ACAD_PLOTSETTINGS
350
19
  3
ACAD_PLOTSTYLENAME
350
E
  3
ACAD_TABLESTYLE
350
1F1
  3
ACAD_VISUALSTYLE
350
2A
  0
DICTIONARY
  5
D
102
{ACAD_REACTORS
330
C
102
}
330
C
100
AcDbDictionary
281
     1
  0
DICTIONARY
  5
1A
102
{ACAD_REACTORS
330
C
102
}
330
C
100
AcDbDictionary
281
     1
  3
Layout1
350
1E
  3
Layout2
350
26
  3
Model
350
22
  0
DICTIONARY
  5
1F2
102
{ACAD_REACTORS
330
C
102
}
330
C
100
AcDbDictionary
281
     1
  0
DICTIONARY
  5
17
102
{ACAD_REACTORS
330
C
102
}
330
C
100
AcDbDictionary
281
     1
  3
Standard
350
18
  0
DICTIONARY
  5
19
102
{ACAD_REACTORS
330
C
102
}
330
C
100
AcDbDictionary
281
     1
  0
ACDBDICTIONARYWDFLT
  5
E
102
{ACAD_REACTORS
330
C
102
}
330
C
100
AcDbDictionary
281
     1
  3
Normal
350
F
100
AcDbDictionaryWithDefault
340
F
  0
DICTIONARY
  5
1F1
102
{ACAD_REACTORS
330
C
102
}
330
C
100
AcDbDictionary
281
     1
  0
DICTIONARY
  5
2A
102
{ACAD_REACTORS
330
C
102
}
330
C
100
AcDbDictionary
281
     1
  3
2dWireframe
350
2F
  3
3D Hidden
350
31
  3
3dWireframe
350
30
  3
Basic
350
32
  3
Brighten
350
36
  3
ColorChange
350
3A
  3
Conceptual
350
34
  3
Dim
350
35
  3
Facepattern
350
39
  3
Flat
350
2B
  3
FlatWithEdges
350
2C
  3
Gouraud
350
2D
  3
GouraudWithEdges
350
2E
  3
Linepattern
350
38
  3
Realistic
350
33
  3
Thicken
350
37
  0
LAYOUT
  5
1E
102
{ACAD_REACTORS
330
1A
102
}
330
1A
100
AcDbPlotSettings
  1

  2
none_device
  4

  6

 40
0.0
 41
0.0
 42
0.0
 43
0.0
 44
0.0
 45
0.0
 46
0.0
 47
0.0
 48
0.0
 49
0.0
140
0.0
141
0.0
142
1.0
143
1.0
 70
   688
 72
     0
 73
     0
 74
     5
  7

 75
    16
 76
     0
 77
     5
 78
   300
147
1.0
148
0.0
149
0.0
100
AcDbLayout
  1
Layout1
 70
     1
 71
     1
 10
0.0
 20
0.0
 11
420.0
 21
297.0
 12
0.0
 22
0.0
 32
0.0
 14
1.000000000000000E+20
 24
1.000000000000000E+20
 34
1.000000000000000E+20
 15
-1.000000000000000E+20
 25
-1.000000000000000E+20
 35
-1.000000000000000E+20
146
0.0
 13
0.0
 23
0.0
 33
0.0
 16
1.0
 26
0.0
 36
0.0
 17
0.0
 27
1.0
 37
0.0
 76
     0
330
1B
  0
LAYOUT
  5
26
102
{ACAD_REACTORS
330
1A
102
}
330
1A
100
AcDbPlotSettings
  1

  2
none_device
  4

  6

 40
0.0
 41
0.0
 42
0.0
 43
0.0
 44
0.0
 45
0.0
 46
0.0
 47
0.0
 48
0.0
 49
0.0
140
0.0
141
0.0
142
1.0
143
1.0
 70
   688
 72
     0
 73
     0
 74
     5
  7

 75
    16
 76
     0
 77
     5
 78
   300
147
1.0
148
0.0
149
0.0
100
AcDbLayout
  1
Layout2
 70
     1
 71
     2
 10
0.0
 20
0.0
 11
0.0
 21
0.0
 12
0.0
 22
0.0
 32
0.0
 14
0.0
 24
0.0
 34
0.0
 15
0.0
 25
0.0
 35
0.0
146
0.0
 13
0.0
 23
0.0
 33
0.0
 16
1.0
 26
0.0
 36
0.0
 17
0.0
 27
1.0
 37
0.0
 76
     0
330
23
  0
LAYOUT
  5
22
102
{ACAD_REACTORS
330
1A
102
}
330
1A
100
AcDbPlotSettings
  1

  2
none_device
  4

  6

 40
0.0
 41
0.0
 42
0.0
 43
0.0
 44
0.0
 45
0.0
 46
0.0
 47
0.0
 48
0.0
 49
0.0
140
0.0
141
0.0
142
1.0
143
1.0
 70
  1712
 72
     0
 73
     0
 74
     0
  7

 75
     0
 76
     0
 77
     5
 78
   300
147
1.0
148
0.0
149
0.0
100
AcDbLayout
  1
Model
 70
     1
 71
     0
 10
-2100.0
 20
-1485.0
 11
2100.0
 21
1485.0
 12
0.0
 22
0.0
 32
0.0
 14
-2100.0
 24
-1485.0
 34
0.0
 15
2100.0
 25
1485.0
 35
0.0
146
0.0
 13
0.0
 23
0.0
 33
0.0
 16
1.0
 26
0.0
 36
0.0
 17
0.0
 27
1.0
 37
0.0
 76
     0
330
1F
331
29
  0
MLINESTYLE
  5
18
102
{ACAD_REACTORS
330
17
102
}
330
17
100
AcDbMlineStyle
  2
Standard
 70
     0
  3

 62
   256
 51
90.0
 52
90.0
 71
     2
 49
0.5
 62
   256
  6
BYLAYER
 49
-0.5
 62
   256
  6
BYLAYER
  0
ACDBPLACEHOLDER
  5
F
102
{ACAD_REACTORS
330
E
102
}
330
E
  0
VISUALSTYLE
  5
2F
102
{ACAD_REACTORS
330
2A
102
}
330
2A
100
AcDbVisualStyle
  2
2dWireframe
 70
     4
 71
     0
 72
     2
 73
     0
 90
        0
 40
-0.6
 41
-30.0
 62
     5
 63
     7
421
 16777215
 74
     1
 91
        4
 64
     7
 65
   257
 75
     1
175
     1
 42
1.0
 92
        0
 66
   257
 43
1.0
 76
     1
 77
     6
 78
     2
 67
     7
 79
     5
170
     0
171
     0
290
     0
174
     0
 93
        1
 44
0.0
173
     0
291
     0
 45
0.0
1001
ACAD
1000
AcDbSavedByObjectVersion
1070
     0
  0
VISUALSTYLE
  5
31
102
{ACAD_REACTORS
330
2A
102
}
330
2A
100
AcDbVisualStyle
  2
3D Hidden
 70
     6
 71
     1
 72
     2
 73
     2
 90
        0
 40
-0.6
 41
-30.0
 62
     5
 63
     7
421
 16777215
 74
     2
 91
        2
 64
     7
 65
   257
 75
     2
175
     1
 42
40.0
 92
        0
 66
   257
 43
1.0
 76
     1
 77
     6
 78
     2
 67
     7
 79
     3
170
     0
171
     0
290
     0
174
     0
 93
        1
 44
0.0
173
     0
291
     0
 45
0.0
1001
ACAD
1000
AcDbSavedByObjectVersion
1070
     0
  0
VISUALSTYLE
  5
30
102
{ACAD_REACTORS
330
2A
102
}
330
2A
100
AcDbVisualStyle
  2
3dWireframe
 70
     5
 71
     0
 72
     2
 73
     0
 90
        0
 40
-0.6
 41
-30.0
 62
     5
 63
     7
421
 16777215
 74
     1
 91
        4
 64
     7
 65
   257
 75
     1
175
     1
 42
1.0
 92
        0
 66
   257
 43
1.0
 76
     1
 77
     6
 78
     2
 67
     7
 79
     5
170
     0
171
     0
290
     0
174
     0
 93
        1
 44
0.0
173
     0
291
     0
 45
0.0
1001
ACAD
1000
AcDbSavedByObjectVersion
1070
     0
  0
VISUALSTYLE
  5
32
102
{ACAD_REACTORS
330
2A
102
}
330
2A
100
AcDbVisualStyle
  2
Basic
 70
     7
 71
     1
 72
     0
 73
     1
 90
        0
 40
-0.6
 41
-30.0
 62
     5
 63
     7
421
 16777215
 74
     0
 91
        4
 64
     7
 65
   257
 75
     1
175
     1
 42
1.0
 92
        8
 66
     7
 43
1.0
 76
     1
 77
     6
 78
     2
 67
     7
 79
     5
170
     0
171
     0
290
     0
174
     0
 93
        1
 44
0.0
173
     0
291
     1
 45
0.0
1001
ACAD
1000
AcDbSavedByObjectVersion
1070
     0
  0
VISUALSTYLE
  5
36
102
{ACAD_REACTORS
330
2A
102
}
330
2A
100
AcDbVisualStyle
  2
Brighten
 70
    12
 71
     2
 72
     2
 73
     0
 90
        0
 40
-0.6
 41
-30.0
 62
     5
 63
     7
421
 16777215
 74
     1
 91
        4
 64
     7
 65
   257
 75
     1
175
     1
 42
1.0
 92
        8
 66
     7
 43
1.0
 76
     1
 77
     6
 78
     2
 67
     7
 79
     5
170
     0
171
     0
290
     0
174
     0
 93
        1
 44
50.0
173
     0
291
     1
 45
0.0
1001
ACAD
1000
AcDbSavedByObjectVersion
1070
     0
  0
VISUALSTYLE
  5
3A
102
{ACAD_REACTORS
330
2A
102
}
330
2A
100
AcDbVisualStyle
  2
ColorChange
 70
    16
 71
     2
 72
     2
 73
     3
 90
        0
 40
-0.6
 41
-30.0
 62
     5
 63
     8
421
  8421504
 74
     1
 91
        4
 64
     7
 65
   257
 75
     1
175
     1
 42
1.0
 92
        8
 66
     8
424
  8421504
 43
1.0
 76
     1
 77
     6
 78
     2
 67
     7
 79
     5
170
     0
171
     0
290
     0
174
     0
 93
        1
 44
0.0
173
     0
291
     1
 45
0.0
1001
ACAD
1000
AcDbSavedByObjectVersion
1070
     0
  0
VISUALSTYLE
  5
34
102
{ACAD_REACTORS
330
2A
102
}
330
2A
100
AcDbVisualStyle
  2
Conceptual
 70
     9
 71
     3
 72
     2
 73
     0
 90
        0
 40
-0.6
 41
-30.0
 62
     5
 63
     7
421
 16777215
 74
     2
 91
        2
 64
     7
 65
   257
 75
     1
175
     1
 42
40.0
 92
        8
 66
     7
 43
1.0
 76
     1
 77
     6
 78
     2
 67
     7
 79
     3
170
     0
171
     0
290
     0
174
     0
 93
        1
 44
0.0
173
     0
291
     0
 45
0.0
1001
ACAD
1000
AcDbSavedByObjectVersion
1070
     0
  0
VISUALSTYLE
  5
35
102
{ACAD_REACTORS
330
2A
102
}
330
2A
100
AcDbVisualStyle
  2
Dim
 70
    11
 71
     2
 72
     2
 73
     0
 90
        0
 40
-0.6
 41
-30.0
 62
     5
 63
     7
421
 16777215
 74
     1
 91
        4
 64
     7
 65
   257
 75
     1
175
     1
 42
1.0
 92
        8
 66
     7
 43
1.0
 76
     1
 77
     6
 78
     2
 67
     7
 79
     5
170
     0
171
     0
290
     0
174
     0
 93
        1
 44
-50.0
173
     0
291
     1
 45
0.0
1001
ACAD
1000
AcDbSavedByObjectVersion
1070
     0
  0
VISUALSTYLE
  5
39
102
{ACAD_REACTORS
330
2A
102
}
330
2A
100
AcDbVisualStyle
  2
Facepattern
 70
    15
 71
     2
 72
     2
 73
     0
 90
        0
 40
-0.6
 41
-30.0
 62
     5
 63
     7
421
 16777215
 74
     1
 91
        4
 64
     7
 65
   257
 75
     1
175
     1
 42
1.0
 92
        8
 66
     7
 43
1.0
 76
     1
 77
     6
 78
     2
 67
     7
 79
     5
170
     0
171
     0
290
     0
174
     0
 93
        1
 44
0.0
173
     0
291
     1
 45
0.0
1001
ACAD
1000
AcDbSavedByObjectVersion
1070
     0
  0
VISUALSTYLE
  5
2B
102
{ACAD_REACTORS
330
2A
102
}
330
2A
100
AcDbVisualStyle
  2
Flat
 70
     0
 71
     2
 72
     1
 73
     1
 90
        2
 40
-0.6
 41
30.0
 62
     5
 63
     7
421
 16777215
 74
     0
 91
        4
 64
     7
 65
   257
 75
     1
175
     1
 42
1.0
 92
        8
 66
     7
 43
1.0
 76
     1
 77
     6
 78
     2
 67
     7
 79
     5
170
     0
171
     0
290
     0
174
     0
 93
       13
 44
0.0
173
     0
291
     1
 45
0.0
1001
ACAD
1000
AcDbSavedByObjectVersion
1070
     0
  0
VISUALSTYLE
  5
2C
102
{ACAD_REACTORS
330
2A
102
}
330
2A
100
AcDbVisualStyle
  2
FlatWithEdges
 70
     1
 71
     2
 72
     1
 73
     1
 90
        2
 40
-0.6
 41
30.0
 62
     5
 63
     7
421
 16777215
 74
     1
 91
        4
 64
     7
 65
   257
 75
     1
175
     1
 42
1.0
 92
        0
 66
   257
 43
1.0
 76
     1
 77
     6
 78
     2
 67
     7
 79
     5
170
     0
171
     0
290
     0
174
     0
 93
       13
 44
0.0
173
     0
291
     1
 45
0.0
1001
ACAD
1000
AcDbSavedByObjectVersion
1070
     0
  0
VISUALSTYLE
  5
2D
102
{ACAD_REACTORS
330
2A
102
}
330
2A
100
AcDbVisualStyle
  2
Gouraud
 70
     2
 71
     2
 72
     2
 73
     1
 90
        2
 40
-0.6
 41
30.0
 62
     5
 63
     7
421
 16777215
 74
     0
 91
        4
 64
     7
 65
   257
 75
     1
175
     1
 42
1.0
 92
        0
 66
     7
 43
1.0
 76
     1
 77
     6
 78
     2
 67
     7
 79
     5
170
     0
171
     0
290
     0
174
     0
 93
       13
 44
0.0
173
     0
291
     1
 45
0.0
1001
ACAD
1000
AcDbSavedByObjectVersion
1070
     0
  0
VISUALSTYLE
  5
2E
102
{ACAD_REACTORS
330
2A
102
}
330
2A
100
AcDbVisualStyle
  2
GouraudWithEdges
 70
     3
 71
     2
 72
     2
 73
     1
 90
        2
 40
-0.6
 41
30.0
 62
     5
 63
     7
421
 16777215
 74
     1
 91
        4
 64
     7
 65
   257
 75
     1
175
     1
 42
1.0
 92
        0
 66
   257
 43
1.0
 76
     1
 77
     6
 78
     2
 67
     7
 79
     5
170
     0
171
     0
290
     0
174
     0
 93
       13
 44
0.0
173
     0
291
     1
 45
0.0
1001
ACAD
1000
AcDbSavedByObjectVersion
1070
     0
  0
VISUALSTYLE
  5
38
102
{ACAD_REACTORS
330
2A
102
}
330
2A
100
AcDbVisualStyle
  2
Linepattern
 70
    14
 71
     2
 72
     2
 73
     0
 90
        0
 40
-0.6
 41
-30.0
 62
     5
 63
     7
421
 16777215
 74
     1
 91
        4
 64
     7
 65
   257
 75
     7
175
     7
 42
1.0
 92
        8
 66
     7
 43
1.0
 76
     1
 77
     6
 78
     2
 67
     7
 79
     5
170
     0
171
     0
290
     0
174
     0
 93
        1
 44
0.0
173
     0
291
     1
 45
0.0
1001
ACAD
1000
AcDbSavedByObjectVersion
1070
     0
  0
VISUALSTYLE
  5
33
102
{ACAD_REACTORS
330
2A
102
}
330
2A
100
AcDbVisualStyle
  2
Realistic
 70
     8
 71
     2
 72
     2
 73
     0
 90
        0
 40
-0.6
 41
-30.0
 62
     5
 63
     7
421
 16777215
 74
     1
 91
        0
 64
     7
 65
   257
 75
     1
175
     1
 42
1.0
 92
        8
 66
     8
424
  7895160
 43
1.0
 76
     1
 77
     6
 78
     2
 67
     7
 79
     5
170
     0
171
     0
290
     0
174
     0
 93
       13
 44
0.0
173
     0
291
     0
 45
0.0
1001
ACAD
1000
AcDbSavedByObjectVersion
1070
     0
  0
VISUALSTYLE
  5
37
102
{ACAD_REACTORS
330
2A
102
}
330
2A
100
AcDbVisualStyle
  2
Thicken
 70
    13
 71
     2
 72
     2
 73
     0
 90
        0
 40
-0.6
 41
-30.0
 62
     5
 63
     7
421
 16777215
 74
     1
 91
        4
 64
     7
 65
   257
 75
     1
175
     1
 42
1.0
 92
       12
 66
     7
 43
1.0
 76
     1
 77
     6
 78
     2
 67
     7
 79
     5
170
     0
171
     0
290
     0
174
     0
 93
        1
 44
0.0
173
     0
291
     1
 45
0.0
1001
ACAD
1000
AcDbSavedByObjectVersion
1070
     0
  0
ENDSEC
  0
EOF
