  0
SECTION
  2
HEADER
  9
$ACADVER
  1
AC1018
  9
$ACADMAINTVER
 70
     0
  9
$DWGCODEPAGE
  3
ANSI_932
  9
$INSBASE
 10
0.0
 20
0.0
 30
0.0
  9
$EXTMIN
 10
-210.0
 20
-148.5
 30
0.0
  9
$EXTMAX
 10
210.0
 20
148.5
 30
0.0
  9
$LIMMIN
 10
-210.0
 20
-148.5
  9
$LIMMAX
 10
210.0
 20
148.5
  9
$ORTHOMODE
 70
     0
  9
$REGENMODE
 70
     1
  9
$FILLMODE
 70
     1
  9
$QTEXTMODE
 70
     0
  9
$MIRRTEXT
 70
     1
  9
$LTSCALE
 40
1.0
  9
$ATTMODE
 70
     1
  9
$TEXTSIZE
 40
2.5
  9
$TRACEWID
 40
1.0
  9
$TEXTSTYLE
  7
Standard
  9
$CLAYER
  8
0
  9
$CELTYPE
  6
ByLayer
  9
$CECOLOR
 62
   256
  9
$CELTSCALE
 40
1.0
  9
$DISPSILH
 70
     0
  9
$DIMSCALE
 40
1.0
  9
$DIMASZ
 40
2.5
  9
$DIMEXO
 40
0.625
  9
$DIMDLI
 40
3.75
  9
$DIMRND
 40
0.0
  9
$DIMDLE
 40
0.0
  9
$DIMEXE
 40
1.25
  9
$DIMTP
 40
0.0
  9
$DIMTM
 40
0.0
  9
$DIMTXT
 40
2.5
  9
$DIMCEN
 40
2.5
  9
$DIMTSZ
 40
0.0
  9
$DIMTOL
 70
     0
  9
$DIMLIM
 70
     0
  9
$DIMTIH
 70
     0
  9
$DIMTOH
 70
     0
  9
$DIMSE1
 70
     0
  9
$DIMSE2
 70
     0
  9
$DIMTAD
 70
     1
  9
$DIMZIN
 70
     8
  9
$DIMBLK
  1

  9
$DIMASO
 70
     1
  9
$DIMSHO
 70
     1
  9
$DIMPOST
  1

  9
$DIMAPOST
  1

  9
$DIMALT
 70
     0
  9
$DIMALTD
 70
     3
  9
$DIMALTF
 40
0.03937007874016
  9
$DIMLFAC
 40
1.0
  9
$DIMTOFL
 70
     1
  9
$DIMTVP
 40
0.0
  9
$DIMTIX
 70
     0
  9
$DIMSOXD
 70
     0
  9
$DIMSAH
 70
     0
  9
$DIMBLK1
  1

  9
$DIMBLK2
  1

  9
$DIMSTYLE
  2
ISO-25
  9
$DIMCLRD
 70
     0
  9
$DIMCLRE
 70
     0
  9
$DIMCLRT
 70
     0
  9
$DIMTFAC
 40
1.0
  9
$DIMGAP
 40
0.625
  9
$DIMJUST
 70
     0
  9
$DIMSD1
 70
     0
  9
$DIMSD2
 70
     0
  9
$DIMTOLJ
 70
     0
  9
$DIMTZIN
 70
     8
  9
$DIMALTZ
 70
     0
  9
$DIMALTTZ
 70
     0
  9
$DIMUPT
 70
     0
  9
$DIMDEC
 70
     2
  9
$DIMTDEC
 70
     2
  9
$DIMALTU
 70
     2
  9
$DIMALTTD
 70
     3
  9
$DIMTXSTY
  7
Standard
  9
$DIMAUNIT
 70
     0
  9
$DIMADEC
 70
     0
  9
$DIMALTRND
 40
0.0
  9
$DIMAZIN
 70
     0
  9
$DIMDSEP
 70
    44
  9
$DIMATFIT
 70
     3
  9
$DIMFRAC
 70
     0
  9
$DIMLDRBLK
  1

  9
$DIMLUNIT
 70
     2
  9
$DIMLWD
 70
    -2
  9
$DIMLWE
 70
    -2
  9
$DIMTMOVE
 70
     0
  9
$LUNITS
 70
     2
  9
$LUPREC
 70
     4
  9
$SKETCHINC
 40
1.0
  9
$FILLETRAD
 40
10.0
  9
$AUNITS
 70
     0
  9
$AUPREC
 70
     0
  9
$MENU
  1
.
  9
$ELEVATION
 40
0.0
  9
$PELEVATION
 40
0.0
  9
$THICKNESS
 40
0.0
  9
$LIMCHECK
 70
     0
  9
$CHAMFERA
 40
10.0
  9
$CHAMFERB
 40
10.0
  9
$CHAMFERC
 40
20.0
  9
$CHAMFERD
 40
0.0
  9
$SKPOLY
 70
     0
  9
$TDCREATE
 40
2459003.386679259
  9
$TDUCREATE
 40
2459003.011679259
  9
$TDUPDATE
 40
2459003.386679271
  9
$TDUUPDATE
 40
2459003.011679271
  9
$TDINDWG
 40
0.0000000116
  9
$TDUSRTIMER
 40
0.0000000116
  9
$USRTIMER
 70
     1
  9
$ANGBASE
 50
0.0
  9
$ANGDIR
 70
     0
  9
$PDMODE
 70
     0
  9
$PDSIZE
 40
0.0
  9
$PLINEWID
 40
0.0
  9
$SPLFRAME
 70
     0
  9
$SPLINETYPE
 70
     6
  9
$SPLINESEGS
 70
     8
  9
$HANDSEED
  5
239
  9
$SURFTAB1
 70
     6
  9
$SURFTAB2
 70
     6
  9
$SURFTYPE
 70
     6
  9
$SURFU
 70
     6
  9
$SURFV
 70
     6
  9
$UCSBASE
  2

  9
$UCSNAME
  2

  9
$UCSORG
 10
0.0
 20
0.0
 30
0.0
  9
$UCSXDIR
 10
1.0
 20
0.0
 30
0.0
  9
$UCSYDIR
 10
0.0
 20
1.0
 30
0.0
  9
$UCSORTHOREF
  2

  9
$UCSORTHOVIEW
 70
     0
  9
$UCSORGTOP
 10
0.0
 20
0.0
 30
0.0
  9
$UCSORGBOTTOM
 10
0.0
 20
0.0
 30
0.0
  9
$UCSORGLEFT
 10
0.0
 20
0.0
 30
0.0
  9
$UCSORGRIGHT
 10
0.0
 20
0.0
 30
0.0
  9
$UCSORGFRONT
 10
0.0
 20
0.0
 30
0.0
  9
$UCSORGBACK
 10
0.0
 20
0.0
 30
0.0
  9
$PUCSBASE
  2

  9
$PUCSNAME
  2

  9
$PUCSORG
 10
0.0
 20
0.0
 30
0.0
  9
$PUCSXDIR
 10
1.0
 20
0.0
 30
0.0
  9
$PUCSYDIR
 10
0.0
 20
1.0
 30
0.0
  9
$PUCSORTHOREF
  2

  9
$PUCSORTHOVIEW
 70
     0
  9
$PUCSORGTOP
 10
0.0
 20
0.0
 30
0.0
  9
$PUCSORGBOTTOM
 10
0.0
 20
0.0
 30
0.0
  9
$PUCSORGLEFT
 10
0.0
 20
0.0
 30
0.0
  9
$PUCSORGRIGHT
 10
0.0
 20
0.0
 30
0.0
  9
$PUCSORGFRONT
 10
0.0
 20
0.0
 30
0.0
  9
$PUCSORGBACK
 10
0.0
 20
0.0
 30
0.0
  9
$USERI1
 70
     0
  9
$USERI2
 70
     0
  9
$USERI3
 70
     0
  9
$USERI4
 70
     0
  9
$USERI5
 70
     0
  9
$USERR1
 40
0.0
  9
$USERR2
 40
0.0
  9
$USERR3
 40
0.0
  9
$USERR4
 40
0.0
  9
$USERR5
 40
0.0
  9
$WORLDVIEW
 70
     1
  9
$SHADEDGE
 70
     3
  9
$SHADEDIF
 70
    70
  9
$TILEMODE
 70
     1
  9
$MAXACTVP
 70
    64
  9
$PINSBASE
 10
0.0
 20
0.0
 30
0.0
  9
$PLIMCHECK
 70
     0
  9
$PEXTMIN
 10
1.000000000000000E+20
 20
1.000000000000000E+20
 30
1.000000000000000E+20
  9
$PEXTMAX
 10
-1.000000000000000E+20
 20
-1.000000000000000E+20
 30
-1.000000000000000E+20
  9
$PLIMMIN
 10
0.0
 20
0.0
  9
$PLIMMAX
 10
420.0
 20
297.0
  9
$UNITMODE
 70
     0
  9
$VISRETAIN
 70
     1
  9
$PLINEGEN
 70
     0
  9
$PSLTSCALE
 70
     1
  9
$TREEDEPTH
 70
  3020
  9
$CMLSTYLE
  2
Standard
  9
$CMLJUST
 70
     0
  9
$CMLSCALE
 40
20.0
  9
$PROXYGRAPHICS
 70
     1
  9
$MEASUREMENT
 70
     1
  9
$CELWEIGHT
370
    -1
  9
$ENDCAPS
280
     0
  9
$JOINSTYLE
280
     0
  9
$LWDISPLAY
290
     0
  9
$INSUNITS
 70
     4
  9
$HYPERLINKBASE
  1

  9
$STYLESHEET
  1

  9
$XEDIT
290
     1
  9
$CEPSNTYPE
380
     0
  9
$PSTYLEMODE
290
     1
  9
$FINGERPRINTGUID
  2
{B1D686A0-59CC-4E1F-8274-08A97F4E39A9}
  9
$VERSIONGUID
  2
{FAEB1C32-E019-11D5-929B-00C0DF256EC4}
  9
$EXTNAMES
290
     1
  9
$PSVPSCALE
 40
0.0
  9
$OLESTARTUP
290
     0
  9
$SORTENTS
280
   127
  9
$INDEXCTL
280
     0
  9
$HIDETEXT
280
     1
  9
$XCLIPFRAME
290
     0
  9
$HALOGAP
280
     0
  9
$OBSCOLOR
 70
   257
  9
$OBSLTYPE
280
     0
  9
$INTERSECTIONDISPLAY
280
     0
  9
$INTERSECTIONCOLOR
 70
   257
  9
$DIMASSOC
280
     2
  9
$PROJECTNAME
  1

  0
ENDSEC
  0
SECTION
  2
CLASSES
  0
CLASS
  1
ACDBDICTIONARYWDFLT
  2
AcDbDictionaryWithDefault
  3
ObjectDBX Classes
 90
        0
 91
        4
280
     0
281
     0
  0
CLASS
  1
VISUALSTYLE
  2
AcDbVisualStyle
  3
ObjectDBX Classes
 90
     4095
 91
        4
280
     0
281
     0
  0
ENDSEC
  0
SECTION
  2
TABLES
  0
TABLE
  2
VPORT
  5
8
330
0
100
AcDbSymbolTable
 70
     1
  0
VPORT
  5
29
330
8
100
AcDbSymbolTableRecord
100
AcDbViewportTableRecord
  2
*Active
 70
     0
 10
0.0
 20
0.0
 11
1.0
 21
1.0
 12
0.0
 22
0.0
 13
0.0
 23
0.0
 14
10.0
 24
10.0
 15
10.0
 25
10.0
 16
0.0
 26
0.0
 36
1.0
 17
0.0
 27
0.0
 37
0.0
 40
326.7
 41
1.414141414141414
 42
50.0
 43
0.0
 44
0.0
 50
0.0
 51
0.0
 71
     0
 72
 10000
 73
     1
 74
     3
 75
     0
 76
     0
 77
     0
 78
     0
281
     0
 65
     1
110
0.0
120
0.0
130
0.0
111
1.0
121
0.0
131
0.0
112
0.0
122
1.0
132
0.0
 79
     0
146
0.0
  0
ENDTAB
  0
TABLE
  2
LTYPE
  5
5
330
0
100
AcDbSymbolTable
 70
     2
  0
LTYPE
  5
14
330
5
100
AcDbSymbolTableRecord
100
AcDbLinetypeTableRecord
  2
ByBlock
 70
     0
  3

 72
    65
 73
     0
 40
0.0
  0
LTYPE
  5
15
330
5
100
AcDbSymbolTableRecord
100
AcDbLinetypeTableRecord
  2
ByLayer
 70
     0
  3

 72
    65
 73
     0
 40
0.0
  0
LTYPE
  5
16
330
5
100
AcDbSymbolTableRecord
100
AcDbLinetypeTableRecord
  2
Continuous
 70
     0
  3
Solid line
 72
    65
 73
     0
 40
0.0
  0
LTYPE
  5
3C
330
5
100
AcDbSymbolTableRecord
100
AcDbLinetypeTableRecord
  2
JWW_CENTER1
 70
     0
  3
-----  --  ----------  --  -----
 72
    65
 73
     4
 40
6.773333333333333
 49
4.233333333333333
 74
     0
 49
-0.8466666666666667
 74
     0
 49
0.8466666666666667
 74
     0
 49
-0.8466666666666667
 74
     0
  0
ENDTAB
  0
TABLE
  2
LAYER
  5
2
330
0
100
AcDbSymbolTable
 70
     3
  0
LAYER
  5
10
330
2
100
AcDbSymbolTableRecord
100
AcDbLayerTableRecord
  2
0
 70
     0
 62
     7
  6
Continuous
370
    -3
390
F
  0
LAYER
  5
3D
330
2
100
AcDbSymbolTableRecord
100
AcDbLayerTableRecord
  2
その他
 70
     0
 62
     7
  6
Continuous
370
    -1
390
F
  0
LAYER
  5
3E
330
2
100
AcDbSymbolTableRecord
100
AcDbLayerTableRecord
  2
F-4ﾚｲﾔ
 70
     0
 62
     7
  6
Continuous
370
    -1
390
F
  0
ENDTAB
  0
TABLE
  2
STYLE
  5
3
330
0
100
AcDbSymbolTable
 70
     2
  0
STYLE
  5
11
330
3
100
AcDbSymbolTableRecord
100
AcDbTextStyleTableRecord
  2
Standard
 70
     0
 40
0.0
 41
1.0
 50
0.0
 71
     0
 42
2.5
  3
txt
  4

1001
ACAD
1000

1071
        0
  0
STYLE
  5
3B
330
3
100
AcDbSymbolTableRecord
100
AcDbTextStyleTableRecord
  2
ＭＳ ゴシック
 70
     0
 40
1.0
 41
1.0
 50
0.0
 71
     0
 42
10.0
  3

  4

1001
ACAD
1000
MS Gothic
1071
    32817
  0
ENDTAB
  0
TABLE
  2
VIEW
  5
6
330
0
100
AcDbSymbolTable
 70
     0
  0
ENDTAB
  0
TABLE
  2
UCS
  5
7
330
0
100
AcDbSymbolTable
 70
     0
  0
ENDTAB
  0
TABLE
  2
APPID
  5
9
330
0
100
AcDbSymbolTable
 70
     1
  0
APPID
  5
12
330
9
100
AcDbSymbolTableRecord
100
AcDbRegAppTableRecord
  2
ACAD
 70
     0
  0
ENDTAB
  0
TABLE
  2
DIMSTYLE
  5
A
330
0
100
AcDbSymbolTable
 70
     1
100
AcDbDimStyleTable
  0
DIMSTYLE
105
27
330
A
100
AcDbSymbolTableRecord
100
AcDbDimStyleTableRecord
  2
ISO-25
 70
     0
 41
2.5
 42
0.625
 43
3.75
 44
1.25
 73
     0
 74
     0
 77
     1
 78
     8
140
2.5
141
2.5
143
0.03937007874016
147
0.625
171
     3
172
     1
271
     2
272
     2
274
     3
278
    44
283
     0
284
     8
340
11
  0
ENDTAB
  0
TABLE
  2
BLOCK_RECORD
  5
1
330
0
100
AcDbSymbolTable
 70
     1
  0
BLOCK_RECORD
  5
1F
330
1
100
AcDbSymbolTableRecord
100
AcDbBlockTableRecord
  2
*Model_Space
340
22
  0
BLOCK_RECORD
  5
1B
330
1
100
AcDbSymbolTableRecord
100
AcDbBlockTableRecord
  2
*Paper_Space
340
1E
  0
BLOCK_RECORD
  5
23
330
1
100
AcDbSymbolTableRecord
100
AcDbBlockTableRecord
  2
*Paper_Space0
340
26
  0
ENDTAB
  0
ENDSEC
  0
SECTION
  2
BLOCKS
  0
BLOCK
  5
20
330
1F
100
AcDbEntity
  8
0
100
AcDbBlockBegin
  2
*Model_Space
 70
     0
 10
0.0
 20
0.0
 30
0.0
  3
*Model_Space
  1

  0
ENDBLK
  5
21
330
1F
100
AcDbEntity
  8
0
100
AcDbBlockEnd
  0
BLOCK
  5
1C
330
1B
100
AcDbEntity
 67
     1
  8
0
100
AcDbBlockBegin
  2
*Paper_Space
 70
     0
 10
0.0
 20
0.0
 30
0.0
  3
*Paper_Space
  1

  0
ENDBLK
  5
1D
330
1B
100
AcDbEntity
 67
     1
  8
0
100
AcDbBlockEnd
  0
BLOCK
  5
24
330
23
100
AcDbEntity
  8
0
100
AcDbBlockBegin
  2
*Paper_Space0
 70
     0
 10
0.0
 20
0.0
 30
0.0
  3
*Paper_Space0
  1

  0
ENDBLK
  5
25
330
23
100
AcDbEntity
  8
0
100
AcDbBlockEnd
  0
ENDSEC
  0
SECTION
  2
ENTITIES
  0
TEXT
  5
3F
330
1F
100
AcDbEntity
  8
その他
  6
Continuous
 62
     7
370
     9
100
AcDbText
 10
-82.49782884257236
 20
-62.50954965925736
 30
0.0
 40
2.286
  1
80
 41
1.083333333333333
  7
ＭＳ ゴシック
100
AcDbText
  0
TEXT
  5
40
330
1F
100
AcDbEntity
  8
その他
  6
Continuous
 62
     7
370
     9
100
AcDbText
 10
-84.02710756817343
 20
-67.32143460373588
 30
0.0
 40
2.286
  1
100
 41
1.111111111111111
  7
ＭＳ ゴシック
100
AcDbText
  0
TEXT
  5
41
330
1F
100
AcDbEntity
  8
その他
  6
Continuous
 62
     7
370
     9
100
AcDbText
 10
-87.76534445297601
 20
-72.43925412552836
 30
0.0
 40
2.286
  1
100×50
 41
1.142857142857143
  7
ＭＳ ゴシック
100
AcDbText
  0
LINE
  5
42
330
1F
100
AcDbEntity
  8
その他
  6
Continuous
 62
     7
370
     9
100
AcDbLine
 10
-90.74431282312678
 20
-51.23718382536768
 30
0.0
 11
-90.74431282312678
 21
-73.73718382536768
 31
0.0
  0
LINE
  5
43
330
1F
100
AcDbEntity
  8
その他
  6
Continuous
 62
     7
370
     9
100
AcDbLine
 10
-70.74431282312678
 20
-51.23718382536768
 30
0.0
 11
-70.74431282312678
 21
-73.73718382536768
 31
0.0
  0
LINE
  5
44
330
1F
100
AcDbEntity
  8
その他
  6
Continuous
 62
     7
370
     9
100
AcDbLine
 10
-50.74431282312678
 20
-51.23718382536768
 30
0.0
 11
-50.74431282312678
 21
-73.73718382536768
 31
0.0
  0
LINE
  5
45
330
1F
100
AcDbEntity
  8
その他
  6
Continuous
 62
     7
370
     9
100
AcDbLine
 10
-60.74431282312678
 20
-51.23718382536768
 30
0.0
 11
-60.74431282312678
 21
-73.73718382536768
 31
0.0
  0
LINE
  5
46
330
1F
100
AcDbEntity
  8
その他
  6
Continuous
 62
     7
370
     9
100
AcDbLine
 10
-40.74431282312678
 20
-51.23718382536768
 30
0.0
 11
-40.74431282312678
 21
-73.73718382536768
 31
0.0
  0
TEXT
  5
47
330
1F
100
AcDbEntity
  8
その他
  6
Continuous
 62
     7
370
     9
100
AcDbText
 10
-68.34730304077932
 20
-62.71055636808323
 30
0.0
 40
2.286
  1
171
 41
1.111111111111111
  7
ＭＳ ゴシック
100
AcDbText
  0
TEXT
  5
48
330
1F
100
AcDbEntity
  8
その他
  6
Continuous
 62
     7
370
     9
100
AcDbText
 10
-68.34730304077932
 20
-67.61783790517819
 30
0.0
 40
2.286
  1
210
 41
1.111111111111111
  7
ＭＳ ゴシック
100
AcDbText
  0
TEXT
  5
49
330
1F
100
AcDbEntity
  8
その他
  6
Continuous
 62
     7
370
     9
100
AcDbText
 10
-68.34730304077932
 20
-72.26935819185486
 30
0.0
 40
2.286
  1
210
 41
1.111111111111111
  7
ＭＳ ゴシック
100
AcDbText
  0
TEXT
  5
4A
330
1F
100
AcDbEntity
  8
その他
  6
Continuous
 62
     7
370
     9
100
AcDbText
 10
-67.4422508468689
 20
-56.99155454911509
 30
0.0
 40
2.286
  1
Ａ
  7
ＭＳ ゴシック
100
AcDbText
  0
TEXT
  5
4B
330
1F
100
AcDbEntity
  8
その他
  6
Continuous
 62
     7
370
     9
100
AcDbText
 10
-57.32591058587109
 20
-56.89081765510105
 30
0.0
 40
2.286
  1
Ｂ
  7
ＭＳ ゴシック
100
AcDbText
  0
TEXT
  5
4C
330
1F
100
AcDbEntity
  8
その他
  6
Continuous
 62
     7
370
     9
100
AcDbText
 10
-58.33902941615388
 20
-62.39668477754894
 30
0.0
 40
2.286
  1
152
 41
1.111111111111111
  7
ＭＳ ゴシック
100
AcDbText
  0
TEXT
  5
4D
330
1F
100
AcDbEntity
  8
その他
  6
Continuous
 62
     7
370
     9
100
AcDbText
 10
-58.49596521142102
 20
-67.61783790517819
 30
0.0
 40
2.286
  1
190
 41
1.111111111111111
  7
ＭＳ ゴシック
100
AcDbText
  0
TEXT
  5
4E
330
1F
100
AcDbEntity
  8
その他
  6
Continuous
 62
     7
370
     9
100
AcDbText
 10
-58.65290100668817
 20
-72.26935819185486
 30
0.0
 40
2.286
  1
190
 41
1.111111111111111
  7
ＭＳ ゴシック
100
AcDbText
  0
TEXT
  5
4F
330
1F
100
AcDbEntity
  8
その他
  6
Continuous
 62
     7
370
     9
100
AcDbText
 10
-48.52990071750931
 20
-67.93170949571247
 30
0.0
 40
2.286
  1
148
 41
1.111111111111111
  7
ＭＳ ゴシック
100
AcDbText
  0
TEXT
  5
50
330
1F
100
AcDbEntity
  8
その他
  6
Continuous
 62
     7
370
     9
100
AcDbText
 10
-48.46720169390211
 20
-72.48290327165438
 30
0.0
 40
2.286
  1
148
 41
1.111111111111111
  7
ＭＳ ゴシック
100
AcDbText
  0
TEXT
  5
51
330
1F
100
AcDbEntity
  8
その他
  6
Continuous
 62
     7
370
     9
100
AcDbText
 10
-48.31895912239456
 20
-62.69889355215588
 30
0.0
 40
2.286
  1
110
 41
1.111111111111111
  7
ＭＳ ゴシック
100
AcDbText
  0
LINE
  5
52
330
1F
100
AcDbEntity
  8
その他
  6
Continuous
 62
     7
370
     9
100
AcDbLine
 10
-27.73839746248931
 20
-51.23718382536768
 30
0.0
 11
-27.73839746248931
 21
-73.73718382536768
 31
0.0
  0
LINE
  5
53
330
1F
100
AcDbEntity
  8
その他
  6
Continuous
 62
     7
370
     9
100
AcDbLine
 10
-7.738397462489313
 20
-51.23718382536768
 30
0.0
 11
-7.738397462489313
 21
-73.73718382536768
 31
0.0
  0
LINE
  5
54
330
1F
100
AcDbEntity
  8
その他
  6
Continuous
 62
     7
370
     9
100
AcDbLine
 10
-17.73839746248931
 20
-51.23718382536768
 30
0.0
 11
-17.73839746248931
 21
-73.73718382536768
 31
0.0
  0
TEXT
  5
55
330
1F
100
AcDbEntity
  8
その他
  6
Continuous
 62
     7
370
     9
100
AcDbText
 10
-24.14100174620027
 20
-62.39668477754894
 30
0.0
 40
2.286
  1
25
 41
1.083333333333333
  7
ＭＳ ゴシック
100
AcDbText
  0
TEXT
  5
56
330
1F
100
AcDbEntity
  8
その他
  6
Continuous
 62
     7
370
     9
100
AcDbText
 10
-24.14100174620027
 20
-67.61783790517819
 30
0.0
 40
2.286
  1
25
 41
1.083333333333333
  7
ＭＳ ゴシック
100
AcDbText
  0
TEXT
  5
57
330
1F
100
AcDbEntity
  8
その他
  6
Continuous
 62
     7
370
     9
100
AcDbText
 10
-23.98406595093313
 20
-72.11242239658773
 30
0.0
 40
2.286
  1
25
 41
1.083333333333333
  7
ＭＳ ゴシック
100
AcDbText
  0
TEXT
  5
58
330
1F
100
AcDbEntity
  8
その他
  6
Continuous
 62
     7
370
     9
100
AcDbText
 10
-13.96163975268844
 20
-62.55362057281609
 30
0.0
 40
2.286
  1
81
 41
1.083333333333333
  7
ＭＳ ゴシック
100
AcDbText
  0
TEXT
  5
59
330
1F
100
AcDbEntity
  8
その他
  6
Continuous
 62
     7
370
     9
100
AcDbText
 10
-15.37406191009269
 20
-67.46090210991106
 30
0.0
 40
2.286
  1
105
 41
1.111111111111111
  7
ＭＳ ゴシック
100
AcDbText
  0
TEXT
  5
5A
330
1F
100
AcDbEntity
  8
その他
  6
Continuous
 62
     7
370
     9
100
AcDbText
 10
-14.05855149150487
 20
-56.9320972438191
 30
0.0
 40
2.286
  1
Ｄ
  7
ＭＳ ゴシック
100
AcDbText
  0
TEXT
  5
5B
330
1F
100
AcDbEntity
  8
その他
  6
Continuous
 62
     7
370
     9
100
AcDbText
 10
-14.10629435722553
 20
-72.26949285657216
 30
0.0
 40
2.286
  1
53
 41
1.083333333333333
  7
ＭＳ ゴシック
100
AcDbText
  0
TEXT
  5
5C
330
1F
100
AcDbEntity
  8
その他
  6
Continuous
 62
     7
370
     9
100
AcDbText
 10
-2.131338177601616
 20
-56.60404375792874
 30
0.0
 40
2.286
  1
ねじ径ｄ
 41
1.125
  7
ＭＳ ゴシック
100
AcDbText
  0
LINE
  5
5D
330
1F
100
AcDbEntity
  8
その他
  6
Continuous
 62
     7
370
     9
100
AcDbLine
 10
17.99886579983196
 20
-51.23718382536768
 30
0.0
 11
17.99886579983196
 21
-73.73718382536768
 31
0.0
  0
TEXT
  5
5E
330
1F
100
AcDbEntity
  8
その他
  6
Continuous
 62
     7
370
     9
100
AcDbText
 10
1.450949445889638
 20
-62.68703767870851
 30
0.0
 40
2.286
  1
(87.884)
 41
1.145833333333333
  7
ＭＳ ゴシック
100
AcDbText
  0
TEXT
  5
5F
330
1F
100
AcDbEntity
  8
その他
  6
Continuous
 62
     7
370
     9
100
AcDbText
 10
-5.030481941213065
 20
-62.53080106948256
 30
0.0
 40
2.286
  1
Rc3
 41
1.111111111111111
  7
ＭＳ ゴシック
100
AcDbText
  0
TEXT
  5
60
330
1F
100
AcDbEntity
  8
その他
  6
Continuous
 62
     7
370
     9
100
AcDbText
 10
-5.274047310181043
 20
-67.32091999251922
 30
0.0
 40
2.286
  1
Rc4
 41
1.111111111111111
  7
ＭＳ ゴシック
100
AcDbText
  0
TEXT
  5
61
330
1F
100
AcDbEntity
  8
その他
  6
Continuous
 62
     7
370
     9
100
AcDbText
 10
-5.274047310181043
 20
-72.35460428452384
 30
0.0
 40
2.286
  1
Rc2
 41
1.111111111111111
  7
ＭＳ ゴシック
100
AcDbText
  0
TEXT
  5
62
330
1F
100
AcDbEntity
  8
その他
  6
Continuous
 62
     7
370
     9
100
AcDbText
 10
1.058652282986078
 20
-72.43579274084651
 30
0.0
 40
2.286
  1
(59.614)
 41
1.145833333333333
  7
ＭＳ ゴシック
100
AcDbText
  0
TEXT
  5
63
330
1F
100
AcDbEntity
  8
その他
  6
Continuous
 62
     7
370
     9
100
AcDbText
 10
1.545783020922006
 20
-67.48329690516454
 30
0.0
 40
2.286
  1
(113.03)
 41
1.145833333333333
  7
ＭＳ ゴシック
100
AcDbText
  0
LINE
  5
64
330
1F
100
AcDbEntity
  8
その他
  6
Continuous
 62
     7
370
     9
100
AcDbLine
 10
27.99886579983196
 20
-51.23718382536768
 30
0.0
 11
27.99886579983196
 21
-73.73718382536768
 31
0.0
  0
LINE
  5
65
330
1F
100
AcDbEntity
  8
その他
  6
Continuous
 62
     7
370
     9
100
AcDbLine
 10
37.99886579983196
 20
-51.23718382536768
 30
0.0
 11
37.99886579983196
 21
-73.73718382536768
 31
0.0
  0
LINE
  5
66
330
1F
100
AcDbEntity
  8
その他
  6
Continuous
 62
     7
370
     9
100
AcDbLine
 10
47.99886579983196
 20
-51.23718382536768
 30
0.0
 11
47.99886579983196
 21
-73.73718382536768
 31
0.0
  0
LINE
  5
67
330
1F
100
AcDbEntity
  8
その他
  6
Continuous
 62
     7
370
     9
100
AcDbLine
 10
57.99886579983196
 20
-51.23718382536768
 30
0.0
 11
57.99886579983196
 21
-73.73718382536768
 31
0.0
  0
LINE
  5
68
330
1F
100
AcDbEntity
  8
その他
  6
Continuous
 62
     7
370
     9
100
AcDbLine
 10
67.99886579983196
 20
-51.23718382536768
 30
0.0
 11
67.99886579983196
 21
-73.73718382536768
 31
0.0
  0
TEXT
  5
69
330
1F
100
AcDbEntity
  8
その他
  6
Continuous
 62
     7
370
     9
100
AcDbText
 10
-38.48171593414166
 20
-62.39668477754894
 30
0.0
 40
2.286
  1
101.5
 41
1.133333333333334
  7
ＭＳ ゴシック
100
AcDbText
  0
TEXT
  5
6A
330
1F
100
AcDbEntity
  8
その他
  6
Continuous
 62
     7
370
     9
100
AcDbText
 10
-38.50232219137312
 20
-67.60779903080665
 30
0.0
 40
2.286
  1
141.5
 41
1.133333333333334
  7
ＭＳ ゴシック
100
AcDbText
  0
TEXT
  5
6B
330
1F
100
AcDbEntity
  8
その他
  6
Continuous
 62
     7
370
     9
100
AcDbText
 10
-38.39367535557768
 20
-72.27961297001048
 30
0.0
 40
2.286
  1
141.5
 41
1.133333333333334
  7
ＭＳ ゴシック
100
AcDbText
  0
TEXT
  5
6C
330
1F
100
AcDbEntity
  8
その他
  6
Continuous
 62
     7
370
     9
100
AcDbText
 10
21.74477998426203
 20
-62.2397489822818
 30
0.0
 40
2.286
  1
54
 41
1.083333333333333
  7
ＭＳ ゴシック
100
AcDbText
  0
TEXT
  5
6D
330
1F
100
AcDbEntity
  8
その他
  6
Continuous
 62
     7
370
     9
100
AcDbText
 10
21.27397259846065
 20
-67.77477370044532
 30
0.0
 40
2.286
  1
60
 41
1.083333333333333
  7
ＭＳ ゴシック
100
AcDbText
  0
TEXT
  5
6E
330
1F
100
AcDbEntity
  8
その他
  6
Continuous
 62
     7
370
     9
100
AcDbText
 10
31.41897977009525
 20
-62.08281318701465
 30
0.0
 40
2.286
  1
22
 41
1.083333333333332
  7
ＭＳ ゴシック
100
AcDbText
  0
TEXT
  5
6F
330
1F
100
AcDbEntity
  8
その他
  6
Continuous
 62
     7
370
     9
100
AcDbText
 10
31.46740473819189
 20
-56.82864085872795
 30
0.0
 40
2.286
  1
Ｌ
 41
0.9999999999999988
  7
ＭＳ ゴシック
100
AcDbText
  0
TEXT
  5
70
330
1F
100
AcDbEntity
  8
その他
  6
Continuous
 62
     7
370
     9
100
AcDbText
 10
31.36070471988753
 20
-67.65869271662123
 30
0.0
 40
2.286
  1
26
 41
1.083333333333332
  7
ＭＳ ゴシック
100
AcDbText
  0
TEXT
  5
71
330
1F
100
AcDbEntity
  8
その他
  6
Continuous
 62
     7
370
     9
100
AcDbText
 10
31.36070471988753
 20
-72.51354354946994
 30
0.0
 40
2.286
  1
22
 41
1.083333333333332
  7
ＭＳ ゴシック
100
AcDbText
  0
TEXT
  5
72
330
1F
100
AcDbEntity
  8
その他
  6
Continuous
 62
     7
370
     9
100
AcDbText
 10
21.33090299927698
 20
-72.46019354031776
 30
0.0
 40
2.286
  1
68
 41
1.083333333333333
  7
ＭＳ ゴシック
100
AcDbText
  0
TEXT
  5
73
330
1F
100
AcDbEntity
  8
その他
  6
Continuous
 62
     7
370
     9
100
AcDbText
 10
41.64782357008637
 20
-56.97092153331795
 30
0.0
 40
2.286
  1
Ｔ
  7
ＭＳ ゴシック
100
AcDbText
  0
TEXT
  5
74
330
1F
100
AcDbEntity
  8
その他
  6
Continuous
 62
     7
370
     9
100
AcDbText
 10
40.70973377185256
 20
-62.71055636808322
 30
0.0
 40
2.286
  1
4.5
 41
1.111111111111111
  7
ＭＳ ゴシック
100
AcDbText
  0
TEXT
  5
75
330
1F
100
AcDbEntity
  8
その他
  6
Continuous
 62
     7
370
     9
100
AcDbText
 10
52.02053920870345
 20
-72.2686895986705
 30
0.0
 40
2.286
  1
4
  7
ＭＳ ゴシック
100
AcDbText
  0
TEXT
  5
76
330
1F
100
AcDbEntity
  8
その他
  6
Continuous
 62
     7
370
     9
100
AcDbText
 10
52.02053920870345
 20
-67.5172369920288
 30
0.0
 40
2.286
  1
4
  7
ＭＳ ゴシック
100
AcDbText
  0
TEXT
  5
77
330
1F
100
AcDbEntity
  8
その他
  6
Continuous
 62
     7
370
     9
100
AcDbText
 10
52.02053920870345
 20
-62.61494462009686
 30
0.0
 40
2.286
  1
3
  7
ＭＳ ゴシック
100
AcDbText
  0
TEXT
  5
78
330
1F
100
AcDbEntity
  8
その他
  6
Continuous
 62
     7
370
     9
100
AcDbText
 10
42.29137434748471
 20
-72.34410948131561
 30
0.0
 40
2.286
  1
5
  7
ＭＳ ゴシック
100
AcDbText
  0
TEXT
  5
79
330
1F
100
AcDbEntity
  8
その他
  6
Continuous
 62
     7
370
     9
100
AcDbText
 10
42.44221411277495
 20
-67.5926568746739
 30
0.0
 40
2.286
  1
5
  7
ＭＳ ゴシック
100
AcDbText
  0
TEXT
  5
7A
330
1F
100
AcDbEntity
  8
その他
  6
Continuous
 62
     7
370
     9
100
AcDbText
 10
61.634134826162
 20
-56.64298704428504
 30
0.0
 40
2.286
  1
t2
 41
1.083333333333333
  7
ＭＳ ゴシック
100
AcDbText
  0
TEXT
  5
7B
330
1F
100
AcDbEntity
  8
その他
  6
Continuous
 62
     7
370
     9
100
AcDbText
 10
62.36365919786944
 20
-62.71055636808322
 30
0.0
 40
2.286
  1
4
  7
ＭＳ ゴシック
100
AcDbText
  0
TEXT
  5
7C
330
1F
100
AcDbEntity
  8
その他
  6
Continuous
 62
     7
370
     9
100
AcDbText
 10
62.24914583349711
 20
-72.62883796335366
 30
0.0
 40
2.286
  1
4
  7
ＭＳ ゴシック
100
AcDbText
  0
TEXT
  5
7D
330
1F
100
AcDbEntity
  8
その他
  6
Continuous
 62
     7
370
     9
100
AcDbText
 10
62.32186337507024
 20
-67.46589251166128
 30
0.0
 40
2.286
  1
4
  7
ＭＳ ゴシック
100
AcDbText
  0
LINE
  5
7E
330
1F
100
AcDbEntity
  8
その他
  6
Continuous
 62
     7
370
     9
100
AcDbLine
 10
-90.74431282312678
 20
-51.23718382536768
 30
0.0
 11
67.99886579983196
 21
-51.23718382536768
 31
0.0
  0
LINE
  5
7F
330
1F
100
AcDbEntity
  8
その他
  6
Continuous
 62
     7
370
     9
100
AcDbLine
 10
-90.74431282312678
 20
-58.73718382536768
 30
0.0
 11
67.99886579983196
 21
-58.73718382536768
 31
0.0
  0
LINE
  5
80
330
1F
100
AcDbEntity
  8
その他
  6
Continuous
 62
     7
370
     9
100
AcDbLine
 10
-90.74431282312678
 20
-63.73718382536768
 30
0.0
 11
67.99886579983196
 21
-63.73718382536768
 31
0.0
  0
LINE
  5
81
330
1F
100
AcDbEntity
  8
その他
  6
Continuous
 62
     7
370
     9
100
AcDbLine
 10
-90.74431282312678
 20
-68.73718382536768
 30
0.0
 11
67.99886579983196
 21
-68.73718382536768
 31
0.0
  0
LINE
  5
82
330
1F
100
AcDbEntity
  8
その他
  6
Continuous
 62
     7
370
     9
100
AcDbLine
 10
-90.74431282312678
 20
-73.73718382536768
 30
0.0
 11
67.99886579983196
 21
-73.73718382536768
 31
0.0
  0
TEXT
  5
83
330
1F
100
AcDbEntity
  8
その他
  6
Continuous
 62
     7
370
     9
100
AcDbText
 10
-90.68289107551348
 20
-48.95223965383776
 30
0.0
 40
2.286
  1
寸法表
 41
1.111111111111111
  7
ＭＳ ゴシック
100
AcDbText
  0
TEXT
  5
84
330
1F
100
AcDbEntity
  8
その他
  6
Continuous
 62
     7
370
     9
100
AcDbText
 10
46.68342364163821
 20
-49.39679083415216
 30
0.0
 40
2.286
  1
単位（ｍｍ）
 41
1.138888888888889
  7
ＭＳ ゴシック
100
AcDbText
  0
TEXT
  5
85
330
1F
100
AcDbEntity
  8
その他
  6
Continuous
 62
     7
370
     9
100
AcDbText
 10
-40.95350382706648
 20
-80.63461751806415
 30
0.0
 40
2.286
  1
＊ａ寸法に合わせて、塩ビ床シートに穴をあけてください。
 41
1.160493827160494
  7
ＭＳ ゴシック
100
AcDbText
  0
TEXT
  5
86
330
1F
100
AcDbEntity
  8
その他
  6
Continuous
 62
     7
370
     9
100
AcDbText
 10
-40.93468435460946
 20
-85.51839483023501
 30
0.0
 40
2.286
  1
＊dねじ部は管用テーパねじ(JIS B 0203)に準拠しています。
 41
1.16060606060606
  7
ＭＳ ゴシック
100
AcDbText
  0
LINE
  5
87
330
1F
100
AcDbEntity
  8
その他
  6
Continuous
 62
     7
370
    80
100
AcDbLine
 10
8.719468170959534
 20
25.29145827254325
 30
0.0
 11
8.719468170959534
 21
-13.08354172745675
 31
0.0
  0
LINE
  5
88
330
1F
100
AcDbEntity
  8
その他
  6
Continuous
 62
     7
370
    80
100
AcDbLine
 10
-21.28053182904047
 20
17.06645827254325
 30
0.0
 11
-21.28053182904047
 21
3.941458272543251
 31
0.0
  0
LINE
  5
89
330
1F
100
AcDbEntity
  8
その他
  6
Continuous
 62
     7
370
    80
100
AcDbLine
 10
38.71946817095953
 20
17.06645827254325
 30
0.0
 11
38.71946817095953
 21
3.903958272543257
 31
0.0
  0
LINE
  5
8A
330
1F
100
AcDbEntity
  8
その他
  6
Continuous
 62
     7
370
    80
100
AcDbLine
 10
-38.78053182904047
 20
22.56645827254325
 30
0.0
 11
8.719468170959534
 21
22.56645827254325
 31
0.0
  0
LINE
  5
8B
330
1F
100
AcDbEntity
  8
その他
  6
Continuous
 62
     7
370
    80
100
AcDbLine
 10
4.719468170959534
 20
17.56645827254325
 30
0.0
 11
-26.65553182904047
 21
17.56645827254325
 31
0.0
  0
ARC
  5
8C
330
1F
100
AcDbEntity
  8
その他
  6
Continuous
 62
     7
370
    80
100
AcDbCircle
 10
-25.03053182904047
 20
18.56645827254325
 30
0.0
 40
1.0
100
AcDbArc
 50
179.9999997943196
 51
269.9999996914794
  0
LINE
  5
8D
330
1F
100
AcDbEntity
  8
その他
  6
Continuous
 62
     7
370
    80
100
AcDbLine
 10
2.344468170959534
 20
19.81645827254325
 30
0.0
 11
2.344468170959534
 21
22.31645827254325
 31
0.0
  0
LINE
  5
8E
330
1F
100
AcDbEntity
  8
その他
  6
Continuous
 62
     7
370
    80
100
AcDbLine
 10
2.344468170959534
 20
22.31645827254325
 30
0.0
 11
2.094468170959534
 21
22.56645827254325
 31
0.0
  0
LINE
  5
8F
330
1F
100
AcDbEntity
  8
その他
  6
Continuous
 62
     7
370
    80
100
AcDbLine
 10
2.344468170959534
 20
19.81645827254325
 30
0.0
 11
4.719468170959534
 21
19.81645827254325
 31
0.0
  0
LINE
  5
90
330
1F
100
AcDbEntity
  8
その他
  6
Continuous
 62
     7
370
    80
100
AcDbLine
 10
4.719468170959534
 20
18.31645827254325
 30
0.0
 11
1.881968170959556
 21
18.31645827254325
 31
0.0
  0
LINE
  5
91
330
1F
100
AcDbEntity
  8
その他
  6
Continuous
 62
     7
370
    80
100
AcDbLine
 10
0.8819681709595564
 20
19.22895827254325
 30
0.0
 11
0.8444681709595336
 21
19.65395827254326
 31
0.0
  0
ARC
  5
92
330
1F
100
AcDbEntity
  8
その他
  6
Continuous
 62
     7
370
    80
100
AcDbCircle
 10
-0.1430318290404777
 20
19.56645827254325
 30
0.0
 40
1.0
100
AcDbArc
 50
4.633333328038969
 51
89.99999989715981
  0
ARC
  5
93
330
1F
100
AcDbEntity
  8
その他
  6
Continuous
 62
     7
370
    80
100
AcDbCircle
 10
1.881968170959556
 20
19.31645827254325
 30
0.0
 40
1.0
100
AcDbArc
 50
185.0111108997047
 51
269.9999996914794
  0
LINE
  5
94
330
1F
100
AcDbEntity
  8
その他
  6
Continuous
 62
     7
370
    80
100
AcDbLine
 10
-23.25553182904043
 20
19.06645827254325
 30
0.0
 11
0.8819681709595564
 21
19.06645827254325
 31
0.0
  0
ARC
  5
95
330
1F
100
AcDbEntity
  8
その他
  6
Continuous
 62
     7
370
    80
100
AcDbCircle
 10
-23.25553182904043
 20
18.06645827254325
 30
0.0
 40
1.0
100
AcDbArc
 50
89.99999989715981
 51
177.0444442421413
  0
LINE
  5
96
330
1F
100
AcDbEntity
  8
その他
  6
Continuous
 62
     7
370
    80
100
AcDbLine
 10
-26.65553182904047
 20
16.06645827254325
 30
0.0
 11
4.719468170959534
 21
16.06645827254325
 31
0.0
  0
LINE
  5
97
330
1F
100
AcDbEntity
  8
その他
  6
Continuous
 62
     7
370
    80
100
AcDbLine
 10
-26.65553182904047
 20
22.56645827254325
 30
0.0
 11
-26.65553182904047
 21
21.81645827254325
 31
0.0
  0
LINE
  5
98
330
1F
100
AcDbEntity
  8
その他
  6
Continuous
 62
     7
370
    80
100
AcDbLine
 10
-26.65553182904047
 20
21.81645827254325
 30
0.0
 11
-26.03053182904047
 21
21.81645827254325
 31
0.0
  0
LINE
  5
99
330
1F
100
AcDbEntity
  8
その他
  6
Continuous
 62
     7
370
    80
100
AcDbLine
 10
-26.03053182904047
 20
21.81645827254325
 30
0.0
 11
-26.03053182904047
 21
18.56645827254325
 31
0.0
  0
LINE
  5
9A
330
1F
100
AcDbEntity
  8
その他
  6
Continuous
 62
     7
370
    80
100
AcDbLine
 10
-0.1430318290404777
 20
20.56645827254325
 30
0.0
 11
-23.18053182904044
 21
20.56645827254325
 31
0.0
  0
ARC
  5
9B
330
1F
100
AcDbEntity
  8
その他
  6
Continuous
 62
     7
370
    80
100
AcDbCircle
 10
-23.18053182904044
 20
19.57895827254325
 30
0.0
 40
1.0
100
AcDbArc
 50
89.99999989715981
 51
177.0555553532397
  0
LINE
  5
9C
330
1F
100
AcDbEntity
  8
その他
  6
Continuous
 62
     7
370
    80
100
AcDbLine
 10
-24.28053182904047
 20
17.56645827254325
 30
0.0
 11
-24.18053182904044
 21
19.62895827254325
 31
0.0
  0
LINE
  5
9D
330
1F
100
AcDbEntity
  8
その他
  6
Continuous
 62
     7
370
    80
100
AcDbLine
 10
-38.78053182904047
 20
22.56645827254325
 30
0.0
 11
-38.78053182904047
 21
22.31645827254325
 31
0.0
  0
LINE
  5
9E
330
1F
100
AcDbEntity
  8
その他
  6
Continuous
 62
     7
370
    80
100
AcDbLine
 10
-38.78053182904047
 20
22.31645827254325
 30
0.0
 11
-34.01803182904048
 21
19.56645827254325
 31
0.0
  0
LINE
  5
9F
330
1F
100
AcDbEntity
  8
その他
  6
Continuous
 62
     7
370
    80
100
AcDbLine
 10
-29.49303182904044
 20
19.56645827254325
 30
0.0
 11
-34.01803182904048
 21
19.56645827254325
 31
0.0
  0
LINE
  5
A0
330
1F
100
AcDbEntity
  8
その他
  6
Continuous
 62
     7
370
    80
100
AcDbLine
 10
-15.60553182904045
 20
12.56645827254325
 30
0.0
 11
-19.78053182904047
 21
12.56645827254325
 31
0.0
  0
LINE
  5
A1
330
1F
100
AcDbEntity
  8
その他
  6
Continuous
 62
     7
370
    80
100
AcDbLine
 10
-22.78053182904047
 20
12.56645827254325
 30
0.0
 11
-26.83053182904048
 21
12.56645827254325
 31
0.0
  0
ARC
  5
A2
330
1F
100
AcDbEntity
  8
その他
  6
Continuous
 62
     7
370
    80
100
AcDbCircle
 10
-26.83053182904048
 20
14.06645827254325
 30
0.0
 40
1.5
100
AcDbArc
 50
181.9555553476406
 51
269.9999996914794
  0
LINE
  5
A3
330
1F
100
AcDbEntity
  8
その他
  6
Continuous
 62
     7
370
    80
100
AcDbLine
 10
-28.33053182904048
 20
14.01645827254325
 30
0.0
 11
-28.49303182904044
 21
18.60395827254325
 31
0.0
  0
ARC
  5
A4
330
1F
100
AcDbEntity
  8
その他
  6
Continuous
 62
     7
370
    80
100
AcDbCircle
 10
-29.49303182904044
 20
18.56645827254325
 30
0.0
 40
1.0
100
AcDbArc
 50
2.011111108813077
 51
89.99999989715981
  0
LINE
  5
A5
330
1F
100
AcDbEntity
  8
その他
  6
Continuous
 62
     7
370
    80
100
AcDbLine
 10
-26.78053182904047
 20
22.56645827254325
 30
0.0
 11
-26.78053182904047
 21
21.06645827254325
 31
0.0
  0
LINE
  5
A6
330
1F
100
AcDbEntity
  8
その他
  6
Continuous
 62
     7
370
    80
100
AcDbLine
 10
-26.78053182904047
 20
21.06645827254325
 30
0.0
 11
-26.15553182904047
 21
21.06645827254325
 31
0.0
  0
LINE
  5
A7
330
1F
100
AcDbEntity
  8
その他
  6
Continuous
 62
     7
370
    80
100
AcDbLine
 10
-26.15553182904047
 20
21.06645827254325
 30
0.0
 11
-26.15553182904047
 21
17.81645827254325
 31
0.0
  0
LINE
  5
A8
330
1F
100
AcDbEntity
  8
その他
  6
Continuous
 62
     7
370
    80
100
AcDbLine
 10
-26.15553182904047
 20
17.81645827254325
 30
0.0
 11
-26.65553182904047
 21
17.81645827254325
 31
0.0
  0
LINE
  5
A9
330
1F
100
AcDbEntity
  8
その他
  6
Continuous
 62
     7
370
    80
100
AcDbLine
 10
-26.65553182904047
 20
17.81645827254325
 30
0.0
 11
-26.65553182904047
 21
16.06645827254325
 31
0.0
  0
LINE
  5
AA
330
1F
100
AcDbEntity
  8
その他
  6
Continuous
 62
     7
370
    80
100
AcDbLine
 10
-16.35553182904045
 20
15.19145827254325
 30
0.0
 11
-16.35553182904045
 21
12.56645827254325
 31
0.0
  0
LINE
  5
AB
330
1F
100
AcDbEntity
  8
その他
  6
Continuous
 62
     7
370
    80
100
AcDbLine
 10
-16.35553182904045
 20
12.81645827254325
 30
0.0
 11
-15.60553182904045
 21
12.06645827254325
 31
0.0
  0
LINE
  5
AC
330
1F
100
AcDbEntity
  8
その他
  6
Continuous
 62
     7
370
    80
100
AcDbLine
 10
-15.60553182904045
 20
12.06645827254325
 30
0.0
 11
-15.60553182904045
 21
14.44145827254325
 31
0.0
  0
LINE
  5
AD
330
1F
100
AcDbEntity
  8
その他
  6
Continuous
 62
     7
370
    80
100
AcDbLine
 10
-15.60553182904045
 20
14.44145827254325
 30
0.0
 11
-16.35553182904045
 21
15.19145827254325
 31
0.0
  0
LINE
  5
AE
330
1F
100
AcDbEntity
  8
その他
  6
Continuous
 62
     7
370
    80
100
AcDbLine
 10
-17.03053182904047
 20
15.19145827254325
 30
0.0
 11
-16.35553182904045
 21
15.19145827254325
 31
0.0
  0
LINE
  5
AF
330
1F
100
AcDbEntity
  8
その他
  6
Continuous
 62
     7
370
    80
100
AcDbLine
 10
-17.03053182904047
 20
16.06645827254325
 30
0.0
 11
-17.03053182904047
 21
15.19145827254325
 31
0.0
  0
LINE
  5
B0
330
1F
100
AcDbEntity
  8
その他
  6
Continuous
 62
     7
370
    80
100
AcDbLine
 10
-16.65553182904047
 20
16.06645827254325
 30
0.0
 11
-16.65553182904047
 21
15.31645827254325
 31
0.0
  0
LINE
  5
B1
330
1F
100
AcDbEntity
  8
その他
  6
Continuous
 62
     7
370
    80
100
AcDbLine
 10
-15.53053182904047
 20
15.31645827254325
 30
0.0
 11
-16.65553182904047
 21
15.31645827254325
 31
0.0
  0
LINE
  5
B2
330
1F
100
AcDbEntity
  8
その他
  6
Continuous
 62
     7
370
    80
100
AcDbLine
 10
-15.53053182904047
 20
15.31645827254325
 30
0.0
 11
-15.53053182904047
 21
14.06645827254325
 31
0.0
  0
LINE
  5
B3
330
1F
100
AcDbEntity
  8
その他
  6
Continuous
 62
     7
370
    80
100
AcDbLine
 10
-15.53053182904047
 20
14.06645827254325
 30
0.0
 11
-16.35553182904045
 21
14.06645827254325
 31
0.0
  0
LINE
  5
B4
330
1F
100
AcDbEntity
  8
その他
  6
Continuous
 62
     7
370
    80
100
AcDbLine
 10
-15.23053182904045
 20
12.06645827254325
 30
0.0
 11
-15.60553182904045
 21
12.06645827254325
 31
0.0
  0
LINE
  5
B5
330
1F
100
AcDbEntity
  8
その他
  6
Continuous
 62
     7
370
    80
100
AcDbLine
 10
6.219468170959534
 20
9.816458272543251
 30
0.0
 11
-12.58053182904048
 21
9.816458272543251
 31
0.0
  0
ARC
  5
B6
330
1F
100
AcDbEntity
  8
その他
  6
Continuous
 62
     7
370
    80
100
AcDbCircle
 10
-12.58053182904048
 20
10.31645827254325
 30
0.0
 40
0.5
100
AcDbArc
 50
185.9666664541684
 51
269.9999996914795
  0
LINE
  5
B7
330
1F
100
AcDbEntity
  8
その他
  6
Continuous
 62
     7
370
    80
100
AcDbLine
 10
-13.08053182904048
 20
10.26645827254325
 30
0.0
 11
-13.64303182904048
 21
15.61645827254325
 31
0.0
  0
ARC
  5
B8
330
1F
100
AcDbEntity
  8
その他
  6
Continuous
 62
     7
370
    80
100
AcDbCircle
 10
-14.14303182904048
 20
15.56645827254325
 30
0.0
 40
0.5
100
AcDbArc
 50
6.011111104242402
 51
89.99999989715981
  0
LINE
  5
B9
330
1F
100
AcDbEntity
  8
その他
  6
Continuous
 62
     7
370
    80
100
AcDbLine
 10
-14.73053182904045
 20
11.61645827254325
 30
0.0
 11
-14.38053182904043
 21
8.278958272543257
 31
0.0
  0
ARC
  5
BA
330
1F
100
AcDbEntity
  8
その他
  6
Continuous
 62
     7
370
    80
100
AcDbCircle
 10
-15.23053182904045
 20
11.56645827254325
 30
0.0
 40
0.5
100
AcDbArc
 50
5.999999993143987
 51
89.99999989715981
  0
LINE
  5
BB
330
1F
100
AcDbEntity
  8
その他
  6
Continuous
 62
     7
370
    80
100
AcDbLine
 10
-13.88053182904043
 20
7.816458272543251
 30
0.0
 11
3.081968170959545
 21
7.816458272543251
 31
0.0
  0
ARC
  5
BC
330
1F
100
AcDbEntity
  8
その他
  6
Continuous
 62
     7
370
    80
100
AcDbCircle
 10
-13.88053182904043
 20
8.328958272543254
 30
0.0
 40
0.5
100
AcDbArc
 50
185.9444442319715
 51
269.9999996914794
  0
LINE
  5
BD
330
1F
100
AcDbEntity
  8
その他
  6
Continuous
 62
     7
370
    80
100
AcDbLine
 10
-23.28053182904047
 20
15.06645827254325
 30
0.0
 11
-23.28053182904047
 21
12.56645827254325
 31
0.0
  0
LINE
  5
BE
330
1F
100
AcDbEntity
  8
その他
  6
Continuous
 62
     7
370
    80
100
AcDbLine
 10
-19.28053182904047
 20
12.56645827254325
 30
0.0
 11
-19.28053182904047
 21
15.06645827254325
 31
0.0
  0
LINE
  5
BF
330
1F
100
AcDbEntity
  8
その他
  6
Continuous
 62
     7
370
    80
100
AcDbLine
 10
-20.08053182904048
 20
14.26645827254325
 30
0.0
 11
-18.28053182904047
 21
16.06645827254325
 31
0.0
  0
LINE
  5
C0
330
1F
100
AcDbEntity
  8
その他
  6
Continuous
 62
     7
370
    80
100
AcDbLine
 10
-22.48053182904045
 20
14.26645827254325
 30
0.0
 11
-24.28053182904047
 21
16.06645827254325
 31
0.0
  0
LINE
  5
C1
330
1F
100
AcDbEntity
  8
その他
  6
Continuous
 62
     7
370
    80
100
AcDbLine
 10
-22.78053182904047
 20
14.56645827254325
 30
0.0
 11
-22.78053182904047
 21
6.578958272543254
 31
0.0
  0
LINE
  5
C2
330
1F
100
AcDbEntity
  8
その他
  6
Continuous
 62
     7
370
    80
100
AcDbLine
 10
-19.78053182904047
 20
14.56645827254325
 30
0.0
 11
-19.78053182904047
 21
6.578958272543254
 31
0.0
  0
LINE
  5
C3
330
1F
100
AcDbEntity
  8
その他
  6
Continuous
 62
     7
370
    80
100
AcDbLine
 10
-22.78053182904047
 20
8.566458272543251
 30
0.0
 11
-22.28053182904047
 21
8.066458272543251
 31
0.0
  0
LINE
  5
C4
330
1F
100
AcDbEntity
  8
その他
  6
Continuous
 62
     7
370
    80
100
AcDbLine
 10
-19.78053182904047
 20
8.566458272543251
 30
0.0
 11
-20.28053182904047
 21
8.066458272543251
 31
0.0
  0
LINE
  5
C5
330
1F
100
AcDbEntity
  8
その他
  6
Continuous
 62
     7
370
    80
100
AcDbLine
 10
-20.28053182904047
 20
8.066458272543251
 30
0.0
 11
-22.28053182904047
 21
8.066458272543251
 31
0.0
  0
LINE
  5
C6
330
1F
100
AcDbEntity
  8
その他
  6
Continuous
 62
     7
370
    80
100
AcDbLine
 10
-19.78053182904047
 20
8.566458272543251
 30
0.0
 11
-22.78053182904047
 21
8.566458272543251
 31
0.0
  0
LINE
  5
C7
330
1F
100
AcDbEntity
  8
その他
  6
Continuous
 62
     7
370
    80
100
AcDbLine
 10
-22.48053182904045
 20
14.26645827254325
 30
0.0
 11
-22.48053182904045
 21
8.266458272543254
 31
0.0
  0
LINE
  5
C8
330
1F
100
AcDbEntity
  8
その他
  6
Continuous
 62
     7
370
    80
100
AcDbLine
 10
-20.08053182904048
 20
14.26645827254325
 30
0.0
 11
-20.08053182904048
 21
8.266458272543254
 31
0.0
  0
LINE
  5
C9
330
1F
100
AcDbEntity
  8
その他
  6
Continuous
 62
     7
370
    80
100
AcDbLine
 10
-24.28053182904047
 20
17.56645827254325
 30
0.0
 11
-24.28053182904047
 21
16.06645827254325
 31
0.0
  0
LINE
  5
CA
330
1F
100
AcDbEntity
  8
その他
  6
Continuous
 62
     7
370
    80
100
AcDbLine
 10
-22.78053182904047
 20
14.56645827254325
 30
0.0
 11
-19.78053182904047
 21
14.56645827254325
 31
0.0
  0
LINE
  5
CB
330
1F
100
AcDbEntity
  8
その他
  6
Continuous
 62
     7
370
    80
100
AcDbLine
 10
-22.48053182904045
 20
14.26645827254325
 30
0.0
 11
-20.08053182904048
 21
14.26645827254325
 31
0.0
  0
LINE
  5
CC
330
1F
100
AcDbEntity
  8
その他
  6
Continuous
 62
     7
370
    80
100
AcDbLine
 10
-2.030531829040466
 20
9.816458272543251
 30
0.0
 11
-2.205531829040478
 21
7.816458272543251
 31
0.0
  0
LINE
  5
CD
330
1F
100
AcDbEntity
  8
その他
  6
Continuous
 62
     7
370
    80
100
AcDbLine
 10
-3.530531829040466
 20
9.816458272543251
 30
0.0
 11
-3.355531829040455
 21
7.816458272543251
 31
0.0
  0
LINE
  5
CE
330
1F
100
AcDbEntity
  8
その他
  6
Continuous
 62
     7
370
    80
100
AcDbLine
 10
-7.280531829040466
 20
9.816458272543251
 30
0.0
 11
-7.455531829040478
 21
7.816458272543251
 31
0.0
  0
LINE
  5
CF
330
1F
100
AcDbEntity
  8
その他
  6
Continuous
 62
     7
370
    80
100
AcDbLine
 10
-8.780531829040466
 20
9.816458272543251
 30
0.0
 11
-8.605531829040455
 21
7.816458272543251
 31
0.0
  0
LINE
  5
D0
330
1F
100
AcDbEntity
  8
その他
  6
Continuous
 62
     7
370
    80
100
AcDbLine
 10
-12.53053182904047
 20
9.816458272543251
 30
0.0
 11
-12.70553182904048
 21
7.816458272543251
 31
0.0
  0
LINE
  5
D1
330
1F
100
AcDbEntity
  8
その他
  6
Continuous
 62
     7
370
    80
100
AcDbLine
 10
6.094468170959534
 20
5.816458272543251
 30
0.0
 11
4.181968170959568
 21
5.816458272543251
 31
0.0
  0
ARC
  5
D2
330
1F
100
AcDbEntity
  8
その他
  6
Continuous
 62
     7
370
    80
100
AcDbCircle
 10
4.181968170959568
 20
6.316458272543251
 30
0.0
 40
0.5
100
AcDbArc
 50
184.9999997886063
 51
269.9999996914794
  0
LINE
  5
D3
330
1F
100
AcDbEntity
  8
その他
  6
Continuous
 62
     7
370
    80
100
AcDbLine
 10
3.681968170959568
 20
6.278958272543257
 30
0.0
 11
3.581968170959545
 21
7.353958272543245
 31
0.0
  0
ARC
  5
D4
330
1F
100
AcDbEntity
  8
その他
  6
Continuous
 62
     7
370
    80
100
AcDbCircle
 10
3.081968170959545
 20
7.316458272543251
 30
0.0
 40
0.5
100
AcDbArc
 50
4.999999994286657
 51
89.99999989715982
  0
LINE
  5
D5
330
1F
100
AcDbEntity
  8
その他
  6
Continuous
 62
     7
370
    80
100
AcDbLine
 10
1.856968170959522
 20
9.816458272543251
 30
0.0
 11
2.031968170959534
 21
7.816458272543251
 31
0.0
  0
LINE
  5
D6
330
1F
100
AcDbEntity
  8
その他
  6
Continuous
 62
     7
370
    80
100
AcDbLine
 10
-36.61803182904045
 20
21.06645827254325
 30
0.0
 11
-43.78053182904047
 21
21.06645827254325
 31
0.0
  0
LINE
  5
D7
330
1F
100
AcDbEntity
  8
その他
  6
Continuous
 62
     7
370
    80
100
AcDbLine
 10
-39.53053182904047
 20
21.06645827254325
 30
0.0
 11
-29.51803182904048
 21
15.27895827254326
 31
0.0
  0
LINE
  5
D8
330
1F
100
AcDbEntity
  8
その他
  6
Continuous
 62
     7
370
    80
100
AcDbLine
 10
-29.51803182904048
 20
15.27895827254326
 30
0.0
 11
-29.34303182904047
 21
11.99145827254325
 31
0.0
  0
LINE
  5
D9
330
1F
100
AcDbEntity
  8
その他
  6
Continuous
 62
     7
370
    80
100
AcDbLine
 10
-14.61803182904044
 20
10.57895827254325
 30
0.0
 11
-20.08053182904048
 21
10.57895827254325
 31
0.0
  0
LINE
  5
DA
330
1F
100
AcDbEntity
  8
その他
  6
Continuous
 62
     7
370
    80
100
AcDbLine
 10
-22.48053182904045
 20
10.57895827254325
 30
0.0
 11
-27.84303182904047
 21
10.57895827254325
 31
0.0
  0
ARC
  5
DB
330
1F
100
AcDbEntity
  8
その他
  6
Continuous
 62
     7
370
    80
100
AcDbCircle
 10
-27.84303182904047
 20
12.07895827254325
 30
0.0
 40
1.5
100
AcDbArc
 50
183.01111090199
 51
269.9999996914794
  0
LINE
  5
DC
330
1F
100
AcDbEntity
  8
その他
  6
Continuous
 62
     7
370
    80
100
AcDbLine
 10
-29.51803182904048
 20
15.27895827254326
 30
0.0
 11
-28.41803182904045
 21
15.27895827254326
 31
0.0
  0
LINE
  5
DD
330
1F
100
AcDbEntity
  8
その他
  6
Continuous
 62
     7
370
    80
100
AcDbLine
 10
-19.78053182904047
 20
6.578958272543254
 30
0.0
 11
-22.78053182904047
 21
6.578958272543254
 31
0.0
  0
LINE
  5
DE
330
1F
100
AcDbEntity
  8
その他
  6
Continuous
 62
     7
370
    80
100
AcDbLine
 10
-22.48053182904045
 20
3.778958272543257
 30
0.0
 11
-22.48053182904045
 21
8.266458272543254
 31
0.0
  0
LINE
  5
DF
330
1F
100
AcDbEntity
  8
その他
  6
Continuous
 62
     7
370
    80
100
AcDbLine
 10
-20.08053182904048
 20
8.266458272543254
 30
0.0
 11
-20.08053182904048
 21
4.066458272543251
 31
0.0
  0
LINE
  5
E0
330
1F
100
AcDbEntity
  8
その他
  6
Continuous
 62
     7
370
    80
100
AcDbLine
 10
-22.78053182904047
 20
6.578958272543254
 30
0.0
 11
-22.48053182904045
 21
6.278958272543257
 31
0.0
  0
LINE
  5
E1
330
1F
100
AcDbEntity
  8
その他
  6
Continuous
 62
     7
370
    80
100
AcDbLine
 10
-19.78053182904047
 20
6.578958272543254
 30
0.0
 11
-20.08053182904048
 21
6.278958272543257
 31
0.0
  0
LINE
  5
E2
330
1F
100
AcDbEntity
  8
その他
  6
Continuous
 62
     7
370
    80
100
AcDbLine
 10
56.21946817095953
 20
22.56645827254325
 30
0.0
 11
8.719468170959534
 21
22.56645827254325
 31
0.0
  0
LINE
  5
E3
330
1F
100
AcDbEntity
  8
その他
  6
Continuous
 62
     7
370
    80
100
AcDbLine
 10
12.71946817095953
 20
17.56645827254325
 30
0.0
 11
44.09446817095953
 21
17.56645827254325
 31
0.0
  0
ARC
  5
E4
330
1F
100
AcDbEntity
  8
その他
  6
Continuous
 62
     7
370
    80
100
AcDbCircle
 10
42.46946817095953
 20
18.56645827254325
 30
0.0
 40
1.0
100
AcDbArc
 50
269.9999996914794
 51
359.9999995886392
  0
LINE
  5
E5
330
1F
100
AcDbEntity
  8
その他
  6
Continuous
 62
     7
370
    80
100
AcDbLine
 10
15.09446817095953
 20
19.81645827254325
 30
0.0
 11
15.09446817095953
 21
22.31645827254325
 31
0.0
  0
LINE
  5
E6
330
1F
100
AcDbEntity
  8
その他
  6
Continuous
 62
     7
370
    80
100
AcDbLine
 10
15.09446817095953
 20
22.31645827254325
 30
0.0
 11
15.34446817095953
 21
22.56645827254325
 31
0.0
  0
LINE
  5
E7
330
1F
100
AcDbEntity
  8
その他
  6
Continuous
 62
     7
370
    80
100
AcDbLine
 10
15.09446817095953
 20
19.81645827254325
 30
0.0
 11
12.71946817095953
 21
19.81645827254325
 31
0.0
  0
LINE
  5
E8
330
1F
100
AcDbEntity
  8
その他
  6
Continuous
 62
     7
370
    80
100
AcDbLine
 10
12.71946817095953
 20
18.31645827254325
 30
0.0
 11
15.55696817095957
 21
18.31645827254325
 31
0.0
  0
LINE
  5
E9
330
1F
100
AcDbEntity
  8
その他
  6
Continuous
 62
     7
370
    80
100
AcDbLine
 10
16.55696817095957
 20
19.22895827254325
 30
0.0
 11
16.58196817095955
 21
19.65395827254326
 31
0.0
  0
ARC
  5
EA
330
1F
100
AcDbEntity
  8
その他
  6
Continuous
 62
     7
370
    80
100
AcDbCircle
 10
17.58196817095955
 20
19.56645827254325
 30
0.0
 40
1.0
100
AcDbArc
 50
89.99999989715981
 51
175.3666664662806
  0
ARC
  5
EB
330
1F
100
AcDbEntity
  8
その他
  6
Continuous
 62
     7
370
    80
100
AcDbCircle
 10
15.55696817095957
 20
19.31645827254325
 30
0.0
 40
1.0
100
AcDbArc
 50
269.9999996914794
 51
354.9888884832542
  0
LINE
  5
EC
330
1F
100
AcDbEntity
  8
その他
  6
Continuous
 62
     7
370
    80
100
AcDbLine
 10
40.68196817095956
 20
19.06645827254325
 30
0.0
 11
16.55696817095957
 21
19.06645827254325
 31
0.0
  0
ARC
  5
ED
330
1F
100
AcDbEntity
  8
その他
  6
Continuous
 62
     7
370
    80
100
AcDbCircle
 10
40.68196817095956
 20
18.06645827254325
 30
0.0
 40
1.0
100
AcDbArc
 50
2.955555552178335
 51
89.99999989715981
  0
LINE
  5
EE
330
1F
100
AcDbEntity
  8
その他
  6
Continuous
 62
     7
370
    80
100
AcDbLine
 10
44.09446817095953
 20
16.06645827254325
 30
0.0
 11
12.71946817095953
 21
16.06645827254325
 31
0.0
  0
LINE
  5
EF
330
1F
100
AcDbEntity
  8
その他
  6
Continuous
 62
     7
370
    80
100
AcDbLine
 10
44.09446817095953
 20
22.56645827254325
 30
0.0
 11
44.09446817095953
 21
21.81645827254325
 31
0.0
  0
LINE
  5
F0
330
1F
100
AcDbEntity
  8
その他
  6
Continuous
 62
     7
370
    80
100
AcDbLine
 10
44.09446817095953
 20
21.81645827254325
 30
0.0
 11
43.46946817095953
 21
21.81645827254325
 31
0.0
  0
LINE
  5
F1
330
1F
100
AcDbEntity
  8
その他
  6
Continuous
 62
     7
370
    80
100
AcDbLine
 10
43.46946817095953
 20
21.81645827254325
 30
0.0
 11
43.46946817095953
 21
18.56645827254325
 31
0.0
  0
LINE
  5
F2
330
1F
100
AcDbEntity
  8
その他
  6
Continuous
 62
     7
370
    80
100
AcDbLine
 10
17.58196817095955
 20
20.56645827254325
 30
0.0
 11
40.60696817095952
 21
20.56645827254325
 31
0.0
  0
ARC
  5
F3
330
1F
100
AcDbEntity
  8
その他
  6
Continuous
 62
     7
370
    80
100
AcDbCircle
 10
40.60696817095952
 20
19.57895827254325
 30
0.0
 40
1.0
100
AcDbArc
 50
2.94444444107992
 51
89.99999989715981
  0
LINE
  5
F4
330
1F
100
AcDbEntity
  8
その他
  6
Continuous
 62
     7
370
    80
100
AcDbLine
 10
41.71946817095953
 20
17.56645827254325
 30
0.0
 11
41.60696817095952
 21
19.62895827254325
 31
0.0
  0
LINE
  5
F5
330
1F
100
AcDbEntity
  8
その他
  6
Continuous
 62
     7
370
    80
100
AcDbLine
 10
56.21946817095953
 20
22.56645827254325
 30
0.0
 11
56.21946817095953
 21
22.31645827254325
 31
0.0
  0
LINE
  5
F6
330
1F
100
AcDbEntity
  8
その他
  6
Continuous
 62
     7
370
    80
100
AcDbLine
 10
56.21946817095953
 20
22.31645827254325
 30
0.0
 11
51.45696817095954
 21
19.56645827254325
 31
0.0
  0
LINE
  5
F7
330
1F
100
AcDbEntity
  8
その他
  6
Continuous
 62
     7
370
    80
100
AcDbLine
 10
46.91946817095952
 20
19.56645827254325
 30
0.0
 11
51.45696817095954
 21
19.56645827254325
 31
0.0
  0
LINE
  5
F8
330
1F
100
AcDbEntity
  8
その他
  6
Continuous
 62
     7
370
    80
100
AcDbLine
 10
33.04446817095952
 20
12.56645827254325
 30
0.0
 11
37.21946817095953
 21
12.56645827254325
 31
0.0
  0
LINE
  5
F9
330
1F
100
AcDbEntity
  8
その他
  6
Continuous
 62
     7
370
    80
100
AcDbLine
 10
40.21946817095953
 20
12.56645827254325
 30
0.0
 11
44.25696817095955
 21
12.56645827254325
 31
0.0
  0
ARC
  5
FA
330
1F
100
AcDbEntity
  8
その他
  6
Continuous
 62
     7
370
    80
100
AcDbCircle
 10
44.25696817095955
 20
14.06645827254325
 30
0.0
 40
1.5
100
AcDbArc
 50
269.9999996914794
 51
358.0444440353182
  0
LINE
  5
FB
330
1F
100
AcDbEntity
  8
その他
  6
Continuous
 62
     7
370
    80
100
AcDbLine
 10
45.75696817095955
 20
14.01645827254325
 30
0.0
 11
45.91946817095952
 21
18.60395827254325
 31
0.0
  0
ARC
  5
FC
330
1F
100
AcDbEntity
  8
その他
  6
Continuous
 62
     7
370
    80
100
AcDbCircle
 10
46.91946817095952
 20
18.56645827254325
 30
0.0
 40
1.0
100
AcDbArc
 50
89.99999989715981
 51
177.9888886855065
  0
LINE
  5
FD
330
1F
100
AcDbEntity
  8
その他
  6
Continuous
 62
     7
370
    80
100
AcDbLine
 10
44.21946817095953
 20
22.56645827254325
 30
0.0
 11
44.21946817095953
 21
21.06645827254325
 31
0.0
  0
LINE
  5
FE
330
1F
100
AcDbEntity
  8
その他
  6
Continuous
 62
     7
370
    80
100
AcDbLine
 10
44.21946817095953
 20
21.06645827254325
 30
0.0
 11
43.59446817095953
 21
21.06645827254325
 31
0.0
  0
LINE
  5
FF
330
1F
100
AcDbEntity
  8
その他
  6
Continuous
 62
     7
370
    80
100
AcDbLine
 10
43.59446817095953
 20
21.06645827254325
 30
0.0
 11
43.59446817095953
 21
17.81645827254325
 31
0.0
  0
LINE
  5
100
330
1F
100
AcDbEntity
  8
その他
  6
Continuous
 62
     7
370
    80
100
AcDbLine
 10
43.59446817095953
 20
17.81645827254325
 30
0.0
 11
44.09446817095953
 21
17.81645827254325
 31
0.0
  0
LINE
  5
101
330
1F
100
AcDbEntity
  8
その他
  6
Continuous
 62
     7
370
    80
100
AcDbLine
 10
44.09446817095953
 20
17.81645827254325
 30
0.0
 11
44.09446817095953
 21
16.06645827254325
 31
0.0
  0
LINE
  5
102
330
1F
100
AcDbEntity
  8
その他
  6
Continuous
 62
     7
370
    80
100
AcDbLine
 10
33.79446817095952
 20
15.19145827254325
 30
0.0
 11
33.79446817095952
 21
12.56645827254325
 31
0.0
  0
LINE
  5
103
330
1F
100
AcDbEntity
  8
その他
  6
Continuous
 62
     7
370
    80
100
AcDbLine
 10
33.79446817095952
 20
12.81645827254325
 30
0.0
 11
33.04446817095952
 21
12.06645827254325
 31
0.0
  0
LINE
  5
104
330
1F
100
AcDbEntity
  8
その他
  6
Continuous
 62
     7
370
    80
100
AcDbLine
 10
33.04446817095952
 20
12.06645827254325
 30
0.0
 11
33.04446817095952
 21
14.44145827254325
 31
0.0
  0
LINE
  5
105
330
1F
100
AcDbEntity
  8
その他
  6
Continuous
 62
     7
370
    80
100
AcDbLine
 10
33.04446817095952
 20
14.44145827254325
 30
0.0
 11
33.79446817095952
 21
15.19145827254325
 31
0.0
  0
LINE
  5
106
330
1F
100
AcDbEntity
  8
その他
  6
Continuous
 62
     7
370
    80
100
AcDbLine
 10
34.46946817095953
 20
15.19145827254325
 30
0.0
 11
33.79446817095952
 21
15.19145827254325
 31
0.0
  0
LINE
  5
107
330
1F
100
AcDbEntity
  8
その他
  6
Continuous
 62
     7
370
    80
100
AcDbLine
 10
34.46946817095953
 20
16.06645827254325
 30
0.0
 11
34.46946817095953
 21
15.19145827254325
 31
0.0
  0
LINE
  5
108
330
1F
100
AcDbEntity
  8
その他
  6
Continuous
 62
     7
370
    80
100
AcDbLine
 10
34.09446817095953
 20
16.06645827254325
 30
0.0
 11
34.09446817095953
 21
15.31645827254325
 31
0.0
  0
LINE
  5
109
330
1F
100
AcDbEntity
  8
その他
  6
Continuous
 62
     7
370
    80
100
AcDbLine
 10
32.96946817095953
 20
15.31645827254325
 30
0.0
 11
34.09446817095953
 21
15.31645827254325
 31
0.0
  0
LINE
  5
10A
330
1F
100
AcDbEntity
  8
その他
  6
Continuous
 62
     7
370
    80
100
AcDbLine
 10
32.96946817095953
 20
15.31645827254325
 30
0.0
 11
32.96946817095953
 21
14.06645827254325
 31
0.0
  0
LINE
  5
10B
330
1F
100
AcDbEntity
  8
その他
  6
Continuous
 62
     7
370
    80
100
AcDbLine
 10
32.96946817095953
 20
14.06645827254325
 30
0.0
 11
33.79446817095952
 21
14.06645827254325
 31
0.0
  0
LINE
  5
10C
330
1F
100
AcDbEntity
  8
その他
  6
Continuous
 62
     7
370
    80
100
AcDbLine
 10
32.65696817095953
 20
12.06645827254325
 30
0.0
 11
33.04446817095952
 21
12.06645827254325
 31
0.0
  0
LINE
  5
10D
330
1F
100
AcDbEntity
  8
その他
  6
Continuous
 62
     7
370
    80
100
AcDbLine
 10
11.21946817095953
 20
9.816458272543251
 30
0.0
 11
30.00696817095956
 21
9.816458272543251
 31
0.0
  0
ARC
  5
10E
330
1F
100
AcDbEntity
  8
その他
  6
Continuous
 62
     7
370
    80
100
AcDbCircle
 10
30.00696817095956
 20
10.31645827254325
 30
0.0
 40
0.5
100
AcDbArc
 50
269.9999996914794
 51
354.0333329287905
  0
LINE
  5
10F
330
1F
100
AcDbEntity
  8
その他
  6
Continuous
 62
     7
370
    80
100
AcDbLine
 10
30.50696817095956
 20
10.26645827254325
 30
0.0
 11
31.06946817095956
 21
15.61645827254325
 31
0.0
  0
ARC
  5
110
330
1F
100
AcDbEntity
  8
その他
  6
Continuous
 62
     7
370
    80
100
AcDbCircle
 10
31.56946817095956
 20
15.56645827254325
 30
0.0
 40
0.5
100
AcDbArc
 50
89.99999989715981
 51
173.9888886900772
  0
LINE
  5
111
330
1F
100
AcDbEntity
  8
その他
  6
Continuous
 62
     7
370
    80
100
AcDbLine
 10
32.15696817095953
 20
11.61645827254325
 30
0.0
 11
31.80696817095957
 21
8.278958272543257
 31
0.0
  0
ARC
  5
112
330
1F
100
AcDbEntity
  8
その他
  6
Continuous
 62
     7
370
    80
100
AcDbCircle
 10
32.65696817095953
 20
11.56645827254325
 30
0.0
 40
0.5
100
AcDbArc
 50
89.99999989715981
 51
173.9999998011756
  0
LINE
  5
113
330
1F
100
AcDbEntity
  8
その他
  6
Continuous
 62
     7
370
    80
100
AcDbLine
 10
31.30696817095957
 20
7.816458272543251
 30
0.0
 11
14.34446817095953
 21
7.816458272543251
 31
0.0
  0
ARC
  5
114
330
1F
100
AcDbEntity
  8
その他
  6
Continuous
 62
     7
370
    80
100
AcDbCircle
 10
31.30696817095957
 20
8.328958272543254
 30
0.0
 40
0.5
100
AcDbArc
 50
269.9999996914794
 51
354.0555551509873
  0
LINE
  5
115
330
1F
100
AcDbEntity
  8
その他
  6
Continuous
 62
     7
370
    80
100
AcDbLine
 10
40.71946817095953
 20
15.06645827254325
 30
0.0
 11
40.71946817095953
 21
12.56645827254325
 31
0.0
  0
LINE
  5
116
330
1F
100
AcDbEntity
  8
その他
  6
Continuous
 62
     7
370
    80
100
AcDbLine
 10
36.71946817095953
 20
12.56645827254325
 30
0.0
 11
36.71946817095953
 21
15.06645827254325
 31
0.0
  0
LINE
  5
117
330
1F
100
AcDbEntity
  8
その他
  6
Continuous
 62
     7
370
    80
100
AcDbLine
 10
37.51946817095954
 20
14.26645827254325
 30
0.0
 11
35.71946817095953
 21
16.06645827254325
 31
0.0
  0
LINE
  5
118
330
1F
100
AcDbEntity
  8
その他
  6
Continuous
 62
     7
370
    80
100
AcDbLine
 10
39.91946817095952
 20
14.26645827254325
 30
0.0
 11
41.71946817095953
 21
16.06645827254325
 31
0.0
  0
LINE
  5
119
330
1F
100
AcDbEntity
  8
その他
  6
Continuous
 62
     7
370
    80
100
AcDbLine
 10
40.21946817095953
 20
14.56645827254325
 30
0.0
 11
40.21946817095953
 21
6.578958272543254
 31
0.0
  0
LINE
  5
11A
330
1F
100
AcDbEntity
  8
その他
  6
Continuous
 62
     7
370
    80
100
AcDbLine
 10
37.21946817095953
 20
14.56645827254325
 30
0.0
 11
37.21946817095953
 21
6.578958272543254
 31
0.0
  0
LINE
  5
11B
330
1F
100
AcDbEntity
  8
その他
  6
Continuous
 62
     7
370
    80
100
AcDbLine
 10
40.21946817095953
 20
8.566458272543251
 30
0.0
 11
39.71946817095953
 21
8.066458272543251
 31
0.0
  0
LINE
  5
11C
330
1F
100
AcDbEntity
  8
その他
  6
Continuous
 62
     7
370
    80
100
AcDbLine
 10
37.21946817095953
 20
8.566458272543251
 30
0.0
 11
37.71946817095953
 21
8.066458272543251
 31
0.0
  0
LINE
  5
11D
330
1F
100
AcDbEntity
  8
その他
  6
Continuous
 62
     7
370
    80
100
AcDbLine
 10
37.71946817095953
 20
8.066458272543251
 30
0.0
 11
39.71946817095953
 21
8.066458272543251
 31
0.0
  0
LINE
  5
11E
330
1F
100
AcDbEntity
  8
その他
  6
Continuous
 62
     7
370
    80
100
AcDbLine
 10
37.21946817095953
 20
8.566458272543251
 30
0.0
 11
40.21946817095953
 21
8.566458272543251
 31
0.0
  0
LINE
  5
11F
330
1F
100
AcDbEntity
  8
その他
  6
Continuous
 62
     7
370
    80
100
AcDbLine
 10
39.91946817095952
 20
14.26645827254325
 30
0.0
 11
39.91946817095952
 21
8.266458272543254
 31
0.0
  0
LINE
  5
120
330
1F
100
AcDbEntity
  8
その他
  6
Continuous
 62
     7
370
    80
100
AcDbLine
 10
37.51946817095954
 20
14.26645827254325
 30
0.0
 11
37.51946817095954
 21
8.266458272543254
 31
0.0
  0
LINE
  5
121
330
1F
100
AcDbEntity
  8
その他
  6
Continuous
 62
     7
370
    80
100
AcDbLine
 10
41.71946817095953
 20
17.56645827254325
 30
0.0
 11
41.71946817095953
 21
16.06645827254325
 31
0.0
  0
LINE
  5
122
330
1F
100
AcDbEntity
  8
その他
  6
Continuous
 62
     7
370
    80
100
AcDbLine
 10
40.21946817095953
 20
14.56645827254325
 30
0.0
 11
37.21946817095953
 21
14.56645827254325
 31
0.0
  0
LINE
  5
123
330
1F
100
AcDbEntity
  8
その他
  6
Continuous
 62
     7
370
    80
100
AcDbLine
 10
39.91946817095952
 20
14.26645827254325
 30
0.0
 11
37.51946817095954
 21
14.26645827254325
 31
0.0
  0
LINE
  5
124
330
1F
100
AcDbEntity
  8
その他
  6
Continuous
 62
     7
370
    80
100
AcDbLine
 10
19.45696817095955
 20
9.816458272543251
 30
0.0
 11
19.63196817095956
 21
7.816458272543251
 31
0.0
  0
LINE
  5
125
330
1F
100
AcDbEntity
  8
その他
  6
Continuous
 62
     7
370
    80
100
AcDbLine
 10
20.95696817095955
 20
9.816458272543251
 30
0.0
 11
20.78196817095953
 21
7.816458272543251
 31
0.0
  0
LINE
  5
126
330
1F
100
AcDbEntity
  8
その他
  6
Continuous
 62
     7
370
    80
100
AcDbLine
 10
24.70696817095955
 20
9.816458272543251
 30
0.0
 11
24.88196817095956
 21
7.816458272543251
 31
0.0
  0
LINE
  5
127
330
1F
100
AcDbEntity
  8
その他
  6
Continuous
 62
     7
370
    80
100
AcDbLine
 10
26.20696817095955
 20
9.816458272543251
 30
0.0
 11
26.03196817095953
 21
7.816458272543251
 31
0.0
  0
LINE
  5
128
330
1F
100
AcDbEntity
  8
その他
  6
Continuous
 62
     7
370
    80
100
AcDbLine
 10
29.95696817095955
 20
9.816458272543251
 30
0.0
 11
30.13196817095956
 21
7.816458272543251
 31
0.0
  0
LINE
  5
129
330
1F
100
AcDbEntity
  8
その他
  6
Continuous
 62
     7
370
    80
100
AcDbLine
 10
11.34446817095953
 20
5.816458272543251
 30
0.0
 11
13.25696817095956
 21
5.816458272543251
 31
0.0
  0
ARC
  5
12A
330
1F
100
AcDbEntity
  8
その他
  6
Continuous
 62
     7
370
    80
100
AcDbCircle
 10
13.25696817095956
 20
6.316458272543251
 30
0.0
 40
0.5
100
AcDbArc
 50
269.9999996914794
 51
354.9999995943526
  0
LINE
  5
12B
330
1F
100
AcDbEntity
  8
その他
  6
Continuous
 62
     7
370
    80
100
AcDbLine
 10
13.75696817095956
 20
6.278958272543257
 30
0.0
 11
13.85696817095952
 21
7.353958272543245
 31
0.0
  0
ARC
  5
12C
330
1F
100
AcDbEntity
  8
その他
  6
Continuous
 62
     7
370
    80
100
AcDbCircle
 10
14.34446817095953
 20
7.316458272543251
 30
0.0
 40
0.5
100
AcDbArc
 50
89.99999989715981
 51
174.999999800033
  0
LINE
  5
12D
330
1F
100
AcDbEntity
  8
その他
  6
Continuous
 62
     7
370
    80
100
AcDbLine
 10
15.56946817095956
 20
9.816458272543251
 30
0.0
 11
15.39446817095955
 21
7.816458272543251
 31
0.0
  0
LINE
  5
12E
330
1F
100
AcDbEntity
  8
その他
  6
Continuous
 62
     7
370
    80
100
AcDbLine
 10
54.04446817095952
 20
21.06645827254325
 30
0.0
 11
61.21946817095953
 21
21.06645827254325
 31
0.0
  0
LINE
  5
12F
330
1F
100
AcDbEntity
  8
その他
  6
Continuous
 62
     7
370
    80
100
AcDbLine
 10
56.96946817095953
 20
21.06645827254325
 30
0.0
 11
46.94446817095955
 21
15.27895827254326
 31
0.0
  0
LINE
  5
130
330
1F
100
AcDbEntity
  8
その他
  6
Continuous
 62
     7
370
    80
100
AcDbLine
 10
46.94446817095955
 20
15.27895827254326
 30
0.0
 11
46.76946817095954
 21
11.99145827254325
 31
0.0
  0
LINE
  5
131
330
1F
100
AcDbEntity
  8
その他
  6
Continuous
 62
     7
370
    80
100
AcDbLine
 10
32.04446817095952
 20
10.57895827254325
 30
0.0
 11
37.51946817095954
 21
10.57895827254325
 31
0.0
  0
LINE
  5
132
330
1F
100
AcDbEntity
  8
その他
  6
Continuous
 62
     7
370
    80
100
AcDbLine
 10
39.91946817095952
 20
10.57895827254325
 30
0.0
 11
45.26946817095954
 21
10.57895827254325
 31
0.0
  0
ARC
  5
133
330
1F
100
AcDbEntity
  8
その他
  6
Continuous
 62
     7
370
    80
100
AcDbCircle
 10
45.26946817095954
 20
12.07895827254325
 30
0.0
 40
1.5
100
AcDbArc
 50
269.9999996914794
 51
356.9888884809689
  0
LINE
  5
134
330
1F
100
AcDbEntity
  8
その他
  6
Continuous
 62
     7
370
    80
100
AcDbLine
 10
46.94446817095955
 20
15.27895827254326
 30
0.0
 11
45.85696817095952
 21
15.27895827254326
 31
0.0
  0
LINE
  5
135
330
1F
100
AcDbEntity
  8
その他
  6
Continuous
 62
     7
370
    80
100
AcDbLine
 10
37.21946817095953
 20
6.578958272543254
 30
0.0
 11
40.21946817095953
 21
6.578958272543254
 31
0.0
  0
LINE
  5
136
330
1F
100
AcDbEntity
  8
その他
  6
Continuous
 62
     7
370
    80
100
AcDbLine
 10
39.91946817095952
 20
3.778958272543257
 30
0.0
 11
39.91946817095952
 21
8.266458272543254
 31
0.0
  0
LINE
  5
137
330
1F
100
AcDbEntity
  8
その他
  6
Continuous
 62
     7
370
    80
100
AcDbLine
 10
37.51946817095954
 20
8.266458272543254
 30
0.0
 11
37.51946817095954
 21
4.066458272543251
 31
0.0
  0
LINE
  5
138
330
1F
100
AcDbEntity
  8
その他
  6
Continuous
 62
     7
370
    80
100
AcDbLine
 10
40.21946817095953
 20
6.578958272543254
 30
0.0
 11
39.91946817095952
 21
6.278958272543257
 31
0.0
  0
LINE
  5
139
330
1F
100
AcDbEntity
  8
その他
  6
Continuous
 62
     7
370
    80
100
AcDbLine
 10
37.21946817095953
 20
6.578958272543254
 30
0.0
 11
37.51946817095954
 21
6.278958272543257
 31
0.0
  0
LINE
  5
13A
330
1F
100
AcDbEntity
  8
その他
  6
Continuous
 62
     7
370
    80
100
AcDbLine
 10
-43.78053182904047
 20
21.06645827254325
 30
0.0
 11
-43.78053182904047
 21
19.06645827254325
 31
0.0
  0
LINE
  5
13B
330
1F
100
AcDbEntity
  8
その他
  6
Continuous
 62
     7
370
    80
100
AcDbLine
 10
-43.28053182904047
 20
18.56645827254325
 30
0.0
 11
-40.86803182904045
 21
18.56645827254325
 31
0.0
  0
ARC
  5
13C
330
1F
100
AcDbEntity
  8
その他
  6
Continuous
 62
     7
370
    80
100
AcDbCircle
 10
-43.28053182904047
 20
19.06645827254325
 30
0.0
 40
0.5
100
AcDbArc
 50
179.9999997943196
 51
269.9999996914794
  0
LINE
  5
13D
330
1F
100
AcDbEntity
  8
その他
  6
Continuous
 62
     7
370
    80
100
AcDbLine
 10
61.21946817095953
 20
21.06645827254325
 30
0.0
 11
61.21946817095953
 21
19.06645827254325
 31
0.0
  0
LINE
  5
13E
330
1F
100
AcDbEntity
  8
その他
  6
Continuous
 62
     7
370
    80
100
AcDbLine
 10
60.71946817095953
 20
18.56645827254325
 30
0.0
 11
58.30696817095956
 21
18.56645827254325
 31
0.0
  0
ARC
  5
13F
330
1F
100
AcDbEntity
  8
その他
  6
Continuous
 62
     7
370
    80
100
AcDbCircle
 10
60.71946817095953
 20
19.06645827254325
 30
0.0
 40
0.5
100
AcDbArc
 50
269.9999996914794
 51
359.9999995886392
  0
LINE
  5
140
330
1F
100
AcDbEntity
  8
その他
  6
Continuous
 62
     7
370
    80
100
AcDbLine
 10
-17.53053182904047
 20
4.066458272543251
 30
0.0
 11
-17.53053182904047
 21
10.57895827254325
 31
0.0
  0
LINE
  5
141
330
1F
100
AcDbEntity
  8
その他
  6
Continuous
 62
     7
370
    80
100
AcDbLine
 10
34.96946817095953
 20
10.57895827254325
 30
0.0
 11
34.96946817095953
 21
4.066458272543251
 31
0.0
  0
LINE
  5
142
330
1F
100
AcDbEntity
  8
その他
  6
Continuous
 62
     7
370
    80
100
AcDbLine
 10
-39.61803182904045
 20
18.22895827254325
 30
0.0
 11
-33.59303182904047
 21
14.75395827254325
 31
0.0
  0
ARC
  5
143
330
1F
100
AcDbEntity
  8
その他
  6
Continuous
 62
     7
370
    80
100
AcDbCircle
 10
-40.86803182904045
 20
16.06645827254325
 30
0.0
 40
2.5
100
AcDbArc
 50
59.99999993143987
 51
89.99999989715981
  0
LINE
  5
144
330
1F
100
AcDbEntity
  8
その他
  6
Continuous
 62
     7
370
    80
100
AcDbLine
 10
-31.84303182904047
 20
11.90395827254326
 30
0.0
 11
-31.81803182904043
 21
11.37895827254325
 31
0.0
  0
ARC
  5
145
330
1F
100
AcDbEntity
  8
その他
  6
Continuous
 62
     7
370
    80
100
AcDbCircle
 10
-35.34303182904047
 20
11.71645827254326
 30
0.0
 40
3.5
100
AcDbArc
 50
3.055555552064068
 51
59.99999993143987
  0
LINE
  5
146
330
1F
100
AcDbEntity
  8
その他
  6
Continuous
 62
     7
370
    80
100
AcDbLine
 10
57.05696817095956
 20
18.22895827254325
 30
0.0
 11
51.01946817095954
 21
14.75395827254325
 31
0.0
  0
ARC
  5
147
330
1F
100
AcDbEntity
  8
その他
  6
Continuous
 62
     7
370
    80
100
AcDbCircle
 10
58.30696817095956
 20
16.06645827254325
 30
0.0
 40
2.5
100
AcDbArc
 50
89.99999989715981
 51
119.9555554184861
  0
LINE
  5
148
330
1F
100
AcDbEntity
  8
その他
  6
Continuous
 62
     7
370
    80
100
AcDbLine
 10
49.26946817095954
 20
11.87895827254325
 30
0.0
 11
49.24446817095956
 21
11.39145827254325
 31
0.0
  0
ARC
  5
149
330
1F
100
AcDbEntity
  8
その他
  6
Continuous
 62
     7
370
    80
100
AcDbCircle
 10
45.74446817095956
 20
11.57895827254325
 30
0.0
 40
3.5
100
AcDbArc
 50
269.9999996914794
 51
356.9777773698705
  0
ARC
  5
14A
330
1F
100
AcDbEntity
  8
その他
  6
Continuous
 62
     7
370
    80
100
AcDbCircle
 10
52.76946817095954
 20
11.70395827254325
 30
0.0
 40
3.5
100
AcDbArc
 50
119.9444443073877
 51
177.0444442421413
  0
LINE
  5
14B
330
1F
100
AcDbEntity
  8
その他
  6
Continuous
 62
     7
370
    80
100
AcDbLine
 10
-23.10553182904045
 20
-8.946041727456752
 30
0.0
 11
40.55696817095956
 21
-8.946041727456752
 31
0.0
  0
ARC
  5
14C
330
1F
100
AcDbEntity
  8
その他
  6
Continuous
 62
     7
370
    80
100
AcDbCircle
 10
-23.10553182904045
 20
-7.946041727456752
 30
0.0
 40
1.0
100
AcDbArc
 50
184.9999997886063
 51
269.9999996914794
  0
LINE
  5
14D
330
1F
100
AcDbEntity
  8
その他
  6
Continuous
 62
     7
370
    80
100
AcDbLine
 10
41.55696817095956
 20
-8.03354172745675
 30
0.0
 11
42.71946817095953
 21
5.341458272543257
 31
0.0
  0
ARC
  5
14E
330
1F
100
AcDbEntity
  8
その他
  6
Continuous
 62
     7
370
    80
100
AcDbCircle
 10
45.71946817095953
 20
5.078958272543254
 30
0.0
 40
3.0
100
AcDbArc
 50
89.99999989715981
 51
175.0222220222298
  0
ARC
  5
14F
330
1F
100
AcDbEntity
  8
その他
  6
Continuous
 62
     7
370
    80
100
AcDbCircle
 10
40.55696817095956
 20
-7.946041727456752
 30
0.0
 40
1.0
100
AcDbArc
 50
270.0111108025778
 51
354.9999995943526
  0
LINE
  5
150
330
1F
100
AcDbEntity
  8
その他
  6
Continuous
 62
     7
370
    80
100
AcDbLine
 10
-24.10553182904045
 20
-8.03354172745675
 30
0.0
 11
-25.28053182904047
 21
5.328958272543254
 31
0.0
  0
ARC
  5
151
330
1F
100
AcDbEntity
  8
その他
  6
Continuous
 62
     7
370
    80
100
AcDbCircle
 10
-28.25553182904043
 20
5.066458272543251
 30
0.0
 40
3.0
100
AcDbArc
 50
4.999999994286657
 51
90.32222211901384
  0
LINE
  5
152
330
1F
100
AcDbEntity
  8
その他
  6
Continuous
 62
     7
370
    80
100
AcDbLine
 10
-26.79303182904045
 20
5.491458272543248
 30
0.0
 11
-26.10553182904045
 21
-2.433541727456749
 31
0.0
  0
ARC
  5
153
330
1F
100
AcDbEntity
  8
その他
  6
Continuous
 62
     7
370
    80
100
AcDbCircle
 10
-29.78053182904047
 20
5.228958272543245
 30
0.0
 40
3.0
100
AcDbArc
 50
4.977777772089827
 51
76.89999991212878
  0
LINE
  5
154
330
1F
100
AcDbEntity
  8
その他
  6
Continuous
 62
     7
370
    80
100
AcDbLine
 10
-22.03053182904047
 20
1.566458272543251
 30
0.0
 11
6.519468170959545
 21
1.566458272543251
 31
0.0
  0
LINE
  5
155
330
1F
100
AcDbEntity
  8
その他
  6
Continuous
 62
     7
370
    80
100
AcDbLine
 10
11.01946817095955
 20
1.566458272543251
 30
0.0
 11
39.46946817095953
 21
1.566458272543251
 31
0.0
  0
ARC
  5
156
330
1F
100
AcDbEntity
  8
その他
  6
Continuous
 62
     7
370
    80
100
AcDbCircle
 10
39.46946817095953
 20
2.066458272543251
 30
0.0
 40
0.5
100
AcDbArc
 50
269.9999996914794
 51
359.9999995886392
  0
ARC
  5
157
330
1F
100
AcDbEntity
  8
その他
  6
Continuous
 62
     7
370
    80
100
AcDbCircle
 10
-22.03053182904047
 20
2.066458272543251
 30
0.0
 40
0.5
100
AcDbArc
 50
179.9999997943196
 51
269.9999996914794
  0
LINE
  5
158
330
1F
100
AcDbEntity
  8
その他
  6
Continuous
 62
     7
370
    80
100
AcDbLine
 10
39.96946817095953
 20
2.066458272543251
 30
0.0
 11
39.96946817095953
 21
3.566458272543251
 31
0.0
  0
ARC
  5
159
330
1F
100
AcDbEntity
  8
その他
  6
Continuous
 62
     7
370
    80
100
AcDbCircle
 10
39.46946817095953
 20
3.566458272543251
 30
0.0
 40
0.5
100
AcDbArc
 50
0.0
 51
89.99999989715981
  0
LINE
  5
15A
330
1F
100
AcDbEntity
  8
その他
  6
Continuous
 62
     7
370
    80
100
AcDbLine
 10
-22.53053182904047
 20
3.566458272543251
 30
0.0
 11
-22.53053182904047
 21
2.066458272543251
 31
0.0
  0
LINE
  5
15B
330
1F
100
AcDbEntity
  8
その他
  6
Continuous
 62
     7
370
    80
100
AcDbLine
 10
-22.03053182904047
 20
4.066458272543251
 30
0.0
 11
5.599468170959586
 21
4.066458272543251
 31
0.0
  0
LINE
  5
15C
330
1F
100
AcDbEntity
  8
その他
  6
Continuous
 62
     7
370
    80
100
AcDbLine
 10
11.84946817095959
 20
4.066458272543251
 30
0.0
 11
39.46946817095953
 21
4.066458272543251
 31
0.0
  0
ARC
  5
15D
330
1F
100
AcDbEntity
  8
その他
  6
Continuous
 62
     7
370
    80
100
AcDbCircle
 10
-22.03053182904047
 20
3.566458272543251
 30
0.0
 40
0.5
100
AcDbArc
 50
89.99999989715981
 51
179.9999997943196
  0
LINE
  5
15E
330
1F
100
AcDbEntity
  8
その他
  6
Continuous
 62
     7
370
    80
100
AcDbLine
 10
-19.53053182904047
 20
-8.933541727456749
 30
0.0
 11
-19.20553182904048
 21
1.566458272543251
 31
0.0
  0
LINE
  5
15F
330
1F
100
AcDbEntity
  8
その他
  6
Continuous
 62
     7
370
    80
100
AcDbLine
 10
36.96946817095953
 20
-8.933541727456749
 30
0.0
 11
36.64446817095954
 21
1.566458272543251
 31
0.0
  0
LINE
  5
160
330
1F
100
AcDbEntity
  8
その他
  6
Continuous
 62
     7
370
    80
100
AcDbLine
 10
-28.30553182904044
 20
8.066458272543251
 30
0.0
 11
-28.26803182904048
 21
8.066458272543251
 31
0.0
  0
ARC
  5
161
330
1F
100
AcDbEntity
  8
その他
  6
Continuous
 62
     7
370
    80
100
AcDbCircle
 10
-28.30553182904044
 20
11.56645827254325
 30
0.0
 40
3.5
100
AcDbArc
 50
183.0444442352853
 51
256.8999997064484
  0
LINE
  5
162
330
1F
100
AcDbEntity
  8
その他
  6
Continuous
 62
     7
370
    80
100
AcDbLine
 10
-18.45553182904048
 20
1.566458272543251
 30
0.0
 11
-18.75553182904043
 21
-8.196041727456752
 31
0.0
  0
LINE
  5
163
330
1F
100
AcDbEntity
  8
その他
  6
Continuous
 62
     7
370
    80
100
AcDbLine
 10
-29.09303182904047
 20
8.153958272543257
 30
0.0
 11
-28.25553182904043
 21
8.066458272543251
 31
0.0
  0
LINE
  5
164
330
1F
100
AcDbEntity
  8
その他
  6
Continuous
 62
     7
370
    80
100
AcDbLine
 10
45.71946817095953
 20
8.078958272543254
 30
0.0
 11
45.74446817095956
 21
8.078958272543254
 31
0.0
  0
LINE
  5
165
330
1F
100
AcDbEntity
  8
その他
  6
Continuous
 62
     7
370
    80
100
AcDbLine
 10
35.89446817095954
 20
1.566458272543251
 30
0.0
 11
36.20696817095954
 21
-8.22104172745675
 31
0.0
  0
LINE
  5
166
330
1F
100
AcDbEntity
  8
その他
  6
Continuous
 62
     7
370
    80
100
AcDbLine
 10
36.20696817095954
 20
-8.22104172745675
 30
0.0
 11
36.96946817095953
 21
-8.946041727456752
 31
0.0
  0
LINE
  5
167
330
1F
100
AcDbEntity
  8
その他
  6
Continuous
 62
     7
370
    80
100
AcDbLine
 10
-24.40553182904047
 20
-3.946041727456752
 30
0.0
 11
-26.23053182904045
 21
-2.446041727456752
 31
0.0
  0
LINE
  5
168
330
1F
100
AcDbEntity
  8
その他
  6
Continuous
 62
     7
370
    80
100
AcDbLine
 10
36.21946817095953
 20
-8.196041727456752
 30
0.0
 11
-18.78053182904047
 21
-8.196041727456752
 31
0.0
  0
LINE
  5
169
330
1F
100
AcDbEntity
  8
その他
  6
Continuous
 62
     7
370
    80
100
AcDbLine
 10
-18.78053182904047
 20
-8.196041727456752
 30
0.0
 11
-19.53053182904047
 21
-8.933541727456749
 31
0.0
  0
LINE
  5
16A
330
1F
100
AcDbEntity
  8
その他
  6
Continuous
 62
     7
370
    80
100
AcDbLine
 10
14.96946817095953
 20
22.56645827254325
 30
0.0
 11
14.96946817095953
 21
19.81645827254325
 31
0.0
  0
LINE
  5
16B
330
1F
100
AcDbEntity
  8
その他
  6
Continuous
 62
     7
370
    80
100
AcDbLine
 10
14.96946817095953
 20
20.31645827254325
 30
0.0
 11
12.71946817095953
 21
20.31645827254325
 31
0.0
  0
LINE
  5
16C
330
1F
100
AcDbEntity
  8
その他
  6
Continuous
 62
     7
370
    80
100
AcDbLine
 10
12.71946817095953
 20
20.31645827254325
 30
0.0
 11
12.71946817095953
 21
12.32145827254325
 31
0.0
  0
LINE
  5
16D
330
1F
100
AcDbEntity
  8
その他
  6
Continuous
 62
     7
370
    80
100
AcDbLine
 10
13.76946817095955
 20
12.32145827254325
 30
0.0
 11
12.51946817095955
 21
12.32145827254325
 31
0.0
  0
LINE
  5
16E
330
1F
100
AcDbEntity
  8
その他
  6
Continuous
 62
     7
370
    80
100
AcDbLine
 10
12.51946817095955
 20
12.32145827254325
 30
0.0
 11
12.51946817095955
 21
11.74145827254325
 31
0.0
  0
LINE
  5
16F
330
1F
100
AcDbEntity
  8
その他
  6
Continuous
 62
     7
370
    80
100
AcDbLine
 10
12.51946817095955
 20
11.74145827254325
 30
0.0
 11
13.75946817095955
 21
11.74145827254325
 31
0.0
  0
LINE
  5
170
330
1F
100
AcDbEntity
  8
その他
  6
Continuous
 62
     7
370
    80
100
AcDbLine
 10
12.71946817095953
 20
11.74145827254325
 30
0.0
 11
12.71946817095953
 21
10.74145827254325
 31
0.0
  0
LINE
  5
171
330
1F
100
AcDbEntity
  8
その他
  6
Continuous
 62
     7
370
    80
100
AcDbLine
 10
11.34946817095953
 20
1.74145827254312
 30
0.0
 11
8.719468170959534
 21
1.74145827254312
 31
0.0
  0
LINE
  5
172
330
1F
100
AcDbEntity
  8
その他
  6
Continuous
 62
     7
370
    80
100
AcDbLine
 10
11.34946817095953
 20
1.74145827254312
 30
0.0
 11
11.84946817095953
 21
2.24145827254312
 31
0.0
  0
LINE
  5
173
330
1F
100
AcDbEntity
  8
その他
  6
Continuous
 62
     7
370
    80
100
AcDbLine
 10
11.84946817095959
 20
9.741458272543248
 30
0.0
 11
11.84946817095959
 21
2.24145827254312
 31
0.0
  0
LINE
  5
174
330
1F
100
AcDbEntity
  8
その他
  6
Continuous
 62
     7
370
    80
100
AcDbLine
 10
11.34946817095959
 20
1.74145827254312
 30
0.0
 11
11.34946817095959
 21
9.741458272543248
 31
0.0
  0
LINE
  5
175
330
1F
100
AcDbEntity
  8
その他
  6
Continuous
 62
     7
370
    80
100
AcDbLine
 10
11.84946817095959
 20
9.741458272543248
 30
0.0
 11
11.21946817095953
 21
9.741458272543248
 31
0.0
  0
LINE
  5
176
330
1F
100
AcDbEntity
  8
その他
  6
Continuous
 62
     7
370
    80
100
AcDbLine
 10
11.21946817095953
 20
9.741458272543248
 30
0.0
 11
11.21946817095953
 21
10.74145827254325
 31
0.0
  0
LINE
  5
177
330
1F
100
AcDbEntity
  8
その他
  6
Continuous
 62
     7
370
    80
100
AcDbLine
 10
11.21946817095953
 20
10.74145827254325
 30
0.0
 11
12.71946817095953
 21
10.74145827254325
 31
0.0
  0
LINE
  5
178
330
1F
100
AcDbEntity
  8
その他
  6
Continuous
 62
     7
370
    80
100
AcDbLine
 10
8.719468170959534
 20
2.24145827254312
 30
0.0
 11
11.84946817095953
 21
2.24145827254312
 31
0.0
  0
LINE
  5
179
330
1F
100
AcDbEntity
  8
その他
  6
Continuous
 62
     7
370
    80
100
AcDbLine
 10
13.76946817095955
 20
11.74145827254325
 30
0.0
 11
13.76946817095955
 21
12.32145827254325
 31
0.0
  0
ARC
  5
17A
330
1F
100
AcDbEntity
  8
その他
  6
Continuous
 62
     7
370
    80
100
AcDbCircle
 10
8.719468170959534
 20
28.31645827254325
 30
0.0
 40
8.5
100
AcDbArc
 50
269.9999996914794
 51
317.4111107484154
  0
LINE
  5
17B
330
1F
100
AcDbEntity
  8
その他
  6
Continuous
 62
     7
370
    80
100
AcDbLine
 10
2.469468170959534
 20
22.56645827254325
 30
0.0
 11
2.469468170959534
 21
19.81645827254325
 31
0.0
  0
LINE
  5
17C
330
1F
100
AcDbEntity
  8
その他
  6
Continuous
 62
     7
370
    80
100
AcDbLine
 10
2.469468170959534
 20
20.31645827254325
 30
0.0
 11
4.719468170959534
 21
20.31645827254325
 31
0.0
  0
LINE
  5
17D
330
1F
100
AcDbEntity
  8
その他
  6
Continuous
 62
     7
370
    80
100
AcDbLine
 10
4.719468170959534
 20
20.31645827254325
 30
0.0
 11
4.719468170959534
 21
12.32145827254325
 31
0.0
  0
LINE
  5
17E
330
1F
100
AcDbEntity
  8
その他
  6
Continuous
 62
     7
370
    80
100
AcDbLine
 10
3.669468170959579
 20
12.32145827254325
 30
0.0
 11
4.919468170959579
 21
12.32145827254325
 31
0.0
  0
LINE
  5
17F
330
1F
100
AcDbEntity
  8
その他
  6
Continuous
 62
     7
370
    80
100
AcDbLine
 10
4.919468170959579
 20
12.32145827254325
 30
0.0
 11
4.919468170959579
 21
11.74145827254325
 31
0.0
  0
LINE
  5
180
330
1F
100
AcDbEntity
  8
その他
  6
Continuous
 62
     7
370
    80
100
AcDbLine
 10
4.919468170959579
 20
11.74145827254325
 30
0.0
 11
3.67946817095957
 21
11.74145827254325
 31
0.0
  0
LINE
  5
181
330
1F
100
AcDbEntity
  8
その他
  6
Continuous
 62
     7
370
    80
100
AcDbLine
 10
4.719468170959534
 20
11.74145827254325
 30
0.0
 11
4.719468170959534
 21
10.74145827254325
 31
0.0
  0
LINE
  5
182
330
1F
100
AcDbEntity
  8
その他
  6
Continuous
 62
     7
370
    80
100
AcDbLine
 10
6.099468170959529
 20
1.74145827254312
 30
0.0
 11
8.719468170959534
 21
1.74145827254312
 31
0.0
  0
LINE
  5
183
330
1F
100
AcDbEntity
  8
その他
  6
Continuous
 62
     7
370
    80
100
AcDbLine
 10
6.099468170959529
 20
1.74145827254312
 30
0.0
 11
5.599468170959529
 21
2.24145827254312
 31
0.0
  0
LINE
  5
184
330
1F
100
AcDbEntity
  8
その他
  6
Continuous
 62
     7
370
    80
100
AcDbLine
 10
5.599468170959586
 20
9.741458272543248
 30
0.0
 11
5.599468170959586
 21
2.24145827254312
 31
0.0
  0
LINE
  5
185
330
1F
100
AcDbEntity
  8
その他
  6
Continuous
 62
     7
370
    80
100
AcDbLine
 10
6.099468170959586
 20
1.74145827254312
 30
0.0
 11
6.099468170959586
 21
9.741458272543248
 31
0.0
  0
LINE
  5
186
330
1F
100
AcDbEntity
  8
その他
  6
Continuous
 62
     7
370
    80
100
AcDbLine
 10
5.599468170959586
 20
9.741458272543248
 30
0.0
 11
6.219468170959534
 21
9.741458272543248
 31
0.0
  0
LINE
  5
187
330
1F
100
AcDbEntity
  8
その他
  6
Continuous
 62
     7
370
    80
100
AcDbLine
 10
6.219468170959534
 20
9.741458272543248
 30
0.0
 11
6.219468170959534
 21
10.74145827254325
 31
0.0
  0
LINE
  5
188
330
1F
100
AcDbEntity
  8
その他
  6
Continuous
 62
     7
370
    80
100
AcDbLine
 10
6.219468170959534
 20
10.74145827254325
 30
0.0
 11
4.719468170959534
 21
10.74145827254325
 31
0.0
  0
LINE
  5
189
330
1F
100
AcDbEntity
  8
その他
  6
Continuous
 62
     7
370
    80
100
AcDbLine
 10
8.719468170959534
 20
2.24145827254312
 30
0.0
 11
5.599468170959529
 21
2.24145827254312
 31
0.0
  0
LINE
  5
18A
330
1F
100
AcDbEntity
  8
その他
  6
Continuous
 62
     7
370
    80
100
AcDbLine
 10
3.669468170959579
 20
11.74145827254325
 30
0.0
 11
3.669468170959579
 21
12.32145827254325
 31
0.0
  0
ARC
  5
18B
330
1F
100
AcDbEntity
  8
その他
  6
Continuous
 62
     7
370
    80
100
AcDbCircle
 10
8.719468170959534
 20
28.31645827254325
 30
0.0
 40
8.5
100
AcDbArc
 50
222.5888886345435
 51
269.9999996914795
  0
LINE
  5
18C
330
1F
100
AcDbEntity
  8
その他
  6
Continuous
 62
     7
370
    80
100
AcDbLine
 10
6.519468170959545
 20
1.74145827254312
 30
0.0
 11
6.519468170959602
 21
0.2414582725431274
 31
0.0
  0
LINE
  5
18D
330
1F
100
AcDbEntity
  8
その他
  6
Continuous
 62
     7
370
    80
100
AcDbLine
 10
7.519468170959602
 20
-0.7585417274568726
 30
0.0
 11
10.0194681709596
 21
-0.758541727456894
 31
0.0
  0
ARC
  5
18E
330
1F
100
AcDbEntity
  8
その他
  6
Continuous
 62
     7
370
    80
100
AcDbCircle
 10
7.519468170959602
 20
0.2414582725431274
 30
0.0
 40
1.0
100
AcDbArc
 50
179.9999999999996
 51
269.9999999999993
  0
LINE
  5
18F
330
1F
100
AcDbEntity
  8
その他
  6
Continuous
 62
     7
370
    80
100
AcDbLine
 10
11.0194681709596
 20
0.241458272543106
 30
0.0
 11
11.01946817095955
 21
1.74145827254312
 31
0.0
  0
ARC
  5
190
330
1F
100
AcDbEntity
  8
その他
  6
Continuous
 62
     7
370
    80
100
AcDbCircle
 10
10.0194681709596
 20
0.241458272543106
 30
0.0
 40
1.0
100
AcDbArc
 50
269.9999999999992
 51
359.9999999999993
  0
LINE
  5
191
330
1F
100
AcDbEntity
  8
その他
  6
Continuous
 62
     7
370
    80
100
AcDbLine
 10
-17.53053182904047
 20
3.566458272543251
 30
0.0
 11
-17.53053182904047
 21
-19.94604172745675
 31
0.0
  0
LINE
  5
192
330
1F
100
AcDbEntity
  8
その他
  6
Continuous
 62
     7
370
    80
100
AcDbLine
 10
34.96946817095953
 20
3.566458272543251
 30
0.0
 11
34.96946817095953
 21
-19.94604172745675
 31
0.0
  0
LINE
  5
193
330
1F
100
AcDbEntity
  8
その他
  6
Continuous
 62
     7
370
    80
100
AcDbLine
 10
-17.53053182904047
 20
-18.94604172745675
 30
0.0
 11
34.96946817095953
 21
-18.94604172745675
 31
0.0
  0
LINE
  5
194
330
1F
100
AcDbEntity
  8
その他
  6
Continuous
 62
     7
370
    80
100
AcDbLine
 10
-17.53053182904047
 20
-18.94604172745675
 30
0.0
 11
-16.53908696766662
 21
-18.8155155352367
 31
0.0
  0
LINE
  5
195
330
1F
100
AcDbEntity
  8
その他
  6
Continuous
 62
     7
370
    80
100
AcDbLine
 10
-17.53053182904047
 20
-18.94604172745675
 30
0.0
 11
-16.53908696766662
 21
-19.0765679196768
 31
0.0
  0
LINE
  5
196
330
1F
100
AcDbEntity
  8
その他
  6
Continuous
 62
     7
370
    80
100
AcDbLine
 10
34.96946817095953
 20
-18.94604172745675
 30
0.0
 11
33.97802329515393
 21
-19.07656781005647
 31
0.0
  0
LINE
  5
197
330
1F
100
AcDbEntity
  8
その他
  6
Continuous
 62
     7
370
    80
100
AcDbLine
 10
34.96946817095953
 20
-18.94604172745675
 30
0.0
 11
33.97802329515393
 21
-18.81551564485703
 31
0.0
  0
LINE
  5
198
330
1F
100
AcDbEntity
  8
その他
  6
Continuous
 62
     7
370
    80
100
AcDbLine
 10
-19.53053182904047
 20
-9.433541727456749
 30
0.0
 11
-19.53053182904047
 21
-24.94604172745675
 31
0.0
  0
LINE
  5
199
330
1F
100
AcDbEntity
  8
その他
  6
Continuous
 62
     7
370
    80
100
AcDbLine
 10
36.96946817095953
 20
-9.433541727456749
 30
0.0
 11
36.96946817095953
 21
-24.94604172745675
 31
0.0
  0
LINE
  5
19A
330
1F
100
AcDbEntity
  8
その他
  6
Continuous
 62
     7
370
    80
100
AcDbLine
 10
-19.53053182904047
 20
-23.94604172745675
 30
0.0
 11
36.96946817095953
 21
-23.94604172745675
 31
0.0
  0
LINE
  5
19B
330
1F
100
AcDbEntity
  8
その他
  6
Continuous
 62
     7
370
    80
100
AcDbLine
 10
-19.53053182904047
 20
-23.94604172745675
 30
0.0
 11
-18.53908696766662
 21
-23.81551553523671
 31
0.0
  0
LINE
  5
19C
330
1F
100
AcDbEntity
  8
その他
  6
Continuous
 62
     7
370
    80
100
AcDbLine
 10
-19.53053182904047
 20
-23.94604172745675
 30
0.0
 11
-18.53908696766662
 21
-24.0765679196768
 31
0.0
  0
LINE
  5
19D
330
1F
100
AcDbEntity
  8
その他
  6
Continuous
 62
     7
370
    80
100
AcDbLine
 10
36.96946817095953
 20
-23.94604172745675
 30
0.0
 11
35.97802329515393
 21
-24.07656781005648
 31
0.0
  0
LINE
  5
19E
330
1F
100
AcDbEntity
  8
その他
  6
Continuous
 62
     7
370
    80
100
AcDbLine
 10
36.96946817095953
 20
-23.94604172745675
 30
0.0
 11
35.97802329515393
 21
-23.81551564485702
 31
0.0
  0
LINE
  5
19F
330
1F
100
AcDbEntity
  8
その他
  6
Continuous
 62
     7
370
    80
100
AcDbLine
 10
2.46946817095959
 20
23.06645827254325
 30
0.0
 11
2.46946817095959
 21
33.56645827254325
 31
0.0
  0
LINE
  5
1A0
330
1F
100
AcDbEntity
  8
その他
  6
Continuous
 62
     7
370
    80
100
AcDbLine
 10
14.96946817095959
 20
23.06645827254326
 30
0.0
 11
14.96946817095959
 21
33.56645827254325
 31
0.0
  0
LINE
  5
1A1
330
1F
100
AcDbEntity
  8
その他
  6
Continuous
 62
     7
370
    80
100
AcDbLine
 10
14.96946817095959
 20
32.56645827254325
 30
0.0
 11
2.46946817095959
 21
32.56645827254325
 31
0.0
  0
LINE
  5
1A2
330
1F
100
AcDbEntity
  8
その他
  6
Continuous
 62
     7
370
    80
100
AcDbLine
 10
14.96946817095959
 20
32.56645827254325
 30
0.0
 11
13.97802330958574
 21
32.4359320803232
 31
0.0
  0
LINE
  5
1A3
330
1F
100
AcDbEntity
  8
その他
  6
Continuous
 62
     7
370
    80
100
AcDbLine
 10
14.96946817095959
 20
32.56645827254325
 30
0.0
 11
13.97802330958574
 21
32.6969844647633
 31
0.0
  0
LINE
  5
1A4
330
1F
100
AcDbEntity
  8
その他
  6
Continuous
 62
     7
370
    80
100
AcDbLine
 10
2.46946817095959
 20
32.56645827254325
 30
0.0
 11
3.460913046765132
 21
32.69698435514297
 31
0.0
  0
LINE
  5
1A5
330
1F
100
AcDbEntity
  8
その他
  6
Continuous
 62
     7
370
    80
100
AcDbLine
 10
2.46946817095959
 20
32.56645827254325
 30
0.0
 11
3.460913046765132
 21
32.43593218994354
 31
0.0
  0
LINE
  5
1A6
330
1F
100
AcDbEntity
  8
その他
  6
Continuous
 62
     7
370
    80
100
AcDbLine
 10
-26.65553182904047
 20
23.06645827254325
 30
0.0
 11
-26.65553182904047
 21
38.56645827254325
 31
0.0
  0
LINE
  5
1A7
330
1F
100
AcDbEntity
  8
その他
  6
Continuous
 62
     7
370
    80
100
AcDbLine
 10
44.09446817095953
 20
23.06645827254325
 30
0.0
 11
44.09446817095953
 21
38.56645827254325
 31
0.0
  0
LINE
  5
1A8
330
1F
100
AcDbEntity
  8
その他
  6
Continuous
 62
     7
370
    80
100
AcDbLine
 10
-26.65553182904047
 20
37.56645827254325
 30
0.0
 11
44.09446817095953
 21
37.56645827254325
 31
0.0
  0
LINE
  5
1A9
330
1F
100
AcDbEntity
  8
その他
  6
Continuous
 62
     7
370
    80
100
AcDbLine
 10
-26.65553182904047
 20
37.56645827254325
 30
0.0
 11
-25.66408696766662
 21
37.6969844647633
 31
0.0
  0
LINE
  5
1AA
330
1F
100
AcDbEntity
  8
その他
  6
Continuous
 62
     7
370
    80
100
AcDbLine
 10
-26.65553182904047
 20
37.56645827254325
 30
0.0
 11
-25.66408696766662
 21
37.4359320803232
 31
0.0
  0
LINE
  5
1AB
330
1F
100
AcDbEntity
  8
その他
  6
Continuous
 62
     7
370
    80
100
AcDbLine
 10
44.09446817095953
 20
37.56645827254325
 30
0.0
 11
43.10302329515393
 21
37.43593218994353
 31
0.0
  0
LINE
  5
1AC
330
1F
100
AcDbEntity
  8
その他
  6
Continuous
 62
     7
370
    80
100
AcDbLine
 10
44.09446817095953
 20
37.56645827254325
 30
0.0
 11
43.10302329515393
 21
37.69698435514297
 31
0.0
  0
LINE
  5
1AD
330
1F
100
AcDbEntity
  8
その他
  6
Continuous
 62
     7
370
    80
100
AcDbLine
 10
-28.78053182904047
 20
16.60395827254325
 30
0.0
 11
-28.78053182904047
 21
43.56645827254325
 31
0.0
  0
LINE
  5
1AE
330
1F
100
AcDbEntity
  8
その他
  6
Continuous
 62
     7
370
    80
100
AcDbLine
 10
46.21946817095953
 20
16.60395827254325
 30
0.0
 11
46.21946817095953
 21
43.56645827254325
 31
0.0
  0
LINE
  5
1AF
330
1F
100
AcDbEntity
  8
その他
  6
Continuous
 62
     7
370
    80
100
AcDbLine
 10
-28.78053182904047
 20
42.56645827254325
 30
0.0
 11
46.21946817095953
 21
42.56645827254325
 31
0.0
  0
LINE
  5
1B0
330
1F
100
AcDbEntity
  8
その他
  6
Continuous
 62
     7
370
    80
100
AcDbLine
 10
-28.78053182904047
 20
42.56645827254325
 30
0.0
 11
-27.78908696766662
 21
42.6969844647633
 31
0.0
  0
LINE
  5
1B1
330
1F
100
AcDbEntity
  8
その他
  6
Continuous
 62
     7
370
    80
100
AcDbLine
 10
-28.78053182904047
 20
42.56645827254325
 30
0.0
 11
-27.78908696766662
 21
42.4359320803232
 31
0.0
  0
LINE
  5
1B2
330
1F
100
AcDbEntity
  8
その他
  6
Continuous
 62
     7
370
    80
100
AcDbLine
 10
46.21946817095953
 20
42.56645827254325
 30
0.0
 11
45.22802329515393
 21
42.43593218994354
 31
0.0
  0
LINE
  5
1B3
330
1F
100
AcDbEntity
  8
その他
  6
Continuous
 62
     7
370
    80
100
AcDbLine
 10
46.21946817095953
 20
42.56645827254325
 30
0.0
 11
45.22802329515393
 21
42.69698435514297
 31
0.0
  0
LINE
  5
1B4
330
1F
100
AcDbEntity
  8
その他
  6
Continuous
 62
     7
370
    80
100
AcDbLine
 10
-38.78053182904047
 20
23.06645827254325
 30
0.0
 11
-38.78053182904047
 21
48.56645827254325
 31
0.0
  0
LINE
  5
1B5
330
1F
100
AcDbEntity
  8
その他
  6
Continuous
 62
     7
370
    80
100
AcDbLine
 10
56.21946817095953
 20
23.06645827254325
 30
0.0
 11
56.21946817095953
 21
48.56645827254325
 31
0.0
  0
LINE
  5
1B6
330
1F
100
AcDbEntity
  8
その他
  6
Continuous
 62
     7
370
    80
100
AcDbLine
 10
-38.78053182904047
 20
47.56645827254325
 30
0.0
 11
56.21946817095953
 21
47.56645827254325
 31
0.0
  0
LINE
  5
1B7
330
1F
100
AcDbEntity
  8
その他
  6
Continuous
 62
     7
370
    80
100
AcDbLine
 10
-38.78053182904047
 20
47.56645827254325
 30
0.0
 11
-37.78908696766662
 21
47.6969844647633
 31
0.0
  0
LINE
  5
1B8
330
1F
100
AcDbEntity
  8
その他
  6
Continuous
 62
     7
370
    80
100
AcDbLine
 10
-38.78053182904047
 20
47.56645827254325
 30
0.0
 11
-37.78908696766662
 21
47.4359320803232
 31
0.0
  0
LINE
  5
1B9
330
1F
100
AcDbEntity
  8
その他
  6
Continuous
 62
     7
370
    80
100
AcDbLine
 10
56.21946817095953
 20
47.56645827254325
 30
0.0
 11
55.22802329515393
 21
47.43593218994354
 31
0.0
  0
LINE
  5
1BA
330
1F
100
AcDbEntity
  8
その他
  6
Continuous
 62
     7
370
    80
100
AcDbLine
 10
56.21946817095953
 20
47.56645827254325
 30
0.0
 11
55.22802329515393
 21
47.69698435514297
 31
0.0
  0
LINE
  5
1BB
330
1F
100
AcDbEntity
  8
その他
  6
Continuous
 62
     7
370
    80
100
AcDbLine
 10
-43.78053182904047
 20
21.56645827254325
 30
0.0
 11
-43.78053182904047
 21
53.56645827254326
 31
0.0
  0
LINE
  5
1BC
330
1F
100
AcDbEntity
  8
その他
  6
Continuous
 62
     7
370
    80
100
AcDbLine
 10
61.21946817095953
 20
21.56645827254325
 30
0.0
 11
61.21946817095953
 21
53.56645827254326
 31
0.0
  0
LINE
  5
1BD
330
1F
100
AcDbEntity
  8
その他
  6
Continuous
 62
     7
370
    80
100
AcDbLine
 10
-43.78053182904047
 20
52.56645827254326
 30
0.0
 11
61.21946817095953
 21
52.56645827254326
 31
0.0
  0
LINE
  5
1BE
330
1F
100
AcDbEntity
  8
その他
  6
Continuous
 62
     7
370
    80
100
AcDbLine
 10
-43.78053182904047
 20
52.56645827254326
 30
0.0
 11
-42.78908696766662
 21
52.69698446476331
 31
0.0
  0
LINE
  5
1BF
330
1F
100
AcDbEntity
  8
その他
  6
Continuous
 62
     7
370
    80
100
AcDbLine
 10
-43.78053182904047
 20
52.56645827254326
 30
0.0
 11
-42.78908696766662
 21
52.43593208032321
 31
0.0
  0
LINE
  5
1C0
330
1F
100
AcDbEntity
  8
その他
  6
Continuous
 62
     7
370
    80
100
AcDbLine
 10
61.21946817095953
 20
52.56645827254326
 30
0.0
 11
60.22802329515393
 21
52.43593218994354
 31
0.0
  0
LINE
  5
1C1
330
1F
100
AcDbEntity
  8
その他
  6
Continuous
 62
     7
370
    80
100
AcDbLine
 10
61.21946817095953
 20
52.56645827254326
 30
0.0
 11
60.22802329515393
 21
52.69698435514298
 31
0.0
  0
LINE
  5
1C2
330
1F
100
AcDbEntity
  8
その他
  6
Continuous
 62
     7
370
    80
100
AcDbLine
 10
25.65946817095953
 20
4.066458272543251
 30
0.0
 11
25.65946817095953
 21
-8.946041727456752
 31
0.0
  0
LINE
  5
1C3
330
1F
100
AcDbEntity
  8
その他
  6
Continuous
 62
     7
370
    80
100
AcDbLine
 10
25.65946817095953
 20
4.066458272543251
 30
0.0
 11
25.78999436317962
 21
3.075013411169444
 31
0.0
  0
LINE
  5
1C4
330
1F
100
AcDbEntity
  8
その他
  6
Continuous
 62
     7
370
    80
100
AcDbLine
 10
25.65946817095953
 20
4.066458272543251
 30
0.0
 11
25.5289419787395
 21
3.075013411169444
 31
0.0
  0
LINE
  5
1C5
330
1F
100
AcDbEntity
  8
その他
  6
Continuous
 62
     7
370
    80
100
AcDbLine
 10
25.65946817095953
 20
-8.946041727456752
 30
0.0
 11
25.52894208835982
 21
-7.954596851651154
 31
0.0
  0
LINE
  5
1C6
330
1F
100
AcDbEntity
  8
その他
  6
Continuous
 62
     7
370
    80
100
AcDbLine
 10
25.65946817095953
 20
-8.946041727456752
 30
0.0
 11
25.7899942535593
 21
-7.954596851651154
 31
0.0
  0
LINE
  5
1C7
330
1F
100
AcDbEntity
  8
その他
  6
Continuous
 62
     7
370
    80
100
AcDbLine
 10
29.09446817095953
 20
20.56645827254325
 30
0.0
 11
29.09446817095953
 21
22.56645827254326
 31
0.0
  0
LINE
  5
1C8
330
1F
100
AcDbEntity
  8
その他
  6
Continuous
 62
     7
370
    80
100
AcDbLine
 10
29.09446817095953
 20
22.56645827254326
 30
0.0
 11
28.96394208835982
 21
23.55790314834885
 31
0.0
  0
LINE
  5
1C9
330
1F
100
AcDbEntity
  8
その他
  6
Continuous
 62
     7
370
    80
100
AcDbLine
 10
29.09446817095953
 20
22.56645827254326
 30
0.0
 11
29.22499425355925
 21
23.55790314834885
 31
0.0
  0
LINE
  5
1CA
330
1F
100
AcDbEntity
  8
その他
  6
Continuous
 62
     7
370
    80
100
AcDbLine
 10
29.09446817095953
 20
20.56645827254325
 30
0.0
 11
29.22499425355925
 21
19.57501339673766
 31
0.0
  0
LINE
  5
1CB
330
1F
100
AcDbEntity
  8
その他
  6
Continuous
 62
     7
370
    80
100
AcDbLine
 10
29.09446817095953
 20
20.56645827254325
 30
0.0
 11
28.96394208835982
 21
19.57501339673766
 31
0.0
  0
LINE
  5
1CC
330
1F
100
AcDbEntity
  8
その他
  6
Continuous
 62
     7
370
    80
100
AcDbLine
 10
20.20696817095955
 20
9.816458272543251
 30
0.0
 11
20.20696817095955
 21
7.816458272543251
 31
0.0
  0
LINE
  5
1CD
330
1F
100
AcDbEntity
  8
その他
  6
Continuous
 62
     7
370
    80
100
AcDbLine
 10
20.20696817095955
 20
15.17520034780768
 30
0.0
 11
20.20696817095955
 21
9.816458272543251
 31
0.0
  0
LINE
  5
1CE
330
1F
100
AcDbEntity
  8
その他
  6
Continuous
 62
     7
370
    80
100
AcDbLine
 10
20.20696817095955
 20
9.816458272543251
 30
0.0
 11
20.07644208835983
 21
10.80790314834885
 31
0.0
  0
LINE
  5
1CF
330
1F
100
AcDbEntity
  8
その他
  6
Continuous
 62
     7
370
    80
100
AcDbLine
 10
20.20696817095955
 20
9.816458272543251
 30
0.0
 11
20.33749425355926
 21
10.80790314834885
 31
0.0
  0
LINE
  5
1D0
330
1F
100
AcDbEntity
  8
その他
  6
Continuous
 62
     7
370
    80
100
AcDbLine
 10
20.20696817095955
 20
7.816458272543251
 30
0.0
 11
20.33749425355926
 21
6.825013396737653
 31
0.0
  0
LINE
  5
1D1
330
1F
100
AcDbEntity
  8
その他
  6
Continuous
 62
     7
370
    80
100
AcDbLine
 10
20.20696817095955
 20
7.816458272543251
 30
0.0
 11
20.07644208835983
 21
6.825013396737653
 31
0.0
  0
LINE
  5
1D2
330
1F
100
AcDbEntity
  8
その他
  6
Continuous
 62
     7
370
    80
100
AcDbLine
 10
3.106390399956343
 20
20.09243880415063
 30
0.0
 11
2.184904935336409
 21
20.4808516495795
 31
0.0
  0
LINE
  5
1D3
330
1F
100
AcDbEntity
  8
その他
  6
Continuous
 62
     7
370
    80
100
AcDbLine
 10
3.106390399956343
 20
20.09243880415063
 30
0.0
 11
2.316832432889374
 21
20.70611479084159
 31
0.0
  0
LINE
  5
1D4
330
1F
100
AcDbEntity
  8
その他
  6
Continuous
 62
     7
370
    80
100
AcDbLine
 10
-25.74447325021033
 20
16.74920148905019
 30
0.0
 11
-26.73198400959724
 21
16.90675306820767
 31
0.0
  0
LINE
  5
1D5
330
1F
100
AcDbEntity
  8
その他
  6
Continuous
 62
     7
370
    80
100
AcDbLine
 10
-25.74447325021033
 20
16.74920148905019
 30
0.0
 11
-26.65755804716856
 21
17.15697122010402
 31
0.0
  0
LINE
  5
1D6
330
1F
100
AcDbEntity
  8
その他
  6
Continuous
 62
     7
370
    80
100
AcDbLine
 10
-22.41185629261498
 20
15.46429098851661
 30
0.0
 11
-23.4074018196916
 21
15.37000894612429
 31
0.0
  0
LINE
  5
1D7
330
1F
100
AcDbEntity
  8
その他
  6
Continuous
 62
     7
370
    80
100
AcDbLine
 10
-22.41185629261498
 20
15.46429098851661
 30
0.0
 11
-23.39788141664719
 21
15.63088767148865
 31
0.0
  0
LINE
  5
1D8
330
1F
100
AcDbEntity
  8
その他
  6
Continuous
 62
     7
370
    80
100
AcDbLine
 10
3.930800471133228
 20
12.06635649257643
 30
0.0
 11
2.953453358487241
 21
11.85471381870704
 31
0.0
  0
LINE
  5
1D9
330
1F
100
AcDbEntity
  8
その他
  6
Continuous
 62
     7
370
    80
100
AcDbLine
 10
3.930800471133228
 20
12.06635649257643
 30
0.0
 11
2.931978499025593
 21
12.11488141436984
 31
0.0
  0
LINE
  5
1DA
330
1F
100
AcDbEntity
  8
その他
  6
Continuous
 62
     7
370
    80
100
AcDbLine
 10
-8.20637487861428
 20
8.837018119945306
 30
0.0
 11
-9.142084851932747
 21
8.484247874839035
 31
0.0
  0
LINE
  5
1DB
330
1F
100
AcDbEntity
  8
その他
  6
Continuous
 62
     7
370
    80
100
AcDbLine
 10
-8.20637487861428
 20
8.837018119945306
 30
0.0
 11
-9.201504965737808
 21
8.738447791238023
 31
0.0
  0
LINE
  5
1DC
330
1F
100
AcDbEntity
  8
その他
  6
Continuous
 62
     7
370
    80
100
AcDbLine
 10
-22.64430497477123
 20
-3.010447902613961
 30
0.0
 11
-23.56562395090732
 21
-3.399255495404446
 31
0.0
  0
LINE
  5
1DD
330
1F
100
AcDbEntity
  8
その他
  6
Continuous
 62
     7
370
    80
100
AcDbLine
 10
-22.64430497477123
 20
-3.010447902613961
 30
0.0
 11
-23.63486157796593
 21
-3.147552300309194
 31
0.0
  0
LINE
  5
1DE
330
1F
100
AcDbEntity
  8
その他
  6
Continuous
 62
     7
370
    80
100
AcDbLine
 10
29.09446817095953
 20
16.9404822350725
 30
0.0
 11
29.09446817095953
 21
20.56645827254325
 31
0.0
  0
LINE
  5
1DF
330
1F
100
AcDbEntity
  8
その他
  6
Continuous
 62
     7
370
    80
100
AcDbLine
 10
20.20696817095955
 20
5.060545357434179
 30
0.0
 11
20.20696817095955
 21
7.816458272543251
 31
0.0
  0
TEXT
  5
1E0
330
1F
100
AcDbEntity
  8
その他
  6
Continuous
 62
     7
370
     9
100
AcDbText
 10
19.83006606023081
 20
10.52088901547912
 30
0.0
 40
2.286
  1
t2
 50
90.0
 41
1.083333333333333
  7
ＭＳ ゴシック
100
AcDbText
  0
TEXT
  5
1E1
330
1F
100
AcDbEntity
  8
その他
  6
Continuous
 62
     7
370
     9
100
AcDbText
 10
28.38952368635534
 20
24.46690187183716
 30
0.0
 40
2.286
  1
t1
 50
90.0
 41
1.083333333333333
  7
ＭＳ ゴシック
100
AcDbText
  0
LINE
  5
1E2
330
1F
100
AcDbEntity
  8
その他
  6
Continuous
 62
     7
370
    80
100
AcDbLine
 10
29.09446817095953
 20
30.29618766893919
 30
0.0
 11
29.09446817095953
 21
22.56645827254326
 31
0.0
  0
TEXT
  5
1E3
330
1F
100
AcDbEntity
  8
その他
  6
Continuous
 62
     7
370
     9
100
AcDbText
 10
25.10320863291911
 20
-5.009157024805212
 30
0.0
 40
2.286
  1
Ｌ
 50
90.0
  7
ＭＳ ゴシック
100
AcDbText
  0
LINE
  5
1E4
330
1F
100
AcDbEntity
  8
その他
  6
Continuous
 62
     7
370
    80
100
AcDbLine
 10
50.56220859100004
 20
17.30009526845975
 30
0.0
 11
51.80942379970843
 21
15.13317100297005
 31
0.0
  0
LINE
  5
1E5
330
1F
100
AcDbEntity
  8
その他
  6
Continuous
 62
     7
370
    80
100
AcDbLine
 10
50.56220859100004
 20
17.30009526845975
 30
0.0
 11
49.95450827929658
 21
18.09426170640302
 31
0.0
  0
LINE
  5
1E6
330
1F
100
AcDbEntity
  8
その他
  6
Continuous
 62
     7
370
    80
100
AcDbLine
 10
50.56220859100004
 20
17.30009526845975
 30
0.0
 11
50.18076035999
 21
18.22448547127417
 31
0.0
  0
LINE
  5
1E7
330
1F
100
AcDbEntity
  8
その他
  6
Continuous
 62
     7
370
    80
100
AcDbLine
 10
51.80942379970843
 20
15.13317100297005
 30
0.0
 11
52.41712411141189
 21
14.33900456502678
 31
0.0
  0
LINE
  5
1E8
330
1F
100
AcDbEntity
  8
その他
  6
Continuous
 62
     7
370
    80
100
AcDbLine
 10
51.80942379970843
 20
15.13317100297005
 30
0.0
 11
52.19087203071852
 21
14.20878080015563
 31
0.0
  0
TEXT
  5
1E9
330
1F
100
AcDbEntity
  8
その他
  6
Continuous
 62
     7
370
     9
100
AcDbText
 10
53.63612816432325
 20
13.93468936224548
 30
0.0
 40
2.286
  1
Ｔ
 50
299.92341197
 41
1.000000000000003
  7
ＭＳ ゴシック
100
AcDbText
  0
LINE
  5
1EA
330
1F
100
AcDbEntity
  8
その他
  6
Continuous
 62
     7
370
    80
100
AcDbLine
 10
55.08887578752108
 20
9.43541808889277
 30
0.0
 11
51.80942379970843
 21
15.13317100297005
 31
0.0
  0
LINE
  5
1EB
330
1F
100
AcDbEntity
  8
その他
  6
Continuous
 62
     7
370
    80
100
AcDbLine
 10
48.87043202057781
 20
20.23940492138758
 30
0.0
 11
50.56220859100004
 21
17.30009526845975
 31
0.0
  0
TEXT
  5
1EC
330
1F
100
AcDbEntity
  8
その他
  6
Continuous
 62
     7
370
     9
100
AcDbText
 10
6.942645709269005
 20
-18.26731599449455
 30
0.0
 40
2.286
  1
Ｄ
  7
ＭＳ ゴシック
100
AcDbText
  0
TEXT
  5
1ED
330
1F
100
AcDbEntity
  8
その他
  6
Continuous
 62
     7
370
     9
100
AcDbText
 10
6.724020963362353
 20
-23.29568515034712
 30
0.0
 40
2.286
  1
ｄ
  7
ＭＳ ゴシック
100
AcDbText
  0
TEXT
  5
1EE
330
1F
100
AcDbEntity
  8
その他
  6
Continuous
 62
     7
370
     9
100
AcDbText
 10
7.119689255653828
 20
33.03512423557873
 30
0.0
 40
2.286
  1
Ｃ
  7
ＭＳ ゴシック
100
AcDbText
  0
TEXT
  5
1EF
330
1F
100
AcDbEntity
  8
その他
  6
Continuous
 62
     7
370
     9
100
AcDbText
 10
7.268008432797604
 20
38.07797625846724
 30
0.0
 40
2.286
  1
ｂ
  7
ＭＳ ゴシック
100
AcDbText
  0
TEXT
  5
1F0
330
1F
100
AcDbEntity
  8
その他
  6
Continuous
 62
     7
370
     9
100
AcDbText
 10
7.268008432797604
 20
43.12082828135574
 30
0.0
 40
2.286
  1
ａ
  7
ＭＳ ゴシック
100
AcDbText
  0
TEXT
  5
1F1
330
1F
100
AcDbEntity
  8
その他
  6
Continuous
 62
     7
370
     9
100
AcDbText
 10
7.41632760994138
 20
48.16368030424425
 30
0.0
 40
2.286
  1
Ｂ
  7
ＭＳ ゴシック
100
AcDbText
  0
TEXT
  5
1F2
330
1F
100
AcDbEntity
  8
その他
  6
Continuous
 62
     7
370
     9
100
AcDbText
 10
7.268008432797604
 20
53.05821314998898
 30
0.0
 40
2.286
  1
Ａ
  7
ＭＳ ゴシック
100
AcDbText
  0
LINE
  5
1F3
330
1F
100
AcDbEntity
  8
その他
  6
JWW_CENTER1
 62
     7
370
     9
100
AcDbLine
 10
8.719468170959534
 20
25.29145827254325
 30
0.0
 11
8.719468170959534
 21
-11.34578966614755
 31
0.0
  0
LINE
  5
1F4
330
1F
100
AcDbEntity
  8
その他
  6
Continuous
 62
     7
370
    80
100
AcDbLine
 10
69.76202841372962
 20
21.06645827254325
 30
0.0
 11
69.76202841372962
 21
-8.946041727456752
 31
0.0
  0
LINE
  5
1F5
330
1F
100
AcDbEntity
  8
その他
  6
Continuous
 62
     7
370
    80
100
AcDbLine
 10
69.76202841372962
 20
21.06645827254325
 30
0.0
 11
69.89255460594966
 21
20.07501341116944
 31
0.0
  0
LINE
  5
1F6
330
1F
100
AcDbEntity
  8
その他
  6
Continuous
 62
     7
370
    80
100
AcDbLine
 10
69.76202841372962
 20
21.06645827254325
 30
0.0
 11
69.63150222150959
 21
20.07501341116944
 31
0.0
  0
LINE
  5
1F7
330
1F
100
AcDbEntity
  8
その他
  6
Continuous
 62
     7
370
    80
100
AcDbLine
 10
69.76202841372962
 20
-8.946041727456752
 30
0.0
 11
69.63150233112991
 21
-7.954596851651154
 31
0.0
  0
LINE
  5
1F8
330
1F
100
AcDbEntity
  8
その他
  6
Continuous
 62
     7
370
    80
100
AcDbLine
 10
69.76202841372962
 20
-8.946041727456752
 30
0.0
 11
69.89255449632934
 21
-7.954596851651154
 31
0.0
  0
TEXT
  5
1F9
330
1F
100
AcDbEntity
  8
その他
  6
Continuous
 62
     7
370
     9
100
AcDbText
 10
69.28491047190236
 20
3.93655884077188
 30
0.0
 40
2.286
  1
Ｈ
 50
90.0
  7
ＭＳ ゴシック
100
AcDbText
  0
LINE
  5
1FA
330
1F
100
AcDbEntity
  8
その他
  6
Continuous
 62
     7
370
    80
100
AcDbLine
 10
61.71946817095953
 20
21.06645827254325
 30
0.0
 11
69.76202841372962
 21
21.06645827254325
 31
0.0
  0
LINE
  5
1FB
330
1F
100
AcDbEntity
  8
その他
  6
Continuous
 62
     7
370
    80
100
AcDbLine
 10
41.05696817095956
 20
-8.946041727456752
 30
0.0
 11
69.76202841372962
 21
-8.946041727456752
 31
0.0
  0
LINE
  5
1FC
330
1F
100
AcDbEntity
  8
その他
  6
Continuous
 62
     7
370
    80
100
AcDbLine
 10
8.715433511456741
 20
76.15311510631801
 30
0.0
 11
8.715433511456741
 21
135.35374611362
 31
0.0
  0
ARC
  5
1FD
330
1F
100
AcDbEntity
  8
その他
  6
Continuous
 62
     7
370
    80
100
AcDbCircle
 10
8.715433511456741
 20
80.323115106318
 30
0.0
 40
6.38
100
AcDbArc
 50
0.0
 51
179.9999997943196
  0
ARC
  5
1FE
330
1F
100
AcDbEntity
  8
その他
  6
Continuous
 62
     7
370
    80
100
AcDbCircle
 10
8.715433511456741
 20
80.323115106318
 30
0.0
 40
6.25
100
AcDbArc
 50
0.0
 51
179.9999997943196
  0
LINE
  5
1FF
330
1F
100
AcDbEntity
  8
その他
  6
Continuous
 62
     7
370
    80
100
AcDbLine
 10
2.485433511456751
 20
80.823115106318
 30
0.0
 11
14.94543351145676
 21
80.823115106318
 31
0.0
  0
ARC
  5
200
330
1F
100
AcDbEntity
  8
その他
  6
Continuous
 62
     7
370
    80
100
AcDbCircle
 10
8.715433511456741
 20
80.323115106318
 30
0.0
 40
52.5
100
AcDbArc
 50
0.0
 51
179.9999999999996
  0
ARC
  5
201
330
1F
100
AcDbEntity
  8
その他
  6
Continuous
 62
     7
370
    80
100
AcDbCircle
 10
8.715433511456741
 20
80.323115106318
 30
0.0
 40
47.5
100
AcDbArc
 50
0.0
 51
179.9999999999996
  0
ARC
  5
202
330
1F
100
AcDbEntity
  8
その他
  6
Continuous
 62
     7
370
    80
100
AcDbCircle
 10
8.715433511456741
 20
80.323115106318
 30
0.0
 40
35.5
100
AcDbArc
 50
0.0
 51
179.9999999999996
  0
ARC
  5
203
330
1F
100
AcDbEntity
  8
その他
  6
Continuous
 62
     7
370
    80
100
AcDbCircle
 10
8.715433511456741
 20
80.323115106318
 30
0.0
 40
35.375
100
AcDbArc
 50
0.0
 51
179.9999999999996
  0
LINE
  5
204
330
1F
100
AcDbEntity
  8
その他
  6
JWW_CENTER1
 62
     7
370
     9
100
AcDbLine
 10
8.715433511456741
 20
135.35374611362
 30
0.0
 11
8.715433511456741
 21
75.93582464003401
 31
0.0
  0
LINE
  5
205
330
1F
100
AcDbEntity
  8
その他
  6
Continuous
 62
     7
370
    80
100
AcDbLine
 10
-48.26950048594934
 20
80.323115106318
 30
0.0
 11
64.12370286394308
 21
80.323115106318
 31
0.0
  0
LINE
  5
206
330
1F
100
AcDbEntity
  8
その他
  6
JWW_CENTER1
 62
     7
370
     9
100
AcDbLine
 10
65.70149867222612
 20
80.323115106318
 30
0.0
 11
-47.51027147168016
 21
80.323115106318
 31
0.0
  0
LINE
  5
207
330
1F
100
AcDbEntity
  8
その他
  6
Continuous
 62
     7
370
    80
100
AcDbLine
 10
3.106390399956343
 20
20.09243880415063
 30
0.0
 11
-61.25456317443557
 21
57.78604237206007
 31
0.0
  0
LINE
  5
208
330
1F
100
AcDbEntity
  8
その他
  6
Continuous
 62
     7
370
    80
100
AcDbLine
 10
-20.50447855757346
 20
21.94273367752596
 30
0.0
 11
-21.37159061230474
 21
22.44084680176551
 31
0.0
  0
LINE
  5
209
330
1F
100
AcDbEntity
  8
その他
  6
Continuous
 62
     7
370
    80
100
AcDbLine
 10
-20.50447855757346
 20
21.94273367752596
 30
0.0
 11
-21.21312332235629
 21
22.64829912264492
 31
0.0
  0
LINE
  5
20A
330
1F
100
AcDbEntity
  8
その他
  6
Continuous
 62
     7
370
    80
100
AcDbLine
 10
-20.50447855757346
 20
21.94273367752596
 30
0.0
 11
-55.68652533910691
 21
48.81736002384215
 31
0.0
  0
LINE
  5
20B
330
1F
100
AcDbEntity
  8
その他
  6
Continuous
 62
     7
370
    80
100
AcDbLine
 10
-33.93768577892699
 20
21.60528720354607
 30
0.0
 11
-34.81453545294795
 21
22.08605185404491
 31
0.0
  0
LINE
  5
20C
330
1F
100
AcDbEntity
  8
その他
  6
Continuous
 62
     7
370
    80
100
AcDbLine
 10
-33.93768577892699
 20
21.60528720354607
 30
0.0
 11
-34.66022647707584
 21
22.29661559115831
 31
0.0
  0
LINE
  5
20D
330
1F
100
AcDbEntity
  8
その他
  6
Continuous
 62
     7
370
    80
100
AcDbLine
 10
-33.93768577892699
 20
21.60528720354607
 30
0.0
 11
-56.63957000975158
 21
38.24207639645205
 31
0.0
  0
LINE
  5
20E
330
1F
100
AcDbEntity
  8
その他
  6
Continuous
 62
     7
370
    80
100
AcDbLine
 10
-25.74447325021033
 20
16.74920148905019
 30
0.0
 11
-61.83701119549902
 21
27.48472108550679
 31
0.0
  0
LINE
  5
20F
330
1F
100
AcDbEntity
  8
その他
  6
Continuous
 62
     7
370
     9
100
AcDbLine
 10
-37.03207655432931
 20
16.52666864016258
 30
0.0
 11
-36.30772610406125
 21
16.52666864016258
 31
0.0
  0
LINE
  5
210
330
1F
100
AcDbEntity
  8
その他
  6
Continuous
 62
     7
370
    80
100
AcDbLine
 10
-22.41185629261498
 20
15.46429098851661
 30
0.0
 11
-51.52320024757792
 21
16.52666864016258
 31
0.0
  0
LINE
  5
211
330
1F
100
AcDbEntity
  8
その他
  6
Continuous
 62
     7
370
    80
100
AcDbLine
 10
3.930800471133228
 20
12.06635649257643
 30
0.0
 11
-57.66785283012888
 21
6.981855406647323
 31
0.0
  0
LINE
  5
212
330
1F
100
AcDbEntity
  8
その他
  6
Continuous
 62
     7
370
    80
100
AcDbLine
 10
-8.20637487861428
 20
8.837018119945306
 30
0.0
 11
-53.917276943202
 21
-1.848064083415814
 31
0.0
  0
TEXT
  5
213
330
1F
100
AcDbEntity
  8
その他
  6
Continuous
 62
     7
370
     9
100
AcDbText
 10
-89.56269355330282
 20
-11.0692034986951
 30
0.0
 40
2.286
  1
防水受つば　FC150
 41
1.156862745098039
  7
ＭＳ ゴシック
100
AcDbText
  0
TEXT
  5
214
330
1F
100
AcDbEntity
  8
その他
  6
Continuous
 62
     7
370
     9
100
AcDbText
 10
-89.1952846991647
 20
-15.20255310774921
 30
0.0
 40
2.286
  1
樹脂系塗装
 41
1.133333333333333
  7
ＭＳ ゴシック
100
AcDbText
  0
LINE
  5
215
330
1F
100
AcDbEntity
  8
その他
  6
Continuous
 62
     7
370
     9
100
AcDbLine
 10
-90.78027498441206
 20
-12.12965306416454
 30
0.0
 11
-55.79583216313905
 21
-12.12965306416454
 31
0.0
  0
LINE
  5
216
330
1F
100
AcDbEntity
  8
その他
  6
Continuous
 62
     7
370
    80
100
AcDbLine
 10
-22.64430497477123
 20
-3.010447902613961
 30
0.0
 11
-55.79583216313905
 21
-12.12965306416454
 31
0.0
  0
TEXT
  5
217
330
1F
100
AcDbEntity
  8
その他
  6
Continuous
 62
     7
370
     9
100
AcDbText
 10
-95.61410023461416
 20
49.34436679060115
 30
0.0
 40
2.286
  1
蓋　CAC202
 41
1.15
  7
ＭＳ ゴシック
100
AcDbText
  0
TEXT
  5
218
330
1F
100
AcDbEntity
  8
その他
  6
Continuous
 62
     7
370
     9
100
AcDbText
 10
-95.61410023461416
 20
39.04489646987076
 30
0.0
 40
2.286
  1
シート押え　CAC202
 41
1.157407407407407
  7
ＭＳ ゴシック
100
AcDbText
  0
TEXT
  5
219
330
1F
100
AcDbEntity
  8
その他
  6
Continuous
 62
     7
370
     9
100
AcDbText
 10
-95.63173600578519
 20
17.15926436031951
 30
0.0
 40
2.286
  1
十字穴付皿小ねじ　SUS304
 41
1.159722222222222
  7
ＭＳ ゴシック
100
AcDbText
  0
TEXT
  5
21A
330
1F
100
AcDbEntity
  8
その他
  6
Continuous
 62
     7
370
     9
100
AcDbText
 10
-95.63173600578519
 20
7.692094464752547
 30
0.0
 40
2.286
  1
スナップリング　SUS304
 41
1.159090909090909
  7
ＭＳ ゴシック
100
AcDbText
  0
LINE
  5
21B
330
1F
100
AcDbEntity
  8
その他
  6
Continuous
 62
     7
370
     9
100
AcDbLine
 10
-61.25456317443557
 20
57.78604237206007
 30
0.0
 11
-96.68697736793442
 21
57.78604237206007
 31
0.0
  0
LINE
  5
21C
330
1F
100
AcDbEntity
  8
その他
  6
Continuous
 62
     7
370
     9
100
AcDbLine
 10
-55.68652533910691
 20
48.81736002384215
 30
0.0
 11
-96.68697736793442
 21
48.81736002384215
 31
0.0
  0
LINE
  5
21D
330
1F
100
AcDbEntity
  8
その他
  6
Continuous
 62
     7
370
     9
100
AcDbLine
 10
-96.58914268719718
 20
38.24207639645205
 30
0.0
 11
-56.63957000975158
 21
38.24207639645205
 31
0.0
  0
LINE
  5
21E
330
1F
100
AcDbEntity
  8
その他
  6
Continuous
 62
     7
370
     9
100
AcDbLine
 10
-61.83701119549902
 20
27.48472108550679
 30
0.0
 11
-96.68697736793442
 21
27.48472108550679
 31
0.0
  0
LINE
  5
21F
330
1F
100
AcDbEntity
  8
その他
  6
Continuous
 62
     7
370
     9
100
AcDbLine
 10
-96.5891426871972
 20
16.52666864016258
 30
0.0
 11
-51.52320024757792
 21
16.52666864016258
 31
0.0
  0
LINE
  5
220
330
1F
100
AcDbEntity
  8
その他
  6
Continuous
 62
     7
370
     9
100
AcDbLine
 10
-57.66785283012888
 20
6.981855406647323
 30
0.0
 11
-96.49130800645996
 21
6.981855406647323
 31
0.0
  0
LINE
  5
221
330
1F
100
AcDbEntity
  8
その他
  6
Continuous
 62
     7
370
     9
100
AcDbLine
 10
-96.68697736793443
 20
-1.848064083415814
 30
0.0
 11
-53.917276943202
 21
-1.848064083415814
 31
0.0
  0
LINE
  5
222
330
1F
100
AcDbEntity
  8
その他
  6
Continuous
 62
     7
370
    80
100
AcDbLine
 10
5.854067738057417
 20
21.64705642258257
 30
0.0
 11
5.006524255728884
 21
22.17778238347238
 31
0.0
  0
LINE
  5
223
330
1F
100
AcDbEntity
  8
その他
  6
Continuous
 62
     7
370
    80
100
AcDbLine
 10
5.854067738057417
 20
21.64705642258257
 30
0.0
 11
5.172765585981903
 21
22.37905872966726
 31
0.0
  0
TEXT
  5
224
330
1F
100
AcDbEntity
  8
その他
  6
Continuous
 62
     7
370
     9
100
AcDbText
 10
-95.66026105638754
 20
67.89006295983975
 30
0.0
 40
2.286
  1
引き上げボルト　C3604BD
 41
1.159420289855073
  7
ＭＳ ゴシック
100
AcDbText
  0
LINE
  5
225
330
1F
100
AcDbEntity
  8
その他
  6
Continuous
 62
     7
370
     9
100
AcDbLine
 10
-96.21445592278917
 20
66.9167739190851
 30
0.0
 11
-48.95614893369739
 21
66.9167739190851
 31
0.0
  0
LINE
  5
226
330
1F
100
AcDbEntity
  8
その他
  6
Continuous
 62
     7
370
    80
100
AcDbLine
 10
5.854067738057417
 20
21.64705642258257
 30
0.0
 11
-48.95614893369739
 21
66.9167739190851
 31
0.0
  0
TEXT
  5
227
330
1F
100
AcDbEntity
  8
その他
  6
Continuous
 62
     7
370
     9
100
AcDbText
 10
51.48644143742952
 20
-56.73482965442471
 30
0.0
 40
2.286
  1
t1
 41
1.083333333333333
  7
ＭＳ ゴシック
100
AcDbText
  0
TEXT
  5
228
330
1F
100
AcDbEntity
  8
その他
  6
Continuous
 62
     7
370
     9
100
AcDbText
 10
21.61652836186064
 20
-56.48694655836191
 30
0.0
 40
2.286
  1
Ｈ
  7
ＭＳ ゴシック
100
AcDbText
  0
TEXT
  5
229
330
1F
100
AcDbEntity
  8
その他
  6
Continuous
 62
     7
370
     9
100
AcDbText
 10
-47.41891389163257
 20
-56.61088810639331
 30
0.0
 40
2.286
  1
ａ
  7
ＭＳ ゴシック
100
AcDbText
  0
TEXT
  5
22A
330
1F
100
AcDbEntity
  8
その他
  6
Continuous
 62
     7
370
     9
100
AcDbText
 10
-35.89234992471179
 20
-56.61088810639331
 30
0.0
 40
2.286
  1
ｂ
  7
ＭＳ ゴシック
100
AcDbText
  0
TEXT
  5
22B
330
1F
100
AcDbEntity
  8
その他
  6
Continuous
 62
     7
370
     9
100
AcDbText
 10
-23.99396131369681
 20
-56.73482965442472
 30
0.0
 40
2.286
  1
Ｃ
  7
ＭＳ ゴシック
100
AcDbText
  0
TEXT
  5
22C
330
1F
100
AcDbEntity
  8
その他
  6
Continuous
 62
     7
370
     9
100
AcDbText
 10
-84.19482195915701
 20
-56.9222904147757
 30
0.0
 40
2.286
  1
呼称
 41
1.083333333333333
  7
ＭＳ ゴシック
100
AcDbText
  0
TEXT
  5
22D
330
1F
100
AcDbEntity
  8
その他
  6
Continuous
 62
     7
370
     9
100
AcDbText
 10
-95.48381147616695
 20
28.17964181687793
 30
0.0
 40
2.286
  1
パッキンA
 41
1.148148148148148
  7
ＭＳ ゴシック
100
AcDbText
  0
TEXT
  5
22E
330
1F
100
AcDbEntity
  8
F-4ﾚｲﾔ
  6
Continuous
 62
     2
370
     9
100
AcDbText
 10
-12.8048152508059
 20
-112.8144144440623
 30
0.0
 40
3.048
  1
シート床用　掃兼ドレン　　ＳＫＮ－Ｅ
 41
1.118055555555556
  7
ＭＳ ゴシック
100
AcDbText
  0
TEXT
  5
22F
330
1F
100
AcDbEntity
  8
その他
  6
Continuous
 62
     7
370
     9
100
AcDbText
 10
-95.4438610557591
 20
58.4521628593462
 30
0.0
 40
2.286
  1
パッキンB
 41
1.148148148148148
  7
ＭＳ ゴシック
100
AcDbText
  0
TEXT
  5
230
330
1F
100
AcDbEntity
  8
その他
  6
Continuous
 62
     7
370
     9
100
AcDbText
 10
-95.52898064518662
 20
54.62178133510763
 30
0.0
 40
2.286
  1
クロロプレン
 41
1.138888888888889
  7
ＭＳ ゴシック
100
AcDbText
  0
TEXT
  5
231
330
1F
100
AcDbEntity
  8
その他
  6
Continuous
 62
     7
370
     9
100
AcDbText
 10
-95.2619246817396
 20
24.62945310604032
 30
0.0
 40
2.286
  1
クロロプレン
 41
1.138888888888889
  7
ＭＳ ゴシック
100
AcDbText
  0
TEXT
  5
232
330
1F
100
AcDbEntity
  8
その他
  6
Continuous
 62
     7
370
     9
100
AcDbText
 10
-95.56512305692961
 20
-1.17055510152891
 30
0.0
 40
2.286
  1
ストレーナー　CAC202
 41
1.158333333333333
  7
ＭＳ ゴシック
100
AcDbText
  0
TEXT
  5
233
330
1F
100
AcDbEntity
  8
その他
  6
Continuous
 62
     7
370
     9
100
AcDbText
 10
-95.8467603056156
 20
63.77895573508042
 30
0.0
 40
2.286
  1
ニッケルめっき
 41
1.142857142857142
  7
ＭＳ ゴシック
100
AcDbText
  0
TEXT
  5
234
330
1F
100
AcDbEntity
  8
その他
  6
Continuous
 62
     7
370
     9
100
AcDbText
 10
-95.78433941346918
 20
45.68422444521762
 30
0.0
 40
2.286
  1
ニッケルめっき
 41
1.142857142857143
  7
ＭＳ ゴシック
100
AcDbText
  0
TEXT
  5
235
330
1F
100
AcDbEntity
  8
その他
  6
Continuous
 62
     7
370
     9
100
AcDbText
 10
-95.52898064518662
 20
35.04427576677715
 30
0.0
 40
2.286
  1
ニッケルめっき
 41
1.142857142857142
  7
ＭＳ ゴシック
100
AcDbText
  0
TEXT
  5
236
330
1F
100
AcDbEntity
  8
その他
  6
Continuous
 62
     7
370
     9
100
AcDbText
 10
-95.25864094482417
 20
-5.001581502846806
 30
0.0
 40
2.286
  1
ニッケルめっき
 41
1.142857142857143
  7
ＭＳ ゴシック
100
AcDbText
  0
ENDSEC
  0
SECTION
  2
OBJECTS
  0
DICTIONARY
  5
C
330
0
100
AcDbDictionary
281
     1
  3
ACAD_GROUP
350
D
  3
ACAD_LAYOUT
350
1A
  3
ACAD_MLEADERSTYLE
350
238
  3
ACAD_MLINESTYLE
350
17
  3
ACAD_PLOTSETTINGS
350
19
  3
ACAD_PLOTSTYLENAME
350
E
  3
ACAD_TABLESTYLE
350
237
  3
ACAD_VISUALSTYLE
350
2A
  0
DICTIONARY
  5
D
102
{ACAD_REACTORS
330
C
102
}
330
C
100
AcDbDictionary
281
     1
  0
DICTIONARY
  5
1A
102
{ACAD_REACTORS
330
C
102
}
330
C
100
AcDbDictionary
281
     1
  3
Layout1
350
1E
  3
Layout2
350
26
  3
Model
350
22
  0
DICTIONARY
  5
238
102
{ACAD_REACTORS
330
C
102
}
330
C
100
AcDbDictionary
281
     1
  0
DICTIONARY
  5
17
102
{ACAD_REACTORS
330
C
102
}
330
C
100
AcDbDictionary
281
     1
  3
Standard
350
18
  0
DICTIONARY
  5
19
102
{ACAD_REACTORS
330
C
102
}
330
C
100
AcDbDictionary
281
     1
  0
ACDBDICTIONARYWDFLT
  5
E
102
{ACAD_REACTORS
330
C
102
}
330
C
100
AcDbDictionary
281
     1
  3
Normal
350
F
100
AcDbDictionaryWithDefault
340
F
  0
DICTIONARY
  5
237
102
{ACAD_REACTORS
330
C
102
}
330
C
100
AcDbDictionary
281
     1
  0
DICTIONARY
  5
2A
102
{ACAD_REACTORS
330
C
102
}
330
C
100
AcDbDictionary
281
     1
  3
2dWireframe
350
2F
  3
3D Hidden
350
31
  3
3dWireframe
350
30
  3
Basic
350
32
  3
Brighten
350
36
  3
ColorChange
350
3A
  3
Conceptual
350
34
  3
Dim
350
35
  3
Facepattern
350
39
  3
Flat
350
2B
  3
FlatWithEdges
350
2C
  3
Gouraud
350
2D
  3
GouraudWithEdges
350
2E
  3
Linepattern
350
38
  3
Realistic
350
33
  3
Thicken
350
37
  0
LAYOUT
  5
1E
102
{ACAD_REACTORS
330
1A
102
}
330
1A
100
AcDbPlotSettings
  1

  2
none_device
  4

  6

 40
0.0
 41
0.0
 42
0.0
 43
0.0
 44
0.0
 45
0.0
 46
0.0
 47
0.0
 48
0.0
 49
0.0
140
0.0
141
0.0
142
1.0
143
1.0
 70
   688
 72
     0
 73
     0
 74
     5
  7

 75
    16
 76
     0
 77
     5
 78
   300
147
1.0
148
0.0
149
0.0
100
AcDbLayout
  1
Layout1
 70
     1
 71
     1
 10
0.0
 20
0.0
 11
420.0
 21
297.0
 12
0.0
 22
0.0
 32
0.0
 14
1.000000000000000E+20
 24
1.000000000000000E+20
 34
1.000000000000000E+20
 15
-1.000000000000000E+20
 25
-1.000000000000000E+20
 35
-1.000000000000000E+20
146
0.0
 13
0.0
 23
0.0
 33
0.0
 16
1.0
 26
0.0
 36
0.0
 17
0.0
 27
1.0
 37
0.0
 76
     0
330
1B
  0
LAYOUT
  5
26
102
{ACAD_REACTORS
330
1A
102
}
330
1A
100
AcDbPlotSettings
  1

  2
none_device
  4

  6

 40
0.0
 41
0.0
 42
0.0
 43
0.0
 44
0.0
 45
0.0
 46
0.0
 47
0.0
 48
0.0
 49
0.0
140
0.0
141
0.0
142
1.0
143
1.0
 70
   688
 72
     0
 73
     0
 74
     5
  7

 75
    16
 76
     0
 77
     5
 78
   300
147
1.0
148
0.0
149
0.0
100
AcDbLayout
  1
Layout2
 70
     1
 71
     2
 10
0.0
 20
0.0
 11
0.0
 21
0.0
 12
0.0
 22
0.0
 32
0.0
 14
0.0
 24
0.0
 34
0.0
 15
0.0
 25
0.0
 35
0.0
146
0.0
 13
0.0
 23
0.0
 33
0.0
 16
1.0
 26
0.0
 36
0.0
 17
0.0
 27
1.0
 37
0.0
 76
     0
330
23
  0
LAYOUT
  5
22
102
{ACAD_REACTORS
330
1A
102
}
330
1A
100
AcDbPlotSettings
  1

  2
none_device
  4

  6

 40
0.0
 41
0.0
 42
0.0
 43
0.0
 44
0.0
 45
0.0
 46
0.0
 47
0.0
 48
0.0
 49
0.0
140
0.0
141
0.0
142
1.0
143
1.0
 70
  1712
 72
     0
 73
     0
 74
     0
  7

 75
     0
 76
     0
 77
     5
 78
   300
147
1.0
148
0.0
149
0.0
100
AcDbLayout
  1
Model
 70
     1
 71
     0
 10
-210.0
 20
-148.5
 11
210.0
 21
148.5
 12
0.0
 22
0.0
 32
0.0
 14
-210.0
 24
-148.5
 34
0.0
 15
210.0
 25
148.5
 35
0.0
146
0.0
 13
0.0
 23
0.0
 33
0.0
 16
1.0
 26
0.0
 36
0.0
 17
0.0
 27
1.0
 37
0.0
 76
     0
330
1F
331
29
  0
MLINESTYLE
  5
18
102
{ACAD_REACTORS
330
17
102
}
330
17
100
AcDbMlineStyle
  2
Standard
 70
     0
  3

 62
   256
 51
90.0
 52
90.0
 71
     2
 49
0.5
 62
   256
  6
BYLAYER
 49
-0.5
 62
   256
  6
BYLAYER
  0
ACDBPLACEHOLDER
  5
F
102
{ACAD_REACTORS
330
E
102
}
330
E
  0
VISUALSTYLE
  5
2F
102
{ACAD_REACTORS
330
2A
102
}
330
2A
100
AcDbVisualStyle
  2
2dWireframe
 70
     4
 71
     0
 72
     2
 73
     0
 90
        0
 40
-0.6
 41
-30.0
 62
     5
 63
     7
421
 16777215
 74
     1
 91
        4
 64
     7
 65
   257
 75
     1
175
     1
 42
1.0
 92
        0
 66
   257
 43
1.0
 76
     1
 77
     6
 78
     2
 67
     7
 79
     5
170
     0
171
     0
290
     0
174
     0
 93
        1
 44
0.0
173
     0
291
     0
 45
0.0
1001
ACAD
1000
AcDbSavedByObjectVersion
1070
     0
  0
VISUALSTYLE
  5
31
102
{ACAD_REACTORS
330
2A
102
}
330
2A
100
AcDbVisualStyle
  2
3D Hidden
 70
     6
 71
     1
 72
     2
 73
     2
 90
        0
 40
-0.6
 41
-30.0
 62
     5
 63
     7
421
 16777215
 74
     2
 91
        2
 64
     7
 65
   257
 75
     2
175
     1
 42
40.0
 92
        0
 66
   257
 43
1.0
 76
     1
 77
     6
 78
     2
 67
     7
 79
     3
170
     0
171
     0
290
     0
174
     0
 93
        1
 44
0.0
173
     0
291
     0
 45
0.0
1001
ACAD
1000
AcDbSavedByObjectVersion
1070
     0
  0
VISUALSTYLE
  5
30
102
{ACAD_REACTORS
330
2A
102
}
330
2A
100
AcDbVisualStyle
  2
3dWireframe
 70
     5
 71
     0
 72
     2
 73
     0
 90
        0
 40
-0.6
 41
-30.0
 62
     5
 63
     7
421
 16777215
 74
     1
 91
        4
 64
     7
 65
   257
 75
     1
175
     1
 42
1.0
 92
        0
 66
   257
 43
1.0
 76
     1
 77
     6
 78
     2
 67
     7
 79
     5
170
     0
171
     0
290
     0
174
     0
 93
        1
 44
0.0
173
     0
291
     0
 45
0.0
1001
ACAD
1000
AcDbSavedByObjectVersion
1070
     0
  0
VISUALSTYLE
  5
32
102
{ACAD_REACTORS
330
2A
102
}
330
2A
100
AcDbVisualStyle
  2
Basic
 70
     7
 71
     1
 72
     0
 73
     1
 90
        0
 40
-0.6
 41
-30.0
 62
     5
 63
     7
421
 16777215
 74
     0
 91
        4
 64
     7
 65
   257
 75
     1
175
     1
 42
1.0
 92
        8
 66
     7
 43
1.0
 76
     1
 77
     6
 78
     2
 67
     7
 79
     5
170
     0
171
     0
290
     0
174
     0
 93
        1
 44
0.0
173
     0
291
     1
 45
0.0
1001
ACAD
1000
AcDbSavedByObjectVersion
1070
     0
  0
VISUALSTYLE
  5
36
102
{ACAD_REACTORS
330
2A
102
}
330
2A
100
AcDbVisualStyle
  2
Brighten
 70
    12
 71
     2
 72
     2
 73
     0
 90
        0
 40
-0.6
 41
-30.0
 62
     5
 63
     7
421
 16777215
 74
     1
 91
        4
 64
     7
 65
   257
 75
     1
175
     1
 42
1.0
 92
        8
 66
     7
 43
1.0
 76
     1
 77
     6
 78
     2
 67
     7
 79
     5
170
     0
171
     0
290
     0
174
     0
 93
        1
 44
50.0
173
     0
291
     1
 45
0.0
1001
ACAD
1000
AcDbSavedByObjectVersion
1070
     0
  0
VISUALSTYLE
  5
3A
102
{ACAD_REACTORS
330
2A
102
}
330
2A
100
AcDbVisualStyle
  2
ColorChange
 70
    16
 71
     2
 72
     2
 73
     3
 90
        0
 40
-0.6
 41
-30.0
 62
     5
 63
     8
421
  8421504
 74
     1
 91
        4
 64
     7
 65
   257
 75
     1
175
     1
 42
1.0
 92
        8
 66
     8
424
  8421504
 43
1.0
 76
     1
 77
     6
 78
     2
 67
     7
 79
     5
170
     0
171
     0
290
     0
174
     0
 93
        1
 44
0.0
173
     0
291
     1
 45
0.0
1001
ACAD
1000
AcDbSavedByObjectVersion
1070
     0
  0
VISUALSTYLE
  5
34
102
{ACAD_REACTORS
330
2A
102
}
330
2A
100
AcDbVisualStyle
  2
Conceptual
 70
     9
 71
     3
 72
     2
 73
     0
 90
        0
 40
-0.6
 41
-30.0
 62
     5
 63
     7
421
 16777215
 74
     2
 91
        2
 64
     7
 65
   257
 75
     1
175
     1
 42
40.0
 92
        8
 66
     7
 43
1.0
 76
     1
 77
     6
 78
     2
 67
     7
 79
     3
170
     0
171
     0
290
     0
174
     0
 93
        1
 44
0.0
173
     0
291
     0
 45
0.0
1001
ACAD
1000
AcDbSavedByObjectVersion
1070
     0
  0
VISUALSTYLE
  5
35
102
{ACAD_REACTORS
330
2A
102
}
330
2A
100
AcDbVisualStyle
  2
Dim
 70
    11
 71
     2
 72
     2
 73
     0
 90
        0
 40
-0.6
 41
-30.0
 62
     5
 63
     7
421
 16777215
 74
     1
 91
        4
 64
     7
 65
   257
 75
     1
175
     1
 42
1.0
 92
        8
 66
     7
 43
1.0
 76
     1
 77
     6
 78
     2
 67
     7
 79
     5
170
     0
171
     0
290
     0
174
     0
 93
        1
 44
-50.0
173
     0
291
     1
 45
0.0
1001
ACAD
1000
AcDbSavedByObjectVersion
1070
     0
  0
VISUALSTYLE
  5
39
102
{ACAD_REACTORS
330
2A
102
}
330
2A
100
AcDbVisualStyle
  2
Facepattern
 70
    15
 71
     2
 72
     2
 73
     0
 90
        0
 40
-0.6
 41
-30.0
 62
     5
 63
     7
421
 16777215
 74
     1
 91
        4
 64
     7
 65
   257
 75
     1
175
     1
 42
1.0
 92
        8
 66
     7
 43
1.0
 76
     1
 77
     6
 78
     2
 67
     7
 79
     5
170
     0
171
     0
290
     0
174
     0
 93
        1
 44
0.0
173
     0
291
     1
 45
0.0
1001
ACAD
1000
AcDbSavedByObjectVersion
1070
     0
  0
VISUALSTYLE
  5
2B
102
{ACAD_REACTORS
330
2A
102
}
330
2A
100
AcDbVisualStyle
  2
Flat
 70
     0
 71
     2
 72
     1
 73
     1
 90
        2
 40
-0.6
 41
30.0
 62
     5
 63
     7
421
 16777215
 74
     0
 91
        4
 64
     7
 65
   257
 75
     1
175
     1
 42
1.0
 92
        8
 66
     7
 43
1.0
 76
     1
 77
     6
 78
     2
 67
     7
 79
     5
170
     0
171
     0
290
     0
174
     0
 93
       13
 44
0.0
173
     0
291
     1
 45
0.0
1001
ACAD
1000
AcDbSavedByObjectVersion
1070
     0
  0
VISUALSTYLE
  5
2C
102
{ACAD_REACTORS
330
2A
102
}
330
2A
100
AcDbVisualStyle
  2
FlatWithEdges
 70
     1
 71
     2
 72
     1
 73
     1
 90
        2
 40
-0.6
 41
30.0
 62
     5
 63
     7
421
 16777215
 74
     1
 91
        4
 64
     7
 65
   257
 75
     1
175
     1
 42
1.0
 92
        0
 66
   257
 43
1.0
 76
     1
 77
     6
 78
     2
 67
     7
 79
     5
170
     0
171
     0
290
     0
174
     0
 93
       13
 44
0.0
173
     0
291
     1
 45
0.0
1001
ACAD
1000
AcDbSavedByObjectVersion
1070
     0
  0
VISUALSTYLE
  5
2D
102
{ACAD_REACTORS
330
2A
102
}
330
2A
100
AcDbVisualStyle
  2
Gouraud
 70
     2
 71
     2
 72
     2
 73
     1
 90
        2
 40
-0.6
 41
30.0
 62
     5
 63
     7
421
 16777215
 74
     0
 91
        4
 64
     7
 65
   257
 75
     1
175
     1
 42
1.0
 92
        0
 66
     7
 43
1.0
 76
     1
 77
     6
 78
     2
 67
     7
 79
     5
170
     0
171
     0
290
     0
174
     0
 93
       13
 44
0.0
173
     0
291
     1
 45
0.0
1001
ACAD
1000
AcDbSavedByObjectVersion
1070
     0
  0
VISUALSTYLE
  5
2E
102
{ACAD_REACTORS
330
2A
102
}
330
2A
100
AcDbVisualStyle
  2
GouraudWithEdges
 70
     3
 71
     2
 72
     2
 73
     1
 90
        2
 40
-0.6
 41
30.0
 62
     5
 63
     7
421
 16777215
 74
     1
 91
        4
 64
     7
 65
   257
 75
     1
175
     1
 42
1.0
 92
        0
 66
   257
 43
1.0
 76
     1
 77
     6
 78
     2
 67
     7
 79
     5
170
     0
171
     0
290
     0
174
     0
 93
       13
 44
0.0
173
     0
291
     1
 45
0.0
1001
ACAD
1000
AcDbSavedByObjectVersion
1070
     0
  0
VISUALSTYLE
  5
38
102
{ACAD_REACTORS
330
2A
102
}
330
2A
100
AcDbVisualStyle
  2
Linepattern
 70
    14
 71
     2
 72
     2
 73
     0
 90
        0
 40
-0.6
 41
-30.0
 62
     5
 63
     7
421
 16777215
 74
     1
 91
        4
 64
     7
 65
   257
 75
     7
175
     7
 42
1.0
 92
        8
 66
     7
 43
1.0
 76
     1
 77
     6
 78
     2
 67
     7
 79
     5
170
     0
171
     0
290
     0
174
     0
 93
        1
 44
0.0
173
     0
291
     1
 45
0.0
1001
ACAD
1000
AcDbSavedByObjectVersion
1070
     0
  0
VISUALSTYLE
  5
33
102
{ACAD_REACTORS
330
2A
102
}
330
2A
100
AcDbVisualStyle
  2
Realistic
 70
     8
 71
     2
 72
     2
 73
     0
 90
        0
 40
-0.6
 41
-30.0
 62
     5
 63
     7
421
 16777215
 74
     1
 91
        0
 64
     7
 65
   257
 75
     1
175
     1
 42
1.0
 92
        8
 66
     8
424
  7895160
 43
1.0
 76
     1
 77
     6
 78
     2
 67
     7
 79
     5
170
     0
171
     0
290
     0
174
     0
 93
       13
 44
0.0
173
     0
291
     0
 45
0.0
1001
ACAD
1000
AcDbSavedByObjectVersion
1070
     0
  0
VISUALSTYLE
  5
37
102
{ACAD_REACTORS
330
2A
102
}
330
2A
100
AcDbVisualStyle
  2
Thicken
 70
    13
 71
     2
 72
     2
 73
     0
 90
        0
 40
-0.6
 41
-30.0
 62
     5
 63
     7
421
 16777215
 74
     1
 91
        4
 64
     7
 65
   257
 75
     1
175
     1
 42
1.0
 92
       12
 66
     7
 43
1.0
 76
     1
 77
     6
 78
     2
 67
     7
 79
     5
170
     0
171
     0
290
     0
174
     0
 93
        1
 44
0.0
173
     0
291
     1
 45
0.0
1001
ACAD
1000
AcDbSavedByObjectVersion
1070
     0
  0
ENDSEC
  0
EOF
