  0
SECTION
  2
HEADER
  9
$ACADVER
  1
AC1018
  9
$ACADMAINTVER
 70
     0
  9
$DWGCODEPAGE
  3
ANSI_932
  9
$INSBASE
 10
0.0
 20
0.0
 30
0.0
  9
$EXTMIN
 10
-630.0
 20
-445.5
 30
0.0
  9
$EXTMAX
 10
630.0
 20
445.5
 30
0.0
  9
$LIMMIN
 10
-630.0
 20
-445.5
  9
$LIMMAX
 10
630.0
 20
445.5
  9
$ORTHOMODE
 70
     0
  9
$REGENMODE
 70
     1
  9
$FILLMODE
 70
     1
  9
$QTEXTMODE
 70
     0
  9
$MIRRTEXT
 70
     1
  9
$LTSCALE
 40
3.0
  9
$ATTMODE
 70
     1
  9
$TEXTSIZE
 40
2.5
  9
$TRACEWID
 40
1.0
  9
$TEXTSTYLE
  7
Standard
  9
$CLAYER
  8
0
  9
$CELTYPE
  6
ByLayer
  9
$CECOLOR
 62
   256
  9
$CELTSCALE
 40
1.0
  9
$DISPSILH
 70
     0
  9
$DIMSCALE
 40
1.0
  9
$DIMASZ
 40
2.5
  9
$DIMEXO
 40
0.625
  9
$DIMDLI
 40
3.75
  9
$DIMRND
 40
0.0
  9
$DIMDLE
 40
0.0
  9
$DIMEXE
 40
1.25
  9
$DIMTP
 40
0.0
  9
$DIMTM
 40
0.0
  9
$DIMTXT
 40
2.5
  9
$DIMCEN
 40
2.5
  9
$DIMTSZ
 40
0.0
  9
$DIMTOL
 70
     0
  9
$DIMLIM
 70
     0
  9
$DIMTIH
 70
     0
  9
$DIMTOH
 70
     0
  9
$DIMSE1
 70
     0
  9
$DIMSE2
 70
     0
  9
$DIMTAD
 70
     1
  9
$DIMZIN
 70
     8
  9
$DIMBLK
  1

  9
$DIMASO
 70
     1
  9
$DIMSHO
 70
     1
  9
$DIMPOST
  1

  9
$DIMAPOST
  1

  9
$DIMALT
 70
     0
  9
$DIMALTD
 70
     3
  9
$DIMALTF
 40
0.03937007874016
  9
$DIMLFAC
 40
1.0
  9
$DIMTOFL
 70
     1
  9
$DIMTVP
 40
0.0
  9
$DIMTIX
 70
     0
  9
$DIMSOXD
 70
     0
  9
$DIMSAH
 70
     0
  9
$DIMBLK1
  1

  9
$DIMBLK2
  1

  9
$DIMSTYLE
  2
ISO-25
  9
$DIMCLRD
 70
     0
  9
$DIMCLRE
 70
     0
  9
$DIMCLRT
 70
     0
  9
$DIMTFAC
 40
1.0
  9
$DIMGAP
 40
0.625
  9
$DIMJUST
 70
     0
  9
$DIMSD1
 70
     0
  9
$DIMSD2
 70
     0
  9
$DIMTOLJ
 70
     0
  9
$DIMTZIN
 70
     8
  9
$DIMALTZ
 70
     0
  9
$DIMALTTZ
 70
     0
  9
$DIMUPT
 70
     0
  9
$DIMDEC
 70
     2
  9
$DIMTDEC
 70
     2
  9
$DIMALTU
 70
     2
  9
$DIMALTTD
 70
     3
  9
$DIMTXSTY
  7
Standard
  9
$DIMAUNIT
 70
     0
  9
$DIMADEC
 70
     0
  9
$DIMALTRND
 40
0.0
  9
$DIMAZIN
 70
     0
  9
$DIMDSEP
 70
    44
  9
$DIMATFIT
 70
     3
  9
$DIMFRAC
 70
     0
  9
$DIMLDRBLK
  1

  9
$DIMLUNIT
 70
     2
  9
$DIMLWD
 70
    -2
  9
$DIMLWE
 70
    -2
  9
$DIMTMOVE
 70
     0
  9
$LUNITS
 70
     2
  9
$LUPREC
 70
     4
  9
$SKETCHINC
 40
1.0
  9
$FILLETRAD
 40
10.0
  9
$AUNITS
 70
     0
  9
$AUPREC
 70
     0
  9
$MENU
  1
.
  9
$ELEVATION
 40
0.0
  9
$PELEVATION
 40
0.0
  9
$THICKNESS
 40
0.0
  9
$LIMCHECK
 70
     0
  9
$CHAMFERA
 40
10.0
  9
$CHAMFERB
 40
10.0
  9
$CHAMFERC
 40
20.0
  9
$CHAMFERD
 40
0.0
  9
$SKPOLY
 70
     0
  9
$TDCREATE
 40
2459003.386685359
  9
$TDUCREATE
 40
2459003.011685359
  9
$TDUPDATE
 40
2459003.38668537
  9
$TDUUPDATE
 40
2459003.01168537
  9
$TDINDWG
 40
0.0000000116
  9
$TDUSRTIMER
 40
0.0000000116
  9
$USRTIMER
 70
     1
  9
$ANGBASE
 50
0.0
  9
$ANGDIR
 70
     0
  9
$PDMODE
 70
     0
  9
$PDSIZE
 40
0.0
  9
$PLINEWID
 40
0.0
  9
$SPLFRAME
 70
     0
  9
$SPLINETYPE
 70
     6
  9
$SPLINESEGS
 70
     8
  9
$HANDSEED
  5
24A
  9
$SURFTAB1
 70
     6
  9
$SURFTAB2
 70
     6
  9
$SURFTYPE
 70
     6
  9
$SURFU
 70
     6
  9
$SURFV
 70
     6
  9
$UCSBASE
  2

  9
$UCSNAME
  2

  9
$UCSORG
 10
0.0
 20
0.0
 30
0.0
  9
$UCSXDIR
 10
1.0
 20
0.0
 30
0.0
  9
$UCSYDIR
 10
0.0
 20
1.0
 30
0.0
  9
$UCSORTHOREF
  2

  9
$UCSORTHOVIEW
 70
     0
  9
$UCSORGTOP
 10
0.0
 20
0.0
 30
0.0
  9
$UCSORGBOTTOM
 10
0.0
 20
0.0
 30
0.0
  9
$UCSORGLEFT
 10
0.0
 20
0.0
 30
0.0
  9
$UCSORGRIGHT
 10
0.0
 20
0.0
 30
0.0
  9
$UCSORGFRONT
 10
0.0
 20
0.0
 30
0.0
  9
$UCSORGBACK
 10
0.0
 20
0.0
 30
0.0
  9
$PUCSBASE
  2

  9
$PUCSNAME
  2

  9
$PUCSORG
 10
0.0
 20
0.0
 30
0.0
  9
$PUCSXDIR
 10
1.0
 20
0.0
 30
0.0
  9
$PUCSYDIR
 10
0.0
 20
1.0
 30
0.0
  9
$PUCSORTHOREF
  2

  9
$PUCSORTHOVIEW
 70
     0
  9
$PUCSORGTOP
 10
0.0
 20
0.0
 30
0.0
  9
$PUCSORGBOTTOM
 10
0.0
 20
0.0
 30
0.0
  9
$PUCSORGLEFT
 10
0.0
 20
0.0
 30
0.0
  9
$PUCSORGRIGHT
 10
0.0
 20
0.0
 30
0.0
  9
$PUCSORGFRONT
 10
0.0
 20
0.0
 30
0.0
  9
$PUCSORGBACK
 10
0.0
 20
0.0
 30
0.0
  9
$USERI1
 70
     0
  9
$USERI2
 70
     0
  9
$USERI3
 70
     0
  9
$USERI4
 70
     0
  9
$USERI5
 70
     0
  9
$USERR1
 40
0.0
  9
$USERR2
 40
0.0
  9
$USERR3
 40
0.0
  9
$USERR4
 40
0.0
  9
$USERR5
 40
0.0
  9
$WORLDVIEW
 70
     1
  9
$SHADEDGE
 70
     3
  9
$SHADEDIF
 70
    70
  9
$TILEMODE
 70
     1
  9
$MAXACTVP
 70
    64
  9
$PINSBASE
 10
0.0
 20
0.0
 30
0.0
  9
$PLIMCHECK
 70
     0
  9
$PEXTMIN
 10
1.000000000000000E+20
 20
1.000000000000000E+20
 30
1.000000000000000E+20
  9
$PEXTMAX
 10
-1.000000000000000E+20
 20
-1.000000000000000E+20
 30
-1.000000000000000E+20
  9
$PLIMMIN
 10
0.0
 20
0.0
  9
$PLIMMAX
 10
420.0
 20
297.0
  9
$UNITMODE
 70
     0
  9
$VISRETAIN
 70
     1
  9
$PLINEGEN
 70
     0
  9
$PSLTSCALE
 70
     1
  9
$TREEDEPTH
 70
  3020
  9
$CMLSTYLE
  2
Standard
  9
$CMLJUST
 70
     0
  9
$CMLSCALE
 40
20.0
  9
$PROXYGRAPHICS
 70
     1
  9
$MEASUREMENT
 70
     1
  9
$CELWEIGHT
370
    -1
  9
$ENDCAPS
280
     0
  9
$JOINSTYLE
280
     0
  9
$LWDISPLAY
290
     0
  9
$INSUNITS
 70
     4
  9
$HYPERLINKBASE
  1

  9
$STYLESHEET
  1

  9
$XEDIT
290
     1
  9
$CEPSNTYPE
380
     0
  9
$PSTYLEMODE
290
     1
  9
$FINGERPRINTGUID
  2
{22841AE6-8BE3-49DE-9734-BF2ED1F22BD6}
  9
$VERSIONGUID
  2
{FAEB1C32-E019-11D5-929B-00C0DF256EC4}
  9
$EXTNAMES
290
     1
  9
$PSVPSCALE
 40
0.0
  9
$OLESTARTUP
290
     0
  9
$SORTENTS
280
   127
  9
$INDEXCTL
280
     0
  9
$HIDETEXT
280
     1
  9
$XCLIPFRAME
290
     0
  9
$HALOGAP
280
     0
  9
$OBSCOLOR
 70
   257
  9
$OBSLTYPE
280
     0
  9
$INTERSECTIONDISPLAY
280
     0
  9
$INTERSECTIONCOLOR
 70
   257
  9
$DIMASSOC
280
     2
  9
$PROJECTNAME
  1

  0
ENDSEC
  0
SECTION
  2
CLASSES
  0
CLASS
  1
ACDBDICTIONARYWDFLT
  2
AcDbDictionaryWithDefault
  3
ObjectDBX Classes
 90
        0
 91
        4
280
     0
281
     0
  0
CLASS
  1
VISUALSTYLE
  2
AcDbVisualStyle
  3
ObjectDBX Classes
 90
     4095
 91
        4
280
     0
281
     0
  0
ENDSEC
  0
SECTION
  2
TABLES
  0
TABLE
  2
VPORT
  5
8
330
0
100
AcDbSymbolTable
 70
     1
  0
VPORT
  5
29
330
8
100
AcDbSymbolTableRecord
100
AcDbViewportTableRecord
  2
*Active
 70
     0
 10
0.0
 20
0.0
 11
1.0
 21
1.0
 12
0.0
 22
0.0
 13
0.0
 23
0.0
 14
10.0
 24
10.0
 15
10.0
 25
10.0
 16
0.0
 26
0.0
 36
1.0
 17
0.0
 27
0.0
 37
0.0
 40
980.1
 41
1.414141414141414
 42
50.0
 43
0.0
 44
0.0
 50
0.0
 51
0.0
 71
     0
 72
 10000
 73
     1
 74
     3
 75
     0
 76
     0
 77
     0
 78
     0
281
     0
 65
     1
110
0.0
120
0.0
130
0.0
111
1.0
121
0.0
131
0.0
112
0.0
122
1.0
132
0.0
 79
     0
146
0.0
  0
ENDTAB
  0
TABLE
  2
LTYPE
  5
5
330
0
100
AcDbSymbolTable
 70
     2
  0
LTYPE
  5
14
330
5
100
AcDbSymbolTableRecord
100
AcDbLinetypeTableRecord
  2
ByBlock
 70
     0
  3

 72
    65
 73
     0
 40
0.0
  0
LTYPE
  5
15
330
5
100
AcDbSymbolTableRecord
100
AcDbLinetypeTableRecord
  2
ByLayer
 70
     0
  3

 72
    65
 73
     0
 40
0.0
  0
LTYPE
  5
16
330
5
100
AcDbSymbolTableRecord
100
AcDbLinetypeTableRecord
  2
Continuous
 70
     0
  3
Solid line
 72
    65
 73
     0
 40
0.0
  0
LTYPE
  5
3C
330
5
100
AcDbSymbolTableRecord
100
AcDbLinetypeTableRecord
  2
JWW_CENTER1
 70
     0
  3
-----  --  ----------  --  -----
 72
    65
 73
     4
 40
6.773333333333333
 49
4.233333333333333
 74
     0
 49
-0.8466666666666667
 74
     0
 49
0.8466666666666667
 74
     0
 49
-0.8466666666666667
 74
     0
  0
ENDTAB
  0
TABLE
  2
LAYER
  5
2
330
0
100
AcDbSymbolTable
 70
     6
  0
LAYER
  5
10
330
2
100
AcDbSymbolTableRecord
100
AcDbLayerTableRecord
  2
0
 70
     0
 62
     7
  6
Continuous
370
    -3
390
F
  0
LAYER
  5
3D
330
2
100
AcDbSymbolTableRecord
100
AcDbLayerTableRecord
  2
F-5ﾚｲﾔ
 70
     0
 62
     7
  6
Continuous
370
    -1
390
F
  0
LAYER
  5
3E
330
2
100
AcDbSymbolTableRecord
100
AcDbLayerTableRecord
  2
2-0
 70
     0
 62
     7
  6
Continuous
370
    -1
390
F
  0
LAYER
  5
3F
330
2
100
AcDbSymbolTableRecord
100
AcDbLayerTableRecord
  2
2-5
 70
     0
 62
     7
  6
Continuous
370
    -1
390
F
  0
LAYER
  5
40
330
2
100
AcDbSymbolTableRecord
100
AcDbLayerTableRecord
  2
2-4
 70
     0
 62
     7
  6
Continuous
370
    -1
390
F
  0
LAYER
  5
41
330
2
100
AcDbSymbolTableRecord
100
AcDbLayerTableRecord
  2
F-4ﾚｲﾔ
 70
     0
 62
     7
  6
Continuous
370
    -1
390
F
  0
ENDTAB
  0
TABLE
  2
STYLE
  5
3
330
0
100
AcDbSymbolTable
 70
     2
  0
STYLE
  5
11
330
3
100
AcDbSymbolTableRecord
100
AcDbTextStyleTableRecord
  2
Standard
 70
     0
 40
0.0
 41
1.0
 50
0.0
 71
     0
 42
2.5
  3
txt
  4

1001
ACAD
1000

1071
        0
  0
STYLE
  5
3B
330
3
100
AcDbSymbolTableRecord
100
AcDbTextStyleTableRecord
  2
ＭＳ ゴシック
 70
     0
 40
1.0
 41
1.0
 50
0.0
 71
     0
 42
10.0
  3

  4

1001
ACAD
1000
MS Gothic
1071
    32817
  0
ENDTAB
  0
TABLE
  2
VIEW
  5
6
330
0
100
AcDbSymbolTable
 70
     0
  0
ENDTAB
  0
TABLE
  2
UCS
  5
7
330
0
100
AcDbSymbolTable
 70
     0
  0
ENDTAB
  0
TABLE
  2
APPID
  5
9
330
0
100
AcDbSymbolTable
 70
     1
  0
APPID
  5
12
330
9
100
AcDbSymbolTableRecord
100
AcDbRegAppTableRecord
  2
ACAD
 70
     0
  0
ENDTAB
  0
TABLE
  2
DIMSTYLE
  5
A
330
0
100
AcDbSymbolTable
 70
     1
100
AcDbDimStyleTable
  0
DIMSTYLE
105
27
330
A
100
AcDbSymbolTableRecord
100
AcDbDimStyleTableRecord
  2
ISO-25
 70
     0
 41
2.5
 42
0.625
 43
3.75
 44
1.25
 73
     0
 74
     0
 77
     1
 78
     8
140
2.5
141
2.5
143
0.03937007874016
147
0.625
171
     3
172
     1
271
     2
272
     2
274
     3
278
    44
283
     0
284
     8
340
11
  0
ENDTAB
  0
TABLE
  2
BLOCK_RECORD
  5
1
330
0
100
AcDbSymbolTable
 70
     1
  0
BLOCK_RECORD
  5
1F
330
1
100
AcDbSymbolTableRecord
100
AcDbBlockTableRecord
  2
*Model_Space
340
22
  0
BLOCK_RECORD
  5
1B
330
1
100
AcDbSymbolTableRecord
100
AcDbBlockTableRecord
  2
*Paper_Space
340
1E
  0
BLOCK_RECORD
  5
23
330
1
100
AcDbSymbolTableRecord
100
AcDbBlockTableRecord
  2
*Paper_Space0
340
26
  0
ENDTAB
  0
ENDSEC
  0
SECTION
  2
BLOCKS
  0
BLOCK
  5
20
330
1F
100
AcDbEntity
  8
0
100
AcDbBlockBegin
  2
*Model_Space
 70
     0
 10
0.0
 20
0.0
 30
0.0
  3
*Model_Space
  1

  0
ENDBLK
  5
21
330
1F
100
AcDbEntity
  8
0
100
AcDbBlockEnd
  0
BLOCK
  5
1C
330
1B
100
AcDbEntity
 67
     1
  8
0
100
AcDbBlockBegin
  2
*Paper_Space
 70
     0
 10
0.0
 20
0.0
 30
0.0
  3
*Paper_Space
  1

  0
ENDBLK
  5
1D
330
1B
100
AcDbEntity
 67
     1
  8
0
100
AcDbBlockEnd
  0
BLOCK
  5
24
330
23
100
AcDbEntity
  8
0
100
AcDbBlockBegin
  2
*Paper_Space0
 70
     0
 10
0.0
 20
0.0
 30
0.0
  3
*Paper_Space0
  1

  0
ENDBLK
  5
25
330
23
100
AcDbEntity
  8
0
100
AcDbBlockEnd
  0
ENDSEC
  0
SECTION
  2
ENTITIES
  0
TEXT
  5
42
330
1F
100
AcDbEntity
  8
F-5ﾚｲﾔ
  6
Continuous
 62
     2
370
     9
100
AcDbText
 10
-53.63024266728583
 20
-395.913503107559
 30
0.0
 40
9.144
  1
１：３
 41
1.083333333333333
  7
ＭＳ ゴシック
100
AcDbText
  0
TEXT
  5
43
330
1F
100
AcDbEntity
  8
F-5ﾚｲﾔ
  6
Continuous
 62
     2
370
     9
100
AcDbText
 10
19.96529910387567
 20
-342.5070785952645
 30
0.0
 40
9.144
  1
Ｔ５Ｗ－Ｂ　５０
 41
1.109375
  7
ＭＳ ゴシック
100
AcDbText
  0
ARC
  5
44
330
1F
100
AcDbEntity
  8
2-0
  6
Continuous
 62
     7
370
    80
100
AcDbCircle
 10
-17.91997567113152
 20
242.9073310554182
 30
0.0
 40
58.75
100
AcDbArc
 50
89.99999989715981
 51
179.9999997943196
  0
ARC
  5
45
330
1F
100
AcDbEntity
  8
2-0
  6
Continuous
 62
     7
370
    80
100
AcDbCircle
 10
-17.91997567113152
 20
242.9073310554182
 30
0.0
 40
51.49999999999999
100
AcDbArc
 50
140.2555553952899
 51
174.9888886889346
  0
ARC
  5
46
330
1F
100
AcDbEntity
  8
2-0
  6
Continuous
 62
     7
370
    80
100
AcDbCircle
 10
-17.91997567113152
 20
242.9073310554182
 30
0.0
 40
51.49999999999999
100
AcDbArc
 50
95.01111100254488
 51
129.7666665183864
  0
ARC
  5
47
330
1F
100
AcDbEntity
  8
2-0
  6
Continuous
 62
     7
370
    80
100
AcDbCircle
 10
-67.21997567113154
 20
247.4073310554182
 30
0.0
 40
2.0
100
AcDbArc
 50
174.7888886891631
 51
269.9999996914795
  0
ARC
  5
48
330
1F
100
AcDbEntity
  8
2-0
  6
Continuous
 62
     7
370
    80
100
AcDbCircle
 10
-17.91997567113152
 20
242.9073310554182
 30
0.0
 40
34.0
100
AcDbArc
 50
142.1999998375125
 51
172.8222220247437
  0
ARC
  5
49
330
1F
100
AcDbEntity
  8
2-0
  6
Continuous
 62
     7
370
    80
100
AcDbCircle
 10
-17.91997567113152
 20
242.9073310554182
 30
0.0
 40
34.0
100
AcDbArc
 50
97.17777766673576
 51
127.7999998539669
  0
ARC
  5
4A
330
1F
100
AcDbEntity
  8
2-0
  6
Continuous
 62
     7
370
    80
100
AcDbCircle
 10
-39.99497567113157
 20
271.3573310554183
 30
0.0
 40
2.0
100
AcDbArc
 50
224.9999997428995
 51
307.811110759385
  0
ARC
  5
4B
330
1F
100
AcDbEntity
  8
2-0
  6
Continuous
 62
     7
370
    80
100
AcDbCircle
 10
-46.36997567113157
 20
264.9823310554183
 30
0.0
 40
2.0
100
AcDbArc
 50
322.1888885207337
 51
45.03333328187434
  0
ARC
  5
4C
330
1F
100
AcDbEntity
  8
2-0
  6
Continuous
 62
     7
370
    80
100
AcDbCircle
 10
-53.64497567113152
 20
247.4073310554182
 30
0.0
 40
2.0
100
AcDbArc
 50
269.9999996914794
 51
352.8222218190633
  0
LINE
  5
4D
330
1F
100
AcDbEntity
  8
2-0
  6
Continuous
 62
     7
370
    80
100
AcDbLine
 10
-54.54497567113155
 20
275.9823310554183
 30
0.0
 11
-44.94497567113159
 21
266.4073310554182
 31
0.0
  0
ARC
  5
4E
330
1F
100
AcDbEntity
  8
2-0
  6
Continuous
 62
     7
370
    80
100
AcDbCircle
 10
-55.96997567113154
 20
274.5573310554183
 30
0.0
 40
2.0
100
AcDbArc
 50
45.03333328187515
 51
140.2444442841915
  0
LINE
  5
4F
330
1F
100
AcDbEntity
  8
2-0
  6
Continuous
 62
     7
370
    80
100
AcDbLine
 10
-51.01997567113152
 20
279.5323310554182
 30
0.0
 11
-41.41997567113155
 21
269.9323310554183
 31
0.0
  0
ARC
  5
50
330
1F
100
AcDbEntity
  8
2-0
  6
Continuous
 62
     7
370
    80
100
AcDbCircle
 10
-49.59497567113154
 20
280.9573310554183
 30
0.0
 40
2.0
100
AcDbArc
 50
129.7777776294848
 51
224.9999997428995
  0
LINE
  5
51
330
1F
100
AcDbEntity
  8
2-0
  6
Continuous
 62
     7
370
    80
100
AcDbLine
 10
-53.64497567113152
 20
245.4073310554183
 30
0.0
 11
-67.21997567113154
 21
245.4073310554183
 31
0.0
  0
LINE
  5
52
330
1F
100
AcDbEntity
  8
2-0
  6
Continuous
 62
     7
370
    80
100
AcDbLine
 10
-20.41997567113155
 20
278.6323310554183
 30
0.0
 11
-20.41997567113155
 21
292.2073310554182
 31
0.0
  0
ARC
  5
53
330
1F
100
AcDbEntity
  8
2-0
  6
Continuous
 62
     7
370
    80
100
AcDbCircle
 10
-22.41997567113152
 20
278.6323310554183
 30
0.0
 40
2.0
100
AcDbArc
 50
277.1777774610554
 51
359.9999995886393
  0
ARC
  5
54
330
1F
100
AcDbEntity
  8
2-0
  6
Continuous
 62
     7
370
    80
100
AcDbCircle
 10
-22.41997567113152
 20
292.2073310554182
 30
0.0
 40
2.0
100
AcDbArc
 50
0.0
 51
95.21111100231634
  0
ARC
  5
55
330
1F
100
AcDbEntity
  8
2-0
  6
Continuous
 62
     7
370
    80
100
AcDbCircle
 10
-17.91997567113152
 20
242.9073310554182
 30
0.0
 40
30.0
100
AcDbArc
 50
0.0
 51
179.9999997943196
  0
ARC
  5
56
330
1F
100
AcDbEntity
  8
2-0
  6
Continuous
 62
     7
370
    80
100
AcDbCircle
 10
-17.91997567113152
 20
242.9073310554182
 30
0.0
 40
24.0
100
AcDbArc
 50
0.0
 51
179.9999997943196
  0
ARC
  5
57
330
1F
100
AcDbEntity
  8
2-0
  6
Continuous
 62
     7
370
    80
100
AcDbCircle
 10
-17.91997567113152
 20
242.9073310554182
 30
0.0
 40
22.5
100
AcDbArc
 50
0.0
 51
179.9999997943196
  0
LINE
  5
58
330
1F
100
AcDbEntity
  8
2-0
  6
Continuous
 62
     7
370
    80
100
AcDbLine
 10
-18.2199756711315
 20
243.8573310554183
 30
0.0
 11
-24.26997567113154
 21
262.4323310554183
 31
0.0
  0
LINE
  5
59
330
1F
100
AcDbEntity
  8
2-0
  6
Continuous
 62
     7
370
    80
100
AcDbLine
 10
-17.11997567113157
 20
243.5073310554183
 30
0.0
 11
-1.319975671131527
 21
254.9823310554183
 31
0.0
  0
LINE
  5
5A
330
1F
100
AcDbEntity
  8
2-0
  6
Continuous
 62
     7
370
    80
100
AcDbLine
 10
-18.91997567113155
 20
242.9073310554182
 30
0.0
 11
-38.41997567113155
 21
242.9073310554182
 31
0.0
  0
ARC
  5
5B
330
1F
100
AcDbEntity
  8
2-0
  6
Continuous
 62
     7
370
    80
100
AcDbCircle
 10
-39.41997567113158
 20
242.9073310554182
 30
0.0
 40
1.0
100
AcDbArc
 50
0.0
 51
179.9999997943196
  0
CIRCLE
  5
5C
330
1F
100
AcDbEntity
  8
2-0
  6
Continuous
 62
     7
370
    80
100
AcDbCircle
 10
-24.56997567113153
 20
263.3573310554183
 30
0.0
 40
1.0
  0
CIRCLE
  5
5D
330
1F
100
AcDbEntity
  8
2-0
  6
Continuous
 62
     7
370
    80
100
AcDbCircle
 10
-0.5199756711315722
 20
255.5573310554182
 30
0.0
 40
1.0
  0
ARC
  5
5E
330
1F
100
AcDbEntity
  8
2-0
  6
Continuous
 62
     7
370
    80
100
AcDbCircle
 10
-17.91997567113152
 20
242.9073310554182
 30
0.0
 40
58.99999999999999
100
AcDbArc
 50
0.0
 51
89.99999989715981
  0
ARC
  5
5F
330
1F
100
AcDbEntity
  8
2-0
  6
Continuous
 62
     7
370
    80
100
AcDbCircle
 10
-17.91997567113152
 20
242.9073310554182
 30
0.0
 40
51.49999999999999
100
AcDbArc
 50
5.011111105385071
 51
39.74444439902971
  0
ARC
  5
60
330
1F
100
AcDbEntity
  8
2-0
  6
Continuous
 62
     7
370
    80
100
AcDbCircle
 10
-17.91997567113152
 20
242.9073310554182
 30
0.0
 40
51.49999999999999
100
AcDbArc
 50
50.23333327593326
 51
84.98888879177476
  0
ARC
  5
61
330
1F
100
AcDbEntity
  8
2-0
  6
Continuous
 62
     7
370
    80
100
AcDbCircle
 10
31.38002432886841
 20
247.4073310554182
 30
0.0
 40
2.0
100
AcDbArc
 50
269.9999996914794
 51
5.211111105155726
  0
ARC
  5
62
330
1F
100
AcDbEntity
  8
2-0
  6
Continuous
 62
     7
370
    80
100
AcDbCircle
 10
-17.91997567113152
 20
242.9073310554182
 30
0.0
 40
34.0
100
AcDbArc
 50
7.177777769575956
 51
37.79999995680712
  0
ARC
  5
63
330
1F
100
AcDbEntity
  8
2-0
  6
Continuous
 62
     7
370
    80
100
AcDbCircle
 10
-17.91997567113152
 20
242.9073310554182
 30
0.0
 40
34.0
100
AcDbArc
 50
52.19999994035269
 51
82.82222212758386
  0
ARC
  5
64
330
1F
100
AcDbEntity
  8
2-0
  6
Continuous
 62
     7
370
    80
100
AcDbCircle
 10
4.155024328868439
 20
271.3573310554183
 30
0.0
 40
2.0
100
AcDbArc
 50
232.1888886235739
 51
314.9999996400594
  0
ARC
  5
65
330
1F
100
AcDbEntity
  8
2-0
  6
Continuous
 62
     7
370
    80
100
AcDbCircle
 10
10.53002432886844
 20
264.9823310554183
 30
0.0
 40
2.0
100
AcDbArc
 50
134.9666665124445
 51
217.8111108622252
  0
ARC
  5
66
330
1F
100
AcDbEntity
  8
2-0
  6
Continuous
 62
     7
370
    80
100
AcDbCircle
 10
17.80502432886847
 20
247.4073310554182
 30
0.0
 40
2.0
100
AcDbArc
 50
187.1777775638956
 51
269.9999996914794
  0
LINE
  5
67
330
1F
100
AcDbEntity
  8
2-0
  6
Continuous
 62
     7
370
    80
100
AcDbLine
 10
18.70502432886842
 20
275.9823310554183
 30
0.0
 11
9.105024328868456
 21
266.4073310554182
 31
0.0
  0
ARC
  5
68
330
1F
100
AcDbEntity
  8
2-0
  6
Continuous
 62
     7
370
    80
100
AcDbCircle
 10
20.13002432886841
 20
274.5573310554183
 30
0.0
 40
2.0
100
AcDbArc
 50
39.75555551012813
 51
134.9666665124445
  0
LINE
  5
69
330
1F
100
AcDbEntity
  8
2-0
  6
Continuous
 62
     7
370
    80
100
AcDbLine
 10
15.18002432886847
 20
279.5323310554182
 30
0.0
 11
5.580024328868422
 21
269.9323310554183
 31
0.0
  0
ARC
  5
6A
330
1F
100
AcDbEntity
  8
2-0
  6
Continuous
 62
     7
370
    80
100
AcDbCircle
 10
13.75502432886841
 20
280.9573310554183
 30
0.0
 40
2.0
100
AcDbArc
 50
314.9999996400594
 51
50.22222216483411
  0
LINE
  5
6B
330
1F
100
AcDbEntity
  8
2-0
  6
Continuous
 62
     7
370
    80
100
AcDbLine
 10
17.80502432886847
 20
245.4073310554183
 30
0.0
 11
31.38002432886841
 21
245.4073310554183
 31
0.0
  0
LINE
  5
6C
330
1F
100
AcDbEntity
  8
2-0
  6
Continuous
 62
     7
370
    80
100
AcDbLine
 10
-15.41997567113158
 20
278.6323310554183
 30
0.0
 11
-15.41997567113158
 21
292.2073310554182
 31
0.0
  0
ARC
  5
6D
330
1F
100
AcDbEntity
  8
2-0
  6
Continuous
 62
     7
370
    80
100
AcDbCircle
 10
-13.41997567113152
 20
278.6323310554183
 30
0.0
 40
2.0
100
AcDbArc
 50
179.9999997943196
 51
262.8222219219035
  0
ARC
  5
6E
330
1F
100
AcDbEntity
  8
2-0
  6
Continuous
 62
     7
370
    80
100
AcDbCircle
 10
-13.41997567113152
 20
292.2073310554182
 30
0.0
 40
2.0
100
AcDbArc
 50
84.78888879200329
 51
179.9999997943196
  0
ARC
  5
6F
330
1F
100
AcDbEntity
  8
2-0
  6
Continuous
 62
     7
370
    80
100
AcDbCircle
 10
-17.91997567113152
 20
242.9073310554182
 30
0.0
 40
1.0
100
AcDbArc
 50
0.0
 51
179.9999997943196
  0
ARC
  5
70
330
1F
100
AcDbEntity
  8
2-0
  6
Continuous
 62
     7
370
    80
100
AcDbCircle
 10
-17.91997567113152
 20
242.9073310554182
 30
0.0
 40
65.0
100
AcDbArc
 50
0.0
 51
179.9999997943196
  0
ARC
  5
71
330
1F
100
AcDbEntity
  8
2-0
  6
Continuous
 62
     7
370
    80
100
AcDbCircle
 10
-17.91997567113152
 20
242.9073310554182
 30
0.0
 40
90.0
100
AcDbArc
 50
0.0
 51
179.9999997943196
  0
ARC
  5
72
330
1F
100
AcDbEntity
  8
2-0
  6
Continuous
 62
     7
370
    80
100
AcDbCircle
 10
-17.91997567113152
 20
242.9073310554182
 30
0.0
 40
130.0
100
AcDbArc
 50
0.0
 51
179.9999997943196
  0
ARC
  5
73
330
1F
100
AcDbEntity
  8
2-0
  6
Continuous
 62
     7
370
    80
100
AcDbCircle
 10
-17.91997567113152
 20
242.9073310554182
 30
0.0
 40
107.4
100
AcDbArc
 50
0.0
 51
179.9999997943196
  0
ARC
  5
74
330
1F
100
AcDbEntity
  8
2-0
  6
Continuous
 62
     7
370
    80
100
AcDbCircle
 10
-17.91997567113152
 20
242.9073310554182
 30
0.0
 40
123.0
100
AcDbArc
 50
0.0
 51
179.9999997943196
  0
LINE
  5
75
330
1F
100
AcDbEntity
  8
2-0
  6
Continuous
 62
     7
370
    80
100
AcDbLine
 10
-85.41997567113152
 20
242.9073310554182
 30
0.0
 11
-89.16997567113152
 21
249.4073310554183
 31
0.0
  0
LINE
  5
76
330
1F
100
AcDbEntity
  8
2-0
  6
Continuous
 62
     7
370
    80
100
AcDbLine
 10
-89.16997567113152
 20
249.4073310554183
 30
0.0
 11
-96.66997567113151
 21
249.4073310554183
 31
0.0
  0
LINE
  5
77
330
1F
100
AcDbEntity
  8
2-0
  6
Continuous
 62
     7
370
    80
100
AcDbLine
 10
-96.66997567113151
 20
249.4073310554183
 30
0.0
 11
-100.4199756711315
 21
242.9073310554182
 31
0.0
  0
ARC
  5
78
330
1F
100
AcDbEntity
  8
2-0
  6
Continuous
 62
     7
370
    80
100
AcDbCircle
 10
-92.91997567113152
 20
242.9073310554182
 30
0.0
 40
6.299999999999999
100
AcDbArc
 50
0.0
 51
179.9999997943196
  0
LINE
  5
79
330
1F
100
AcDbEntity
  8
2-0
  6
Continuous
 62
     7
370
    80
100
AcDbLine
 10
27.08002432886848
 20
307.8573310554183
 30
0.0
 11
23.33002432886848
 21
314.3573310554182
 31
0.0
  0
LINE
  5
7A
330
1F
100
AcDbEntity
  8
2-0
  6
Continuous
 62
     7
370
    80
100
AcDbLine
 10
23.33002432886848
 20
314.3573310554182
 30
0.0
 11
15.83002432886848
 21
314.3573310554182
 31
0.0
  0
LINE
  5
7B
330
1F
100
AcDbEntity
  8
2-0
  6
Continuous
 62
     7
370
    80
100
AcDbLine
 10
15.83002432886848
 20
314.3573310554182
 30
0.0
 11
12.08002432886848
 21
307.8573310554183
 31
0.0
  0
LINE
  5
7C
330
1F
100
AcDbEntity
  8
2-0
  6
Continuous
 62
     7
370
    80
100
AcDbLine
 10
12.08002432886848
 20
307.8573310554183
 30
0.0
 11
15.83002432886848
 21
301.3573310554182
 31
0.0
  0
LINE
  5
7D
330
1F
100
AcDbEntity
  8
2-0
  6
Continuous
 62
     7
370
    80
100
AcDbLine
 10
15.83002432886848
 20
301.3573310554182
 30
0.0
 11
23.33002432886848
 21
301.3573310554182
 31
0.0
  0
LINE
  5
7E
330
1F
100
AcDbEntity
  8
2-0
  6
Continuous
 62
     7
370
    80
100
AcDbLine
 10
23.33002432886848
 20
301.3573310554182
 30
0.0
 11
27.08002432886848
 21
307.8573310554183
 31
0.0
  0
CIRCLE
  5
7F
330
1F
100
AcDbEntity
  8
2-0
  6
Continuous
 62
     7
370
    80
100
AcDbCircle
 10
19.58002432886848
 20
307.8573310554183
 30
0.0
 40
6.299999999999999
  0
LINE
  5
80
330
1F
100
AcDbEntity
  8
2-0
  6
Continuous
 62
     7
370
    80
100
AcDbLine
 10
-17.91997567113152
 20
233.3573310554183
 30
0.0
 11
-17.91997567113152
 21
389.7823310554182
 31
0.0
  0
LINE
  5
81
330
1F
100
AcDbEntity
  8
2-0
  6
JWW_CENTER1
 62
     7
370
     9
100
AcDbLine
 10
-17.91997567113152
 20
389.7823310554182
 30
0.0
 11
-17.91997567113152
 21
231.7783750118662
 31
0.0
  0
LINE
  5
82
330
1F
100
AcDbEntity
  8
2-0
  6
JWW_CENTER1
 62
     7
370
     9
100
AcDbLine
 10
158.3550243288685
 20
242.9073310554182
 30
0.0
 11
-164.1674955334643
 21
242.9073310554182
 31
0.0
  0
LINE
  5
83
330
1F
100
AcDbEntity
  8
2-0
  6
Continuous
 62
     7
370
    80
100
AcDbLine
 10
-73.01997567113155
 20
72.07593285646288
 30
0.0
 11
-73.01997567113155
 21
2.075932856462908
 31
0.0
  0
LINE
  5
84
330
1F
100
AcDbEntity
  8
2-0
  6
Continuous
 62
     7
370
    80
100
AcDbLine
 10
37.0050243288684
 20
72.07593285646288
 30
0.0
 11
37.0050243288684
 21
2.075932856462908
 31
0.0
  0
LINE
  5
85
330
1F
100
AcDbEntity
  8
2-0
  6
Continuous
 62
     7
370
    80
100
AcDbLine
 10
-74.51997567113155
 20
3.575932856462908
 30
0.0
 11
-74.51997567113155
 21
70.57593285646288
 31
0.0
  0
LINE
  5
86
330
1F
100
AcDbEntity
  8
2-0
  6
Continuous
 62
     7
370
    80
100
AcDbLine
 10
-74.51997567113155
 20
3.575932856462908
 30
0.0
 11
-73.01997567113155
 21
2.075932856462908
 31
0.0
  0
LINE
  5
87
330
1F
100
AcDbEntity
  8
2-0
  6
Continuous
 62
     7
370
    80
100
AcDbLine
 10
38.5050243288684
 20
3.575932856462908
 30
0.0
 11
38.5050243288684
 21
70.57593285646288
 31
0.0
  0
LINE
  5
88
330
1F
100
AcDbEntity
  8
2-0
  6
Continuous
 62
     7
370
    80
100
AcDbLine
 10
38.5050243288684
 20
70.57593285646288
 30
0.0
 11
37.0050243288684
 21
72.07593285646288
 31
0.0
  0
LINE
  5
89
330
1F
100
AcDbEntity
  8
2-0
  6
Continuous
 62
     7
370
    80
100
AcDbLine
 10
38.5050243288684
 20
3.575932856462908
 30
0.0
 11
37.0050243288684
 21
2.075932856462908
 31
0.0
  0
LINE
  5
8A
330
1F
100
AcDbEntity
  8
2-0
  6
Continuous
 62
     7
370
    80
100
AcDbLine
 10
-76.49497567113154
 20
6.075932856462904
 30
0.0
 11
-73.01997567113155
 21
6.075932856462904
 31
0.0
  0
ARC
  5
8B
330
1F
100
AcDbEntity
  8
2-0
  6
Continuous
 62
     7
370
    80
100
AcDbCircle
 10
-76.49497567113154
 20
8.075932856462908
 30
0.0
 40
2.0
100
AcDbArc
 50
182.9444442353995
 51
269.9999996914794
  0
LINE
  5
8C
330
1F
100
AcDbEntity
  8
2-0
  6
Continuous
 62
     7
370
    80
100
AcDbLine
 10
37.0050243288684
 20
6.075932856462904
 30
0.0
 11
40.70502432886845
 21
6.075932856462904
 31
0.0
  0
ARC
  5
8D
330
1F
100
AcDbEntity
  8
2-0
  6
Continuous
 62
     7
370
    80
100
AcDbCircle
 10
40.70502432886845
 20
8.075932856462908
 30
0.0
 40
2.0
100
AcDbArc
 50
269.9999996914794
 51
356.9555551476736
  0
LINE
  5
8E
330
1F
100
AcDbEntity
  8
2-0
  6
Continuous
 62
     7
370
    80
100
AcDbLine
 10
42.7050243288685
 20
7.975932856462903
 30
0.0
 11
43.33002432886845
 21
20.17593285646289
 31
0.0
  0
LINE
  5
8F
330
1F
100
AcDbEntity
  8
2-0
  6
Continuous
 62
     7
370
    80
100
AcDbLine
 10
-78.49497567113151
 20
7.975932856462903
 30
0.0
 11
-79.14497567113152
 21
20.17593285646289
 31
0.0
  0
ARC
  5
90
330
1F
100
AcDbEntity
  8
2-0
  6
Continuous
 62
     7
370
    80
100
AcDbCircle
 10
-81.14497567113158
 20
20.0759328564629
 30
0.0
 40
2.0
100
AcDbArc
 50
3.044444440965652
 51
89.99999989715982
  0
LINE
  5
91
330
1F
100
AcDbEntity
  8
2-0
  6
Continuous
 62
     7
370
    80
100
AcDbLine
 10
-107.9199756711315
 20
27.07593285646291
 30
0.0
 11
-73.01997567113155
 21
27.07593285646291
 31
0.0
  0
LINE
  5
92
330
1F
100
AcDbEntity
  8
2-0
  6
Continuous
 62
     7
370
    80
100
AcDbLine
 10
37.0050243288684
 20
27.07593285646291
 30
0.0
 11
72.08002432886848
 21
27.07593285646291
 31
0.0
  0
LINE
  5
93
330
1F
100
AcDbEntity
  8
2-0
  6
Continuous
 62
     7
370
    80
100
AcDbLine
 10
65.70502432886848
 20
22.07593285646292
 30
0.0
 11
45.30502432886844
 21
22.07593285646292
 31
0.0
  0
ARC
  5
94
330
1F
100
AcDbEntity
  8
2-0
  6
Continuous
 62
     7
370
    80
100
AcDbCircle
 10
45.3300243288685
 20
20.0759328564629
 30
0.0
 40
2.0
100
AcDbArc
 50
89.99999989715981
 51
176.955555353354
  0
LINE
  5
95
330
1F
100
AcDbEntity
  8
2-0
  6
Continuous
 62
     7
370
    80
100
AcDbLine
 10
-81.14497567113158
 20
22.07593285646292
 30
0.0
 11
-88.91997567113158
 21
22.07593285646292
 31
0.0
  0
LINE
  5
96
330
1F
100
AcDbEntity
  8
2-0
  6
Continuous
 62
     7
370
    80
100
AcDbLine
 10
-96.91997567113154
 20
22.07593285646292
 30
0.0
 11
-101.5199756711315
 21
22.07593285646292
 31
0.0
  0
ARC
  5
97
330
1F
100
AcDbEntity
  8
2-0
  6
Continuous
 62
     7
370
    80
100
AcDbCircle
 10
-101.5199756711315
 20
20.57593285646291
 30
0.0
 40
1.5
100
AcDbArc
 50
89.99999989715981
 51
172.0777775811499
  0
LINE
  5
98
330
1F
100
AcDbEntity
  8
2-0
  6
Continuous
 62
     7
370
    80
100
AcDbLine
 10
-107.9199756711315
 20
27.07593285646291
 30
0.0
 11
-106.5949756711315
 21
16.2759328564629
 31
0.0
  0
LINE
  5
99
330
1F
100
AcDbEntity
  8
2-0
  6
Continuous
 62
     7
370
    80
100
AcDbLine
 10
72.08002432886848
 20
27.07593285646291
 30
0.0
 11
70.78002432886846
 21
16.40093285646292
 31
0.0
  0
LINE
  5
9A
330
1F
100
AcDbEntity
  8
2-0
  6
Continuous
 62
     7
370
    80
100
AcDbLine
 10
69.35502432886848
 20
15.0759328564629
 30
0.0
 11
64.93002432886841
 21
15.0759328564629
 31
0.0
  0
LINE
  5
9B
330
1F
100
AcDbEntity
  8
2-0
  6
Continuous
 62
     7
370
    80
100
AcDbLine
 10
-100.8949756711315
 20
15.0759328564629
 30
0.0
 11
-105.1949756711315
 21
15.0759328564629
 31
0.0
  0
ARC
  5
9C
330
1F
100
AcDbEntity
  8
2-0
  6
Continuous
 62
     7
370
    80
100
AcDbCircle
 10
-105.0949756711315
 20
16.57593285646291
 30
0.0
 40
1.5
100
AcDbArc
 50
190.7444442264867
 51
359.9999995886392
  0
ARC
  5
9D
330
1F
100
AcDbEntity
  8
2-0
  6
Continuous
 62
     7
370
    80
100
AcDbCircle
 10
69.28002432886846
 20
16.57593285646291
 30
0.0
 40
1.5
100
AcDbArc
 50
179.9999997943196
 51
354.288888484054
  0
LINE
  5
9E
330
1F
100
AcDbEntity
  8
2-0
  6
Continuous
 62
     7
370
    80
100
AcDbLine
 10
67.18002432886841
 20
20.8009328564629
 30
0.0
 11
67.80502432886844
 21
16.3509328564629
 31
0.0
  0
ARC
  5
9F
330
1F
100
AcDbEntity
  8
2-0
  6
Continuous
 62
     7
370
    80
100
AcDbCircle
 10
65.70502432886848
 20
20.57593285646291
 30
0.0
 40
1.5
100
AcDbArc
 50
8.277777768319021
 51
89.99999989715981
  0
LINE
  5
A0
330
1F
100
AcDbEntity
  8
2-0
  6
Continuous
 62
     7
370
    80
100
AcDbLine
 10
-103.5949756711315
 20
16.57593285646291
 30
0.0
 11
-102.9949756711316
 21
20.7759328564629
 31
0.0
  0
LINE
  5
A1
330
1F
100
AcDbEntity
  8
2-0
  6
Continuous
 62
     7
370
    80
100
AcDbLine
 10
-97.91997567113157
 20
27.07593285646291
 30
0.0
 11
-97.91997567113157
 21
22.07593285646292
 31
0.0
  0
LINE
  5
A2
330
1F
100
AcDbEntity
  8
2-0
  6
Continuous
 62
     7
370
    80
100
AcDbLine
 10
-87.91997567113155
 20
22.07593285646292
 30
0.0
 11
-87.91997567113155
 21
27.07593285646291
 31
0.0
  0
LINE
  5
A3
330
1F
100
AcDbEntity
  8
2-0
  6
Continuous
 62
     7
370
    80
100
AcDbLine
 10
-100.4199756711315
 20
27.07593285646291
 30
0.0
 11
-100.4199756711315
 21
31.87593285646291
 31
0.0
  0
LINE
  5
A4
330
1F
100
AcDbEntity
  8
2-0
  6
Continuous
 62
     7
370
    80
100
AcDbLine
 10
-85.41997567113152
 20
27.07593285646291
 30
0.0
 11
-85.41997567113152
 21
31.87593285646291
 31
0.0
  0
LINE
  5
A5
330
1F
100
AcDbEntity
  8
2-0
  6
Continuous
 62
     7
370
    80
100
AcDbLine
 10
-100.4199756711315
 20
31.87593285646291
 30
0.0
 11
-99.2199756711315
 21
32.57593285646291
 31
0.0
  0
LINE
  5
A6
330
1F
100
AcDbEntity
  8
2-0
  6
Continuous
 62
     7
370
    80
100
AcDbLine
 10
-85.41997567113152
 20
31.87593285646291
 30
0.0
 11
-86.61997567113154
 21
32.57593285646291
 31
0.0
  0
LINE
  5
A7
330
1F
100
AcDbEntity
  8
2-0
  6
Continuous
 62
     7
370
    80
100
AcDbLine
 10
-86.61997567113154
 20
32.57593285646291
 30
0.0
 11
-99.2199756711315
 21
32.57593285646291
 31
0.0
  0
ARC
  5
A8
330
1F
100
AcDbEntity
  8
2-0
  6
Continuous
 62
     7
370
    80
100
AcDbCircle
 10
-92.91997567113152
 20
19.95093285646291
 30
0.0
 40
12.425
100
AcDbArc
 50
72.41111102836919
 51
107.5888887659504
  0
ARC
  5
A9
330
1F
100
AcDbEntity
  8
2-0
  6
Continuous
 62
     7
370
    80
100
AcDbCircle
 10
-98.54497567113151
 20
29.0509328564629
 30
0.0
 40
3.325
100
AcDbArc
 50
55.61111104756603
 51
124.3888887467536
  0
ARC
  5
AA
330
1F
100
AcDbEntity
  8
2-0
  6
Continuous
 62
     7
370
    80
100
AcDbCircle
 10
-87.29497567113152
 20
29.0509328564629
 30
0.0
 40
3.325
100
AcDbArc
 50
55.61111104756603
 51
124.3888887467536
  0
LINE
  5
AB
330
1F
100
AcDbEntity
  8
2-0
  6
Continuous
 62
     7
370
    80
100
AcDbLine
 10
-96.66997567113151
 20
27.07593285646291
 30
0.0
 11
-96.66997567113151
 21
31.87593285646291
 31
0.0
  0
LINE
  5
AC
330
1F
100
AcDbEntity
  8
2-0
  6
Continuous
 62
     7
370
    80
100
AcDbLine
 10
-89.16997567113152
 20
27.07593285646291
 30
0.0
 11
-89.16997567113152
 21
31.87593285646291
 31
0.0
  0
LINE
  5
AD
330
1F
100
AcDbEntity
  8
2-0
  6
Continuous
 62
     7
370
    80
100
AcDbLine
 10
-96.91997567113154
 20
27.07593285646291
 30
0.0
 11
-96.91997567113154
 21
12.0759328564629
 31
0.0
  0
LINE
  5
AE
330
1F
100
AcDbEntity
  8
2-0
  6
Continuous
 62
     7
370
    80
100
AcDbLine
 10
-96.91997567113154
 20
12.0759328564629
 30
0.0
 11
-95.91997567113152
 21
11.0759328564629
 31
0.0
  0
LINE
  5
AF
330
1F
100
AcDbEntity
  8
2-0
  6
Continuous
 62
     7
370
    80
100
AcDbLine
 10
-88.91997567113158
 20
27.07593285646291
 30
0.0
 11
-88.91997567113158
 21
12.0759328564629
 31
0.0
  0
LINE
  5
B0
330
1F
100
AcDbEntity
  8
2-0
  6
Continuous
 62
     7
370
    80
100
AcDbLine
 10
-88.91997567113158
 20
12.0759328564629
 30
0.0
 11
-89.91997567113152
 21
11.0759328564629
 31
0.0
  0
LINE
  5
B1
330
1F
100
AcDbEntity
  8
2-0
  6
Continuous
 62
     7
370
    80
100
AcDbLine
 10
-96.16997567113154
 20
27.07593285646291
 30
0.0
 11
-96.16997567113154
 21
11.3259328564629
 31
0.0
  0
LINE
  5
B2
330
1F
100
AcDbEntity
  8
2-0
  6
Continuous
 62
     7
370
    80
100
AcDbLine
 10
-89.66997567113158
 20
27.07593285646291
 30
0.0
 11
-89.66997567113158
 21
11.3259328564629
 31
0.0
  0
LINE
  5
B3
330
1F
100
AcDbEntity
  8
2-0
  6
Continuous
 62
     7
370
    80
100
AcDbLine
 10
-147.9199756711315
 20
22.07593285646292
 30
0.0
 11
-107.2949756711316
 21
22.07593285646292
 31
0.0
  0
LINE
  5
B4
330
1F
100
AcDbEntity
  8
2-0
  6
Continuous
 62
     7
370
    80
100
AcDbLine
 10
71.45502432886845
 20
22.07593285646292
 30
0.0
 11
112.0800243288685
 21
22.07593285646292
 31
0.0
  0
LINE
  5
B5
330
1F
100
AcDbEntity
  8
2-0
  6
Continuous
 62
     7
370
    80
100
AcDbLine
 10
-125.0199756711316
 20
12.9009328564629
 30
0.0
 11
-105.2199756711315
 21
11.17593285646289
 31
0.0
  0
ARC
  5
B6
330
1F
100
AcDbEntity
  8
2-0
  6
Continuous
 62
     7
370
    80
100
AcDbCircle
 10
-104.8699756711316
 20
15.1509328564629
 30
0.0
 40
4.0
100
AcDbArc
 50
264.9777774749959
 51
352.4555551528156
  0
LINE
  5
B7
330
1F
100
AcDbEntity
  8
2-0
  6
Continuous
 62
     7
370
    80
100
AcDbLine
 10
-126.6949756711316
 20
7.525932856462912
 30
0.0
 11
-103.7699756711315
 21
5.525932856462914
 31
0.0
  0
LINE
  5
B8
330
1F
100
AcDbEntity
  8
2-0
  6
Continuous
 62
     7
370
    80
100
AcDbLine
 10
-100.0199756711315
 20
21.2009328564629
 30
0.0
 11
-100.8949756711315
 21
14.62593285646291
 31
0.0
  0
ARC
  5
B9
330
1F
100
AcDbEntity
  8
2-0
  6
Continuous
 62
     7
370
    80
100
AcDbCircle
 10
-99.0199756711315
 20
21.07593285646291
 30
0.0
 40
1.0
100
AcDbArc
 50
89.99999989715981
 51
172.5444442472833
  0
ARC
  5
BA
330
1F
100
AcDbEntity
  8
2-0
  6
Continuous
 62
     7
370
    80
100
AcDbCircle
 10
-86.79497567113155
 20
21.07593285646291
 30
0.0
 40
1.0
100
AcDbArc
 50
7.522222213626816
 51
89.99999989715981
  0
ARC
  5
BB
330
1F
100
AcDbEntity
  8
2-0
  6
Continuous
 62
     7
370
    80
100
AcDbCircle
 10
68.9550243288685
 20
15.1759328564629
 30
0.0
 40
4.0
100
AcDbArc
 50
187.5666664523401
 51
274.944444130274
  0
LINE
  5
BC
330
1F
100
AcDbEntity
  8
2-0
  6
Continuous
 62
     7
370
    80
100
AcDbLine
 10
60.00502432886846
 20
4.850932856462899
 30
0.0
 11
90.85502432886845
 21
7.525932856462912
 31
0.0
  0
ARC
  5
BD
330
1F
100
AcDbEntity
  8
2-0
  6
Continuous
 62
     7
370
    80
100
AcDbCircle
 10
63.08002432886848
 20
17.60093285646289
 30
0.0
 40
1.5
100
AcDbArc
 50
0.0
 51
179.9999997943196
  0
LINE
  5
BE
330
1F
100
AcDbEntity
  8
2-0
  6
Continuous
 62
     7
370
    80
100
AcDbLine
 10
61.58002432886848
 20
17.60093285646289
 30
0.0
 11
61.0800243288685
 21
13.6259328564629
 31
0.0
  0
LINE
  5
BF
330
1F
100
AcDbEntity
  8
2-0
  6
Continuous
 62
     7
370
    80
100
AcDbLine
 10
64.58002432886848
 20
17.60093285646289
 30
0.0
 11
64.98002432886845
 21
14.65093285646291
 31
0.0
  0
LINE
  5
C0
330
1F
100
AcDbEntity
  8
2-0
  6
Continuous
 62
     7
370
    80
100
AcDbLine
 10
-85.49497567113154
 20
19.07593285646291
 30
0.0
 11
-79.14497567113152
 21
19.07593285646291
 31
0.0
  0
LINE
  5
C1
330
1F
100
AcDbEntity
  8
2-0
  6
Continuous
 62
     7
370
    80
100
AcDbLine
 10
43.30502432886847
 20
19.07593285646291
 30
0.0
 11
63.08002432886848
 21
19.07593285646291
 31
0.0
  0
LINE
  5
C2
330
1F
100
AcDbEntity
  8
2-0
  6
Continuous
 62
     7
370
    80
100
AcDbLine
 10
-100.0199756711315
 20
0.175932856462893
 30
0.0
 11
-92.99497567113154
 21
-0.3990671435370956
 31
0.0
  0
ARC
  5
C3
330
1F
100
AcDbEntity
  8
2-0
  6
Continuous
 62
     7
370
    80
100
AcDbCircle
 10
-99.86997567113158
 20
2.200932856462911
 30
0.0
 40
2.0
100
AcDbArc
 50
182.2666664583962
 51
265.0999996970785
  0
LINE
  5
C4
330
1F
100
AcDbEntity
  8
2-0
  6
Continuous
 62
     7
370
    80
100
AcDbLine
 10
-101.9449756711316
 20
3.650932856462914
 30
0.0
 11
-101.8699756711316
 21
2.125932856462905
 31
0.0
  0
ARC
  5
C5
330
1F
100
AcDbEntity
  8
2-0
  6
Continuous
 62
     7
370
    80
100
AcDbCircle
 10
-103.9449756711315
 20
3.550932856462898
 30
0.0
 40
2.0
100
AcDbArc
 50
2.822222218997357
 51
84.99999990287316
  0
LINE
  5
C6
330
1F
100
AcDbEntity
  8
2-0
  6
Continuous
 62
     7
370
    80
100
AcDbLine
 10
-95.91997567113152
 20
11.0759328564629
 30
0.0
 11
-89.91997567113152
 21
11.0759328564629
 31
0.0
  0
LINE
  5
C7
330
1F
100
AcDbEntity
  8
2-0
  6
Continuous
 62
     7
370
    80
100
AcDbLine
 10
-88.91997567113158
 20
12.0759328564629
 30
0.0
 11
-96.91997567113154
 21
12.0759328564629
 31
0.0
  0
LINE
  5
C8
330
1F
100
AcDbEntity
  8
2-0
  6
Continuous
 62
     7
370
    80
100
AcDbLine
 10
-95.91997567113152
 20
6.000932856462908
 30
0.0
 11
-95.91997567113152
 21
11.0759328564629
 31
0.0
  0
LINE
  5
C9
330
1F
100
AcDbEntity
  8
2-0
  6
Continuous
 62
     7
370
    80
100
AcDbLine
 10
-89.91997567113152
 20
11.0759328564629
 30
0.0
 11
-89.91997567113152
 21
5.950932856462911
 31
0.0
  0
LINE
  5
CA
330
1F
100
AcDbEntity
  8
2-0
  6
Continuous
 62
     7
370
    80
100
AcDbLine
 10
-96.91997567113154
 20
8.075932856462908
 30
0.0
 11
-88.91997567113158
 21
8.075932856462908
 31
0.0
  0
LINE
  5
CB
330
1F
100
AcDbEntity
  8
2-0
  6
Continuous
 62
     7
370
    80
100
AcDbLine
 10
-88.91997567113158
 20
8.075932856462908
 30
0.0
 11
-88.91997567113158
 21
12.0759328564629
 31
0.0
  0
LINE
  5
CC
330
1F
100
AcDbEntity
  8
2-0
  6
Continuous
 62
     7
370
    80
100
AcDbLine
 10
-96.91997567113154
 20
12.0759328564629
 30
0.0
 11
-96.91997567113154
 21
8.075932856462908
 31
0.0
  0
LINE
  5
CD
330
1F
100
AcDbEntity
  8
2-0
  6
Continuous
 62
     7
370
    80
100
AcDbLine
 10
-92.91997567113152
 20
4.075932856462911
 30
0.0
 11
-95.94497567113159
 21
5.975932856462899
 31
0.0
  0
LINE
  5
CE
330
1F
100
AcDbEntity
  8
2-0
  6
Continuous
 62
     7
370
    80
100
AcDbLine
 10
-92.91997567113152
 20
4.075932856462911
 30
0.0
 11
-89.91997567113152
 21
5.950932856462911
 31
0.0
  0
LINE
  5
CF
330
1F
100
AcDbEntity
  8
2-0
  6
Continuous
 62
     7
370
    80
100
AcDbLine
 10
-95.91997567113152
 20
6.000932856462908
 30
0.0
 11
-89.91997567113152
 21
6.000932856462908
 31
0.0
  0
LINE
  5
D0
330
1F
100
AcDbEntity
  8
2-0
  6
Continuous
 62
     7
370
    80
100
AcDbLine
 10
-96.91997567113154
 20
8.075932856462908
 30
0.0
 11
-95.91997567113152
 21
7.075932856462911
 31
0.0
  0
LINE
  5
D1
330
1F
100
AcDbEntity
  8
2-0
  6
Continuous
 62
     7
370
    80
100
AcDbLine
 10
-88.91997567113158
 20
8.075932856462908
 30
0.0
 11
-89.91997567113152
 21
7.075932856462911
 31
0.0
  0
LINE
  5
D2
330
1F
100
AcDbEntity
  8
2-0
  6
Continuous
 62
     7
370
    80
100
AcDbLine
 10
-17.91997567113152
 20
-97.92406714353707
 30
0.0
 11
-55.01997567113155
 21
-97.92406714353707
 31
0.0
  0
ARC
  5
D3
330
1F
100
AcDbEntity
  8
2-0
  6
Continuous
 62
     7
370
    80
100
AcDbCircle
 10
-55.01997567113155
 20
-95.9240671435371
 30
0.0
 40
2.0
100
AcDbArc
 50
183.01111090199
 51
269.9999996914794
  0
LINE
  5
D4
330
1F
100
AcDbEntity
  8
2-0
  6
Continuous
 62
     7
370
    80
100
AcDbLine
 10
-57.01997567113152
 20
-96.0240671435371
 30
0.0
 11
-57.61997567113157
 21
-84.64906714353708
 31
0.0
  0
ARC
  5
D5
330
1F
100
AcDbEntity
  8
2-0
  6
Continuous
 62
     7
370
    80
100
AcDbCircle
 10
-62.59497567113156
 20
-84.92406714353709
 30
0.0
 40
5.0
100
AcDbArc
 50
3.011111107670409
 51
89.99999989715981
  0
LINE
  5
D6
330
1F
100
AcDbEntity
  8
2-0
  6
Continuous
 62
     7
370
    80
100
AcDbLine
 10
-62.59497567113156
 20
-79.92406714353707
 30
0.0
 11
-72.06997567113156
 21
-79.92406714353707
 31
0.0
  0
ARC
  5
D7
330
1F
100
AcDbEntity
  8
2-0
  6
Continuous
 62
     7
370
    80
100
AcDbCircle
 10
-72.06997567113156
 20
-64.4240671435371
 30
0.0
 40
15.5
100
AcDbArc
 50
182.4777775692661
 51
269.9999996914794
  0
LINE
  5
D8
330
1F
100
AcDbEntity
  8
2-0
  6
Continuous
 62
     7
370
    80
100
AcDbLine
 10
-87.54497567113155
 20
-65.09906714353708
 30
0.0
 11
-90.24497567113157
 21
-3.274067143537103
 31
0.0
  0
ARC
  5
D9
330
1F
100
AcDbEntity
  8
2-0
  6
Continuous
 62
     7
370
    80
100
AcDbCircle
 10
-93.24497567113157
 20
-3.399067143537096
 30
0.0
 40
3.0
100
AcDbArc
 50
2.499999997143329
 51
85.17777768044778
  0
LINE
  5
DA
330
1F
100
AcDbEntity
  8
2-0
  6
Continuous
 62
     7
370
    80
100
AcDbLine
 10
-47.71997567113154
 20
-97.92406714353707
 30
0.0
 11
-47.26997567113152
 21
-83.2740671435371
 31
0.0
  0
LINE
  5
DB
330
1F
100
AcDbEntity
  8
2-0
  6
Continuous
 62
     7
370
    80
100
AcDbLine
 10
-45.79497567113158
 20
-84.3490671435371
 30
0.0
 11
-46.16997567113158
 21
-96.37406714353712
 31
0.0
  0
LINE
  5
DC
330
1F
100
AcDbEntity
  8
2-0
  6
Continuous
 62
     7
370
    80
100
AcDbLine
 10
-85.84497567113156
 20
21.2009328564629
 30
0.0
 11
-82.06997567113159
 21
-64.8490671435371
 31
0.0
  0
LINE
  5
DD
330
1F
100
AcDbEntity
  8
2-0
  6
Continuous
 62
     7
370
    80
100
AcDbLine
 10
-72.06997567113156
 20
-74.42406714353709
 30
0.0
 11
-58.71997567113151
 21
-74.42406714353709
 31
0.0
  0
ARC
  5
DE
330
1F
100
AcDbEntity
  8
2-0
  6
Continuous
 62
     7
370
    80
100
AcDbCircle
 10
-72.06997567113156
 20
-64.39906714353708
 30
0.0
 40
10.0
100
AcDbArc
 50
182.5111109025613
 51
269.9999996914794
  0
LINE
  5
DF
330
1F
100
AcDbEntity
  8
2-0
  6
Continuous
 62
     7
370
    80
100
AcDbLine
 10
-17.91997567113152
 20
-84.92406714353709
 30
0.0
 11
-43.91997567113158
 21
-84.92406714353709
 31
0.0
  0
ARC
  5
E0
330
1F
100
AcDbEntity
  8
2-0
  6
Continuous
 62
     7
370
    80
100
AcDbCircle
 10
-43.91997567113158
 20
-80.42406714353709
 30
0.0
 40
4.5
100
AcDbArc
 50
179.9999997943196
 51
269.9999996914794
  0
LINE
  5
E1
330
1F
100
AcDbEntity
  8
2-0
  6
Continuous
 62
     7
370
    80
100
AcDbLine
 10
-48.41997567113158
 20
-80.42406714353709
 30
0.0
 11
-48.41997567113158
 21
-78.42406714353707
 31
0.0
  0
ARC
  5
E2
330
1F
100
AcDbEntity
  8
2-0
  6
Continuous
 62
     7
370
    80
100
AcDbCircle
 10
-45.91997567113155
 20
-78.42406714353707
 30
0.0
 40
2.5
100
AcDbArc
 50
89.99999989715981
 51
179.9999997943196
  0
LINE
  5
E3
330
1F
100
AcDbEntity
  8
2-0
  6
Continuous
 62
     7
370
    80
100
AcDbLine
 10
-45.91997567113155
 20
-75.92406714353709
 30
0.0
 11
-17.91997567113152
 21
-75.92406714353709
 31
0.0
  0
LINE
  5
E4
330
1F
100
AcDbEntity
  8
2-0
  6
Continuous
 62
     7
370
    80
100
AcDbLine
 10
-43.91997567113158
 20
-75.92406714353709
 30
0.0
 11
-42.91997567113155
 21
-65.9240671435371
 31
0.0
  0
LINE
  5
E5
330
1F
100
AcDbEntity
  8
2-0
  6
Continuous
 62
     7
370
    80
100
AcDbLine
 10
-42.91997567113155
 20
-65.9240671435371
 30
0.0
 11
-42.91997567113155
 21
-6.924067143537087
 31
0.0
  0
LINE
  5
E6
330
1F
100
AcDbEntity
  8
2-0
  6
Continuous
 62
     7
370
    80
100
AcDbLine
 10
-17.91997567113152
 20
-6.924067143537087
 30
0.0
 11
-47.49497567113157
 21
-6.924067143537087
 31
0.0
  0
ARC
  5
E7
330
1F
100
AcDbEntity
  8
2-0
  6
Continuous
 62
     7
370
    80
100
AcDbCircle
 10
-47.49497567113157
 20
-7.924067143537094
 30
0.0
 40
1.0
100
AcDbArc
 50
89.99999989715981
 51
174.2888886897344
  0
LINE
  5
E8
330
1F
100
AcDbEntity
  8
2-0
  6
Continuous
 62
     7
370
    80
100
AcDbLine
 10
-46.91997567113158
 20
-6.924067143537087
 30
0.0
 11
-44.41997567113155
 21
-6.999067143537083
 31
0.0
  0
LINE
  5
E9
330
1F
100
AcDbEntity
  8
2-0
  6
Continuous
 62
     7
370
    80
100
AcDbLine
 10
-46.91997567113158
 20
-6.924067143537087
 30
0.0
 11
-48.74497567113154
 21
-64.72406714353708
 31
0.0
  0
ARC
  5
EA
330
1F
100
AcDbEntity
  8
2-0
  6
Continuous
 62
     7
370
    80
100
AcDbCircle
 10
-58.71997567113151
 20
-64.4240671435371
 30
0.0
 40
10.0
100
AcDbArc
 50
269.9999996914794
 51
358.1999995906961
  0
LINE
  5
EB
330
1F
100
AcDbEntity
  8
2-0
  6
Continuous
 62
     7
370
    80
100
AcDbLine
 10
-46.16997567113158
 20
-96.37406714353712
 30
0.0
 11
-47.71997567113154
 21
-97.92406714353707
 31
0.0
  0
LINE
  5
EC
330
1F
100
AcDbEntity
  8
2-0
  6
Continuous
 62
     7
370
    80
100
AcDbLine
 10
-46.16997567113158
 20
-96.37406714353712
 30
0.0
 11
10.33002432886845
 21
-96.37406714353712
 31
0.0
  0
LINE
  5
ED
330
1F
100
AcDbEntity
  8
2-0
  6
Continuous
 62
     7
370
    80
100
AcDbLine
 10
-17.91997567113152
 20
-65.9240671435371
 30
0.0
 11
-42.91997567113155
 21
-65.9240671435371
 31
0.0
  0
LINE
  5
EE
330
1F
100
AcDbEntity
  8
2-0
  6
Continuous
 62
     7
370
    80
100
AcDbLine
 10
-147.9199756711315
 20
22.07593285646292
 30
0.0
 11
-147.9199756711315
 21
14.57593285646291
 31
0.0
  0
LINE
  5
EF
330
1F
100
AcDbEntity
  8
2-0
  6
Continuous
 62
     7
370
    80
100
AcDbLine
 10
-147.9199756711315
 20
14.57593285646291
 30
0.0
 11
-138.9199756711315
 21
14.57593285646291
 31
0.0
  0
LINE
  5
F0
330
1F
100
AcDbEntity
  8
2-0
  6
Continuous
 62
     7
370
    80
100
AcDbLine
 10
-140.9199756711315
 20
22.07593285646292
 30
0.0
 11
-125.0199756711316
 21
12.9009328564629
 31
0.0
  0
LINE
  5
F1
330
1F
100
AcDbEntity
  8
2-0
  6
Continuous
 62
     7
370
    80
100
AcDbLine
 10
-138.9199756711315
 20
14.57593285646291
 30
0.0
 11
-126.6949756711316
 21
7.525932856462912
 31
0.0
  0
LINE
  5
F2
330
1F
100
AcDbEntity
  8
2-0
  6
Continuous
 62
     7
370
    80
100
AcDbLine
 10
-125.0199756711316
 20
12.9009328564629
 30
0.0
 11
-101.5449756711315
 21
12.9009328564629
 31
0.0
  0
ARC
  5
F3
330
1F
100
AcDbEntity
  8
2-0
  6
Continuous
 62
     7
370
    80
100
AcDbCircle
 10
-17.91997567113152
 20
-191.9240671435371
 30
0.0
 40
200.0
100
AcDbArc
 50
89.99999989715981
 51
97.95555544362479
  0
ARC
  5
F4
330
1F
100
AcDbEntity
  8
2-0
  6
Continuous
 62
     7
370
    80
100
AcDbCircle
 10
-39.61997567113157
 20
5.900932856462914
 30
0.0
 40
1.0
100
AcDbArc
 50
96.25555544556734
 51
174.2888886897344
  0
ARC
  5
F5
330
1F
100
AcDbEntity
  8
2-0
  6
Continuous
 62
     7
370
    80
100
AcDbCircle
 10
-17.91997567113152
 20
-191.9240671435371
 30
0.0
 40
203.5
100
AcDbArc
 50
89.99999989715981
 51
97.9666665547232
  0
ARC
  5
F6
330
1F
100
AcDbEntity
  8
2-0
  6
Continuous
 62
     7
370
    80
100
AcDbCircle
 10
-43.61997567113151
 20
-8.224067143537098
 30
0.0
 40
18.0
100
AcDbArc
 50
97.96666655472322
 51
178.4999997960336
  0
LINE
  5
F7
330
1F
100
AcDbEntity
  8
2-0
  6
Continuous
 62
     7
370
    80
100
AcDbLine
 10
-62.91997567113152
 20
-56.9240671435371
 30
0.0
 11
-48.49497567113151
 21
-56.9240671435371
 31
0.0
  0
LINE
  5
F8
330
1F
100
AcDbEntity
  8
2-0
  6
Continuous
 62
     7
370
    80
100
AcDbLine
 10
-62.91997567113152
 20
-56.9240671435371
 30
0.0
 11
-61.61997567113151
 21
-7.749067143537104
 31
0.0
  0
LINE
  5
F9
330
1F
100
AcDbEntity
  8
2-0
  6
Continuous
 62
     7
370
    80
100
AcDbLine
 10
-59.41997567113155
 20
-56.9240671435371
 30
0.0
 11
-58.11997567113154
 21
-7.799067143537101
 31
0.0
  0
ARC
  5
FA
330
1F
100
AcDbEntity
  8
2-0
  6
Continuous
 62
     7
370
    80
100
AcDbCircle
 10
-43.61997567113151
 20
-8.1990671435371
 30
0.0
 40
14.5
100
AcDbArc
 50
97.96666655472322
 51
178.4888886849352
  0
ARC
  5
FB
330
1F
100
AcDbEntity
  8
2-0
  6
Continuous
 62
     7
370
    80
100
AcDbCircle
 10
-17.91997567113152
 20
18.5759328564629
 30
0.0
 40
2.5
100
AcDbArc
 50
89.99999989715981
 51
269.9999996914794
  0
ARC
  5
FC
330
1F
100
AcDbEntity
  8
2-0
  6
Continuous
 62
     7
370
    80
100
AcDbCircle
 10
-17.91997567113152
 20
18.5759328564629
 30
0.0
 40
6.999999999999999
100
AcDbArc
 50
89.99999989715981
 51
150.411110939241
  0
LINE
  5
FD
330
1F
100
AcDbEntity
  8
2-0
  6
Continuous
 62
     7
370
    80
100
AcDbLine
 10
-30.11997567113151
 20
11.22593285646289
 30
0.0
 11
-24.01997567113152
 21
22.02593285646292
 31
0.0
  0
LINE
  5
FE
330
1F
100
AcDbEntity
  8
2-0
  6
Continuous
 62
     7
370
    80
100
AcDbLine
 10
-40.6199756711316
 20
6.000932856462908
 30
0.0
 11
-41.91997567113152
 21
-6.924067143537087
 31
0.0
  0
LINE
  5
FF
330
1F
100
AcDbEntity
  8
2-0
  6
Continuous
 62
     7
370
    80
100
AcDbLine
 10
-48.49497567113151
 20
-7.8240671435371
 30
0.0
 11
-50.06997567113153
 21
-23.4240671435371
 31
0.0
  0
ARC
  5
100
330
1F
100
AcDbEntity
  8
2-0
  6
Continuous
 62
     7
370
    80
100
AcDbCircle
 10
-64.99497567113151
 20
-21.9240671435371
 30
0.0
 40
15.0
100
AcDbArc
 50
296.3111107725256
 51
354.233332928562
  0
ARC
  5
101
330
1F
100
AcDbEntity
  8
2-0
  6
Continuous
 62
     7
370
    80
100
AcDbCircle
 10
40.65502432886849
 20
8.075932856462908
 30
0.0
 40
2.0
100
AcDbArc
 50
269.9999996914794
 51
357.0555551475593
  0
LINE
  5
102
330
1F
100
AcDbEntity
  8
2-0
  6
Continuous
 62
     7
370
    80
100
AcDbLine
 10
42.65502432886846
 20
7.975932856462903
 30
0.0
 11
43.30502432886847
 21
20.17593285646289
 31
0.0
  0
ARC
  5
103
330
1F
100
AcDbEntity
  8
2-0
  6
Continuous
 62
     7
370
    80
100
AcDbCircle
 10
45.30502432886844
 20
20.0759328564629
 30
0.0
 40
2.0
100
AcDbArc
 50
89.99999989715981
 51
176.955555353354
  0
ARC
  5
104
330
1F
100
AcDbEntity
  8
2-0
  6
Continuous
 62
     7
370
    80
100
AcDbCircle
 10
65.68002432886841
 20
20.57593285646291
 30
0.0
 40
1.5
100
AcDbArc
 50
7.922222213169748
 51
89.99999989715981
  0
ARC
  5
105
330
1F
100
AcDbEntity
  8
2-0
  6
Continuous
 62
     7
370
    80
100
AcDbCircle
 10
69.2550243288684
 20
16.57593285646291
 30
0.0
 40
1.5
100
AcDbArc
 50
179.9999997943196
 51
349.2555551564721
  0
LINE
  5
106
330
1F
100
AcDbEntity
  8
2-0
  6
Continuous
 62
     7
370
    80
100
AcDbLine
 10
67.7550243288684
 20
16.57593285646291
 30
0.0
 11
67.15502432886844
 21
20.7759328564629
 31
0.0
  0
LINE
  5
107
330
1F
100
AcDbEntity
  8
2-0
  6
Continuous
 62
     7
370
    80
100
AcDbLine
 10
89.18002432886844
 20
12.9009328564629
 30
0.0
 11
58.25502432886843
 21
10.2259328564629
 31
0.0
  0
ARC
  5
108
330
1F
100
AcDbEntity
  8
2-0
  6
Continuous
 62
     7
370
    80
100
AcDbCircle
 10
57.10502432886845
 20
14.12593285646289
 30
0.0
 40
4.0
100
AcDbArc
 50
274.9777774635693
 51
352.8333329301617
  0
ARC
  5
109
330
1F
100
AcDbEntity
  8
2-0
  6
Continuous
 62
     7
370
    80
100
AcDbCircle
 10
19.18002432886842
 20
-95.9240671435371
 30
0.0
 40
2.0
100
AcDbArc
 50
269.9999996914794
 51
356.9888884809689
  0
LINE
  5
10A
330
1F
100
AcDbEntity
  8
2-0
  6
Continuous
 62
     7
370
    80
100
AcDbLine
 10
21.18002432886847
 20
-96.0240671435371
 30
0.0
 11
21.78002432886844
 21
-84.64906714353708
 31
0.0
  0
ARC
  5
10B
330
1F
100
AcDbEntity
  8
2-0
  6
Continuous
 62
     7
370
    80
100
AcDbCircle
 10
26.75502432886843
 20
-84.92406714353709
 30
0.0
 40
5.0
100
AcDbArc
 50
89.99999989715981
 51
176.9888886866492
  0
LINE
  5
10C
330
1F
100
AcDbEntity
  8
2-0
  6
Continuous
 62
     7
370
    80
100
AcDbLine
 10
26.75502432886843
 20
-79.92406714353707
 30
0.0
 11
36.23002432886842
 21
-79.92406714353707
 31
0.0
  0
ARC
  5
10D
330
1F
100
AcDbEntity
  8
2-0
  6
Continuous
 62
     7
370
    80
100
AcDbCircle
 10
36.23002432886842
 20
-64.4240671435371
 30
0.0
 40
15.5
100
AcDbArc
 50
269.9999996914794
 51
357.5222218136928
  0
LINE
  5
10E
330
1F
100
AcDbEntity
  8
2-0
  6
Continuous
 62
     7
370
    80
100
AcDbLine
 10
51.7050243288685
 20
-65.09906714353708
 30
0.0
 11
54.53002432886849
 21
-0.8740671435370899
 31
0.0
  0
ARC
  5
10F
330
1F
100
AcDbEntity
  8
2-0
  6
Continuous
 62
     7
370
    80
100
AcDbCircle
 10
60.53002432886849
 20
-1.124067143537097
 30
0.0
 40
6.0
100
AcDbArc
 50
94.99999989144646
 51
177.4999997971763
  0
LINE
  5
110
330
1F
100
AcDbEntity
  8
2-0
  6
Continuous
 62
     7
370
    80
100
AcDbLine
 10
11.88002432886841
 20
-97.92406714353707
 30
0.0
 11
11.43002432886847
 21
-83.2740671435371
 31
0.0
  0
LINE
  5
111
330
1F
100
AcDbEntity
  8
2-0
  6
Continuous
 62
     7
370
    80
100
AcDbLine
 10
9.95502432886845
 20
-84.3490671435371
 30
0.0
 11
10.33002432886845
 21
-96.37406714353712
 31
0.0
  0
LINE
  5
112
330
1F
100
AcDbEntity
  8
2-0
  6
Continuous
 62
     7
370
    80
100
AcDbLine
 10
49.10502432886848
 20
0.7009328564629058
 30
0.0
 11
46.23002432886845
 21
-64.8490671435371
 31
0.0
  0
ARC
  5
113
330
1F
100
AcDbEntity
  8
2-0
  6
Continuous
 62
     7
370
    80
100
AcDbCircle
 10
59.1300243288684
 20
0.2759328564629087
 30
0.0
 40
10.0
100
AcDbArc
 50
94.97777766924965
 51
177.4888886860779
  0
LINE
  5
114
330
1F
100
AcDbEntity
  8
2-0
  6
Continuous
 62
     7
370
    80
100
AcDbLine
 10
36.23002432886842
 20
-74.42406714353709
 30
0.0
 11
22.88002432886846
 21
-74.42406714353709
 31
0.0
  0
ARC
  5
115
330
1F
100
AcDbEntity
  8
2-0
  6
Continuous
 62
     7
370
    80
100
AcDbCircle
 10
36.23002432886842
 20
-64.39906714353708
 30
0.0
 40
10.0
100
AcDbArc
 50
269.9999996914794
 51
357.4888884803975
  0
LINE
  5
116
330
1F
100
AcDbEntity
  8
2-0
  6
Continuous
 62
     7
370
    80
100
AcDbLine
 10
-17.91997567113152
 20
-84.92406714353709
 30
0.0
 11
8.08002432886845
 21
-84.92406714353709
 31
0.0
  0
ARC
  5
117
330
1F
100
AcDbEntity
  8
2-0
  6
Continuous
 62
     7
370
    80
100
AcDbCircle
 10
8.08002432886845
 20
-80.42406714353709
 30
0.0
 40
4.5
100
AcDbArc
 50
269.9999996914794
 51
359.9999995886392
  0
LINE
  5
118
330
1F
100
AcDbEntity
  8
2-0
  6
Continuous
 62
     7
370
    80
100
AcDbLine
 10
12.58002432886845
 20
-80.42406714353709
 30
0.0
 11
12.58002432886845
 21
-78.42406714353707
 31
0.0
  0
ARC
  5
119
330
1F
100
AcDbEntity
  8
2-0
  6
Continuous
 62
     7
370
    80
100
AcDbCircle
 10
10.08002432886842
 20
-78.42406714353707
 30
0.0
 40
2.5
100
AcDbArc
 50
0.0
 51
89.99999989715981
  0
LINE
  5
11A
330
1F
100
AcDbEntity
  8
2-0
  6
Continuous
 62
     7
370
    80
100
AcDbLine
 10
10.08002432886842
 20
-75.92406714353709
 30
0.0
 11
-17.91997567113152
 21
-75.92406714353709
 31
0.0
  0
LINE
  5
11B
330
1F
100
AcDbEntity
  8
2-0
  6
Continuous
 62
     7
370
    80
100
AcDbLine
 10
8.08002432886845
 20
-75.92406714353709
 30
0.0
 11
7.080024328868422
 21
-65.9240671435371
 31
0.0
  0
LINE
  5
11C
330
1F
100
AcDbEntity
  8
2-0
  6
Continuous
 62
     7
370
    80
100
AcDbLine
 10
7.080024328868422
 20
-65.9240671435371
 30
0.0
 11
7.080024328868422
 21
-6.924067143537087
 31
0.0
  0
LINE
  5
11D
330
1F
100
AcDbEntity
  8
2-0
  6
Continuous
 62
     7
370
    80
100
AcDbLine
 10
-17.91997567113152
 20
-6.924067143537087
 30
0.0
 11
11.08002432886845
 21
-6.924067143537087
 31
0.0
  0
LINE
  5
11E
330
1F
100
AcDbEntity
  8
2-0
  6
Continuous
 62
     7
370
    80
100
AcDbLine
 10
11.08002432886845
 20
-6.924067143537087
 30
0.0
 11
12.90502432886841
 21
-64.72406714353708
 31
0.0
  0
ARC
  5
11F
330
1F
100
AcDbEntity
  8
2-0
  6
Continuous
 62
     7
370
    80
100
AcDbCircle
 10
22.88002432886846
 20
-64.4240671435371
 30
0.0
 40
10.0
100
AcDbArc
 50
181.7999997922628
 51
269.9999996914794
  0
LINE
  5
120
330
1F
100
AcDbEntity
  8
2-0
  6
Continuous
 62
     7
370
    80
100
AcDbLine
 10
10.33002432886845
 20
-96.37406714353712
 30
0.0
 11
11.88002432886841
 21
-97.92406714353707
 31
0.0
  0
LINE
  5
121
330
1F
100
AcDbEntity
  8
2-0
  6
Continuous
 62
     7
370
    80
100
AcDbLine
 10
-17.91997567113152
 20
-65.9240671435371
 30
0.0
 11
7.080024328868422
 21
-65.9240671435371
 31
0.0
  0
LINE
  5
122
330
1F
100
AcDbEntity
  8
2-0
  6
Continuous
 62
     7
370
    80
100
AcDbLine
 10
112.0800243288685
 20
22.07593285646292
 30
0.0
 11
112.0800243288685
 21
14.57593285646291
 31
0.0
  0
LINE
  5
123
330
1F
100
AcDbEntity
  8
2-0
  6
Continuous
 62
     7
370
    80
100
AcDbLine
 10
112.0800243288685
 20
14.57593285646291
 30
0.0
 11
103.0800243288685
 21
14.57593285646291
 31
0.0
  0
LINE
  5
124
330
1F
100
AcDbEntity
  8
2-0
  6
Continuous
 62
     7
370
    80
100
AcDbLine
 10
105.0800243288685
 20
22.07593285646292
 30
0.0
 11
89.18002432886844
 21
12.9009328564629
 31
0.0
  0
LINE
  5
125
330
1F
100
AcDbEntity
  8
2-0
  6
Continuous
 62
     7
370
    80
100
AcDbLine
 10
103.0800243288685
 20
14.57593285646291
 30
0.0
 11
90.85502432886845
 21
7.525932856462912
 31
0.0
  0
LINE
  5
126
330
1F
100
AcDbEntity
  8
2-0
  6
Continuous
 62
     7
370
    80
100
AcDbLine
 10
89.18002432886844
 20
12.9009328564629
 30
0.0
 11
65.70502432886848
 21
12.9009328564629
 31
0.0
  0
ARC
  5
127
330
1F
100
AcDbEntity
  8
2-0
  6
Continuous
 62
     7
370
    80
100
AcDbCircle
 10
-17.91997567113152
 20
-191.9240671435371
 30
0.0
 40
200.0
100
AcDbArc
 50
82.04444435069483
 51
89.99999989715981
  0
ARC
  5
128
330
1F
100
AcDbEntity
  8
2-0
  6
Continuous
 62
     7
370
    80
100
AcDbCircle
 10
-17.91997567113152
 20
-191.9240671435371
 30
0.0
 40
203.5
100
AcDbArc
 50
82.03333323959642
 51
89.99999989715981
  0
ARC
  5
129
330
1F
100
AcDbEntity
  8
2-0
  6
Continuous
 62
     7
370
    80
100
AcDbCircle
 10
7.780024328868468
 20
-8.224067143537098
 30
0.0
 40
18.0
100
AcDbArc
 50
1.499999998285997
 51
82.0333332395964
  0
LINE
  5
12A
330
1F
100
AcDbEntity
  8
2-0
  6
Continuous
 62
     7
370
    80
100
AcDbLine
 10
27.08002432886848
 20
-56.9240671435371
 30
0.0
 11
25.78002432886847
 21
-7.749067143537104
 31
0.0
  0
LINE
  5
12B
330
1F
100
AcDbEntity
  8
2-0
  6
Continuous
 62
     7
370
    80
100
AcDbLine
 10
23.58002432886842
 20
-56.9240671435371
 30
0.0
 11
22.28002432886841
 21
-7.799067143537101
 31
0.0
  0
ARC
  5
12C
330
1F
100
AcDbEntity
  8
2-0
  6
Continuous
 62
     7
370
    80
100
AcDbCircle
 10
7.780024328868468
 20
-8.1990671435371
 30
0.0
 40
14.5
100
AcDbArc
 50
1.511111109384412
 51
82.03333323959642
  0
ARC
  5
12D
330
1F
100
AcDbEntity
  8
2-0
  6
Continuous
 62
     7
370
    80
100
AcDbCircle
 10
-17.91997567113152
 20
18.5759328564629
 30
0.0
 40
2.5
100
AcDbArc
 50
269.9999996914794
 51
352.0333329310758
  0
ARC
  5
12E
330
1F
100
AcDbEntity
  8
2-0
  6
Continuous
 62
     7
370
    80
100
AcDbCircle
 10
-17.91997567113152
 20
18.5759328564629
 30
0.0
 40
2.5
100
AcDbArc
 50
38.93333328884543
 51
89.99999989715981
  0
ARC
  5
12F
330
1F
100
AcDbEntity
  8
2-0
  6
Continuous
 62
     7
370
    80
100
AcDbCircle
 10
-17.91997567113152
 20
18.5759328564629
 30
0.0
 40
6.999999999999999
100
AcDbArc
 50
29.58888885507859
 51
89.99999989715981
  0
LINE
  5
130
330
1F
100
AcDbEntity
  8
2-0
  6
Continuous
 62
     7
370
    80
100
AcDbLine
 10
-5.719975671131532
 20
11.22593285646289
 30
0.0
 11
-10.41997567113152
 21
19.57593285646291
 31
0.0
  0
LINE
  5
131
330
1F
100
AcDbEntity
  8
2-0
  6
Continuous
 62
     7
370
    80
100
AcDbLine
 10
-11.44497567113153
 20
21.35093285646289
 30
0.0
 11
-11.81997567113153
 21
22.02593285646292
 31
0.0
  0
LINE
  5
132
330
1F
100
AcDbEntity
  8
2-0
  6
Continuous
 62
     7
370
    80
100
AcDbLine
 10
-58.36997567113157
 20
2.075932856462908
 30
0.0
 11
-73.01997567113155
 21
2.075932856462908
 31
0.0
  0
LINE
  5
133
330
1F
100
AcDbEntity
  8
2-0
  6
Continuous
 62
     7
370
    80
100
AcDbLine
 10
22.55502432886842
 20
2.075932856462908
 30
0.0
 11
37.0050243288684
 21
2.075932856462908
 31
0.0
  0
ARC
  5
134
330
1F
100
AcDbEntity
  8
2-0
  6
Continuous
 62
     7
370
    80
100
AcDbCircle
 10
0.4300243288684165
 20
23.5009328564629
 30
0.0
 40
1.0
100
AcDbArc
 50
15.25555553812351
 51
104.9888887689214
  0
LINE
  5
135
330
1F
100
AcDbEntity
  8
2-0
  6
Continuous
 62
     7
370
    80
100
AcDbLine
 10
-17.16997567113152
 20
19.82593285646291
 30
0.0
 11
0.1800243288684733
 21
24.47593285646291
 31
0.0
  0
ARC
  5
136
330
1F
100
AcDbEntity
  8
2-0
  6
Continuous
 62
     7
370
    80
100
AcDbCircle
 10
-16.91997567113158
 20
18.8509328564629
 30
0.0
 40
1.0
100
AcDbArc
 50
104.9999998800198
 51
194.5555553332429
  0
LINE
  5
137
330
1F
100
AcDbEntity
  8
2-0
  6
Continuous
 62
     7
370
    80
100
AcDbLine
 10
-16.66997567113155
 20
17.8759328564629
 30
0.0
 11
0.7050243288684221
 21
22.55093285646291
 31
0.0
  0
ARC
  5
138
330
1F
100
AcDbEntity
  8
2-0
  6
Continuous
 62
     7
370
    80
100
AcDbCircle
 10
0.455024328868479
 20
23.52593285646292
 30
0.0
 40
1.0
100
AcDbArc
 50
285.0444441187331
 51
14.37777776134795
  0
ARC
  5
139
330
1F
100
AcDbEntity
  8
2-0
  6
Continuous
 62
     7
370
    80
100
AcDbCircle
 10
-16.91997567113158
 20
18.8509328564629
 30
0.0
 40
1.0
100
AcDbArc
 50
192.9888886683665
 51
285.0333330076347
  0
LINE
  5
13A
330
1F
100
AcDbEntity
  8
2-0
  6
Continuous
 62
     7
370
    80
100
AcDbLine
 10
-70.41997567113152
 20
75.07593285646288
 30
0.0
 11
-70.41997567113152
 21
2.075932856462908
 31
0.0
  0
LINE
  5
13B
330
1F
100
AcDbEntity
  8
2-0
  6
Continuous
 62
     7
370
    80
100
AcDbLine
 10
34.58002432886848
 20
2.075932856462908
 30
0.0
 11
34.58002432886848
 21
75.07593285646288
 31
0.0
  0
LINE
  5
13C
330
1F
100
AcDbEntity
  8
2-0
  6
Continuous
 62
     7
370
    80
100
AcDbLine
 10
-73.01997567113155
 20
72.07593285646288
 30
0.0
 11
-74.51997567113155
 21
70.57593285646288
 31
0.0
  0
LINE
  5
13D
330
1F
100
AcDbEntity
  8
2-0
  6
Continuous
 62
     7
370
    80
100
AcDbLine
 10
-17.91997567113152
 20
89.0759328564629
 30
0.0
 11
-82.91997567113158
 21
89.0759328564629
 31
0.0
  0
LINE
  5
13E
330
1F
100
AcDbEntity
  8
2-0
  6
Continuous
 62
     7
370
    80
100
AcDbLine
 10
-82.91997567113158
 20
89.0759328564629
 30
0.0
 11
-82.91997567113158
 21
85.0759328564629
 31
0.0
  0
LINE
  5
13F
330
1F
100
AcDbEntity
  8
2-0
  6
Continuous
 62
     7
370
    80
100
AcDbLine
 10
-82.91997567113158
 20
85.0759328564629
 30
0.0
 11
-82.49497567113154
 21
85.0759328564629
 31
0.0
  0
LINE
  5
140
330
1F
100
AcDbEntity
  8
2-0
  6
Continuous
 62
     7
370
    80
100
AcDbLine
 10
-75.96997567113151
 20
62.0759328564629
 30
0.0
 11
-74.51997567113155
 21
62.0759328564629
 31
0.0
  0
LINE
  5
141
330
1F
100
AcDbEntity
  8
2-0
  6
Continuous
 62
     7
370
    80
100
AcDbLine
 10
-74.51997567113155
 20
62.0759328564629
 30
0.0
 11
-73.01997567113155
 21
63.5759328564629
 31
0.0
  0
ARC
  5
142
330
1F
100
AcDbEntity
  8
2-0
  6
Continuous
 62
     7
370
    80
100
AcDbCircle
 10
-75.96997567113151
 20
63.07593285646288
 30
0.0
 40
1.0
100
AcDbArc
 50
182.9777775686948
 51
269.9999996914794
  0
LINE
  5
143
330
1F
100
AcDbEntity
  8
2-0
  6
Continuous
 62
     7
370
    80
100
AcDbLine
 10
-76.96997567113154
 20
63.0259328564629
 30
0.0
 11
-77.31997567113156
 21
69.80093285646291
 31
0.0
  0
ARC
  5
144
330
1F
100
AcDbEntity
  8
2-0
  6
Continuous
 62
     7
370
    80
100
AcDbCircle
 10
-80.31997567113156
 20
69.65093285646292
 30
0.0
 40
3.0
100
AcDbArc
 50
2.977777774375165
 51
44.99999994857991
  0
LINE
  5
145
330
1F
100
AcDbEntity
  8
2-0
  6
Continuous
 62
     7
370
    80
100
AcDbLine
 10
-76.91997567113158
 20
89.0759328564629
 30
0.0
 11
-76.91997567113158
 21
85.0759328564629
 31
0.0
  0
LINE
  5
146
330
1F
100
AcDbEntity
  8
2-0
  6
Continuous
 62
     7
370
    80
100
AcDbLine
 10
-76.91997567113158
 20
85.0759328564629
 30
0.0
 11
-51.56997567113153
 21
85.0759328564629
 31
0.0
  0
LINE
  5
147
330
1F
100
AcDbEntity
  8
2-0
  6
Continuous
 62
     7
370
    80
100
AcDbLine
 10
-73.91997567113158
 20
85.0759328564629
 30
0.0
 11
-73.91997567113158
 21
82.0759328564629
 31
0.0
  0
LINE
  5
148
330
1F
100
AcDbEntity
  8
2-0
  6
Continuous
 62
     7
370
    80
100
AcDbLine
 10
-47.91997567113152
 20
82.0759328564629
 30
0.0
 11
-70.04497567113152
 21
82.0759328564629
 31
0.0
  0
LINE
  5
149
330
1F
100
AcDbEntity
  8
2-0
  6
Continuous
 62
     7
370
    80
100
AcDbLine
 10
-73.41997567113152
 20
82.0759328564629
 30
0.0
 11
-76.91997567113158
 21
82.0759328564629
 31
0.0
  0
LINE
  5
14A
330
1F
100
AcDbEntity
  8
2-0
  6
Continuous
 62
     7
370
    80
100
AcDbLine
 10
-76.91997567113158
 20
82.0759328564629
 30
0.0
 11
-76.91997567113158
 21
76.57593285646288
 31
0.0
  0
LINE
  5
14B
330
1F
100
AcDbEntity
  8
2-0
  6
Continuous
 62
     7
370
    80
100
AcDbLine
 10
-76.91997567113158
 20
76.57593285646288
 30
0.0
 11
-17.91997567113152
 21
76.57593285646288
 31
0.0
  0
LINE
  5
14C
330
1F
100
AcDbEntity
  8
2-0
  6
Continuous
 62
     7
370
    80
100
AcDbLine
 10
-73.91997567113158
 20
76.57593285646288
 30
0.0
 11
-73.91997567113158
 21
75.07593285646288
 31
0.0
  0
LINE
  5
14D
330
1F
100
AcDbEntity
  8
2-0
  6
Continuous
 62
     7
370
    80
100
AcDbLine
 10
-73.91997567113158
 20
75.07593285646288
 30
0.0
 11
-17.91997567113152
 21
75.07593285646288
 31
0.0
  0
LINE
  5
14E
330
1F
100
AcDbEntity
  8
2-0
  6
Continuous
 62
     7
370
    80
100
AcDbLine
 10
-17.91997567113152
 20
72.07593285646288
 30
0.0
 11
-74.91997567113152
 21
72.07593285646288
 31
0.0
  0
LINE
  5
14F
330
1F
100
AcDbEntity
  8
2-0
  6
Continuous
 62
     7
370
    80
100
AcDbLine
 10
-74.91997567113152
 20
72.07593285646288
 30
0.0
 11
-74.91997567113152
 21
69.07593285646288
 31
0.0
  0
LINE
  5
150
330
1F
100
AcDbEntity
  8
2-0
  6
Continuous
 62
     7
370
    80
100
AcDbLine
 10
-74.91997567113152
 20
69.07593285646288
 30
0.0
 11
-73.01997567113155
 21
69.07593285646288
 31
0.0
  0
LINE
  5
151
330
1F
100
AcDbEntity
  8
2-0
  6
Continuous
 62
     7
370
    80
100
AcDbLine
 10
-79.99497567113151
 20
82.7009328564629
 30
0.0
 11
-79.04497567113152
 21
64.5259328564629
 31
0.0
  0
ARC
  5
152
330
1F
100
AcDbEntity
  8
2-0
  6
Continuous
 62
     7
370
    80
100
AcDbCircle
 10
-82.49497567113154
 20
82.57593285646288
 30
0.0
 40
2.5
100
AcDbArc
 50
3.033333329867238
 51
89.99999989715981
  0
LINE
  5
153
330
1F
100
AcDbEntity
  8
2-0
  6
Continuous
 62
     7
370
    80
100
AcDbLine
 10
-78.04497567113158
 20
63.5759328564629
 30
0.0
 11
-76.99497567113151
 21
63.5759328564629
 31
0.0
  0
ARC
  5
154
330
1F
100
AcDbEntity
  8
2-0
  6
Continuous
 62
     7
370
    80
100
AcDbCircle
 10
-78.04497567113158
 20
64.57593285646288
 30
0.0
 40
1.0
100
AcDbArc
 50
183.0555553463837
 51
269.9999996914795
  0
LINE
  5
155
330
1F
100
AcDbEntity
  8
2-0
  6
Continuous
 62
     7
370
    80
100
AcDbLine
 10
-78.66997567113152
 20
72.2509328564629
 30
0.0
 11
-78.19497567113153
 21
71.7759328564629
 31
0.0
  0
ARC
  5
156
330
1F
100
AcDbEntity
  8
2-0
  6
Continuous
 62
     7
370
    80
100
AcDbCircle
 10
-76.54497567113158
 20
74.3759328564629
 30
0.0
 40
3.0
100
AcDbArc
 50
182.9888886797932
 51
224.9999997428995
  0
LINE
  5
157
330
1F
100
AcDbEntity
  8
2-0
  6
Continuous
 62
     7
370
    80
100
AcDbLine
 10
-76.66997567113155
 20
89.0759328564629
 30
0.0
 11
-76.66997567113155
 21
85.0759328564629
 31
0.0
  0
LINE
  5
158
330
1F
100
AcDbEntity
  8
2-0
  6
Continuous
 62
     7
370
    80
100
AcDbLine
 10
-42.91997567113155
 20
86.0759328564629
 30
0.0
 11
-47.91997567113152
 21
86.0759328564629
 31
0.0
  0
LINE
  5
159
330
1F
100
AcDbEntity
  8
2-0
  6
Continuous
 62
     7
370
    80
100
AcDbLine
 10
-42.91997567113155
 20
83.5759328564629
 30
0.0
 11
-42.91997567113155
 21
86.0759328564629
 31
0.0
  0
LINE
  5
15A
330
1F
100
AcDbEntity
  8
2-0
  6
Continuous
 62
     7
370
    80
100
AcDbLine
 10
-42.91997567113155
 20
83.5759328564629
 30
0.0
 11
-50.51997567113155
 21
83.5759328564629
 31
0.0
  0
ARC
  5
15B
330
1F
100
AcDbEntity
  8
2-0
  6
Continuous
 62
     7
370
    80
100
AcDbCircle
 10
-50.51997567113155
 20
84.5759328564629
 30
0.0
 40
1.0
100
AcDbArc
 50
185.0333331219015
 51
269.9999996914794
  0
LINE
  5
15C
330
1F
100
AcDbEntity
  8
2-0
  6
Continuous
 62
     7
370
    80
100
AcDbLine
 10
-47.91997567113152
 20
89.0759328564629
 30
0.0
 11
-47.91997567113152
 21
86.0759328564629
 31
0.0
  0
LINE
  5
15D
330
1F
100
AcDbEntity
  8
2-0
  6
Continuous
 62
     7
370
    80
100
AcDbLine
 10
-51.91997567113155
 20
89.0759328564629
 30
0.0
 11
-51.51997567113158
 21
84.4759328564629
 31
0.0
  0
ARC
  5
15E
330
1F
100
AcDbEntity
  8
2-0
  6
Continuous
 62
     7
370
    80
100
AcDbCircle
 10
-52.56997567113156
 20
85.0759328564629
 30
0.0
 40
1.0
100
AcDbArc
 50
4.966666660991412
 51
89.99999989715982
  0
LINE
  5
15F
330
1F
100
AcDbEntity
  8
2-0
  6
Continuous
 62
     7
370
    80
100
AcDbLine
 10
-68.76997567113158
 20
86.0759328564629
 30
0.0
 11
-52.56997567113156
 21
86.0759328564629
 31
0.0
  0
ARC
  5
160
330
1F
100
AcDbEntity
  8
2-0
  6
Continuous
 62
     7
370
    80
100
AcDbCircle
 10
-68.76997567113158
 20
85.0759328564629
 30
0.0
 40
1.0
100
AcDbArc
 50
89.99999989715981
 51
174.9666664667377
  0
LINE
  5
161
330
1F
100
AcDbEntity
  8
2-0
  6
Continuous
 62
     7
370
    80
100
AcDbLine
 10
-69.41997567113158
 20
89.0759328564629
 30
0.0
 11
-70.19497567113156
 21
80.4009328564629
 31
0.0
  0
ARC
  5
162
330
1F
100
AcDbEntity
  8
2-0
  6
Continuous
 62
     7
370
    80
100
AcDbCircle
 10
-72.19497567113153
 20
80.5759328564629
 30
0.0
 40
2.0
100
AcDbArc
 50
269.9999996914794
 51
354.9666662610574
  0
LINE
  5
163
330
1F
100
AcDbEntity
  8
2-0
  6
Continuous
 62
     7
370
    80
100
AcDbLine
 10
-75.41997567113158
 20
78.5759328564629
 30
0.0
 11
-75.41997567113158
 21
81.5759328564629
 31
0.0
  0
LINE
  5
164
330
1F
100
AcDbEntity
  8
2-0
  6
Continuous
 62
     7
370
    80
100
AcDbLine
 10
-75.41997567113158
 20
78.5759328564629
 30
0.0
 11
-72.19497567113153
 21
78.5759328564629
 31
0.0
  0
LINE
  5
165
330
1F
100
AcDbEntity
  8
2-0
  6
Continuous
 62
     7
370
    80
100
AcDbLine
 10
-75.41997567113158
 20
81.5759328564629
 30
0.0
 11
-73.41997567113152
 21
81.5759328564629
 31
0.0
  0
LINE
  5
166
330
1F
100
AcDbEntity
  8
2-0
  6
Continuous
 62
     7
370
    80
100
AcDbLine
 10
-73.41997567113152
 20
81.5759328564629
 30
0.0
 11
-73.41997567113152
 21
85.0759328564629
 31
0.0
  0
LINE
  5
167
330
1F
100
AcDbEntity
  8
2-0
  6
Continuous
 62
     7
370
    80
100
AcDbLine
 10
-41.64497567113152
 20
87.9509328564629
 30
0.0
 11
-40.69497567113153
 21
84.17593285646292
 31
0.0
  0
ARC
  5
168
330
1F
100
AcDbEntity
  8
2-0
  6
Continuous
 62
     7
370
    80
100
AcDbCircle
 10
-43.09497567113156
 20
87.5759328564629
 30
0.0
 40
1.5
100
AcDbArc
 50
14.03333331729788
 51
89.99999989715981
  0
LINE
  5
169
330
1F
100
AcDbEntity
  8
2-0
  6
Continuous
 62
     7
370
    80
100
AcDbLine
 10
-39.26997567113155
 20
83.05093285646292
 30
0.0
 11
-17.91997567113152
 21
82.57593285646288
 31
0.0
  0
ARC
  5
16A
330
1F
100
AcDbEntity
  8
2-0
  6
Continuous
 62
     7
370
    80
100
AcDbCircle
 10
-39.24497567113157
 20
84.55093285646292
 30
0.0
 40
1.5
100
AcDbArc
 50
194.099999778208
 51
268.7222219151618
  0
LINE
  5
16B
330
1F
100
AcDbEntity
  8
2-0
  6
Continuous
 62
     7
370
    80
100
AcDbLine
 10
-17.91997567113152
 20
80.5759328564629
 30
0.0
 11
-47.91997567113152
 21
80.5759328564629
 31
0.0
  0
LINE
  5
16C
330
1F
100
AcDbEntity
  8
2-0
  6
Continuous
 62
     7
370
    80
100
AcDbLine
 10
-47.91997567113152
 20
80.5759328564629
 30
0.0
 11
-47.91997567113152
 21
83.5759328564629
 31
0.0
  0
LINE
  5
16D
330
1F
100
AcDbEntity
  8
2-0
  6
Continuous
 62
     7
370
    80
100
AcDbLine
 10
-18.91997567113155
 20
80.5759328564629
 30
0.0
 11
-18.91997567113155
 21
82.6009328564629
 31
0.0
  0
LINE
  5
16E
330
1F
100
AcDbEntity
  8
2-0
  6
Continuous
 62
     7
370
    80
100
AcDbLine
 10
-40.41997567113152
 20
83.5759328564629
 30
0.0
 11
-40.41997567113152
 21
80.5759328564629
 31
0.0
  0
LINE
  5
16F
330
1F
100
AcDbEntity
  8
2-0
  6
Continuous
 62
     7
370
    80
100
AcDbLine
 10
-38.41997567113155
 20
80.5759328564629
 30
0.0
 11
-38.41997567113155
 21
83.0259328564629
 31
0.0
  0
LINE
  5
170
330
1F
100
AcDbEntity
  8
2-0
  6
Continuous
 62
     7
370
    80
100
AcDbLine
 10
-17.91997567113152
 20
89.0759328564629
 30
0.0
 11
47.08002432886845
 21
89.0759328564629
 31
0.0
  0
LINE
  5
171
330
1F
100
AcDbEntity
  8
2-0
  6
Continuous
 62
     7
370
    80
100
AcDbLine
 10
47.08002432886845
 20
89.0759328564629
 30
0.0
 11
47.08002432886845
 21
85.0759328564629
 31
0.0
  0
LINE
  5
172
330
1F
100
AcDbEntity
  8
2-0
  6
Continuous
 62
     7
370
    80
100
AcDbLine
 10
47.08002432886845
 20
85.0759328564629
 30
0.0
 11
46.65502432886849
 21
85.0759328564629
 31
0.0
  0
LINE
  5
173
330
1F
100
AcDbEntity
  8
2-0
  6
Continuous
 62
     7
370
    80
100
AcDbLine
 10
40.13002432886846
 20
62.0759328564629
 30
0.0
 11
38.5050243288684
 21
62.0759328564629
 31
0.0
  0
LINE
  5
174
330
1F
100
AcDbEntity
  8
2-0
  6
Continuous
 62
     7
370
    80
100
AcDbLine
 10
38.5050243288684
 20
62.0759328564629
 30
0.0
 11
37.0050243288684
 21
63.5759328564629
 31
0.0
  0
ARC
  5
175
330
1F
100
AcDbEntity
  8
2-0
  6
Continuous
 62
     7
370
    80
100
AcDbCircle
 10
40.13002432886846
 20
63.07593285646288
 30
0.0
 40
1.0
100
AcDbArc
 50
269.9999996914794
 51
357.0222218142641
  0
LINE
  5
176
330
1F
100
AcDbEntity
  8
2-0
  6
Continuous
 62
     7
370
    80
100
AcDbLine
 10
41.1300243288684
 20
63.0259328564629
 30
0.0
 11
41.48002432886842
 21
69.80093285646291
 31
0.0
  0
ARC
  5
177
330
1F
100
AcDbEntity
  8
2-0
  6
Continuous
 62
     7
370
    80
100
AcDbCircle
 10
44.48002432886842
 20
69.65093285646292
 30
0.0
 40
3.0
100
AcDbArc
 50
134.9999998457397
 51
177.0222220199445
  0
LINE
  5
178
330
1F
100
AcDbEntity
  8
2-0
  6
Continuous
 62
     7
370
    80
100
AcDbLine
 10
41.08002432886845
 20
89.0759328564629
 30
0.0
 11
41.08002432886845
 21
85.0759328564629
 31
0.0
  0
LINE
  5
179
330
1F
100
AcDbEntity
  8
2-0
  6
Continuous
 62
     7
370
    80
100
AcDbLine
 10
41.08002432886845
 20
85.0759328564629
 30
0.0
 11
15.73002432886848
 21
85.0759328564629
 31
0.0
  0
LINE
  5
17A
330
1F
100
AcDbEntity
  8
2-0
  6
Continuous
 62
     7
370
    80
100
AcDbLine
 10
38.08002432886845
 20
85.0759328564629
 30
0.0
 11
38.08002432886845
 21
82.0759328564629
 31
0.0
  0
LINE
  5
17B
330
1F
100
AcDbEntity
  8
2-0
  6
Continuous
 62
     7
370
    80
100
AcDbLine
 10
12.08002432886848
 20
82.0759328564629
 30
0.0
 11
34.20502432886848
 21
82.0759328564629
 31
0.0
  0
LINE
  5
17C
330
1F
100
AcDbEntity
  8
2-0
  6
Continuous
 62
     7
370
    80
100
AcDbLine
 10
37.58002432886848
 20
82.0759328564629
 30
0.0
 11
41.08002432886845
 21
82.0759328564629
 31
0.0
  0
LINE
  5
17D
330
1F
100
AcDbEntity
  8
2-0
  6
Continuous
 62
     7
370
    80
100
AcDbLine
 10
41.08002432886845
 20
82.0759328564629
 30
0.0
 11
41.08002432886845
 21
76.57593285646288
 31
0.0
  0
LINE
  5
17E
330
1F
100
AcDbEntity
  8
2-0
  6
Continuous
 62
     7
370
    80
100
AcDbLine
 10
41.08002432886845
 20
76.57593285646288
 30
0.0
 11
-17.91997567113152
 21
76.57593285646288
 31
0.0
  0
LINE
  5
17F
330
1F
100
AcDbEntity
  8
2-0
  6
Continuous
 62
     7
370
    80
100
AcDbLine
 10
38.08002432886845
 20
76.57593285646288
 30
0.0
 11
38.08002432886845
 21
75.07593285646288
 31
0.0
  0
LINE
  5
180
330
1F
100
AcDbEntity
  8
2-0
  6
Continuous
 62
     7
370
    80
100
AcDbLine
 10
38.08002432886845
 20
75.07593285646288
 30
0.0
 11
-17.91997567113152
 21
75.07593285646288
 31
0.0
  0
LINE
  5
181
330
1F
100
AcDbEntity
  8
2-0
  6
Continuous
 62
     7
370
    80
100
AcDbLine
 10
-17.91997567113152
 20
72.07593285646288
 30
0.0
 11
39.08002432886848
 21
72.07593285646288
 31
0.0
  0
LINE
  5
182
330
1F
100
AcDbEntity
  8
2-0
  6
Continuous
 62
     7
370
    80
100
AcDbLine
 10
39.08002432886848
 20
72.07593285646288
 30
0.0
 11
39.08002432886848
 21
69.07593285646288
 31
0.0
  0
LINE
  5
183
330
1F
100
AcDbEntity
  8
2-0
  6
Continuous
 62
     7
370
    80
100
AcDbLine
 10
39.08002432886848
 20
69.07593285646288
 30
0.0
 11
37.0050243288684
 21
69.07593285646288
 31
0.0
  0
LINE
  5
184
330
1F
100
AcDbEntity
  8
2-0
  6
Continuous
 62
     7
370
    80
100
AcDbLine
 10
44.15502432886846
 20
82.7009328564629
 30
0.0
 11
43.20502432886848
 21
64.5259328564629
 31
0.0
  0
ARC
  5
185
330
1F
100
AcDbEntity
  8
2-0
  6
Continuous
 62
     7
370
    80
100
AcDbCircle
 10
46.65502432886849
 20
82.57593285646288
 30
0.0
 40
2.5
100
AcDbArc
 50
89.99999989715981
 51
176.9666664644524
  0
LINE
  5
186
330
1F
100
AcDbEntity
  8
2-0
  6
Continuous
 62
     7
370
    80
100
AcDbLine
 10
42.20502432886845
 20
63.5759328564629
 30
0.0
 11
41.15502432886846
 21
63.5759328564629
 31
0.0
  0
ARC
  5
187
330
1F
100
AcDbEntity
  8
2-0
  6
Continuous
 62
     7
370
    80
100
AcDbCircle
 10
42.20502432886845
 20
64.57593285646288
 30
0.0
 40
1.0
100
AcDbArc
 50
269.9999996914794
 51
356.9444440365752
  0
LINE
  5
188
330
1F
100
AcDbEntity
  8
2-0
  6
Continuous
 62
     7
370
    80
100
AcDbLine
 10
42.83002432886848
 20
72.2509328564629
 30
0.0
 11
42.35502432886848
 21
71.7759328564629
 31
0.0
  0
ARC
  5
189
330
1F
100
AcDbEntity
  8
2-0
  6
Continuous
 62
     7
370
    80
100
AcDbCircle
 10
40.70502432886845
 20
74.3759328564629
 30
0.0
 40
3.0
100
AcDbArc
 50
314.9999996400594
 51
357.0111107031657
  0
LINE
  5
18A
330
1F
100
AcDbEntity
  8
2-0
  6
Continuous
 62
     7
370
    80
100
AcDbLine
 10
40.8300243288685
 20
89.0759328564629
 30
0.0
 11
40.8300243288685
 21
85.0759328564629
 31
0.0
  0
LINE
  5
18B
330
1F
100
AcDbEntity
  8
2-0
  6
Continuous
 62
     7
370
    80
100
AcDbLine
 10
7.080024328868422
 20
86.0759328564629
 30
0.0
 11
12.08002432886848
 21
86.0759328564629
 31
0.0
  0
LINE
  5
18C
330
1F
100
AcDbEntity
  8
2-0
  6
Continuous
 62
     7
370
    80
100
AcDbLine
 10
7.080024328868422
 20
83.5759328564629
 30
0.0
 11
7.080024328868422
 21
86.0759328564629
 31
0.0
  0
LINE
  5
18D
330
1F
100
AcDbEntity
  8
2-0
  6
Continuous
 62
     7
370
    80
100
AcDbLine
 10
7.080024328868422
 20
83.5759328564629
 30
0.0
 11
14.68002432886842
 21
83.5759328564629
 31
0.0
  0
ARC
  5
18E
330
1F
100
AcDbEntity
  8
2-0
  6
Continuous
 62
     7
370
    80
100
AcDbCircle
 10
14.68002432886842
 20
84.5759328564629
 30
0.0
 40
1.0
100
AcDbArc
 50
269.9999996914794
 51
354.9666662610574
  0
LINE
  5
18F
330
1F
100
AcDbEntity
  8
2-0
  6
Continuous
 62
     7
370
    80
100
AcDbLine
 10
12.08002432886848
 20
89.0759328564629
 30
0.0
 11
12.08002432886848
 21
86.0759328564629
 31
0.0
  0
LINE
  5
190
330
1F
100
AcDbEntity
  8
2-0
  6
Continuous
 62
     7
370
    80
100
AcDbLine
 10
16.08002432886842
 20
89.0759328564629
 30
0.0
 11
15.68002432886844
 21
84.4759328564629
 31
0.0
  0
ARC
  5
191
330
1F
100
AcDbEntity
  8
2-0
  6
Continuous
 62
     7
370
    80
100
AcDbCircle
 10
16.73002432886843
 20
85.0759328564629
 30
0.0
 40
1.0
100
AcDbArc
 50
89.99999989715981
 51
175.0333331333282
  0
LINE
  5
192
330
1F
100
AcDbEntity
  8
2-0
  6
Continuous
 62
     7
370
    80
100
AcDbLine
 10
32.93002432886844
 20
86.0759328564629
 30
0.0
 11
16.73002432886843
 21
86.0759328564629
 31
0.0
  0
ARC
  5
193
330
1F
100
AcDbEntity
  8
2-0
  6
Continuous
 62
     7
370
    80
100
AcDbCircle
 10
32.93002432886844
 20
85.0759328564629
 30
0.0
 40
1.0
100
AcDbArc
 50
5.033333327581901
 51
89.99999989715981
  0
LINE
  5
194
330
1F
100
AcDbEntity
  8
2-0
  6
Continuous
 62
     7
370
    80
100
AcDbLine
 10
33.58002432886845
 20
89.0759328564629
 30
0.0
 11
34.35502432886842
 21
80.4009328564629
 31
0.0
  0
ARC
  5
195
330
1F
100
AcDbEntity
  8
2-0
  6
Continuous
 62
     7
370
    80
100
AcDbCircle
 10
36.35502432886848
 20
80.5759328564629
 30
0.0
 40
2.0
100
AcDbArc
 50
185.0333331219015
 51
269.9999996914794
  0
LINE
  5
196
330
1F
100
AcDbEntity
  8
2-0
  6
Continuous
 62
     7
370
    80
100
AcDbLine
 10
39.58002432886845
 20
78.5759328564629
 30
0.0
 11
39.58002432886845
 21
81.5759328564629
 31
0.0
  0
LINE
  5
197
330
1F
100
AcDbEntity
  8
2-0
  6
Continuous
 62
     7
370
    80
100
AcDbLine
 10
39.58002432886845
 20
78.5759328564629
 30
0.0
 11
36.35502432886848
 21
78.5759328564629
 31
0.0
  0
LINE
  5
198
330
1F
100
AcDbEntity
  8
2-0
  6
Continuous
 62
     7
370
    80
100
AcDbLine
 10
39.58002432886845
 20
81.5759328564629
 30
0.0
 11
37.58002432886848
 21
81.5759328564629
 31
0.0
  0
LINE
  5
199
330
1F
100
AcDbEntity
  8
2-0
  6
Continuous
 62
     7
370
    80
100
AcDbLine
 10
37.58002432886848
 20
81.5759328564629
 30
0.0
 11
37.58002432886848
 21
85.0759328564629
 31
0.0
  0
LINE
  5
19A
330
1F
100
AcDbEntity
  8
2-0
  6
Continuous
 62
     7
370
    80
100
AcDbLine
 10
5.805024328868473
 20
87.9509328564629
 30
0.0
 11
4.855024328868485
 21
84.17593285646292
 31
0.0
  0
ARC
  5
19B
330
1F
100
AcDbEntity
  8
2-0
  6
Continuous
 62
     7
370
    80
100
AcDbCircle
 10
7.255024328868434
 20
87.5759328564629
 30
0.0
 40
1.5
100
AcDbArc
 50
89.99999989715981
 51
165.9666664770217
  0
LINE
  5
19C
330
1F
100
AcDbEntity
  8
2-0
  6
Continuous
 62
     7
370
    80
100
AcDbLine
 10
3.430024328868416
 20
83.05093285646292
 30
0.0
 11
-17.91997567113152
 21
82.57593285646288
 31
0.0
  0
ARC
  5
19D
330
1F
100
AcDbEntity
  8
2-0
  6
Continuous
 62
     7
370
    80
100
AcDbCircle
 10
3.405024328868439
 20
84.55093285646292
 30
0.0
 40
1.5
100
AcDbArc
 50
271.2777774677971
 51
345.899999604751
  0
LINE
  5
19E
330
1F
100
AcDbEntity
  8
2-0
  6
Continuous
 62
     7
370
    80
100
AcDbLine
 10
-17.91997567113152
 20
80.5759328564629
 30
0.0
 11
12.08002432886848
 21
80.5759328564629
 31
0.0
  0
LINE
  5
19F
330
1F
100
AcDbEntity
  8
2-0
  6
Continuous
 62
     7
370
    80
100
AcDbLine
 10
12.08002432886848
 20
80.5759328564629
 30
0.0
 11
12.08002432886848
 21
83.5759328564629
 31
0.0
  0
LINE
  5
1A0
330
1F
100
AcDbEntity
  8
2-0
  6
Continuous
 62
     7
370
    80
100
AcDbLine
 10
-16.91997567113158
 20
80.5759328564629
 30
0.0
 11
-16.91997567113158
 21
82.6009328564629
 31
0.0
  0
LINE
  5
1A1
330
1F
100
AcDbEntity
  8
2-0
  6
Continuous
 62
     7
370
    80
100
AcDbLine
 10
4.580024328868479
 20
83.5759328564629
 30
0.0
 11
4.580024328868479
 21
80.5759328564629
 31
0.0
  0
LINE
  5
1A2
330
1F
100
AcDbEntity
  8
2-0
  6
Continuous
 62
     7
370
    80
100
AcDbLine
 10
2.580024328868422
 20
80.5759328564629
 30
0.0
 11
2.580024328868422
 21
83.0259328564629
 31
0.0
  0
LINE
  5
1A3
330
1F
100
AcDbEntity
  8
2-0
  6
Continuous
 62
     7
370
    80
100
AcDbLine
 10
-92.91997567113152
 20
33.40093285646292
 30
0.0
 11
-92.91997567113152
 21
3.475932856462903
 31
0.0
  0
LINE
  5
1A4
330
1F
100
AcDbEntity
  8
2-0
  6
JWW_CENTER1
 62
     7
370
     9
100
AcDbLine
 10
-17.91997567113152
 20
93.2009328564629
 30
0.0
 11
-17.91997567113152
 21
-106.9797585815257
 31
0.0
  0
LINE
  5
1A5
330
1F
100
AcDbEntity
  8
2-0
  6
Continuous
 62
     7
370
    80
100
AcDbLine
 10
27.08002432886848
 20
-56.9240671435371
 30
0.0
 11
12.65502432886847
 21
-56.9240671435371
 31
0.0
  0
LINE
  5
1A6
330
1F
100
AcDbEntity
  8
2-0
  6
Continuous
 62
     7
370
    80
100
AcDbLine
 10
-17.91997567113152
 20
-97.92406714353707
 30
0.0
 11
19.18002432886842
 21
-97.92406714353707
 31
0.0
  0
LINE
  5
1A7
330
1F
100
AcDbEntity
  8
2-0
  6
JWW_CENTER1
 62
     7
370
     9
100
AcDbLine
 10
-92.91997567113152
 20
33.40093285646292
 30
0.0
 11
-92.91997567113152
 21
3.471191238075876
 31
0.0
  0
TEXT
  5
1A8
330
1F
100
AcDbEntity
  8
2-0
  6
Continuous
 62
     7
370
     9
100
AcDbText
 10
-71.31792082480148
 20
-249.2871308137015
 30
0.0
 40
6.858000000000001
  1
＊Rcは管用テーパねじ(JIS B 0203)に準拠しています。
 41
1.16
  7
ＭＳ ゴシック
100
AcDbText
  0
TEXT
  5
1A9
330
1F
100
AcDbEntity
  8
2-5
  6
Continuous
 62
     7
370
     9
100
AcDbText
 10
-266.5244856440359
 20
110.8564628046856
 30
0.0
 40
6.858000000000001
  1
金具枠
 41
1.111111111111111
  7
ＭＳ ゴシック
100
AcDbText
  0
TEXT
  5
1AA
330
1F
100
AcDbEntity
  8
2-5
  6
Continuous
 62
     7
370
     9
100
AcDbText
 10
-227.7327026529971
 20
110.4523817318623
 30
0.0
 40
6.858000000000001
  1
CAC202
 41
1.138888888888889
  7
ＭＳ ゴシック
100
AcDbText
  0
TEXT
  5
1AB
330
1F
100
AcDbEntity
  8
2-5
  6
Continuous
 62
     7
370
     9
100
AcDbText
 10
-265.1260079524778
 20
75.2973283962334
 30
0.0
 40
6.858000000000001
  1
調節管
 41
1.111111111111111
  7
ＭＳ ゴシック
100
AcDbText
  0
TEXT
  5
1AC
330
1F
100
AcDbEntity
  8
2-5
  6
Continuous
 62
     7
370
     9
100
AcDbText
 10
-264.3677723389126
 20
62.75589479426431
 30
0.0
 40
6.858000000000001
  1
電気亜鉛めっき
 41
1.142857142857143
  7
ＭＳ ゴシック
100
AcDbText
  0
TEXT
  5
1AD
330
1F
100
AcDbEntity
  8
2-5
  6
Continuous
 62
     7
370
     9
100
AcDbText
 10
-221.4758548533075
 20
75.72020393756011
 30
0.0
 40
6.858000000000001
  1
SGP100A,L=70
 41
1.152777777777777
  7
ＭＳ ゴシック
100
AcDbText
  0
LINE
  5
1AE
330
1F
100
AcDbEntity
  8
2-5
  6
Continuous
 62
     7
370
     9
100
AcDbLine
 10
-113.3543016955994
 20
73.43069192445115
 30
0.0
 11
-268.120872284073
 21
73.43069192445115
 31
0.0
  0
LINE
  5
1AF
330
1F
100
AcDbEntity
  8
2-5
  6
Continuous
 62
     7
370
     9
100
AcDbLine
 10
-124.2999038656191
 20
141.2399292262517
 30
0.0
 11
-271.6806783011333
 21
141.2399292262517
 31
0.0
  0
LINE
  5
1B0
330
1F
100
AcDbEntity
  8
2-5
  6
Continuous
 62
     7
370
     9
100
AcDbLine
 10
-105.7210595729613
 20
108.7719469588642
 30
0.0
 11
-269.3074742897599
 21
108.7719469588642
 31
0.0
  0
TEXT
  5
1B1
330
1F
100
AcDbEntity
  8
2-5
  6
Continuous
 62
     7
370
     9
100
AcDbText
 10
-184.354820012736
 20
-14.16412465744948
 30
0.0
 40
6.858000000000001
  1
FC150
 41
1.133333333333333
  7
ＭＳ ゴシック
100
AcDbText
  0
TEXT
  5
1B2
330
1F
100
AcDbEntity
  8
2-5
  6
Continuous
 62
     7
370
     9
100
AcDbText
 10
-217.8228289773912
 20
-25.32012764566787
 30
0.0
 40
6.858000000000001
  1
樹脂系塗装
 41
1.133333333333333
  7
ＭＳ ゴシック
100
AcDbText
  0
TEXT
  5
1B3
330
1F
100
AcDbEntity
  8
2-5
  6
Continuous
 62
     7
370
     9
100
AcDbText
 10
-217.0741787002514
 20
-13.81522189679863
 30
0.0
 40
6.858000000000001
  1
座板
 41
1.083333333333333
  7
ＭＳ ゴシック
100
AcDbText
  0
TEXT
  5
1B4
330
1F
100
AcDbEntity
  8
2-5
  6
Continuous
 62
     7
370
     9
100
AcDbText
 10
-201.8425766541047
 20
46.0502480433772
 30
0.0
 40
6.858000000000001
  1
SS400
 41
1.133333333333333
  7
ＭＳ ゴシック
100
AcDbText
  0
TEXT
  5
1B5
330
1F
100
AcDbEntity
  8
2-5
  6
Continuous
 62
     7
370
     9
100
AcDbText
 10
-245.4334218835756
 20
34.76791163104357
 30
0.0
 40
6.858000000000001
  1
電気亜鉛めっき
 41
1.142857142857143
  7
ＭＳ ゴシック
100
AcDbText
  0
TEXT
  5
1B6
330
1F
100
AcDbEntity
  8
2-5
  6
Continuous
 62
     7
370
     9
100
AcDbText
 10
-245.1770051469316
 20
46.81949825330905
 30
0.0
 40
6.858000000000001
  1
ボルト
 41
1.111111111111111
  7
ＭＳ ゴシック
100
AcDbText
  0
LINE
  5
1B7
330
1F
100
AcDbEntity
  8
2-5
  6
Continuous
 62
     7
370
     9
100
AcDbLine
 10
-143.5487865486363
 20
-16.24427122009264
 30
0.0
 11
-221.0738319024007
 21
-16.24427122009264
 31
0.0
  0
LINE
  5
1B8
330
1F
100
AcDbEntity
  8
2-5
  6
Continuous
 62
     7
370
     9
100
AcDbLine
 10
-111.9103891218641
 20
44.53245718207928
 30
0.0
 11
-249.7925064065227
 21
44.53245718207928
 31
0.0
  0
TEXT
  5
1B9
330
1F
100
AcDbEntity
  8
2-5
  6
Continuous
 62
     7
370
     9
100
AcDbText
 10
-183.401583568138
 20
-41.20808528396916
 30
0.0
 40
6.858000000000001
  1
FC150
 41
1.133333333333331
  7
ＭＳ ゴシック
100
AcDbText
  0
TEXT
  5
1BA
330
1F
100
AcDbEntity
  8
2-5
  6
Continuous
 62
     7
370
     9
100
AcDbText
 10
-217.4416952501377
 20
-40.92203392529689
 30
0.0
 40
6.858000000000001
  1
本体
 41
1.083333333333333
  7
ＭＳ ゴシック
100
AcDbText
  0
TEXT
  5
1BB
330
1F
100
AcDbEntity
  8
2-5
  6
Continuous
 62
     7
370
     9
100
AcDbText
 10
-216.8695925327931
 20
-52.36408827218757
 30
0.0
 40
6.858000000000001
  1
樹脂系塗装
 41
1.133333333333332
  7
ＭＳ ゴシック
100
AcDbText
  0
TEXT
  5
1BC
330
1F
100
AcDbEntity
  8
2-5
  6
Continuous
 62
     7
370
     9
100
AcDbText
 10
-190.4026384946899
 20
-78.71788225618812
 30
0.0
 40
6.858000000000001
  1
FC150
 41
1.133333333333333
  7
ＭＳ ゴシック
100
AcDbText
  0
TEXT
  5
1BD
330
1F
100
AcDbEntity
  8
2-5
  6
Continuous
 62
     7
370
     9
100
AcDbText
 10
-216.4629453612973
 20
-89.69064304212807
 30
0.0
 40
6.858000000000001
  1
樹脂系塗装
 41
1.133333333333333
  7
ＭＳ ゴシック
100
AcDbText
  0
TEXT
  5
1BE
330
1F
100
AcDbEntity
  8
2-5
  6
Continuous
 62
     7
370
     9
100
AcDbText
 10
-216.0057469952165
 20
-78.26068389010732
 30
0.0
 40
6.858000000000001
  1
椀
 41
0.9999999999999998
  7
ＭＳ ゴシック
100
AcDbText
  0
LINE
  5
1BF
330
1F
100
AcDbEntity
  8
2-5
  6
Continuous
 62
     7
370
     9
100
AcDbLine
 10
-101.8113083365915
 20
-80.28940111141034
 30
0.0
 11
-221.997040575772
 21
-80.28940111141034
 31
0.0
  0
LINE
  5
1C0
330
1F
100
AcDbEntity
  8
2-5
  6
Continuous
 62
     7
370
     9
100
AcDbLine
 10
-112.84453096174
 20
-43.36213441887764
 30
0.0
 11
-221.5633547632664
 21
-43.36213441887764
 31
0.0
  0
LINE
  5
1C1
330
1F
100
AcDbEntity
  8
2-5
  6
Continuous
 62
     7
370
     9
100
AcDbLine
 10
-105.0198429250631
 20
193.5335015280571
 30
0.0
 11
-173.1421231390986
 21
193.5335015280571
 31
0.0
  0
TEXT
  5
1C2
330
1F
100
AcDbEntity
  8
2-5
  6
Continuous
 62
     7
370
     9
100
AcDbText
 10
-171.6890481927062
 20
183.3087752189066
 30
0.0
 40
6.858000000000001
  1
クロロプレン
 41
1.138888888888889
  7
ＭＳ ゴシック
100
AcDbText
  0
TEXT
  5
1C3
330
1F
100
AcDbEntity
  8
2-5
  6
Continuous
 62
     7
370
     9
100
AcDbText
 10
-170.8499706766239
 20
197.3976205079533
 30
0.0
 40
6.858000000000001
  1
ホース口
 41
1.125
  7
ＭＳ ゴシック
100
AcDbText
  0
LINE
  5
1C4
330
1F
100
AcDbEntity
  8
2-5
  6
Continuous
 62
     7
370
     9
100
AcDbLine
 10
-82.9317256898758
 20
85.98261307577869
 30
0.0
 11
-105.7210595729613
 21
108.7719469588642
 31
0.0
  0
LINE
  5
1C5
330
1F
100
AcDbEntity
  8
2-5
  6
Continuous
 62
     7
370
     9
100
AcDbLine
 10
-72.20905824734268
 20
89.14908360797527
 30
0.0
 11
-124.2999038656191
 21
141.2399292262517
 31
0.0
  0
LINE
  5
1C6
330
1F
100
AcDbEntity
  8
2-5
  6
Continuous
 62
     7
370
     9
100
AcDbLine
 10
-44.92342379262631
 20
89.44345023772213
 30
0.0
 11
-105.0198429250631
 21
193.5335015280571
 31
0.0
  0
LINE
  5
1C7
330
1F
100
AcDbEntity
  8
2-5
  6
Continuous
 62
     7
370
     9
100
AcDbLine
 10
-99.65959235711261
 20
32.28166041732774
 30
0.0
 11
-111.9103891218641
 21
44.53245718207928
 31
0.0
  0
LINE
  5
1C8
330
1F
100
AcDbEntity
  8
2-5
  6
Continuous
 62
     7
370
     9
100
AcDbLine
 10
-74.66033762460464
 20
34.73672785345634
 30
0.0
 11
-113.3543016955994
 21
73.43069192445115
 31
0.0
  0
LINE
  5
1C9
330
1F
100
AcDbEntity
  8
2-5
  6
Continuous
 62
     7
370
     9
100
AcDbLine
 10
-107.495251906438
 20
19.80926342210568
 30
0.0
 11
-143.5487865486363
 21
-16.24427122009264
 31
0.0
  0
LINE
  5
1CA
330
1F
100
AcDbEntity
  8
2-5
  6
Continuous
 62
     7
370
     9
100
AcDbLine
 10
-107.495251906438
 20
19.80926342210568
 30
0.0
 11
-111.392366223468
 21
17.55926342210568
 31
0.0
  0
LINE
  5
1CB
330
1F
100
AcDbEntity
  8
2-5
  6
Continuous
 62
     7
370
     9
100
AcDbLine
 10
-107.495251906438
 20
19.80926342210568
 30
0.0
 11
-109.745251906438
 21
15.91214910507571
 31
0.0
  0
LINE
  5
1CC
330
1F
100
AcDbEntity
  8
2-5
  6
Continuous
 62
     7
370
     9
100
AcDbLine
 10
-99.65959235711261
 20
32.28166041732774
 30
0.0
 11
-103.5567066741426
 21
34.53166041732774
 31
0.0
  0
LINE
  5
1CD
330
1F
100
AcDbEntity
  8
2-5
  6
Continuous
 62
     7
370
     9
100
AcDbLine
 10
-99.65959235711261
 20
32.28166041732774
 30
0.0
 11
-101.9095923571126
 21
36.17877473435772
 31
0.0
  0
LINE
  5
1CE
330
1F
100
AcDbEntity
  8
2-5
  6
Continuous
 62
     7
370
     9
100
AcDbLine
 10
-74.66033762460464
 20
34.73672785345634
 30
0.0
 11
-78.55745194163461
 21
36.98672785345634
 31
0.0
  0
LINE
  5
1CF
330
1F
100
AcDbEntity
  8
2-5
  6
Continuous
 62
     7
370
     9
100
AcDbLine
 10
-74.66033762460464
 20
34.73672785345634
 30
0.0
 11
-76.91033762460464
 21
38.63384217048632
 31
0.0
  0
LINE
  5
1D0
330
1F
100
AcDbEntity
  8
2-5
  6
Continuous
 62
     7
370
     9
100
AcDbLine
 10
-82.9317256898758
 20
85.98261307577869
 30
0.0
 11
-86.82884000690579
 21
88.23261307577869
 31
0.0
  0
LINE
  5
1D1
330
1F
100
AcDbEntity
  8
2-5
  6
Continuous
 62
     7
370
     9
100
AcDbLine
 10
-82.9317256898758
 20
85.98261307577869
 30
0.0
 11
-85.18172568987582
 21
89.87972739280866
 31
0.0
  0
LINE
  5
1D2
330
1F
100
AcDbEntity
  8
2-5
  6
Continuous
 62
     7
370
     9
100
AcDbLine
 10
-72.20905824734268
 20
89.14908360797527
 30
0.0
 11
-76.10617256437266
 21
91.39908360797527
 31
0.0
  0
LINE
  5
1D3
330
1F
100
AcDbEntity
  8
2-5
  6
Continuous
 62
     7
370
     9
100
AcDbLine
 10
-72.20905824734268
 20
89.14908360797527
 30
0.0
 11
-74.45905824734268
 21
93.04619792500525
 31
0.0
  0
LINE
  5
1D4
330
1F
100
AcDbEntity
  8
2-5
  6
Continuous
 62
     7
370
     9
100
AcDbLine
 10
-44.92342379262631
 20
89.44345023772213
 30
0.0
 11
-48.10540430796576
 21
92.62543075306161
 31
0.0
  0
LINE
  5
1D5
330
1F
100
AcDbEntity
  8
2-5
  6
Continuous
 62
     7
370
     9
100
AcDbLine
 10
-44.92342379262631
 20
89.44345023772213
 30
0.0
 11
-46.08810949558764
 21
93.79011645602296
 31
0.0
  0
LINE
  5
1D6
330
1F
100
AcDbEntity
  8
2-5
  6
Continuous
 62
     7
370
     9
100
AcDbLine
 10
-62.75402658760548
 20
-41.23211936242427
 30
0.0
 11
-65.00402658760548
 21
-45.12923367945425
 31
0.0
  0
LINE
  5
1D7
330
1F
100
AcDbEntity
  8
2-5
  6
Continuous
 62
     7
370
     9
100
AcDbLine
 10
-62.75402658760548
 20
-41.23211936242427
 30
0.0
 11
-66.65114090463545
 21
-43.48211936242427
 31
0.0
  0
LINE
  5
1D8
330
1F
100
AcDbEntity
  8
2-5
  6
Continuous
 62
     7
370
     9
100
AcDbLine
 10
-62.75402658760548
 20
-41.23211936242427
 30
0.0
 11
-101.8113083365915
 21
-80.28940111141034
 31
0.0
  0
LINE
  5
1D9
330
1F
100
AcDbEntity
  8
2-5
  6
Continuous
 62
     7
370
     9
100
AcDbLine
 10
-89.92347992467175
 20
-20.44108338180937
 30
0.0
 11
-92.17347992467175
 21
-24.33819769883934
 31
0.0
  0
LINE
  5
1DA
330
1F
100
AcDbEntity
  8
2-5
  6
Continuous
 62
     7
370
     9
100
AcDbLine
 10
-89.92347992467175
 20
-20.44108338180937
 30
0.0
 11
-93.82059424170173
 21
-22.69108338180937
 31
0.0
  0
LINE
  5
1DB
330
1F
100
AcDbEntity
  8
2-5
  6
Continuous
 62
     7
370
     9
100
AcDbLine
 10
-89.92347992467175
 20
-20.44108338180937
 30
0.0
 11
-112.84453096174
 21
-43.36213441887764
 31
0.0
  0
ARC
  5
1DC
330
1F
100
AcDbEntity
  8
2-4
  6
Continuous
 62
     7
370
    80
100
AcDbCircle
 10
-57.86997567113151
 20
-36.3740671435371
 30
0.0
 40
1.0
100
AcDbArc
 50
116.2444443116156
 51
178.4888886849352
  0
LINE
  5
1DD
330
1F
100
AcDbEntity
  8
2-4
  6
Continuous
 62
     7
370
    80
100
AcDbLine
 10
-17.91997567113152
 20
-115.7490671435371
 30
0.0
 11
-17.91997567113152
 21
93.2009328564629
 31
0.0
  0
LINE
  5
1DE
330
1F
100
AcDbEntity
  8
2-4
  6
Continuous
 62
     7
370
    80
100
AcDbLine
 10
-47.71997567113154
 20
-127.9240671435371
 30
0.0
 11
11.88002432886841
 21
-127.9240671435371
 31
0.0
  0
LINE
  5
1DF
330
1F
100
AcDbEntity
  8
2-4
  6
Continuous
 62
     7
370
    80
100
AcDbLine
 10
-47.71997567113154
 20
-127.9240671435371
 30
0.0
 11
-44.74564108701016
 21
-127.5324885668769
 31
0.0
  0
LINE
  5
1E0
330
1F
100
AcDbEntity
  8
2-4
  6
Continuous
 62
     7
370
    80
100
AcDbLine
 10
-47.71997567113154
 20
-127.9240671435371
 30
0.0
 11
-44.74564108701016
 21
-128.3156457201973
 31
0.0
  0
LINE
  5
1E1
330
1F
100
AcDbEntity
  8
2-4
  6
Continuous
 62
     7
370
    80
100
AcDbLine
 10
11.88002432886841
 20
-127.9240671435371
 30
0.0
 11
8.905689701451696
 21
-128.3156453913363
 31
0.0
  0
LINE
  5
1E2
330
1F
100
AcDbEntity
  8
2-4
  6
Continuous
 62
     7
370
    80
100
AcDbLine
 10
11.88002432886841
 20
-127.9240671435371
 30
0.0
 11
8.905689701451696
 21
-127.5324888957379
 31
0.0
  0
LINE
  5
1E3
330
1F
100
AcDbEntity
  8
2-4
  6
Continuous
 62
     7
370
    80
100
AcDbLine
 10
-47.71997567113154
 20
-101.9240671435371
 30
0.0
 11
-47.71997567113154
 21
-130.9240671435371
 31
0.0
  0
LINE
  5
1E4
330
1F
100
AcDbEntity
  8
2-4
  6
Continuous
 62
     7
370
    80
100
AcDbLine
 10
11.88002432886841
 20
-101.9240671435371
 30
0.0
 11
11.88002432886841
 21
-130.9240671435371
 31
0.0
  0
LINE
  5
1E5
330
1F
100
AcDbEntity
  8
2-4
  6
Continuous
 62
     7
370
    80
100
AcDbLine
 10
15.08002432886848
 20
-6.924067143537066
 30
0.0
 11
91.79201187574664
 21
-6.924067143537066
 31
0.0
  0
LINE
  5
1E6
330
1F
100
AcDbEntity
  8
2-4
  6
Continuous
 62
     7
370
    80
100
AcDbLine
 10
87.79201187574661
 20
-6.924067143537066
 30
0.0
 11
87.79201187574661
 21
-56.92406714353706
 31
0.0
  0
LINE
  5
1E7
330
1F
100
AcDbEntity
  8
2-4
  6
Continuous
 62
     7
370
    80
100
AcDbLine
 10
87.79201187574661
 20
-6.924067143537066
 30
0.0
 11
88.18359045240679
 21
-9.898401727658488
 31
0.0
  0
LINE
  5
1E8
330
1F
100
AcDbEntity
  8
2-4
  6
Continuous
 62
     7
370
    80
100
AcDbLine
 10
87.79201187574661
 20
-6.924067143537066
 30
0.0
 11
87.40043329908652
 21
-9.898401727658488
 31
0.0
  0
LINE
  5
1E9
330
1F
100
AcDbEntity
  8
2-4
  6
Continuous
 62
     7
370
    80
100
AcDbLine
 10
87.79201187574661
 20
-56.92406714353706
 30
0.0
 11
87.40043362794746
 21
-53.94973251612026
 31
0.0
  0
LINE
  5
1EA
330
1F
100
AcDbEntity
  8
2-4
  6
Continuous
 62
     7
370
    80
100
AcDbLine
 10
87.79201187574661
 20
-56.92406714353706
 30
0.0
 11
88.18359012354576
 21
-53.94973251612026
 31
0.0
  0
LINE
  5
1EB
330
1F
100
AcDbEntity
  8
2-4
  6
Continuous
 62
     7
370
    80
100
AcDbLine
 10
76.08002432886842
 20
27.07593285646293
 30
0.0
 11
165.6235516293693
 21
27.07593285646293
 31
0.0
  0
LINE
  5
1EC
330
1F
100
AcDbEntity
  8
2-4
  6
Continuous
 62
     7
370
    80
100
AcDbLine
 10
161.6235516293694
 20
27.07593285646293
 30
0.0
 11
161.6235516293694
 21
-97.92406714353707
 31
0.0
  0
LINE
  5
1ED
330
1F
100
AcDbEntity
  8
2-4
  6
Continuous
 62
     7
370
    80
100
AcDbLine
 10
161.6235516293694
 20
27.07593285646293
 30
0.0
 11
162.0151302060295
 21
24.1015982723415
 31
0.0
  0
LINE
  5
1EE
330
1F
100
AcDbEntity
  8
2-4
  6
Continuous
 62
     7
370
    80
100
AcDbLine
 10
161.6235516293694
 20
27.07593285646293
 30
0.0
 11
161.2319730527092
 21
24.1015982723415
 31
0.0
  0
LINE
  5
1EF
330
1F
100
AcDbEntity
  8
2-4
  6
Continuous
 62
     7
370
    80
100
AcDbLine
 10
161.6235516293694
 20
-97.92406714353707
 30
0.0
 11
161.2319733815702
 21
-94.94973251612028
 31
0.0
  0
LINE
  5
1F0
330
1F
100
AcDbEntity
  8
2-4
  6
Continuous
 62
     7
370
    80
100
AcDbLine
 10
161.6235516293694
 20
-97.92406714353707
 30
0.0
 11
162.0151298771685
 21
-94.94973251612028
 31
0.0
  0
LINE
  5
1F1
330
1F
100
AcDbEntity
  8
2-4
  6
Continuous
 62
     7
370
    80
100
AcDbLine
 10
51.08002432886848
 20
89.0759328564629
 30
0.0
 11
165.6979839442359
 21
89.0759328564629
 31
0.0
  0
LINE
  5
1F2
330
1F
100
AcDbEntity
  8
2-4
  6
Continuous
 62
     7
370
    80
100
AcDbLine
 10
165.6235516293693
 20
27.07593285646293
 30
0.0
 11
165.6979839442359
 21
27.07593285646293
 31
0.0
  0
LINE
  5
1F3
330
1F
100
AcDbEntity
  8
2-4
  6
Continuous
 62
     7
370
    80
100
AcDbLine
 10
161.6979839442358
 20
89.0759328564629
 30
0.0
 11
161.6979839442358
 21
42.10686923593398
 31
0.0
  0
LINE
  5
1F4
330
1F
100
AcDbEntity
  8
2-4
  6
Continuous
 62
     7
370
    80
100
AcDbLine
 10
161.6979839442358
 20
89.0759328564629
 30
0.0
 11
162.089562520896
 21
86.10159827234148
 31
0.0
  0
LINE
  5
1F5
330
1F
100
AcDbEntity
  8
2-4
  6
Continuous
 62
     7
370
    80
100
AcDbLine
 10
161.6979839442358
 20
89.0759328564629
 30
0.0
 11
161.3064053675756
 21
86.10159827234148
 31
0.0
  0
LINE
  5
1F6
330
1F
100
AcDbEntity
  8
2-4
  6
Continuous
 62
     7
370
    80
100
AcDbLine
 10
161.6979839442358
 20
42.10686923593398
 30
0.0
 11
161.6979839442358
 21
27.07593285646293
 31
0.0
  0
LINE
  5
1F7
330
1F
100
AcDbEntity
  8
2-4
  6
Continuous
 62
     7
370
    80
100
AcDbLine
 10
161.6979839442358
 20
27.07593285646293
 30
0.0
 11
161.3064056964367
 21
30.05026748387971
 31
0.0
  0
LINE
  5
1F8
330
1F
100
AcDbEntity
  8
2-4
  6
Continuous
 62
     7
370
    80
100
AcDbLine
 10
161.6979839442358
 20
27.07593285646293
 30
0.0
 11
162.089562192035
 21
30.05026748387971
 31
0.0
  0
LINE
  5
1F9
330
1F
100
AcDbEntity
  8
2-4
  6
Continuous
 62
     7
370
    80
100
AcDbLine
 10
-147.9199756711315
 20
150.8759328564629
 30
0.0
 11
112.0800243288684
 21
150.8759328564629
 31
0.0
  0
LINE
  5
1FA
330
1F
100
AcDbEntity
  8
2-4
  6
Continuous
 62
     7
370
    80
100
AcDbLine
 10
-147.9199756711315
 20
150.8759328564629
 30
0.0
 11
-144.9456410870101
 21
151.267511433123
 31
0.0
  0
LINE
  5
1FB
330
1F
100
AcDbEntity
  8
2-4
  6
Continuous
 62
     7
370
    80
100
AcDbLine
 10
-147.9199756711315
 20
150.8759328564629
 30
0.0
 11
-144.9456410870101
 21
150.4843542798027
 31
0.0
  0
LINE
  5
1FC
330
1F
100
AcDbEntity
  8
2-4
  6
Continuous
 62
     7
370
    80
100
AcDbLine
 10
112.0800243288684
 20
150.8759328564629
 30
0.0
 11
109.1056897014516
 21
150.4843546086637
 31
0.0
  0
LINE
  5
1FD
330
1F
100
AcDbEntity
  8
2-4
  6
Continuous
 62
     7
370
    80
100
AcDbLine
 10
112.0800243288684
 20
150.8759328564629
 30
0.0
 11
109.1056897014516
 21
151.267511104262
 31
0.0
  0
LINE
  5
1FE
330
1F
100
AcDbEntity
  8
2-4
  6
Continuous
 62
     7
370
    80
100
AcDbLine
 10
-147.9199756711315
 20
26.07593285646294
 30
0.0
 11
-147.9199756711315
 21
153.8759328564629
 31
0.0
  0
LINE
  5
1FF
330
1F
100
AcDbEntity
  8
2-4
  6
Continuous
 62
     7
370
    80
100
AcDbLine
 10
112.0800243288684
 20
26.07593285646294
 30
0.0
 11
112.0800243288684
 21
153.8759328564629
 31
0.0
  0
LINE
  5
200
330
1F
100
AcDbEntity
  8
2-4
  6
Continuous
 62
     7
370
    80
100
AcDbLine
 10
-82.9199756711315
 20
135.8759328564629
 30
0.0
 11
47.08002432886845
 21
135.8759328564629
 31
0.0
  0
LINE
  5
201
330
1F
100
AcDbEntity
  8
2-4
  6
Continuous
 62
     7
370
    80
100
AcDbLine
 10
-82.9199756711315
 20
135.8759328564629
 30
0.0
 11
-79.94564108701012
 21
136.267511433123
 31
0.0
  0
LINE
  5
202
330
1F
100
AcDbEntity
  8
2-4
  6
Continuous
 62
     7
370
    80
100
AcDbLine
 10
-82.9199756711315
 20
135.8759328564629
 30
0.0
 11
-79.94564108701012
 21
135.4843542798027
 31
0.0
  0
LINE
  5
203
330
1F
100
AcDbEntity
  8
2-4
  6
Continuous
 62
     7
370
    80
100
AcDbLine
 10
47.08002432886845
 20
135.8759328564629
 30
0.0
 11
44.10568970145165
 21
135.4843546086637
 31
0.0
  0
LINE
  5
204
330
1F
100
AcDbEntity
  8
2-4
  6
Continuous
 62
     7
370
    80
100
AcDbLine
 10
47.08002432886845
 20
135.8759328564629
 30
0.0
 11
44.10568970145165
 21
136.267511104262
 31
0.0
  0
LINE
  5
205
330
1F
100
AcDbEntity
  8
2-4
  6
Continuous
 62
     7
370
    80
100
AcDbLine
 10
-82.9199756711315
 20
90.5759328564629
 30
0.0
 11
-82.9199756711315
 21
138.8759328564629
 31
0.0
  0
LINE
  5
206
330
1F
100
AcDbEntity
  8
2-4
  6
Continuous
 62
     7
370
    80
100
AcDbLine
 10
47.08002432886845
 20
90.5759328564629
 30
0.0
 11
47.08002432886845
 21
138.8759328564629
 31
0.0
  0
LINE
  5
207
330
1F
100
AcDbEntity
  8
2-4
  6
Continuous
 62
     7
370
    80
100
AcDbLine
 10
-76.66997567113155
 20
120.8759328564629
 30
0.0
 11
40.8300243288685
 21
120.8759328564629
 31
0.0
  0
LINE
  5
208
330
1F
100
AcDbEntity
  8
2-4
  6
Continuous
 62
     7
370
    80
100
AcDbLine
 10
-76.66997567113155
 20
120.8759328564629
 30
0.0
 11
-73.69564108701009
 21
121.267511433123
 31
0.0
  0
LINE
  5
209
330
1F
100
AcDbEntity
  8
2-4
  6
Continuous
 62
     7
370
    80
100
AcDbLine
 10
-76.66997567113155
 20
120.8759328564629
 30
0.0
 11
-73.69564108701009
 21
120.4843542798027
 31
0.0
  0
LINE
  5
20A
330
1F
100
AcDbEntity
  8
2-4
  6
Continuous
 62
     7
370
    80
100
AcDbLine
 10
40.8300243288685
 20
120.8759328564629
 30
0.0
 11
37.85568970145171
 21
120.4843546086637
 31
0.0
  0
LINE
  5
20B
330
1F
100
AcDbEntity
  8
2-4
  6
Continuous
 62
     7
370
    80
100
AcDbLine
 10
40.8300243288685
 20
120.8759328564629
 30
0.0
 11
37.85568970145171
 21
121.267511104262
 31
0.0
  0
LINE
  5
20C
330
1F
100
AcDbEntity
  8
2-4
  6
Continuous
 62
     7
370
    80
100
AcDbLine
 10
-76.66997567113155
 20
90.5759328564629
 30
0.0
 11
-76.66997567113155
 21
123.8759328564629
 31
0.0
  0
LINE
  5
20D
330
1F
100
AcDbEntity
  8
2-4
  6
Continuous
 62
     7
370
    80
100
AcDbLine
 10
40.8300243288685
 20
90.5759328564629
 30
0.0
 11
40.8300243288685
 21
123.8759328564629
 31
0.0
  0
LINE
  5
20E
330
1F
100
AcDbEntity
  8
2-4
  6
Continuous
 62
     7
370
    80
100
AcDbLine
 10
-84.34794696837604
 20
-12.91132156636378
 30
0.0
 11
-90.36997567113154
 21
-13.17544563227397
 31
0.0
  0
LINE
  5
20F
330
1F
100
AcDbEntity
  8
2-4
  6
Continuous
 62
     7
370
    80
100
AcDbLine
 10
-112.1906714781624
 20
-14.13249369398532
 30
0.0
 11
-90.36997567113154
 21
-13.17544563227397
 31
0.0
  0
LINE
  5
210
330
1F
100
AcDbEntity
  8
2-4
  6
Continuous
 62
     7
370
    80
100
AcDbLine
 10
-90.36997567113154
 20
-13.17544563227397
 30
0.0
 11
-93.32429561266154
 21
-13.69697576858274
 31
0.0
  0
LINE
  5
211
330
1F
100
AcDbEntity
  8
2-4
  6
Continuous
 62
     7
370
    80
100
AcDbLine
 10
-90.36997567113154
 20
-13.17544563227397
 30
0.0
 11
-93.35861159133562
 21
-12.91457145481304
 31
0.0
  0
LINE
  5
212
330
1F
100
AcDbEntity
  8
2-4
  6
Continuous
 62
     7
370
    80
100
AcDbLine
 10
-69.54641088702469
 20
-12.26213138735748
 30
0.0
 11
-84.34794696837604
 21
-12.91132156636378
 31
0.0
  0
LINE
  5
213
330
1F
100
AcDbEntity
  8
2-4
  6
Continuous
 62
     7
370
    80
100
AcDbLine
 10
-84.34794696837604
 20
-12.91132156636378
 30
0.0
 11
-81.39362702684603
 21
-12.38979143005499
 31
0.0
  0
LINE
  5
214
330
1F
100
AcDbEntity
  8
2-4
  6
Continuous
 62
     7
370
    80
100
AcDbLine
 10
-84.34794696837604
 20
-12.91132156636378
 30
0.0
 11
-81.35931104817188
 21
-13.17219574382472
 31
0.0
  0
LINE
  5
215
330
1F
100
AcDbEntity
  8
2-4
  6
Continuous
 62
     7
370
    80
100
AcDbLine
 10
-58.99110499666726
 20
-40.71770415656897
 30
0.0
 11
-62.48909392587863
 21
-40.62513651060522
 31
0.0
  0
LINE
  5
216
330
1F
100
AcDbEntity
  8
2-4
  6
Continuous
 62
     7
370
    80
100
AcDbLine
 10
-80.95621661679102
 20
-40.13643911624068
 30
0.0
 11
-62.48909392587863
 21
-40.62513651060522
 31
0.0
  0
LINE
  5
217
330
1F
100
AcDbEntity
  8
2-4
  6
Continuous
 62
     7
370
    80
100
AcDbLine
 10
-62.48909392587863
 20
-40.62513651060522
 30
0.0
 11
-65.47274639237729
 21
-40.93789513823472
 31
0.0
  0
LINE
  5
218
330
1F
100
AcDbEntity
  8
2-4
  6
Continuous
 62
     7
370
    80
100
AcDbLine
 10
-62.48909392587863
 20
-40.62513651060522
 30
0.0
 11
-65.45202889325112
 21
-40.15501271933147
 31
0.0
  0
LINE
  5
219
330
1F
100
AcDbEntity
  8
2-4
  6
Continuous
 62
     7
370
    80
100
AcDbLine
 10
-45.62812342425703
 20
-41.07133013202164
 30
0.0
 11
-58.99110499666726
 21
-40.71770415656897
 31
0.0
  0
LINE
  5
21A
330
1F
100
AcDbEntity
  8
2-4
  6
Continuous
 62
     7
370
    80
100
AcDbLine
 10
-58.99110499666726
 20
-40.71770415656897
 30
0.0
 11
-56.00745253016861
 21
-40.40494552893945
 31
0.0
  0
LINE
  5
21B
330
1F
100
AcDbEntity
  8
2-4
  6
Continuous
 62
     7
370
    80
100
AcDbLine
 10
-58.99110499666726
 20
-40.71770415656897
 30
0.0
 11
-56.02817002929477
 21
-41.18782794784271
 31
0.0
  0
LINE
  5
21C
330
1F
100
AcDbEntity
  8
2-4
  6
Continuous
 62
     7
370
    80
100
AcDbLine
 10
-42.91997567113155
 20
-28.92013250601733
 30
0.0
 11
7.080024328868422
 21
-28.92013250601733
 31
0.0
  0
LINE
  5
21D
330
1F
100
AcDbEntity
  8
2-4
  6
Continuous
 62
     7
370
    80
100
AcDbLine
 10
-42.91997567113155
 20
-28.92013250601733
 30
0.0
 11
-39.94564108701009
 21
-28.52855392935717
 31
0.0
  0
LINE
  5
21E
330
1F
100
AcDbEntity
  8
2-4
  6
Continuous
 62
     7
370
    80
100
AcDbLine
 10
-42.91997567113155
 20
-28.92013250601733
 30
0.0
 11
-39.94564108701009
 21
-29.31171108267749
 31
0.0
  0
LINE
  5
21F
330
1F
100
AcDbEntity
  8
2-4
  6
Continuous
 62
     7
370
    80
100
AcDbLine
 10
7.080024328868422
 20
-28.92013250601733
 30
0.0
 11
4.105689701451713
 21
-29.3117107538165
 31
0.0
  0
LINE
  5
220
330
1F
100
AcDbEntity
  8
2-4
  6
Continuous
 62
     7
370
    80
100
AcDbLine
 10
7.080024328868422
 20
-28.92013250601733
 30
0.0
 11
4.105689701451713
 21
-28.52855425821818
 31
0.0
  0
LINE
  5
221
330
1F
100
AcDbEntity
  8
2-4
  6
Continuous
 62
     7
370
    80
100
AcDbLine
 10
91.79201187574664
 20
-56.92406714353706
 30
0.0
 11
31.02189503338905
 21
-56.9240671435371
 31
0.0
  0
LINE
  5
222
330
1F
100
AcDbEntity
  8
2-4
  6
Continuous
 62
     7
370
    80
100
AcDbLine
 10
26.49843065195769
 20
-97.92406714353707
 30
0.0
 11
165.6235516293693
 21
-97.92406714353707
 31
0.0
  0
LINE
  5
223
330
1F
100
AcDbEntity
  8
2-4
  6
Continuous
 62
     7
370
    80
100
AcDbLine
 10
-90.24783100637943
 20
-150.5860983940339
 30
0.0
 11
54.53002432886849
 21
-150.5860983940339
 31
0.0
  0
LINE
  5
224
330
1F
100
AcDbEntity
  8
2-4
  6
Continuous
 62
     7
370
    80
100
AcDbLine
 10
-90.24783100637943
 20
-150.5860983940339
 30
0.0
 11
-87.27349642225805
 21
-150.1945198173736
 31
0.0
  0
LINE
  5
225
330
1F
100
AcDbEntity
  8
2-4
  6
Continuous
 62
     7
370
    80
100
AcDbLine
 10
-90.24783100637943
 20
-150.5860983940339
 30
0.0
 11
-87.27349642225805
 21
-150.977676970694
 31
0.0
  0
LINE
  5
226
330
1F
100
AcDbEntity
  8
2-4
  6
Continuous
 62
     7
370
    80
100
AcDbLine
 10
54.53002432886849
 20
-150.5860983940339
 30
0.0
 11
51.5556897014517
 21
-150.977676641833
 31
0.0
  0
LINE
  5
227
330
1F
100
AcDbEntity
  8
2-4
  6
Continuous
 62
     7
370
    80
100
AcDbLine
 10
54.53002432886849
 20
-150.5860983940339
 30
0.0
 11
51.5556897014517
 21
-150.1945201462347
 31
0.0
  0
LINE
  5
228
330
1F
100
AcDbEntity
  8
2-4
  6
Continuous
 62
     7
370
    80
100
AcDbLine
 10
-90.24783100637943
 20
-35.34690170652766
 30
0.0
 11
-90.24783100637943
 21
-151.6449541889008
 31
0.0
  0
LINE
  5
229
330
1F
100
AcDbEntity
  8
2-4
  6
Continuous
 62
     7
370
    80
100
AcDbLine
 10
54.53002432886849
 20
-38.36808048214409
 30
0.0
 11
54.53002432886849
 21
-151.6449541889008
 31
0.0
  0
LINE
  5
22A
330
1F
100
AcDbEntity
  8
2-4
  6
Continuous
 62
     7
370
    80
100
AcDbLine
 10
24.942038202462
 20
86.09401453094374
 30
0.0
 11
24.942038202462
 21
89.09401453094374
 31
0.0
  0
LINE
  5
22B
330
1F
100
AcDbEntity
  8
2-4
  6
Continuous
 62
     7
370
    80
100
AcDbLine
 10
24.942038202462
 20
89.09401453094374
 30
0.0
 11
24.55045995466286
 21
92.06834915836053
 31
0.0
  0
LINE
  5
22C
330
1F
100
AcDbEntity
  8
2-4
  6
Continuous
 62
     7
370
    80
100
AcDbLine
 10
24.942038202462
 20
89.09401453094374
 30
0.0
 11
25.33361645026115
 21
92.06834915836053
 31
0.0
  0
LINE
  5
22D
330
1F
100
AcDbEntity
  8
2-4
  6
Continuous
 62
     7
370
    80
100
AcDbLine
 10
24.942038202462
 20
71.09401453094375
 30
0.0
 11
24.942038202462
 21
86.09401453094374
 31
0.0
  0
LINE
  5
22E
330
1F
100
AcDbEntity
  8
2-4
  6
Continuous
 62
     7
370
    80
100
AcDbLine
 10
24.942038202462
 20
86.09401453094374
 30
0.0
 11
25.33361645026115
 21
83.11967990352694
 31
0.0
  0
LINE
  5
22F
330
1F
100
AcDbEntity
  8
2-4
  6
Continuous
 62
     7
370
    80
100
AcDbLine
 10
24.942038202462
 20
86.09401453094374
 30
0.0
 11
24.55045995466286
 21
83.11967990352694
 31
0.0
  0
LINE
  5
230
330
1F
100
AcDbEntity
  8
2-4
  6
Continuous
 62
     7
370
    80
100
AcDbLine
 10
24.942038202462
 20
107.8764533768527
 30
0.0
 11
24.942038202462
 21
89.09401453094374
 31
0.0
  0
TEXT
  5
231
330
1F
100
AcDbEntity
  8
2-4
  6
Continuous
 62
     7
370
     9
100
AcDbText
 10
-25.23039704562641
 20
122.437204409917
 30
0.0
 40
6.858000000000001
  1
117
 41
1.111111111111111
  7
ＭＳ ゴシック
100
AcDbText
  0
TEXT
  5
232
330
1F
100
AcDbEntity
  8
2-4
  6
Continuous
 62
     7
370
     9
100
AcDbText
 10
-25.23039704562641
 20
137.6754283579976
 30
0.0
 40
6.858000000000001
  1
130
 41
1.111111111111111
  7
ＭＳ ゴシック
100
AcDbText
  0
TEXT
  5
233
330
1F
100
AcDbEntity
  8
2-4
  6
Continuous
 62
     7
370
     9
100
AcDbText
 10
-24.55812245968168
 20
152.9136523060781
 30
0.0
 40
6.858000000000001
  1
260
 41
1.111111111111111
  7
ＭＳ ゴシック
100
AcDbText
  0
TEXT
  5
234
330
1F
100
AcDbEntity
  8
2-4
  6
Continuous
 62
     7
370
     9
100
AcDbText
 10
158.3761140891747
 20
47.21799995599653
 30
0.0
 40
6.858000000000001
  1
27～80
 50
90.0
 41
1.138888888888888
  7
ＭＳ ゴシック
100
AcDbText
  0
TEXT
  5
235
330
1F
100
AcDbEntity
  8
2-4
  6
Continuous
 62
     7
370
     9
100
AcDbText
 10
159.1746682661818
 20
-44.59237232517224
 30
0.0
 40
6.858000000000001
  1
125
 50
90.0
 41
1.111111111111111
  7
ＭＳ ゴシック
100
AcDbText
  0
TEXT
  5
236
330
1F
100
AcDbEntity
  8
2-4
  6
Continuous
 62
     7
370
     9
100
AcDbText
 10
85.43322660442225
 20
-37.8886049013759
 30
0.0
 40
6.858000000000001
  1
50
 50
90.0
 41
1.083333333333333
  7
ＭＳ ゴシック
100
AcDbText
  0
TEXT
  5
237
330
1F
100
AcDbEntity
  8
2-4
  6
Continuous
 62
     7
370
     9
100
AcDbText
 10
-27.6808050641025
 20
-26.98293922966869
 30
0.0
 40
6.858000000000001
  1
50
 41
1.083333333333333
  7
ＭＳ ゴシック
100
AcDbText
  0
TEXT
  5
238
330
1F
100
AcDbEntity
  8
2-4
  6
Continuous
 62
     7
370
     9
100
AcDbText
 10
-23.90993588821707
 20
-148.488723785977
 30
0.0
 40
6.858000000000001
  1
136
 41
1.111111111111111
  7
ＭＳ ゴシック
100
AcDbText
  0
TEXT
  5
239
330
1F
100
AcDbEntity
  8
2-4
  6
Continuous
 62
     7
370
     9
100
AcDbText
 10
-80.28350203150049
 20
-38.12060159783299
 30
0.0
 40
6.858000000000001
  1
3.5
 50
358.484129596
 41
1.111111111111108
  7
ＭＳ ゴシック
100
AcDbText
  0
TEXT
  5
23A
330
1F
100
AcDbEntity
  8
2-4
  6
Continuous
 62
     7
370
     9
100
AcDbText
 10
-109.3606241957895
 20
-12.77762765580915
 30
0.0
 40
6.858000000000001
  1
5.5
 50
2.511363267
 41
1.11111111111111
  7
ＭＳ ゴシック
100
AcDbText
  0
TEXT
  5
23B
330
1F
100
AcDbEntity
  8
2-4
  6
Continuous
 62
     7
370
     9
100
AcDbText
 10
-27.03411332518082
 20
-126.5020372121041
 30
0.0
 40
6.858000000000001
  1
Rc2
 41
1.111111111111111
  7
ＭＳ ゴシック
100
AcDbText
  0
TEXT
  5
23C
330
1F
100
AcDbEntity
  8
2-4
  6
Continuous
 62
     7
370
     9
100
AcDbText
 10
-37.70499193278199
 20
-136.5689038230486
 30
0.0
 40
6.858000000000001
  1
(59.614)
 41
1.145833333333333
  7
ＭＳ ゴシック
100
AcDbText
  0
TEXT
  5
23D
330
1F
100
AcDbEntity
  8
2-4
  6
Continuous
 62
     7
370
     9
100
AcDbText
 10
23.26368147469065
 20
98.36175369700123
 30
0.0
 40
6.858000000000001
  1
3
 50
90.0
 41
0.9999999999999998
  7
ＭＳ ゴシック
100
AcDbText
  0
LINE
  5
23E
330
1F
100
AcDbEntity
  8
2-5
  6
Continuous
 62
     7
370
    80
100
AcDbLine
 10
106.6301513926702
 20
43.42728613520142
 30
0.0
 11
212.6593088561481
 21
43.42728613520142
 31
0.0
  0
LINE
  5
23F
330
1F
100
AcDbEntity
  8
2-5
  6
Continuous
 62
     7
370
    80
100
AcDbLine
 10
70.4256083891507
 20
15.00397543566662
 30
0.0
 11
106.6301513926702
 21
43.42728613520142
 31
0.0
  0
TEXT
  5
240
330
1F
100
AcDbEntity
  8
2-5
  6
Continuous
 62
     7
370
     9
100
AcDbText
 10
169.5051413496974
 20
46.2460846695141
 30
0.0
 40
6.858000000000001
  1
水抜き孔
 41
1.125
  7
ＭＳ ゴシック
100
AcDbText
  0
LINE
  5
241
330
1F
100
AcDbEntity
  8
2-5
  6
Continuous
 62
     7
370
    80
100
AcDbLine
 10
70.4256083891507
 20
15.00397543566662
 30
0.0
 11
73.00691177093707
 21
16.53265880745371
 31
0.0
  0
LINE
  5
242
330
1F
100
AcDbEntity
  8
2-5
  6
Continuous
 62
     7
370
    80
100
AcDbLine
 10
70.4256083891507
 20
15.00397543566662
 30
0.0
 11
72.52330362055547
 21
17.14866066108827
 31
0.0
  0
TEXT
  5
243
330
1F
100
AcDbEntity
  8
2-5
  6
Continuous
 62
     7
370
     9
100
AcDbText
 10
-269.0977641665467
 20
143.294371443538
 30
0.0
 40
6.858000000000001
  1
ストレーナー
 41
1.138888888888889
  7
ＭＳ ゴシック
100
AcDbText
  0
TEXT
  5
244
330
1F
100
AcDbEntity
  8
2-5
  6
Continuous
 62
     7
370
     9
100
AcDbText
 10
-188.0403839247061
 20
143.294371443538
 30
0.0
 40
6.858000000000001
  1
CAC202
 41
1.138888888888889
  7
ＭＳ ゴシック
100
AcDbText
  0
TEXT
  5
245
330
1F
100
AcDbEntity
  8
F-4ﾚｲﾔ
  6
Continuous
 62
     2
370
     9
100
AcDbText
 10
-19.23430740206334
 20
-328.8304159967116
 30
0.0
 40
9.144
  1
防水層用　椀型洗濯機トラップ
 41
1.116071428571429
  7
ＭＳ ゴシック
100
AcDbText
  0
TEXT
  5
246
330
1F
100
AcDbEntity
  8
2-5
  6
Continuous
 62
     7
370
     9
100
AcDbText
 10
-269.3622199716438
 20
131.8686785914983
 30
0.0
 40
6.858000000000001
  1
ニッケルめっき
 41
1.142857142857143
  7
ＭＳ ゴシック
100
AcDbText
  0
TEXT
  5
247
330
1F
100
AcDbEntity
  8
2-5
  6
Continuous
 62
     7
370
     9
100
AcDbText
 10
-268.1408099353292
 20
98.73403061998599
 30
0.0
 40
6.858000000000001
  1
ニッケルめっき
 41
1.142857142857143
  7
ＭＳ ゴシック
100
AcDbText
  0
ENDSEC
  0
SECTION
  2
OBJECTS
  0
DICTIONARY
  5
C
330
0
100
AcDbDictionary
281
     1
  3
ACAD_GROUP
350
D
  3
ACAD_LAYOUT
350
1A
  3
ACAD_MLEADERSTYLE
350
249
  3
ACAD_MLINESTYLE
350
17
  3
ACAD_PLOTSETTINGS
350
19
  3
ACAD_PLOTSTYLENAME
350
E
  3
ACAD_TABLESTYLE
350
248
  3
ACAD_VISUALSTYLE
350
2A
  0
DICTIONARY
  5
D
102
{ACAD_REACTORS
330
C
102
}
330
C
100
AcDbDictionary
281
     1
  0
DICTIONARY
  5
1A
102
{ACAD_REACTORS
330
C
102
}
330
C
100
AcDbDictionary
281
     1
  3
Layout1
350
1E
  3
Layout2
350
26
  3
Model
350
22
  0
DICTIONARY
  5
249
102
{ACAD_REACTORS
330
C
102
}
330
C
100
AcDbDictionary
281
     1
  0
DICTIONARY
  5
17
102
{ACAD_REACTORS
330
C
102
}
330
C
100
AcDbDictionary
281
     1
  3
Standard
350
18
  0
DICTIONARY
  5
19
102
{ACAD_REACTORS
330
C
102
}
330
C
100
AcDbDictionary
281
     1
  0
ACDBDICTIONARYWDFLT
  5
E
102
{ACAD_REACTORS
330
C
102
}
330
C
100
AcDbDictionary
281
     1
  3
Normal
350
F
100
AcDbDictionaryWithDefault
340
F
  0
DICTIONARY
  5
248
102
{ACAD_REACTORS
330
C
102
}
330
C
100
AcDbDictionary
281
     1
  0
DICTIONARY
  5
2A
102
{ACAD_REACTORS
330
C
102
}
330
C
100
AcDbDictionary
281
     1
  3
2dWireframe
350
2F
  3
3D Hidden
350
31
  3
3dWireframe
350
30
  3
Basic
350
32
  3
Brighten
350
36
  3
ColorChange
350
3A
  3
Conceptual
350
34
  3
Dim
350
35
  3
Facepattern
350
39
  3
Flat
350
2B
  3
FlatWithEdges
350
2C
  3
Gouraud
350
2D
  3
GouraudWithEdges
350
2E
  3
Linepattern
350
38
  3
Realistic
350
33
  3
Thicken
350
37
  0
LAYOUT
  5
1E
102
{ACAD_REACTORS
330
1A
102
}
330
1A
100
AcDbPlotSettings
  1

  2
none_device
  4

  6

 40
0.0
 41
0.0
 42
0.0
 43
0.0
 44
0.0
 45
0.0
 46
0.0
 47
0.0
 48
0.0
 49
0.0
140
0.0
141
0.0
142
1.0
143
1.0
 70
   688
 72
     0
 73
     0
 74
     5
  7

 75
    16
 76
     0
 77
     5
 78
   300
147
1.0
148
0.0
149
0.0
100
AcDbLayout
  1
Layout1
 70
     1
 71
     1
 10
0.0
 20
0.0
 11
420.0
 21
297.0
 12
0.0
 22
0.0
 32
0.0
 14
1.000000000000000E+20
 24
1.000000000000000E+20
 34
1.000000000000000E+20
 15
-1.000000000000000E+20
 25
-1.000000000000000E+20
 35
-1.000000000000000E+20
146
0.0
 13
0.0
 23
0.0
 33
0.0
 16
1.0
 26
0.0
 36
0.0
 17
0.0
 27
1.0
 37
0.0
 76
     0
330
1B
  0
LAYOUT
  5
26
102
{ACAD_REACTORS
330
1A
102
}
330
1A
100
AcDbPlotSettings
  1

  2
none_device
  4

  6

 40
0.0
 41
0.0
 42
0.0
 43
0.0
 44
0.0
 45
0.0
 46
0.0
 47
0.0
 48
0.0
 49
0.0
140
0.0
141
0.0
142
1.0
143
1.0
 70
   688
 72
     0
 73
     0
 74
     5
  7

 75
    16
 76
     0
 77
     5
 78
   300
147
1.0
148
0.0
149
0.0
100
AcDbLayout
  1
Layout2
 70
     1
 71
     2
 10
0.0
 20
0.0
 11
0.0
 21
0.0
 12
0.0
 22
0.0
 32
0.0
 14
0.0
 24
0.0
 34
0.0
 15
0.0
 25
0.0
 35
0.0
146
0.0
 13
0.0
 23
0.0
 33
0.0
 16
1.0
 26
0.0
 36
0.0
 17
0.0
 27
1.0
 37
0.0
 76
     0
330
23
  0
LAYOUT
  5
22
102
{ACAD_REACTORS
330
1A
102
}
330
1A
100
AcDbPlotSettings
  1

  2
none_device
  4

  6

 40
0.0
 41
0.0
 42
0.0
 43
0.0
 44
0.0
 45
0.0
 46
0.0
 47
0.0
 48
0.0
 49
0.0
140
0.0
141
0.0
142
1.0
143
1.0
 70
  1712
 72
     0
 73
     0
 74
     0
  7

 75
     0
 76
     0
 77
     5
 78
   300
147
1.0
148
0.0
149
0.0
100
AcDbLayout
  1
Model
 70
     1
 71
     0
 10
-630.0
 20
-445.5
 11
630.0
 21
445.5
 12
0.0
 22
0.0
 32
0.0
 14
-630.0
 24
-445.5
 34
0.0
 15
630.0
 25
445.5
 35
0.0
146
0.0
 13
0.0
 23
0.0
 33
0.0
 16
1.0
 26
0.0
 36
0.0
 17
0.0
 27
1.0
 37
0.0
 76
     0
330
1F
331
29
  0
MLINESTYLE
  5
18
102
{ACAD_REACTORS
330
17
102
}
330
17
100
AcDbMlineStyle
  2
Standard
 70
     0
  3

 62
   256
 51
90.0
 52
90.0
 71
     2
 49
0.5
 62
   256
  6
BYLAYER
 49
-0.5
 62
   256
  6
BYLAYER
  0
ACDBPLACEHOLDER
  5
F
102
{ACAD_REACTORS
330
E
102
}
330
E
  0
VISUALSTYLE
  5
2F
102
{ACAD_REACTORS
330
2A
102
}
330
2A
100
AcDbVisualStyle
  2
2dWireframe
 70
     4
 71
     0
 72
     2
 73
     0
 90
        0
 40
-0.6
 41
-30.0
 62
     5
 63
     7
421
 16777215
 74
     1
 91
        4
 64
     7
 65
   257
 75
     1
175
     1
 42
1.0
 92
        0
 66
   257
 43
1.0
 76
     1
 77
     6
 78
     2
 67
     7
 79
     5
170
     0
171
     0
290
     0
174
     0
 93
        1
 44
0.0
173
     0
291
     0
 45
0.0
1001
ACAD
1000
AcDbSavedByObjectVersion
1070
     0
  0
VISUALSTYLE
  5
31
102
{ACAD_REACTORS
330
2A
102
}
330
2A
100
AcDbVisualStyle
  2
3D Hidden
 70
     6
 71
     1
 72
     2
 73
     2
 90
        0
 40
-0.6
 41
-30.0
 62
     5
 63
     7
421
 16777215
 74
     2
 91
        2
 64
     7
 65
   257
 75
     2
175
     1
 42
40.0
 92
        0
 66
   257
 43
1.0
 76
     1
 77
     6
 78
     2
 67
     7
 79
     3
170
     0
171
     0
290
     0
174
     0
 93
        1
 44
0.0
173
     0
291
     0
 45
0.0
1001
ACAD
1000
AcDbSavedByObjectVersion
1070
     0
  0
VISUALSTYLE
  5
30
102
{ACAD_REACTORS
330
2A
102
}
330
2A
100
AcDbVisualStyle
  2
3dWireframe
 70
     5
 71
     0
 72
     2
 73
     0
 90
        0
 40
-0.6
 41
-30.0
 62
     5
 63
     7
421
 16777215
 74
     1
 91
        4
 64
     7
 65
   257
 75
     1
175
     1
 42
1.0
 92
        0
 66
   257
 43
1.0
 76
     1
 77
     6
 78
     2
 67
     7
 79
     5
170
     0
171
     0
290
     0
174
     0
 93
        1
 44
0.0
173
     0
291
     0
 45
0.0
1001
ACAD
1000
AcDbSavedByObjectVersion
1070
     0
  0
VISUALSTYLE
  5
32
102
{ACAD_REACTORS
330
2A
102
}
330
2A
100
AcDbVisualStyle
  2
Basic
 70
     7
 71
     1
 72
     0
 73
     1
 90
        0
 40
-0.6
 41
-30.0
 62
     5
 63
     7
421
 16777215
 74
     0
 91
        4
 64
     7
 65
   257
 75
     1
175
     1
 42
1.0
 92
        8
 66
     7
 43
1.0
 76
     1
 77
     6
 78
     2
 67
     7
 79
     5
170
     0
171
     0
290
     0
174
     0
 93
        1
 44
0.0
173
     0
291
     1
 45
0.0
1001
ACAD
1000
AcDbSavedByObjectVersion
1070
     0
  0
VISUALSTYLE
  5
36
102
{ACAD_REACTORS
330
2A
102
}
330
2A
100
AcDbVisualStyle
  2
Brighten
 70
    12
 71
     2
 72
     2
 73
     0
 90
        0
 40
-0.6
 41
-30.0
 62
     5
 63
     7
421
 16777215
 74
     1
 91
        4
 64
     7
 65
   257
 75
     1
175
     1
 42
1.0
 92
        8
 66
     7
 43
1.0
 76
     1
 77
     6
 78
     2
 67
     7
 79
     5
170
     0
171
     0
290
     0
174
     0
 93
        1
 44
50.0
173
     0
291
     1
 45
0.0
1001
ACAD
1000
AcDbSavedByObjectVersion
1070
     0
  0
VISUALSTYLE
  5
3A
102
{ACAD_REACTORS
330
2A
102
}
330
2A
100
AcDbVisualStyle
  2
ColorChange
 70
    16
 71
     2
 72
     2
 73
     3
 90
        0
 40
-0.6
 41
-30.0
 62
     5
 63
     8
421
  8421504
 74
     1
 91
        4
 64
     7
 65
   257
 75
     1
175
     1
 42
1.0
 92
        8
 66
     8
424
  8421504
 43
1.0
 76
     1
 77
     6
 78
     2
 67
     7
 79
     5
170
     0
171
     0
290
     0
174
     0
 93
        1
 44
0.0
173
     0
291
     1
 45
0.0
1001
ACAD
1000
AcDbSavedByObjectVersion
1070
     0
  0
VISUALSTYLE
  5
34
102
{ACAD_REACTORS
330
2A
102
}
330
2A
100
AcDbVisualStyle
  2
Conceptual
 70
     9
 71
     3
 72
     2
 73
     0
 90
        0
 40
-0.6
 41
-30.0
 62
     5
 63
     7
421
 16777215
 74
     2
 91
        2
 64
     7
 65
   257
 75
     1
175
     1
 42
40.0
 92
        8
 66
     7
 43
1.0
 76
     1
 77
     6
 78
     2
 67
     7
 79
     3
170
     0
171
     0
290
     0
174
     0
 93
        1
 44
0.0
173
     0
291
     0
 45
0.0
1001
ACAD
1000
AcDbSavedByObjectVersion
1070
     0
  0
VISUALSTYLE
  5
35
102
{ACAD_REACTORS
330
2A
102
}
330
2A
100
AcDbVisualStyle
  2
Dim
 70
    11
 71
     2
 72
     2
 73
     0
 90
        0
 40
-0.6
 41
-30.0
 62
     5
 63
     7
421
 16777215
 74
     1
 91
        4
 64
     7
 65
   257
 75
     1
175
     1
 42
1.0
 92
        8
 66
     7
 43
1.0
 76
     1
 77
     6
 78
     2
 67
     7
 79
     5
170
     0
171
     0
290
     0
174
     0
 93
        1
 44
-50.0
173
     0
291
     1
 45
0.0
1001
ACAD
1000
AcDbSavedByObjectVersion
1070
     0
  0
VISUALSTYLE
  5
39
102
{ACAD_REACTORS
330
2A
102
}
330
2A
100
AcDbVisualStyle
  2
Facepattern
 70
    15
 71
     2
 72
     2
 73
     0
 90
        0
 40
-0.6
 41
-30.0
 62
     5
 63
     7
421
 16777215
 74
     1
 91
        4
 64
     7
 65
   257
 75
     1
175
     1
 42
1.0
 92
        8
 66
     7
 43
1.0
 76
     1
 77
     6
 78
     2
 67
     7
 79
     5
170
     0
171
     0
290
     0
174
     0
 93
        1
 44
0.0
173
     0
291
     1
 45
0.0
1001
ACAD
1000
AcDbSavedByObjectVersion
1070
     0
  0
VISUALSTYLE
  5
2B
102
{ACAD_REACTORS
330
2A
102
}
330
2A
100
AcDbVisualStyle
  2
Flat
 70
     0
 71
     2
 72
     1
 73
     1
 90
        2
 40
-0.6
 41
30.0
 62
     5
 63
     7
421
 16777215
 74
     0
 91
        4
 64
     7
 65
   257
 75
     1
175
     1
 42
1.0
 92
        8
 66
     7
 43
1.0
 76
     1
 77
     6
 78
     2
 67
     7
 79
     5
170
     0
171
     0
290
     0
174
     0
 93
       13
 44
0.0
173
     0
291
     1
 45
0.0
1001
ACAD
1000
AcDbSavedByObjectVersion
1070
     0
  0
VISUALSTYLE
  5
2C
102
{ACAD_REACTORS
330
2A
102
}
330
2A
100
AcDbVisualStyle
  2
FlatWithEdges
 70
     1
 71
     2
 72
     1
 73
     1
 90
        2
 40
-0.6
 41
30.0
 62
     5
 63
     7
421
 16777215
 74
     1
 91
        4
 64
     7
 65
   257
 75
     1
175
     1
 42
1.0
 92
        0
 66
   257
 43
1.0
 76
     1
 77
     6
 78
     2
 67
     7
 79
     5
170
     0
171
     0
290
     0
174
     0
 93
       13
 44
0.0
173
     0
291
     1
 45
0.0
1001
ACAD
1000
AcDbSavedByObjectVersion
1070
     0
  0
VISUALSTYLE
  5
2D
102
{ACAD_REACTORS
330
2A
102
}
330
2A
100
AcDbVisualStyle
  2
Gouraud
 70
     2
 71
     2
 72
     2
 73
     1
 90
        2
 40
-0.6
 41
30.0
 62
     5
 63
     7
421
 16777215
 74
     0
 91
        4
 64
     7
 65
   257
 75
     1
175
     1
 42
1.0
 92
        0
 66
     7
 43
1.0
 76
     1
 77
     6
 78
     2
 67
     7
 79
     5
170
     0
171
     0
290
     0
174
     0
 93
       13
 44
0.0
173
     0
291
     1
 45
0.0
1001
ACAD
1000
AcDbSavedByObjectVersion
1070
     0
  0
VISUALSTYLE
  5
2E
102
{ACAD_REACTORS
330
2A
102
}
330
2A
100
AcDbVisualStyle
  2
GouraudWithEdges
 70
     3
 71
     2
 72
     2
 73
     1
 90
        2
 40
-0.6
 41
30.0
 62
     5
 63
     7
421
 16777215
 74
     1
 91
        4
 64
     7
 65
   257
 75
     1
175
     1
 42
1.0
 92
        0
 66
   257
 43
1.0
 76
     1
 77
     6
 78
     2
 67
     7
 79
     5
170
     0
171
     0
290
     0
174
     0
 93
       13
 44
0.0
173
     0
291
     1
 45
0.0
1001
ACAD
1000
AcDbSavedByObjectVersion
1070
     0
  0
VISUALSTYLE
  5
38
102
{ACAD_REACTORS
330
2A
102
}
330
2A
100
AcDbVisualStyle
  2
Linepattern
 70
    14
 71
     2
 72
     2
 73
     0
 90
        0
 40
-0.6
 41
-30.0
 62
     5
 63
     7
421
 16777215
 74
     1
 91
        4
 64
     7
 65
   257
 75
     7
175
     7
 42
1.0
 92
        8
 66
     7
 43
1.0
 76
     1
 77
     6
 78
     2
 67
     7
 79
     5
170
     0
171
     0
290
     0
174
     0
 93
        1
 44
0.0
173
     0
291
     1
 45
0.0
1001
ACAD
1000
AcDbSavedByObjectVersion
1070
     0
  0
VISUALSTYLE
  5
33
102
{ACAD_REACTORS
330
2A
102
}
330
2A
100
AcDbVisualStyle
  2
Realistic
 70
     8
 71
     2
 72
     2
 73
     0
 90
        0
 40
-0.6
 41
-30.0
 62
     5
 63
     7
421
 16777215
 74
     1
 91
        0
 64
     7
 65
   257
 75
     1
175
     1
 42
1.0
 92
        8
 66
     8
424
  7895160
 43
1.0
 76
     1
 77
     6
 78
     2
 67
     7
 79
     5
170
     0
171
     0
290
     0
174
     0
 93
       13
 44
0.0
173
     0
291
     0
 45
0.0
1001
ACAD
1000
AcDbSavedByObjectVersion
1070
     0
  0
VISUALSTYLE
  5
37
102
{ACAD_REACTORS
330
2A
102
}
330
2A
100
AcDbVisualStyle
  2
Thicken
 70
    13
 71
     2
 72
     2
 73
     0
 90
        0
 40
-0.6
 41
-30.0
 62
     5
 63
     7
421
 16777215
 74
     1
 91
        4
 64
     7
 65
   257
 75
     1
175
     1
 42
1.0
 92
       12
 66
     7
 43
1.0
 76
     1
 77
     6
 78
     2
 67
     7
 79
     5
170
     0
171
     0
290
     0
174
     0
 93
        1
 44
0.0
173
     0
291
     1
 45
0.0
1001
ACAD
1000
AcDbSavedByObjectVersion
1070
     0
  0
ENDSEC
  0
EOF
