  0
SECTION
  2
HEADER
  9
$ACADVER
  1
AC1015
  9
$ACADMAINTVER
 70
     6
  9
$DWGCODEPAGE
  3
ANSI_932
  9
$INSBASE
 10
0.0
 20
0.0
 30
0.0
  9
$EXTMIN
 10
-2100.0
 20
-1485.0
 30
0.0
  9
$EXTMAX
 10
2100.0
 20
1485.0
 30
0.0
  9
$LIMMIN
 10
-2100.0
 20
-1485.0
  9
$LIMMAX
 10
2100.0
 20
1485.0
  9
$ORTHOMODE
 70
     0
  9
$REGENMODE
 70
     1
  9
$FILLMODE
 70
     1
  9
$QTEXTMODE
 70
     0
  9
$MIRRTEXT
 70
     1
  9
$LTSCALE
 40
10.0
  9
$ATTMODE
 70
     1
  9
$TEXTSIZE
 40
2.5
  9
$TRACEWID
 40
1.0
  9
$TEXTSTYLE
  7
Standard
  9
$CLAYER
  8
0
  9
$CELTYPE
  6
ByLayer
  9
$CECOLOR
 62
   256
  9
$CELTSCALE
 40
1.0
  9
$DISPSILH
 70
     0
  9
$DIMSCALE
 40
1.0
  9
$DIMASZ
 40
2.5
  9
$DIMEXO
 40
0.625
  9
$DIMDLI
 40
3.75
  9
$DIMRND
 40
0.0
  9
$DIMDLE
 40
0.0
  9
$DIMEXE
 40
1.25
  9
$DIMTP
 40
0.0
  9
$DIMTM
 40
0.0
  9
$DIMTXT
 40
2.5
  9
$DIMCEN
 40
2.5
  9
$DIMTSZ
 40
0.0
  9
$DIMTOL
 70
     0
  9
$DIMLIM
 70
     0
  9
$DIMTIH
 70
     0
  9
$DIMTOH
 70
     0
  9
$DIMSE1
 70
     0
  9
$DIMSE2
 70
     0
  9
$DIMTAD
 70
     1
  9
$DIMZIN
 70
     8
  9
$DIMBLK
  1

  9
$DIMASO
 70
     1
  9
$DIMSHO
 70
     1
  9
$DIMPOST
  1

  9
$DIMAPOST
  1

  9
$DIMALT
 70
     0
  9
$DIMALTD
 70
     3
  9
$DIMALTF
 40
0.03937007874016
  9
$DIMLFAC
 40
1.0
  9
$DIMTOFL
 70
     1
  9
$DIMTVP
 40
0.0
  9
$DIMTIX
 70
     0
  9
$DIMSOXD
 70
     0
  9
$DIMSAH
 70
     0
  9
$DIMBLK1
  1

  9
$DIMBLK2
  1

  9
$DIMSTYLE
  2
ISO-25
  9
$DIMCLRD
 70
     0
  9
$DIMCLRE
 70
     0
  9
$DIMCLRT
 70
     0
  9
$DIMTFAC
 40
1.0
  9
$DIMGAP
 40
0.625
  9
$DIMJUST
 70
     0
  9
$DIMSD1
 70
     0
  9
$DIMSD2
 70
     0
  9
$DIMTOLJ
 70
     0
  9
$DIMTZIN
 70
     8
  9
$DIMALTZ
 70
     0
  9
$DIMALTTZ
 70
     0
  9
$DIMUPT
 70
     0
  9
$DIMDEC
 70
     2
  9
$DIMTDEC
 70
     2
  9
$DIMALTU
 70
     2
  9
$DIMALTTD
 70
     3
  9
$DIMTXSTY
  7
Standard
  9
$DIMAUNIT
 70
     0
  9
$DIMADEC
 70
     0
  9
$DIMALTRND
 40
0.0
  9
$DIMAZIN
 70
     0
  9
$DIMDSEP
 70
    44
  9
$DIMATFIT
 70
     3
  9
$DIMFRAC
 70
     0
  9
$DIMLDRBLK
  1

  9
$DIMLUNIT
 70
     2
  9
$DIMLWD
 70
    -2
  9
$DIMLWE
 70
    -2
  9
$DIMTMOVE
 70
     0
  9
$LUNITS
 70
     2
  9
$LUPREC
 70
     4
  9
$SKETCHINC
 40
1.0
  9
$FILLETRAD
 40
10.0
  9
$AUNITS
 70
     0
  9
$AUPREC
 70
     0
  9
$MENU
  1
.
  9
$ELEVATION
 40
0.0
  9
$PELEVATION
 40
0.0
  9
$THICKNESS
 40
0.0
  9
$LIMCHECK
 70
     0
  9
$CHAMFERA
 40
10.0
  9
$CHAMFERB
 40
10.0
  9
$CHAMFERC
 40
20.0
  9
$CHAMFERD
 40
0.0
  9
$SKPOLY
 70
     0
  9
$TDCREATE
 40
2456904.664740822
  9
$TDUCREATE
 40
2456904.289740822
  9
$TDUPDATE
 40
2456904.664740833
  9
$TDUUPDATE
 40
2456904.289740833
  9
$TDINDWG
 40
0.0000000116
  9
$TDUSRTIMER
 40
0.0000000116
  9
$USRTIMER
 70
     1
  9
$ANGBASE
 50
0.0
  9
$ANGDIR
 70
     0
  9
$PDMODE
 70
     0
  9
$PDSIZE
 40
0.0
  9
$PLINEWID
 40
0.0
  9
$SPLFRAME
 70
     0
  9
$SPLINETYPE
 70
     6
  9
$SPLINESEGS
 70
     8
  9
$HANDSEED
  5
165
  9
$SURFTAB1
 70
     6
  9
$SURFTAB2
 70
     6
  9
$SURFTYPE
 70
     6
  9
$SURFU
 70
     6
  9
$SURFV
 70
     6
  9
$UCSBASE
  2

  9
$UCSNAME
  2

  9
$UCSORG
 10
0.0
 20
0.0
 30
0.0
  9
$UCSXDIR
 10
1.0
 20
0.0
 30
0.0
  9
$UCSYDIR
 10
0.0
 20
1.0
 30
0.0
  9
$UCSORTHOREF
  2

  9
$UCSORTHOVIEW
 70
     0
  9
$UCSORGTOP
 10
0.0
 20
0.0
 30
0.0
  9
$UCSORGBOTTOM
 10
0.0
 20
0.0
 30
0.0
  9
$UCSORGLEFT
 10
0.0
 20
0.0
 30
0.0
  9
$UCSORGRIGHT
 10
0.0
 20
0.0
 30
0.0
  9
$UCSORGFRONT
 10
0.0
 20
0.0
 30
0.0
  9
$UCSORGBACK
 10
0.0
 20
0.0
 30
0.0
  9
$PUCSBASE
  2

  9
$PUCSNAME
  2

  9
$PUCSORG
 10
0.0
 20
0.0
 30
0.0
  9
$PUCSXDIR
 10
1.0
 20
0.0
 30
0.0
  9
$PUCSYDIR
 10
0.0
 20
1.0
 30
0.0
  9
$PUCSORTHOREF
  2

  9
$PUCSORTHOVIEW
 70
     0
  9
$PUCSORGTOP
 10
0.0
 20
0.0
 30
0.0
  9
$PUCSORGBOTTOM
 10
0.0
 20
0.0
 30
0.0
  9
$PUCSORGLEFT
 10
0.0
 20
0.0
 30
0.0
  9
$PUCSORGRIGHT
 10
0.0
 20
0.0
 30
0.0
  9
$PUCSORGFRONT
 10
0.0
 20
0.0
 30
0.0
  9
$PUCSORGBACK
 10
0.0
 20
0.0
 30
0.0
  9
$USERI1
 70
     0
  9
$USERI2
 70
     0
  9
$USERI3
 70
     0
  9
$USERI4
 70
     0
  9
$USERI5
 70
     0
  9
$USERR1
 40
0.0
  9
$USERR2
 40
0.0
  9
$USERR3
 40
0.0
  9
$USERR4
 40
0.0
  9
$USERR5
 40
0.0
  9
$WORLDVIEW
 70
     1
  9
$SHADEDGE
 70
     3
  9
$SHADEDIF
 70
    70
  9
$TILEMODE
 70
     1
  9
$MAXACTVP
 70
    64
  9
$PINSBASE
 10
0.0
 20
0.0
 30
0.0
  9
$PLIMCHECK
 70
     0
  9
$PEXTMIN
 10
1.000000000000000E+20
 20
1.000000000000000E+20
 30
1.000000000000000E+20
  9
$PEXTMAX
 10
-1.000000000000000E+20
 20
-1.000000000000000E+20
 30
-1.000000000000000E+20
  9
$PLIMMIN
 10
0.0
 20
0.0
  9
$PLIMMAX
 10
420.0
 20
297.0
  9
$UNITMODE
 70
     0
  9
$VISRETAIN
 70
     1
  9
$PLINEGEN
 70
     0
  9
$PSLTSCALE
 70
     1
  9
$TREEDEPTH
 70
  3020
  9
$CMLSTYLE
  2
Standard
  9
$CMLJUST
 70
     0
  9
$CMLSCALE
 40
20.0
  9
$PROXYGRAPHICS
 70
     1
  9
$MEASUREMENT
 70
     1
  9
$CELWEIGHT
370
    -1
  9
$ENDCAPS
280
     0
  9
$JOINSTYLE
280
     0
  9
$LWDISPLAY
290
     0
  9
$INSUNITS
 70
     4
  9
$HYPERLINKBASE
  1

  9
$STYLESHEET
  1

  9
$XEDIT
290
     1
  9
$CEPSNTYPE
380
     0
  9
$PSTYLEMODE
290
     1
  9
$FINGERPRINTGUID
  2
{8577F675-6B05-4CFE-B49F-A24ED8DA5795}
  9
$VERSIONGUID
  2
{FAEB1C32-E019-11D5-929B-00C0DF256EC4}
  9
$EXTNAMES
290
     1
  9
$PSVPSCALE
 40
0.0
  9
$OLESTARTUP
290
     0
  0
ENDSEC
  0
SECTION
  2
CLASSES
  0
CLASS
  1
ACDBDICTIONARYWDFLT
  2
AcDbDictionaryWithDefault
  3
ObjectDBX Classes
 90
        0
280
     0
281
     0
  0
CLASS
  1
VISUALSTYLE
  2
AcDbVisualStyle
  3
ObjectDBX Classes
 90
     4095
280
     0
281
     0
  0
CLASS
  1
DICTIONARYVAR
  2
AcDbDictionaryVar
  3
ObjectDBX Classes
 90
        0
280
     0
281
     0
  0
CLASS
  1
ACDBPLACEHOLDER
  2
AcDbPlaceHolder
  3
ObjectDBX Classes
 90
        0
280
     0
281
     0
  0
CLASS
  1
LAYOUT
  2
AcDbLayout
  3
ObjectDBX Classes
 90
        0
280
     0
281
     0
  0
ENDSEC
  0
SECTION
  2
TABLES
  0
TABLE
  2
VPORT
  5
8
330
0
100
AcDbSymbolTable
 70
     1
  0
VPORT
  5
29
330
8
100
AcDbSymbolTableRecord
100
AcDbViewportTableRecord
  2
*Active
 70
     0
 10
0.0
 20
0.0
 11
1.0
 21
1.0
 12
0.0
 22
0.0
 13
0.0
 23
0.0
 14
10.0
 24
10.0
 15
10.0
 25
10.0
 16
0.0
 26
0.0
 36
1.0
 17
0.0
 27
0.0
 37
0.0
 40
3267.0
 41
1.414141414141414
 42
50.0
 43
0.0
 44
0.0
 50
0.0
 51
0.0
 71
     0
 72
 10000
 73
     1
 74
     3
 75
     0
 76
     0
 77
     0
 78
     0
281
     0
 65
     1
110
0.0
120
0.0
130
0.0
111
1.0
121
0.0
131
0.0
112
0.0
122
1.0
132
0.0
 79
     0
146
0.0
  0
ENDTAB
  0
TABLE
  2
LTYPE
  5
5
330
0
100
AcDbSymbolTable
 70
     4
  0
LTYPE
  5
14
330
5
100
AcDbSymbolTableRecord
100
AcDbLinetypeTableRecord
  2
ByBlock
 70
     0
  3

 72
    65
 73
     0
 40
0.0
  0
LTYPE
  5
15
330
5
100
AcDbSymbolTableRecord
100
AcDbLinetypeTableRecord
  2
ByLayer
 70
     0
  3

 72
    65
 73
     0
 40
0.0
  0
LTYPE
  5
16
330
5
100
AcDbSymbolTableRecord
100
AcDbLinetypeTableRecord
  2
Continuous
 70
     0
  3
Solid line
 72
    65
 73
     0
 40
0.0
  0
LTYPE
  5
3C
330
5
100
AcDbSymbolTableRecord
100
AcDbLinetypeTableRecord
  2
JWW_DASHED1
 70
     0
  3
-  --  --  --  --  --  --  --  -
 72
    65
 73
     2
 40
1.693333333333333
 49
0.8466666666666667
 74
     0
 49
-0.8466666666666667
 74
     0
  0
LTYPE
  5
3D
330
5
100
AcDbSymbolTableRecord
100
AcDbLinetypeTableRecord
  2
JWW_CENTER1
 70
     0
  3
-----  --  ----------  --  -----
 72
    65
 73
     4
 40
6.773333333333333
 49
4.233333333333333
 74
     0
 49
-0.8466666666666667
 74
     0
 49
0.8466666666666667
 74
     0
 49
-0.8466666666666667
 74
     0
  0
LTYPE
  5
3E
330
5
100
AcDbSymbolTableRecord
100
AcDbLinetypeTableRecord
  2
JWW_HOJO
 70
     0
  3
  -   -   -   -   -   -   -   - 
 72
    65
 73
     2
 40
1.693333333333333
 49
-1.27
 74
     0
 49
0.4233333333333333
 74
     0
  0
ENDTAB
  0
TABLE
  2
LAYER
  5
2
330
0
100
AcDbSymbolTable
 70
     8
  0
LAYER
  5
10
330
2
100
AcDbSymbolTableRecord
100
AcDbLayerTableRecord
  2
0
 70
     0
 62
     7
  6
Continuous
370
    -3
390
F
  0
LAYER
  5
3F
330
2
100
AcDbSymbolTableRecord
100
AcDbLayerTableRecord
  2
0-0
 70
     0
 62
     7
  6
Continuous
370
    -3
390
F
  0
LAYER
  5
40
330
2
100
AcDbSymbolTableRecord
100
AcDbLayerTableRecord
  2
0-2
 70
     0
 62
     7
  6
Continuous
370
    -3
390
F
  0
LAYER
  5
41
330
2
100
AcDbSymbolTableRecord
100
AcDbLayerTableRecord
  2
0-F
 70
     0
 62
     7
  6
Continuous
370
    -3
390
F
  0
LAYER
  5
42
330
2
100
AcDbSymbolTableRecord
100
AcDbLayerTableRecord
  2
0-E
 70
     0
 62
     7
  6
Continuous
370
    -3
390
F
  0
LAYER
  5
43
330
2
100
AcDbSymbolTableRecord
100
AcDbLayerTableRecord
  2
0-9
 70
     0
 62
     7
  6
Continuous
370
    -3
390
F
  0
LAYER
  5
44
330
2
100
AcDbSymbolTableRecord
100
AcDbLayerTableRecord
  2
0-4
 70
     0
 62
     7
  6
Continuous
370
    -3
390
F
  0
LAYER
  5
45
330
2
100
AcDbSymbolTableRecord
100
AcDbLayerTableRecord
  2
F-5
 70
     0
 62
     7
  6
Continuous
370
    -3
390
F
  0
ENDTAB
  0
TABLE
  2
STYLE
  5
3
330
0
100
AcDbSymbolTable
 70
     2
  0
STYLE
  5
11
330
3
100
AcDbSymbolTableRecord
100
AcDbTextStyleTableRecord
  2
Standard
 70
     0
 40
0.0
 41
1.0
 50
0.0
 71
     0
 42
2.5
  3
txt
  4

1001
ACAD
1000

1071
        0
  0
STYLE
  5
3B
330
3
100
AcDbSymbolTableRecord
100
AcDbTextStyleTableRecord
  2
ＭＳ ゴシック
 70
     0
 40
1.0
 41
1.0
 50
0.0
 71
     0
 42
10.0
  3
msgothic.ttc
  4

1001
ACAD
1000
MS Gothic
1071
    32817
  0
ENDTAB
  0
TABLE
  2
VIEW
  5
6
330
0
100
AcDbSymbolTable
 70
     0
  0
ENDTAB
  0
TABLE
  2
UCS
  5
7
330
0
100
AcDbSymbolTable
 70
     0
  0
ENDTAB
  0
TABLE
  2
APPID
  5
9
330
0
100
AcDbSymbolTable
 70
     1
  0
APPID
  5
12
330
9
100
AcDbSymbolTableRecord
100
AcDbRegAppTableRecord
  2
ACAD
 70
     0
  0
ENDTAB
  0
TABLE
  2
DIMSTYLE
  5
A
330
0
100
AcDbSymbolTable
 70
     1
100
AcDbDimStyleTable
  0
DIMSTYLE
105
27
330
A
100
AcDbSymbolTableRecord
100
AcDbDimStyleTableRecord
  2
ISO-25
 70
     0
 41
2.5
 42
0.625
 43
3.75
 44
1.25
 73
     0
 74
     0
 77
     1
 78
     8
140
2.5
141
2.5
143
0.03937007874016
147
0.625
171
     3
172
     1
271
     2
272
     2
274
     3
278
    44
283
     0
284
     8
340
11
  0
ENDTAB
  0
TABLE
  2
BLOCK_RECORD
  5
1
330
0
100
AcDbSymbolTable
 70
     1
  0
BLOCK_RECORD
  5
1F
330
1
100
AcDbSymbolTableRecord
100
AcDbBlockTableRecord
  2
*Model_Space
340
22
  0
BLOCK_RECORD
  5
1B
330
1
100
AcDbSymbolTableRecord
100
AcDbBlockTableRecord
  2
*Paper_Space
340
1E
  0
BLOCK_RECORD
  5
23
330
1
100
AcDbSymbolTableRecord
100
AcDbBlockTableRecord
  2
*Paper_Space0
340
26
  0
ENDTAB
  0
ENDSEC
  0
SECTION
  2
BLOCKS
  0
BLOCK
  5
20
330
1F
100
AcDbEntity
  8
0
100
AcDbBlockBegin
  2
*Model_Space
 70
     0
 10
0.0
 20
0.0
 30
0.0
  3
*Model_Space
  1

  0
ENDBLK
  5
21
330
1F
100
AcDbEntity
  8
0
100
AcDbBlockEnd
  0
BLOCK
  5
1C
330
1B
100
AcDbEntity
 67
     1
  8
0
100
AcDbBlockBegin
  2
*Paper_Space
 70
     0
 10
0.0
 20
0.0
 30
0.0
  3
*Paper_Space
  1

  0
ENDBLK
  5
1D
330
1B
100
AcDbEntity
 67
     1
  8
0
100
AcDbBlockEnd
  0
BLOCK
  5
24
330
23
100
AcDbEntity
  8
0
100
AcDbBlockBegin
  2
*Paper_Space0
 70
     0
 10
0.0
 20
0.0
 30
0.0
  3
*Paper_Space0
  1

  0
ENDBLK
  5
25
330
23
100
AcDbEntity
  8
0
100
AcDbBlockEnd
  0
ENDSEC
  0
SECTION
  2
ENTITIES
  0
LINE
  5
46
330
1F
100
AcDbEntity
  8
0-0
  6
JWW_DASHED1
 62
     3
370
     9
100
AcDbLine
 10
-1503.362212309966
 20
-581.1702501451647
 30
0.0
 11
-1503.362212309966
 21
-781.1704151050463
 31
0.0
  0
LINE
  5
47
330
1F
100
AcDbEntity
  8
0-0
  6
JWW_DASHED1
 62
     3
370
     9
100
AcDbLine
 10
-363.3621628220016
 20
-581.1702501451647
 30
0.0
 11
-363.3621628220016
 21
-781.1704151050463
 31
0.0
  0
LINE
  5
48
330
1F
100
AcDbEntity
  8
0-0
  6
JWW_CENTER1
 62
     3
370
     9
100
AcDbLine
 10
-933.3621875659838
 20
-532.6685807511614
 30
0.0
 11
-933.3621875659838
 21
-838.0447057775548
 31
0.0
  0
LINE
  5
49
330
1F
100
AcDbEntity
  8
0-2
  6
Continuous
 62
     4
370
     9
100
AcDbLine
 10
-245.8623937658359
 20
-681.1702089051943
 30
0.0
 11
-216.9950742979307
 21
-631.1701676652239
 31
0.0
  0
LINE
  5
4A
330
1F
100
AcDbEntity
  8
0-2
  6
Continuous
 62
     4
370
     9
100
AcDbLine
 10
-245.8623937658359
 20
-681.1702089051943
 30
0.0
 11
-216.9947031381966
 21
-731.1706213048985
 31
0.0
  0
LINE
  5
4B
330
1F
100
AcDbEntity
  8
0-2
  6
Continuous
 62
     4
370
     9
100
AcDbLine
 10
-216.9947031381966
 20
-731.1706213048985
 30
0.0
 11
-159.7300761454812
 21
-731.1706213048985
 31
0.0
  0
LINE
  5
4C
330
1F
100
AcDbEntity
  8
0-2
  6
Continuous
 62
     4
370
     9
100
AcDbLine
 10
-130.8625092377534
 20
-681.1702089051943
 30
0.0
 11
-159.7300761454812
 21
-731.1706213048985
 31
0.0
  0
LINE
  5
4D
330
1F
100
AcDbEntity
  8
0-2
  6
Continuous
 62
     4
370
     9
100
AcDbLine
 10
-130.8625092377534
 20
-681.1702089051943
 30
0.0
 11
-159.7300761454812
 21
-631.1701676652239
 31
0.0
  0
LINE
  5
4E
330
1F
100
AcDbEntity
  8
0-2
  6
Continuous
 62
     4
370
     9
100
AcDbLine
 10
-216.9950742979307
 20
-631.1701676652239
 30
0.0
 11
-159.7300761454812
 21
-631.1701676652239
 31
0.0
  0
LINE
  5
4F
330
1F
100
AcDbEntity
  8
0-2
  6
Continuous
 62
     4
370
     9
100
AcDbLine
 10
-45.86222880595415
 20
-681.1702089051943
 30
0.0
 11
-16.99490933804896
 21
-631.1701676652239
 31
0.0
  0
LINE
  5
50
330
1F
100
AcDbEntity
  8
0-2
  6
Continuous
 62
     4
370
     9
100
AcDbLine
 10
-45.86222880595415
 20
-681.1702089051943
 30
0.0
 11
-16.99441445840364
 21
-731.1706213048985
 31
0.0
  0
LINE
  5
51
330
1F
100
AcDbEntity
  8
0-2
  6
Continuous
 62
     4
370
     9
100
AcDbLine
 10
-16.99441445840364
 20
-731.1706213048985
 30
0.0
 11
40.27008881440054
 21
-731.1706213048985
 31
0.0
  0
LINE
  5
52
330
1F
100
AcDbEntity
  8
0-2
  6
Continuous
 62
     4
370
     9
100
AcDbLine
 10
69.13765572212839
 20
-681.1702089051943
 30
0.0
 11
40.27008881440054
 21
-731.1706213048985
 31
0.0
  0
LINE
  5
53
330
1F
100
AcDbEntity
  8
0-2
  6
Continuous
 62
     4
370
     9
100
AcDbLine
 10
69.13765572212839
 20
-681.1702089051943
 30
0.0
 11
40.27008881440054
 21
-631.1701676652239
 31
0.0
  0
LINE
  5
54
330
1F
100
AcDbEntity
  8
0-2
  6
Continuous
 62
     4
370
     9
100
AcDbLine
 10
-16.99490933804896
 20
-631.1701676652239
 30
0.0
 11
40.27008881440054
 21
-631.1701676652239
 31
0.0
  0
LINE
  5
55
330
1F
100
AcDbEntity
  8
0-2
  6
JWW_HOJO
 62
     4
370
     9
100
AcDbLine
 10
-133.1124795449745
 20
401.6676536766261
 30
0.0
 11
-243.6126708984375
 21
401.6676536766261
 31
0.0
  0
LINE
  5
56
330
1F
100
AcDbEntity
  8
0-2
  6
Continuous
 62
     4
370
     9
100
AcDbLine
 10
-243.6126708984375
 20
436.8662158862966
 30
0.0
 11
-243.6126708984375
 21
401.6676536766261
 31
0.0
  0
LINE
  5
57
330
1F
100
AcDbEntity
  8
0-2
  6
Continuous
 62
     4
370
     9
100
AcDbLine
 10
-145.737601615287
 20
441.6672907648862
 30
0.0
 11
-230.987548828125
 21
441.6672907648862
 31
0.0
  0
LINE
  5
58
330
1F
100
AcDbEntity
  8
0-2
  6
Continuous
 62
     4
370
     9
100
AcDbLine
 10
-133.1124795449745
 20
436.8662158862966
 30
0.0
 11
-133.1124795449745
 21
401.6676536766261
 31
0.0
  0
LINE
  5
59
330
1F
100
AcDbEntity
  8
0-2
  6
Continuous
 62
     4
370
     9
100
AcDbLine
 10
-163.7776967641469
 20
151.6676949165964
 30
0.0
 11
-158.3627236855995
 21
157.0826679951438
 31
0.0
  0
LINE
  5
5A
330
1F
100
AcDbEntity
  8
0-2
  6
Continuous
 62
     4
370
     9
100
AcDbLine
 10
-158.3627236855995
 20
157.0826679951438
 30
0.0
 11
-218.3624267578125
 21
157.0826679951438
 31
0.0
  0
LINE
  5
5B
330
1F
100
AcDbEntity
  8
0-2
  6
Continuous
 62
     4
370
     9
100
AcDbLine
 10
-218.3624267578125
 20
157.0826679951438
 30
0.0
 11
-212.9474536792651
 21
151.6676949165964
 31
0.0
  0
LINE
  5
5C
330
1F
100
AcDbEntity
  8
0-2
  6
Continuous
 62
     4
370
     9
100
AcDbLine
 10
-212.9474536792651
 20
151.6676949165964
 30
0.0
 11
-163.7776967641469
 21
151.6676949165964
 31
0.0
  0
LINE
  5
5D
330
1F
100
AcDbEntity
  8
0-2
  6
JWW_HOJO
 62
     4
370
     9
100
AcDbLine
 10
66.88768541490731
 20
401.6676536766261
 30
0.0
 11
-43.61250593855573
 21
401.6676536766261
 31
0.0
  0
LINE
  5
5E
330
1F
100
AcDbEntity
  8
0-2
  6
Continuous
 62
     4
370
     9
100
AcDbLine
 10
-43.61250593855573
 20
436.8662158862966
 30
0.0
 11
-43.61250593855573
 21
401.6676536766261
 31
0.0
  0
LINE
  5
5F
330
1F
100
AcDbEntity
  8
0-2
  6
Continuous
 62
     4
370
     9
100
AcDbLine
 10
54.26256334459481
 20
441.6672907648862
 30
0.0
 11
-30.98738386824323
 21
441.6672907648862
 31
0.0
  0
LINE
  5
60
330
1F
100
AcDbEntity
  8
0-2
  6
Continuous
 62
     4
370
     9
100
AcDbLine
 10
66.88768541490731
 20
436.8662158862966
 30
0.0
 11
66.88768541490731
 21
401.6676536766261
 31
0.0
  0
LINE
  5
61
330
1F
100
AcDbEntity
  8
0-2
  6
Continuous
 62
     4
370
     9
100
AcDbLine
 10
36.2224681957349
 20
151.6676949165964
 30
0.0
 11
41.63744127428231
 21
157.0826679951438
 31
0.0
  0
LINE
  5
62
330
1F
100
AcDbEntity
  8
0-2
  6
Continuous
 62
     4
370
     9
100
AcDbLine
 10
41.63744127428231
 20
157.0826679951438
 30
0.0
 11
-18.36226179793073
 21
157.0826679951438
 31
0.0
  0
LINE
  5
63
330
1F
100
AcDbEntity
  8
0-2
  6
Continuous
 62
     4
370
     9
100
AcDbLine
 10
-18.36226179793073
 20
157.0826679951438
 30
0.0
 11
-12.94728871938332
 21
151.6676949165964
 31
0.0
  0
LINE
  5
64
330
1F
100
AcDbEntity
  8
0-2
  6
Continuous
 62
     4
370
     9
100
AcDbLine
 10
-12.94728871938332
 20
151.6676949165964
 30
0.0
 11
36.2224681957349
 21
151.6676949165964
 31
0.0
  0
LINE
  5
65
330
1F
100
AcDbEntity
  8
0-2
  6
JWW_HOJO
 62
     4
370
     9
100
AcDbLine
 10
-130.8622617979307
 20
311.66748046875
 30
0.0
 11
-245.8621463260135
 21
311.66748046875
 31
0.0
  0
LINE
  5
66
330
1F
100
AcDbEntity
  8
0-2
  6
Continuous
 62
     4
370
     9
100
AcDbLine
 10
-130.8622617979307
 20
266.5749132311024
 30
0.0
 11
-130.8622617979307
 21
311.66748046875
 31
0.0
  0
LINE
  5
67
330
1F
100
AcDbEntity
  8
0-2
  6
Continuous
 62
     4
370
     9
100
AcDbLine
 10
-245.8621463260135
 20
266.5749132311024
 30
0.0
 11
-245.8621463260135
 21
311.66748046875
 31
0.0
  0
LINE
  5
68
330
1F
100
AcDbEntity
  8
0-2
  6
Continuous
 62
     4
370
     9
100
AcDbLine
 10
-159.7295812658359
 20
266.5749132311024
 30
0.0
 11
-159.7295812658359
 21
311.66748046875
 31
0.0
  0
LINE
  5
69
330
1F
100
AcDbEntity
  8
0-2
  6
Continuous
 62
     4
370
     9
100
AcDbLine
 10
-216.9947031381966
 20
266.5749132311024
 30
0.0
 11
-216.9947031381966
 21
311.66748046875
 31
0.0
  0
LINE
  5
6A
330
1F
100
AcDbEntity
  8
0-2
  6
Continuous
 62
     4
370
     9
100
AcDbLine
 10
-145.2959215318833
 20
261.667191788957
 30
0.0
 11
-231.4284865920607
 21
261.667191788957
 31
0.0
  0
LINE
  5
6B
330
1F
100
AcDbEntity
  8
0-2
  6
JWW_HOJO
 62
     4
370
     9
100
AcDbLine
 10
69.13790316195104
 20
311.66748046875
 30
0.0
 11
-45.86198136613177
 21
311.66748046875
 31
0.0
  0
LINE
  5
6C
330
1F
100
AcDbEntity
  8
0-2
  6
Continuous
 62
     4
370
     9
100
AcDbLine
 10
69.13790316195104
 20
266.5749132311024
 30
0.0
 11
69.13790316195104
 21
311.66748046875
 31
0.0
  0
LINE
  5
6D
330
1F
100
AcDbEntity
  8
0-2
  6
Continuous
 62
     4
370
     9
100
AcDbLine
 10
-45.86198136613177
 20
266.5749132311024
 30
0.0
 11
-45.86198136613177
 21
311.66748046875
 31
0.0
  0
LINE
  5
6E
330
1F
100
AcDbEntity
  8
0-2
  6
Continuous
 62
     4
370
     9
100
AcDbLine
 10
40.27058369404585
 20
266.5749132311024
 30
0.0
 11
40.27058369404585
 21
311.66748046875
 31
0.0
  0
LINE
  5
6F
330
1F
100
AcDbEntity
  8
0-2
  6
Continuous
 62
     4
370
     9
100
AcDbLine
 10
-16.99441445840364
 20
266.5749132311024
 30
0.0
 11
-16.99441445840364
 21
311.66748046875
 31
0.0
  0
LINE
  5
70
330
1F
100
AcDbEntity
  8
0-2
  6
Continuous
 62
     4
370
     9
100
AcDbLine
 10
54.70449086782111
 20
261.667191788957
 30
0.0
 11
-31.42832163217889
 21
261.667191788957
 31
0.0
  0
LINE
  5
71
330
1F
100
AcDbEntity
  8
0-2
  6
Continuous
 62
     4
370
     9
100
AcDbLine
 10
-158.3627236855995
 20
436.8662158862966
 30
0.0
 11
-158.3627236855995
 21
401.6676536766261
 31
0.0
  0
LINE
  5
72
330
1F
100
AcDbEntity
  8
0-2
  6
Continuous
 62
     4
370
     9
100
AcDbLine
 10
-158.3627236855995
 20
261.667191788957
 30
0.0
 11
-158.3627236855995
 21
157.0826679951438
 31
0.0
  0
LINE
  5
73
330
1F
100
AcDbEntity
  8
0-2
  6
Continuous
 62
     4
370
     9
100
AcDbLine
 10
-218.3624267578125
 20
436.8662158862966
 30
0.0
 11
-218.3624267578125
 21
401.6676536766261
 31
0.0
  0
LINE
  5
74
330
1F
100
AcDbEntity
  8
0-2
  6
Continuous
 62
     4
370
     9
100
AcDbLine
 10
-218.3624267578125
 20
261.667191788957
 30
0.0
 11
-218.3624267578125
 21
157.0826679951438
 31
0.0
  0
LINE
  5
75
330
1F
100
AcDbEntity
  8
0-2
  6
Continuous
 62
     4
370
     9
100
AcDbLine
 10
-212.9474536792651
 20
261.667191788957
 30
0.0
 11
-212.9474536792651
 21
151.6676949165964
 31
0.0
  0
LINE
  5
76
330
1F
100
AcDbEntity
  8
0-2
  6
Continuous
 62
     4
370
     9
100
AcDbLine
 10
-163.7776967641469
 20
261.667191788957
 30
0.0
 11
-163.7776967641469
 21
151.6676949165964
 31
0.0
  0
LINE
  5
77
330
1F
100
AcDbEntity
  8
0-2
  6
JWW_CENTER1
 62
     4
370
     9
100
AcDbLine
 10
-188.3624515017948
 20
459.7346042942357
 30
0.0
 11
-188.3624515017948
 21
136.5778247730154
 31
0.0
  0
LINE
  5
78
330
1F
100
AcDbEntity
  8
0-2
  6
JWW_CENTER1
 62
     4
370
     9
100
AcDbLine
 10
11.63808461782111
 20
459.7346042942357
 30
0.0
 11
11.63808461782111
 21
136.5778247730154
 31
0.0
  0
LINE
  5
79
330
1F
100
AcDbEntity
  8
0-2
  6
Continuous
 62
     4
370
     9
100
AcDbLine
 10
-12.94728871938332
 20
261.667191788957
 30
0.0
 11
-12.94728871938332
 21
151.6676949165964
 31
0.0
  0
LINE
  5
7A
330
1F
100
AcDbEntity
  8
0-2
  6
Continuous
 62
     4
370
     9
100
AcDbLine
 10
36.2224681957349
 20
261.667191788957
 30
0.0
 11
36.2224681957349
 21
151.6676949165964
 31
0.0
  0
LINE
  5
7B
330
1F
100
AcDbEntity
  8
0-2
  6
Continuous
 62
     4
370
     9
100
AcDbLine
 10
41.63744127428231
 20
436.8662158862966
 30
0.0
 11
41.63744127428231
 21
401.6676536766261
 31
0.0
  0
LINE
  5
7C
330
1F
100
AcDbEntity
  8
0-2
  6
Continuous
 62
     4
370
     9
100
AcDbLine
 10
41.63744127428231
 20
261.667191788957
 30
0.0
 11
41.63744127428231
 21
157.0826679951438
 31
0.0
  0
LINE
  5
7D
330
1F
100
AcDbEntity
  8
0-2
  6
Continuous
 62
     4
370
     9
100
AcDbLine
 10
-18.36226179793073
 20
436.8662158862966
 30
0.0
 11
-18.36226179793073
 21
401.6676536766261
 31
0.0
  0
LINE
  5
7E
330
1F
100
AcDbEntity
  8
0-2
  6
Continuous
 62
     4
370
     9
100
AcDbLine
 10
-18.36226179793073
 20
261.667191788957
 30
0.0
 11
-18.36226179793073
 21
157.0826679951438
 31
0.0
  0
LINE
  5
7F
330
1F
100
AcDbEntity
  8
0-2
  6
JWW_CENTER1
 62
     4
370
     9
100
AcDbLine
 10
-112.9810230152026
 20
-681.1702089051943
 30
0.0
 11
-268.6622413429052
 21
-681.1702089051943
 31
0.0
  0
LINE
  5
80
330
1F
100
AcDbEntity
  8
0-2
  6
JWW_CENTER1
 62
     4
370
     9
100
AcDbLine
 10
-188.3624515017948
 20
-611.7788036449535
 30
0.0
 11
-188.3624515017948
 21
-753.9223418364654
 31
0.0
  0
LINE
  5
81
330
1F
100
AcDbEntity
  8
0-2
  6
JWW_CENTER1
 62
     4
370
     9
100
AcDbLine
 10
11.63808461782111
 20
-611.7788036449535
 30
0.0
 11
11.63808461782111
 21
-753.9223418364654
 31
0.0
  0
LINE
  5
82
330
1F
100
AcDbEntity
  8
0-2
  6
JWW_CENTER1
 62
     4
370
     9
100
AcDbLine
 10
89.64126174514377
 20
-681.1702089051943
 30
0.0
 11
-62.21552668391041
 21
-681.1702089051943
 31
0.0
  0
LINE
  5
83
330
1F
100
AcDbEntity
  8
0-0
  6
JWW_CENTER1
 62
     3
370
     9
100
AcDbLine
 10
-933.3621875659838
 20
964.7754896009292
 30
0.0
 11
-933.3621875659838
 21
-255.6669987858952
 31
0.0
  0
LINE
  5
84
330
1F
100
AcDbEntity
  8
0-F
  6
Continuous
 62
     7
370
     9
100
AcDbLine
 10
-188.3624515017948
 20
-8.332338075379937
 30
0.0
 11
116.6379361539276
 21
-8.332338075379937
 31
0.0
  0
LINE
  5
85
330
1F
100
AcDbEntity
  8
0-F
  6
Continuous
 62
     7
370
     9
100
AcDbLine
 10
-188.3624515017948
 20
111.1668684675888
 30
0.0
 11
-188.3624515017948
 21
-11.33229848500832
 31
0.0
  0
LINE
  5
86
330
1F
100
AcDbEntity
  8
0-F
  6
Continuous
 62
     7
370
     9
100
AcDbLine
 10
11.63808461782111
 20
111.1668684675888
 30
0.0
 11
11.63808461782111
 21
-11.33229848500832
 31
0.0
  0
LINE
  5
87
330
1F
100
AcDbEntity
  8
0-F
  6
Continuous
 62
     7
370
     9
100
AcDbLine
 10
-188.3624515017948
 20
-8.332338075379937
 30
0.0
 11
-163.5762807485219
 21
-5.069225414379162
 31
0.0
  0
LINE
  5
88
330
1F
100
AcDbEntity
  8
0-F
  6
Continuous
 62
     7
370
     9
100
AcDbLine
 10
-188.3624515017948
 20
-8.332338075379937
 30
0.0
 11
-163.5762807485219
 21
-11.59557445629218
 31
0.0
  0
LINE
  5
89
330
1F
100
AcDbEntity
  8
0-F
  6
Continuous
 62
     7
370
     9
100
AcDbLine
 10
36.4238842113599
 20
-11.59557445629218
 30
0.0
 11
-13.14820985536301
 21
-5.069225414379162
 31
0.0
  0
LINE
  5
8A
330
1F
100
AcDbEntity
  8
0-F
  6
Continuous
 62
     7
370
     9
100
AcDbLine
 10
36.4238842113599
 20
-5.069225414379162
 30
0.0
 11
-13.14820985536301
 21
-11.59557445629218
 31
0.0
  0
LINE
  5
8B
330
1F
100
AcDbEntity
  8
0-F
  6
Continuous
 62
     7
370
     9
100
AcDbLine
 10
116.6379361539276
 20
-8.332338075379937
 30
0.0
 11
91.85188912056589
 21
-5.069225414379162
 31
0.0
  0
LINE
  5
8C
330
1F
100
AcDbEntity
  8
0-F
  6
Continuous
 62
     7
370
     9
100
AcDbLine
 10
116.6379361539276
 20
-8.332338075379937
 30
0.0
 11
91.85188912056589
 21
-11.59557445629218
 31
0.0
  0
LINE
  5
8D
330
1F
100
AcDbEntity
  8
0-F
  6
Continuous
 62
     7
370
     9
100
AcDbLine
 10
116.6379361539276
 20
298.3768689954604
 30
0.0
 11
116.6379361539276
 21
-11.33229848500832
 31
0.0
  0
LINE
  5
8E
330
1F
100
AcDbEntity
  8
0-F
  6
Continuous
 62
     7
370
     9
100
AcDbLine
 10
-363.3621628220016
 20
-108.3322968354096
 30
0.0
 11
791.6379361539276
 21
-108.3322968354096
 31
0.0
  0
LINE
  5
8F
330
1F
100
AcDbEntity
  8
0-F
  6
Continuous
 62
     7
370
     9
100
AcDbLine
 10
636.6379196579396
 20
76.28923570787606
 30
0.0
 11
636.6379196579396
 21
-111.332257245038
 31
0.0
  0
LINE
  5
90
330
1F
100
AcDbEntity
  8
0-F
  6
Continuous
 62
     7
370
     9
100
AcDbLine
 10
-363.3621628220016
 20
-108.3322968354096
 30
0.0
 11
-338.5761157886401
 21
-105.0691841744086
 31
0.0
  0
LINE
  5
91
330
1F
100
AcDbEntity
  8
0-F
  6
Continuous
 62
     7
370
     9
100
AcDbLine
 10
-363.3621628220016
 20
-108.3322968354096
 30
0.0
 11
-338.5761157886401
 21
-111.5954094964104
 31
0.0
  0
LINE
  5
92
330
1F
100
AcDbEntity
  8
0-F
  6
Continuous
 62
     7
370
     9
100
AcDbLine
 10
661.4239666913011
 20
-111.5954094964104
 30
0.0
 11
611.8518726245776
 21
-105.0691841744086
 31
0.0
  0
LINE
  5
93
330
1F
100
AcDbEntity
  8
0-F
  6
Continuous
 62
     7
370
     9
100
AcDbLine
 10
661.4239666913011
 20
-105.0691841744086
 30
0.0
 11
611.8518726245776
 21
-111.5954094964104
 31
0.0
  0
LINE
  5
94
330
1F
100
AcDbEntity
  8
0-F
  6
Continuous
 62
     7
370
     9
100
AcDbLine
 10
791.6379361539276
 20
-108.3322968354096
 30
0.0
 11
766.8518891205662
 21
-105.0691841744086
 31
0.0
  0
LINE
  5
95
330
1F
100
AcDbEntity
  8
0-F
  6
Continuous
 62
     7
370
     9
100
AcDbLine
 10
791.6379361539276
 20
-108.3322968354096
 30
0.0
 11
766.8518891205662
 21
-111.5954094964104
 31
0.0
  0
LINE
  5
96
330
1F
100
AcDbEntity
  8
0-F
  6
Continuous
 62
     7
370
     9
100
AcDbLine
 10
791.6379361539276
 20
296.3854733028927
 30
0.0
 11
791.6379361539276
 21
-111.332257245038
 31
0.0
  0
LINE
  5
97
330
1F
100
AcDbEntity
  8
0-F
  6
Continuous
 62
     7
370
     9
100
AcDbLine
 10
-363.3621628220016
 20
323.2656035552154
 30
0.0
 11
-363.3621628220016
 21
-111.332257245038
 31
0.0
  0
LINE
  5
98
330
1F
100
AcDbEntity
  8
0-F
  6
Continuous
 62
     7
370
     9
100
AcDbLine
 10
941.6379361539276
 20
91.66737324482682
 30
0.0
 11
941.6379361539276
 21
621.6675134607266
 31
0.0
  0
LINE
  5
99
330
1F
100
AcDbEntity
  8
0-F
  6
Continuous
 62
     7
370
     9
100
AcDbLine
 10
663.6625547666807
 20
91.66737324482682
 30
0.0
 11
944.6378965635557
 21
91.66737324482682
 31
0.0
  0
LINE
  5
9A
330
1F
100
AcDbEntity
  8
0-F
  6
Continuous
 62
     7
370
     9
100
AcDbLine
 10
663.6625547666807
 20
621.6675134607266
 30
0.0
 11
944.6378965635557
 21
621.6675134607266
 31
0.0
  0
LINE
  5
9B
330
1F
100
AcDbEntity
  8
0-F
  6
Continuous
 62
     7
370
     9
100
AcDbLine
 10
941.6379361539276
 20
91.66737324482682
 30
0.0
 11
938.3746997730151
 21
116.4535439980997
 31
0.0
  0
LINE
  5
9C
330
1F
100
AcDbEntity
  8
0-F
  6
Continuous
 62
     7
370
     9
100
AcDbLine
 10
941.6379361539276
 20
91.66737324482682
 30
0.0
 11
944.9011725348396
 21
116.4535439980997
 31
0.0
  0
LINE
  5
9D
330
1F
100
AcDbEntity
  8
0-F
  6
Continuous
 62
     7
370
     9
100
AcDbLine
 10
941.6379361539276
 20
621.6675134607266
 30
0.0
 11
938.3746997730151
 21
596.8814664273648
 31
0.0
  0
LINE
  5
9E
330
1F
100
AcDbEntity
  8
0-F
  6
Continuous
 62
     7
370
     9
100
AcDbLine
 10
941.6379361539276
 20
621.6675134607266
 30
0.0
 11
944.9011725348396
 21
596.8814664273648
 31
0.0
  0
LINE
  5
9F
330
1F
100
AcDbEntity
  8
0-F
  6
Continuous
 62
     7
370
     9
100
AcDbLine
 10
-1773.36236077386
 20
-781.1704151050463
 30
0.0
 11
-1773.36236077386
 21
-581.1702501451647
 31
0.0
  0
LINE
  5
A0
330
1F
100
AcDbEntity
  8
0-F
  6
Continuous
 62
     7
370
     9
100
AcDbLine
 10
-1654.798105600718
 20
-781.1704151050463
 30
0.0
 11
-1776.362321183488
 21
-781.1704151050463
 31
0.0
  0
LINE
  5
A1
330
1F
100
AcDbEntity
  8
0-F
  6
Continuous
 62
     7
370
     9
100
AcDbLine
 10
-1654.798105600718
 20
-581.1702501451647
 30
0.0
 11
-1776.362321183488
 21
-581.1702501451647
 31
0.0
  0
LINE
  5
A2
330
1F
100
AcDbEntity
  8
0-F
  6
Continuous
 62
     7
370
     9
100
AcDbLine
 10
-1773.36236077386
 20
-781.1704151050463
 30
0.0
 11
-1776.625597154772
 21
-756.3843680716849
 31
0.0
  0
LINE
  5
A3
330
1F
100
AcDbEntity
  8
0-F
  6
Continuous
 62
     7
370
     9
100
AcDbLine
 10
-1773.36236077386
 20
-781.1704151050463
 30
0.0
 11
-1770.099124392948
 21
-756.3843680716849
 31
0.0
  0
LINE
  5
A4
330
1F
100
AcDbEntity
  8
0-F
  6
Continuous
 62
     7
370
     9
100
AcDbLine
 10
-1773.36236077386
 20
-581.1702501451647
 30
0.0
 11
-1776.625597154772
 21
-605.9565446183489
 31
0.0
  0
LINE
  5
A5
330
1F
100
AcDbEntity
  8
0-F
  6
Continuous
 62
     7
370
     9
100
AcDbLine
 10
-1773.36236077386
 20
-581.1702501451647
 30
0.0
 11
-1770.099124392948
 21
-605.9565446183489
 31
0.0
  0
LINE
  5
A6
330
1F
100
AcDbEntity
  8
0-F
  6
Continuous
 62
     7
370
     9
100
AcDbLine
 10
781.637903161951
 20
-633.6702996331292
 30
0.0
 11
791.2049164643162
 21
-610.5734005489865
 31
0.0
  0
LINE
  5
A7
330
1F
100
AcDbEntity
  8
0-F
  6
Continuous
 62
     7
370
     9
100
AcDbLine
 10
781.637903161951
 20
-633.6702996331292
 30
0.0
 11
796.8569368929479
 21
-613.8366369298985
 31
0.0
  0
LINE
  5
A8
330
1F
100
AcDbEntity
  8
0-F
  6
Continuous
 62
     7
370
     9
100
AcDbLine
 10
781.637903161951
 20
-633.6702996331292
 30
0.0
 11
844.424768396326
 21
-524.9202501451646
 31
0.0
  0
LINE
  5
A9
330
1F
100
AcDbEntity
  8
0-F
  6
Continuous
 62
     7
370
     9
100
AcDbLine
 10
844.424768396326
 20
-524.9202501451646
 30
0.0
 11
990.3006888724661
 21
-524.9202501451646
 31
0.0
  0
LINE
  5
AA
330
1F
100
AcDbEntity
  8
0-E
  6
Continuous
 62
     7
370
     9
100
AcDbLine
 10
636.6379196579396
 20
621.6675134607266
 30
0.0
 11
646.2049329603042
 21
644.7645362647804
 31
0.0
  0
LINE
  5
AB
330
1F
100
AcDbEntity
  8
0-E
  6
Continuous
 62
     7
370
     9
100
AcDbLine
 10
636.6379196579396
 20
621.6675134607266
 30
0.0
 11
651.8567059491136
 21
641.5012998838682
 31
0.0
  0
LINE
  5
AC
330
1F
100
AcDbEntity
  8
0-E
  6
Continuous
 62
     7
370
     9
100
AcDbLine
 10
636.6379196579396
 20
621.6675134607266
 30
0.0
 11
723.2403729413011
 21
771.6675134607266
 31
0.0
  0
LINE
  5
AD
330
1F
100
AcDbEntity
  8
0-E
  6
Continuous
 62
     7
370
     9
100
AcDbLine
 10
723.2403729413011
 20
771.6675134607266
 30
0.0
 11
1159.90831529772
 21
771.6675134607266
 31
0.0
  0
LINE
  5
AE
330
1F
100
AcDbEntity
  8
0-0
  6
Continuous
 62
     3
370
     9
100
AcDbLine
 10
-1623.362113334037
 20
-781.1701676652239
 30
0.0
 11
-1623.362113334037
 21
-581.1703738650759
 31
0.0
  0
LINE
  5
AF
330
1F
100
AcDbEntity
  8
0-0
  6
Continuous
 62
     3
370
     9
100
AcDbLine
 10
-1543.362344277872
 20
-676.1703161291173
 30
0.0
 11
-1543.362344277872
 21
-581.1703738650759
 31
0.0
  0
LINE
  5
B0
330
1F
100
AcDbEntity
  8
0-0
  6
Continuous
 62
     3
370
     9
100
AcDbLine
 10
-1533.362311285895
 20
-781.1701676652239
 30
0.0
 11
-1533.362311285895
 21
-581.1703738650759
 31
0.0
  0
LINE
  5
B1
330
1F
100
AcDbEntity
  8
0-0
  6
Continuous
 62
     3
370
     9
100
AcDbLine
 10
-1623.362113334037
 20
-676.1703161291173
 30
0.0
 11
-1543.362344277872
 21
-676.1703161291173
 31
0.0
  0
LINE
  5
B2
330
1F
100
AcDbEntity
  8
0-0
  6
Continuous
 62
     3
370
     9
100
AcDbLine
 10
-333.3619401261612
 20
-781.1701676652239
 30
0.0
 11
-333.3619401261612
 21
-581.1703738650759
 31
0.0
  0
LINE
  5
B3
330
1F
100
AcDbEntity
  8
0-0
  6
Continuous
 62
     3
370
     9
100
AcDbLine
 10
-1623.362113334037
 20
-686.170101681271
 30
0.0
 11
-1533.362311285895
 21
-686.170101681271
 31
0.0
  0
LINE
  5
B4
330
1F
100
AcDbEntity
  8
0-0
  6
Continuous
 62
     3
370
     9
100
AcDbLine
 10
-316.7792655326224
 20
401.6674062368034
 30
0.0
 11
116.6379361539276
 21
401.6674062368034
 31
0.0
  0
LINE
  5
B5
330
1F
100
AcDbEntity
  8
0-0
  6
Continuous
 62
     3
370
     9
100
AcDbLine
 10
116.6379361539276
 20
371.6674309807857
 30
0.0
 11
116.6379361539276
 21
401.6674062368034
 31
0.0
  0
LINE
  5
B6
330
1F
100
AcDbEntity
  8
0-0
  6
Continuous
 62
     3
370
     9
100
AcDbLine
 10
116.6379361539276
 20
311.66748046875
 30
0.0
 11
116.6379361539276
 21
341.6674557247677
 31
0.0
  0
LINE
  5
B7
330
1F
100
AcDbEntity
  8
0-0
  6
Continuous
 62
     3
370
     9
100
AcDbLine
 10
-316.7792655326224
 20
311.66748046875
 30
0.0
 11
116.6379361539276
 21
311.66748046875
 31
0.0
  0
LINE
  5
B8
330
1F
100
AcDbEntity
  8
0-0
  6
JWW_CENTER1
 62
     3
370
     9
100
AcDbLine
 10
-1563.362410261824
 20
-799.5277281065245
 30
0.0
 11
-1563.362410261824
 21
-523.0382228542019
 31
0.0
  0
LINE
  5
B9
330
1F
100
AcDbEntity
  8
0-E
  6
Continuous
 62
     7
370
     9
100
AcDbLine
 10
-188.3624515017948
 20
441.6672907648862
 30
0.0
 11
-178.7953144795185
 21
464.7643135689401
 31
0.0
  0
LINE
  5
BA
330
1F
100
AcDbEntity
  8
0-E
  6
Continuous
 62
     7
370
     9
100
AcDbLine
 10
-188.3624515017948
 20
441.6672907648862
 30
0.0
 11
-173.1432940508867
 21
461.5010771880279
 31
0.0
  0
LINE
  5
BB
330
1F
100
AcDbEntity
  8
0-F
  6
Continuous
 62
     7
370
     9
100
AcDbLine
 10
-413.7468492662583
 20
656.667381492821
 30
0.0
 11
-393.9129391232052
 21
671.8864152238177
 31
0.0
  0
LINE
  5
BC
330
1F
100
AcDbEntity
  8
0-F
  6
Continuous
 62
     7
370
     9
100
AcDbLine
 10
-413.7468492662583
 20
656.667381492821
 30
0.0
 11
-390.649702742293
 21
666.234394795186
 31
0.0
  0
LINE
  5
BD
330
1F
100
AcDbEntity
  8
0-F
  6
Continuous
 62
     7
370
     9
100
AcDbLine
 10
-439.727783203125
 20
641.6675794446792
 30
0.0
 11
-462.8246822872677
 21
632.1005661423144
 31
0.0
  0
LINE
  5
BE
330
1F
100
AcDbEntity
  8
0-F
  6
Continuous
 62
     7
370
     9
100
AcDbLine
 10
-439.727783203125
 20
641.6675794446792
 30
0.0
 11
-459.5614459063555
 21
626.4485457136825
 31
0.0
  0
LINE
  5
BF
330
1F
100
AcDbEntity
  8
0-F
  6
Continuous
 62
     7
370
     9
100
AcDbLine
 10
-1452.977525865709
 20
56.66750521273229
 30
0.0
 11
-1476.074548669764
 21
47.10049191036745
 31
0.0
  0
LINE
  5
C0
330
1F
100
AcDbEntity
  8
0-F
  6
Continuous
 62
     7
370
     9
100
AcDbLine
 10
-1452.977525865709
 20
56.66750521273229
 30
0.0
 11
-1472.811312288851
 21
41.44834776182449
 31
0.0
  0
LINE
  5
C1
330
1F
100
AcDbEntity
  8
0-F
  6
Continuous
 62
     7
370
     9
100
AcDbLine
 10
-1426.996591928843
 20
71.66767842060807
 30
0.0
 11
-1407.162805505701
 21
86.88671215160468
 31
0.0
  0
LINE
  5
C2
330
1F
100
AcDbEntity
  8
0-F
  6
Continuous
 62
     7
370
     9
100
AcDbLine
 10
-1426.996591928843
 20
71.66767842060807
 30
0.0
 11
-1403.899816564611
 21
81.2346917229732
 31
0.0
  0
LINE
  5
C3
330
1F
100
AcDbEntity
  8
0-F
  6
Continuous
 62
     7
370
     9
100
AcDbLine
 10
-1511.537129170186
 20
22.8576990076013
 30
0.0
 11
-355.187245961782
 21
690.4770639780406
 31
0.0
  0
LINE
  5
C4
330
1F
100
AcDbEntity
  8
0-E
  6
Continuous
 62
     7
370
     9
100
AcDbLine
 10
-520.5564756651182
 20
1071.667513460727
 30
0.0
 11
-633.3621875659838
 21
876.2825960726352
 31
0.0
  0
LINE
  5
C5
330
1F
100
AcDbEntity
  8
0-E
  6
Continuous
 62
     7
370
     9
100
AcDbLine
 10
-633.3621875659838
 20
876.2825960726352
 30
0.0
 11
-623.7950505437078
 21
899.3796188766894
 31
0.0
  0
LINE
  5
C6
330
1F
100
AcDbEntity
  8
0-E
  6
Continuous
 62
     7
370
     9
100
AcDbLine
 10
-633.3621875659838
 20
876.2825960726352
 30
0.0
 11
-618.1431538349873
 21
896.1163824957771
 31
0.0
  0
LINE
  5
C7
330
1F
100
AcDbEntity
  8
0-0
  6
JWW_CENTER1
 62
     3
370
     9
100
AcDbLine
 10
-1666.253827069257
 20
356.6675052127323
 30
0.0
 11
825.7227717219172
 21
356.6675052127323
 31
0.0
  0
LINE
  5
C8
330
1F
100
AcDbEntity
  8
0-0
  6
JWW_CENTER1
 62
     3
370
     9
100
AcDbLine
 10
-1563.362410261824
 20
277.8109081371412
 30
0.0
 11
-1563.362410261824
 21
434.0491135055956
 31
0.0
  0
LINE
  5
C9
330
1F
100
AcDbEntity
  8
0-0
  6
Continuous
 62
     3
370
     9
100
AcDbLine
 10
-1623.362113334037
 20
-581.1703738650759
 30
0.0
 11
116.6379361539276
 21
-581.1703738650759
 31
0.0
  0
LINE
  5
CA
330
1F
100
AcDbEntity
  8
0-0
  6
Continuous
 62
     3
370
     9
100
AcDbLine
 10
116.6379361539276
 20
-581.1703738650759
 30
0.0
 11
116.6379361539276
 21
-781.1701676652239
 31
0.0
  0
LINE
  5
CB
330
1F
100
AcDbEntity
  8
0-0
  6
Continuous
 62
     3
370
     9
100
AcDbLine
 10
-1623.362113334037
 20
-781.1701676652239
 30
0.0
 11
116.6379361539276
 21
-781.1701676652239
 31
0.0
  0
LINE
  5
CC
330
1F
100
AcDbEntity
  8
0-E
  6
Continuous
 62
     7
370
     9
100
AcDbLine
 10
-188.3624515017948
 20
441.6672907648862
 30
0.0
 11
-84.4390869140625
 21
621.6675134607266
 31
0.0
  0
LINE
  5
CD
330
1F
100
AcDbEntity
  8
0-E
  6
Continuous
 62
     7
370
     9
100
AcDbLine
 10
355.5767162426099
 20
621.6675134607266
 30
0.0
 11
-84.4390869140625
 21
621.6675134607266
 31
0.0
  0
LINE
  5
CE
330
1F
100
AcDbEntity
  8
0-E
  6
Continuous
 62
     7
370
     9
100
AcDbLine
 10
-520.5564756651182
 20
1071.667513460727
 30
0.0
 11
39.58740234375
 21
1071.667513460727
 31
0.0
  0
LINE
  5
CF
330
1F
100
AcDbEntity
  8
0-9
  6
Continuous
 62
     2
370
     9
100
AcDbLine
 10
621.6381176097974
 20
-946.1702171531883
 30
0.0
 11
636.6379196579396
 21
-946.1702171531883
 31
0.0
  0
LINE
  5
D0
330
1F
100
AcDbEntity
  8
0-9
  6
Continuous
 62
     2
370
     9
100
AcDbLine
 10
556.6376557221287
 20
-795.6168179898648
 30
0.0
 11
621.6381176097974
 21
-895.6166530299831
 31
0.0
  0
LINE
  5
D1
330
1F
100
AcDbEntity
  8
0-9
  6
JWW_HOJO
 62
     2
370
     9
100
AcDbLine
 10
571.6379526499156
 20
-791.1703243771115
 30
0.0
 11
636.6379196579396
 21
-891.1701594172297
 31
0.0
  0
LINE
  5
D2
330
1F
100
AcDbEntity
  8
0-9
  6
Continuous
 62
     2
370
     9
100
AcDbLine
 10
621.6381176097974
 20
-416.1700769372888
 30
0.0
 11
636.6379196579396
 21
-416.1700769372888
 31
0.0
  0
LINE
  5
D3
330
1F
100
AcDbEntity
  8
0-9
  6
JWW_HOJO
 62
     2
370
     9
100
AcDbLine
 10
571.6379526499156
 20
-571.1703408730996
 30
0.0
 11
571.6379526499156
 21
-791.1703243771115
 31
0.0
  0
LINE
  5
D4
330
1F
100
AcDbEntity
  8
0-9
  6
JWW_HOJO
 62
     2
370
     9
100
AcDbLine
 10
571.6379526499156
 20
-571.1703408730996
 30
0.0
 11
636.6379196579396
 21
-471.1702583931587
 31
0.0
  0
LINE
  5
D5
330
1F
100
AcDbEntity
  8
0-9
  6
Continuous
 62
     2
370
     9
100
AcDbLine
 10
556.6376557221287
 20
-566.7238472603462
 30
0.0
 11
621.6381176097974
 21
-466.7237647804053
 31
0.0
  0
LINE
  5
D6
330
1F
100
AcDbEntity
  8
0-9
  6
Continuous
 62
     2
370
     9
100
AcDbLine
 10
556.6376557221287
 20
-566.7238472603462
 30
0.0
 11
556.6376557221287
 21
-795.6168179898648
 31
0.0
  0
LINE
  5
D7
330
1F
100
AcDbEntity
  8
0-9
  6
Continuous
 62
     2
370
     9
100
AcDbLine
 10
621.6381176097974
 20
-416.1700769372888
 30
0.0
 11
621.6381176097974
 21
-946.1702171531883
 31
0.0
  0
LINE
  5
D8
330
1F
100
AcDbEntity
  8
0-9
  6
Continuous
 62
     2
370
     9
100
AcDbLine
 10
781.6376557221287
 20
-633.5452188027871
 30
0.0
 11
781.6376557221287
 21
-728.7951990076012
 31
0.0
  0
LINE
  5
D9
330
1F
100
AcDbEntity
  8
0-9
  6
Continuous
 62
     2
370
     9
100
AcDbLine
 10
791.63818359375
 20
-643.5452517947634
 30
0.0
 11
791.63818359375
 21
-718.795166015625
 31
0.0
  0
LINE
  5
DA
330
1F
100
AcDbEntity
  8
0-9
  6
Continuous
 62
     2
370
     9
100
AcDbLine
 10
781.6376557221287
 20
-633.5452188027871
 30
0.0
 11
791.63818359375
 21
-643.5452517947634
 31
0.0
  0
LINE
  5
DB
330
1F
100
AcDbEntity
  8
0-9
  6
Continuous
 62
     2
370
     9
100
AcDbLine
 10
791.63818359375
 20
-718.795166015625
 30
0.0
 11
781.6376557221287
 21
-728.7951990076012
 31
0.0
  0
LINE
  5
DC
330
1F
100
AcDbEntity
  8
0-9
  6
Continuous
 62
     2
370
     9
100
AcDbLine
 10
636.6379196579396
 20
-728.7951990076012
 30
0.0
 11
781.6376557221287
 21
-728.7951990076012
 31
0.0
  0
LINE
  5
DD
330
1F
100
AcDbEntity
  8
0-9
  6
Continuous
 62
     2
370
     9
100
AcDbLine
 10
636.6379196579396
 20
-718.795166015625
 30
0.0
 11
791.63818359375
 21
-718.795166015625
 31
0.0
  0
LINE
  5
DE
330
1F
100
AcDbEntity
  8
0-9
  6
Continuous
 62
     2
370
     9
100
AcDbLine
 10
636.6379196579396
 20
-643.5452517947634
 30
0.0
 11
791.63818359375
 21
-643.5452517947634
 31
0.0
  0
LINE
  5
DF
330
1F
100
AcDbEntity
  8
0-9
  6
Continuous
 62
     2
370
     9
100
AcDbLine
 10
636.6379196579396
 20
-633.5452188027871
 30
0.0
 11
781.6376557221287
 21
-633.5452188027871
 31
0.0
  0
LINE
  5
E0
330
1F
100
AcDbEntity
  8
0-9
  6
JWW_HOJO
 62
     2
370
     9
100
AcDbLine
 10
571.6379526499156
 20
-731.1703738650759
 30
0.0
 11
621.6381176097974
 21
-731.1703738650759
 31
0.0
  0
LINE
  5
E1
330
1F
100
AcDbEntity
  8
0-9
  6
JWW_HOJO
 62
     2
370
     9
100
AcDbLine
 10
571.6379526499156
 20
-631.1700439453125
 30
0.0
 11
621.6381176097974
 21
-631.1700439453125
 31
0.0
  0
LINE
  5
E2
330
1F
100
AcDbEntity
  8
0-9
  6
JWW_HOJO
 62
     2
370
     9
100
AcDbLine
 10
636.6379196579396
 20
-643.5452517947634
 30
0.0
 11
621.6381176097974
 21
-643.5452517947634
 31
0.0
  0
LINE
  5
E3
330
1F
100
AcDbEntity
  8
0-9
  6
JWW_HOJO
 62
     2
370
     9
100
AcDbLine
 10
636.6379196579396
 20
-633.5452188027871
 30
0.0
 11
621.6381176097974
 21
-633.5452188027871
 31
0.0
  0
LINE
  5
E4
330
1F
100
AcDbEntity
  8
0-9
  6
JWW_HOJO
 62
     2
370
     9
100
AcDbLine
 10
636.6379196579396
 20
-718.795166015625
 30
0.0
 11
621.6381176097974
 21
-718.795166015625
 31
0.0
  0
LINE
  5
E5
330
1F
100
AcDbEntity
  8
0-9
  6
JWW_HOJO
 62
     2
370
     9
100
AcDbLine
 10
636.6379196579396
 20
-728.7951990076012
 30
0.0
 11
621.6381176097974
 21
-728.7951990076012
 31
0.0
  0
LINE
  5
E6
330
1F
100
AcDbEntity
  8
0-9
  6
JWW_HOJO
 62
     2
370
     9
100
AcDbLine
 10
-258.362311285895
 20
-646.1703408730996
 30
0.0
 11
21.6381176097974
 21
-646.1703408730996
 31
0.0
  0
LINE
  5
E7
330
1F
100
AcDbEntity
  8
0-9
  6
JWW_HOJO
 62
     2
370
     9
100
AcDbLine
 10
-258.362311285895
 20
-716.1700769372887
 30
0.0
 11
21.6381176097974
 21
-716.1700769372887
 31
0.0
  0
LINE
  5
E8
330
1F
100
AcDbEntity
  8
0-9
  6
Continuous
 62
     2
370
     9
100
AcDbLine
 10
621.6381176097974
 20
91.66749696473829
 30
0.0
 11
636.6379196579396
 21
91.66749696473829
 31
0.0
  0
LINE
  5
E9
330
1F
100
AcDbEntity
  8
0-9
  6
Continuous
 62
     2
370
     9
100
AcDbLine
 10
556.6376557221287
 20
242.2208961280617
 30
0.0
 11
621.6381176097974
 21
142.2210610879435
 31
0.0
  0
LINE
  5
EA
330
1F
100
AcDbEntity
  8
0-9
  6
JWW_HOJO
 62
     2
370
     9
100
AcDbLine
 10
571.6379526499156
 20
246.6673897408151
 30
0.0
 11
636.6379196579396
 21
146.6675547006969
 31
0.0
  0
LINE
  5
EB
330
1F
100
AcDbEntity
  8
0-9
  6
Continuous
 62
     2
370
     9
100
AcDbLine
 10
621.6381176097974
 20
621.6675134607266
 30
0.0
 11
636.6379196579396
 21
621.6675134607266
 31
0.0
  0
LINE
  5
EC
330
1F
100
AcDbEntity
  8
0-9
  6
Continuous
 62
     2
370
     9
100
AcDbLine
 10
636.6379196579396
 20
621.6675134607266
 30
0.0
 11
636.6379196579396
 21
91.66749696473829
 31
0.0
  0
LINE
  5
ED
330
1F
100
AcDbEntity
  8
0-9
  6
JWW_HOJO
 62
     2
370
     9
100
AcDbLine
 10
571.6379526499156
 20
466.6673732448271
 30
0.0
 11
571.6379526499156
 21
246.6673897408151
 31
0.0
  0
LINE
  5
EE
330
1F
100
AcDbEntity
  8
0-9
  6
JWW_HOJO
 62
     2
370
     9
100
AcDbLine
 10
571.6379526499156
 20
466.6673732448271
 30
0.0
 11
636.6379196579396
 21
566.6674557247679
 31
0.0
  0
LINE
  5
EF
330
1F
100
AcDbEntity
  8
0-9
  6
Continuous
 62
     2
370
     9
100
AcDbLine
 10
556.6376557221287
 20
471.1138668575802
 30
0.0
 11
621.6381176097974
 21
571.113949337521
 31
0.0
  0
LINE
  5
F0
330
1F
100
AcDbEntity
  8
0-9
  6
Continuous
 62
     2
370
     9
100
AcDbLine
 10
556.6376557221287
 20
471.1138668575802
 30
0.0
 11
556.6376557221287
 21
242.2208961280617
 31
0.0
  0
LINE
  5
F1
330
1F
100
AcDbEntity
  8
0-9
  6
Continuous
 62
     2
370
     9
100
AcDbLine
 10
621.6381176097974
 20
621.6675134607266
 30
0.0
 11
621.6381176097974
 21
91.66749696473829
 31
0.0
  0
LINE
  5
F2
330
1F
100
AcDbEntity
  8
0-9
  6
Continuous
 62
     2
370
     9
100
AcDbLine
 10
781.6376557221287
 20
404.2924953151396
 30
0.0
 11
781.6376557221287
 21
309.0425151103253
 31
0.0
  0
LINE
  5
F3
330
1F
100
AcDbEntity
  8
0-9
  6
Continuous
 62
     2
370
     9
100
AcDbLine
 10
791.63818359375
 20
394.292462323163
 30
0.0
 11
791.63818359375
 21
319.0425481023016
 31
0.0
  0
LINE
  5
F4
330
1F
100
AcDbEntity
  8
0-9
  6
Continuous
 62
     2
370
     9
100
AcDbLine
 10
781.6376557221287
 20
404.2924953151396
 30
0.0
 11
791.63818359375
 21
394.292462323163
 31
0.0
  0
LINE
  5
F5
330
1F
100
AcDbEntity
  8
0-9
  6
Continuous
 62
     2
370
     9
100
AcDbLine
 10
791.63818359375
 20
319.0425481023016
 30
0.0
 11
781.6376557221287
 21
309.0425151103253
 31
0.0
  0
LINE
  5
F6
330
1F
100
AcDbEntity
  8
0-9
  6
Continuous
 62
     2
370
     9
100
AcDbLine
 10
636.6379196579396
 20
309.0425151103253
 30
0.0
 11
781.6376557221287
 21
309.0425151103253
 31
0.0
  0
LINE
  5
F7
330
1F
100
AcDbEntity
  8
0-9
  6
Continuous
 62
     2
370
     9
100
AcDbLine
 10
636.6379196579396
 20
319.0425481023016
 30
0.0
 11
791.63818359375
 21
319.0425481023016
 31
0.0
  0
LINE
  5
F8
330
1F
100
AcDbEntity
  8
0-9
  6
Continuous
 62
     2
370
     9
100
AcDbLine
 10
636.6379196579396
 20
394.292462323163
 30
0.0
 11
791.63818359375
 21
394.292462323163
 31
0.0
  0
LINE
  5
F9
330
1F
100
AcDbEntity
  8
0-9
  6
Continuous
 62
     2
370
     9
100
AcDbLine
 10
636.6379196579396
 20
404.2924953151396
 30
0.0
 11
781.6376557221287
 21
404.2924953151396
 31
0.0
  0
LINE
  5
FA
330
1F
100
AcDbEntity
  8
0-9
  6
JWW_HOJO
 62
     2
370
     9
100
AcDbLine
 10
571.6379526499156
 20
306.6673402528505
 30
0.0
 11
621.6381176097974
 21
306.6673402528505
 31
0.0
  0
LINE
  5
FB
330
1F
100
AcDbEntity
  8
0-9
  6
JWW_HOJO
 62
     2
370
     9
100
AcDbLine
 10
571.6379526499156
 20
406.6676701726141
 30
0.0
 11
621.6381176097974
 21
406.6676701726141
 31
0.0
  0
LINE
  5
FC
330
1F
100
AcDbEntity
  8
0-9
  6
JWW_HOJO
 62
     2
370
     9
100
AcDbLine
 10
636.6379196579396
 20
394.292462323163
 30
0.0
 11
621.6381176097974
 21
394.292462323163
 31
0.0
  0
LINE
  5
FD
330
1F
100
AcDbEntity
  8
0-9
  6
JWW_HOJO
 62
     2
370
     9
100
AcDbLine
 10
636.6379196579396
 20
404.2924953151396
 30
0.0
 11
621.6381176097974
 21
404.2924953151396
 31
0.0
  0
LINE
  5
FE
330
1F
100
AcDbEntity
  8
0-9
  6
JWW_HOJO
 62
     2
370
     9
100
AcDbLine
 10
636.6379196579396
 20
319.0425481023016
 30
0.0
 11
621.6381176097974
 21
319.0425481023016
 31
0.0
  0
LINE
  5
FF
330
1F
100
AcDbEntity
  8
0-9
  6
JWW_HOJO
 62
     2
370
     9
100
AcDbLine
 10
636.6379196579396
 20
309.0425151103253
 30
0.0
 11
621.6381176097974
 21
309.0425151103253
 31
0.0
  0
LINE
  5
100
330
1F
100
AcDbEntity
  8
0-9
  6
Continuous
 62
     2
370
     9
100
AcDbLine
 10
-363.3624102618242
 20
341.6674557247677
 30
0.0
 11
-363.3624102618242
 21
371.6675547006969
 31
0.0
  0
LINE
  5
101
330
1F
100
AcDbEntity
  8
0-9
  6
Continuous
 62
     2
370
     9
100
AcDbLine
 10
-363.3624102618242
 20
371.6675547006969
 30
0.0
 11
556.6376557221287
 21
371.6675547006969
 31
0.0
  0
LINE
  5
102
330
1F
100
AcDbEntity
  8
0-9
  6
Continuous
 62
     2
370
     9
100
AcDbLine
 10
-363.3624102618242
 20
341.6674557247677
 30
0.0
 11
556.6376557221287
 21
341.6674557247677
 31
0.0
  0
LINE
  5
103
330
1F
100
AcDbEntity
  8
0-9
  6
JWW_HOJO
 62
     2
370
     9
100
AcDbLine
 10
-293.3621793179898
 20
341.6674557247677
 30
0.0
 11
-293.3621793179898
 21
371.6675547006969
 31
0.0
  0
LINE
  5
104
330
1F
100
AcDbEntity
  8
0-9
  6
JWW_HOJO
 62
     2
370
     9
100
AcDbLine
 10
56.63798564189193
 20
341.6674557247677
 30
0.0
 11
56.63798564189193
 21
371.6675547006969
 31
0.0
  0
LINE
  5
105
330
1F
100
AcDbEntity
  8
0-9
  6
Continuous
 62
     2
370
     9
100
AcDbLine
 10
636.6379196579396
 20
-416.1700769372888
 30
0.0
 11
636.6379196579396
 21
-946.1702171531883
 31
0.0
  0
LINE
  5
106
330
1F
100
AcDbEntity
  8
0-9
  6
JWW_CENTER1
 62
     2
370
     9
100
AcDbLine
 10
636.6379196579396
 20
-681.1702089051943
 30
0.0
 11
831.2473606418922
 21
-681.1702089051943
 31
0.0
  0
LINE
  5
107
330
1F
100
AcDbEntity
  8
0-9
  6
Continuous
 62
     2
370
     9
100
AcDbLine
 10
116.6379361539276
 20
-581.1703738650759
 30
0.0
 11
556.6376557221287
 21
-581.1703738650759
 31
0.0
  0
LINE
  5
108
330
1F
100
AcDbEntity
  8
0-9
  6
Continuous
 62
     2
370
     9
100
AcDbLine
 10
116.6379361539276
 20
-781.1700439453125
 30
0.0
 11
556.6376557221287
 21
-781.1700439453125
 31
0.0
  0
LINE
  5
109
330
1F
100
AcDbEntity
  8
0-4
  6
Continuous
 62
     7
370
     9
100
AcDbLine
 10
867.8249049831084
 20
-624.0242293074324
 30
0.0
 11
867.8249049831084
 21
-794.0244190112963
 31
0.0
  0
LINE
  5
10A
330
1F
100
AcDbEntity
  8
0-4
  6
Continuous
 62
     7
370
     9
100
AcDbLine
 10
867.8249049831084
 20
-624.0242293074324
 30
0.0
 11
1867.824740023227
 21
-624.0242293074324
 31
0.0
  0
LINE
  5
10B
330
1F
100
AcDbEntity
  8
0-4
  6
Continuous
 62
     7
370
     9
100
AcDbLine
 10
867.8249049831084
 20
-794.0244190112963
 30
0.0
 11
1867.824740023227
 21
-794.0244190112963
 31
0.0
  0
LINE
  5
10C
330
1F
100
AcDbEntity
  8
0-4
  6
Continuous
 62
     7
370
     9
100
AcDbLine
 10
867.8249049831084
 20
-694.0242128114443
 30
0.0
 11
1867.824740023227
 21
-694.0242128114443
 31
0.0
  0
LINE
  5
10D
330
1F
100
AcDbEntity
  8
0-4
  6
Continuous
 62
     7
370
     9
100
AcDbLine
 10
1867.824740023227
 20
-624.0242293074324
 30
0.0
 11
1867.824740023227
 21
-794.0244190112963
 31
0.0
  0
LINE
  5
10E
330
1F
100
AcDbEntity
  8
0-4
  6
Continuous
 62
     7
370
     9
100
AcDbLine
 10
867.8249049831084
 20
-689.0243200353673
 30
0.0
 11
1867.824740023227
 21
-689.0243200353673
 31
0.0
  0
LINE
  5
10F
330
1F
100
AcDbEntity
  8
0-4
  6
Continuous
 62
     7
370
     9
100
AcDbLine
 10
967.824987463049
 20
-694.0242128114443
 30
0.0
 11
967.824987463049
 21
-794.0244190112963
 31
0.0
  0
LINE
  5
110
330
1F
100
AcDbEntity
  8
0-4
  6
Continuous
 62
     7
370
     9
100
AcDbLine
 10
1067.824822503167
 20
-694.0242128114443
 30
0.0
 11
1067.824822503167
 21
-794.0244190112963
 31
0.0
  0
LINE
  5
111
330
1F
100
AcDbEntity
  8
0-4
  6
Continuous
 62
     7
370
     9
100
AcDbLine
 10
1167.824904983108
 20
-694.0242128114443
 30
0.0
 11
1167.824904983108
 21
-794.0244190112963
 31
0.0
  0
LINE
  5
112
330
1F
100
AcDbEntity
  8
0-4
  6
Continuous
 62
     7
370
     9
100
AcDbLine
 10
1267.824987463049
 20
-694.0242128114443
 30
0.0
 11
1267.824987463049
 21
-794.0244190112963
 31
0.0
  0
LINE
  5
113
330
1F
100
AcDbEntity
  8
0-4
  6
Continuous
 62
     7
370
     9
100
AcDbLine
 10
1367.824822503167
 20
-694.0242128114443
 30
0.0
 11
1367.824822503167
 21
-794.0244190112963
 31
0.0
  0
LINE
  5
114
330
1F
100
AcDbEntity
  8
0-4
  6
Continuous
 62
     7
370
     9
100
AcDbLine
 10
1467.824904983108
 20
-694.0242128114443
 30
0.0
 11
1467.824904983108
 21
-794.0244190112963
 31
0.0
  0
LINE
  5
115
330
1F
100
AcDbEntity
  8
0-4
  6
Continuous
 62
     7
370
     9
100
AcDbLine
 10
1567.824987463049
 20
-694.0242128114443
 30
0.0
 11
1567.824987463049
 21
-794.0244190112963
 31
0.0
  0
LINE
  5
116
330
1F
100
AcDbEntity
  8
0-4
  6
Continuous
 62
     7
370
     9
100
AcDbLine
 10
883.9030497782943
 20
-1069.770615036423
 30
0.0
 11
1694.246199324325
 21
-1069.770615036423
 31
0.0
  0
LINE
  5
117
330
1F
100
AcDbEntity
  8
0-4
  6
Continuous
 62
     7
370
     9
100
AcDbLine
 10
883.9030497782943
 20
-909.7708294842694
 30
0.0
 11
1829.24614983636
 21
-909.7708294842694
 31
0.0
  0
LINE
  5
118
330
1F
100
AcDbEntity
  8
0-4
  6
Continuous
 62
     7
370
     9
100
AcDbLine
 10
883.9030497782943
 20
-989.7705985404349
 30
0.0
 11
1851.746347788218
 21
-989.7705985404349
 31
0.0
  0
LINE
  5
119
330
1F
100
AcDbEntity
  8
0-4
  6
Continuous
 62
     7
370
     9
100
AcDbLine
 10
1667.82506994299
 20
-694.0242128114443
 30
0.0
 11
1667.82506994299
 21
-794.0244190112963
 31
0.0
  0
LINE
  5
11A
330
1F
100
AcDbEntity
  8
0-4
  6
Continuous
 62
     7
370
     9
100
AcDbLine
 10
1767.824904983108
 20
-694.0242128114443
 30
0.0
 11
1767.824904983108
 21
-794.0244190112963
 31
0.0
  0
CIRCLE
  5
11B
330
1F
100
AcDbEntity
  8
0-2
  6
Continuous
 62
     4
370
     9
100
AcDbCircle
 10
-188.1275073902026
 20
-681.1702089051943
 30
0.0
 40
49.99999097875647
  0
CIRCLE
  5
11C
330
1F
100
AcDbEntity
  8
0-2
  6
Continuous
 62
     4
370
     9
100
AcDbCircle
 10
11.87265756967918
 20
-681.1702089051943
 30
0.0
 40
49.99999097875647
  0
ARC
  5
11D
330
1F
100
AcDbEntity
  8
0-2
  6
Continuous
 62
     4
370
     9
100
AcDbCircle
 10
-230.987548828125
 20
422.6676239838471
 30
0.0
 40
18.99999927830052
100
AcDbArc
 50
48.35789489746093
 51
131.6421203613281
  0
ARC
  5
11E
330
1F
100
AcDbEntity
  8
0-2
  6
Continuous
 62
     4
370
     9
100
AcDbCircle
 10
-145.737601615287
 20
422.6676239838471
 30
0.0
 40
18.99999927830052
100
AcDbArc
 50
48.35787963867188
 51
131.6421051025391
  0
ARC
  5
11F
330
1F
100
AcDbEntity
  8
0-2
  6
Continuous
 62
     4
370
     9
100
AcDbCircle
 10
-188.362575221706
 20
345.5340741131758
 30
0.0
 40
96.13323984919369
100
AcDbArc
 50
71.81625366210938
 51
108.1837463378906
  0
ARC
  5
120
330
1F
100
AcDbEntity
  8
0-2
  6
Continuous
 62
     4
370
     9
100
AcDbCircle
 10
-30.98738386824323
 20
422.6676239838471
 30
0.0
 40
18.99999927830052
100
AcDbArc
 50
48.35789489746093
 51
131.6421203613281
  0
ARC
  5
121
330
1F
100
AcDbEntity
  8
0-2
  6
Continuous
 62
     4
370
     9
100
AcDbCircle
 10
54.26256334459481
 20
422.6676239838471
 30
0.0
 40
18.99999927830052
100
AcDbArc
 50
48.35787963867188
 51
131.6421051025391
  0
ARC
  5
122
330
1F
100
AcDbEntity
  8
0-2
  6
Continuous
 62
     4
370
     9
100
AcDbCircle
 10
11.63758973817579
 20
345.5340741131758
 30
0.0
 40
96.13323984919369
100
AcDbArc
 50
71.81625366210938
 51
108.1837463378906
  0
ARC
  5
123
330
1F
100
AcDbEntity
  8
0-2
  6
Continuous
 62
     4
370
     9
100
AcDbCircle
 10
-145.2959215318833
 20
285.3464404956716
 30
0.0
 40
23.67928930231043
100
AcDbArc
 50
232.4427795410156
 51
307.5572204589844
  0
ARC
  5
124
330
1F
100
AcDbEntity
  8
0-2
  6
Continuous
 62
     4
370
     9
100
AcDbCircle
 10
-188.3620803420607
 20
347.6465915989232
 30
0.0
 40
85.97918330012142
100
AcDbArc
 50
250.5480041503907
 51
289.4519958496094
  0
ARC
  5
125
330
1F
100
AcDbEntity
  8
0-2
  6
Continuous
 62
     4
370
     9
100
AcDbCircle
 10
-231.4284865920607
 20
285.3464404956716
 30
0.0
 40
23.67928930231043
100
AcDbArc
 50
232.4427795410156
 51
307.5572204589844
  0
ARC
  5
126
330
1F
100
AcDbEntity
  8
0-2
  6
Continuous
 62
     4
370
     9
100
AcDbCircle
 10
54.70449086782111
 20
285.3464404956716
 30
0.0
 40
23.67928930231043
100
AcDbArc
 50
232.4427795410156
 51
307.5572204589844
  0
ARC
  5
127
330
1F
100
AcDbEntity
  8
0-2
  6
Continuous
 62
     4
370
     9
100
AcDbCircle
 10
11.63808461782111
 20
347.6465915989232
 30
0.0
 40
85.97918330012142
100
AcDbArc
 50
250.5480041503907
 51
289.4519958496094
  0
ARC
  5
128
330
1F
100
AcDbEntity
  8
0-2
  6
Continuous
 62
     4
370
     9
100
AcDbCircle
 10
-31.42832163217889
 20
285.3464404956716
 30
0.0
 40
23.67928930231043
100
AcDbArc
 50
232.4427795410156
 51
307.5572204589844
  0
CIRCLE
  5
129
330
1F
100
AcDbEntity
  8
0-2
  6
Continuous
 62
     4
370
     9
100
AcDbCircle
 10
-188.3624515017948
 20
-681.1702089051943
 30
0.0
 40
24.58512589738176
  0
CIRCLE
  5
12A
330
1F
100
AcDbEntity
  8
0-2
  6
Continuous
 62
     4
370
     9
100
AcDbCircle
 10
-188.3624515017948
 20
-681.1702089051943
 30
0.0
 40
30.00009897592906
  0
CIRCLE
  5
12B
330
1F
100
AcDbEntity
  8
0-2
  6
Continuous
 62
     4
370
     9
100
AcDbCircle
 10
11.63808461782111
 20
-681.1702089051943
 30
0.0
 40
24.58512589738176
  0
CIRCLE
  5
12C
330
1F
100
AcDbEntity
  8
0-2
  6
Continuous
 62
     4
370
     9
100
AcDbCircle
 10
11.63808461782111
 20
-681.1702089051943
 30
0.0
 40
30.00009897592906
  0
ARC
  5
12D
330
1F
100
AcDbEntity
  8
0-0
  6
Continuous
 62
     3
370
     9
100
AcDbCircle
 10
-933.3621875659838
 20
356.6675052127323
 30
0.0
 40
570.0000247439823
100
AcDbArc
 50
179.9999847412109
 51
353.9821166992188
  0
ARC
  5
12E
330
1F
100
AcDbEntity
  8
0-0
  6
Continuous
 62
     3
370
     9
100
AcDbCircle
 10
-933.3621875659838
 20
356.6675052127323
 30
0.0
 40
570.0000247439823
100
AcDbArc
 50
6.017868041992187
 51
179.9999847412109
  0
ARC
  5
12F
330
1F
100
AcDbEntity
  8
0-0
  6
Continuous
 62
     3
370
     9
100
AcDbCircle
 10
-1563.362410261824
 20
-590.0764754011824
 30
0.0
 40
28.90625064437454
100
AcDbArc
 50
17.94525146484375
 51
162.0547332763672
  0
ARC
  5
130
330
1F
100
AcDbEntity
  8
0-0
  6
Continuous
 62
     3
370
     9
100
AcDbCircle
 10
-1563.362410261824
 20
356.6675052127323
 30
0.0
 40
60.00000077324945
100
AcDbArc
 50
57.00576782226563
 51
0.0
  0
CIRCLE
  5
131
330
1F
100
AcDbEntity
  8
0-0
  6
Continuous
 62
     3
370
     9
100
AcDbCircle
 10
-1563.362410261824
 20
356.6675052127323
 30
0.0
 40
30.00000038662472
  0
ARC
  5
132
330
1F
100
AcDbEntity
  8
0-0
  6
Continuous
 62
     3
370
     9
100
AcDbCircle
 10
-933.3621875659838
 20
356.6675052127323
 30
0.0
 40
600.0
100
AcDbArc
 50
184.8438110351562
 51
353.9821166992188
  0
ARC
  5
133
330
1F
100
AcDbEntity
  8
0-0
  6
Continuous
 62
     3
370
     9
100
AcDbCircle
 10
-316.7792655326224
 20
421.667472220756
 30
0.0
 40
20.00000025774982
100
AcDbArc
 50
186.0178680419922
 51
270.0
  0
ARC
  5
134
330
1F
100
AcDbEntity
  8
0-0
  6
Continuous
 62
     3
370
     9
100
AcDbCircle
 10
-316.7792655326224
 20
291.6674144847974
 30
0.0
 40
20.00000025774982
100
AcDbArc
 50
89.99996948242188
 51
173.9821166992187
  0
ARC
  5
135
330
1F
100
AcDbEntity
  8
0-0
  6
Continuous
 62
     3
370
     9
100
AcDbCircle
 10
-316.7792655326224
 20
421.667472220756
 30
0.0
 40
50.00000257749815
100
AcDbArc
 50
186.0178680419922
 51
270.0
  0
ARC
  5
136
330
1F
100
AcDbEntity
  8
0-0
  6
Continuous
 62
     3
370
     9
100
AcDbCircle
 10
-316.7792655326224
 20
291.6674144847974
 30
0.0
 40
50.00000257749815
100
AcDbArc
 50
89.99998474121094
 51
173.9821166992188
  0
ARC
  5
137
330
1F
100
AcDbEntity
  8
0-0
  6
Continuous
 62
     3
370
     9
100
AcDbCircle
 10
-933.3621875659838
 20
356.6675052127323
 30
0.0
 40
600.0
100
AcDbArc
 50
6.017868041992187
 51
179.9999847412109
  0
ARC
  5
138
330
1F
100
AcDbEntity
  8
0-9
  6
JWW_HOJO
 62
     2
370
     9
100
AcDbCircle
 10
-258.362311285895
 20
-681.1702089051943
 30
0.0
 40
34.99999175200591
100
AcDbArc
 50
90.0
 51
270.0
  0
ARC
  5
139
330
1F
100
AcDbEntity
  8
0-9
  6
JWW_HOJO
 62
     2
370
     9
100
AcDbCircle
 10
21.6381176097974
 20
-681.1702089051943
 30
0.0
 40
34.99999175200591
100
AcDbArc
 50
270.0
 51
90.0
  0
ARC
  5
13A
330
1F
100
AcDbEntity
  8
0-9
  6
JWW_HOJO
 62
     2
370
     9
100
AcDbCircle
 10
-213.3624102618242
 20
-681.1702089051943
 30
0.0
 40
150.0
100
AcDbArc
 50
138.1897125244141
 51
221.8102874755859
  0
TEXT
  5
13B
330
1F
100
AcDbEntity
  8
0-F
  6
Continuous
 62
     2
370
     9
100
AcDbText
 10
-109.6121215820311
 20
7.307694916596361
 30
0.0
 40
30.48
  1
20
 41
1.0625
  7
ＭＳ ゴシック
100
AcDbText
  0
TEXT
  5
13C
330
1F
100
AcDbEntity
  8
0-F
  6
Continuous
 62
     2
370
     9
100
AcDbText
 10
20.38776294605171
 20
7.307694916596361
 30
0.0
 40
30.48
  1
10.5
 41
1.09375
  7
ＭＳ ゴシック
100
AcDbText
  0
TEXT
  5
13D
330
1F
100
AcDbEntity
  8
0-F
  6
Continuous
 62
     2
370
     9
100
AcDbText
 10
670.3879279059333
 20
-92.69226384343334
 30
0.0
 40
30.48
  1
15.5
 41
1.09375
  7
ＭＳ ゴシック
100
AcDbText
  0
TEXT
  5
13E
330
1F
100
AcDbEntity
  8
0-F
  6
Continuous
 62
     2
370
     9
100
AcDbText
 10
-876.009391202597
 20
402.0662057751368
 30
0.0
 40
30.48
  1
φ114
 50
29.99995643859645
 41
1.1
  7
ＭＳ ゴシック
100
AcDbText
  0
TEXT
  5
13F
330
1F
100
AcDbEntity
  8
0-F
  6
Continuous
 62
     2
370
     9
100
AcDbText
 10
-1789.002392836969
 20
-702.4204565915492
 30
0.0
 40
30.48
  1
20
 50
90.00000250447816
 41
1.062500000000001
  7
ＭＳ ゴシック
100
AcDbText
  0
TEXT
  5
140
330
1F
100
AcDbEntity
  8
0-F
  6
Continuous
 62
     7
370
     9
100
AcDbText
 10
850.7376758472342
 20
-511.0018676097973
 30
0.0
 40
22.86
  1
Ｗ３／８
 41
1.125
  7
ＭＳ ゴシック
100
AcDbText
  0
TEXT
  5
141
330
1F
100
AcDbEntity
  8
0-F
  6
Continuous
 62
     2
370
     9
100
AcDbText
 10
925.9979050743244
 20
312.9175668261558
 30
0.0
 40
30.48
  1
φ53
 50
90.00000250447816
 41
1.09375
  7
ＭＳ ゴシック
100
AcDbText
  0
TEXT
  5
142
330
1F
100
AcDbEntity
  8
0-E
  6
Continuous
 62
     7
370
     9
100
AcDbText
 10
-408.7862829259923
 20
1088.028993084882
 30
0.0
 40
22.86
  1
本体：ＳＵＳ３０４
 41
1.148148148148148
  7
ＭＳ ゴシック
100
AcDbText
  0
TEXT
  5
143
330
1F
100
AcDbEntity
  8
0-E
  6
Continuous
 62
     7
370
     9
100
AcDbText
 10
-74.9472293338259
 20
640.6271112225509
 30
0.0
 40
22.86
  1
六角ボルト：ＳＵＳ３０４
 41
1.152777777777778
  7
ＭＳ ゴシック
100
AcDbText
  0
TEXT
  5
144
330
1F
100
AcDbEntity
  8
0-E
  6
Continuous
 62
     7
370
     9
100
AcDbText
 10
53.71773384712853
 20
583.5260419525971
 30
0.0
 40
22.86
  1
Ｍ６×２５
 41
1.133333333333333
  7
ＭＳ ゴシック
100
AcDbText
  0
TEXT
  5
145
330
1F
100
AcDbEntity
  8
0-E
  6
Continuous
 62
     7
370
     9
100
AcDbText
 10
745.1741893871412
 20
787.0897115181589
 30
0.0
 40
22.86
  1
支持金具：ＳＵＳ３０４
 41
1.151515151515152
  7
ＭＳ ゴシック
100
AcDbText
  0
TEXT
  5
146
330
1F
100
AcDbEntity
  8
0-E
  6
Continuous
 62
     7
370
     9
100
AcDbText
 10
736.1580348659209
 20
737.5017813027873
 30
0.0
 40
22.86
  1
ヘアライン仕上＋電解研磨
 41
1.152777777777778
  7
ＭＳ ゴシック
100
AcDbText
  0
TEXT
  5
147
330
1F
100
AcDbEntity
  8
0-F
  6
Continuous
 62
     2
370
     9
100
AcDbText
 10
-389.9658150287945
 20
682.6831351091569
 30
0.0
 40
30.48
  1
3
 50
30.0000349857719
 41
0.9999999999999988
  7
ＭＳ ゴシック
100
AcDbText
  0
TEXT
  5
148
330
1F
100
AcDbEntity
  8
0-F
  6
Continuous
 62
     2
370
     9
100
AcDbText
 10
-1504.718867844608
 20
39.08038525240735
 30
0.0
 40
30.48
  1
3
 50
30.00012377823112
 41
1.000000000000006
  7
ＭＳ ゴシック
100
AcDbText
  0
TEXT
  5
149
330
1F
100
AcDbEntity
  8
0-F
  6
Continuous
 62
     2
370
     9
100
AcDbText
 10
104.1377134580871
 20
-92.69226384343334
 30
0.0
 40
30.48
  1
Ａ
 41
0.9999999999999998
  7
ＭＳ ゴシック
100
AcDbText
  0
TEXT
  5
14A
330
1F
100
AcDbEntity
  8
0-E
  6
Continuous
 62
     7
370
     9
100
AcDbText
 10
-515.4125852842589
 20
1035.686067884291
 30
0.0
 40
22.86
  1
ヘアライン仕上＋セラミック系塗装
 41
1.15625
  7
ＭＳ ゴシック
100
AcDbText
  0
TEXT
  5
14B
330
1F
100
AcDbEntity
  8
0-4
  6
Continuous
 62
     2
370
     9
100
AcDbText
 10
1302.824822503168
 20
-670.8842787953969
 30
0.0
 40
30.48
  1
Ａ寸法
 41
1.083333333333333
  7
ＭＳ ゴシック
100
AcDbText
  0
TEXT
  5
14C
330
1F
100
AcDbEntity
  8
0-4
  6
Continuous
 62
     2
370
     9
100
AcDbText
 10
896.574698783256
 20
-758.3843200353673
 30
0.0
 40
30.48
  1
60
 41
1.0625
  7
ＭＳ ゴシック
100
AcDbText
  0
TEXT
  5
14D
330
1F
100
AcDbEntity
  8
0-4
  6
Continuous
 62
     2
370
     9
100
AcDbText
 10
996.5750287030196
 20
-758.3843200353673
 30
0.0
 40
30.48
  1
70
 41
1.0625
  7
ＭＳ ゴシック
100
AcDbText
  0
TEXT
  5
14E
330
1F
100
AcDbEntity
  8
0-4
  6
Continuous
 62
     2
370
     9
100
AcDbText
 10
1096.574863743138
 20
-758.3843200353673
 30
0.0
 40
30.48
  1
80
 41
1.0625
  7
ＭＳ ゴシック
100
AcDbText
  0
TEXT
  5
14F
330
1F
100
AcDbEntity
  8
0-4
  6
Continuous
 62
     2
370
     9
100
AcDbText
 10
1196.574698783256
 20
-758.3843200353673
 30
0.0
 40
30.48
  1
90
 41
1.0625
  7
ＭＳ ゴシック
100
AcDbText
  0
TEXT
  5
150
330
1F
100
AcDbEntity
  8
0-4
  6
Continuous
 62
     2
370
     9
100
AcDbText
 10
1285.324904983108
 20
-758.3843200353673
 30
0.0
 40
30.48
  1
100
 41
1.083333333333333
  7
ＭＳ ゴシック
100
AcDbText
  0
TEXT
  5
151
330
1F
100
AcDbEntity
  8
0-4
  6
Continuous
 62
     2
370
     9
100
AcDbText
 10
1385.324987463049
 20
-758.3843200353673
 30
0.0
 40
30.48
  1
110
 41
1.083333333333333
  7
ＭＳ ゴシック
100
AcDbText
  0
TEXT
  5
152
330
1F
100
AcDbEntity
  8
0-4
  6
Continuous
 62
     2
370
     9
100
AcDbText
 10
1485.324822503168
 20
-758.3843200353673
 30
0.0
 40
30.48
  1
120
 41
1.083333333333333
  7
ＭＳ ゴシック
100
AcDbText
  0
TEXT
  5
153
330
1F
100
AcDbEntity
  8
0-4
  6
Continuous
 62
     2
370
     9
100
AcDbText
 10
889.2462323163008
 20
-1053.460267564928
 30
0.0
 40
30.48
  1
※御注文の際は、Ａ寸法を御指示下さい
 41
1.118055555555555
  7
ＭＳ ゴシック
100
AcDbText
  0
TEXT
  5
154
330
1F
100
AcDbEntity
  8
0-4
  6
Continuous
 62
     2
370
     9
100
AcDbText
 10
889.2463065482477
 20
-973.4602510689401
 30
0.0
 40
30.48
  1
※Ａ寸法は、0～＋10ｍｍの範囲で調節可能です
 41
1.119186046511628
  7
ＭＳ ゴシック
100
AcDbText
  0
TEXT
  5
155
330
1F
100
AcDbEntity
  8
0-4
  6
Continuous
 62
     2
370
     9
100
AcDbText
 10
889.2462075723186
 20
-893.4602345729519
 30
0.0
 40
30.48
  1
※この図面は、Ａ寸法１００で作図しています
 41
1.119047619047619
  7
ＭＳ ゴシック
100
AcDbText
  0
TEXT
  5
156
330
1F
100
AcDbEntity
  8
0-4
  6
Continuous
 62
     2
370
     9
100
AcDbText
 10
1785.324822503168
 20
-758.3843200353673
 30
0.0
 40
30.48
  1
150
 41
1.083333333333333
  7
ＭＳ ゴシック
100
AcDbText
  0
TEXT
  5
157
330
1F
100
AcDbEntity
  8
0-4
  6
Continuous
 62
     2
370
     9
100
AcDbText
 10
1585.324904983108
 20
-758.3843200353673
 30
0.0
 40
30.48
  1
130
 41
1.083333333333333
  7
ＭＳ ゴシック
100
AcDbText
  0
TEXT
  5
158
330
1F
100
AcDbEntity
  8
0-4
  6
Continuous
 62
     2
370
     9
100
AcDbText
 10
1685.324987463049
 20
-758.3843200353673
 30
0.0
 40
30.48
  1
140
 41
1.083333333333333
  7
ＭＳ ゴシック
100
AcDbText
  0
TEXT
  5
159
330
1F
100
AcDbEntity
  8
F-5
  6
Continuous
 62
     2
370
     9
100
AcDbText
 10
-781.767124485325
 20
-1351.762582941829
 30
0.0
 40
30.48
  1
ステンレス　つかみ金物　蝶番タイプ　ＴＳ－１－１００
 41
1.120192307692307
  7
ＭＳ ゴシック
100
AcDbText
  0
ENDSEC
  0
SECTION
  2
OBJECTS
  0
DICTIONARY
  5
C
330
0
100
AcDbDictionary
281
     1
  3
ACAD_GROUP
350
D
  3
ACAD_LAYOUT
350
1A
  3
ACAD_MLEADERSTYLE
350
15B
  3
ACAD_MLINESTYLE
350
17
  3
ACAD_PLOTSETTINGS
350
19
  3
ACAD_PLOTSTYLENAME
350
E
  3
ACAD_TABLESTYLE
350
15A
  3
ACAD_VISUALSTYLE
350
2A
  3
AcDbVariableDictionary
350
15C
  0
DICTIONARY
  5
D
102
{ACAD_REACTORS
330
C
102
}
330
C
100
AcDbDictionary
281
     1
  0
DICTIONARY
  5
1A
102
{ACAD_REACTORS
330
C
102
}
330
C
100
AcDbDictionary
281
     1
  3
Layout1
350
1E
  3
Layout2
350
26
  3
Model
350
22
  0
DICTIONARY
  5
15B
102
{ACAD_REACTORS
330
C
102
}
330
C
100
AcDbDictionary
281
     1
  0
DICTIONARY
  5
17
102
{ACAD_REACTORS
330
C
102
}
330
C
100
AcDbDictionary
281
     1
  3
Standard
350
18
  0
DICTIONARY
  5
19
102
{ACAD_REACTORS
330
C
102
}
330
C
100
AcDbDictionary
281
     1
  0
ACDBDICTIONARYWDFLT
  5
E
102
{ACAD_REACTORS
330
C
102
}
330
C
100
AcDbDictionary
281
     1
  3
Normal
350
F
100
AcDbDictionaryWithDefault
340
F
  0
DICTIONARY
  5
15A
102
{ACAD_REACTORS
330
C
102
}
330
C
100
AcDbDictionary
281
     1
  0
DICTIONARY
  5
2A
102
{ACAD_REACTORS
330
C
102
}
330
C
100
AcDbDictionary
281
     1
  3
2dWireframe
350
2F
  3
3D Hidden
350
31
  3
3dWireframe
350
30
  3
Basic
350
32
  3
Brighten
350
36
  3
ColorChange
350
3A
  3
Conceptual
350
34
  3
Dim
350
35
  3
Facepattern
350
39
  3
Flat
350
2B
  3
FlatWithEdges
350
2C
  3
Gouraud
350
2D
  3
GouraudWithEdges
350
2E
  3
Linepattern
350
38
  3
Realistic
350
33
  3
Thicken
350
37
  0
DICTIONARY
  5
15C
102
{ACAD_REACTORS
330
C
102
}
330
C
100
AcDbDictionary
281
     1
  3
PSOLHEIGHT
350
15E
  3
PSOLWIDTH
350
15D
  0
LAYOUT
  5
1E
102
{ACAD_REACTORS
330
1A
102
}
102
{ACAD_XDICTIONARY
360
15F
102
}
330
1A
100
AcDbPlotSettings
  1

  2
none_device
  4

  6

 40
0.0
 41
0.0
 42
0.0
 43
0.0
 44
0.0
 45
0.0
 46
0.0
 47
0.0
 48
0.0
 49
0.0
140
0.0
141
0.0
142
1.0
143
1.0
 70
   688
 72
     0
 73
     0
 74
     5
  7

 75
    16
147
1.0
148
0.0
149
0.0
100
AcDbLayout
  1
Layout1
 70
     1
 71
     1
 10
0.0
 20
0.0
 11
420.0
 21
297.0
 12
0.0
 22
0.0
 32
0.0
 14
1.000000000000000E+20
 24
1.000000000000000E+20
 34
1.000000000000000E+20
 15
-1.000000000000000E+20
 25
-1.000000000000000E+20
 35
-1.000000000000000E+20
146
0.0
 13
0.0
 23
0.0
 33
0.0
 16
1.0
 26
0.0
 36
0.0
 17
0.0
 27
1.0
 37
0.0
 76
     0
330
1B
  0
LAYOUT
  5
26
102
{ACAD_REACTORS
330
1A
102
}
102
{ACAD_XDICTIONARY
360
163
102
}
330
1A
100
AcDbPlotSettings
  1

  2
none_device
  4

  6

 40
0.0
 41
0.0
 42
0.0
 43
0.0
 44
0.0
 45
0.0
 46
0.0
 47
0.0
 48
0.0
 49
0.0
140
0.0
141
0.0
142
1.0
143
1.0
 70
   688
 72
     0
 73
     0
 74
     5
  7

 75
    16
147
1.0
148
0.0
149
0.0
100
AcDbLayout
  1
Layout2
 70
     1
 71
     2
 10
0.0
 20
0.0
 11
0.0
 21
0.0
 12
0.0
 22
0.0
 32
0.0
 14
0.0
 24
0.0
 34
0.0
 15
0.0
 25
0.0
 35
0.0
146
0.0
 13
0.0
 23
0.0
 33
0.0
 16
1.0
 26
0.0
 36
0.0
 17
0.0
 27
1.0
 37
0.0
 76
     0
330
23
  0
LAYOUT
  5
22
102
{ACAD_REACTORS
330
1A
102
}
102
{ACAD_XDICTIONARY
360
161
102
}
330
1A
100
AcDbPlotSettings
  1

  2
none_device
  4

  6

 40
0.0
 41
0.0
 42
0.0
 43
0.0
 44
0.0
 45
0.0
 46
0.0
 47
0.0
 48
0.0
 49
0.0
140
0.0
141
0.0
142
1.0
143
1.0
 70
  1712
 72
     0
 73
     0
 74
     0
  7

 75
     0
147
1.0
148
0.0
149
0.0
100
AcDbLayout
  1
Model
 70
     1
 71
     0
 10
-2100.0
 20
-1485.0
 11
2100.0
 21
1485.0
 12
0.0
 22
0.0
 32
0.0
 14
-2100.0
 24
-1485.0
 34
0.0
 15
2100.0
 25
1485.0
 35
0.0
146
0.0
 13
0.0
 23
0.0
 33
0.0
 16
1.0
 26
0.0
 36
0.0
 17
0.0
 27
1.0
 37
0.0
 76
     0
330
1F
331
29
  0
MLINESTYLE
  5
18
102
{ACAD_REACTORS
330
17
102
}
330
17
100
AcDbMlineStyle
  2
Standard
 70
     0
  3

 62
   256
 51
90.0
 52
90.0
 71
     2
 49
0.5
 62
   256
  6
BYLAYER
 49
-0.5
 62
   256
  6
BYLAYER
  0
ACDBPLACEHOLDER
  5
F
102
{ACAD_REACTORS
330
E
102
}
330
E
  0
VISUALSTYLE
  5
2F
102
{ACAD_REACTORS
330
2A
102
}
330
2A
100
AcDbVisualStyle
  2
2dWireframe
 70
     4
 71
     0
 72
     2
 73
     0
 90
        0
 40
-0.6
 41
-30.0
 62
     5
 63
     7
 74
     1
 91
        4
 64
     7
 65
   257
 75
     1
175
     1
 42
1.0
 92
        0
 66
   257
 43
1.0
 76
     1
 77
     6
 78
     2
 67
     7
 79
     5
170
     0
171
     0
290
     0
174
     0
 93
        1
 44
0.0
173
     0
291
     0
 45
0.0
1001
ACAD
1000
AcDbSavedByObjectVersion
1070
     0
  0
VISUALSTYLE
  5
31
102
{ACAD_REACTORS
330
2A
102
}
330
2A
100
AcDbVisualStyle
  2
3D Hidden
 70
     6
 71
     1
 72
     2
 73
     2
 90
        0
 40
-0.6
 41
-30.0
 62
     5
 63
     7
 74
     2
 91
        2
 64
     7
 65
   257
 75
     2
175
     1
 42
40.0
 92
        0
 66
   257
 43
1.0
 76
     1
 77
     6
 78
     2
 67
     7
 79
     3
170
     0
171
     0
290
     0
174
     0
 93
        1
 44
0.0
173
     0
291
     0
 45
0.0
1001
ACAD
1000
AcDbSavedByObjectVersion
1070
     0
  0
VISUALSTYLE
  5
30
102
{ACAD_REACTORS
330
2A
102
}
330
2A
100
AcDbVisualStyle
  2
3dWireframe
 70
     5
 71
     0
 72
     2
 73
     0
 90
        0
 40
-0.6
 41
-30.0
 62
     5
 63
     7
 74
     1
 91
        4
 64
     7
 65
   257
 75
     1
175
     1
 42
1.0
 92
        0
 66
   257
 43
1.0
 76
     1
 77
     6
 78
     2
 67
     7
 79
     5
170
     0
171
     0
290
     0
174
     0
 93
        1
 44
0.0
173
     0
291
     0
 45
0.0
1001
ACAD
1000
AcDbSavedByObjectVersion
1070
     0
  0
VISUALSTYLE
  5
32
102
{ACAD_REACTORS
330
2A
102
}
330
2A
100
AcDbVisualStyle
  2
Basic
 70
     7
 71
     1
 72
     0
 73
     1
 90
        0
 40
-0.6
 41
-30.0
 62
     5
 63
     7
 74
     0
 91
        4
 64
     7
 65
   257
 75
     1
175
     1
 42
1.0
 92
        8
 66
     7
 43
1.0
 76
     1
 77
     6
 78
     2
 67
     7
 79
     5
170
     0
171
     0
290
     0
174
     0
 93
        1
 44
0.0
173
     0
291
     1
 45
0.0
1001
ACAD
1000
AcDbSavedByObjectVersion
1070
     0
  0
VISUALSTYLE
  5
36
102
{ACAD_REACTORS
330
2A
102
}
330
2A
100
AcDbVisualStyle
  2
Brighten
 70
    12
 71
     2
 72
     2
 73
     0
 90
        0
 40
-0.6
 41
-30.0
 62
     5
 63
     7
 74
     1
 91
        4
 64
     7
 65
   257
 75
     1
175
     1
 42
1.0
 92
        8
 66
     7
 43
1.0
 76
     1
 77
     6
 78
     2
 67
     7
 79
     5
170
     0
171
     0
290
     0
174
     0
 93
        1
 44
50.0
173
     0
291
     1
 45
0.0
1001
ACAD
1000
AcDbSavedByObjectVersion
1070
     0
  0
VISUALSTYLE
  5
3A
102
{ACAD_REACTORS
330
2A
102
}
330
2A
100
AcDbVisualStyle
  2
ColorChange
 70
    16
 71
     2
 72
     2
 73
     3
 90
        0
 40
-0.6
 41
-30.0
 62
     5
 63
     8
 74
     1
 91
        4
 64
     7
 65
   257
 75
     1
175
     1
 42
1.0
 92
        8
 66
     8
 43
1.0
 76
     1
 77
     6
 78
     2
 67
     7
 79
     5
170
     0
171
     0
290
     0
174
     0
 93
        1
 44
0.0
173
     0
291
     1
 45
0.0
1001
ACAD
1000
AcDbSavedByObjectVersion
1070
     0
  0
VISUALSTYLE
  5
34
102
{ACAD_REACTORS
330
2A
102
}
330
2A
100
AcDbVisualStyle
  2
Conceptual
 70
     9
 71
     3
 72
     2
 73
     0
 90
        0
 40
-0.6
 41
-30.0
 62
     5
 63
     7
 74
     2
 91
        2
 64
     7
 65
   257
 75
     1
175
     1
 42
40.0
 92
        8
 66
     7
 43
1.0
 76
     1
 77
     6
 78
     2
 67
     7
 79
     3
170
     0
171
     0
290
     0
174
     0
 93
        1
 44
0.0
173
     0
291
     0
 45
0.0
1001
ACAD
1000
AcDbSavedByObjectVersion
1070
     0
  0
VISUALSTYLE
  5
35
102
{ACAD_REACTORS
330
2A
102
}
330
2A
100
AcDbVisualStyle
  2
Dim
 70
    11
 71
     2
 72
     2
 73
     0
 90
        0
 40
-0.6
 41
-30.0
 62
     5
 63
     7
 74
     1
 91
        4
 64
     7
 65
   257
 75
     1
175
     1
 42
1.0
 92
        8
 66
     7
 43
1.0
 76
     1
 77
     6
 78
     2
 67
     7
 79
     5
170
     0
171
     0
290
     0
174
     0
 93
        1
 44
-50.0
173
     0
291
     1
 45
0.0
1001
ACAD
1000
AcDbSavedByObjectVersion
1070
     0
  0
VISUALSTYLE
  5
39
102
{ACAD_REACTORS
330
2A
102
}
330
2A
100
AcDbVisualStyle
  2
Facepattern
 70
    15
 71
     2
 72
     2
 73
     0
 90
        0
 40
-0.6
 41
-30.0
 62
     5
 63
     7
 74
     1
 91
        4
 64
     7
 65
   257
 75
     1
175
     1
 42
1.0
 92
        8
 66
     7
 43
1.0
 76
     1
 77
     6
 78
     2
 67
     7
 79
     5
170
     0
171
     0
290
     0
174
     0
 93
        1
 44
0.0
173
     0
291
     1
 45
0.0
1001
ACAD
1000
AcDbSavedByObjectVersion
1070
     0
  0
VISUALSTYLE
  5
2B
102
{ACAD_REACTORS
330
2A
102
}
330
2A
100
AcDbVisualStyle
  2
Flat
 70
     0
 71
     2
 72
     1
 73
     1
 90
        2
 40
-0.6
 41
30.0
 62
     5
 63
     7
 74
     0
 91
        4
 64
     7
 65
   257
 75
     1
175
     1
 42
1.0
 92
        8
 66
     7
 43
1.0
 76
     1
 77
     6
 78
     2
 67
     7
 79
     5
170
     0
171
     0
290
     0
174
     0
 93
       13
 44
0.0
173
     0
291
     1
 45
0.0
1001
ACAD
1000
AcDbSavedByObjectVersion
1070
     0
  0
VISUALSTYLE
  5
2C
102
{ACAD_REACTORS
330
2A
102
}
330
2A
100
AcDbVisualStyle
  2
FlatWithEdges
 70
     1
 71
     2
 72
     1
 73
     1
 90
        2
 40
-0.6
 41
30.0
 62
     5
 63
     7
 74
     1
 91
        4
 64
     7
 65
   257
 75
     1
175
     1
 42
1.0
 92
        0
 66
   257
 43
1.0
 76
     1
 77
     6
 78
     2
 67
     7
 79
     5
170
     0
171
     0
290
     0
174
     0
 93
       13
 44
0.0
173
     0
291
     1
 45
0.0
1001
ACAD
1000
AcDbSavedByObjectVersion
1070
     0
  0
VISUALSTYLE
  5
2D
102
{ACAD_REACTORS
330
2A
102
}
330
2A
100
AcDbVisualStyle
  2
Gouraud
 70
     2
 71
     2
 72
     2
 73
     1
 90
        2
 40
-0.6
 41
30.0
 62
     5
 63
     7
 74
     0
 91
        4
 64
     7
 65
   257
 75
     1
175
     1
 42
1.0
 92
        0
 66
     7
 43
1.0
 76
     1
 77
     6
 78
     2
 67
     7
 79
     5
170
     0
171
     0
290
     0
174
     0
 93
       13
 44
0.0
173
     0
291
     1
 45
0.0
1001
ACAD
1000
AcDbSavedByObjectVersion
1070
     0
  0
VISUALSTYLE
  5
2E
102
{ACAD_REACTORS
330
2A
102
}
330
2A
100
AcDbVisualStyle
  2
GouraudWithEdges
 70
     3
 71
     2
 72
     2
 73
     1
 90
        2
 40
-0.6
 41
30.0
 62
     5
 63
     7
 74
     1
 91
        4
 64
     7
 65
   257
 75
     1
175
     1
 42
1.0
 92
        0
 66
   257
 43
1.0
 76
     1
 77
     6
 78
     2
 67
     7
 79
     5
170
     0
171
     0
290
     0
174
     0
 93
       13
 44
0.0
173
     0
291
     1
 45
0.0
1001
ACAD
1000
AcDbSavedByObjectVersion
1070
     0
  0
VISUALSTYLE
  5
38
102
{ACAD_REACTORS
330
2A
102
}
330
2A
100
AcDbVisualStyle
  2
Linepattern
 70
    14
 71
     2
 72
     2
 73
     0
 90
        0
 40
-0.6
 41
-30.0
 62
     5
 63
     7
 74
     1
 91
        4
 64
     7
 65
   257
 75
     7
175
     7
 42
1.0
 92
        8
 66
     7
 43
1.0
 76
     1
 77
     6
 78
     2
 67
     7
 79
     5
170
     0
171
     0
290
     0
174
     0
 93
        1
 44
0.0
173
     0
291
     1
 45
0.0
1001
ACAD
1000
AcDbSavedByObjectVersion
1070
     0
  0
VISUALSTYLE
  5
33
102
{ACAD_REACTORS
330
2A
102
}
330
2A
100
AcDbVisualStyle
  2
Realistic
 70
     8
 71
     2
 72
     2
 73
     0
 90
        0
 40
-0.6
 41
-30.0
 62
     5
 63
     7
 74
     1
 91
        0
 64
     7
 65
   257
 75
     1
175
     1
 42
1.0
 92
        8
 66
     8
 43
1.0
 76
     1
 77
     6
 78
     2
 67
     7
 79
     5
170
     0
171
     0
290
     0
174
     0
 93
       13
 44
0.0
173
     0
291
     0
 45
0.0
1001
ACAD
1000
AcDbSavedByObjectVersion
1070
     0
  0
VISUALSTYLE
  5
37
102
{ACAD_REACTORS
330
2A
102
}
330
2A
100
AcDbVisualStyle
  2
Thicken
 70
    13
 71
     2
 72
     2
 73
     0
 90
        0
 40
-0.6
 41
-30.0
 62
     5
 63
     7
 74
     1
 91
        4
 64
     7
 65
   257
 75
     1
175
     1
 42
1.0
 92
       12
 66
     7
 43
1.0
 76
     1
 77
     6
 78
     2
 67
     7
 79
     5
170
     0
171
     0
290
     0
174
     0
 93
        1
 44
0.0
173
     0
291
     1
 45
0.0
1001
ACAD
1000
AcDbSavedByObjectVersion
1070
     0
  0
DICTIONARYVAR
  5
15E
102
{ACAD_REACTORS
330
15C
102
}
330
15C
100
DictionaryVariables
280
     0
  1
80.000000
  0
DICTIONARYVAR
  5
15D
102
{ACAD_REACTORS
330
15C
102
}
330
15C
100
DictionaryVariables
280
     0
  1
5.000000
  0
DICTIONARY
  5
15F
330
1E
100
AcDbDictionary
280
     1
281
     1
  3
ACAD_XREC_ROUNDTRIP
360
160
  0
DICTIONARY
  5
163
330
26
100
AcDbDictionary
280
     1
281
     1
  3
ACAD_XREC_ROUNDTRIP
360
164
  0
DICTIONARY
  5
161
330
22
100
AcDbDictionary
280
     1
281
     1
  3
ACAD_XREC_ROUNDTRIP
360
162
  0
XRECORD
  5
160
102
{ACAD_REACTORS
330
15F
102
}
330
15F
100
AcDbXrecord
280
     1
102
SHADEPLOT
 70
     0
102
SHADEPLOTRESLEVEL
 70
     5
102
SHADEPLOTCUSTOMDPI
 70
   300
  0
XRECORD
  5
164
102
{ACAD_REACTORS
330
163
102
}
330
163
100
AcDbXrecord
280
     1
102
SHADEPLOT
 70
     0
102
SHADEPLOTRESLEVEL
 70
     5
102
SHADEPLOTCUSTOMDPI
 70
   300
  0
XRECORD
  5
162
102
{ACAD_REACTORS
330
161
102
}
330
161
100
AcDbXrecord
280
     1
102
SHADEPLOT
 70
     0
102
SHADEPLOTRESLEVEL
 70
     5
102
SHADEPLOTCUSTOMDPI
 70
   300
  0
ENDSEC
  0
EOF
