  0
SECTION
  2
HEADER
  9
$ACADVER
  1
AC1015
  9
$ACADMAINTVER
 70
     6
  9
$DWGCODEPAGE
  3
ANSI_932
  9
$INSBASE
 10
0.0
 20
0.0
 30
0.0
  9
$EXTMIN
 10
-2100.0
 20
-1485.0
 30
0.0
  9
$EXTMAX
 10
2100.0
 20
1485.0
 30
0.0
  9
$LIMMIN
 10
-2100.0
 20
-1485.0
  9
$LIMMAX
 10
2100.0
 20
1485.0
  9
$ORTHOMODE
 70
     0
  9
$REGENMODE
 70
     1
  9
$FILLMODE
 70
     1
  9
$QTEXTMODE
 70
     0
  9
$MIRRTEXT
 70
     1
  9
$LTSCALE
 40
10.0
  9
$ATTMODE
 70
     1
  9
$TEXTSIZE
 40
2.5
  9
$TRACEWID
 40
1.0
  9
$TEXTSTYLE
  7
Standard
  9
$CLAYER
  8
0
  9
$CELTYPE
  6
ByLayer
  9
$CECOLOR
 62
   256
  9
$CELTSCALE
 40
1.0
  9
$DISPSILH
 70
     0
  9
$DIMSCALE
 40
1.0
  9
$DIMASZ
 40
2.5
  9
$DIMEXO
 40
0.625
  9
$DIMDLI
 40
3.75
  9
$DIMRND
 40
0.0
  9
$DIMDLE
 40
0.0
  9
$DIMEXE
 40
1.25
  9
$DIMTP
 40
0.0
  9
$DIMTM
 40
0.0
  9
$DIMTXT
 40
2.5
  9
$DIMCEN
 40
2.5
  9
$DIMTSZ
 40
0.0
  9
$DIMTOL
 70
     0
  9
$DIMLIM
 70
     0
  9
$DIMTIH
 70
     0
  9
$DIMTOH
 70
     0
  9
$DIMSE1
 70
     0
  9
$DIMSE2
 70
     0
  9
$DIMTAD
 70
     1
  9
$DIMZIN
 70
     8
  9
$DIMBLK
  1

  9
$DIMASO
 70
     1
  9
$DIMSHO
 70
     1
  9
$DIMPOST
  1

  9
$DIMAPOST
  1

  9
$DIMALT
 70
     0
  9
$DIMALTD
 70
     3
  9
$DIMALTF
 40
0.03937007874016
  9
$DIMLFAC
 40
1.0
  9
$DIMTOFL
 70
     1
  9
$DIMTVP
 40
0.0
  9
$DIMTIX
 70
     0
  9
$DIMSOXD
 70
     0
  9
$DIMSAH
 70
     0
  9
$DIMBLK1
  1

  9
$DIMBLK2
  1

  9
$DIMSTYLE
  2
ISO-25
  9
$DIMCLRD
 70
     0
  9
$DIMCLRE
 70
     0
  9
$DIMCLRT
 70
     0
  9
$DIMTFAC
 40
1.0
  9
$DIMGAP
 40
0.625
  9
$DIMJUST
 70
     0
  9
$DIMSD1
 70
     0
  9
$DIMSD2
 70
     0
  9
$DIMTOLJ
 70
     0
  9
$DIMTZIN
 70
     8
  9
$DIMALTZ
 70
     0
  9
$DIMALTTZ
 70
     0
  9
$DIMUPT
 70
     0
  9
$DIMDEC
 70
     2
  9
$DIMTDEC
 70
     2
  9
$DIMALTU
 70
     2
  9
$DIMALTTD
 70
     3
  9
$DIMTXSTY
  7
Standard
  9
$DIMAUNIT
 70
     0
  9
$DIMADEC
 70
     0
  9
$DIMALTRND
 40
0.0
  9
$DIMAZIN
 70
     0
  9
$DIMDSEP
 70
    44
  9
$DIMATFIT
 70
     3
  9
$DIMFRAC
 70
     0
  9
$DIMLDRBLK
  1

  9
$DIMLUNIT
 70
     2
  9
$DIMLWD
 70
    -2
  9
$DIMLWE
 70
    -2
  9
$DIMTMOVE
 70
     0
  9
$LUNITS
 70
     2
  9
$LUPREC
 70
     4
  9
$SKETCHINC
 40
1.0
  9
$FILLETRAD
 40
10.0
  9
$AUNITS
 70
     0
  9
$AUPREC
 70
     0
  9
$MENU
  1
.
  9
$ELEVATION
 40
0.0
  9
$PELEVATION
 40
0.0
  9
$THICKNESS
 40
0.0
  9
$LIMCHECK
 70
     0
  9
$CHAMFERA
 40
10.0
  9
$CHAMFERB
 40
10.0
  9
$CHAMFERC
 40
20.0
  9
$CHAMFERD
 40
0.0
  9
$SKPOLY
 70
     0
  9
$TDCREATE
 40
2456904.665039757
  9
$TDUCREATE
 40
2456904.290039757
  9
$TDUPDATE
 40
2456904.665039768
  9
$TDUUPDATE
 40
2456904.290039768
  9
$TDINDWG
 40
0.0000000116
  9
$TDUSRTIMER
 40
0.0000000116
  9
$USRTIMER
 70
     1
  9
$ANGBASE
 50
0.0
  9
$ANGDIR
 70
     0
  9
$PDMODE
 70
     0
  9
$PDSIZE
 40
0.0
  9
$PLINEWID
 40
0.0
  9
$SPLFRAME
 70
     0
  9
$SPLINETYPE
 70
     6
  9
$SPLINESEGS
 70
     8
  9
$HANDSEED
  5
142
  9
$SURFTAB1
 70
     6
  9
$SURFTAB2
 70
     6
  9
$SURFTYPE
 70
     6
  9
$SURFU
 70
     6
  9
$SURFV
 70
     6
  9
$UCSBASE
  2

  9
$UCSNAME
  2

  9
$UCSORG
 10
0.0
 20
0.0
 30
0.0
  9
$UCSXDIR
 10
1.0
 20
0.0
 30
0.0
  9
$UCSYDIR
 10
0.0
 20
1.0
 30
0.0
  9
$UCSORTHOREF
  2

  9
$UCSORTHOVIEW
 70
     0
  9
$UCSORGTOP
 10
0.0
 20
0.0
 30
0.0
  9
$UCSORGBOTTOM
 10
0.0
 20
0.0
 30
0.0
  9
$UCSORGLEFT
 10
0.0
 20
0.0
 30
0.0
  9
$UCSORGRIGHT
 10
0.0
 20
0.0
 30
0.0
  9
$UCSORGFRONT
 10
0.0
 20
0.0
 30
0.0
  9
$UCSORGBACK
 10
0.0
 20
0.0
 30
0.0
  9
$PUCSBASE
  2

  9
$PUCSNAME
  2

  9
$PUCSORG
 10
0.0
 20
0.0
 30
0.0
  9
$PUCSXDIR
 10
1.0
 20
0.0
 30
0.0
  9
$PUCSYDIR
 10
0.0
 20
1.0
 30
0.0
  9
$PUCSORTHOREF
  2

  9
$PUCSORTHOVIEW
 70
     0
  9
$PUCSORGTOP
 10
0.0
 20
0.0
 30
0.0
  9
$PUCSORGBOTTOM
 10
0.0
 20
0.0
 30
0.0
  9
$PUCSORGLEFT
 10
0.0
 20
0.0
 30
0.0
  9
$PUCSORGRIGHT
 10
0.0
 20
0.0
 30
0.0
  9
$PUCSORGFRONT
 10
0.0
 20
0.0
 30
0.0
  9
$PUCSORGBACK
 10
0.0
 20
0.0
 30
0.0
  9
$USERI1
 70
     0
  9
$USERI2
 70
     0
  9
$USERI3
 70
     0
  9
$USERI4
 70
     0
  9
$USERI5
 70
     0
  9
$USERR1
 40
0.0
  9
$USERR2
 40
0.0
  9
$USERR3
 40
0.0
  9
$USERR4
 40
0.0
  9
$USERR5
 40
0.0
  9
$WORLDVIEW
 70
     1
  9
$SHADEDGE
 70
     3
  9
$SHADEDIF
 70
    70
  9
$TILEMODE
 70
     1
  9
$MAXACTVP
 70
    64
  9
$PINSBASE
 10
0.0
 20
0.0
 30
0.0
  9
$PLIMCHECK
 70
     0
  9
$PEXTMIN
 10
1.000000000000000E+20
 20
1.000000000000000E+20
 30
1.000000000000000E+20
  9
$PEXTMAX
 10
-1.000000000000000E+20
 20
-1.000000000000000E+20
 30
-1.000000000000000E+20
  9
$PLIMMIN
 10
0.0
 20
0.0
  9
$PLIMMAX
 10
420.0
 20
297.0
  9
$UNITMODE
 70
     0
  9
$VISRETAIN
 70
     1
  9
$PLINEGEN
 70
     0
  9
$PSLTSCALE
 70
     1
  9
$TREEDEPTH
 70
  3020
  9
$CMLSTYLE
  2
Standard
  9
$CMLJUST
 70
     0
  9
$CMLSCALE
 40
20.0
  9
$PROXYGRAPHICS
 70
     1
  9
$MEASUREMENT
 70
     1
  9
$CELWEIGHT
370
    -1
  9
$ENDCAPS
280
     0
  9
$JOINSTYLE
280
     0
  9
$LWDISPLAY
290
     0
  9
$INSUNITS
 70
     4
  9
$HYPERLINKBASE
  1

  9
$STYLESHEET
  1

  9
$XEDIT
290
     1
  9
$CEPSNTYPE
380
     0
  9
$PSTYLEMODE
290
     1
  9
$FINGERPRINTGUID
  2
{74D5BFC4-0806-461E-BDC2-BAF9EDF4B509}
  9
$VERSIONGUID
  2
{FAEB1C32-E019-11D5-929B-00C0DF256EC4}
  9
$EXTNAMES
290
     1
  9
$PSVPSCALE
 40
0.0
  9
$OLESTARTUP
290
     0
  0
ENDSEC
  0
SECTION
  2
CLASSES
  0
CLASS
  1
ACDBDICTIONARYWDFLT
  2
AcDbDictionaryWithDefault
  3
ObjectDBX Classes
 90
        0
280
     0
281
     0
  0
CLASS
  1
VISUALSTYLE
  2
AcDbVisualStyle
  3
ObjectDBX Classes
 90
     4095
280
     0
281
     0
  0
CLASS
  1
DICTIONARYVAR
  2
AcDbDictionaryVar
  3
ObjectDBX Classes
 90
        0
280
     0
281
     0
  0
CLASS
  1
ACDBPLACEHOLDER
  2
AcDbPlaceHolder
  3
ObjectDBX Classes
 90
        0
280
     0
281
     0
  0
CLASS
  1
LAYOUT
  2
AcDbLayout
  3
ObjectDBX Classes
 90
        0
280
     0
281
     0
  0
ENDSEC
  0
SECTION
  2
TABLES
  0
TABLE
  2
VPORT
  5
8
330
0
100
AcDbSymbolTable
 70
     1
  0
VPORT
  5
29
330
8
100
AcDbSymbolTableRecord
100
AcDbViewportTableRecord
  2
*Active
 70
     0
 10
0.0
 20
0.0
 11
1.0
 21
1.0
 12
0.0
 22
0.0
 13
0.0
 23
0.0
 14
10.0
 24
10.0
 15
10.0
 25
10.0
 16
0.0
 26
0.0
 36
1.0
 17
0.0
 27
0.0
 37
0.0
 40
3267.0
 41
1.414141414141414
 42
50.0
 43
0.0
 44
0.0
 50
0.0
 51
0.0
 71
     0
 72
 10000
 73
     1
 74
     3
 75
     0
 76
     0
 77
     0
 78
     0
281
     0
 65
     1
110
0.0
120
0.0
130
0.0
111
1.0
121
0.0
131
0.0
112
0.0
122
1.0
132
0.0
 79
     0
146
0.0
  0
ENDTAB
  0
TABLE
  2
LTYPE
  5
5
330
0
100
AcDbSymbolTable
 70
     4
  0
LTYPE
  5
14
330
5
100
AcDbSymbolTableRecord
100
AcDbLinetypeTableRecord
  2
ByBlock
 70
     0
  3

 72
    65
 73
     0
 40
0.0
  0
LTYPE
  5
15
330
5
100
AcDbSymbolTableRecord
100
AcDbLinetypeTableRecord
  2
ByLayer
 70
     0
  3

 72
    65
 73
     0
 40
0.0
  0
LTYPE
  5
16
330
5
100
AcDbSymbolTableRecord
100
AcDbLinetypeTableRecord
  2
Continuous
 70
     0
  3
Solid line
 72
    65
 73
     0
 40
0.0
  0
LTYPE
  5
3C
330
5
100
AcDbSymbolTableRecord
100
AcDbLinetypeTableRecord
  2
JWW_DASHED1
 70
     0
  3
-  --  --  --  --  --  --  --  -
 72
    65
 73
     2
 40
1.693333333333333
 49
0.8466666666666667
 74
     0
 49
-0.8466666666666667
 74
     0
  0
LTYPE
  5
3D
330
5
100
AcDbSymbolTableRecord
100
AcDbLinetypeTableRecord
  2
JWW_HOJO
 70
     0
  3
  -   -   -   -   -   -   -   - 
 72
    65
 73
     2
 40
1.693333333333333
 49
-1.27
 74
     0
 49
0.4233333333333333
 74
     0
  0
LTYPE
  5
3E
330
5
100
AcDbSymbolTableRecord
100
AcDbLinetypeTableRecord
  2
JWW_CENTER1
 70
     0
  3
-----  --  ----------  --  -----
 72
    65
 73
     4
 40
6.773333333333333
 49
4.233333333333333
 74
     0
 49
-0.8466666666666667
 74
     0
 49
0.8466666666666667
 74
     0
 49
-0.8466666666666667
 74
     0
  0
ENDTAB
  0
TABLE
  2
LAYER
  5
2
330
0
100
AcDbSymbolTable
 70
     7
  0
LAYER
  5
10
330
2
100
AcDbSymbolTableRecord
100
AcDbLayerTableRecord
  2
0
 70
     0
 62
     7
  6
Continuous
370
    -3
390
F
  0
LAYER
  5
3F
330
2
100
AcDbSymbolTableRecord
100
AcDbLayerTableRecord
  2
0-0
 70
     0
 62
     7
  6
Continuous
370
    -3
390
F
  0
LAYER
  5
40
330
2
100
AcDbSymbolTableRecord
100
AcDbLayerTableRecord
  2
0-2
 70
     0
 62
     7
  6
Continuous
370
    -3
390
F
  0
LAYER
  5
41
330
2
100
AcDbSymbolTableRecord
100
AcDbLayerTableRecord
  2
0-4
 70
     0
 62
     7
  6
Continuous
370
    -3
390
F
  0
LAYER
  5
42
330
2
100
AcDbSymbolTableRecord
100
AcDbLayerTableRecord
  2
0-E
 70
     0
 62
     7
  6
Continuous
370
    -3
390
F
  0
LAYER
  5
43
330
2
100
AcDbSymbolTableRecord
100
AcDbLayerTableRecord
  2
0-9
 70
     0
 62
     7
  6
Continuous
370
    -3
390
F
  0
LAYER
  5
44
330
2
100
AcDbSymbolTableRecord
100
AcDbLayerTableRecord
  2
F-5
 70
     0
 62
     7
  6
Continuous
370
    -3
390
F
  0
ENDTAB
  0
TABLE
  2
STYLE
  5
3
330
0
100
AcDbSymbolTable
 70
     2
  0
STYLE
  5
11
330
3
100
AcDbSymbolTableRecord
100
AcDbTextStyleTableRecord
  2
Standard
 70
     0
 40
0.0
 41
1.0
 50
0.0
 71
     0
 42
2.5
  3
txt
  4

1001
ACAD
1000

1071
        0
  0
STYLE
  5
3B
330
3
100
AcDbSymbolTableRecord
100
AcDbTextStyleTableRecord
  2
ＭＳ ゴシック
 70
     0
 40
1.0
 41
1.0
 50
0.0
 71
     0
 42
10.0
  3

  4

1001
ACAD
1000
MS Gothic
1071
    32817
  0
ENDTAB
  0
TABLE
  2
VIEW
  5
6
330
0
100
AcDbSymbolTable
 70
     0
  0
ENDTAB
  0
TABLE
  2
UCS
  5
7
330
0
100
AcDbSymbolTable
 70
     0
  0
ENDTAB
  0
TABLE
  2
APPID
  5
9
330
0
100
AcDbSymbolTable
 70
     1
  0
APPID
  5
12
330
9
100
AcDbSymbolTableRecord
100
AcDbRegAppTableRecord
  2
ACAD
 70
     0
  0
ENDTAB
  0
TABLE
  2
DIMSTYLE
  5
A
330
0
100
AcDbSymbolTable
 70
     1
100
AcDbDimStyleTable
  0
DIMSTYLE
105
27
330
A
100
AcDbSymbolTableRecord
100
AcDbDimStyleTableRecord
  2
ISO-25
 70
     0
 41
2.5
 42
0.625
 43
3.75
 44
1.25
 73
     0
 74
     0
 77
     1
 78
     8
140
2.5
141
2.5
143
0.03937007874016
147
0.625
171
     3
172
     1
271
     2
272
     2
274
     3
278
    44
283
     0
284
     8
340
11
  0
ENDTAB
  0
TABLE
  2
BLOCK_RECORD
  5
1
330
0
100
AcDbSymbolTable
 70
     1
  0
BLOCK_RECORD
  5
1F
330
1
100
AcDbSymbolTableRecord
100
AcDbBlockTableRecord
  2
*Model_Space
340
22
  0
BLOCK_RECORD
  5
1B
330
1
100
AcDbSymbolTableRecord
100
AcDbBlockTableRecord
  2
*Paper_Space
340
1E
  0
BLOCK_RECORD
  5
23
330
1
100
AcDbSymbolTableRecord
100
AcDbBlockTableRecord
  2
*Paper_Space0
340
26
  0
ENDTAB
  0
ENDSEC
  0
SECTION
  2
BLOCKS
  0
BLOCK
  5
20
330
1F
100
AcDbEntity
  8
0
100
AcDbBlockBegin
  2
*Model_Space
 70
     0
 10
0.0
 20
0.0
 30
0.0
  3
*Model_Space
  1

  0
ENDBLK
  5
21
330
1F
100
AcDbEntity
  8
0
100
AcDbBlockEnd
  0
BLOCK
  5
1C
330
1B
100
AcDbEntity
 67
     1
  8
0
100
AcDbBlockBegin
  2
*Paper_Space
 70
     0
 10
0.0
 20
0.0
 30
0.0
  3
*Paper_Space
  1

  0
ENDBLK
  5
1D
330
1B
100
AcDbEntity
 67
     1
  8
0
100
AcDbBlockEnd
  0
BLOCK
  5
24
330
23
100
AcDbEntity
  8
0
100
AcDbBlockBegin
  2
*Paper_Space0
 70
     0
 10
0.0
 20
0.0
 30
0.0
  3
*Paper_Space0
  1

  0
ENDBLK
  5
25
330
23
100
AcDbEntity
  8
0
100
AcDbBlockEnd
  0
ENDSEC
  0
SECTION
  2
ENTITIES
  0
LINE
  5
45
330
1F
100
AcDbEntity
  8
0-0
  6
JWW_DASHED1
 62
     3
370
     9
100
AcDbLine
 10
-527.0270270270269
 20
-509.3242418443833
 30
0.0
 11
-527.0270270270269
 21
-709.3244068042651
 31
0.0
  0
LINE
  5
46
330
1F
100
AcDbEntity
  8
0-2
  6
Continuous
 62
     4
370
     9
100
AcDbLine
 10
-409.5273816907726
 20
-609.3243243243242
 30
0.0
 11
-380.6600622228672
 21
-559.3240356445312
 31
0.0
  0
LINE
  5
47
330
1F
100
AcDbEntity
  8
0-2
  6
Continuous
 62
     4
370
     9
100
AcDbLine
 10
-409.5273816907726
 20
-609.3243243243242
 30
0.0
 11
-380.6598147830448
 21
-659.324489284206
 31
0.0
  0
LINE
  5
48
330
1F
100
AcDbEntity
  8
0-2
  6
Continuous
 62
     4
370
     9
100
AcDbLine
 10
-380.6598147830448
 20
-659.324489284206
 30
0.0
 11
-323.395064070418
 21
-659.324489284206
 31
0.0
  0
LINE
  5
49
330
1F
100
AcDbEntity
  8
0-2
  6
Continuous
 62
     4
370
     9
100
AcDbLine
 10
-294.5276208826013
 20
-609.3243243243242
 30
0.0
 11
-323.395064070418
 21
-659.324489284206
 31
0.0
  0
LINE
  5
4A
330
1F
100
AcDbEntity
  8
0-2
  6
Continuous
 62
     4
370
     9
100
AcDbLine
 10
-294.5276208826013
 20
-609.3243243243242
 30
0.0
 11
-323.395064070418
 21
-559.3240356445312
 31
0.0
  0
LINE
  5
4B
330
1F
100
AcDbEntity
  8
0-2
  6
Continuous
 62
     4
370
     9
100
AcDbLine
 10
-380.6600622228672
 20
-559.3240356445312
 30
0.0
 11
-323.395064070418
 21
-559.3240356445312
 31
0.0
  0
LINE
  5
4C
330
1F
100
AcDbEntity
  8
0-2
  6
Continuous
 62
     4
370
     9
100
AcDbLine
 10
-209.5272167308909
 20
-609.3243243243242
 30
0.0
 11
-180.6598972629854
 21
-559.3240356445312
 31
0.0
  0
LINE
  5
4D
330
1F
100
AcDbEntity
  8
0-2
  6
Continuous
 62
     4
370
     9
100
AcDbLine
 10
-209.5272167308909
 20
-609.3243243243242
 30
0.0
 11
-180.659649823163
 21
-659.324489284206
 31
0.0
  0
LINE
  5
4E
330
1F
100
AcDbEntity
  8
0-2
  6
Continuous
 62
     4
370
     9
100
AcDbLine
 10
-180.659649823163
 20
-659.324489284206
 30
0.0
 11
-123.3948991105362
 21
-659.324489284206
 31
0.0
  0
LINE
  5
4F
330
1F
100
AcDbEntity
  8
0-2
  6
Continuous
 62
     4
370
     9
100
AcDbLine
 10
-94.52720848289687
 20
-609.3243243243242
 30
0.0
 11
-123.3948991105362
 21
-659.324489284206
 31
0.0
  0
LINE
  5
50
330
1F
100
AcDbEntity
  8
0-2
  6
Continuous
 62
     4
370
     9
100
AcDbLine
 10
-94.52720848289687
 20
-609.3243243243242
 30
0.0
 11
-123.3948991105362
 21
-559.3240356445312
 31
0.0
  0
LINE
  5
51
330
1F
100
AcDbEntity
  8
0-2
  6
Continuous
 62
     4
370
     9
100
AcDbLine
 10
-180.6598972629854
 20
-559.3240356445312
 30
0.0
 11
-123.3948991105362
 21
-559.3240356445312
 31
0.0
  0
LINE
  5
52
330
1F
100
AcDbEntity
  8
0-2
  6
JWW_HOJO
 62
     4
370
     9
100
AcDbLine
 10
-296.7774674699112
 20
554.5947430584883
 30
0.0
 11
-407.2776588233739
 21
554.5947430584883
 31
0.0
  0
LINE
  5
53
330
1F
100
AcDbEntity
  8
0-2
  6
Continuous
 62
     4
370
     9
100
AcDbLine
 10
-407.2776588233739
 20
589.7933052681589
 30
0.0
 11
-407.2776588233739
 21
554.5947430584883
 31
0.0
  0
LINE
  5
54
330
1F
100
AcDbEntity
  8
0-2
  6
Continuous
 62
     4
370
     9
100
AcDbLine
 10
-309.4025895402237
 20
594.5943801467484
 30
0.0
 11
-394.6525367530614
 21
594.5943801467484
 31
0.0
  0
LINE
  5
55
330
1F
100
AcDbEntity
  8
0-2
  6
Continuous
 62
     4
370
     9
100
AcDbLine
 10
-296.7774674699112
 20
589.7933052681589
 30
0.0
 11
-296.7774674699112
 21
554.5947430584883
 31
0.0
  0
LINE
  5
56
330
1F
100
AcDbEntity
  8
0-2
  6
Continuous
 62
     4
370
     9
100
AcDbLine
 10
-327.4428084089948
 20
304.5947842984586
 30
0.0
 11
-322.0277116105362
 21
310.009757377006
 31
0.0
  0
LINE
  5
57
330
1F
100
AcDbEntity
  8
0-2
  6
Continuous
 62
     4
370
     9
100
AcDbLine
 10
-322.0277116105362
 20
310.009757377006
 30
0.0
 11
-382.0274146827489
 21
310.009757377006
 31
0.0
  0
LINE
  5
58
330
1F
100
AcDbEntity
  8
0-2
  6
Continuous
 62
     4
370
     9
100
AcDbLine
 10
-382.0274146827489
 20
310.009757377006
 30
0.0
 11
-376.6123178842903
 21
304.5947842984586
 31
0.0
  0
LINE
  5
59
330
1F
100
AcDbEntity
  8
0-2
  6
Continuous
 62
     4
370
     9
100
AcDbLine
 10
-376.6123178842903
 20
304.5947842984586
 30
0.0
 11
-327.4428084089948
 21
304.5947842984586
 31
0.0
  0
LINE
  5
5A
330
1F
100
AcDbEntity
  8
0-2
  6
JWW_HOJO
 62
     4
370
     9
100
AcDbLine
 10
-96.77730251002941
 20
554.5947430584883
 30
0.0
 11
-207.2774938634922
 21
554.5947430584883
 31
0.0
  0
LINE
  5
5B
330
1F
100
AcDbEntity
  8
0-2
  6
Continuous
 62
     4
370
     9
100
AcDbLine
 10
-207.2774938634922
 20
589.7933052681589
 30
0.0
 11
-207.2774938634922
 21
554.5947430584883
 31
0.0
  0
LINE
  5
5C
330
1F
100
AcDbEntity
  8
0-2
  6
Continuous
 62
     4
370
     9
100
AcDbLine
 10
-109.4024245803419
 20
594.5943801467484
 30
0.0
 11
-194.6523717931797
 21
594.5943801467484
 31
0.0
  0
LINE
  5
5D
330
1F
100
AcDbEntity
  8
0-2
  6
Continuous
 62
     4
370
     9
100
AcDbLine
 10
-96.77730251002941
 20
589.7933052681589
 30
0.0
 11
-96.77730251002941
 21
554.5947430584883
 31
0.0
  0
LINE
  5
5E
330
1F
100
AcDbEntity
  8
0-2
  6
Continuous
 62
     4
370
     9
100
AcDbLine
 10
-127.4423960092903
 20
304.5947842984586
 30
0.0
 11
-122.0275466506544
 21
310.009757377006
 31
0.0
  0
LINE
  5
5F
330
1F
100
AcDbEntity
  8
0-2
  6
Continuous
 62
     4
370
     9
100
AcDbLine
 10
-122.0275466506544
 20
310.009757377006
 30
0.0
 11
-182.0272497228672
 21
310.009757377006
 31
0.0
  0
LINE
  5
60
330
1F
100
AcDbEntity
  8
0-2
  6
Continuous
 62
     4
370
     9
100
AcDbLine
 10
-182.0272497228672
 20
310.009757377006
 30
0.0
 11
-176.61227664432
 21
304.5947842984586
 31
0.0
  0
LINE
  5
61
330
1F
100
AcDbEntity
  8
0-2
  6
Continuous
 62
     4
370
     9
100
AcDbLine
 10
-176.61227664432
 20
304.5947842984586
 30
0.0
 11
-127.4423960092903
 21
304.5947842984586
 31
0.0
  0
LINE
  5
62
330
1F
100
AcDbEntity
  8
0-2
  6
JWW_HOJO
 62
     4
370
     9
100
AcDbLine
 10
-294.5272497228672
 20
464.5945698506125
 30
0.0
 11
-409.52713425095
 21
464.5945698506125
 31
0.0
  0
LINE
  5
63
330
1F
100
AcDbEntity
  8
0-2
  6
Continuous
 62
     4
370
     9
100
AcDbLine
 10
-294.5272497228672
 20
419.5020026129646
 30
0.0
 11
-294.5272497228672
 21
464.5945698506125
 31
0.0
  0
LINE
  5
64
330
1F
100
AcDbEntity
  8
0-2
  6
Continuous
 62
     4
370
     9
100
AcDbLine
 10
-409.52713425095
 20
419.5020026129646
 30
0.0
 11
-409.52713425095
 21
464.5945698506125
 31
0.0
  0
LINE
  5
65
330
1F
100
AcDbEntity
  8
0-2
  6
Continuous
 62
     4
370
     9
100
AcDbLine
 10
-323.3945691907726
 20
419.5020026129646
 30
0.0
 11
-323.3945691907726
 21
464.5945698506125
 31
0.0
  0
LINE
  5
66
330
1F
100
AcDbEntity
  8
0-2
  6
Continuous
 62
     4
370
     9
100
AcDbLine
 10
-380.6598147830448
 20
419.5020026129646
 30
0.0
 11
-380.6598147830448
 21
464.5945698506125
 31
0.0
  0
LINE
  5
67
330
1F
100
AcDbEntity
  8
0-2
  6
Continuous
 62
     4
370
     9
100
AcDbLine
 10
-308.96090945682
 20
414.5942811708193
 30
0.0
 11
-395.0934745169974
 21
414.5942811708193
 31
0.0
  0
LINE
  5
68
330
1F
100
AcDbEntity
  8
0-2
  6
JWW_HOJO
 62
     4
370
     9
100
AcDbLine
 10
-94.5270847629854
 20
464.5945698506125
 30
0.0
 11
-209.5269692910682
 21
464.5945698506125
 31
0.0
  0
LINE
  5
69
330
1F
100
AcDbEntity
  8
0-2
  6
Continuous
 62
     4
370
     9
100
AcDbLine
 10
-94.5270847629854
 20
419.5020026129646
 30
0.0
 11
-94.5270847629854
 21
464.5945698506125
 31
0.0
  0
LINE
  5
6A
330
1F
100
AcDbEntity
  8
0-2
  6
Continuous
 62
     4
370
     9
100
AcDbLine
 10
-209.5269692910682
 20
419.5020026129646
 30
0.0
 11
-209.5269692910682
 21
464.5945698506125
 31
0.0
  0
LINE
  5
6B
330
1F
100
AcDbEntity
  8
0-2
  6
Continuous
 62
     4
370
     9
100
AcDbLine
 10
-123.3944042308909
 20
419.5020026129646
 30
0.0
 11
-123.3944042308909
 21
464.5945698506125
 31
0.0
  0
LINE
  5
6C
330
1F
100
AcDbEntity
  8
0-2
  6
Continuous
 62
     4
370
     9
100
AcDbLine
 10
-180.659649823163
 20
419.5020026129646
 30
0.0
 11
-180.659649823163
 21
464.5945698506125
 31
0.0
  0
LINE
  5
6D
330
1F
100
AcDbEntity
  8
0-2
  6
Continuous
 62
     4
370
     9
100
AcDbLine
 10
-108.9607444969383
 20
414.5942811708193
 30
0.0
 11
-195.0933095571156
 21
414.5942811708193
 31
0.0
  0
LINE
  5
6E
330
1F
100
AcDbEntity
  8
0-2
  6
Continuous
 62
     4
370
     9
100
AcDbLine
 10
-322.0277116105362
 20
589.7933052681589
 30
0.0
 11
-322.0277116105362
 21
554.5947430584883
 31
0.0
  0
LINE
  5
6F
330
1F
100
AcDbEntity
  8
0-2
  6
Continuous
 62
     4
370
     9
100
AcDbLine
 10
-322.0277116105362
 20
414.5942811708193
 30
0.0
 11
-322.0277116105362
 21
310.009757377006
 31
0.0
  0
LINE
  5
70
330
1F
100
AcDbEntity
  8
0-2
  6
Continuous
 62
     4
370
     9
100
AcDbLine
 10
-382.0274146827489
 20
589.7933052681589
 30
0.0
 11
-382.0274146827489
 21
554.5947430584883
 31
0.0
  0
LINE
  5
71
330
1F
100
AcDbEntity
  8
0-2
  6
Continuous
 62
     4
370
     9
100
AcDbLine
 10
-382.0274146827489
 20
414.5942811708193
 30
0.0
 11
-382.0274146827489
 21
310.009757377006
 31
0.0
  0
LINE
  5
72
330
1F
100
AcDbEntity
  8
0-2
  6
Continuous
 62
     4
370
     9
100
AcDbLine
 10
-376.6123178842903
 20
414.5942811708193
 30
0.0
 11
-376.6123178842903
 21
304.5947842984586
 31
0.0
  0
LINE
  5
73
330
1F
100
AcDbEntity
  8
0-2
  6
Continuous
 62
     4
370
     9
100
AcDbLine
 10
-327.4428084089948
 20
414.5942811708193
 30
0.0
 11
-327.4428084089948
 21
304.5947842984586
 31
0.0
  0
LINE
  5
74
330
1F
100
AcDbEntity
  8
0-2
  6
JWW_CENTER1
 62
     4
370
     9
100
AcDbLine
 10
-352.02731570682
 20
612.6616936760981
 30
0.0
 11
-352.02731570682
 21
289.5049141548776
 31
0.0
  0
LINE
  5
75
330
1F
100
AcDbEntity
  8
0-2
  6
JWW_CENTER1
 62
     4
370
     9
100
AcDbLine
 10
-152.0271507469383
 20
612.6616936760981
 30
0.0
 11
-152.0271507469383
 21
289.5049141548776
 31
0.0
  0
LINE
  5
76
330
1F
100
AcDbEntity
  8
0-2
  6
Continuous
 62
     4
370
     9
100
AcDbLine
 10
-176.61227664432
 20
414.5942811708193
 30
0.0
 11
-176.61227664432
 21
304.5947842984586
 31
0.0
  0
LINE
  5
77
330
1F
100
AcDbEntity
  8
0-2
  6
Continuous
 62
     4
370
     9
100
AcDbLine
 10
-127.4423960092903
 20
414.5942811708193
 30
0.0
 11
-127.4423960092903
 21
304.5947842984586
 31
0.0
  0
LINE
  5
78
330
1F
100
AcDbEntity
  8
0-2
  6
Continuous
 62
     4
370
     9
100
AcDbLine
 10
-122.0275466506544
 20
589.7933052681589
 30
0.0
 11
-122.0275466506544
 21
554.5947430584883
 31
0.0
  0
LINE
  5
79
330
1F
100
AcDbEntity
  8
0-2
  6
Continuous
 62
     4
370
     9
100
AcDbLine
 10
-122.0275466506544
 20
414.5942811708193
 30
0.0
 11
-122.0275466506544
 21
310.009757377006
 31
0.0
  0
LINE
  5
7A
330
1F
100
AcDbEntity
  8
0-2
  6
Continuous
 62
     4
370
     9
100
AcDbLine
 10
-182.0272497228672
 20
589.7933052681589
 30
0.0
 11
-182.0272497228672
 21
554.5947430584883
 31
0.0
  0
LINE
  5
7B
330
1F
100
AcDbEntity
  8
0-2
  6
Continuous
 62
     4
370
     9
100
AcDbLine
 10
-182.0272497228672
 20
414.5942811708193
 30
0.0
 11
-182.0272497228672
 21
310.009757377006
 31
0.0
  0
LINE
  5
7C
330
1F
100
AcDbEntity
  8
0-2
  6
JWW_CENTER1
 62
     4
370
     9
100
AcDbLine
 10
-276.6458872202278
 20
-609.3243243243242
 30
0.0
 11
-432.3272292678419
 21
-609.3243243243242
 31
0.0
  0
LINE
  5
7D
330
1F
100
AcDbEntity
  8
0-2
  6
JWW_CENTER1
 62
     4
370
     9
100
AcDbLine
 10
-352.02731570682
 20
-539.9327953441723
 30
0.0
 11
-352.02731570682
 21
-682.0764572555954
 31
0.0
  0
LINE
  5
7E
330
1F
100
AcDbEntity
  8
0-2
  6
JWW_CENTER1
 62
     4
370
     9
100
AcDbLine
 10
-152.0271507469383
 20
-539.9327953441723
 30
0.0
 11
-152.0271507469383
 21
-682.0764572555954
 31
0.0
  0
LINE
  5
7F
330
1F
100
AcDbEntity
  8
0-2
  6
JWW_CENTER1
 62
     4
370
     9
100
AcDbLine
 10
-74.02372617979296
 20
-609.3243243243242
 30
0.0
 11
-225.8805146088471
 21
-609.3243243243242
 31
0.0
  0
LINE
  5
80
330
1F
100
AcDbEntity
  8
0-4
  6
Continuous
 62
     7
370
     9
100
AcDbLine
 10
-1402.027191986909
 20
-709.3244068042651
 30
0.0
 11
-1402.027191986909
 21
-509.3242418443833
 31
0.0
  0
LINE
  5
81
330
1F
100
AcDbEntity
  8
0-4
  6
Continuous
 62
     7
370
     9
100
AcDbLine
 10
-1283.462813093855
 20
-709.3244068042651
 30
0.0
 11
-1405.027152396537
 21
-709.3244068042651
 31
0.0
  0
LINE
  5
82
330
1F
100
AcDbEntity
  8
0-4
  6
Continuous
 62
     7
370
     9
100
AcDbLine
 10
-1283.462813093855
 20
-509.3242418443833
 30
0.0
 11
-1405.027152396537
 21
-509.3242418443833
 31
0.0
  0
LINE
  5
83
330
1F
100
AcDbEntity
  8
0-4
  6
Continuous
 62
     7
370
     9
100
AcDbLine
 10
-1402.027191986909
 20
-709.3244068042651
 30
0.0
 11
-1405.290428367821
 21
-684.5383597709036
 31
0.0
  0
LINE
  5
84
330
1F
100
AcDbEntity
  8
0-4
  6
Continuous
 62
     7
370
     9
100
AcDbLine
 10
-1402.027191986909
 20
-709.3244068042651
 30
0.0
 11
-1398.763955605997
 21
-684.5383597709036
 31
0.0
  0
LINE
  5
85
330
1F
100
AcDbEntity
  8
0-4
  6
Continuous
 62
     7
370
     9
100
AcDbLine
 10
-1402.027191986909
 20
-509.3242418443833
 30
0.0
 11
-1405.290428367821
 21
-534.1104125976562
 31
0.0
  0
LINE
  5
86
330
1F
100
AcDbEntity
  8
0-4
  6
Continuous
 62
     7
370
     9
100
AcDbLine
 10
-1402.027191986909
 20
-509.3242418443833
 30
0.0
 11
-1398.763955605997
 21
-534.1104125976562
 31
0.0
  0
LINE
  5
87
330
1F
100
AcDbEntity
  8
0-0
  6
Continuous
 62
     3
370
     9
100
AcDbLine
 10
-497.0269280510979
 20
-709.324283084354
 30
0.0
 11
-497.0269280510979
 21
-509.3243655642947
 31
0.0
  0
LINE
  5
88
330
1F
100
AcDbEntity
  8
0-0
  6
Continuous
 62
     3
370
     9
100
AcDbLine
 10
-47.0270517710091
 20
524.5943966427367
 30
0.0
 11
-47.0270517710091
 21
554.5944956186656
 31
0.0
  0
LINE
  5
89
330
1F
100
AcDbEntity
  8
0-0
  6
Continuous
 62
     3
370
     9
100
AcDbLine
 10
-47.0270517710091
 20
464.5945698506125
 30
0.0
 11
-47.0270517710091
 21
494.5945451066302
 31
0.0
  0
LINE
  5
8A
330
1F
100
AcDbEntity
  8
0-0
  6
Continuous
 62
     3
370
     9
100
AcDbLine
 10
-1252.027068266998
 20
-709.324283084354
 30
0.0
 11
-1252.027068266998
 21
-509.3242418443833
 31
0.0
  0
LINE
  5
8B
330
1F
100
AcDbEntity
  8
0-0
  6
JWW_DASHED1
 62
     3
370
     9
100
AcDbLine
 10
-1132.027043523015
 20
-709.324283084354
 30
0.0
 11
-1132.027043523015
 21
-509.3242418443833
 31
0.0
  0
LINE
  5
8C
330
1F
100
AcDbEntity
  8
0-0
  6
Continuous
 62
     3
370
     9
100
AcDbLine
 10
-1172.027051771009
 20
-604.3241841084248
 30
0.0
 11
-1172.027051771009
 21
-509.3242418443833
 31
0.0
  0
LINE
  5
8D
330
1F
100
AcDbEntity
  8
0-0
  6
Continuous
 62
     3
370
     9
100
AcDbLine
 10
-1162.027018779033
 20
-709.324283084354
 30
0.0
 11
-1162.027018779033
 21
-509.3242418443833
 31
0.0
  0
LINE
  5
8E
330
1F
100
AcDbEntity
  8
0-0
  6
Continuous
 62
     3
370
     9
100
AcDbLine
 10
-1252.027068266998
 20
-604.3241841084248
 30
0.0
 11
-1172.027051771009
 21
-604.3241841084248
 31
0.0
  0
LINE
  5
8F
330
1F
100
AcDbEntity
  8
0-0
  6
Continuous
 62
     3
370
     9
100
AcDbLine
 10
-1252.027068266998
 20
-614.3242171004011
 30
0.0
 11
-1162.027018779033
 21
-614.3242171004011
 31
0.0
  0
LINE
  5
90
330
1F
100
AcDbEntity
  8
0-0
  6
JWW_CENTER1
 62
     3
370
     9
100
AcDbLine
 10
-1192.026870315139
 20
424.8506618190459
 30
0.0
 11
-1192.026870315139
 21
594.0633742873734
 31
0.0
  0
LINE
  5
91
330
1F
100
AcDbEntity
  8
0-0
  6
JWW_CENTER1
 62
     3
370
     9
100
AcDbLine
 10
-1192.026994035051
 20
-732.3613017314188
 30
0.0
 11
-1192.026994035051
 21
-468.6716110641892
 31
0.0
  0
LINE
  5
92
330
1F
100
AcDbEntity
  8
0-0
  6
Continuous
 62
     3
370
     9
100
AcDbLine
 10
-483.071569494299
 20
554.5944956186656
 30
0.0
 11
-47.0270517710091
 21
554.5944956186656
 31
0.0
  0
LINE
  5
93
330
1F
100
AcDbEntity
  8
0-0
  6
Continuous
 62
     3
370
     9
100
AcDbLine
 10
-483.071569494299
 20
464.5945698506125
 30
0.0
 11
-47.0270517710091
 21
464.5945698506125
 31
0.0
  0
LINE
  5
94
330
1F
100
AcDbEntity
  8
0-0
  6
JWW_CENTER1
 62
     3
370
     9
100
AcDbLine
 10
-829.527035275021
 20
-752.8025529191301
 30
0.0
 11
-829.527035275021
 21
-475.3643633868242
 31
0.0
  0
LINE
  5
95
330
1F
100
AcDbEntity
  8
0-0
  6
JWW_CENTER1
 62
     3
370
     9
100
AcDbLine
 10
-829.527035275021
 20
124.5475480363177
 30
0.0
 11
-829.527035275021
 21
873.3011936497044
 31
0.0
  0
LINE
  5
96
330
1F
100
AcDbEntity
  8
0-4
  6
Continuous
 62
     7
370
     9
100
AcDbLine
 10
-567.5542058171453
 20
660.8446605785474
 30
0.0
 11
-590.6512286211992
 21
651.2776472761825
 31
0.0
  0
LINE
  5
97
330
1F
100
AcDbEntity
  8
0-4
  6
Continuous
 62
     7
370
     9
100
AcDbLine
 10
-541.5735193201012
 20
675.8449575063346
 30
0.0
 11
-521.7397328969594
 21
691.0639912373313
 31
0.0
  0
LINE
  5
98
330
1F
100
AcDbEntity
  8
0-4
  6
Continuous
 62
     7
370
     9
100
AcDbLine
 10
-541.5735193201012
 20
675.8449575063346
 30
0.0
 11
-518.4764965160471
 21
685.4119708086995
 31
0.0
  0
LINE
  5
99
330
1F
100
AcDbEntity
  8
0-4
  6
Continuous
 62
     7
370
     9
100
AcDbLine
 10
-567.5542058171453
 20
660.84490801837
 30
0.0
 11
-587.387992240287
 21
645.6258742873734
 31
0.0
  0
LINE
  5
9A
330
1F
100
AcDbEntity
  8
0-4
  6
Continuous
 62
     7
370
     9
100
AcDbLine
 10
-1091.499741012986
 20
358.3444048907307
 30
0.0
 11
-1071.665954589844
 21
373.5634386217274
 31
0.0
  0
LINE
  5
9B
330
1F
100
AcDbEntity
  8
0-4
  6
Continuous
 62
     7
370
     9
100
AcDbLine
 10
-1117.480798669763
 20
343.3446028425888
 30
0.0
 11
-1140.577697753906
 21
333.777589540224
 31
0.0
  0
LINE
  5
9C
330
1F
100
AcDbEntity
  8
0-4
  6
Continuous
 62
     7
370
     9
100
AcDbLine
 10
-1117.480798669763
 20
343.3446028425888
 30
0.0
 11
-1137.314585092905
 21
328.1254453916807
 31
0.0
  0
LINE
  5
9D
330
1F
100
AcDbEntity
  8
0-4
  6
Continuous
 62
     7
370
     9
100
AcDbLine
 10
-1091.499988452808
 20
358.3445286106419
 30
0.0
 11
-1068.403089368665
 21
367.9115419130068
 31
0.0
  0
LINE
  5
9E
330
1F
100
AcDbEntity
  8
0-4
  6
Continuous
 62
     7
370
     9
100
AcDbLine
 10
-1175.232387233425
 20
310.0013444230365
 30
0.0
 11
-479.4398952174831
 21
711.7172983530406
 31
0.0
  0
LINE
  5
9F
330
1F
100
AcDbEntity
  8
0-E
  6
Continuous
 62
     7
370
     9
100
AcDbLine
 10
-663.276919803104
 20
797.5479868296031
 30
0.0
 11
-653.7097827808276
 21
820.6450096336573
 31
0.0
  0
LINE
  5
A0
330
1F
100
AcDbEntity
  8
0-E
  6
Continuous
 62
     7
370
     9
100
AcDbLine
 10
-663.276919803104
 20
797.5479868296031
 30
0.0
 11
-648.0578860721073
 21
817.381773252745
 31
0.0
  0
LINE
  5
A1
330
1F
100
AcDbEntity
  8
0-E
  6
Continuous
 62
     7
370
     9
100
AcDbLine
 10
-663.276919803104
 20
797.5479868296031
 30
0.0
 11
-474.4564571896115
 21
1124.594644082559
 31
0.0
  0
LINE
  5
A2
330
1F
100
AcDbEntity
  8
0-0
  6
Continuous
 62
     3
370
     9
100
AcDbLine
 10
-1252.027068266998
 20
-509.3242418443833
 30
0.0
 11
-47.0270517710091
 21
-509.3242418443833
 31
0.0
  0
LINE
  5
A3
330
1F
100
AcDbEntity
  8
0-0
  6
Continuous
 62
     3
370
     9
100
AcDbLine
 10
-47.0270517710091
 20
-509.3242418443833
 30
0.0
 11
-47.0270517710091
 21
-709.324283084354
 31
0.0
  0
LINE
  5
A4
330
1F
100
AcDbEntity
  8
0-0
  6
Continuous
 62
     3
370
     9
100
AcDbLine
 10
-1252.027068266998
 20
-709.324283084354
 30
0.0
 11
-47.0270517710091
 21
-709.324283084354
 31
0.0
  0
LINE
  5
A5
330
1F
100
AcDbEntity
  8
0-E
  6
Continuous
 62
     7
370
     9
100
AcDbLine
 10
-474.4564571896115
 20
1124.594644082559
 30
0.0
 11
120.6872888513516
 21
1124.594644082559
 31
0.0
  0
LINE
  5
A6
330
1F
100
AcDbEntity
  8
0-9
  6
Continuous
 62
     2
370
     9
100
AcDbLine
 10
-527.0270270270269
 20
524.5946440825592
 30
0.0
 11
-527.0270270270269
 21
494.5945451066302
 31
0.0
  0
LINE
  5
A7
330
1F
100
AcDbEntity
  8
0-9
  6
Continuous
 62
     2
370
     9
100
AcDbLine
 10
-527.0270270270269
 20
524.5946440825592
 30
0.0
 11
442.9729564769849
 21
524.5946440825592
 31
0.0
  0
LINE
  5
A8
330
1F
100
AcDbEntity
  8
0-9
  6
Continuous
 62
     2
370
     9
100
AcDbLine
 10
-527.0270270270269
 20
494.5945451066302
 30
0.0
 11
442.9729564769849
 21
494.5945451066302
 31
0.0
  0
LINE
  5
A9
330
1F
100
AcDbEntity
  8
0-9
  6
Continuous
 62
     2
370
     9
100
AcDbLine
 10
442.9729564769849
 20
959.5945945945948
 30
0.0
 11
472.9730554529141
 21
959.5945945945948
 31
0.0
  0
LINE
  5
AA
330
1F
100
AcDbEntity
  8
0-9
  6
Continuous
 62
     2
370
     9
100
AcDbLine
 10
442.9729564769849
 20
959.5945945945948
 30
0.0
 11
442.9729564769849
 21
59.59459459459481
 31
0.0
  0
LINE
  5
AB
330
1F
100
AcDbEntity
  8
0-9
  6
Continuous
 62
     2
370
     9
100
AcDbLine
 10
442.9729564769849
 20
59.59459459459481
 30
0.0
 11
472.9730554529141
 21
59.59459459459481
 31
0.0
  0
LINE
  5
AC
330
1F
100
AcDbEntity
  8
0-9
  6
Continuous
 62
     2
370
     9
100
AcDbLine
 10
472.9730554529141
 20
959.5945945945948
 30
0.0
 11
472.9730554529141
 21
59.59459459459481
 31
0.0
  0
LINE
  5
AD
330
1F
100
AcDbEntity
  8
0-9
  6
Continuous
 62
     2
370
     9
100
AcDbLine
 10
472.9730554529141
 20
-509.3242418443833
 30
0.0
 11
472.9730554529141
 21
-709.3241593644426
 31
0.0
  0
LINE
  5
AE
330
1F
100
AcDbEntity
  8
0-9
  6
Continuous
 62
     2
370
     9
100
AcDbLine
 10
442.9729564769849
 20
-509.3242418443833
 30
0.0
 11
442.9729564769849
 21
-709.3241593644426
 31
0.0
  0
LINE
  5
AF
330
1F
100
AcDbEntity
  8
0-9
  6
JWW_HOJO
 62
     2
370
     9
100
AcDbLine
 10
-527.0270270270269
 20
-509.3242418443833
 30
0.0
 11
-527.0270270270269
 21
-709.3241593644426
 31
0.0
  0
LINE
  5
B0
330
1F
100
AcDbEntity
  8
0-9
  6
JWW_HOJO
 62
     2
370
     9
100
AcDbLine
 10
-422.0271754909206
 20
-644.3244397962416
 30
0.0
 11
-142.0272414748732
 21
-644.3244397962416
 31
0.0
  0
LINE
  5
B1
330
1F
100
AcDbEntity
  8
0-9
  6
JWW_HOJO
 62
     2
370
     9
100
AcDbLine
 10
-422.0271754909206
 20
-574.3242088524071
 30
0.0
 11
-142.0272414748732
 21
-574.3242088524071
 31
0.0
  0
LINE
  5
B2
330
1F
100
AcDbEntity
  8
0-9
  6
JWW_HOJO
 62
     2
370
     9
100
AcDbLine
 10
-457.0270435230151
 20
494.5945451066302
 30
0.0
 11
-457.0270435230151
 21
524.5946440825592
 31
0.0
  0
LINE
  5
B3
330
1F
100
AcDbEntity
  8
0-9
  6
JWW_HOJO
 62
     2
370
     9
100
AcDbLine
 10
-107.0273734427786
 20
494.5945451066302
 30
0.0
 11
-107.0273734427786
 21
524.5946440825592
 31
0.0
  0
LINE
  5
B4
330
1F
100
AcDbEntity
  8
0-9
  6
Continuous
 62
     2
370
     9
100
AcDbLine
 10
442.9729564769849
 20
799.5945616026186
 30
0.0
 11
472.9730554529141
 21
799.5945616026186
 31
0.0
  0
LINE
  5
B5
330
1F
100
AcDbEntity
  8
0-9
  6
Continuous
 62
     2
370
     9
100
AcDbLine
 10
442.9729564769849
 20
869.5947925464529
 30
0.0
 11
472.9730554529141
 21
869.5947925464529
 31
0.0
  0
LINE
  5
B6
330
1F
100
AcDbEntity
  8
0-9
  6
Continuous
 62
     2
370
     9
100
AcDbLine
 10
384.8795297983531
 20
834.5946770745356
 30
0.0
 11
535.5213886982688
 21
834.5946770745356
 31
0.0
  0
LINE
  5
B7
330
1F
100
AcDbEntity
  8
0-9
  6
Continuous
 62
     2
370
     9
100
AcDbLine
 10
442.9729564769849
 20
219.5946275865711
 30
0.0
 11
472.9730554529141
 21
219.5946275865711
 31
0.0
  0
LINE
  5
B8
330
1F
100
AcDbEntity
  8
0-9
  6
Continuous
 62
     2
370
     9
100
AcDbLine
 10
442.9729564769849
 20
149.5943966427365
 30
0.0
 11
472.9730554529141
 21
149.5943966427365
 31
0.0
  0
LINE
  5
B9
330
1F
100
AcDbEntity
  8
0-9
  6
Continuous
 62
     2
370
     9
100
AcDbLine
 10
384.8795297983531
 20
184.5945121146539
 30
0.0
 11
535.5213886982688
 21
184.5945121146539
 31
0.0
  0
LINE
  5
BA
330
1F
100
AcDbEntity
  8
0-9
  6
Continuous
 62
     2
370
     9
100
AcDbLine
 10
-47.0270517710091
 20
-709.3241593644426
 30
0.0
 11
472.9730554529141
 21
-709.3241593644426
 31
0.0
  0
LINE
  5
BB
330
1F
100
AcDbEntity
  8
0-9
  6
Continuous
 62
     2
370
     9
100
AcDbLine
 10
-47.0270517710091
 20
-509.3242418443833
 30
0.0
 11
472.9730554529141
 21
-509.3242418443833
 31
0.0
  0
LINE
  5
BC
330
1F
100
AcDbEntity
  8
0-0
  6
JWW_CENTER1
 62
     3
370
     9
100
AcDbLine
 10
-1273.1492738466
 20
509.5945945945948
 30
0.0
 11
535.5213886982688
 21
509.5945945945948
 31
0.0
  0
LINE
  5
BD
330
1F
100
AcDbEntity
  8
0-E
  6
Continuous
 62
     7
370
     9
100
AcDbLine
 10
472.9730554529141
 20
959.5945945945948
 30
0.0
 11
482.5400687552786
 21
982.6916173986488
 31
0.0
  0
LINE
  5
BE
330
1F
100
AcDbEntity
  8
0-E
  6
Continuous
 62
     7
370
     9
100
AcDbLine
 10
472.9730554529141
 20
959.5945945945948
 30
0.0
 11
488.1920891839104
 21
979.4283810177367
 31
0.0
  0
LINE
  5
BF
330
1F
100
AcDbEntity
  8
0-E
  6
Continuous
 62
     7
370
     9
100
AcDbLine
 10
472.9730554529141
 20
959.5945945945948
 30
0.0
 11
559.5755087362755
 21
1109.594594594595
 31
0.0
  0
LINE
  5
C0
330
1F
100
AcDbEntity
  8
0-E
  6
Continuous
 62
     7
370
     9
100
AcDbLine
 10
559.5755087362755
 20
1109.594594594595
 30
0.0
 11
974.6256235483531
 21
1109.594594594595
 31
0.0
  0
LINE
  5
C1
330
1F
100
AcDbEntity
  8
0-E
  6
Continuous
 62
     7
370
     9
100
AcDbLine
 10
-352.0275631466427
 20
594.5943801467484
 30
0.0
 11
-342.4604261243664
 21
617.6914029508023
 31
0.0
  0
LINE
  5
C2
330
1F
100
AcDbEntity
  8
0-E
  6
Continuous
 62
     7
370
     9
100
AcDbLine
 10
-352.0275631466427
 20
594.5943801467484
 30
0.0
 11
-336.8085294156461
 21
614.4281665698904
 31
0.0
  0
LINE
  5
C3
330
1F
100
AcDbEntity
  8
0-E
  6
Continuous
 62
     7
370
     9
100
AcDbLine
 10
-352.0275631466427
 20
594.5943801467484
 30
0.0
 11
-265.4249861433698
 21
744.5943801467484
 31
0.0
  0
LINE
  5
C4
330
1F
100
AcDbEntity
  8
0-E
  6
Continuous
 62
     7
370
     9
100
AcDbLine
 10
162.5867688978042
 20
744.5943801467484
 30
0.0
 11
-265.4249861433698
 21
744.5943801467484
 31
0.0
  0
LINE
  5
C5
330
1F
100
AcDbEntity
  8
0-4
  6
Continuous
 62
     7
370
     9
100
AcDbLine
 10
-352.02731570682
 20
154.5947842984586
 30
0.0
 11
-47.02692805109791
 21
154.5947842984586
 31
0.0
  0
LINE
  5
C6
330
1F
100
AcDbEntity
  8
0-4
  6
Continuous
 62
     7
370
     9
100
AcDbLine
 10
-352.02731570682
 20
264.093957849451
 30
0.0
 11
-352.02731570682
 21
151.5948238888302
 31
0.0
  0
LINE
  5
C7
330
1F
100
AcDbEntity
  8
0-4
  6
Continuous
 62
     7
370
     9
100
AcDbLine
 10
-152.0271507469383
 20
264.093957849451
 30
0.0
 11
-152.0271507469383
 21
151.5948238888302
 31
0.0
  0
LINE
  5
C8
330
1F
100
AcDbEntity
  8
0-4
  6
Continuous
 62
     7
370
     9
100
AcDbLine
 10
-352.02731570682
 20
154.5947842984586
 30
0.0
 11
-327.2412686734586
 21
157.8578969594597
 31
0.0
  0
LINE
  5
C9
330
1F
100
AcDbEntity
  8
0-4
  6
Continuous
 62
     7
370
     9
100
AcDbLine
 10
-352.02731570682
 20
154.5947842984586
 30
0.0
 11
-327.2412686734586
 21
151.3316716374578
 31
0.0
  0
LINE
  5
CA
330
1F
100
AcDbEntity
  8
0-4
  6
Continuous
 62
     7
370
     9
100
AcDbLine
 10
-127.2411037135768
 20
151.3316716374578
 30
0.0
 11
-176.8131977802997
 21
157.8578969594597
 31
0.0
  0
LINE
  5
CB
330
1F
100
AcDbEntity
  8
0-4
  6
Continuous
 62
     7
370
     9
100
AcDbLine
 10
-127.2411037135768
 20
157.8578969594597
 30
0.0
 11
-176.8131977802997
 21
151.3316716374578
 31
0.0
  0
LINE
  5
CC
330
1F
100
AcDbEntity
  8
0-4
  6
Continuous
 62
     7
370
     9
100
AcDbLine
 10
-47.02692805109791
 20
154.5947842984586
 30
0.0
 11
-71.81309880437055
 21
157.8578969594597
 31
0.0
  0
LINE
  5
CD
330
1F
100
AcDbEntity
  8
0-4
  6
Continuous
 62
     7
370
     9
100
AcDbLine
 10
-47.02692805109791
 20
154.5947842984586
 30
0.0
 11
-71.81309880437055
 21
151.3316716374578
 31
0.0
  0
LINE
  5
CE
330
1F
100
AcDbEntity
  8
0-4
  6
Continuous
 62
     7
370
     9
100
AcDbLine
 10
-47.02692805109791
 20
451.3039583773227
 30
0.0
 11
-47.02692805109791
 21
151.5948238888302
 31
0.0
  0
LINE
  5
CF
330
1F
100
AcDbEntity
  8
0-4
  6
Continuous
 62
     7
370
     9
100
AcDbLine
 10
-527.0270270270269
 20
-90.40540540540519
 30
0.0
 11
472.9730554529141
 21
-90.40540540540519
 31
0.0
  0
LINE
  5
D0
330
1F
100
AcDbEntity
  8
0-4
  6
Continuous
 62
     7
370
     9
100
AcDbLine
 10
-527.0270270270269
 20
469.5944626266893
 30
0.0
 11
-527.0270270270269
 21
-93.40536581503358
 31
0.0
  0
LINE
  5
D1
330
1F
100
AcDbEntity
  8
0-4
  6
Continuous
 62
     7
370
     9
100
AcDbLine
 10
472.9730554529141
 20
34.59463583456511
 30
0.0
 11
472.9730554529141
 21
-93.40536581503358
 31
0.0
  0
LINE
  5
D2
330
1F
100
AcDbEntity
  8
0-4
  6
Continuous
 62
     7
370
     9
100
AcDbLine
 10
-527.0270270270269
 20
-90.40540540540519
 30
0.0
 11
-502.2408562737542
 21
-87.14229274440441
 31
0.0
  0
LINE
  5
D3
330
1F
100
AcDbEntity
  8
0-4
  6
Continuous
 62
     7
370
     9
100
AcDbLine
 10
-527.0270270270269
 20
-90.40540540540519
 30
0.0
 11
-502.2408562737542
 21
-93.66851806640625
 31
0.0
  0
LINE
  5
D4
330
1F
100
AcDbEntity
  8
0-4
  6
Continuous
 62
     7
370
     9
100
AcDbLine
 10
472.9730554529141
 20
-90.40540540540519
 30
0.0
 11
448.1870084195526
 21
-87.14229274440441
 31
0.0
  0
LINE
  5
D5
330
1F
100
AcDbEntity
  8
0-4
  6
Continuous
 62
     7
370
     9
100
AcDbLine
 10
472.9730554529141
 20
-90.40540540540519
 30
0.0
 11
448.1870084195526
 21
-93.66851806640625
 31
0.0
  0
LINE
  5
D6
330
1F
100
AcDbEntity
  8
0-4
  6
Continuous
 62
     7
370
     9
100
AcDbLine
 10
622.9730554529141
 20
184.5945121146539
 30
0.0
 11
622.9730554529141
 21
834.5946770745356
 31
0.0
  0
LINE
  5
D7
330
1F
100
AcDbEntity
  8
0-4
  6
Continuous
 62
     7
370
     9
100
AcDbLine
 10
560.5214711782094
 20
184.5945121146539
 30
0.0
 11
625.9730158625422
 21
184.5945121146539
 31
0.0
  0
LINE
  5
D8
330
1F
100
AcDbEntity
  8
0-4
  6
Continuous
 62
     7
370
     9
100
AcDbLine
 10
560.5214711782094
 20
834.5946770745356
 30
0.0
 11
625.9730158625422
 21
834.5946770745356
 31
0.0
  0
LINE
  5
D9
330
1F
100
AcDbEntity
  8
0-4
  6
Continuous
 62
     7
370
     9
100
AcDbLine
 10
622.9730554529141
 20
184.5945121146539
 30
0.0
 11
619.7098190720021
 21
209.3806828679266
 31
0.0
  0
LINE
  5
DA
330
1F
100
AcDbEntity
  8
0-4
  6
Continuous
 62
     7
370
     9
100
AcDbLine
 10
622.9730554529141
 20
184.5945121146539
 30
0.0
 11
626.236291833826
 21
209.3806828679266
 31
0.0
  0
LINE
  5
DB
330
1F
100
AcDbEntity
  8
0-4
  6
Continuous
 62
     7
370
     9
100
AcDbLine
 10
622.9730554529141
 20
834.5946770745356
 30
0.0
 11
619.7098190720021
 21
809.8086300411742
 31
0.0
  0
LINE
  5
DC
330
1F
100
AcDbEntity
  8
0-4
  6
Continuous
 62
     7
370
     9
100
AcDbLine
 10
622.9730554529141
 20
834.5946770745356
 30
0.0
 11
626.236291833826
 21
809.8086300411742
 31
0.0
  0
LINE
  5
DD
330
1F
100
AcDbEntity
  8
0-4
  6
Continuous
 62
     7
370
     9
100
AcDbLine
 10
722.9731379328547
 20
59.59459459459481
 30
0.0
 11
722.9731379328547
 21
959.5945945945948
 31
0.0
  0
LINE
  5
DE
330
1F
100
AcDbEntity
  8
0-4
  6
Continuous
 62
     7
370
     9
100
AcDbLine
 10
497.9731379328547
 20
59.59459459459481
 30
0.0
 11
725.9730983424834
 21
59.59459459459481
 31
0.0
  0
LINE
  5
DF
330
1F
100
AcDbEntity
  8
0-4
  6
Continuous
 62
     7
370
     9
100
AcDbLine
 10
497.9731379328547
 20
959.5945945945948
 30
0.0
 11
725.9730983424834
 21
959.5945945945948
 31
0.0
  0
LINE
  5
E0
330
1F
100
AcDbEntity
  8
0-4
  6
Continuous
 62
     7
370
     9
100
AcDbLine
 10
722.9731379328547
 20
59.59459459459481
 30
0.0
 11
719.7099015519427
 21
84.38076534786745
 31
0.0
  0
LINE
  5
E1
330
1F
100
AcDbEntity
  8
0-4
  6
Continuous
 62
     7
370
     9
100
AcDbLine
 10
722.9731379328547
 20
59.59459459459481
 30
0.0
 11
726.2363743137672
 21
84.38076534786745
 31
0.0
  0
LINE
  5
E2
330
1F
100
AcDbEntity
  8
0-4
  6
Continuous
 62
     7
370
     9
100
AcDbLine
 10
722.9731379328547
 20
959.5945945945948
 30
0.0
 11
719.7099015519427
 21
934.8085475612334
 31
0.0
  0
LINE
  5
E3
330
1F
100
AcDbEntity
  8
0-4
  6
Continuous
 62
     7
370
     9
100
AcDbLine
 10
722.9731379328547
 20
959.5945945945948
 30
0.0
 11
726.2363743137672
 21
934.8085475612334
 31
0.0
  0
LINE
  5
E4
330
1F
100
AcDbEntity
  8
0-4
  6
Continuous
 62
     7
370
     9
100
AcDbLine
 10
472.9730554529141
 20
184.5945121146539
 30
0.0
 11
488.1920891839104
 21
164.760725691512
 31
0.0
  0
LINE
  5
E5
330
1F
100
AcDbEntity
  8
0-4
  6
Continuous
 62
     7
370
     9
100
AcDbLine
 10
472.9730554529141
 20
184.5945121146539
 30
0.0
 11
482.5400687552786
 21
161.4974893105997
 31
0.0
  0
LINE
  5
E6
330
1F
100
AcDbEntity
  8
0-4
  6
Continuous
 62
     7
370
     9
100
AcDbLine
 10
472.9730554529141
 20
184.5945121146539
 30
0.0
 11
631.7443022856844
 21
-90.40540540540519
 31
0.0
  0
LINE
  5
E7
330
1F
100
AcDbEntity
  8
0-4
  6
Continuous
 62
     7
370
     9
100
AcDbLine
 10
631.7443022856844
 20
-90.40540540540519
 30
0.0
 11
828.9187044710729
 21
-90.40540540540519
 31
0.0
  0
LINE
  5
E8
330
1F
100
AcDbEntity
  8
0-4
  6
Continuous
 62
     7
370
     9
100
AcDbLine
 10
769.0706820101354
 20
-646.337424613334
 30
0.0
 11
769.0706820101354
 21
-816.337614317198
 31
0.0
  0
LINE
  5
E9
330
1F
100
AcDbEntity
  8
0-4
  6
Continuous
 62
     7
370
     9
100
AcDbLine
 10
769.0706820101354
 20
-646.337424613334
 30
0.0
 11
1769.070517050254
 21
-646.337424613334
 31
0.0
  0
LINE
  5
EA
330
1F
100
AcDbEntity
  8
0-4
  6
Continuous
 62
     7
370
     9
100
AcDbLine
 10
769.0706820101354
 20
-816.337614317198
 30
0.0
 11
1769.070517050254
 21
-816.337614317198
 31
0.0
  0
LINE
  5
EB
330
1F
100
AcDbEntity
  8
0-4
  6
Continuous
 62
     7
370
     9
100
AcDbLine
 10
769.0706820101354
 20
-716.3374081173458
 30
0.0
 11
1769.070517050254
 21
-716.3374081173458
 31
0.0
  0
LINE
  5
EC
330
1F
100
AcDbEntity
  8
0-4
  6
Continuous
 62
     7
370
     9
100
AcDbLine
 10
1769.070517050254
 20
-646.337424613334
 30
0.0
 11
1769.070517050254
 21
-816.337614317198
 31
0.0
  0
LINE
  5
ED
330
1F
100
AcDbEntity
  8
0-4
  6
Continuous
 62
     7
370
     9
100
AcDbLine
 10
769.0706820101354
 20
-711.337515341269
 30
0.0
 11
1769.070517050254
 21
-711.337515341269
 31
0.0
  0
LINE
  5
EE
330
1F
100
AcDbEntity
  8
0-4
  6
Continuous
 62
     7
370
     9
100
AcDbLine
 10
869.070764490076
 20
-716.3374081173458
 30
0.0
 11
869.070764490076
 21
-816.337614317198
 31
0.0
  0
LINE
  5
EF
330
1F
100
AcDbEntity
  8
0-4
  6
Continuous
 62
     7
370
     9
100
AcDbLine
 10
969.0705995301943
 20
-716.3374081173458
 30
0.0
 11
969.0705995301943
 21
-816.337614317198
 31
0.0
  0
LINE
  5
F0
330
1F
100
AcDbEntity
  8
0-4
  6
Continuous
 62
     7
370
     9
100
AcDbLine
 10
1069.070682010135
 20
-716.3374081173458
 30
0.0
 11
1069.070682010135
 21
-816.337614317198
 31
0.0
  0
LINE
  5
F1
330
1F
100
AcDbEntity
  8
0-4
  6
Continuous
 62
     7
370
     9
100
AcDbLine
 10
1169.070764490076
 20
-716.3374081173458
 30
0.0
 11
1169.070764490076
 21
-816.337614317198
 31
0.0
  0
LINE
  5
F2
330
1F
100
AcDbEntity
  8
0-4
  6
Continuous
 62
     7
370
     9
100
AcDbLine
 10
1269.070599530194
 20
-716.3374081173458
 30
0.0
 11
1269.070599530194
 21
-816.337614317198
 31
0.0
  0
LINE
  5
F3
330
1F
100
AcDbEntity
  8
0-4
  6
Continuous
 62
     7
370
     9
100
AcDbLine
 10
1369.070682010135
 20
-716.3374081173458
 30
0.0
 11
1369.070682010135
 21
-816.337614317198
 31
0.0
  0
LINE
  5
F4
330
1F
100
AcDbEntity
  8
0-4
  6
Continuous
 62
     7
370
     9
100
AcDbLine
 10
1469.070764490076
 20
-716.3374081173458
 30
0.0
 11
1469.070764490076
 21
-816.337614317198
 31
0.0
  0
LINE
  5
F5
330
1F
100
AcDbEntity
  8
0-4
  6
Continuous
 62
     7
370
     9
100
AcDbLine
 10
785.1488268053208
 20
-1092.083779412347
 30
0.0
 11
1595.491976351352
 21
-1092.083779412347
 31
0.0
  0
LINE
  5
F6
330
1F
100
AcDbEntity
  8
0-4
  6
Continuous
 62
     7
370
     9
100
AcDbLine
 10
785.1488268053208
 20
-932.084024790171
 30
0.0
 11
1730.491926863387
 21
-932.084024790171
 31
0.0
  0
LINE
  5
F7
330
1F
100
AcDbEntity
  8
0-4
  6
Continuous
 62
     7
370
     9
100
AcDbLine
 10
785.1488268053208
 20
-1012.083762916359
 30
0.0
 11
1752.992124815245
 21
-1012.083762916359
 31
0.0
  0
LINE
  5
F8
330
1F
100
AcDbEntity
  8
0-4
  6
Continuous
 62
     7
370
     9
100
AcDbLine
 10
1569.070846970017
 20
-716.3374081173458
 30
0.0
 11
1569.070846970017
 21
-816.337614317198
 31
0.0
  0
LINE
  5
F9
330
1F
100
AcDbEntity
  8
0-4
  6
Continuous
 62
     7
370
     9
100
AcDbLine
 10
1669.070682010135
 20
-716.3374081173458
 30
0.0
 11
1669.070682010135
 21
-816.337614317198
 31
0.0
  0
CIRCLE
  5
FA
330
1F
100
AcDbEntity
  8
0-2
  6
Continuous
 62
     4
370
     9
100
AcDbCircle
 10
-351.7923715952278
 20
-609.3243243243242
 30
0.0
 40
49.99999097875647
  0
CIRCLE
  5
FB
330
1F
100
AcDbEntity
  8
0-2
  6
Continuous
 62
     4
370
     9
100
AcDbCircle
 10
-151.7923303552575
 20
-609.3243243243242
 30
0.0
 40
49.99999097875647
  0
ARC
  5
FC
330
1F
100
AcDbEntity
  8
0-2
  6
Continuous
 62
     4
370
     9
100
AcDbCircle
 10
-394.6525367530614
 20
575.5947133657096
 30
0.0
 40
18.99999927830052
100
AcDbArc
 50
48.35789489746093
 51
131.6421203613281
  0
ARC
  5
FD
330
1F
100
AcDbEntity
  8
0-2
  6
Continuous
 62
     4
370
     9
100
AcDbCircle
 10
-309.4025895402237
 20
575.5947133657096
 30
0.0
 40
18.99999927830052
100
AcDbArc
 50
48.35787963867188
 51
131.6421051025391
  0
ARC
  5
FE
330
1F
100
AcDbEntity
  8
0-2
  6
Continuous
 62
     4
370
     9
100
AcDbCircle
 10
-352.0275631466427
 20
498.4612872149495
 30
0.0
 40
96.13323984919369
100
AcDbArc
 50
71.81625366210938
 51
108.1837463378906
  0
ARC
  5
FF
330
1F
100
AcDbEntity
  8
0-2
  6
Continuous
 62
     4
370
     9
100
AcDbCircle
 10
-194.6523717931797
 20
575.5947133657096
 30
0.0
 40
18.99999927830052
100
AcDbArc
 50
48.35789489746093
 51
131.6421203613281
  0
ARC
  5
100
330
1F
100
AcDbEntity
  8
0-2
  6
Continuous
 62
     4
370
     9
100
AcDbCircle
 10
-109.4024245803419
 20
575.5947133657096
 30
0.0
 40
18.99999927830052
100
AcDbArc
 50
48.35787963867188
 51
131.6421051025391
  0
ARC
  5
101
330
1F
100
AcDbEntity
  8
0-2
  6
Continuous
 62
     4
370
     9
100
AcDbCircle
 10
-152.0273981867609
 20
498.4612872149495
 30
0.0
 40
96.13323984919369
100
AcDbArc
 50
71.81625366210938
 51
108.1837463378906
  0
ARC
  5
102
330
1F
100
AcDbEntity
  8
0-2
  6
Continuous
 62
     4
370
     9
100
AcDbCircle
 10
-308.96090945682
 20
438.2735298775339
 30
0.0
 40
23.67928930231043
100
AcDbArc
 50
232.4427795410156
 51
307.5572204589844
  0
ARC
  5
103
330
1F
100
AcDbEntity
  8
0-2
  6
Continuous
 62
     4
370
     9
100
AcDbCircle
 10
-352.0270682669974
 20
500.573433540963
 30
0.0
 40
85.97918330012142
100
AcDbArc
 50
250.5480041503907
 51
289.4519958496094
  0
ARC
  5
104
330
1F
100
AcDbEntity
  8
0-2
  6
Continuous
 62
     4
370
     9
100
AcDbCircle
 10
-395.0934745169974
 20
438.2735298775339
 30
0.0
 40
23.67928930231043
100
AcDbArc
 50
232.4427795410156
 51
307.5572204589844
  0
ARC
  5
105
330
1F
100
AcDbEntity
  8
0-2
  6
Continuous
 62
     4
370
     9
100
AcDbCircle
 10
-108.9607444969383
 20
438.2735298775339
 30
0.0
 40
23.67928930231043
100
AcDbArc
 50
232.4427795410156
 51
307.5572204589844
  0
ARC
  5
106
330
1F
100
AcDbEntity
  8
0-2
  6
Continuous
 62
     4
370
     9
100
AcDbCircle
 10
-152.0269033071156
 20
500.573433540963
 30
0.0
 40
85.97918330012142
100
AcDbArc
 50
250.5480041503907
 51
289.4519958496094
  0
ARC
  5
107
330
1F
100
AcDbEntity
  8
0-2
  6
Continuous
 62
     4
370
     9
100
AcDbCircle
 10
-195.0933095571156
 20
438.2735298775339
 30
0.0
 40
23.67928930231043
100
AcDbArc
 50
232.4427795410156
 51
307.5572204589844
  0
CIRCLE
  5
108
330
1F
100
AcDbEntity
  8
0-2
  6
Continuous
 62
     4
370
     9
100
AcDbCircle
 10
-352.02731570682
 20
-609.3243243243242
 30
0.0
 40
24.58512589738176
  0
CIRCLE
  5
109
330
1F
100
AcDbEntity
  8
0-2
  6
Continuous
 62
     4
370
     9
100
AcDbCircle
 10
-352.02731570682
 20
-609.3243243243242
 30
0.0
 40
30.00009897592906
  0
CIRCLE
  5
10A
330
1F
100
AcDbEntity
  8
0-2
  6
Continuous
 62
     4
370
     9
100
AcDbCircle
 10
-152.0271507469383
 20
-609.3243243243242
 30
0.0
 40
24.58512589738176
  0
CIRCLE
  5
10B
330
1F
100
AcDbEntity
  8
0-2
  6
Continuous
 62
     4
370
     9
100
AcDbCircle
 10
-152.0271507469383
 20
-609.3243243243242
 30
0.0
 40
30.00009897592906
  0
ARC
  5
10C
330
1F
100
AcDbEntity
  8
0-0
  6
Continuous
 62
     3
370
     9
100
AcDbCircle
 10
-1192.026994035051
 20
-518.2304671004011
 30
0.0
 40
28.90625064437454
100
AcDbArc
 50
17.94525146484375
 51
162.0547332763672
  0
ARC
  5
10D
330
1F
100
AcDbEntity
  8
0-0
  6
Continuous
 62
     3
370
     9
100
AcDbCircle
 10
-1192.026870315139
 20
509.5945945945948
 30
0.0
 40
60.00000077324945
100
AcDbArc
 50
55.80099487304688
 51
0.0
  0
CIRCLE
  5
10E
330
1F
100
AcDbEntity
  8
0-0
  6
Continuous
 62
     3
370
     9
100
AcDbCircle
 10
-1192.026870315139
 20
509.5945945945948
 30
0.0
 40
30.00000038662472
  0
ARC
  5
10F
330
1F
100
AcDbEntity
  8
0-0
  6
Continuous
 62
     3
370
     9
100
AcDbCircle
 10
-483.071569494299
 20
574.5945616026182
 30
0.0
 40
20.00000025774982
100
AcDbArc
 50
190.6260070800781
 51
270.0
  0
ARC
  5
110
330
1F
100
AcDbEntity
  8
0-0
  6
Continuous
 62
     3
370
     9
100
AcDbCircle
 10
-483.071569494299
 20
444.5947513064823
 30
0.0
 40
20.00000025774982
100
AcDbArc
 50
90.0
 51
169.3739929199219
  0
ARC
  5
111
330
1F
100
AcDbEntity
  8
0-0
  6
Continuous
 62
     3
370
     9
100
AcDbCircle
 10
-829.5269115551098
 20
509.5945945945948
 30
0.0
 40
332.5000144339896
100
AcDbArc
 50
188.5834197998047
 51
349.3740386962891
  0
ARC
  5
112
330
1F
100
AcDbEntity
  8
0-0
  6
Continuous
 62
     3
370
     9
100
AcDbCircle
 10
-829.5269115551098
 20
509.5945945945948
 30
0.0
 40
302.5000082479941
100
AcDbArc
 50
10.62596130371094
 51
349.3740386962891
  0
ARC
  5
113
330
1F
100
AcDbEntity
  8
0-0
  6
Continuous
 62
     3
370
     9
100
AcDbCircle
 10
-829.5269115551098
 20
509.5945945945948
 30
0.0
 40
332.5000144339896
100
AcDbArc
 50
10.6259765625
 51
180.0
  0
ARC
  5
114
330
1F
100
AcDbEntity
  8
0-0
  6
Continuous
 62
     3
370
     9
100
AcDbCircle
 10
-483.071569494299
 20
574.5945616026182
 30
0.0
 40
50.00000257749815
100
AcDbArc
 50
190.6259918212891
 51
270.0
  0
ARC
  5
115
330
1F
100
AcDbEntity
  8
0-0
  6
Continuous
 62
     3
370
     9
100
AcDbCircle
 10
-483.071569494299
 20
444.5947513064823
 30
0.0
 40
50.00000257749815
100
AcDbArc
 50
90.0
 51
169.3740081787109
  0
ARC
  5
116
330
1F
100
AcDbEntity
  8
0-9
  6
JWW_HOJO
 62
     2
370
     9
100
AcDbCircle
 10
-422.0271754909206
 20
-609.3243243243242
 30
0.0
 40
34.99999175200591
100
AcDbArc
 50
90.0
 51
270.0
  0
ARC
  5
117
330
1F
100
AcDbEntity
  8
0-9
  6
JWW_HOJO
 62
     2
370
     9
100
AcDbCircle
 10
-142.0272414748732
 20
-609.3243243243242
 30
0.0
 40
34.99999175200591
100
AcDbArc
 50
270.0
 51
90.0
  0
TEXT
  5
118
330
1F
100
AcDbEntity
  8
0-E
  6
Continuous
 62
     7
370
     9
100
AcDbText
 10
-331.8845841691299
 20
1140.955876266892
 30
0.0
 40
22.86
  1
本体：ＳＵＳ３０４
 41
1.148148148148148
  7
ＭＳ ゴシック
100
AcDbText
  0
TEXT
  5
119
330
1F
100
AcDbEntity
  8
0-4
  6
Continuous
 62
     2
370
     9
100
AcDbText
 10
-798.021188201748
 20
540.0701953556755
 30
0.0
 40
30.48
  1
φ60.5
 50
30.0000144952044
 41
1.104166666666667
  7
ＭＳ ゴシック
100
AcDbText
  0
TEXT
  5
11A
330
1F
100
AcDbEntity
  8
0-4
  6
Continuous
 62
     2
370
     9
100
AcDbText
 10
-513.6208971128316
 20
704.2692903562006
 30
0.0
 40
30.48
  1
3
 50
30.0000349857719
 41
0.9999999999999988
  7
ＭＳ ゴシック
100
AcDbText
  0
TEXT
  5
11B
330
1F
100
AcDbEntity
  8
0-4
  6
Continuous
 62
     2
370
     9
100
AcDbText
 10
-1167.717953966863
 20
326.6261203796243
 30
0.0
 40
30.48
  1
3
 50
30.00012377823112
 41
0.9999999999999988
  7
ＭＳ ゴシック
100
AcDbText
  0
TEXT
  5
11C
330
1F
100
AcDbEntity
  8
0-E
  6
Continuous
 62
     7
370
     9
100
AcDbText
 10
-469.3126946526603
 20
1088.613198506123
 30
0.0
 40
22.86
  1
ヘアライン仕上＋セラッミック系塗装
 41
1.156862745098039
  7
ＭＳ ゴシック
100
AcDbText
  0
TEXT
  5
11D
330
1F
100
AcDbEntity
  8
0-4
  6
Continuous
 62
     2
370
     9
100
AcDbText
 10
-1417.666976610196
 20
-630.5743245708566
 30
0.0
 40
30.48
  1
20
 50
90.00000250447816
 41
1.062499999999999
  7
ＭＳ ゴシック
100
AcDbText
  0
TEXT
  5
11E
330
1F
100
AcDbEntity
  8
0-E
  6
Continuous
 62
     7
370
     9
100
AcDbText
 10
-254.962917018581
 20
755.3478836307011
 30
0.0
 40
22.86
  1
六角ボルト：ＳＵＳ３０４
 41
1.152777777777778
  7
ＭＳ ゴシック
100
AcDbText
  0
TEXT
  5
11F
330
1F
100
AcDbEntity
  8
0-E
  6
Continuous
 62
     7
370
     9
100
AcDbText
 10
-151.9977342760241
 20
710.9101658836573
 30
0.0
 40
22.86
  1
Ｍ６×２５
 41
1.133333333333333
  7
ＭＳ ゴシック
100
AcDbText
  0
TEXT
  5
120
330
1F
100
AcDbEntity
  8
0-E
  6
Continuous
 62
     7
370
     9
100
AcDbText
 10
568.6414646457981
 20
1126.591499683277
 30
0.0
 40
22.86
  1
支持金具：ＳＵＳ３０４
 41
1.151515151515152
  7
ＭＳ ゴシック
100
AcDbText
  0
TEXT
  5
121
330
1F
100
AcDbEntity
  8
0-E
  6
Continuous
 62
     7
370
     9
100
AcDbText
 10
559.6254338444894
 20
1077.003569467905
 30
0.0
 40
22.86
  1
ヘアライン仕上＋電解研磨
 41
1.152777777777778
  7
ＭＳ ゴシック
100
AcDbText
  0
TEXT
  5
122
330
1F
100
AcDbEntity
  8
0-4
  6
Continuous
 62
     2
370
     9
100
AcDbText
 10
-273.2772332268792
 20
170.2348172904352
 30
0.0
 40
30.48
  1
20
 41
1.0625
  7
ＭＳ ゴシック
100
AcDbText
  0
TEXT
  5
123
330
1F
100
AcDbEntity
  8
0-4
  6
Continuous
 62
     2
370
     9
100
AcDbText
 10
-143.2770393990181
 20
170.2348172904352
 30
0.0
 40
30.48
  1
10.5
 41
1.09375
  7
ＭＳ ゴシック
100
AcDbText
  0
TEXT
  5
124
330
1F
100
AcDbEntity
  8
0-4
  6
Continuous
 62
     2
370
     9
100
AcDbText
 10
607.3330233898046
 20
488.3445943480625
 30
0.0
 40
30.48
  1
65
 50
90.00000250447816
 41
1.062499999999999
  7
ＭＳ ゴシック
100
AcDbText
  0
TEXT
  5
125
330
1F
100
AcDbEntity
  8
0-4
  6
Continuous
 62
     2
370
     9
100
AcDbText
 10
707.3331058697457
 20
488.3445943480625
 30
0.0
 40
30.48
  1
90
 50
90.00000250447816
 41
1.062499999999999
  7
ＭＳ ゴシック
100
AcDbText
  0
TEXT
  5
126
330
1F
100
AcDbEntity
  8
0-4
  6
Continuous
 62
     2
370
     9
100
AcDbText
 10
-47.02680020718944
 20
-74.76537241342889
 30
0.0
 40
30.48
  1
Ａ
 41
0.9999999999999998
  7
ＭＳ ゴシック
100
AcDbText
  0
TEXT
  5
127
330
1F
100
AcDbEntity
  8
0-4
  6
Continuous
 62
     2
370
     9
100
AcDbText
 10
642.4322592245568
 20
-68.54918918918905
 30
0.0
 40
30.48
  1
２－φ７
 41
1.09375
  7
ＭＳ ゴシック
100
AcDbText
  0
TEXT
  5
128
330
1F
100
AcDbEntity
  8
0-4
  6
Continuous
 62
     2
370
     9
100
AcDbText
 10
1204.07059684643
 20
-693.1974741013155
 30
0.0
 40
30.48
  1
Ａ寸法
 50
0.0000272639712094
 41
1.083333333333333
  7
ＭＳ ゴシック
100
AcDbText
  0
TEXT
  5
129
330
1F
100
AcDbEntity
  8
0-4
  6
Continuous
 62
     2
370
     9
100
AcDbText
 10
797.8204758102831
 20
-780.697515341269
 30
0.0
 40
30.48
  1
60
 41
1.0625
  7
ＭＳ ゴシック
100
AcDbText
  0
TEXT
  5
12A
330
1F
100
AcDbEntity
  8
0-4
  6
Continuous
 62
     2
370
     9
100
AcDbText
 10
897.8208057300467
 20
-780.697515341269
 30
0.0
 40
30.48
  1
70
 41
1.0625
  7
ＭＳ ゴシック
100
AcDbText
  0
TEXT
  5
12B
330
1F
100
AcDbEntity
  8
0-4
  6
Continuous
 62
     2
370
     9
100
AcDbText
 10
997.8206407701648
 20
-780.697515341269
 30
0.0
 40
30.48
  1
80
 41
1.0625
  7
ＭＳ ゴシック
100
AcDbText
  0
TEXT
  5
12C
330
1F
100
AcDbEntity
  8
0-4
  6
Continuous
 62
     2
370
     9
100
AcDbText
 10
1097.820475810283
 20
-780.697515341269
 30
0.0
 40
30.48
  1
90
 41
1.0625
  7
ＭＳ ゴシック
100
AcDbText
  0
TEXT
  5
12D
330
1F
100
AcDbEntity
  8
0-4
  6
Continuous
 62
     2
370
     9
100
AcDbText
 10
1186.570676642606
 20
-780.6975153412878
 30
0.0
 40
30.48
  1
100
 50
0.0000545279424189
 41
1.083333333333333
  7
ＭＳ ゴシック
100
AcDbText
  0
TEXT
  5
12E
330
1F
100
AcDbEntity
  8
0-4
  6
Continuous
 62
     2
370
     9
100
AcDbText
 10
1286.570759122548
 20
-780.6975153412878
 30
0.0
 40
30.48
  1
110
 50
0.0000545279424189
 41
1.083333333333331
  7
ＭＳ ゴシック
100
AcDbText
  0
TEXT
  5
12F
330
1F
100
AcDbEntity
  8
0-4
  6
Continuous
 62
     2
370
     9
100
AcDbText
 10
1386.570594162666
 20
-780.6975153412878
 30
0.0
 40
30.48
  1
120
 50
0.0000545279424189
 41
1.083333333333331
  7
ＭＳ ゴシック
100
AcDbText
  0
TEXT
  5
130
330
1F
100
AcDbEntity
  8
0-4
  6
Continuous
 62
     2
370
     9
100
AcDbText
 10
790.4920093433279
 20
-1075.773431940852
 30
0.0
 40
30.48
  1
※御注文の際は、Ａ寸法を御指示下さい
 41
1.118055555555555
  7
ＭＳ ゴシック
100
AcDbText
  0
TEXT
  5
131
330
1F
100
AcDbEntity
  8
0-4
  6
Continuous
 62
     2
370
     9
100
AcDbText
 10
790.4920835752748
 20
-995.773384514886
 30
0.0
 40
30.48
  1
※Ａ寸法は、0～＋10ｍｍの範囲で調節可能です
 41
1.119186046511628
  7
ＭＳ ゴシック
100
AcDbText
  0
TEXT
  5
132
330
1F
100
AcDbEntity
  8
0-4
  6
Continuous
 62
     2
370
     9
100
AcDbText
 10
790.491984228187
 20
-915.7734298788571
 30
0.0
 40
30.48
  1
※この図面は、Ａ寸法１００で作図しています
 50
0.0000037705476767
 41
1.119047619047619
  7
ＭＳ ゴシック
100
AcDbText
  0
TEXT
  5
133
330
1F
100
AcDbEntity
  8
0-4
  6
Continuous
 62
     2
370
     9
100
AcDbText
 10
1686.570594162666
 20
-780.6975153412878
 30
0.0
 40
30.48
  1
150
 50
0.0000545279424189
 41
1.083333333333331
  7
ＭＳ ゴシック
100
AcDbText
  0
TEXT
  5
134
330
1F
100
AcDbEntity
  8
0-4
  6
Continuous
 62
     2
370
     9
100
AcDbText
 10
1486.570676642607
 20
-780.6975153412878
 30
0.0
 40
30.48
  1
130
 50
0.0000545279424189
 41
1.083333333333331
  7
ＭＳ ゴシック
100
AcDbText
  0
TEXT
  5
135
330
1F
100
AcDbEntity
  8
0-4
  6
Continuous
 62
     2
370
     9
100
AcDbText
 10
1586.570759122548
 20
-780.6975153412878
 30
0.0
 40
30.48
  1
140
 50
0.0000545279424189
 41
1.083333333333331
  7
ＭＳ ゴシック
100
AcDbText
  0
TEXT
  5
136
330
1F
100
AcDbEntity
  8
F-5
  6
Continuous
 62
     2
370
     9
100
AcDbText
 10
-942.665933145059
 20
-1358.160943735483
 30
0.0
 40
30.48
  1
ステンレス　つかみ金物　蝶番タイプ　Ｔ字足　ＴＳ－１Ｔ－５０
 41
1.120833333333333
  7
ＭＳ ゴシック
100
AcDbText
  0
ENDSEC
  0
SECTION
  2
OBJECTS
  0
DICTIONARY
  5
C
330
0
100
AcDbDictionary
281
     1
  3
ACAD_GROUP
350
D
  3
ACAD_LAYOUT
350
1A
  3
ACAD_MLEADERSTYLE
350
138
  3
ACAD_MLINESTYLE
350
17
  3
ACAD_PLOTSETTINGS
350
19
  3
ACAD_PLOTSTYLENAME
350
E
  3
ACAD_TABLESTYLE
350
137
  3
ACAD_VISUALSTYLE
350
2A
  3
AcDbVariableDictionary
350
139
  0
DICTIONARY
  5
D
102
{ACAD_REACTORS
330
C
102
}
330
C
100
AcDbDictionary
281
     1
  0
DICTIONARY
  5
1A
102
{ACAD_REACTORS
330
C
102
}
330
C
100
AcDbDictionary
281
     1
  3
Layout1
350
1E
  3
Layout2
350
26
  3
Model
350
22
  0
DICTIONARY
  5
138
102
{ACAD_REACTORS
330
C
102
}
330
C
100
AcDbDictionary
281
     1
  0
DICTIONARY
  5
17
102
{ACAD_REACTORS
330
C
102
}
330
C
100
AcDbDictionary
281
     1
  3
Standard
350
18
  0
DICTIONARY
  5
19
102
{ACAD_REACTORS
330
C
102
}
330
C
100
AcDbDictionary
281
     1
  0
ACDBDICTIONARYWDFLT
  5
E
102
{ACAD_REACTORS
330
C
102
}
330
C
100
AcDbDictionary
281
     1
  3
Normal
350
F
100
AcDbDictionaryWithDefault
340
F
  0
DICTIONARY
  5
137
102
{ACAD_REACTORS
330
C
102
}
330
C
100
AcDbDictionary
281
     1
  0
DICTIONARY
  5
2A
102
{ACAD_REACTORS
330
C
102
}
330
C
100
AcDbDictionary
281
     1
  3
2dWireframe
350
2F
  3
3D Hidden
350
31
  3
3dWireframe
350
30
  3
Basic
350
32
  3
Brighten
350
36
  3
ColorChange
350
3A
  3
Conceptual
350
34
  3
Dim
350
35
  3
Facepattern
350
39
  3
Flat
350
2B
  3
FlatWithEdges
350
2C
  3
Gouraud
350
2D
  3
GouraudWithEdges
350
2E
  3
Linepattern
350
38
  3
Realistic
350
33
  3
Thicken
350
37
  0
DICTIONARY
  5
139
102
{ACAD_REACTORS
330
C
102
}
330
C
100
AcDbDictionary
281
     1
  3
PSOLHEIGHT
350
13B
  3
PSOLWIDTH
350
13A
  0
LAYOUT
  5
1E
102
{ACAD_REACTORS
330
1A
102
}
102
{ACAD_XDICTIONARY
360
13C
102
}
330
1A
100
AcDbPlotSettings
  1

  2
none_device
  4

  6

 40
0.0
 41
0.0
 42
0.0
 43
0.0
 44
0.0
 45
0.0
 46
0.0
 47
0.0
 48
0.0
 49
0.0
140
0.0
141
0.0
142
1.0
143
1.0
 70
   688
 72
     0
 73
     0
 74
     5
  7

 75
    16
147
1.0
148
0.0
149
0.0
100
AcDbLayout
  1
Layout1
 70
     1
 71
     1
 10
0.0
 20
0.0
 11
420.0
 21
297.0
 12
0.0
 22
0.0
 32
0.0
 14
1.000000000000000E+20
 24
1.000000000000000E+20
 34
1.000000000000000E+20
 15
-1.000000000000000E+20
 25
-1.000000000000000E+20
 35
-1.000000000000000E+20
146
0.0
 13
0.0
 23
0.0
 33
0.0
 16
1.0
 26
0.0
 36
0.0
 17
0.0
 27
1.0
 37
0.0
 76
     0
330
1B
  0
LAYOUT
  5
26
102
{ACAD_REACTORS
330
1A
102
}
102
{ACAD_XDICTIONARY
360
140
102
}
330
1A
100
AcDbPlotSettings
  1

  2
none_device
  4

  6

 40
0.0
 41
0.0
 42
0.0
 43
0.0
 44
0.0
 45
0.0
 46
0.0
 47
0.0
 48
0.0
 49
0.0
140
0.0
141
0.0
142
1.0
143
1.0
 70
   688
 72
     0
 73
     0
 74
     5
  7

 75
    16
147
1.0
148
0.0
149
0.0
100
AcDbLayout
  1
Layout2
 70
     1
 71
     2
 10
0.0
 20
0.0
 11
0.0
 21
0.0
 12
0.0
 22
0.0
 32
0.0
 14
0.0
 24
0.0
 34
0.0
 15
0.0
 25
0.0
 35
0.0
146
0.0
 13
0.0
 23
0.0
 33
0.0
 16
1.0
 26
0.0
 36
0.0
 17
0.0
 27
1.0
 37
0.0
 76
     0
330
23
  0
LAYOUT
  5
22
102
{ACAD_REACTORS
330
1A
102
}
102
{ACAD_XDICTIONARY
360
13E
102
}
330
1A
100
AcDbPlotSettings
  1

  2
none_device
  4

  6

 40
0.0
 41
0.0
 42
0.0
 43
0.0
 44
0.0
 45
0.0
 46
0.0
 47
0.0
 48
0.0
 49
0.0
140
0.0
141
0.0
142
1.0
143
1.0
 70
  1712
 72
     0
 73
     0
 74
     0
  7

 75
     0
147
1.0
148
0.0
149
0.0
100
AcDbLayout
  1
Model
 70
     1
 71
     0
 10
-2100.0
 20
-1485.0
 11
2100.0
 21
1485.0
 12
0.0
 22
0.0
 32
0.0
 14
-2100.0
 24
-1485.0
 34
0.0
 15
2100.0
 25
1485.0
 35
0.0
146
0.0
 13
0.0
 23
0.0
 33
0.0
 16
1.0
 26
0.0
 36
0.0
 17
0.0
 27
1.0
 37
0.0
 76
     0
330
1F
331
29
  0
MLINESTYLE
  5
18
102
{ACAD_REACTORS
330
17
102
}
330
17
100
AcDbMlineStyle
  2
Standard
 70
     0
  3

 62
   256
 51
90.0
 52
90.0
 71
     2
 49
0.5
 62
   256
  6
BYLAYER
 49
-0.5
 62
   256
  6
BYLAYER
  0
ACDBPLACEHOLDER
  5
F
102
{ACAD_REACTORS
330
E
102
}
330
E
  0
VISUALSTYLE
  5
2F
102
{ACAD_REACTORS
330
2A
102
}
330
2A
100
AcDbVisualStyle
  2
2dWireframe
 70
     4
 71
     0
 72
     2
 73
     0
 90
        0
 40
-0.6
 41
-30.0
 62
     5
 63
     7
 74
     1
 91
        4
 64
     7
 65
   257
 75
     1
175
     1
 42
1.0
 92
        0
 66
   257
 43
1.0
 76
     1
 77
     6
 78
     2
 67
     7
 79
     5
170
     0
171
     0
290
     0
174
     0
 93
        1
 44
0.0
173
     0
291
     0
 45
0.0
1001
ACAD
1000
AcDbSavedByObjectVersion
1070
     0
  0
VISUALSTYLE
  5
31
102
{ACAD_REACTORS
330
2A
102
}
330
2A
100
AcDbVisualStyle
  2
3D Hidden
 70
     6
 71
     1
 72
     2
 73
     2
 90
        0
 40
-0.6
 41
-30.0
 62
     5
 63
     7
 74
     2
 91
        2
 64
     7
 65
   257
 75
     2
175
     1
 42
40.0
 92
        0
 66
   257
 43
1.0
 76
     1
 77
     6
 78
     2
 67
     7
 79
     3
170
     0
171
     0
290
     0
174
     0
 93
        1
 44
0.0
173
     0
291
     0
 45
0.0
1001
ACAD
1000
AcDbSavedByObjectVersion
1070
     0
  0
VISUALSTYLE
  5
30
102
{ACAD_REACTORS
330
2A
102
}
330
2A
100
AcDbVisualStyle
  2
3dWireframe
 70
     5
 71
     0
 72
     2
 73
     0
 90
        0
 40
-0.6
 41
-30.0
 62
     5
 63
     7
 74
     1
 91
        4
 64
     7
 65
   257
 75
     1
175
     1
 42
1.0
 92
        0
 66
   257
 43
1.0
 76
     1
 77
     6
 78
     2
 67
     7
 79
     5
170
     0
171
     0
290
     0
174
     0
 93
        1
 44
0.0
173
     0
291
     0
 45
0.0
1001
ACAD
1000
AcDbSavedByObjectVersion
1070
     0
  0
VISUALSTYLE
  5
32
102
{ACAD_REACTORS
330
2A
102
}
330
2A
100
AcDbVisualStyle
  2
Basic
 70
     7
 71
     1
 72
     0
 73
     1
 90
        0
 40
-0.6
 41
-30.0
 62
     5
 63
     7
 74
     0
 91
        4
 64
     7
 65
   257
 75
     1
175
     1
 42
1.0
 92
        8
 66
     7
 43
1.0
 76
     1
 77
     6
 78
     2
 67
     7
 79
     5
170
     0
171
     0
290
     0
174
     0
 93
        1
 44
0.0
173
     0
291
     1
 45
0.0
1001
ACAD
1000
AcDbSavedByObjectVersion
1070
     0
  0
VISUALSTYLE
  5
36
102
{ACAD_REACTORS
330
2A
102
}
330
2A
100
AcDbVisualStyle
  2
Brighten
 70
    12
 71
     2
 72
     2
 73
     0
 90
        0
 40
-0.6
 41
-30.0
 62
     5
 63
     7
 74
     1
 91
        4
 64
     7
 65
   257
 75
     1
175
     1
 42
1.0
 92
        8
 66
     7
 43
1.0
 76
     1
 77
     6
 78
     2
 67
     7
 79
     5
170
     0
171
     0
290
     0
174
     0
 93
        1
 44
50.0
173
     0
291
     1
 45
0.0
1001
ACAD
1000
AcDbSavedByObjectVersion
1070
     0
  0
VISUALSTYLE
  5
3A
102
{ACAD_REACTORS
330
2A
102
}
330
2A
100
AcDbVisualStyle
  2
ColorChange
 70
    16
 71
     2
 72
     2
 73
     3
 90
        0
 40
-0.6
 41
-30.0
 62
     5
 63
     8
 74
     1
 91
        4
 64
     7
 65
   257
 75
     1
175
     1
 42
1.0
 92
        8
 66
     8
 43
1.0
 76
     1
 77
     6
 78
     2
 67
     7
 79
     5
170
     0
171
     0
290
     0
174
     0
 93
        1
 44
0.0
173
     0
291
     1
 45
0.0
1001
ACAD
1000
AcDbSavedByObjectVersion
1070
     0
  0
VISUALSTYLE
  5
34
102
{ACAD_REACTORS
330
2A
102
}
330
2A
100
AcDbVisualStyle
  2
Conceptual
 70
     9
 71
     3
 72
     2
 73
     0
 90
        0
 40
-0.6
 41
-30.0
 62
     5
 63
     7
 74
     2
 91
        2
 64
     7
 65
   257
 75
     1
175
     1
 42
40.0
 92
        8
 66
     7
 43
1.0
 76
     1
 77
     6
 78
     2
 67
     7
 79
     3
170
     0
171
     0
290
     0
174
     0
 93
        1
 44
0.0
173
     0
291
     0
 45
0.0
1001
ACAD
1000
AcDbSavedByObjectVersion
1070
     0
  0
VISUALSTYLE
  5
35
102
{ACAD_REACTORS
330
2A
102
}
330
2A
100
AcDbVisualStyle
  2
Dim
 70
    11
 71
     2
 72
     2
 73
     0
 90
        0
 40
-0.6
 41
-30.0
 62
     5
 63
     7
 74
     1
 91
        4
 64
     7
 65
   257
 75
     1
175
     1
 42
1.0
 92
        8
 66
     7
 43
1.0
 76
     1
 77
     6
 78
     2
 67
     7
 79
     5
170
     0
171
     0
290
     0
174
     0
 93
        1
 44
-50.0
173
     0
291
     1
 45
0.0
1001
ACAD
1000
AcDbSavedByObjectVersion
1070
     0
  0
VISUALSTYLE
  5
39
102
{ACAD_REACTORS
330
2A
102
}
330
2A
100
AcDbVisualStyle
  2
Facepattern
 70
    15
 71
     2
 72
     2
 73
     0
 90
        0
 40
-0.6
 41
-30.0
 62
     5
 63
     7
 74
     1
 91
        4
 64
     7
 65
   257
 75
     1
175
     1
 42
1.0
 92
        8
 66
     7
 43
1.0
 76
     1
 77
     6
 78
     2
 67
     7
 79
     5
170
     0
171
     0
290
     0
174
     0
 93
        1
 44
0.0
173
     0
291
     1
 45
0.0
1001
ACAD
1000
AcDbSavedByObjectVersion
1070
     0
  0
VISUALSTYLE
  5
2B
102
{ACAD_REACTORS
330
2A
102
}
330
2A
100
AcDbVisualStyle
  2
Flat
 70
     0
 71
     2
 72
     1
 73
     1
 90
        2
 40
-0.6
 41
30.0
 62
     5
 63
     7
 74
     0
 91
        4
 64
     7
 65
   257
 75
     1
175
     1
 42
1.0
 92
        8
 66
     7
 43
1.0
 76
     1
 77
     6
 78
     2
 67
     7
 79
     5
170
     0
171
     0
290
     0
174
     0
 93
       13
 44
0.0
173
     0
291
     1
 45
0.0
1001
ACAD
1000
AcDbSavedByObjectVersion
1070
     0
  0
VISUALSTYLE
  5
2C
102
{ACAD_REACTORS
330
2A
102
}
330
2A
100
AcDbVisualStyle
  2
FlatWithEdges
 70
     1
 71
     2
 72
     1
 73
     1
 90
        2
 40
-0.6
 41
30.0
 62
     5
 63
     7
 74
     1
 91
        4
 64
     7
 65
   257
 75
     1
175
     1
 42
1.0
 92
        0
 66
   257
 43
1.0
 76
     1
 77
     6
 78
     2
 67
     7
 79
     5
170
     0
171
     0
290
     0
174
     0
 93
       13
 44
0.0
173
     0
291
     1
 45
0.0
1001
ACAD
1000
AcDbSavedByObjectVersion
1070
     0
  0
VISUALSTYLE
  5
2D
102
{ACAD_REACTORS
330
2A
102
}
330
2A
100
AcDbVisualStyle
  2
Gouraud
 70
     2
 71
     2
 72
     2
 73
     1
 90
        2
 40
-0.6
 41
30.0
 62
     5
 63
     7
 74
     0
 91
        4
 64
     7
 65
   257
 75
     1
175
     1
 42
1.0
 92
        0
 66
     7
 43
1.0
 76
     1
 77
     6
 78
     2
 67
     7
 79
     5
170
     0
171
     0
290
     0
174
     0
 93
       13
 44
0.0
173
     0
291
     1
 45
0.0
1001
ACAD
1000
AcDbSavedByObjectVersion
1070
     0
  0
VISUALSTYLE
  5
2E
102
{ACAD_REACTORS
330
2A
102
}
330
2A
100
AcDbVisualStyle
  2
GouraudWithEdges
 70
     3
 71
     2
 72
     2
 73
     1
 90
        2
 40
-0.6
 41
30.0
 62
     5
 63
     7
 74
     1
 91
        4
 64
     7
 65
   257
 75
     1
175
     1
 42
1.0
 92
        0
 66
   257
 43
1.0
 76
     1
 77
     6
 78
     2
 67
     7
 79
     5
170
     0
171
     0
290
     0
174
     0
 93
       13
 44
0.0
173
     0
291
     1
 45
0.0
1001
ACAD
1000
AcDbSavedByObjectVersion
1070
     0
  0
VISUALSTYLE
  5
38
102
{ACAD_REACTORS
330
2A
102
}
330
2A
100
AcDbVisualStyle
  2
Linepattern
 70
    14
 71
     2
 72
     2
 73
     0
 90
        0
 40
-0.6
 41
-30.0
 62
     5
 63
     7
 74
     1
 91
        4
 64
     7
 65
   257
 75
     7
175
     7
 42
1.0
 92
        8
 66
     7
 43
1.0
 76
     1
 77
     6
 78
     2
 67
     7
 79
     5
170
     0
171
     0
290
     0
174
     0
 93
        1
 44
0.0
173
     0
291
     1
 45
0.0
1001
ACAD
1000
AcDbSavedByObjectVersion
1070
     0
  0
VISUALSTYLE
  5
33
102
{ACAD_REACTORS
330
2A
102
}
330
2A
100
AcDbVisualStyle
  2
Realistic
 70
     8
 71
     2
 72
     2
 73
     0
 90
        0
 40
-0.6
 41
-30.0
 62
     5
 63
     7
 74
     1
 91
        0
 64
     7
 65
   257
 75
     1
175
     1
 42
1.0
 92
        8
 66
     8
 43
1.0
 76
     1
 77
     6
 78
     2
 67
     7
 79
     5
170
     0
171
     0
290
     0
174
     0
 93
       13
 44
0.0
173
     0
291
     0
 45
0.0
1001
ACAD
1000
AcDbSavedByObjectVersion
1070
     0
  0
VISUALSTYLE
  5
37
102
{ACAD_REACTORS
330
2A
102
}
330
2A
100
AcDbVisualStyle
  2
Thicken
 70
    13
 71
     2
 72
     2
 73
     0
 90
        0
 40
-0.6
 41
-30.0
 62
     5
 63
     7
 74
     1
 91
        4
 64
     7
 65
   257
 75
     1
175
     1
 42
1.0
 92
       12
 66
     7
 43
1.0
 76
     1
 77
     6
 78
     2
 67
     7
 79
     5
170
     0
171
     0
290
     0
174
     0
 93
        1
 44
0.0
173
     0
291
     1
 45
0.0
1001
ACAD
1000
AcDbSavedByObjectVersion
1070
     0
  0
DICTIONARYVAR
  5
13B
102
{ACAD_REACTORS
330
139
102
}
330
139
100
DictionaryVariables
280
     0
  1
80.000000
  0
DICTIONARYVAR
  5
13A
102
{ACAD_REACTORS
330
139
102
}
330
139
100
DictionaryVariables
280
     0
  1
5.000000
  0
DICTIONARY
  5
13C
330
1E
100
AcDbDictionary
280
     1
281
     1
  3
ACAD_XREC_ROUNDTRIP
360
13D
  0
DICTIONARY
  5
140
330
26
100
AcDbDictionary
280
     1
281
     1
  3
ACAD_XREC_ROUNDTRIP
360
141
  0
DICTIONARY
  5
13E
330
22
100
AcDbDictionary
280
     1
281
     1
  3
ACAD_XREC_ROUNDTRIP
360
13F
  0
XRECORD
  5
13D
102
{ACAD_REACTORS
330
13C
102
}
330
13C
100
AcDbXrecord
280
     1
102
SHADEPLOT
 70
     0
102
SHADEPLOTRESLEVEL
 70
     5
102
SHADEPLOTCUSTOMDPI
 70
   300
  0
XRECORD
  5
141
102
{ACAD_REACTORS
330
140
102
}
330
140
100
AcDbXrecord
280
     1
102
SHADEPLOT
 70
     0
102
SHADEPLOTRESLEVEL
 70
     5
102
SHADEPLOTCUSTOMDPI
 70
   300
  0
XRECORD
  5
13F
102
{ACAD_REACTORS
330
13E
102
}
330
13E
100
AcDbXrecord
280
     1
102
SHADEPLOT
 70
     0
102
SHADEPLOTRESLEVEL
 70
     5
102
SHADEPLOTCUSTOMDPI
 70
   300
  0
ENDSEC
  0
EOF
