  0
SECTION
  2
HEADER
  9
$ACADVER
  1
AC1015
  9
$ACADMAINTVER
 70
     6
  9
$DWGCODEPAGE
  3
ANSI_932
  9
$INSBASE
 10
0.0
 20
0.0
 30
0.0
  9
$EXTMIN
 10
-2100.0
 20
-1485.0
 30
0.0
  9
$EXTMAX
 10
2100.0
 20
1485.0
 30
0.0
  9
$LIMMIN
 10
-2100.0
 20
-1485.0
  9
$LIMMAX
 10
2100.0
 20
1485.0
  9
$ORTHOMODE
 70
     0
  9
$REGENMODE
 70
     1
  9
$FILLMODE
 70
     1
  9
$QTEXTMODE
 70
     0
  9
$MIRRTEXT
 70
     1
  9
$LTSCALE
 40
10.0
  9
$ATTMODE
 70
     1
  9
$TEXTSIZE
 40
2.5
  9
$TRACEWID
 40
1.0
  9
$TEXTSTYLE
  7
Standard
  9
$CLAYER
  8
0
  9
$CELTYPE
  6
ByLayer
  9
$CECOLOR
 62
   256
  9
$CELTSCALE
 40
1.0
  9
$DISPSILH
 70
     0
  9
$DIMSCALE
 40
1.0
  9
$DIMASZ
 40
2.5
  9
$DIMEXO
 40
0.625
  9
$DIMDLI
 40
3.75
  9
$DIMRND
 40
0.0
  9
$DIMDLE
 40
0.0
  9
$DIMEXE
 40
1.25
  9
$DIMTP
 40
0.0
  9
$DIMTM
 40
0.0
  9
$DIMTXT
 40
2.5
  9
$DIMCEN
 40
2.5
  9
$DIMTSZ
 40
0.0
  9
$DIMTOL
 70
     0
  9
$DIMLIM
 70
     0
  9
$DIMTIH
 70
     0
  9
$DIMTOH
 70
     0
  9
$DIMSE1
 70
     0
  9
$DIMSE2
 70
     0
  9
$DIMTAD
 70
     1
  9
$DIMZIN
 70
     8
  9
$DIMBLK
  1

  9
$DIMASO
 70
     1
  9
$DIMSHO
 70
     1
  9
$DIMPOST
  1

  9
$DIMAPOST
  1

  9
$DIMALT
 70
     0
  9
$DIMALTD
 70
     3
  9
$DIMALTF
 40
0.03937007874016
  9
$DIMLFAC
 40
1.0
  9
$DIMTOFL
 70
     1
  9
$DIMTVP
 40
0.0
  9
$DIMTIX
 70
     0
  9
$DIMSOXD
 70
     0
  9
$DIMSAH
 70
     0
  9
$DIMBLK1
  1

  9
$DIMBLK2
  1

  9
$DIMSTYLE
  2
ISO-25
  9
$DIMCLRD
 70
     0
  9
$DIMCLRE
 70
     0
  9
$DIMCLRT
 70
     0
  9
$DIMTFAC
 40
1.0
  9
$DIMGAP
 40
0.625
  9
$DIMJUST
 70
     0
  9
$DIMSD1
 70
     0
  9
$DIMSD2
 70
     0
  9
$DIMTOLJ
 70
     0
  9
$DIMTZIN
 70
     8
  9
$DIMALTZ
 70
     0
  9
$DIMALTTZ
 70
     0
  9
$DIMUPT
 70
     0
  9
$DIMDEC
 70
     2
  9
$DIMTDEC
 70
     2
  9
$DIMALTU
 70
     2
  9
$DIMALTTD
 70
     3
  9
$DIMTXSTY
  7
Standard
  9
$DIMAUNIT
 70
     0
  9
$DIMADEC
 70
     0
  9
$DIMALTRND
 40
0.0
  9
$DIMAZIN
 70
     0
  9
$DIMDSEP
 70
    44
  9
$DIMATFIT
 70
     3
  9
$DIMFRAC
 70
     0
  9
$DIMLDRBLK
  1

  9
$DIMLUNIT
 70
     2
  9
$DIMLWD
 70
    -2
  9
$DIMLWE
 70
    -2
  9
$DIMTMOVE
 70
     0
  9
$LUNITS
 70
     2
  9
$LUPREC
 70
     4
  9
$SKETCHINC
 40
1.0
  9
$FILLETRAD
 40
10.0
  9
$AUNITS
 70
     0
  9
$AUPREC
 70
     0
  9
$MENU
  1
.
  9
$ELEVATION
 40
0.0
  9
$PELEVATION
 40
0.0
  9
$THICKNESS
 40
0.0
  9
$LIMCHECK
 70
     0
  9
$CHAMFERA
 40
10.0
  9
$CHAMFERB
 40
10.0
  9
$CHAMFERC
 40
20.0
  9
$CHAMFERD
 40
0.0
  9
$SKPOLY
 70
     0
  9
$TDCREATE
 40
2456904.665750775
  9
$TDUCREATE
 40
2456904.290750775
  9
$TDUPDATE
 40
2456904.665750787
  9
$TDUUPDATE
 40
2456904.290750787
  9
$TDINDWG
 40
0.0000000116
  9
$TDUSRTIMER
 40
0.0000000116
  9
$USRTIMER
 70
     1
  9
$ANGBASE
 50
0.0
  9
$ANGDIR
 70
     0
  9
$PDMODE
 70
     0
  9
$PDSIZE
 40
0.0
  9
$PLINEWID
 40
0.0
  9
$SPLFRAME
 70
     0
  9
$SPLINETYPE
 70
     6
  9
$SPLINESEGS
 70
     8
  9
$HANDSEED
  5
145
  9
$SURFTAB1
 70
     6
  9
$SURFTAB2
 70
     6
  9
$SURFTYPE
 70
     6
  9
$SURFU
 70
     6
  9
$SURFV
 70
     6
  9
$UCSBASE
  2

  9
$UCSNAME
  2

  9
$UCSORG
 10
0.0
 20
0.0
 30
0.0
  9
$UCSXDIR
 10
1.0
 20
0.0
 30
0.0
  9
$UCSYDIR
 10
0.0
 20
1.0
 30
0.0
  9
$UCSORTHOREF
  2

  9
$UCSORTHOVIEW
 70
     0
  9
$UCSORGTOP
 10
0.0
 20
0.0
 30
0.0
  9
$UCSORGBOTTOM
 10
0.0
 20
0.0
 30
0.0
  9
$UCSORGLEFT
 10
0.0
 20
0.0
 30
0.0
  9
$UCSORGRIGHT
 10
0.0
 20
0.0
 30
0.0
  9
$UCSORGFRONT
 10
0.0
 20
0.0
 30
0.0
  9
$UCSORGBACK
 10
0.0
 20
0.0
 30
0.0
  9
$PUCSBASE
  2

  9
$PUCSNAME
  2

  9
$PUCSORG
 10
0.0
 20
0.0
 30
0.0
  9
$PUCSXDIR
 10
1.0
 20
0.0
 30
0.0
  9
$PUCSYDIR
 10
0.0
 20
1.0
 30
0.0
  9
$PUCSORTHOREF
  2

  9
$PUCSORTHOVIEW
 70
     0
  9
$PUCSORGTOP
 10
0.0
 20
0.0
 30
0.0
  9
$PUCSORGBOTTOM
 10
0.0
 20
0.0
 30
0.0
  9
$PUCSORGLEFT
 10
0.0
 20
0.0
 30
0.0
  9
$PUCSORGRIGHT
 10
0.0
 20
0.0
 30
0.0
  9
$PUCSORGFRONT
 10
0.0
 20
0.0
 30
0.0
  9
$PUCSORGBACK
 10
0.0
 20
0.0
 30
0.0
  9
$USERI1
 70
     0
  9
$USERI2
 70
     0
  9
$USERI3
 70
     0
  9
$USERI4
 70
     0
  9
$USERI5
 70
     0
  9
$USERR1
 40
0.0
  9
$USERR2
 40
0.0
  9
$USERR3
 40
0.0
  9
$USERR4
 40
0.0
  9
$USERR5
 40
0.0
  9
$WORLDVIEW
 70
     1
  9
$SHADEDGE
 70
     3
  9
$SHADEDIF
 70
    70
  9
$TILEMODE
 70
     1
  9
$MAXACTVP
 70
    64
  9
$PINSBASE
 10
0.0
 20
0.0
 30
0.0
  9
$PLIMCHECK
 70
     0
  9
$PEXTMIN
 10
1.000000000000000E+20
 20
1.000000000000000E+20
 30
1.000000000000000E+20
  9
$PEXTMAX
 10
-1.000000000000000E+20
 20
-1.000000000000000E+20
 30
-1.000000000000000E+20
  9
$PLIMMIN
 10
0.0
 20
0.0
  9
$PLIMMAX
 10
420.0
 20
297.0
  9
$UNITMODE
 70
     0
  9
$VISRETAIN
 70
     1
  9
$PLINEGEN
 70
     0
  9
$PSLTSCALE
 70
     1
  9
$TREEDEPTH
 70
  3020
  9
$CMLSTYLE
  2
Standard
  9
$CMLJUST
 70
     0
  9
$CMLSCALE
 40
20.0
  9
$PROXYGRAPHICS
 70
     1
  9
$MEASUREMENT
 70
     1
  9
$CELWEIGHT
370
    -1
  9
$ENDCAPS
280
     0
  9
$JOINSTYLE
280
     0
  9
$LWDISPLAY
290
     0
  9
$INSUNITS
 70
     4
  9
$HYPERLINKBASE
  1

  9
$STYLESHEET
  1

  9
$XEDIT
290
     1
  9
$CEPSNTYPE
380
     0
  9
$PSTYLEMODE
290
     1
  9
$FINGERPRINTGUID
  2
{71C6004A-ABD9-4528-9FB7-B6CA20D4E0F0}
  9
$VERSIONGUID
  2
{FAEB1C32-E019-11D5-929B-00C0DF256EC4}
  9
$EXTNAMES
290
     1
  9
$PSVPSCALE
 40
0.0
  9
$OLESTARTUP
290
     0
  0
ENDSEC
  0
SECTION
  2
CLASSES
  0
CLASS
  1
ACDBDICTIONARYWDFLT
  2
AcDbDictionaryWithDefault
  3
ObjectDBX Classes
 90
        0
280
     0
281
     0
  0
CLASS
  1
VISUALSTYLE
  2
AcDbVisualStyle
  3
ObjectDBX Classes
 90
     4095
280
     0
281
     0
  0
CLASS
  1
DICTIONARYVAR
  2
AcDbDictionaryVar
  3
ObjectDBX Classes
 90
        0
280
     0
281
     0
  0
CLASS
  1
ACDBPLACEHOLDER
  2
AcDbPlaceHolder
  3
ObjectDBX Classes
 90
        0
280
     0
281
     0
  0
CLASS
  1
LAYOUT
  2
AcDbLayout
  3
ObjectDBX Classes
 90
        0
280
     0
281
     0
  0
ENDSEC
  0
SECTION
  2
TABLES
  0
TABLE
  2
VPORT
  5
8
330
0
100
AcDbSymbolTable
 70
     1
  0
VPORT
  5
29
330
8
100
AcDbSymbolTableRecord
100
AcDbViewportTableRecord
  2
*Active
 70
     0
 10
0.0
 20
0.0
 11
1.0
 21
1.0
 12
0.0
 22
0.0
 13
0.0
 23
0.0
 14
10.0
 24
10.0
 15
10.0
 25
10.0
 16
0.0
 26
0.0
 36
1.0
 17
0.0
 27
0.0
 37
0.0
 40
3267.0
 41
1.414141414141414
 42
50.0
 43
0.0
 44
0.0
 50
0.0
 51
0.0
 71
     0
 72
 10000
 73
     1
 74
     3
 75
     0
 76
     0
 77
     0
 78
     0
281
     0
 65
     1
110
0.0
120
0.0
130
0.0
111
1.0
121
0.0
131
0.0
112
0.0
122
1.0
132
0.0
 79
     0
146
0.0
  0
ENDTAB
  0
TABLE
  2
LTYPE
  5
5
330
0
100
AcDbSymbolTable
 70
     4
  0
LTYPE
  5
14
330
5
100
AcDbSymbolTableRecord
100
AcDbLinetypeTableRecord
  2
ByBlock
 70
     0
  3

 72
    65
 73
     0
 40
0.0
  0
LTYPE
  5
15
330
5
100
AcDbSymbolTableRecord
100
AcDbLinetypeTableRecord
  2
ByLayer
 70
     0
  3

 72
    65
 73
     0
 40
0.0
  0
LTYPE
  5
16
330
5
100
AcDbSymbolTableRecord
100
AcDbLinetypeTableRecord
  2
Continuous
 70
     0
  3
Solid line
 72
    65
 73
     0
 40
0.0
  0
LTYPE
  5
3C
330
5
100
AcDbSymbolTableRecord
100
AcDbLinetypeTableRecord
  2
JWW_DASHED1
 70
     0
  3
-  --  --  --  --  --  --  --  -
 72
    65
 73
     2
 40
1.693333333333333
 49
0.8466666666666667
 74
     0
 49
-0.8466666666666667
 74
     0
  0
LTYPE
  5
3D
330
5
100
AcDbSymbolTableRecord
100
AcDbLinetypeTableRecord
  2
JWW_CENTER1
 70
     0
  3
-----  --  ----------  --  -----
 72
    65
 73
     4
 40
6.773333333333333
 49
4.233333333333333
 74
     0
 49
-0.8466666666666667
 74
     0
 49
0.8466666666666667
 74
     0
 49
-0.8466666666666667
 74
     0
  0
LTYPE
  5
3E
330
5
100
AcDbSymbolTableRecord
100
AcDbLinetypeTableRecord
  2
JWW_HOJO
 70
     0
  3
  -   -   -   -   -   -   -   - 
 72
    65
 73
     2
 40
1.693333333333333
 49
-1.27
 74
     0
 49
0.4233333333333333
 74
     0
  0
ENDTAB
  0
TABLE
  2
LAYER
  5
2
330
0
100
AcDbSymbolTable
 70
     8
  0
LAYER
  5
10
330
2
100
AcDbSymbolTableRecord
100
AcDbLayerTableRecord
  2
0
 70
     0
 62
     7
  6
Continuous
370
    -3
390
F
  0
LAYER
  5
3F
330
2
100
AcDbSymbolTableRecord
100
AcDbLayerTableRecord
  2
F-0
 70
     0
 62
     7
  6
Continuous
370
    -3
390
F
  0
LAYER
  5
40
330
2
100
AcDbSymbolTableRecord
100
AcDbLayerTableRecord
  2
0-0
 70
     0
 62
     7
  6
Continuous
370
    -3
390
F
  0
LAYER
  5
41
330
2
100
AcDbSymbolTableRecord
100
AcDbLayerTableRecord
  2
0-2
 70
     0
 62
     7
  6
Continuous
370
    -3
390
F
  0
LAYER
  5
42
330
2
100
AcDbSymbolTableRecord
100
AcDbLayerTableRecord
  2
0-4
 70
     0
 62
     7
  6
Continuous
370
    -3
390
F
  0
LAYER
  5
43
330
2
100
AcDbSymbolTableRecord
100
AcDbLayerTableRecord
  2
0-E
 70
     0
 62
     7
  6
Continuous
370
    -3
390
F
  0
LAYER
  5
44
330
2
100
AcDbSymbolTableRecord
100
AcDbLayerTableRecord
  2
0-9
 70
     0
 62
     7
  6
Continuous
370
    -3
390
F
  0
LAYER
  5
45
330
2
100
AcDbSymbolTableRecord
100
AcDbLayerTableRecord
  2
F-5
 70
     0
 62
     7
  6
Continuous
370
    -3
390
F
  0
ENDTAB
  0
TABLE
  2
STYLE
  5
3
330
0
100
AcDbSymbolTable
 70
     2
  0
STYLE
  5
11
330
3
100
AcDbSymbolTableRecord
100
AcDbTextStyleTableRecord
  2
Standard
 70
     0
 40
0.0
 41
1.0
 50
0.0
 71
     0
 42
2.5
  3
txt
  4

1001
ACAD
1000

1071
        0
  0
STYLE
  5
3B
330
3
100
AcDbSymbolTableRecord
100
AcDbTextStyleTableRecord
  2
ＭＳ ゴシック
 70
     0
 40
1.0
 41
1.0
 50
0.0
 71
     0
 42
10.0
  3

  4

1001
ACAD
1000
MS Gothic
1071
    32817
  0
ENDTAB
  0
TABLE
  2
VIEW
  5
6
330
0
100
AcDbSymbolTable
 70
     0
  0
ENDTAB
  0
TABLE
  2
UCS
  5
7
330
0
100
AcDbSymbolTable
 70
     0
  0
ENDTAB
  0
TABLE
  2
APPID
  5
9
330
0
100
AcDbSymbolTable
 70
     1
  0
APPID
  5
12
330
9
100
AcDbSymbolTableRecord
100
AcDbRegAppTableRecord
  2
ACAD
 70
     0
  0
ENDTAB
  0
TABLE
  2
DIMSTYLE
  5
A
330
0
100
AcDbSymbolTable
 70
     1
100
AcDbDimStyleTable
  0
DIMSTYLE
105
27
330
A
100
AcDbSymbolTableRecord
100
AcDbDimStyleTableRecord
  2
ISO-25
 70
     0
 41
2.5
 42
0.625
 43
3.75
 44
1.25
 73
     0
 74
     0
 77
     1
 78
     8
140
2.5
141
2.5
143
0.03937007874016
147
0.625
171
     3
172
     1
271
     2
272
     2
274
     3
278
    44
283
     0
284
     8
340
11
  0
ENDTAB
  0
TABLE
  2
BLOCK_RECORD
  5
1
330
0
100
AcDbSymbolTable
 70
     1
  0
BLOCK_RECORD
  5
1F
330
1
100
AcDbSymbolTableRecord
100
AcDbBlockTableRecord
  2
*Model_Space
340
22
  0
BLOCK_RECORD
  5
1B
330
1
100
AcDbSymbolTableRecord
100
AcDbBlockTableRecord
  2
*Paper_Space
340
1E
  0
BLOCK_RECORD
  5
23
330
1
100
AcDbSymbolTableRecord
100
AcDbBlockTableRecord
  2
*Paper_Space0
340
26
  0
ENDTAB
  0
ENDSEC
  0
SECTION
  2
BLOCKS
  0
BLOCK
  5
20
330
1F
100
AcDbEntity
  8
0
100
AcDbBlockBegin
  2
*Model_Space
 70
     0
 10
0.0
 20
0.0
 30
0.0
  3
*Model_Space
  1

  0
ENDBLK
  5
21
330
1F
100
AcDbEntity
  8
0
100
AcDbBlockEnd
  0
BLOCK
  5
1C
330
1B
100
AcDbEntity
 67
     1
  8
0
100
AcDbBlockBegin
  2
*Paper_Space
 70
     0
 10
0.0
 20
0.0
 30
0.0
  3
*Paper_Space
  1

  0
ENDBLK
  5
1D
330
1B
100
AcDbEntity
 67
     1
  8
0
100
AcDbBlockEnd
  0
BLOCK
  5
24
330
23
100
AcDbEntity
  8
0
100
AcDbBlockBegin
  2
*Paper_Space0
 70
     0
 10
0.0
 20
0.0
 30
0.0
  3
*Paper_Space0
  1

  0
ENDBLK
  5
25
330
23
100
AcDbEntity
  8
0
100
AcDbBlockEnd
  0
ENDSEC
  0
SECTION
  2
ENTITIES
  0
LWPOLYLINE
  5
46
330
1F
100
AcDbEntity
  8
F-0
  6
Continuous
 62
     7
370
     9
100
AcDbPolyline
 90
        4
 70
     1
 43
1.0
 10
-1896.797297297297
 20
-1322.837837837838
 42
0.4142135623731
 10
-1897.297297297298
 20
-1322.337837837838
 42
0.4142135623731
 10
-1897.797297297298
 20
-1322.837837837838
 42
0.4142135623731
 10
-1897.297297297298
 20
-1323.337837837838
 42
0.4142135623731
  0
LWPOLYLINE
  5
47
330
1F
100
AcDbEntity
  8
F-0
  6
Continuous
 62
     7
370
     9
100
AcDbPolyline
 90
        4
 70
     1
 43
1.0
 10
2063.202405774916
 20
-1342.837841961835
 42
0.4142135623731
 10
2062.702405774916
 20
-1342.337841961835
 42
0.4142135623731
 10
2062.202405774915
 20
-1342.837841961835
 42
0.4142135623731
 10
2062.702405774916
 20
-1343.337841961835
 42
0.4142135623731
  0
LINE
  5
48
330
1F
100
AcDbEntity
  8
0-0
  6
Continuous
 62
     3
370
     9
100
AcDbLine
 10
-1563.513595993454
 20
-528.0961402686866
 30
0.0
 11
-1563.513595993454
 21
-728.096552668391
 31
0.0
  0
LINE
  5
49
330
1F
100
AcDbEntity
  8
0-0
  6
JWW_DASHED1
 62
     3
370
     9
100
AcDbLine
 10
-1553.513563001478
 20
-528.0961402686866
 30
0.0
 11
-1553.513563001478
 21
-728.096552668391
 31
0.0
  0
LINE
  5
4A
330
1F
100
AcDbEntity
  8
0-0
  6
Continuous
 62
     3
370
     9
100
AcDbLine
 10
-1563.513595993454
 20
-528.0961402686866
 30
0.0
 11
46.48651947846304
 21
-528.0961402686866
 31
0.0
  0
LINE
  5
4B
330
1F
100
AcDbEntity
  8
0-0
  6
Continuous
 62
     3
370
     9
100
AcDbLine
 10
46.48651947846304
 20
-528.0961402686866
 30
0.0
 11
46.48651947846304
 21
-728.096552668391
 31
0.0
  0
LINE
  5
4C
330
1F
100
AcDbEntity
  8
0-0
  6
Continuous
 62
     3
370
     9
100
AcDbLine
 10
-1563.513595993454
 20
-728.096552668391
 30
0.0
 11
46.48651947846304
 21
-728.096552668391
 31
0.0
  0
LINE
  5
4D
330
1F
100
AcDbEntity
  8
0-0
  6
Continuous
 62
     3
370
     9
100
AcDbLine
 10
-403.5136042414484
 20
-528.0961402686866
 30
0.0
 11
-403.5136042414484
 21
-728.096552668391
 31
0.0
  0
LINE
  5
4E
330
1F
100
AcDbEntity
  8
0-0
  6
JWW_DASHED1
 62
     3
370
     9
100
AcDbLine
 10
-413.5135135135135
 20
-528.0961402686866
 30
0.0
 11
-413.5135135135135
 21
-728.096552668391
 31
0.0
  0
LINE
  5
4F
330
1F
100
AcDbEntity
  8
0-0
  6
JWW_CENTER1
 62
     3
370
     9
100
AcDbLine
 10
-983.5135382574957
 20
-479.5945945945945
 30
0.0
 11
-983.5135382574957
 21
-784.9707196209881
 31
0.0
  0
LINE
  5
50
330
1F
100
AcDbEntity
  8
0-0
  6
JWW_HOJO
 62
     3
370
     9
100
AcDbLine
 10
-403.5137279613596
 20
475.9459954339107
 30
0.0
 11
36.48648648648674
 21
475.9459954339107
 31
0.0
  0
LINE
  5
51
330
1F
100
AcDbEntity
  8
0-0
  6
JWW_HOJO
 62
     3
370
     9
100
AcDbLine
 10
-403.5137279613596
 20
445.9458964579815
 30
0.0
 11
36.48648648648674
 21
445.9458964579815
 31
0.0
  0
LINE
  5
52
330
1F
100
AcDbEntity
  8
0-2
  6
Continuous
 62
     4
370
     9
100
AcDbLine
 10
-316.0138104413005
 20
-628.0963464685387
 30
0.0
 11
-287.146490973395
 21
-578.0960577887457
 31
0.0
  0
LINE
  5
53
330
1F
100
AcDbEntity
  8
0-2
  6
Continuous
 62
     4
370
     9
100
AcDbLine
 10
-316.0138104413005
 20
-628.0963464685387
 30
0.0
 11
-287.1462435335727
 21
-678.0965114284206
 31
0.0
  0
LINE
  5
54
330
1F
100
AcDbEntity
  8
0-2
  6
Continuous
 62
     4
370
     9
100
AcDbLine
 10
-287.1462435335727
 20
-678.0965114284206
 30
0.0
 11
-229.8814928209458
 21
-678.0965114284206
 31
0.0
  0
LINE
  5
55
330
1F
100
AcDbEntity
  8
0-2
  6
Continuous
 62
     4
370
     9
100
AcDbLine
 10
-201.0138021933065
 20
-628.0963464685387
 30
0.0
 11
-229.8814928209458
 21
-678.0965114284206
 31
0.0
  0
LINE
  5
56
330
1F
100
AcDbEntity
  8
0-2
  6
Continuous
 62
     4
370
     9
100
AcDbLine
 10
-287.146490973395
 20
-578.0960577887457
 30
0.0
 11
-229.8814928209458
 21
-578.0960577887457
 31
0.0
  0
LINE
  5
57
330
1F
100
AcDbEntity
  8
0-2
  6
Continuous
 62
     4
370
     9
100
AcDbLine
 10
-116.0136454814187
 20
-628.0963464685387
 30
0.0
 11
-87.14632601351326
 21
-578.0960577887457
 31
0.0
  0
LINE
  5
58
330
1F
100
AcDbEntity
  8
0-2
  6
Continuous
 62
     4
370
     9
100
AcDbLine
 10
-116.0136454814187
 20
-628.0963464685387
 30
0.0
 11
-87.14607857369089
 21
-678.0965114284206
 31
0.0
  0
LINE
  5
59
330
1F
100
AcDbEntity
  8
0-2
  6
Continuous
 62
     4
370
     9
100
AcDbLine
 10
-87.14607857369089
 20
-678.0965114284206
 30
0.0
 11
-29.88132786106405
 21
-678.0965114284206
 31
0.0
  0
LINE
  5
5A
330
1F
100
AcDbEntity
  8
0-2
  6
Continuous
 62
     4
370
     9
100
AcDbLine
 10
-1.01351351351326
 20
-628.0963464685387
 30
0.0
 11
-29.88132786106405
 21
-678.0965114284206
 31
0.0
  0
LINE
  5
5B
330
1F
100
AcDbEntity
  8
0-2
  6
Continuous
 62
     4
370
     9
100
AcDbLine
 10
-1.01351351351326
 20
-628.0963464685387
 30
0.0
 11
-29.88132786106405
 21
-578.0960577887457
 31
0.0
  0
LINE
  5
5C
330
1F
100
AcDbEntity
  8
0-2
  6
Continuous
 62
     4
370
     9
100
AcDbLine
 10
-87.14632601351326
 20
-578.0960577887457
 30
0.0
 11
-29.88132786106405
 21
-578.0960577887457
 31
0.0
  0
LINE
  5
5D
330
1F
100
AcDbEntity
  8
0-2
  6
JWW_HOJO
 62
     4
370
     9
100
AcDbLine
 10
-203.2638962204391
 20
495.9460614178633
 30
0.0
 11
-313.7640875739018
 21
495.9460614178633
 31
0.0
  0
LINE
  5
5E
330
1F
100
AcDbEntity
  8
0-2
  6
Continuous
 62
     4
370
     9
100
AcDbLine
 10
-313.7640875739018
 20
531.1446236275339
 30
0.0
 11
-313.7640875739018
 21
495.9460614178633
 31
0.0
  0
LINE
  5
5F
330
1F
100
AcDbEntity
  8
0-2
  6
Continuous
 62
     4
370
     9
100
AcDbLine
 10
-215.8890182907516
 20
535.9456985061234
 30
0.0
 11
-301.1389655035893
 21
535.9456985061234
 31
0.0
  0
LINE
  5
60
330
1F
100
AcDbEntity
  8
0-2
  6
Continuous
 62
     4
370
     9
100
AcDbLine
 10
-203.2638962204391
 20
531.1446236275339
 30
0.0
 11
-203.2638962204391
 21
495.9460614178633
 31
0.0
  0
LINE
  5
61
330
1F
100
AcDbEntity
  8
0-2
  6
Continuous
 62
     4
370
     9
100
AcDbLine
 10
-233.9289897197
 20
245.9461026578336
 30
0.0
 11
-228.5141403610641
 21
251.361075736381
 31
0.0
  0
LINE
  5
62
330
1F
100
AcDbEntity
  8
0-2
  6
Continuous
 62
     4
370
     9
100
AcDbLine
 10
-228.5141403610641
 20
251.361075736381
 30
0.0
 11
-288.5138434332768
 21
251.361075736381
 31
0.0
  0
LINE
  5
63
330
1F
100
AcDbEntity
  8
0-2
  6
Continuous
 62
     4
370
     9
100
AcDbLine
 10
-288.5138434332768
 20
251.361075736381
 30
0.0
 11
-283.0988703547297
 21
245.9461026578336
 31
0.0
  0
LINE
  5
64
330
1F
100
AcDbEntity
  8
0-2
  6
Continuous
 62
     4
370
     9
100
AcDbLine
 10
-283.0988703547297
 20
245.9461026578336
 30
0.0
 11
-233.9289897197
 21
245.9461026578336
 31
0.0
  0
LINE
  5
65
330
1F
100
AcDbEntity
  8
0-2
  6
JWW_HOJO
 62
     4
370
     9
100
AcDbLine
 10
-3.263731260557279
 20
495.9460614178633
 30
0.0
 11
-113.76392261402
 21
495.9460614178633
 31
0.0
  0
LINE
  5
66
330
1F
100
AcDbEntity
  8
0-2
  6
Continuous
 62
     4
370
     9
100
AcDbLine
 10
-113.76392261402
 20
531.1446236275339
 30
0.0
 11
-113.76392261402
 21
495.9460614178633
 31
0.0
  0
LINE
  5
67
330
1F
100
AcDbEntity
  8
0-2
  6
Continuous
 62
     4
370
     9
100
AcDbLine
 10
-15.88885333086978
 20
535.9456985061234
 30
0.0
 11
-101.1388005437075
 21
535.9456985061234
 31
0.0
  0
LINE
  5
68
330
1F
100
AcDbEntity
  8
0-2
  6
Continuous
 62
     4
370
     9
100
AcDbLine
 10
-3.263731260557279
 20
531.1446236275339
 30
0.0
 11
-3.263731260557279
 21
495.9460614178633
 31
0.0
  0
LINE
  5
69
330
1F
100
AcDbEntity
  8
0-2
  6
Continuous
 62
     4
370
     9
100
AcDbLine
 10
-33.92894847972968
 20
245.9461026578336
 30
0.0
 11
-28.51397540118228
 21
251.361075736381
 31
0.0
  0
LINE
  5
6A
330
1F
100
AcDbEntity
  8
0-2
  6
Continuous
 62
     4
370
     9
100
AcDbLine
 10
-28.51397540118228
 20
251.361075736381
 30
0.0
 11
-88.51367847339503
 21
251.361075736381
 31
0.0
  0
LINE
  5
6B
330
1F
100
AcDbEntity
  8
0-2
  6
Continuous
 62
     4
370
     9
100
AcDbLine
 10
-88.51367847339503
 20
251.361075736381
 30
0.0
 11
-83.09870539484791
 21
245.9461026578336
 31
0.0
  0
LINE
  5
6C
330
1F
100
AcDbEntity
  8
0-2
  6
Continuous
 62
     4
370
     9
100
AcDbLine
 10
-83.09870539484791
 20
245.9461026578336
 30
0.0
 11
-33.92894847972968
 21
245.9461026578336
 31
0.0
  0
LINE
  5
6D
330
1F
100
AcDbEntity
  8
0-2
  6
JWW_HOJO
 62
     4
370
     9
100
AcDbLine
 10
-201.013678473395
 20
425.9458304740289
 30
0.0
 11
-316.0135630014778
 21
425.9458304740289
 31
0.0
  0
LINE
  5
6E
330
1F
100
AcDbEntity
  8
0-2
  6
Continuous
 62
     4
370
     9
100
AcDbLine
 10
-201.013678473395
 20
380.853263236381
 30
0.0
 11
-201.013678473395
 21
425.9458304740289
 31
0.0
  0
LINE
  5
6F
330
1F
100
AcDbEntity
  8
0-2
  6
Continuous
 62
     4
370
     9
100
AcDbLine
 10
-316.0135630014778
 20
380.853263236381
 30
0.0
 11
-316.0135630014778
 21
425.9458304740289
 31
0.0
  0
LINE
  5
70
330
1F
100
AcDbEntity
  8
0-2
  6
Continuous
 62
     4
370
     9
100
AcDbLine
 10
-229.8809979413005
 20
380.853263236381
 30
0.0
 11
-229.8809979413005
 21
425.9458304740289
 31
0.0
  0
LINE
  5
71
330
1F
100
AcDbEntity
  8
0-2
  6
Continuous
 62
     4
370
     9
100
AcDbLine
 10
-287.1462435335727
 20
380.853263236381
 30
0.0
 11
-287.1462435335727
 21
425.9458304740289
 31
0.0
  0
LINE
  5
72
330
1F
100
AcDbEntity
  8
0-2
  6
Continuous
 62
     4
370
     9
100
AcDbLine
 10
-215.4473382073479
 20
375.9455417942357
 30
0.0
 11
-301.5799032675253
 21
375.9455417942357
 31
0.0
  0
LINE
  5
73
330
1F
100
AcDbEntity
  8
0-2
  6
JWW_HOJO
 62
     4
370
     9
100
AcDbLine
 10
-1.01351351351326
 20
425.9458304740289
 30
0.0
 11
-116.0133980415961
 21
425.9458304740289
 31
0.0
  0
LINE
  5
74
330
1F
100
AcDbEntity
  8
0-2
  6
Continuous
 62
     4
370
     9
100
AcDbLine
 10
-1.01351351351326
 20
380.853263236381
 30
0.0
 11
-1.01351351351326
 21
425.9458304740289
 31
0.0
  0
LINE
  5
75
330
1F
100
AcDbEntity
  8
0-2
  6
Continuous
 62
     4
370
     9
100
AcDbLine
 10
-116.0133980415961
 20
380.853263236381
 30
0.0
 11
-116.0133980415961
 21
425.9458304740289
 31
0.0
  0
LINE
  5
76
330
1F
100
AcDbEntity
  8
0-2
  6
Continuous
 62
     4
370
     9
100
AcDbLine
 10
-29.88083298141873
 20
380.853263236381
 30
0.0
 11
-29.88083298141873
 21
425.9458304740289
 31
0.0
  0
LINE
  5
77
330
1F
100
AcDbEntity
  8
0-2
  6
Continuous
 62
     4
370
     9
100
AcDbLine
 10
-87.14607857369089
 20
380.853263236381
 30
0.0
 11
-87.14607857369089
 21
425.9458304740289
 31
0.0
  0
LINE
  5
78
330
1F
100
AcDbEntity
  8
0-2
  6
Continuous
 62
     4
370
     9
100
AcDbLine
 10
-15.44717324746614
 20
375.9455417942357
 30
0.0
 11
-101.5797383076435
 21
375.9455417942357
 31
0.0
  0
LINE
  5
79
330
1F
100
AcDbEntity
  8
0-2
  6
Continuous
 62
     4
370
     9
100
AcDbLine
 10
-228.5141403610641
 20
531.1446236275339
 30
0.0
 11
-228.5141403610641
 21
495.9460614178633
 31
0.0
  0
LINE
  5
7A
330
1F
100
AcDbEntity
  8
0-2
  6
Continuous
 62
     4
370
     9
100
AcDbLine
 10
-228.5141403610641
 20
375.9455417942357
 30
0.0
 11
-228.5141403610641
 21
251.361075736381
 31
0.0
  0
LINE
  5
7B
330
1F
100
AcDbEntity
  8
0-2
  6
Continuous
 62
     4
370
     9
100
AcDbLine
 10
-288.5138434332768
 20
531.1446236275339
 30
0.0
 11
-288.5138434332768
 21
495.9460614178633
 31
0.0
  0
LINE
  5
7C
330
1F
100
AcDbEntity
  8
0-2
  6
Continuous
 62
     4
370
     9
100
AcDbLine
 10
-288.5138434332768
 20
375.9455417942357
 30
0.0
 11
-288.5138434332768
 21
251.361075736381
 31
0.0
  0
LINE
  5
7D
330
1F
100
AcDbEntity
  8
0-2
  6
Continuous
 62
     4
370
     9
100
AcDbLine
 10
-283.0988703547297
 20
375.9455417942357
 30
0.0
 11
-283.0988703547297
 21
245.9461026578336
 31
0.0
  0
LINE
  5
7E
330
1F
100
AcDbEntity
  8
0-2
  6
Continuous
 62
     4
370
     9
100
AcDbLine
 10
-233.9289897197
 20
375.9455417942357
 30
0.0
 11
-233.9289897197
 21
245.9461026578336
 31
0.0
  0
LINE
  5
7F
330
1F
100
AcDbEntity
  8
0-2
  6
JWW_CENTER1
 62
     4
370
     9
100
AcDbLine
 10
-258.5137444573479
 20
554.0130120354731
 30
0.0
 11
-258.5137444573479
 21
230.8562325142526
 31
0.0
  0
LINE
  5
80
330
1F
100
AcDbEntity
  8
0-2
  6
JWW_CENTER1
 62
     4
370
     9
100
AcDbLine
 10
-58.51357949746614
 20
554.0130120354731
 30
0.0
 11
-58.51357949746614
 21
230.8562325142526
 31
0.0
  0
LINE
  5
81
330
1F
100
AcDbEntity
  8
0-2
  6
Continuous
 62
     4
370
     9
100
AcDbLine
 10
-83.09870539484791
 20
375.9455417942357
 30
0.0
 11
-83.09870539484791
 21
245.9461026578336
 31
0.0
  0
LINE
  5
82
330
1F
100
AcDbEntity
  8
0-2
  6
Continuous
 62
     4
370
     9
100
AcDbLine
 10
-33.92894847972968
 20
375.9455417942357
 30
0.0
 11
-33.92894847972968
 21
245.9461026578336
 31
0.0
  0
LINE
  5
83
330
1F
100
AcDbEntity
  8
0-2
  6
Continuous
 62
     4
370
     9
100
AcDbLine
 10
-28.51397540118228
 20
531.1446236275339
 30
0.0
 11
-28.51397540118228
 21
495.9460614178633
 31
0.0
  0
LINE
  5
84
330
1F
100
AcDbEntity
  8
0-2
  6
Continuous
 62
     4
370
     9
100
AcDbLine
 10
-28.51397540118228
 20
375.9455417942357
 30
0.0
 11
-28.51397540118228
 21
251.361075736381
 31
0.0
  0
LINE
  5
85
330
1F
100
AcDbEntity
  8
0-2
  6
Continuous
 62
     4
370
     9
100
AcDbLine
 10
-88.51367847339503
 20
531.1446236275339
 30
0.0
 11
-88.51367847339503
 21
495.9460614178633
 31
0.0
  0
LINE
  5
86
330
1F
100
AcDbEntity
  8
0-2
  6
Continuous
 62
     4
370
     9
100
AcDbLine
 10
-88.51367847339503
 20
375.9455417942357
 30
0.0
 11
-88.51367847339503
 21
251.361075736381
 31
0.0
  0
LINE
  5
87
330
1F
100
AcDbEntity
  8
0-2
  6
JWW_CENTER1
 62
     4
370
     9
100
AcDbLine
 10
-183.1324396906672
 20
-628.0963464685387
 30
0.0
 11
-338.8136580183698
 21
-628.0963464685387
 31
0.0
  0
LINE
  5
88
330
1F
100
AcDbEntity
  8
0-2
  6
JWW_CENTER1
 62
     4
370
     9
100
AcDbLine
 10
-258.5137444573479
 20
-558.7048174883867
 30
0.0
 11
-258.5137444573479
 21
-700.8484793998099
 31
0.0
  0
LINE
  5
89
330
1F
100
AcDbEntity
  8
0-2
  6
JWW_CENTER1
 62
     4
370
     9
100
AcDbLine
 10
-58.51357949746614
 20
-558.7048174883867
 30
0.0
 11
-58.51357949746614
 21
-700.8484793998099
 31
0.0
  0
LINE
  5
8A
330
1F
100
AcDbEntity
  8
0-4
  6
Continuous
 62
     7
370
     9
100
AcDbLine
 10
-1477.148066340266
 20
175.9459954339107
 30
0.0
 11
-1457.312671558277
 21
191.1662663640203
 31
0.0
  0
LINE
  5
8B
330
1F
100
AcDbEntity
  8
0-4
  6
Continuous
 62
     7
370
     9
100
AcDbLine
 10
-1477.148066340266
 20
175.9459954339107
 30
0.0
 11
-1454.049187737542
 21
185.5138747756547
 31
0.0
  0
LINE
  5
8C
330
1F
100
AcDbEntity
  8
0-4
  6
Continuous
 62
     7
370
     9
100
AcDbLine
 10
-489.8790101747255
 20
745.9458964579815
 30
0.0
 11
-512.977765057538
 21
736.3781408361488
 31
0.0
  0
LINE
  5
8D
330
1F
100
AcDbEntity
  8
0-4
  6
Continuous
 62
     7
370
     9
100
AcDbLine
 10
-489.8790101747255
 20
745.9458964579815
 30
0.0
 11
-509.7144049567143
 21
730.7256255278717
 31
0.0
  0
LINE
  5
8E
330
1F
100
AcDbEntity
  8
0-4
  6
Continuous
 62
     7
370
     9
100
AcDbLine
 10
-481.218740102407
 20
750.9459129539698
 30
0.0
 11
-461.3849536792651
 21
766.1649466849665
 31
0.0
  0
LINE
  5
8F
330
1F
100
AcDbEntity
  8
0-4
  6
Continuous
 62
     7
370
     9
100
AcDbLine
 10
-481.218740102407
 20
750.9459129539698
 30
0.0
 11
-458.1217172983528
 21
760.5129262563346
 31
0.0
  0
LINE
  5
90
330
1F
100
AcDbEntity
  8
0-4
  6
Continuous
 62
     7
370
     9
100
AcDbLine
 10
-1485.808212692673
 20
170.9457314980997
 30
0.0
 11
-1508.905111776816
 21
161.3787181957349
 31
0.0
  0
LINE
  5
91
330
1F
100
AcDbEntity
  8
0-4
  6
Continuous
 62
     7
370
     9
100
AcDbLine
 10
-1485.808212692673
 20
170.9457314980997
 30
0.0
 11
-1505.641999115815
 21
155.7265740471919
 31
0.0
  0
LINE
  5
92
330
1F
100
AcDbEntity
  8
0-4
  6
Continuous
 62
     7
370
     9
100
AcDbLine
 10
-487.2179186021958
 20
747.4822503167231
 30
0.0
 11
-427.0818761877109
 21
782.2012741501269
 31
0.0
  0
LINE
  5
93
330
1F
100
AcDbEntity
  8
0-4
  6
Continuous
 62
     7
370
     9
100
AcDbLine
 10
-1455.6753622519
 20
188.343225427576
 30
0.0
 11
-1539.944581727724
 21
139.6895042625636
 31
0.0
  0
LINE
  5
94
330
1F
100
AcDbEntity
  8
0-4
  6
Continuous
 62
     7
370
     9
100
AcDbLine
 10
-1455.6753622519
 20
188.343225427576
 30
0.0
 11
-487.2179186021958
 21
747.4822503167231
 31
0.0
  0
LINE
  5
95
330
1F
100
AcDbEntity
  8
0-4
  6
Continuous
 62
     7
370
     9
100
AcDbLine
 10
-1713.513595993454
 20
-728.096552668391
 30
0.0
 11
-1713.513595993454
 21
-528.0961402686866
 31
0.0
  0
LINE
  5
96
330
1F
100
AcDbEntity
  8
0-4
  6
Continuous
 62
     7
370
     9
100
AcDbLine
 10
-1594.949340820312
 20
-728.096552668391
 30
0.0
 11
-1716.513556403083
 21
-728.096552668391
 31
0.0
  0
LINE
  5
97
330
1F
100
AcDbEntity
  8
0-4
  6
Continuous
 62
     7
370
     9
100
AcDbLine
 10
-1594.949340820312
 20
-528.0961402686866
 30
0.0
 11
-1716.513556403083
 21
-528.0961402686866
 31
0.0
  0
LINE
  5
98
330
1F
100
AcDbEntity
  8
0-4
  6
Continuous
 62
     7
370
     9
100
AcDbLine
 10
-1713.513595993454
 20
-728.096552668391
 30
0.0
 11
-1716.776832374367
 21
-703.3102581952069
 31
0.0
  0
LINE
  5
99
330
1F
100
AcDbEntity
  8
0-4
  6
Continuous
 62
     7
370
     9
100
AcDbLine
 10
-1713.513595993454
 20
-728.096552668391
 30
0.0
 11
-1710.250359612542
 21
-703.3102581952069
 31
0.0
  0
LINE
  5
9A
330
1F
100
AcDbEntity
  8
0-4
  6
Continuous
 62
     7
370
     9
100
AcDbLine
 10
-1713.513595993454
 20
-528.0961402686866
 30
0.0
 11
-1716.776832374367
 21
-552.8824347418707
 31
0.0
  0
LINE
  5
9B
330
1F
100
AcDbEntity
  8
0-4
  6
Continuous
 62
     7
370
     9
100
AcDbLine
 10
-1713.513595993454
 20
-528.0961402686866
 30
0.0
 11
-1710.250359612542
 21
-552.8824347418707
 31
0.0
  0
LINE
  5
9C
330
1F
100
AcDbEntity
  8
0-E
  6
Continuous
 62
     7
370
     9
100
AcDbLine
 10
-258.5137444573479
 20
535.9456985061234
 30
0.0
 11
-248.9467311549831
 21
559.0427213101773
 31
0.0
  0
LINE
  5
9D
330
1F
100
AcDbEntity
  8
0-E
  6
Continuous
 62
     7
370
     9
100
AcDbLine
 10
-258.5137444573479
 20
535.9456985061234
 30
0.0
 11
-243.2947107263513
 21
555.7794849292654
 31
0.0
  0
LINE
  5
9E
330
1F
100
AcDbEntity
  8
0-E
  6
Continuous
 62
     7
370
     9
100
AcDbLine
 10
-693.5135712494721
 20
963.2406203811234
 30
0.0
 11
-683.9464342271958
 21
986.3376431851776
 31
0.0
  0
LINE
  5
9F
330
1F
100
AcDbEntity
  8
0-E
  6
Continuous
 62
     7
370
     9
100
AcDbLine
 10
-693.5135712494721
 20
963.2406203811234
 30
0.0
 11
-678.2945375184755
 21
983.0744068042654
 31
0.0
  0
LINE
  5
A0
330
1F
100
AcDbEntity
  8
0-0
  6
Continuous
 62
     3
370
     9
100
AcDbLine
 10
-394.5705104518581
 20
495.9460614178633
 30
0.0
 11
36.48648648648674
 21
495.9460614178633
 31
0.0
  0
LINE
  5
A1
330
1F
100
AcDbEntity
  8
0-0
  6
Continuous
 62
     3
370
     9
100
AcDbLine
 10
-394.5705104518581
 20
485.946028425887
 30
0.0
 11
-394.5705104518581
 21
495.9460614178633
 31
0.0
  0
LINE
  5
A2
330
1F
100
AcDbEntity
  8
0-0
  6
Continuous
 62
     3
370
     9
100
AcDbLine
 10
-394.5525710647169
 20
485.946028425887
 30
0.0
 11
36.48648648648674
 21
485.946028425887
 31
0.0
  0
LINE
  5
A3
330
1F
100
AcDbEntity
  8
0-0
  6
Continuous
 62
     3
370
     9
100
AcDbLine
 10
-394.5705104518581
 20
435.9458634660052
 30
0.0
 11
-394.5705104518581
 21
425.9458304740289
 31
0.0
  0
LINE
  5
A4
330
1F
100
AcDbEntity
  8
0-0
  6
Continuous
 62
     3
370
     9
100
AcDbLine
 10
-394.5705104518581
 20
425.9458304740289
 30
0.0
 11
36.48648648648674
 21
425.9458304740289
 31
0.0
  0
LINE
  5
A5
330
1F
100
AcDbEntity
  8
0-0
  6
Continuous
 62
     3
370
     9
100
AcDbLine
 10
-394.5523236248943
 20
435.9458634660052
 30
0.0
 11
36.48648648648674
 21
435.9458634660052
 31
0.0
  0
LINE
  5
A6
330
1F
100
AcDbEntity
  8
0-0
  6
Continuous
 62
     3
370
     9
100
AcDbLine
 10
-394.5705104518581
 20
-528.0961402686866
 30
0.0
 11
-394.5705104518581
 21
-728.096552668391
 31
0.0
  0
LINE
  5
A7
330
1F
100
AcDbEntity
  8
0-2
  6
Continuous
 62
     4
370
     9
100
AcDbLine
 10
-201.0138021933065
 20
-628.0963464685387
 30
0.0
 11
-229.8814928209458
 21
-578.0960577887457
 31
0.0
  0
LINE
  5
A8
330
1F
100
AcDbEntity
  8
0-2
  6
JWW_CENTER1
 62
     4
370
     9
100
AcDbLine
 10
16.86772526921459
 20
-628.0963464685387
 30
0.0
 11
-138.813493058488
 21
-628.0963464685387
 31
0.0
  0
LINE
  5
A9
330
1F
100
AcDbEntity
  8
0-0
  6
JWW_CENTER1
 62
     3
370
     9
100
AcDbLine
 10
-983.5135382574957
 20
1080.699809306377
 30
0.0
 11
-983.5135382574957
 21
-169.0187691353461
 31
0.0
  0
LINE
  5
AA
330
1F
100
AcDbEntity
  8
0-E
  6
Continuous
 62
     7
370
     9
100
AcDbLine
 10
-693.5135712494721
 20
963.2406203811234
 30
0.0
 11
-590.915246911951
 21
1140.945962441934
 31
0.0
  0
LINE
  5
AB
330
1F
100
AcDbEntity
  8
0-E
  6
Continuous
 62
     7
370
     9
100
AcDbLine
 10
-258.5137444573479
 20
535.9456985061234
 30
0.0
 11
-171.911167454075
 21
685.9456985061234
 31
0.0
  0
LINE
  5
AC
330
1F
100
AcDbEntity
  8
0-E
  6
Continuous
 62
     7
370
     9
100
AcDbLine
 10
-171.911167454075
 20
685.9456985061234
 30
0.0
 11
257.059788059544
 21
685.9456985061234
 31
0.0
  0
LINE
  5
AD
330
1F
100
AcDbEntity
  8
0-E
  6
Continuous
 62
     7
370
     9
100
AcDbLine
 10
-590.915246911951
 20
1140.945962441934
 30
0.0
 11
-30.77136890308253
 21
1140.945962441934
 31
0.0
  0
LINE
  5
AE
330
1F
100
AcDbEntity
  8
0-4
  6
Continuous
 62
     7
370
     9
100
AcDbLine
 10
767.9537386507604
 20
-603.2431813832875
 30
0.0
 11
767.9537386507604
 21
-773.2433710871516
 31
0.0
  0
LINE
  5
AF
330
1F
100
AcDbEntity
  8
0-4
  6
Continuous
 62
     7
370
     9
100
AcDbLine
 10
767.9537386507604
 20
-603.2431813832875
 30
0.0
 11
1767.953573690879
 21
-603.2431813832875
 31
0.0
  0
LINE
  5
B0
330
1F
100
AcDbEntity
  8
0-4
  6
Continuous
 62
     7
370
     9
100
AcDbLine
 10
767.9537386507604
 20
-773.2433710871516
 30
0.0
 11
1767.953573690879
 21
-773.2433710871516
 31
0.0
  0
LINE
  5
B1
330
1F
100
AcDbEntity
  8
0-4
  6
Continuous
 62
     7
370
     9
100
AcDbLine
 10
767.9537386507604
 20
-673.2431648872994
 30
0.0
 11
1767.953573690879
 21
-673.2431648872994
 31
0.0
  0
LINE
  5
B2
330
1F
100
AcDbEntity
  8
0-4
  6
Continuous
 62
     7
370
     9
100
AcDbLine
 10
1767.953573690879
 20
-603.2431813832875
 30
0.0
 11
1767.953573690879
 21
-773.2433710871516
 31
0.0
  0
LINE
  5
B3
330
1F
100
AcDbEntity
  8
0-4
  6
Continuous
 62
     7
370
     9
100
AcDbLine
 10
767.9537386507604
 20
-668.2432721112225
 30
0.0
 11
1767.953573690879
 21
-668.2432721112225
 31
0.0
  0
LINE
  5
B4
330
1F
100
AcDbEntity
  8
0-4
  6
Continuous
 62
     7
370
     9
100
AcDbLine
 10
867.953821130701
 20
-673.2431648872994
 30
0.0
 11
867.953821130701
 21
-773.2433710871516
 31
0.0
  0
LINE
  5
B5
330
1F
100
AcDbEntity
  8
0-4
  6
Continuous
 62
     7
370
     9
100
AcDbLine
 10
967.9536561708193
 20
-673.2431648872994
 30
0.0
 11
967.9536561708193
 21
-773.2433710871516
 31
0.0
  0
LINE
  5
B6
330
1F
100
AcDbEntity
  8
0-4
  6
Continuous
 62
     7
370
     9
100
AcDbLine
 10
1067.95373865076
 20
-673.2431648872994
 30
0.0
 11
1067.95373865076
 21
-773.2433710871516
 31
0.0
  0
LINE
  5
B7
330
1F
100
AcDbEntity
  8
0-4
  6
Continuous
 62
     7
370
     9
100
AcDbLine
 10
1167.953821130701
 20
-673.2431648872994
 30
0.0
 11
1167.953821130701
 21
-773.2433710871516
 31
0.0
  0
LINE
  5
B8
330
1F
100
AcDbEntity
  8
0-4
  6
Continuous
 62
     7
370
     9
100
AcDbLine
 10
1267.953656170819
 20
-673.2431648872994
 30
0.0
 11
1267.953656170819
 21
-773.2433710871516
 31
0.0
  0
LINE
  5
B9
330
1F
100
AcDbEntity
  8
0-4
  6
Continuous
 62
     7
370
     9
100
AcDbLine
 10
1367.95373865076
 20
-673.2431648872994
 30
0.0
 11
1367.95373865076
 21
-773.2433710871516
 31
0.0
  0
LINE
  5
BA
330
1F
100
AcDbEntity
  8
0-4
  6
Continuous
 62
     7
370
     9
100
AcDbLine
 10
1467.953821130701
 20
-673.2431648872994
 30
0.0
 11
1467.953821130701
 21
-773.2433710871516
 31
0.0
  0
LINE
  5
BB
330
1F
100
AcDbEntity
  8
0-4
  6
Continuous
 62
     7
370
     9
100
AcDbLine
 10
784.0318834459458
 20
-1048.989567112278
 30
0.0
 11
1594.375032991977
 21
-1048.989567112278
 31
0.0
  0
LINE
  5
BC
330
1F
100
AcDbEntity
  8
0-4
  6
Continuous
 62
     7
370
     9
100
AcDbLine
 10
784.0318834459458
 20
-888.9897815601245
 30
0.0
 11
1729.374983504012
 21
-888.9897815601245
 31
0.0
  0
LINE
  5
BD
330
1F
100
AcDbEntity
  8
0-4
  6
Continuous
 62
     7
370
     9
100
AcDbLine
 10
784.0318834459458
 20
-968.9895506162901
 30
0.0
 11
1751.87518145587
 21
-968.9895506162901
 31
0.0
  0
LINE
  5
BE
330
1F
100
AcDbEntity
  8
0-4
  6
Continuous
 62
     7
370
     9
100
AcDbLine
 10
1567.953903610642
 20
-673.2431648872994
 30
0.0
 11
1567.953903610642
 21
-773.2433710871516
 31
0.0
  0
LINE
  5
BF
330
1F
100
AcDbEntity
  8
0-4
  6
Continuous
 62
     7
370
     9
100
AcDbLine
 10
1667.95373865076
 20
-673.2431648872994
 30
0.0
 11
1667.95373865076
 21
-773.2433710871516
 31
0.0
  0
LINE
  5
C0
330
1F
100
AcDbEntity
  8
0-9
  6
Continuous
 62
     2
370
     9
100
AcDbLine
 10
-413.5135135135135
 20
475.9459954339107
 30
0.0
 11
-413.5135135135135
 21
445.9458964579815
 31
0.0
  0
LINE
  5
C1
330
1F
100
AcDbEntity
  8
0-9
  6
Continuous
 62
     2
370
     9
100
AcDbLine
 10
-413.5135135135135
 20
475.9459954339107
 30
0.0
 11
556.4864699904984
 21
475.9459954339107
 31
0.0
  0
LINE
  5
C2
330
1F
100
AcDbEntity
  8
0-9
  6
Continuous
 62
     2
370
     9
100
AcDbLine
 10
-413.5135135135135
 20
445.9458964579815
 30
0.0
 11
556.4864699904984
 21
445.9458964579815
 31
0.0
  0
LINE
  5
C3
330
1F
100
AcDbEntity
  8
0-9
  6
Continuous
 62
     2
370
     9
100
AcDbLine
 10
556.4864699904984
 20
910.945945945946
 30
0.0
 11
586.4865689664276
 21
910.945945945946
 31
0.0
  0
LINE
  5
C4
330
1F
100
AcDbEntity
  8
0-9
  6
Continuous
 62
     2
370
     9
100
AcDbLine
 10
556.4864699904984
 20
910.945945945946
 30
0.0
 11
556.4864699904984
 21
10.94594594594611
 31
0.0
  0
LINE
  5
C5
330
1F
100
AcDbEntity
  8
0-9
  6
Continuous
 62
     2
370
     9
100
AcDbLine
 10
556.4864699904984
 20
10.94594594594611
 30
0.0
 11
586.4865689664276
 21
10.94594594594611
 31
0.0
  0
LINE
  5
C6
330
1F
100
AcDbEntity
  8
0-9
  6
Continuous
 62
     2
370
     9
100
AcDbLine
 10
586.4865689664276
 20
910.945945945946
 30
0.0
 11
586.4865689664276
 21
10.94594594594611
 31
0.0
  0
LINE
  5
C7
330
1F
100
AcDbEntity
  8
0-9
  6
Continuous
 62
     2
370
     9
100
AcDbLine
 10
586.4865689664276
 20
-528.0963877085093
 30
0.0
 11
586.4865689664276
 21
-728.0963052285683
 31
0.0
  0
LINE
  5
C8
330
1F
100
AcDbEntity
  8
0-9
  6
Continuous
 62
     2
370
     9
100
AcDbLine
 10
556.4864699904984
 20
-528.0963877085093
 30
0.0
 11
556.4864699904984
 21
-728.0963052285683
 31
0.0
  0
LINE
  5
C9
330
1F
100
AcDbEntity
  8
0-9
  6
JWW_HOJO
 62
     2
370
     9
100
AcDbLine
 10
-413.5135135135135
 20
-528.0963877085093
 30
0.0
 11
-413.5135135135135
 21
-728.0963052285683
 31
0.0
  0
LINE
  5
CA
330
1F
100
AcDbEntity
  8
0-9
  6
JWW_HOJO
 62
     2
370
     9
100
AcDbLine
 10
-308.513661977407
 20
-663.0963382205447
 30
0.0
 11
-28.51372796135962
 21
-663.0963382205447
 31
0.0
  0
LINE
  5
CB
330
1F
100
AcDbEntity
  8
0-9
  6
JWW_HOJO
 62
     2
370
     9
100
AcDbLine
 10
-308.513661977407
 20
-593.0963547165329
 30
0.0
 11
-28.51372796135962
 21
-593.0963547165329
 31
0.0
  0
LINE
  5
CC
330
1F
100
AcDbEntity
  8
0-9
  6
JWW_HOJO
 62
     2
370
     9
100
AcDbLine
 10
-343.5135300095016
 20
445.9458964579815
 30
0.0
 11
-343.5135300095016
 21
475.9459954339107
 31
0.0
  0
LINE
  5
CD
330
1F
100
AcDbEntity
  8
0-9
  6
JWW_HOJO
 62
     2
370
     9
100
AcDbLine
 10
6.486140070734905
 20
445.9458964579815
 30
0.0
 11
6.486140070734905
 21
475.9459954339107
 31
0.0
  0
LINE
  5
CE
330
1F
100
AcDbEntity
  8
0-9
  6
Continuous
 62
     2
370
     9
100
AcDbLine
 10
556.4864699904984
 20
750.9459129539698
 30
0.0
 11
586.4865689664276
 21
750.9459129539698
 31
0.0
  0
LINE
  5
CF
330
1F
100
AcDbEntity
  8
0-9
  6
Continuous
 62
     2
370
     9
100
AcDbLine
 10
556.4864699904984
 20
820.9461438978042
 30
0.0
 11
586.4865689664276
 21
820.9461438978042
 31
0.0
  0
LINE
  5
D0
330
1F
100
AcDbEntity
  8
0-9
  6
Continuous
 62
     2
370
     9
100
AcDbLine
 10
498.3930433118667
 20
785.946028425887
 30
0.0
 11
649.0349022117823
 21
785.946028425887
 31
0.0
  0
LINE
  5
D1
330
1F
100
AcDbEntity
  8
0-9
  6
Continuous
 62
     2
370
     9
100
AcDbLine
 10
556.4864699904984
 20
170.9459789379224
 30
0.0
 11
586.4865689664276
 21
170.9459789379224
 31
0.0
  0
LINE
  5
D2
330
1F
100
AcDbEntity
  8
0-9
  6
Continuous
 62
     2
370
     9
100
AcDbLine
 10
556.4864699904984
 20
100.945747994088
 30
0.0
 11
586.4865689664276
 21
100.945747994088
 31
0.0
  0
LINE
  5
D3
330
1F
100
AcDbEntity
  8
0-9
  6
Continuous
 62
     2
370
     9
100
AcDbLine
 10
498.3930433118667
 20
135.9458634660052
 30
0.0
 11
649.0349022117823
 21
135.9458634660052
 31
0.0
  0
LINE
  5
D4
330
1F
100
AcDbEntity
  8
0-9
  6
Continuous
 62
     2
370
     9
100
AcDbLine
 10
46.48651947846304
 20
-728.0963052285683
 30
0.0
 11
586.4865689664276
 21
-728.0963052285683
 31
0.0
  0
LINE
  5
D5
330
1F
100
AcDbEntity
  8
0-9
  6
Continuous
 62
     2
370
     9
100
AcDbLine
 10
46.48651947846304
 20
-528.0963877085093
 30
0.0
 11
586.4865689664276
 21
-528.0963877085093
 31
0.0
  0
LINE
  5
D6
330
1F
100
AcDbEntity
  8
0-0
  6
JWW_CENTER1
 62
     3
370
     9
100
AcDbLine
 10
-1595.951162802206
 20
460.9459459459461
 30
0.0
 11
620.7990491712417
 21
460.9459459459461
 31
0.0
  0
LINE
  5
D7
330
1F
100
AcDbEntity
  8
0-4
  6
Continuous
 62
     7
370
     9
100
AcDbLine
 10
-238.51318359375
 20
95.94610265783359
 30
0.0
 11
66.48732778188361
 21
95.94610265783359
 31
0.0
  0
LINE
  5
D8
330
1F
100
AcDbEntity
  8
0-4
  6
Continuous
 62
     7
370
     9
100
AcDbLine
 10
-238.51318359375
 20
215.4453092008023
 30
0.0
 11
-238.51318359375
 21
92.9461422482052
 31
0.0
  0
LINE
  5
D9
330
1F
100
AcDbEntity
  8
0-4
  6
Continuous
 62
     7
370
     9
100
AcDbLine
 10
-38.51252375422291
 20
215.4453092008023
 30
0.0
 11
-38.51252375422291
 21
92.9461422482052
 31
0.0
  0
LINE
  5
DA
330
1F
100
AcDbEntity
  8
0-4
  6
Continuous
 62
     7
370
     9
100
AcDbLine
 10
-238.51318359375
 20
95.94610265783359
 30
0.0
 11
-213.7268891205659
 21
99.20921531883465
 31
0.0
  0
LINE
  5
DB
330
1F
100
AcDbEntity
  8
0-4
  6
Continuous
 62
     7
370
     9
100
AcDbLine
 10
-238.51318359375
 20
95.94610265783359
 30
0.0
 11
-213.7268891205659
 21
92.68298999683282
 31
0.0
  0
LINE
  5
DC
330
1F
100
AcDbEntity
  8
0-4
  6
Continuous
 62
     7
370
     9
100
AcDbLine
 10
-13.72672416068411
 20
92.68298999683282
 30
0.0
 11
-63.29881822740703
 21
99.20921531883465
 31
0.0
  0
LINE
  5
DD
330
1F
100
AcDbEntity
  8
0-4
  6
Continuous
 62
     7
370
     9
100
AcDbLine
 10
-13.72672416068411
 20
99.20921531883465
 30
0.0
 11
-63.29881822740703
 21
92.68298999683282
 31
0.0
  0
LINE
  5
DE
330
1F
100
AcDbEntity
  8
0-4
  6
Continuous
 62
     7
370
     9
100
AcDbLine
 10
66.48732778188361
 20
95.94610265783359
 30
0.0
 11
41.70128074852215
 21
99.20921531883465
 31
0.0
  0
LINE
  5
DF
330
1F
100
AcDbEntity
  8
0-4
  6
Continuous
 62
     7
370
     9
100
AcDbLine
 10
66.48732778188361
 20
95.94610265783359
 30
0.0
 11
41.70128074852215
 21
92.68298999683282
 31
0.0
  0
LINE
  5
E0
330
1F
100
AcDbEntity
  8
0-4
  6
Continuous
 62
     7
370
     9
100
AcDbLine
 10
66.48732778188361
 20
402.655309728674
 30
0.0
 11
66.48732778188361
 21
92.9461422482052
 31
0.0
  0
LINE
  5
E1
330
1F
100
AcDbEntity
  8
0-4
  6
Continuous
 62
     7
370
     9
100
AcDbLine
 10
-413.5127711940456
 20
-139.0540540540539
 30
0.0
 11
586.4873112858953
 21
-139.0540540540539
 31
0.0
  0
LINE
  5
E2
330
1F
100
AcDbEntity
  8
0-4
  6
Continuous
 62
     7
370
     9
100
AcDbLine
 10
586.4873112858953
 20
-14.05401281408359
 30
0.0
 11
586.4873112858953
 21
-142.0540144636823
 31
0.0
  0
LINE
  5
E3
330
1F
100
AcDbEntity
  8
0-4
  6
Continuous
 62
     7
370
     9
100
AcDbLine
 10
-413.5127711940456
 20
-139.0540540540539
 30
0.0
 11
-388.7266004407726
 21
-135.7909413930531
 31
0.0
  0
LINE
  5
E4
330
1F
100
AcDbEntity
  8
0-4
  6
Continuous
 62
     7
370
     9
100
AcDbLine
 10
-413.5127711940456
 20
-139.0540540540539
 30
0.0
 11
-388.7266004407726
 21
-142.317166715055
 31
0.0
  0
LINE
  5
E5
330
1F
100
AcDbEntity
  8
0-4
  6
Continuous
 62
     7
370
     9
100
AcDbLine
 10
586.4873112858953
 20
-139.0540540540539
 30
0.0
 11
561.7012642525339
 21
-135.7909413930531
 31
0.0
  0
LINE
  5
E6
330
1F
100
AcDbEntity
  8
0-4
  6
Continuous
 62
     7
370
     9
100
AcDbLine
 10
586.4873112858953
 20
-139.0540540540539
 30
0.0
 11
561.7012642525339
 21
-142.317166715055
 31
0.0
  0
LINE
  5
E7
330
1F
100
AcDbEntity
  8
0-4
  6
Continuous
 62
     7
370
     9
100
AcDbLine
 10
736.4873112858953
 20
135.9458634660052
 30
0.0
 11
736.4873112858953
 21
785.946028425887
 31
0.0
  0
LINE
  5
E8
330
1F
100
AcDbEntity
  8
0-4
  6
Continuous
 62
     7
370
     9
100
AcDbLine
 10
674.0357270111912
 20
135.9458634660052
 30
0.0
 11
739.487271695524
 21
135.9458634660052
 31
0.0
  0
LINE
  5
E9
330
1F
100
AcDbEntity
  8
0-4
  6
Continuous
 62
     7
370
     9
100
AcDbLine
 10
674.0357270111912
 20
785.946028425887
 30
0.0
 11
739.487271695524
 21
785.946028425887
 31
0.0
  0
LINE
  5
EA
330
1F
100
AcDbEntity
  8
0-4
  6
Continuous
 62
     7
370
     9
100
AcDbLine
 10
736.4873112858953
 20
135.9458634660052
 30
0.0
 11
733.2240749049834
 21
160.7320342192779
 31
0.0
  0
LINE
  5
EB
330
1F
100
AcDbEntity
  8
0-4
  6
Continuous
 62
     7
370
     9
100
AcDbLine
 10
736.4873112858953
 20
135.9458634660052
 30
0.0
 11
739.7505476668078
 21
160.7320342192779
 31
0.0
  0
LINE
  5
EC
330
1F
100
AcDbEntity
  8
0-4
  6
Continuous
 62
     7
370
     9
100
AcDbLine
 10
736.4873112858953
 20
785.946028425887
 30
0.0
 11
733.2240749049834
 21
761.1599813925255
 31
0.0
  0
LINE
  5
ED
330
1F
100
AcDbEntity
  8
0-4
  6
Continuous
 62
     7
370
     9
100
AcDbLine
 10
736.4873112858953
 20
785.946028425887
 30
0.0
 11
739.7505476668078
 21
761.1599813925255
 31
0.0
  0
LINE
  5
EE
330
1F
100
AcDbEntity
  8
0-4
  6
Continuous
 62
     7
370
     9
100
AcDbLine
 10
836.4873937658365
 20
10.94594594594611
 30
0.0
 11
836.4873937658365
 21
910.945945945946
 31
0.0
  0
LINE
  5
EF
330
1F
100
AcDbEntity
  8
0-4
  6
Continuous
 62
     7
370
     9
100
AcDbLine
 10
611.4873937658365
 20
10.94594594594611
 30
0.0
 11
839.4873541754646
 21
10.94594594594611
 31
0.0
  0
LINE
  5
F0
330
1F
100
AcDbEntity
  8
0-4
  6
Continuous
 62
     7
370
     9
100
AcDbLine
 10
611.4873937658365
 20
910.945945945946
 30
0.0
 11
839.4873541754646
 21
910.945945945946
 31
0.0
  0
LINE
  5
F1
330
1F
100
AcDbEntity
  8
0-4
  6
Continuous
 62
     7
370
     9
100
AcDbLine
 10
836.4873937658365
 20
10.94594594594611
 30
0.0
 11
833.224157384924
 21
35.73211669921875
 31
0.0
  0
LINE
  5
F2
330
1F
100
AcDbEntity
  8
0-4
  6
Continuous
 62
     7
370
     9
100
AcDbLine
 10
836.4873937658365
 20
10.94594594594611
 30
0.0
 11
839.7506301467484
 21
35.73211669921875
 31
0.0
  0
LINE
  5
F3
330
1F
100
AcDbEntity
  8
0-4
  6
Continuous
 62
     7
370
     9
100
AcDbLine
 10
836.4873937658365
 20
910.945945945946
 30
0.0
 11
839.7506301467484
 21
886.1598989125846
 31
0.0
  0
LINE
  5
F4
330
1F
100
AcDbEntity
  8
0-4
  6
Continuous
 62
     7
370
     9
100
AcDbLine
 10
836.4873937658365
 20
910.945945945946
 30
0.0
 11
833.224157384924
 21
886.1598989125846
 31
0.0
  0
LINE
  5
F5
330
1F
100
AcDbEntity
  8
0-4
  6
Continuous
 62
     7
370
     9
100
AcDbLine
 10
586.4873112858953
 20
135.9458634660052
 30
0.0
 11
601.7063450168922
 21
116.1120770428633
 31
0.0
  0
LINE
  5
F6
330
1F
100
AcDbEntity
  8
0-4
  6
Continuous
 62
     7
370
     9
100
AcDbLine
 10
586.4873112858953
 20
135.9458634660052
 30
0.0
 11
596.0543245882604
 21
112.848840661951
 31
0.0
  0
LINE
  5
F7
330
1F
100
AcDbEntity
  8
0-4
  6
Continuous
 62
     7
370
     9
100
AcDbLine
 10
586.4873112858953
 20
135.9458634660052
 30
0.0
 11
745.2585581186656
 21
-139.0540540540539
 31
0.0
  0
LINE
  5
F8
330
1F
100
AcDbEntity
  8
0-4
  6
Continuous
 62
     7
370
     9
100
AcDbLine
 10
745.2585581186656
 20
-139.0540540540539
 30
0.0
 11
955.6761870513094
 21
-139.0540540540539
 31
0.0
  0
LINE
  5
F9
330
1F
100
AcDbEntity
  8
0-4
  6
Continuous
 62
     7
370
     9
100
AcDbLine
 10
-413.5127711940456
 20
423.1822988149284
 30
0.0
 11
-413.5127711940456
 21
-142.0540144636823
 31
0.0
  0
LINE
  5
FA
330
1F
100
AcDbEntity
  8
0-E
  6
Continuous
 62
     7
370
     9
100
AcDbLine
 10
586.4865689664276
 20
910.945945945946
 30
0.0
 11
596.0535822687922
 21
934.04296875
 31
0.0
  0
LINE
  5
FB
330
1F
100
AcDbEntity
  8
0-E
  6
Continuous
 62
     7
370
     9
100
AcDbLine
 10
586.4865689664276
 20
910.945945945946
 30
0.0
 11
601.705602697424
 21
930.779732369088
 31
0.0
  0
LINE
  5
FC
330
1F
100
AcDbEntity
  8
0-E
  6
Continuous
 62
     7
370
     9
100
AcDbLine
 10
586.4865689664276
 20
910.945945945946
 30
0.0
 11
673.0890222497891
 21
1060.945945945946
 31
0.0
  0
LINE
  5
FD
330
1F
100
AcDbEntity
  8
0-E
  6
Continuous
 62
     7
370
     9
100
AcDbLine
 10
673.0890222497891
 20
1060.945945945946
 30
0.0
 11
1106.712712468328
 21
1060.945945945946
 31
0.0
  0
ARC
  5
FE
330
1F
100
AcDbEntity
  8
0-0
  6
Continuous
 62
     3
370
     9
100
AcDbCircle
 10
36.48648648648674
 20
435.9458634660052
 30
0.0
 40
10.00003395853816
100
AcDbArc
 50
270.0
 51
90.0
  0
ARC
  5
FF
330
1F
100
AcDbEntity
  8
0-0
  6
Continuous
 62
     3
370
     9
100
AcDbCircle
 10
36.48648648648674
 20
485.946028425887
 30
0.0
 40
10.00003395853816
100
AcDbArc
 50
270.0
 51
90.0
  0
CIRCLE
  5
100
330
1F
100
AcDbEntity
  8
0-2
  6
Continuous
 62
     4
370
     9
100
AcDbCircle
 10
-258.2789240656672
 20
-628.0963464685387
 30
0.0
 40
49.99999097875647
  0
CIRCLE
  5
101
330
1F
100
AcDbEntity
  8
0-2
  6
Continuous
 62
     4
370
     9
100
AcDbCircle
 10
-58.27875910578541
 20
-628.0963464685387
 30
0.0
 40
49.99999097875647
  0
ARC
  5
102
330
1F
100
AcDbEntity
  8
0-2
  6
Continuous
 62
     4
370
     9
100
AcDbCircle
 10
-301.1389655035893
 20
516.9460317250846
 30
0.0
 40
18.99999927830052
100
AcDbArc
 50
48.35789489746093
 51
131.6421203613281
  0
ARC
  5
103
330
1F
100
AcDbEntity
  8
0-2
  6
Continuous
 62
     4
370
     9
100
AcDbCircle
 10
-215.8890182907516
 20
516.9460317250846
 30
0.0
 40
18.99999927830052
100
AcDbArc
 50
48.35787963867188
 51
131.6421051025391
  0
ARC
  5
104
330
1F
100
AcDbEntity
  8
0-2
  6
Continuous
 62
     4
370
     9
100
AcDbCircle
 10
-258.5139918971706
 20
439.8123581345018
 30
0.0
 40
96.13323984919369
100
AcDbArc
 50
71.81625366210938
 51
108.1837463378906
  0
ARC
  5
105
330
1F
100
AcDbEntity
  8
0-2
  6
Continuous
 62
     4
370
     9
100
AcDbCircle
 10
-101.1388005437075
 20
516.9460317250846
 30
0.0
 40
18.99999927830052
100
AcDbArc
 50
48.35789489746093
 51
131.6421203613281
  0
ARC
  5
106
330
1F
100
AcDbEntity
  8
0-2
  6
Continuous
 62
     4
370
     9
100
AcDbCircle
 10
-15.88885333086978
 20
516.9460317250846
 30
0.0
 40
18.99999927830052
100
AcDbArc
 50
48.35787963867188
 51
131.6421051025391
  0
ARC
  5
107
330
1F
100
AcDbEntity
  8
0-2
  6
Continuous
 62
     4
370
     9
100
AcDbCircle
 10
-58.5138269372888
 20
439.8123581345018
 30
0.0
 40
96.13323984919369
100
AcDbArc
 50
71.81625366210938
 51
108.1837463378906
  0
ARC
  5
108
330
1F
100
AcDbEntity
  8
0-2
  6
Continuous
 62
     4
370
     9
100
AcDbCircle
 10
-215.4473382073479
 20
399.6247905009503
 30
0.0
 40
23.67928930231043
100
AcDbArc
 50
232.4427795410156
 51
307.5572204589844
  0
ARC
  5
109
330
1F
100
AcDbEntity
  8
0-2
  6
Continuous
 62
     4
370
     9
100
AcDbCircle
 10
-258.5134970175253
 20
461.9248178842906
 30
0.0
 40
85.97918330012142
100
AcDbArc
 50
250.5480041503907
 51
289.4519958496094
  0
ARC
  5
10A
330
1F
100
AcDbEntity
  8
0-2
  6
Continuous
 62
     4
370
     9
100
AcDbCircle
 10
-301.5799032675253
 20
399.6247905009503
 30
0.0
 40
23.67928930231043
100
AcDbArc
 50
232.4427795410156
 51
307.5572204589844
  0
ARC
  5
10B
330
1F
100
AcDbEntity
  8
0-2
  6
Continuous
 62
     4
370
     9
100
AcDbCircle
 10
-15.44717324746614
 20
399.6247905009503
 30
0.0
 40
23.67928930231043
100
AcDbArc
 50
232.4427795410156
 51
307.5572204589844
  0
ARC
  5
10C
330
1F
100
AcDbEntity
  8
0-2
  6
Continuous
 62
     4
370
     9
100
AcDbCircle
 10
-58.51333205764348
 20
461.9248178842906
 30
0.0
 40
85.97918330012142
100
AcDbArc
 50
250.5480041503907
 51
289.4519958496094
  0
ARC
  5
10D
330
1F
100
AcDbEntity
  8
0-2
  6
Continuous
 62
     4
370
     9
100
AcDbCircle
 10
-101.5797383076435
 20
399.6247905009503
 30
0.0
 40
23.67928930231043
100
AcDbArc
 50
232.4427795410156
 51
307.5572204589844
  0
CIRCLE
  5
10E
330
1F
100
AcDbEntity
  8
0-2
  6
Continuous
 62
     4
370
     9
100
AcDbCircle
 10
-258.5137444573479
 20
-628.0963464685387
 30
0.0
 40
24.58512589738176
  0
CIRCLE
  5
10F
330
1F
100
AcDbEntity
  8
0-2
  6
Continuous
 62
     4
370
     9
100
AcDbCircle
 10
-258.5137444573479
 20
-628.0963464685387
 30
0.0
 40
30.00009897592906
  0
CIRCLE
  5
110
330
1F
100
AcDbEntity
  8
0-2
  6
Continuous
 62
     4
370
     9
100
AcDbCircle
 10
-58.51357949746614
 20
-628.0963464685387
 30
0.0
 40
24.58512589738176
  0
CIRCLE
  5
111
330
1F
100
AcDbEntity
  8
0-2
  6
Continuous
 62
     4
370
     9
100
AcDbCircle
 10
-58.51357949746614
 20
-628.0963464685387
 30
0.0
 40
30.00009897592906
  0
ARC
  5
112
330
1F
100
AcDbEntity
  8
0-0
  6
Continuous
 62
     3
370
     9
100
AcDbCircle
 10
-394.5525710647169
 20
495.9460614178633
 30
0.0
 40
10.00000012887491
100
AcDbArc
 50
183.4009704589844
 51
270.0
  0
ARC
  5
113
330
1F
100
AcDbEntity
  8
0-0
  6
Continuous
 62
     3
370
     9
100
AcDbCircle
 10
-394.5525710647169
 20
495.9460614178633
 30
0.0
 40
20.00000025774982
100
AcDbArc
 50
183.4009704589844
 51
270.0
  0
ARC
  5
114
330
1F
100
AcDbEntity
  8
0-0
  6
Continuous
 62
     3
370
     9
100
AcDbCircle
 10
-394.5523236248943
 20
425.9458304740289
 30
0.0
 40
10.00000012887491
100
AcDbArc
 50
90.0
 51
176.5990295410156
  0
ARC
  5
115
330
1F
100
AcDbEntity
  8
0-0
  6
Continuous
 62
     3
370
     9
100
AcDbCircle
 10
-394.5523236248943
 20
425.9458304740289
 30
0.0
 40
20.00000025774982
100
AcDbArc
 50
90.0
 51
176.5990295410156
  0
ARC
  5
116
330
1F
100
AcDbEntity
  8
0-0
  6
Continuous
 62
     3
370
     9
100
AcDbCircle
 10
-983.5135382574957
 20
460.9459459459461
 30
0.0
 40
570.0000247439823
100
AcDbArc
 50
3.400909423828125
 51
356.5990905761719
  0
ARC
  5
117
330
1F
100
AcDbEntity
  8
0-0
  6
Continuous
 62
     3
370
     9
100
AcDbCircle
 10
-983.5135382574957
 20
460.9459459459461
 30
0.0
 40
579.999995876003
100
AcDbArc
 50
3.400909423828125
 51
356.5990905761719
  0
ARC
  5
118
330
1F
100
AcDbEntity
  8
0-9
  6
JWW_HOJO
 62
     2
370
     9
100
AcDbCircle
 10
-308.513661977407
 20
-628.0963464685387
 30
0.0
 40
34.99999175200591
100
AcDbArc
 50
90.0
 51
270.0
  0
ARC
  5
119
330
1F
100
AcDbEntity
  8
0-9
  6
JWW_HOJO
 62
     2
370
     9
100
AcDbCircle
 10
-28.51372796135962
 20
-628.0963464685387
 30
0.0
 40
34.99999175200591
100
AcDbArc
 50
270.0
 51
90.0
  0
TEXT
  5
11A
330
1F
100
AcDbEntity
  8
0-4
  6
Continuous
 62
     2
370
     9
100
AcDbText
 10
-926.1607418941088
 20
506.3446465083504
 30
0.0
 40
30.48
  1
φ114
 50
29.99995643859645
 41
1.1
  7
ＭＳ ゴシック
100
AcDbText
  0
TEXT
  5
11B
330
1F
100
AcDbEntity
  8
0-4
  6
Continuous
 62
     2
370
     9
100
AcDbText
 10
-456.8999569119771
 20
777.2724154051599
 30
0.0
 40
30.48
  1
1
 50
30.00021257069033
 41
1.000000000000001
  7
ＭＳ ゴシック
100
AcDbText
  0
TEXT
  5
11C
330
1F
100
AcDbEntity
  8
0-4
  6
Continuous
 62
     2
370
     9
100
AcDbText
 10
-1538.08748884598
 20
153.0483220001902
 30
0.0
 40
30.48
  1
1
 50
30.00012377823112
 41
1.000000000000006
  7
ＭＳ ゴシック
100
AcDbText
  0
TEXT
  5
11D
330
1F
100
AcDbEntity
  8
0-E
  6
Continuous
 62
     7
370
     9
100
AcDbText
 10
-484.6707565720017
 20
1157.307194626267
 30
0.0
 40
22.86
  1
本体：ＳＵＳ３０４
 41
1.148148148148148
  7
ＭＳ ゴシック
100
AcDbText
  0
TEXT
  5
11E
330
1F
100
AcDbEntity
  8
0-E
  6
Continuous
 62
     7
370
     9
100
AcDbText
 10
-168.1931325551625
 20
704.9052962679477
 30
0.0
 40
22.86
  1
六角ボルト：ＳＵＳ３０４
 41
1.152777777777778
  7
ＭＳ ゴシック
100
AcDbText
  0
TEXT
  5
11F
330
1F
100
AcDbEntity
  8
0-E
  6
Continuous
 62
     7
370
     9
100
AcDbText
 10
-39.52792193438555
 20
647.8041032780828
 30
0.0
 40
22.86
  1
Ｍ６×２５
 41
1.133333333333333
  7
ＭＳ ゴシック
100
AcDbText
  0
TEXT
  5
120
330
1F
100
AcDbEntity
  8
0-E
  6
Continuous
 62
     7
370
     9
100
AcDbText
 10
-585.7713565310916
 20
1104.964516865498
 30
0.0
 40
22.86
  1
ヘアライン仕上＋セラミック系塗装
 41
1.15625
  7
ＭＳ ゴシック
100
AcDbText
  0
TEXT
  5
121
330
1F
100
AcDbEntity
  8
0-4
  6
Continuous
 62
     2
370
     9
100
AcDbText
 10
-1730.333096290627
 20
-649.578554385047
 30
0.0
 40
30.48
  1
20
 50
90.85934275490331
 41
1.062499999999999
  7
ＭＳ ゴシック
100
AcDbText
  0
TEXT
  5
122
330
1F
100
AcDbEntity
  8
0-4
  6
Continuous
 62
     2
370
     9
100
AcDbText
 10
1202.95365617082
 20
-650.1032308712521
 30
0.0
 40
30.48
  1
Ａ寸法
 41
1.083333333333333
  7
ＭＳ ゴシック
100
AcDbText
  0
TEXT
  5
123
330
1F
100
AcDbEntity
  8
0-4
  6
Continuous
 62
     2
370
     9
100
AcDbText
 10
796.7035324509081
 20
-737.6032721112225
 30
0.0
 40
30.48
  1
60
 41
1.0625
  7
ＭＳ ゴシック
100
AcDbText
  0
TEXT
  5
124
330
1F
100
AcDbEntity
  8
0-4
  6
Continuous
 62
     2
370
     9
100
AcDbText
 10
896.7038623706717
 20
-737.6032721112225
 30
0.0
 40
30.48
  1
70
 41
1.0625
  7
ＭＳ ゴシック
100
AcDbText
  0
TEXT
  5
125
330
1F
100
AcDbEntity
  8
0-4
  6
Continuous
 62
     2
370
     9
100
AcDbText
 10
996.7036974107898
 20
-737.6032721112225
 30
0.0
 40
30.48
  1
80
 41
1.0625
  7
ＭＳ ゴシック
100
AcDbText
  0
TEXT
  5
126
330
1F
100
AcDbEntity
  8
0-4
  6
Continuous
 62
     2
370
     9
100
AcDbText
 10
1096.703532450908
 20
-737.6032721112225
 30
0.0
 40
30.48
  1
90
 41
1.0625
  7
ＭＳ ゴシック
100
AcDbText
  0
TEXT
  5
127
330
1F
100
AcDbEntity
  8
0-4
  6
Continuous
 62
     2
370
     9
100
AcDbText
 10
1185.45373865076
 20
-737.6032721112225
 30
0.0
 40
30.48
  1
100
 41
1.083333333333333
  7
ＭＳ ゴシック
100
AcDbText
  0
TEXT
  5
128
330
1F
100
AcDbEntity
  8
0-4
  6
Continuous
 62
     2
370
     9
100
AcDbText
 10
1285.453821130701
 20
-737.6032721112225
 30
0.0
 40
30.48
  1
110
 41
1.083333333333333
  7
ＭＳ ゴシック
100
AcDbText
  0
TEXT
  5
129
330
1F
100
AcDbEntity
  8
0-4
  6
Continuous
 62
     2
370
     9
100
AcDbText
 10
1385.45365617082
 20
-737.6032721112225
 30
0.0
 40
30.48
  1
120
 41
1.083333333333333
  7
ＭＳ ゴシック
100
AcDbText
  0
TEXT
  5
12A
330
1F
100
AcDbEntity
  8
0-4
  6
Continuous
 62
     2
370
     9
100
AcDbText
 10
789.3750659839529
 20
-1032.679219640783
 30
0.0
 40
30.48
  1
※御注文の際は、Ａ寸法を御指示下さい
 41
1.118055555555555
  7
ＭＳ ゴシック
100
AcDbText
  0
TEXT
  5
12B
330
1F
100
AcDbEntity
  8
0-4
  6
Continuous
 62
     2
370
     9
100
AcDbText
 10
789.3751402158998
 20
-952.6792031447952
 30
0.0
 40
30.48
  1
※Ａ寸法は、0～＋10ｍｍの範囲で調節可能です
 41
1.119186046511628
  7
ＭＳ ゴシック
100
AcDbText
  0
TEXT
  5
12C
330
1F
100
AcDbEntity
  8
0-4
  6
Continuous
 62
     2
370
     9
100
AcDbText
 10
789.3750412399706
 20
-872.6791866488071
 30
0.0
 40
30.48
  1
※この図面は、Ａ寸法１００で作図しています
 41
1.119047619047619
  7
ＭＳ ゴシック
100
AcDbText
  0
TEXT
  5
12D
330
1F
100
AcDbEntity
  8
0-4
  6
Continuous
 62
     2
370
     9
100
AcDbText
 10
1685.45365617082
 20
-737.6032721112225
 30
0.0
 40
30.48
  1
150
 41
1.083333333333333
  7
ＭＳ ゴシック
100
AcDbText
  0
TEXT
  5
12E
330
1F
100
AcDbEntity
  8
0-4
  6
Continuous
 62
     2
370
     9
100
AcDbText
 10
1485.45373865076
 20
-737.6032721112225
 30
0.0
 40
30.48
  1
130
 41
1.083333333333333
  7
ＭＳ ゴシック
100
AcDbText
  0
TEXT
  5
12F
330
1F
100
AcDbEntity
  8
0-4
  6
Continuous
 62
     2
370
     9
100
AcDbText
 10
1585.453821130701
 20
-737.6032721112225
 30
0.0
 40
30.48
  1
140
 41
1.083333333333333
  7
ＭＳ ゴシック
100
AcDbText
  0
TEXT
  5
130
330
1F
100
AcDbEntity
  8
0-4
  6
Continuous
 62
     2
370
     9
100
AcDbText
 10
767.4861186259502
 20
-111.95372195682
 30
0.0
 40
30.48
  1
２－φ７
 41
1.09375
  7
ＭＳ ゴシック
100
AcDbText
  0
TEXT
  5
131
330
1F
100
AcDbEntity
  8
0-4
  6
Continuous
 62
     2
370
     9
100
AcDbText
 10
-159.7629773938976
 20
111.5861356498102
 30
0.0
 40
30.48
  1
20
 41
1.0625
  7
ＭＳ ゴシック
100
AcDbText
  0
TEXT
  5
132
330
1F
100
AcDbEntity
  8
0-4
  6
Continuous
 62
     2
370
     9
100
AcDbText
 10
720.8472792227864
 20
439.6959456994139
 30
0.0
 40
30.48
  1
65
 50
90.00000250447816
 41
1.062499999999999
  7
ＭＳ ゴシック
100
AcDbText
  0
TEXT
  5
133
330
1F
100
AcDbEntity
  8
0-4
  6
Continuous
 62
     2
370
     9
100
AcDbText
 10
820.847361702727
 20
439.6959456994139
 30
0.0
 40
30.48
  1
90
 50
90.00000250447816
 41
1.062499999999999
  7
ＭＳ ゴシック
100
AcDbText
  0
TEXT
  5
134
330
1F
100
AcDbEntity
  8
0-4
  6
Continuous
 62
     2
370
     9
100
AcDbText
 10
-29.76259798616965
 20
111.5861356498102
 30
0.0
 40
30.48
  1
10.5
 41
1.09375
  7
ＭＳ ゴシック
100
AcDbText
  0
TEXT
  5
135
330
1F
100
AcDbEntity
  8
0-4
  6
Continuous
 62
     2
370
     9
100
AcDbText
 10
66.48702260610236
 20
-123.4140210620776
 30
0.0
 40
30.48
  1
Ａ
 41
0.9999999999999998
  7
ＭＳ ゴシック
100
AcDbText
  0
TEXT
  5
136
330
1F
100
AcDbEntity
  8
0-E
  6
Continuous
 62
     7
370
     9
100
AcDbText
 10
713.0787699931377
 20
1077.704566485431
 30
0.0
 40
22.86
  1
支持金具：ＳＵＳ３０４
 41
1.151515151515152
  7
ＭＳ ゴシック
100
AcDbText
  0
TEXT
  5
137
330
1F
100
AcDbEntity
  8
0-E
  6
Continuous
 62
     7
370
     9
100
AcDbText
 10
691.7127702042867
 20
1028.868111011402
 30
0.0
 40
22.86
  1
ヘアライン仕上＋電解研磨
 41
1.152777777777778
  7
ＭＳ ゴシック
100
AcDbText
  0
TEXT
  5
138
330
1F
100
AcDbEntity
  8
F-5
  6
Continuous
 62
     2
370
     9
100
AcDbText
 10
-842.1157671954179
 20
-1328.777866887273
 30
0.0
 40
30.48
  1
ステンレス　つかみ金物　バンドタイプ　Ｔ字足
 41
1.119318181818182
  7
ＭＳ ゴシック
100
AcDbText
  0
TEXT
  5
139
330
1F
100
AcDbEntity
  8
F-5
  6
Continuous
 62
     2
370
     9
100
AcDbText
 10
8.325896391997532
 20
-1373.138344747182
 30
0.0
 40
30.48
  1
ＴＳ－２Ｔ－１００
 41
1.111111111111111
  7
ＭＳ ゴシック
100
AcDbText
  0
ENDSEC
  0
SECTION
  2
OBJECTS
  0
DICTIONARY
  5
C
330
0
100
AcDbDictionary
281
     1
  3
ACAD_GROUP
350
D
  3
ACAD_LAYOUT
350
1A
  3
ACAD_MLEADERSTYLE
350
13B
  3
ACAD_MLINESTYLE
350
17
  3
ACAD_PLOTSETTINGS
350
19
  3
ACAD_PLOTSTYLENAME
350
E
  3
ACAD_TABLESTYLE
350
13A
  3
ACAD_VISUALSTYLE
350
2A
  3
AcDbVariableDictionary
350
13C
  0
DICTIONARY
  5
D
102
{ACAD_REACTORS
330
C
102
}
330
C
100
AcDbDictionary
281
     1
  0
DICTIONARY
  5
1A
102
{ACAD_REACTORS
330
C
102
}
330
C
100
AcDbDictionary
281
     1
  3
Layout1
350
1E
  3
Layout2
350
26
  3
Model
350
22
  0
DICTIONARY
  5
13B
102
{ACAD_REACTORS
330
C
102
}
330
C
100
AcDbDictionary
281
     1
  0
DICTIONARY
  5
17
102
{ACAD_REACTORS
330
C
102
}
330
C
100
AcDbDictionary
281
     1
  3
Standard
350
18
  0
DICTIONARY
  5
19
102
{ACAD_REACTORS
330
C
102
}
330
C
100
AcDbDictionary
281
     1
  0
ACDBDICTIONARYWDFLT
  5
E
102
{ACAD_REACTORS
330
C
102
}
330
C
100
AcDbDictionary
281
     1
  3
Normal
350
F
100
AcDbDictionaryWithDefault
340
F
  0
DICTIONARY
  5
13A
102
{ACAD_REACTORS
330
C
102
}
330
C
100
AcDbDictionary
281
     1
  0
DICTIONARY
  5
2A
102
{ACAD_REACTORS
330
C
102
}
330
C
100
AcDbDictionary
281
     1
  3
2dWireframe
350
2F
  3
3D Hidden
350
31
  3
3dWireframe
350
30
  3
Basic
350
32
  3
Brighten
350
36
  3
ColorChange
350
3A
  3
Conceptual
350
34
  3
Dim
350
35
  3
Facepattern
350
39
  3
Flat
350
2B
  3
FlatWithEdges
350
2C
  3
Gouraud
350
2D
  3
GouraudWithEdges
350
2E
  3
Linepattern
350
38
  3
Realistic
350
33
  3
Thicken
350
37
  0
DICTIONARY
  5
13C
102
{ACAD_REACTORS
330
C
102
}
330
C
100
AcDbDictionary
281
     1
  3
PSOLHEIGHT
350
13E
  3
PSOLWIDTH
350
13D
  0
LAYOUT
  5
1E
102
{ACAD_REACTORS
330
1A
102
}
102
{ACAD_XDICTIONARY
360
13F
102
}
330
1A
100
AcDbPlotSettings
  1

  2
none_device
  4

  6

 40
0.0
 41
0.0
 42
0.0
 43
0.0
 44
0.0
 45
0.0
 46
0.0
 47
0.0
 48
0.0
 49
0.0
140
0.0
141
0.0
142
1.0
143
1.0
 70
   688
 72
     0
 73
     0
 74
     5
  7

 75
    16
147
1.0
148
0.0
149
0.0
100
AcDbLayout
  1
Layout1
 70
     1
 71
     1
 10
0.0
 20
0.0
 11
420.0
 21
297.0
 12
0.0
 22
0.0
 32
0.0
 14
1.000000000000000E+20
 24
1.000000000000000E+20
 34
1.000000000000000E+20
 15
-1.000000000000000E+20
 25
-1.000000000000000E+20
 35
-1.000000000000000E+20
146
0.0
 13
0.0
 23
0.0
 33
0.0
 16
1.0
 26
0.0
 36
0.0
 17
0.0
 27
1.0
 37
0.0
 76
     0
330
1B
  0
LAYOUT
  5
26
102
{ACAD_REACTORS
330
1A
102
}
102
{ACAD_XDICTIONARY
360
143
102
}
330
1A
100
AcDbPlotSettings
  1

  2
none_device
  4

  6

 40
0.0
 41
0.0
 42
0.0
 43
0.0
 44
0.0
 45
0.0
 46
0.0
 47
0.0
 48
0.0
 49
0.0
140
0.0
141
0.0
142
1.0
143
1.0
 70
   688
 72
     0
 73
     0
 74
     5
  7

 75
    16
147
1.0
148
0.0
149
0.0
100
AcDbLayout
  1
Layout2
 70
     1
 71
     2
 10
0.0
 20
0.0
 11
0.0
 21
0.0
 12
0.0
 22
0.0
 32
0.0
 14
0.0
 24
0.0
 34
0.0
 15
0.0
 25
0.0
 35
0.0
146
0.0
 13
0.0
 23
0.0
 33
0.0
 16
1.0
 26
0.0
 36
0.0
 17
0.0
 27
1.0
 37
0.0
 76
     0
330
23
  0
LAYOUT
  5
22
102
{ACAD_REACTORS
330
1A
102
}
102
{ACAD_XDICTIONARY
360
141
102
}
330
1A
100
AcDbPlotSettings
  1

  2
none_device
  4

  6

 40
0.0
 41
0.0
 42
0.0
 43
0.0
 44
0.0
 45
0.0
 46
0.0
 47
0.0
 48
0.0
 49
0.0
140
0.0
141
0.0
142
1.0
143
1.0
 70
  1712
 72
     0
 73
     0
 74
     0
  7

 75
     0
147
1.0
148
0.0
149
0.0
100
AcDbLayout
  1
Model
 70
     1
 71
     0
 10
-2100.0
 20
-1485.0
 11
2100.0
 21
1485.0
 12
0.0
 22
0.0
 32
0.0
 14
-2100.0
 24
-1485.0
 34
0.0
 15
2100.0
 25
1485.0
 35
0.0
146
0.0
 13
0.0
 23
0.0
 33
0.0
 16
1.0
 26
0.0
 36
0.0
 17
0.0
 27
1.0
 37
0.0
 76
     0
330
1F
331
29
  0
MLINESTYLE
  5
18
102
{ACAD_REACTORS
330
17
102
}
330
17
100
AcDbMlineStyle
  2
Standard
 70
     0
  3

 62
   256
 51
90.0
 52
90.0
 71
     2
 49
0.5
 62
   256
  6
BYLAYER
 49
-0.5
 62
   256
  6
BYLAYER
  0
ACDBPLACEHOLDER
  5
F
102
{ACAD_REACTORS
330
E
102
}
330
E
  0
VISUALSTYLE
  5
2F
102
{ACAD_REACTORS
330
2A
102
}
330
2A
100
AcDbVisualStyle
  2
2dWireframe
 70
     4
 71
     0
 72
     2
 73
     0
 90
        0
 40
-0.6
 41
-30.0
 62
     5
 63
     7
 74
     1
 91
        4
 64
     7
 65
   257
 75
     1
175
     1
 42
1.0
 92
        0
 66
   257
 43
1.0
 76
     1
 77
     6
 78
     2
 67
     7
 79
     5
170
     0
171
     0
290
     0
174
     0
 93
        1
 44
0.0
173
     0
291
     0
 45
0.0
1001
ACAD
1000
AcDbSavedByObjectVersion
1070
     0
  0
VISUALSTYLE
  5
31
102
{ACAD_REACTORS
330
2A
102
}
330
2A
100
AcDbVisualStyle
  2
3D Hidden
 70
     6
 71
     1
 72
     2
 73
     2
 90
        0
 40
-0.6
 41
-30.0
 62
     5
 63
     7
 74
     2
 91
        2
 64
     7
 65
   257
 75
     2
175
     1
 42
40.0
 92
        0
 66
   257
 43
1.0
 76
     1
 77
     6
 78
     2
 67
     7
 79
     3
170
     0
171
     0
290
     0
174
     0
 93
        1
 44
0.0
173
     0
291
     0
 45
0.0
1001
ACAD
1000
AcDbSavedByObjectVersion
1070
     0
  0
VISUALSTYLE
  5
30
102
{ACAD_REACTORS
330
2A
102
}
330
2A
100
AcDbVisualStyle
  2
3dWireframe
 70
     5
 71
     0
 72
     2
 73
     0
 90
        0
 40
-0.6
 41
-30.0
 62
     5
 63
     7
 74
     1
 91
        4
 64
     7
 65
   257
 75
     1
175
     1
 42
1.0
 92
        0
 66
   257
 43
1.0
 76
     1
 77
     6
 78
     2
 67
     7
 79
     5
170
     0
171
     0
290
     0
174
     0
 93
        1
 44
0.0
173
     0
291
     0
 45
0.0
1001
ACAD
1000
AcDbSavedByObjectVersion
1070
     0
  0
VISUALSTYLE
  5
32
102
{ACAD_REACTORS
330
2A
102
}
330
2A
100
AcDbVisualStyle
  2
Basic
 70
     7
 71
     1
 72
     0
 73
     1
 90
        0
 40
-0.6
 41
-30.0
 62
     5
 63
     7
 74
     0
 91
        4
 64
     7
 65
   257
 75
     1
175
     1
 42
1.0
 92
        8
 66
     7
 43
1.0
 76
     1
 77
     6
 78
     2
 67
     7
 79
     5
170
     0
171
     0
290
     0
174
     0
 93
        1
 44
0.0
173
     0
291
     1
 45
0.0
1001
ACAD
1000
AcDbSavedByObjectVersion
1070
     0
  0
VISUALSTYLE
  5
36
102
{ACAD_REACTORS
330
2A
102
}
330
2A
100
AcDbVisualStyle
  2
Brighten
 70
    12
 71
     2
 72
     2
 73
     0
 90
        0
 40
-0.6
 41
-30.0
 62
     5
 63
     7
 74
     1
 91
        4
 64
     7
 65
   257
 75
     1
175
     1
 42
1.0
 92
        8
 66
     7
 43
1.0
 76
     1
 77
     6
 78
     2
 67
     7
 79
     5
170
     0
171
     0
290
     0
174
     0
 93
        1
 44
50.0
173
     0
291
     1
 45
0.0
1001
ACAD
1000
AcDbSavedByObjectVersion
1070
     0
  0
VISUALSTYLE
  5
3A
102
{ACAD_REACTORS
330
2A
102
}
330
2A
100
AcDbVisualStyle
  2
ColorChange
 70
    16
 71
     2
 72
     2
 73
     3
 90
        0
 40
-0.6
 41
-30.0
 62
     5
 63
     8
 74
     1
 91
        4
 64
     7
 65
   257
 75
     1
175
     1
 42
1.0
 92
        8
 66
     8
 43
1.0
 76
     1
 77
     6
 78
     2
 67
     7
 79
     5
170
     0
171
     0
290
     0
174
     0
 93
        1
 44
0.0
173
     0
291
     1
 45
0.0
1001
ACAD
1000
AcDbSavedByObjectVersion
1070
     0
  0
VISUALSTYLE
  5
34
102
{ACAD_REACTORS
330
2A
102
}
330
2A
100
AcDbVisualStyle
  2
Conceptual
 70
     9
 71
     3
 72
     2
 73
     0
 90
        0
 40
-0.6
 41
-30.0
 62
     5
 63
     7
 74
     2
 91
        2
 64
     7
 65
   257
 75
     1
175
     1
 42
40.0
 92
        8
 66
     7
 43
1.0
 76
     1
 77
     6
 78
     2
 67
     7
 79
     3
170
     0
171
     0
290
     0
174
     0
 93
        1
 44
0.0
173
     0
291
     0
 45
0.0
1001
ACAD
1000
AcDbSavedByObjectVersion
1070
     0
  0
VISUALSTYLE
  5
35
102
{ACAD_REACTORS
330
2A
102
}
330
2A
100
AcDbVisualStyle
  2
Dim
 70
    11
 71
     2
 72
     2
 73
     0
 90
        0
 40
-0.6
 41
-30.0
 62
     5
 63
     7
 74
     1
 91
        4
 64
     7
 65
   257
 75
     1
175
     1
 42
1.0
 92
        8
 66
     7
 43
1.0
 76
     1
 77
     6
 78
     2
 67
     7
 79
     5
170
     0
171
     0
290
     0
174
     0
 93
        1
 44
-50.0
173
     0
291
     1
 45
0.0
1001
ACAD
1000
AcDbSavedByObjectVersion
1070
     0
  0
VISUALSTYLE
  5
39
102
{ACAD_REACTORS
330
2A
102
}
330
2A
100
AcDbVisualStyle
  2
Facepattern
 70
    15
 71
     2
 72
     2
 73
     0
 90
        0
 40
-0.6
 41
-30.0
 62
     5
 63
     7
 74
     1
 91
        4
 64
     7
 65
   257
 75
     1
175
     1
 42
1.0
 92
        8
 66
     7
 43
1.0
 76
     1
 77
     6
 78
     2
 67
     7
 79
     5
170
     0
171
     0
290
     0
174
     0
 93
        1
 44
0.0
173
     0
291
     1
 45
0.0
1001
ACAD
1000
AcDbSavedByObjectVersion
1070
     0
  0
VISUALSTYLE
  5
2B
102
{ACAD_REACTORS
330
2A
102
}
330
2A
100
AcDbVisualStyle
  2
Flat
 70
     0
 71
     2
 72
     1
 73
     1
 90
        2
 40
-0.6
 41
30.0
 62
     5
 63
     7
 74
     0
 91
        4
 64
     7
 65
   257
 75
     1
175
     1
 42
1.0
 92
        8
 66
     7
 43
1.0
 76
     1
 77
     6
 78
     2
 67
     7
 79
     5
170
     0
171
     0
290
     0
174
     0
 93
       13
 44
0.0
173
     0
291
     1
 45
0.0
1001
ACAD
1000
AcDbSavedByObjectVersion
1070
     0
  0
VISUALSTYLE
  5
2C
102
{ACAD_REACTORS
330
2A
102
}
330
2A
100
AcDbVisualStyle
  2
FlatWithEdges
 70
     1
 71
     2
 72
     1
 73
     1
 90
        2
 40
-0.6
 41
30.0
 62
     5
 63
     7
 74
     1
 91
        4
 64
     7
 65
   257
 75
     1
175
     1
 42
1.0
 92
        0
 66
   257
 43
1.0
 76
     1
 77
     6
 78
     2
 67
     7
 79
     5
170
     0
171
     0
290
     0
174
     0
 93
       13
 44
0.0
173
     0
291
     1
 45
0.0
1001
ACAD
1000
AcDbSavedByObjectVersion
1070
     0
  0
VISUALSTYLE
  5
2D
102
{ACAD_REACTORS
330
2A
102
}
330
2A
100
AcDbVisualStyle
  2
Gouraud
 70
     2
 71
     2
 72
     2
 73
     1
 90
        2
 40
-0.6
 41
30.0
 62
     5
 63
     7
 74
     0
 91
        4
 64
     7
 65
   257
 75
     1
175
     1
 42
1.0
 92
        0
 66
     7
 43
1.0
 76
     1
 77
     6
 78
     2
 67
     7
 79
     5
170
     0
171
     0
290
     0
174
     0
 93
       13
 44
0.0
173
     0
291
     1
 45
0.0
1001
ACAD
1000
AcDbSavedByObjectVersion
1070
     0
  0
VISUALSTYLE
  5
2E
102
{ACAD_REACTORS
330
2A
102
}
330
2A
100
AcDbVisualStyle
  2
GouraudWithEdges
 70
     3
 71
     2
 72
     2
 73
     1
 90
        2
 40
-0.6
 41
30.0
 62
     5
 63
     7
 74
     1
 91
        4
 64
     7
 65
   257
 75
     1
175
     1
 42
1.0
 92
        0
 66
   257
 43
1.0
 76
     1
 77
     6
 78
     2
 67
     7
 79
     5
170
     0
171
     0
290
     0
174
     0
 93
       13
 44
0.0
173
     0
291
     1
 45
0.0
1001
ACAD
1000
AcDbSavedByObjectVersion
1070
     0
  0
VISUALSTYLE
  5
38
102
{ACAD_REACTORS
330
2A
102
}
330
2A
100
AcDbVisualStyle
  2
Linepattern
 70
    14
 71
     2
 72
     2
 73
     0
 90
        0
 40
-0.6
 41
-30.0
 62
     5
 63
     7
 74
     1
 91
        4
 64
     7
 65
   257
 75
     7
175
     7
 42
1.0
 92
        8
 66
     7
 43
1.0
 76
     1
 77
     6
 78
     2
 67
     7
 79
     5
170
     0
171
     0
290
     0
174
     0
 93
        1
 44
0.0
173
     0
291
     1
 45
0.0
1001
ACAD
1000
AcDbSavedByObjectVersion
1070
     0
  0
VISUALSTYLE
  5
33
102
{ACAD_REACTORS
330
2A
102
}
330
2A
100
AcDbVisualStyle
  2
Realistic
 70
     8
 71
     2
 72
     2
 73
     0
 90
        0
 40
-0.6
 41
-30.0
 62
     5
 63
     7
 74
     1
 91
        0
 64
     7
 65
   257
 75
     1
175
     1
 42
1.0
 92
        8
 66
     8
 43
1.0
 76
     1
 77
     6
 78
     2
 67
     7
 79
     5
170
     0
171
     0
290
     0
174
     0
 93
       13
 44
0.0
173
     0
291
     0
 45
0.0
1001
ACAD
1000
AcDbSavedByObjectVersion
1070
     0
  0
VISUALSTYLE
  5
37
102
{ACAD_REACTORS
330
2A
102
}
330
2A
100
AcDbVisualStyle
  2
Thicken
 70
    13
 71
     2
 72
     2
 73
     0
 90
        0
 40
-0.6
 41
-30.0
 62
     5
 63
     7
 74
     1
 91
        4
 64
     7
 65
   257
 75
     1
175
     1
 42
1.0
 92
       12
 66
     7
 43
1.0
 76
     1
 77
     6
 78
     2
 67
     7
 79
     5
170
     0
171
     0
290
     0
174
     0
 93
        1
 44
0.0
173
     0
291
     1
 45
0.0
1001
ACAD
1000
AcDbSavedByObjectVersion
1070
     0
  0
DICTIONARYVAR
  5
13E
102
{ACAD_REACTORS
330
13C
102
}
330
13C
100
DictionaryVariables
280
     0
  1
80.000000
  0
DICTIONARYVAR
  5
13D
102
{ACAD_REACTORS
330
13C
102
}
330
13C
100
DictionaryVariables
280
     0
  1
5.000000
  0
DICTIONARY
  5
13F
330
1E
100
AcDbDictionary
280
     1
281
     1
  3
ACAD_XREC_ROUNDTRIP
360
140
  0
DICTIONARY
  5
143
330
26
100
AcDbDictionary
280
     1
281
     1
  3
ACAD_XREC_ROUNDTRIP
360
144
  0
DICTIONARY
  5
141
330
22
100
AcDbDictionary
280
     1
281
     1
  3
ACAD_XREC_ROUNDTRIP
360
142
  0
XRECORD
  5
140
102
{ACAD_REACTORS
330
13F
102
}
330
13F
100
AcDbXrecord
280
     1
102
SHADEPLOT
 70
     0
102
SHADEPLOTRESLEVEL
 70
     5
102
SHADEPLOTCUSTOMDPI
 70
   300
  0
XRECORD
  5
144
102
{ACAD_REACTORS
330
143
102
}
330
143
100
AcDbXrecord
280
     1
102
SHADEPLOT
 70
     0
102
SHADEPLOTRESLEVEL
 70
     5
102
SHADEPLOTCUSTOMDPI
 70
   300
  0
XRECORD
  5
142
102
{ACAD_REACTORS
330
141
102
}
330
141
100
AcDbXrecord
280
     1
102
SHADEPLOT
 70
     0
102
SHADEPLOTRESLEVEL
 70
     5
102
SHADEPLOTCUSTOMDPI
 70
   300
  0
ENDSEC
  0
EOF
