  0
SECTION
  2
HEADER
  9
$ACADVER
  1
AC1015
  9
$ACADMAINTVER
 70
     6
  9
$DWGCODEPAGE
  3
ANSI_932
  9
$INSBASE
 10
0.0
 20
0.0
 30
0.0
  9
$EXTMIN
 10
-2100.0
 20
-1485.0
 30
0.0
  9
$EXTMAX
 10
2100.0
 20
1485.0
 30
0.0
  9
$LIMMIN
 10
-2100.0
 20
-1485.0
  9
$LIMMAX
 10
2100.0
 20
1485.0
  9
$ORTHOMODE
 70
     0
  9
$REGENMODE
 70
     1
  9
$FILLMODE
 70
     1
  9
$QTEXTMODE
 70
     0
  9
$MIRRTEXT
 70
     1
  9
$LTSCALE
 40
10.0
  9
$ATTMODE
 70
     1
  9
$TEXTSIZE
 40
2.5
  9
$TRACEWID
 40
1.0
  9
$TEXTSTYLE
  7
Standard
  9
$CLAYER
  8
0
  9
$CELTYPE
  6
ByLayer
  9
$CECOLOR
 62
   256
  9
$CELTSCALE
 40
1.0
  9
$DISPSILH
 70
     0
  9
$DIMSCALE
 40
1.0
  9
$DIMASZ
 40
2.5
  9
$DIMEXO
 40
0.625
  9
$DIMDLI
 40
3.75
  9
$DIMRND
 40
0.0
  9
$DIMDLE
 40
0.0
  9
$DIMEXE
 40
1.25
  9
$DIMTP
 40
0.0
  9
$DIMTM
 40
0.0
  9
$DIMTXT
 40
2.5
  9
$DIMCEN
 40
2.5
  9
$DIMTSZ
 40
0.0
  9
$DIMTOL
 70
     0
  9
$DIMLIM
 70
     0
  9
$DIMTIH
 70
     0
  9
$DIMTOH
 70
     0
  9
$DIMSE1
 70
     0
  9
$DIMSE2
 70
     0
  9
$DIMTAD
 70
     1
  9
$DIMZIN
 70
     8
  9
$DIMBLK
  1

  9
$DIMASO
 70
     1
  9
$DIMSHO
 70
     1
  9
$DIMPOST
  1

  9
$DIMAPOST
  1

  9
$DIMALT
 70
     0
  9
$DIMALTD
 70
     3
  9
$DIMALTF
 40
0.03937007874016
  9
$DIMLFAC
 40
1.0
  9
$DIMTOFL
 70
     1
  9
$DIMTVP
 40
0.0
  9
$DIMTIX
 70
     0
  9
$DIMSOXD
 70
     0
  9
$DIMSAH
 70
     0
  9
$DIMBLK1
  1

  9
$DIMBLK2
  1

  9
$DIMSTYLE
  2
ISO-25
  9
$DIMCLRD
 70
     0
  9
$DIMCLRE
 70
     0
  9
$DIMCLRT
 70
     0
  9
$DIMTFAC
 40
1.0
  9
$DIMGAP
 40
0.625
  9
$DIMJUST
 70
     0
  9
$DIMSD1
 70
     0
  9
$DIMSD2
 70
     0
  9
$DIMTOLJ
 70
     0
  9
$DIMTZIN
 70
     8
  9
$DIMALTZ
 70
     0
  9
$DIMALTTZ
 70
     0
  9
$DIMUPT
 70
     0
  9
$DIMDEC
 70
     2
  9
$DIMTDEC
 70
     2
  9
$DIMALTU
 70
     2
  9
$DIMALTTD
 70
     3
  9
$DIMTXSTY
  7
Standard
  9
$DIMAUNIT
 70
     0
  9
$DIMADEC
 70
     0
  9
$DIMALTRND
 40
0.0
  9
$DIMAZIN
 70
     0
  9
$DIMDSEP
 70
    44
  9
$DIMATFIT
 70
     3
  9
$DIMFRAC
 70
     0
  9
$DIMLDRBLK
  1

  9
$DIMLUNIT
 70
     2
  9
$DIMLWD
 70
    -2
  9
$DIMLWE
 70
    -2
  9
$DIMTMOVE
 70
     0
  9
$LUNITS
 70
     2
  9
$LUPREC
 70
     4
  9
$SKETCHINC
 40
1.0
  9
$FILLETRAD
 40
10.0
  9
$AUNITS
 70
     0
  9
$AUPREC
 70
     0
  9
$MENU
  1
.
  9
$ELEVATION
 40
0.0
  9
$PELEVATION
 40
0.0
  9
$THICKNESS
 40
0.0
  9
$LIMCHECK
 70
     0
  9
$CHAMFERA
 40
10.0
  9
$CHAMFERB
 40
10.0
  9
$CHAMFERC
 40
20.0
  9
$CHAMFERD
 40
0.0
  9
$SKPOLY
 70
     0
  9
$TDCREATE
 40
2456904.665752766
  9
$TDUCREATE
 40
2456904.290752766
  9
$TDUPDATE
 40
2456904.665752778
  9
$TDUUPDATE
 40
2456904.290752778
  9
$TDINDWG
 40
0.0000000116
  9
$TDUSRTIMER
 40
0.0000000116
  9
$USRTIMER
 70
     1
  9
$ANGBASE
 50
0.0
  9
$ANGDIR
 70
     0
  9
$PDMODE
 70
     0
  9
$PDSIZE
 40
0.0
  9
$PLINEWID
 40
0.0
  9
$SPLFRAME
 70
     0
  9
$SPLINETYPE
 70
     6
  9
$SPLINESEGS
 70
     8
  9
$HANDSEED
  5
13F
  9
$SURFTAB1
 70
     6
  9
$SURFTAB2
 70
     6
  9
$SURFTYPE
 70
     6
  9
$SURFU
 70
     6
  9
$SURFV
 70
     6
  9
$UCSBASE
  2

  9
$UCSNAME
  2

  9
$UCSORG
 10
0.0
 20
0.0
 30
0.0
  9
$UCSXDIR
 10
1.0
 20
0.0
 30
0.0
  9
$UCSYDIR
 10
0.0
 20
1.0
 30
0.0
  9
$UCSORTHOREF
  2

  9
$UCSORTHOVIEW
 70
     0
  9
$UCSORGTOP
 10
0.0
 20
0.0
 30
0.0
  9
$UCSORGBOTTOM
 10
0.0
 20
0.0
 30
0.0
  9
$UCSORGLEFT
 10
0.0
 20
0.0
 30
0.0
  9
$UCSORGRIGHT
 10
0.0
 20
0.0
 30
0.0
  9
$UCSORGFRONT
 10
0.0
 20
0.0
 30
0.0
  9
$UCSORGBACK
 10
0.0
 20
0.0
 30
0.0
  9
$PUCSBASE
  2

  9
$PUCSNAME
  2

  9
$PUCSORG
 10
0.0
 20
0.0
 30
0.0
  9
$PUCSXDIR
 10
1.0
 20
0.0
 30
0.0
  9
$PUCSYDIR
 10
0.0
 20
1.0
 30
0.0
  9
$PUCSORTHOREF
  2

  9
$PUCSORTHOVIEW
 70
     0
  9
$PUCSORGTOP
 10
0.0
 20
0.0
 30
0.0
  9
$PUCSORGBOTTOM
 10
0.0
 20
0.0
 30
0.0
  9
$PUCSORGLEFT
 10
0.0
 20
0.0
 30
0.0
  9
$PUCSORGRIGHT
 10
0.0
 20
0.0
 30
0.0
  9
$PUCSORGFRONT
 10
0.0
 20
0.0
 30
0.0
  9
$PUCSORGBACK
 10
0.0
 20
0.0
 30
0.0
  9
$USERI1
 70
     0
  9
$USERI2
 70
     0
  9
$USERI3
 70
     0
  9
$USERI4
 70
     0
  9
$USERI5
 70
     0
  9
$USERR1
 40
0.0
  9
$USERR2
 40
0.0
  9
$USERR3
 40
0.0
  9
$USERR4
 40
0.0
  9
$USERR5
 40
0.0
  9
$WORLDVIEW
 70
     1
  9
$SHADEDGE
 70
     3
  9
$SHADEDIF
 70
    70
  9
$TILEMODE
 70
     1
  9
$MAXACTVP
 70
    64
  9
$PINSBASE
 10
0.0
 20
0.0
 30
0.0
  9
$PLIMCHECK
 70
     0
  9
$PEXTMIN
 10
1.000000000000000E+20
 20
1.000000000000000E+20
 30
1.000000000000000E+20
  9
$PEXTMAX
 10
-1.000000000000000E+20
 20
-1.000000000000000E+20
 30
-1.000000000000000E+20
  9
$PLIMMIN
 10
0.0
 20
0.0
  9
$PLIMMAX
 10
420.0
 20
297.0
  9
$UNITMODE
 70
     0
  9
$VISRETAIN
 70
     1
  9
$PLINEGEN
 70
     0
  9
$PSLTSCALE
 70
     1
  9
$TREEDEPTH
 70
  3020
  9
$CMLSTYLE
  2
Standard
  9
$CMLJUST
 70
     0
  9
$CMLSCALE
 40
20.0
  9
$PROXYGRAPHICS
 70
     1
  9
$MEASUREMENT
 70
     1
  9
$CELWEIGHT
370
    -1
  9
$ENDCAPS
280
     0
  9
$JOINSTYLE
280
     0
  9
$LWDISPLAY
290
     0
  9
$INSUNITS
 70
     4
  9
$HYPERLINKBASE
  1

  9
$STYLESHEET
  1

  9
$XEDIT
290
     1
  9
$CEPSNTYPE
380
     0
  9
$PSTYLEMODE
290
     1
  9
$FINGERPRINTGUID
  2
{E750175B-87B9-4595-8D39-35AE664D259D}
  9
$VERSIONGUID
  2
{FAEB1C32-E019-11D5-929B-00C0DF256EC4}
  9
$EXTNAMES
290
     1
  9
$PSVPSCALE
 40
0.0
  9
$OLESTARTUP
290
     0
  0
ENDSEC
  0
SECTION
  2
CLASSES
  0
CLASS
  1
ACDBDICTIONARYWDFLT
  2
AcDbDictionaryWithDefault
  3
ObjectDBX Classes
 90
        0
280
     0
281
     0
  0
CLASS
  1
VISUALSTYLE
  2
AcDbVisualStyle
  3
ObjectDBX Classes
 90
     4095
280
     0
281
     0
  0
CLASS
  1
DICTIONARYVAR
  2
AcDbDictionaryVar
  3
ObjectDBX Classes
 90
        0
280
     0
281
     0
  0
CLASS
  1
ACDBPLACEHOLDER
  2
AcDbPlaceHolder
  3
ObjectDBX Classes
 90
        0
280
     0
281
     0
  0
CLASS
  1
LAYOUT
  2
AcDbLayout
  3
ObjectDBX Classes
 90
        0
280
     0
281
     0
  0
ENDSEC
  0
SECTION
  2
TABLES
  0
TABLE
  2
VPORT
  5
8
330
0
100
AcDbSymbolTable
 70
     1
  0
VPORT
  5
29
330
8
100
AcDbSymbolTableRecord
100
AcDbViewportTableRecord
  2
*Active
 70
     0
 10
0.0
 20
0.0
 11
1.0
 21
1.0
 12
0.0
 22
0.0
 13
0.0
 23
0.0
 14
10.0
 24
10.0
 15
10.0
 25
10.0
 16
0.0
 26
0.0
 36
1.0
 17
0.0
 27
0.0
 37
0.0
 40
3267.0
 41
1.414141414141414
 42
50.0
 43
0.0
 44
0.0
 50
0.0
 51
0.0
 71
     0
 72
 10000
 73
     1
 74
     3
 75
     0
 76
     0
 77
     0
 78
     0
281
     0
 65
     1
110
0.0
120
0.0
130
0.0
111
1.0
121
0.0
131
0.0
112
0.0
122
1.0
132
0.0
 79
     0
146
0.0
  0
ENDTAB
  0
TABLE
  2
LTYPE
  5
5
330
0
100
AcDbSymbolTable
 70
     4
  0
LTYPE
  5
14
330
5
100
AcDbSymbolTableRecord
100
AcDbLinetypeTableRecord
  2
ByBlock
 70
     0
  3

 72
    65
 73
     0
 40
0.0
  0
LTYPE
  5
15
330
5
100
AcDbSymbolTableRecord
100
AcDbLinetypeTableRecord
  2
ByLayer
 70
     0
  3

 72
    65
 73
     0
 40
0.0
  0
LTYPE
  5
16
330
5
100
AcDbSymbolTableRecord
100
AcDbLinetypeTableRecord
  2
Continuous
 70
     0
  3
Solid line
 72
    65
 73
     0
 40
0.0
  0
LTYPE
  5
3C
330
5
100
AcDbSymbolTableRecord
100
AcDbLinetypeTableRecord
  2
JWW_HOJO
 70
     0
  3
  -   -   -   -   -   -   -   - 
 72
    65
 73
     2
 40
1.693333333333333
 49
-1.27
 74
     0
 49
0.4233333333333333
 74
     0
  0
LTYPE
  5
3D
330
5
100
AcDbSymbolTableRecord
100
AcDbLinetypeTableRecord
  2
JWW_CENTER1
 70
     0
  3
-----  --  ----------  --  -----
 72
    65
 73
     4
 40
6.773333333333333
 49
4.233333333333333
 74
     0
 49
-0.8466666666666667
 74
     0
 49
0.8466666666666667
 74
     0
 49
-0.8466666666666667
 74
     0
  0
LTYPE
  5
3E
330
5
100
AcDbSymbolTableRecord
100
AcDbLinetypeTableRecord
  2
JWW_DASHED1
 70
     0
  3
-  --  --  --  --  --  --  --  -
 72
    65
 73
     2
 40
1.693333333333333
 49
0.8466666666666667
 74
     0
 49
-0.8466666666666667
 74
     0
  0
ENDTAB
  0
TABLE
  2
LAYER
  5
2
330
0
100
AcDbSymbolTable
 70
     7
  0
LAYER
  5
10
330
2
100
AcDbSymbolTableRecord
100
AcDbLayerTableRecord
  2
0
 70
     0
 62
     7
  6
Continuous
370
    -3
390
F
  0
LAYER
  5
3F
330
2
100
AcDbSymbolTableRecord
100
AcDbLayerTableRecord
  2
0-2
 70
     0
 62
     7
  6
Continuous
370
    -3
390
F
  0
LAYER
  5
40
330
2
100
AcDbSymbolTableRecord
100
AcDbLayerTableRecord
  2
0-4
 70
     0
 62
     7
  6
Continuous
370
    -3
390
F
  0
LAYER
  5
41
330
2
100
AcDbSymbolTableRecord
100
AcDbLayerTableRecord
  2
0-E
 70
     0
 62
     7
  6
Continuous
370
    -3
390
F
  0
LAYER
  5
42
330
2
100
AcDbSymbolTableRecord
100
AcDbLayerTableRecord
  2
0-0
 70
     0
 62
     7
  6
Continuous
370
    -3
390
F
  0
LAYER
  5
43
330
2
100
AcDbSymbolTableRecord
100
AcDbLayerTableRecord
  2
0-9
 70
     0
 62
     7
  6
Continuous
370
    -3
390
F
  0
LAYER
  5
44
330
2
100
AcDbSymbolTableRecord
100
AcDbLayerTableRecord
  2
F-5
 70
     0
 62
     7
  6
Continuous
370
    -3
390
F
  0
ENDTAB
  0
TABLE
  2
STYLE
  5
3
330
0
100
AcDbSymbolTable
 70
     2
  0
STYLE
  5
11
330
3
100
AcDbSymbolTableRecord
100
AcDbTextStyleTableRecord
  2
Standard
 70
     0
 40
0.0
 41
1.0
 50
0.0
 71
     0
 42
2.5
  3
txt
  4

1001
ACAD
1000

1071
        0
  0
STYLE
  5
3B
330
3
100
AcDbSymbolTableRecord
100
AcDbTextStyleTableRecord
  2
ＭＳ ゴシック
 70
     0
 40
1.0
 41
1.0
 50
0.0
 71
     0
 42
10.0
  3

  4

1001
ACAD
1000
MS Gothic
1071
    32817
  0
ENDTAB
  0
TABLE
  2
VIEW
  5
6
330
0
100
AcDbSymbolTable
 70
     0
  0
ENDTAB
  0
TABLE
  2
UCS
  5
7
330
0
100
AcDbSymbolTable
 70
     0
  0
ENDTAB
  0
TABLE
  2
APPID
  5
9
330
0
100
AcDbSymbolTable
 70
     1
  0
APPID
  5
12
330
9
100
AcDbSymbolTableRecord
100
AcDbRegAppTableRecord
  2
ACAD
 70
     0
  0
ENDTAB
  0
TABLE
  2
DIMSTYLE
  5
A
330
0
100
AcDbSymbolTable
 70
     1
100
AcDbDimStyleTable
  0
DIMSTYLE
105
27
330
A
100
AcDbSymbolTableRecord
100
AcDbDimStyleTableRecord
  2
ISO-25
 70
     0
 41
2.5
 42
0.625
 43
3.75
 44
1.25
 73
     0
 74
     0
 77
     1
 78
     8
140
2.5
141
2.5
143
0.03937007874016
147
0.625
171
     3
172
     1
271
     2
272
     2
274
     3
278
    44
283
     0
284
     8
340
11
  0
ENDTAB
  0
TABLE
  2
BLOCK_RECORD
  5
1
330
0
100
AcDbSymbolTable
 70
     1
  0
BLOCK_RECORD
  5
1F
330
1
100
AcDbSymbolTableRecord
100
AcDbBlockTableRecord
  2
*Model_Space
340
22
  0
BLOCK_RECORD
  5
1B
330
1
100
AcDbSymbolTableRecord
100
AcDbBlockTableRecord
  2
*Paper_Space
340
1E
  0
BLOCK_RECORD
  5
23
330
1
100
AcDbSymbolTableRecord
100
AcDbBlockTableRecord
  2
*Paper_Space0
340
26
  0
ENDTAB
  0
ENDSEC
  0
SECTION
  2
BLOCKS
  0
BLOCK
  5
20
330
1F
100
AcDbEntity
  8
0
100
AcDbBlockBegin
  2
*Model_Space
 70
     0
 10
0.0
 20
0.0
 30
0.0
  3
*Model_Space
  1

  0
ENDBLK
  5
21
330
1F
100
AcDbEntity
  8
0
100
AcDbBlockEnd
  0
BLOCK
  5
1C
330
1B
100
AcDbEntity
 67
     1
  8
0
100
AcDbBlockBegin
  2
*Paper_Space
 70
     0
 10
0.0
 20
0.0
 30
0.0
  3
*Paper_Space
  1

  0
ENDBLK
  5
1D
330
1B
100
AcDbEntity
 67
     1
  8
0
100
AcDbBlockEnd
  0
BLOCK
  5
24
330
23
100
AcDbEntity
  8
0
100
AcDbBlockBegin
  2
*Paper_Space0
 70
     0
 10
0.0
 20
0.0
 30
0.0
  3
*Paper_Space0
  1

  0
ENDBLK
  5
25
330
23
100
AcDbEntity
  8
0
100
AcDbBlockEnd
  0
ENDSEC
  0
SECTION
  2
ENTITIES
  0
LINE
  5
45
330
1F
100
AcDbEntity
  8
0-2
  6
Continuous
 62
     4
370
     9
100
AcDbLine
 10
-431.7869444151182
 20
-471.2496865762246
 30
0.0
 11
-402.9196249472128
 21
-421.2493978964315
 31
0.0
  0
LINE
  5
46
330
1F
100
AcDbEntity
  8
0-2
  6
Continuous
 62
     4
370
     9
100
AcDbLine
 10
-431.7869444151182
 20
-471.2496865762246
 30
0.0
 11
-402.9193775073901
 21
-521.2498515361063
 31
0.0
  0
LINE
  5
47
330
1F
100
AcDbEntity
  8
0-2
  6
Continuous
 62
     4
370
     9
100
AcDbLine
 10
-402.9193775073901
 20
-521.2498515361063
 30
0.0
 11
-345.6546267947635
 21
-521.2498515361063
 31
0.0
  0
LINE
  5
48
330
1F
100
AcDbEntity
  8
0-2
  6
Continuous
 62
     4
370
     9
100
AcDbLine
 10
-316.7869361671239
 20
-471.2496865762246
 30
0.0
 11
-345.6546267947635
 21
-521.2498515361063
 31
0.0
  0
LINE
  5
49
330
1F
100
AcDbEntity
  8
0-2
  6
Continuous
 62
     4
370
     9
100
AcDbLine
 10
-316.7869361671239
 20
-471.2496865762246
 30
0.0
 11
-345.6546267947635
 21
-421.2493978964315
 31
0.0
  0
LINE
  5
4A
330
1F
100
AcDbEntity
  8
0-2
  6
Continuous
 62
     4
370
     9
100
AcDbLine
 10
-402.9196249472128
 20
-421.2493978964315
 30
0.0
 11
-345.6546267947635
 21
-421.2493978964315
 31
0.0
  0
LINE
  5
4B
330
1F
100
AcDbEntity
  8
0-2
  6
Continuous
 62
     4
370
     9
100
AcDbLine
 10
-231.7869031751476
 20
-471.2496865762246
 30
0.0
 11
-202.919459987331
 21
-421.2493978964315
 31
0.0
  0
LINE
  5
4C
330
1F
100
AcDbEntity
  8
0-2
  6
Continuous
 62
     4
370
     9
100
AcDbLine
 10
-231.7869031751476
 20
-471.2496865762246
 30
0.0
 11
-202.9192125475083
 21
-521.2498515361063
 31
0.0
  0
LINE
  5
4D
330
1F
100
AcDbEntity
  8
0-2
  6
Continuous
 62
     4
370
     9
100
AcDbLine
 10
-202.9192125475083
 20
-521.2498515361063
 30
0.0
 11
-145.6544618348818
 21
-521.2498515361063
 31
0.0
  0
LINE
  5
4E
330
1F
100
AcDbEntity
  8
0-2
  6
Continuous
 62
     4
370
     9
100
AcDbLine
 10
-116.7868949271536
 20
-471.2496865762246
 30
0.0
 11
-145.6544618348818
 21
-521.2498515361063
 31
0.0
  0
LINE
  5
4F
330
1F
100
AcDbEntity
  8
0-2
  6
Continuous
 62
     4
370
     9
100
AcDbLine
 10
-116.7868949271536
 20
-471.2496865762246
 30
0.0
 11
-145.6544618348818
 21
-421.2493978964315
 31
0.0
  0
LINE
  5
50
330
1F
100
AcDbEntity
  8
0-2
  6
Continuous
 62
     4
370
     9
100
AcDbLine
 10
-202.919459987331
 20
-421.2493978964315
 30
0.0
 11
-145.6544618348818
 21
-421.2493978964315
 31
0.0
  0
LINE
  5
51
330
1F
100
AcDbEntity
  8
0-2
  6
JWW_HOJO
 62
     4
370
     9
100
AcDbLine
 10
-319.0370301942568
 20
634.020699165963
 30
0.0
 11
-429.5372215477195
 21
634.020699165963
 31
0.0
  0
LINE
  5
52
330
1F
100
AcDbEntity
  8
0-2
  6
Continuous
 62
     4
370
     9
100
AcDbLine
 10
-429.5372215477195
 20
669.219013935811
 30
0.0
 11
-429.5372215477195
 21
634.020699165963
 31
0.0
  0
LINE
  5
53
330
1F
100
AcDbEntity
  8
0-2
  6
Continuous
 62
     4
370
     9
100
AcDbLine
 10
-331.6621522645693
 20
674.0203362542231
 30
0.0
 11
-416.912099477407
 21
674.0203362542231
 31
0.0
  0
LINE
  5
54
330
1F
100
AcDbEntity
  8
0-2
  6
Continuous
 62
     4
370
     9
100
AcDbLine
 10
-319.0370301942568
 20
669.219013935811
 30
0.0
 11
-319.0370301942568
 21
634.020699165963
 31
0.0
  0
LINE
  5
55
330
1F
100
AcDbEntity
  8
0-2
  6
Continuous
 62
     4
370
     9
100
AcDbLine
 10
-349.7022474134289
 20
394.0207733979096
 30
0.0
 11
-344.2872743348818
 21
399.4356227565459
 31
0.0
  0
LINE
  5
56
330
1F
100
AcDbEntity
  8
0-2
  6
Continuous
 62
     4
370
     9
100
AcDbLine
 10
-344.2872743348818
 20
399.4356227565459
 30
0.0
 11
-404.2869774070945
 21
399.4356227565459
 31
0.0
  0
LINE
  5
57
330
1F
100
AcDbEntity
  8
0-2
  6
Continuous
 62
     4
370
     9
100
AcDbLine
 10
-404.2869774070945
 20
399.4356227565459
 30
0.0
 11
-398.8720043285471
 21
394.0207733979096
 31
0.0
  0
LINE
  5
58
330
1F
100
AcDbEntity
  8
0-2
  6
Continuous
 62
     4
370
     9
100
AcDbLine
 10
-398.8720043285471
 20
394.0207733979096
 30
0.0
 11
-349.7022474134289
 21
394.0207733979096
 31
0.0
  0
LINE
  5
59
330
1F
100
AcDbEntity
  8
0-2
  6
JWW_HOJO
 62
     4
370
     9
100
AcDbLine
 10
-119.036865234375
 20
634.020699165963
 30
0.0
 11
-229.5370565878378
 21
634.020699165963
 31
0.0
  0
LINE
  5
5A
330
1F
100
AcDbEntity
  8
0-2
  6
Continuous
 62
     4
370
     9
100
AcDbLine
 10
-229.5370565878378
 20
669.219013935811
 30
0.0
 11
-229.5370565878378
 21
634.020699165963
 31
0.0
  0
LINE
  5
5B
330
1F
100
AcDbEntity
  8
0-2
  6
Continuous
 62
     4
370
     9
100
AcDbLine
 10
-131.6619873046875
 20
674.0203362542231
 30
0.0
 11
-216.9119345175253
 21
674.0203362542231
 31
0.0
  0
LINE
  5
5C
330
1F
100
AcDbEntity
  8
0-2
  6
Continuous
 62
     4
370
     9
100
AcDbLine
 10
-119.036865234375
 20
669.219013935811
 30
0.0
 11
-119.036865234375
 21
634.020699165963
 31
0.0
  0
LINE
  5
5D
330
1F
100
AcDbEntity
  8
0-2
  6
Continuous
 62
     4
370
     9
100
AcDbLine
 10
-149.7020824535471
 20
394.0207733979096
 30
0.0
 11
-144.287109375
 21
399.4356227565459
 31
0.0
  0
LINE
  5
5E
330
1F
100
AcDbEntity
  8
0-2
  6
Continuous
 62
     4
370
     9
100
AcDbLine
 10
-144.287109375
 20
399.4356227565459
 30
0.0
 11
-204.2868124472128
 21
399.4356227565459
 31
0.0
  0
LINE
  5
5F
330
1F
100
AcDbEntity
  8
0-2
  6
Continuous
 62
     4
370
     9
100
AcDbLine
 10
-204.2868124472128
 20
399.4356227565459
 30
0.0
 11
-198.8718393686653
 21
394.0207733979096
 31
0.0
  0
LINE
  5
60
330
1F
100
AcDbEntity
  8
0-2
  6
Continuous
 62
     4
370
     9
100
AcDbLine
 10
-198.8718393686653
 20
394.0207733979096
 30
0.0
 11
-149.7020824535471
 21
394.0207733979096
 31
0.0
  0
LINE
  5
61
330
1F
100
AcDbEntity
  8
0-2
  6
JWW_HOJO
 62
     4
370
     9
100
AcDbLine
 10
-316.7868124472128
 20
564.0205919420398
 30
0.0
 11
-431.7866969752956
 21
564.0205919420398
 31
0.0
  0
LINE
  5
62
330
1F
100
AcDbEntity
  8
0-2
  6
Continuous
 62
     4
370
     9
100
AcDbLine
 10
-316.7868124472128
 20
518.9280247043919
 30
0.0
 11
-316.7868124472128
 21
564.0205919420398
 31
0.0
  0
LINE
  5
63
330
1F
100
AcDbEntity
  8
0-2
  6
Continuous
 62
     4
370
     9
100
AcDbLine
 10
-431.7866969752956
 20
518.9280247043919
 30
0.0
 11
-431.7866969752956
 21
564.0205919420398
 31
0.0
  0
LINE
  5
64
330
1F
100
AcDbEntity
  8
0-2
  6
Continuous
 62
     4
370
     9
100
AcDbLine
 10
-345.6541319151182
 20
518.9280247043919
 30
0.0
 11
-345.6541319151182
 21
564.0205919420398
 31
0.0
  0
LINE
  5
65
330
1F
100
AcDbEntity
  8
0-2
  6
Continuous
 62
     4
370
     9
100
AcDbLine
 10
-402.9193775073901
 20
518.9280247043919
 30
0.0
 11
-402.9193775073901
 21
564.0205919420398
 31
0.0
  0
LINE
  5
66
330
1F
100
AcDbEntity
  8
0-2
  6
Continuous
 62
     4
370
     9
100
AcDbLine
 10
-331.2204721811653
 20
514.0203032622467
 30
0.0
 11
-417.3530372413427
 21
514.0203032622467
 31
0.0
  0
LINE
  5
67
330
1F
100
AcDbEntity
  8
0-2
  6
JWW_HOJO
 62
     4
370
     9
100
AcDbLine
 10
-116.786647487331
 20
564.0205919420398
 30
0.0
 11
-231.7865320154138
 21
564.0205919420398
 31
0.0
  0
LINE
  5
68
330
1F
100
AcDbEntity
  8
0-2
  6
Continuous
 62
     4
370
     9
100
AcDbLine
 10
-116.786647487331
 20
518.9280247043919
 30
0.0
 11
-116.786647487331
 21
564.0205919420398
 31
0.0
  0
LINE
  5
69
330
1F
100
AcDbEntity
  8
0-2
  6
Continuous
 62
     4
370
     9
100
AcDbLine
 10
-231.7865320154138
 20
518.9280247043919
 30
0.0
 11
-231.7865320154138
 21
564.0205919420398
 31
0.0
  0
LINE
  5
6A
330
1F
100
AcDbEntity
  8
0-2
  6
Continuous
 62
     4
370
     9
100
AcDbLine
 10
-145.6540906751476
 20
518.9280247043919
 30
0.0
 11
-145.6540906751476
 21
564.0205919420398
 31
0.0
  0
LINE
  5
6B
330
1F
100
AcDbEntity
  8
0-2
  6
Continuous
 62
     4
370
     9
100
AcDbLine
 10
-202.9192125475083
 20
518.9280247043919
 30
0.0
 11
-202.9192125475083
 21
564.0205919420398
 31
0.0
  0
LINE
  5
6C
330
1F
100
AcDbEntity
  8
0-2
  6
Continuous
 62
     4
370
     9
100
AcDbLine
 10
-131.2203072212836
 20
514.0203032622467
 30
0.0
 11
-217.3527485615497
 21
514.0203032622467
 31
0.0
  0
LINE
  5
6D
330
1F
100
AcDbEntity
  8
0-2
  6
Continuous
 62
     4
370
     9
100
AcDbLine
 10
-344.2872743348818
 20
669.219013935811
 30
0.0
 11
-344.2872743348818
 21
634.020699165963
 31
0.0
  0
LINE
  5
6E
330
1F
100
AcDbEntity
  8
0-2
  6
Continuous
 62
     4
370
     9
100
AcDbLine
 10
-344.2872743348818
 20
514.0203032622467
 30
0.0
 11
-344.2872743348818
 21
399.4356227565459
 31
0.0
  0
LINE
  5
6F
330
1F
100
AcDbEntity
  8
0-2
  6
Continuous
 62
     4
370
     9
100
AcDbLine
 10
-404.2869774070945
 20
669.219013935811
 30
0.0
 11
-404.2869774070945
 21
634.020699165963
 31
0.0
  0
LINE
  5
70
330
1F
100
AcDbEntity
  8
0-2
  6
Continuous
 62
     4
370
     9
100
AcDbLine
 10
-404.2869774070945
 20
514.0203032622467
 30
0.0
 11
-404.2869774070945
 21
399.4356227565459
 31
0.0
  0
LINE
  5
71
330
1F
100
AcDbEntity
  8
0-2
  6
Continuous
 62
     4
370
     9
100
AcDbLine
 10
-398.8720043285471
 20
514.0203032622467
 30
0.0
 11
-398.8720043285471
 21
394.0207733979096
 31
0.0
  0
LINE
  5
72
330
1F
100
AcDbEntity
  8
0-2
  6
Continuous
 62
     4
370
     9
100
AcDbLine
 10
-349.7022474134289
 20
514.0203032622467
 30
0.0
 11
-349.7022474134289
 21
394.0207733979096
 31
0.0
  0
LINE
  5
73
330
1F
100
AcDbEntity
  8
0-2
  6
JWW_CENTER1
 62
     4
370
     9
100
AcDbLine
 10
-374.2868784311653
 20
692.0876497835727
 30
0.0
 11
-374.2868784311653
 21
378.9307795344175
 31
0.0
  0
LINE
  5
74
330
1F
100
AcDbEntity
  8
0-2
  6
JWW_CENTER1
 62
     4
370
     9
100
AcDbLine
 10
-174.2867134712836
 20
692.0876497835727
 30
0.0
 11
-174.2867134712836
 21
378.9307795344175
 31
0.0
  0
LINE
  5
75
330
1F
100
AcDbEntity
  8
0-2
  6
Continuous
 62
     4
370
     9
100
AcDbLine
 10
-198.8718393686653
 20
514.0203032622467
 30
0.0
 11
-198.8718393686653
 21
394.0207733979096
 31
0.0
  0
LINE
  5
76
330
1F
100
AcDbEntity
  8
0-2
  6
Continuous
 62
     4
370
     9
100
AcDbLine
 10
-149.7020824535471
 20
514.0203032622467
 30
0.0
 11
-149.7020824535471
 21
394.0207733979096
 31
0.0
  0
LINE
  5
77
330
1F
100
AcDbEntity
  8
0-2
  6
Continuous
 62
     4
370
     9
100
AcDbLine
 10
-144.287109375
 20
669.219013935811
 30
0.0
 11
-144.287109375
 21
634.020699165963
 31
0.0
  0
LINE
  5
78
330
1F
100
AcDbEntity
  8
0-2
  6
Continuous
 62
     4
370
     9
100
AcDbLine
 10
-144.287109375
 20
514.0203032622467
 30
0.0
 11
-144.287109375
 21
399.4356227565459
 31
0.0
  0
LINE
  5
79
330
1F
100
AcDbEntity
  8
0-2
  6
Continuous
 62
     4
370
     9
100
AcDbLine
 10
-204.2868124472128
 20
669.219013935811
 30
0.0
 11
-204.2868124472128
 21
634.020699165963
 31
0.0
  0
LINE
  5
7A
330
1F
100
AcDbEntity
  8
0-2
  6
Continuous
 62
     4
370
     9
100
AcDbLine
 10
-204.2868124472128
 20
514.0203032622467
 30
0.0
 11
-204.2868124472128
 21
399.4356227565459
 31
0.0
  0
LINE
  5
7B
330
1F
100
AcDbEntity
  8
0-2
  6
JWW_CENTER1
 62
     4
370
     9
100
AcDbLine
 10
-298.9055736644846
 20
-471.2496865762246
 30
0.0
 11
-454.5867919921875
 21
-471.2496865762246
 31
0.0
  0
LINE
  5
7C
330
1F
100
AcDbEntity
  8
0-2
  6
JWW_CENTER1
 62
     4
370
     9
100
AcDbLine
 10
-374.2868784311653
 20
-401.8581575960725
 30
0.0
 11
-374.2868784311653
 21
-544.0018195074957
 31
0.0
  0
LINE
  5
7D
330
1F
100
AcDbEntity
  8
0-2
  6
JWW_CENTER1
 62
     4
370
     9
100
AcDbLine
 10
-174.2867134712836
 20
-401.8581575960725
 30
0.0
 11
-174.2867134712836
 21
-544.0018195074957
 31
0.0
  0
LINE
  5
7E
330
1F
100
AcDbEntity
  8
0-2
  6
JWW_CENTER1
 62
     4
370
     9
100
AcDbLine
 10
-96.28328890413854
 20
-471.2496865762246
 30
0.0
 11
-248.1402010531039
 21
-471.2496865762246
 31
0.0
  0
LINE
  5
7F
330
1F
100
AcDbEntity
  8
0-4
  6
Continuous
 62
     7
370
     9
100
AcDbLine
 10
-374.2868784311653
 20
244.0207733979096
 30
0.0
 11
-69.28649077544321
 21
244.0207733979096
 31
0.0
  0
LINE
  5
80
330
1F
100
AcDbEntity
  8
0-4
  6
Continuous
 62
     7
370
     9
100
AcDbLine
 10
-374.2868784311653
 20
353.5199469489021
 30
0.0
 11
-374.2868784311653
 21
241.0208129882812
 31
0.0
  0
LINE
  5
81
330
1F
100
AcDbEntity
  8
0-4
  6
Continuous
 62
     7
370
     9
100
AcDbLine
 10
-174.2867134712836
 20
353.5199469489021
 30
0.0
 11
-174.2867134712836
 21
241.0208129882812
 31
0.0
  0
LINE
  5
82
330
1F
100
AcDbEntity
  8
0-4
  6
Continuous
 62
     7
370
     9
100
AcDbLine
 10
-374.2868784311653
 20
244.0207733979096
 30
0.0
 11
-349.5008313978039
 21
247.2838860589107
 31
0.0
  0
LINE
  5
83
330
1F
100
AcDbEntity
  8
0-4
  6
Continuous
 62
     7
370
     9
100
AcDbLine
 10
-374.2868784311653
 20
244.0207733979096
 30
0.0
 11
-349.5008313978039
 21
240.7576607369089
 31
0.0
  0
LINE
  5
84
330
1F
100
AcDbEntity
  8
0-4
  6
Continuous
 62
     7
370
     9
100
AcDbLine
 10
-149.5006664379221
 20
240.7576607369089
 30
0.0
 11
-199.072760504645
 21
247.2838860589107
 31
0.0
  0
LINE
  5
85
330
1F
100
AcDbEntity
  8
0-4
  6
Continuous
 62
     7
370
     9
100
AcDbLine
 10
-149.5006664379221
 20
247.2838860589107
 30
0.0
 11
-199.072760504645
 21
240.7576607369089
 31
0.0
  0
LINE
  5
86
330
1F
100
AcDbEntity
  8
0-4
  6
Continuous
 62
     7
370
     9
100
AcDbLine
 10
-69.28649077544321
 20
244.0207733979096
 30
0.0
 11
-94.07266152871614
 21
247.2838860589107
 31
0.0
  0
LINE
  5
87
330
1F
100
AcDbEntity
  8
0-4
  6
Continuous
 62
     7
370
     9
100
AcDbLine
 10
-69.28649077544321
 20
244.0207733979096
 30
0.0
 11
-94.07266152871614
 21
240.7576607369089
 31
0.0
  0
LINE
  5
88
330
1F
100
AcDbEntity
  8
0-4
  6
Continuous
 62
     7
370
     9
100
AcDbLine
 10
-69.28649077544321
 20
540.7299474767738
 30
0.0
 11
-69.28649077544321
 21
241.0208129882812
 31
0.0
  0
LINE
  5
89
330
1F
100
AcDbEntity
  8
0-4
  6
Continuous
 62
     7
370
     9
100
AcDbLine
 10
-1294.286696975296
 20
-571.2497690561655
 30
0.0
 11
-1294.286696975296
 21
-371.2496040962837
 31
0.0
  0
LINE
  5
8A
330
1F
100
AcDbEntity
  8
0-4
  6
Continuous
 62
     7
370
     9
100
AcDbLine
 10
-1171.770580394848
 20
-571.2497690561655
 30
0.0
 11
-1297.286657384924
 21
-571.2497690561655
 31
0.0
  0
LINE
  5
8B
330
1F
100
AcDbEntity
  8
0-4
  6
Continuous
 62
     7
370
     9
100
AcDbLine
 10
-1171.770580394848
 20
-371.2496040962837
 30
0.0
 11
-1297.286657384924
 21
-371.2496040962837
 31
0.0
  0
LINE
  5
8C
330
1F
100
AcDbEntity
  8
0-4
  6
Continuous
 62
     7
370
     9
100
AcDbLine
 10
-1294.286696975296
 20
-571.2497690561655
 30
0.0
 11
-1297.549933356208
 21
-546.4635983028927
 31
0.0
  0
LINE
  5
8D
330
1F
100
AcDbEntity
  8
0-4
  6
Continuous
 62
     7
370
     9
100
AcDbLine
 10
-1294.286696975296
 20
-571.2497690561655
 30
0.0
 11
-1291.023460594383
 21
-546.4635983028927
 31
0.0
  0
LINE
  5
8E
330
1F
100
AcDbEntity
  8
0-4
  6
Continuous
 62
     7
370
     9
100
AcDbLine
 10
-1294.286696975296
 20
-371.2496040962837
 30
0.0
 11
-1297.549933356208
 21
-396.0357748495565
 31
0.0
  0
LINE
  5
8F
330
1F
100
AcDbEntity
  8
0-4
  6
Continuous
 62
     7
370
     9
100
AcDbLine
 10
-1294.286696975296
 20
-371.2496040962837
 30
0.0
 11
-1291.023460594383
 21
-396.0357748495565
 31
0.0
  0
LINE
  5
90
330
1F
100
AcDbEntity
  8
0-E
  6
Continuous
 62
     7
370
     9
100
AcDbLine
 10
-374.2868784311653
 20
674.0203362542231
 30
0.0
 11
-364.7198651288005
 21
697.1171116184544
 31
0.0
  0
LINE
  5
91
330
1F
100
AcDbEntity
  8
0-E
  6
Continuous
 62
     7
370
     9
100
AcDbLine
 10
-374.2868784311653
 20
674.0203362542231
 30
0.0
 11
-359.0678447001687
 21
693.8538752375425
 31
0.0
  0
LINE
  5
92
330
1F
100
AcDbEntity
  8
0-4
  6
Continuous
 62
     7
370
     9
100
AcDbLine
 10
-569.8138262774492
 20
750.2706496779984
 30
0.0
 11
-592.9108490815033
 21
740.7036363756336
 31
0.0
  0
LINE
  5
93
330
1F
100
AcDbEntity
  8
0-4
  6
Continuous
 62
     7
370
     9
100
AcDbLine
 10
-561.156772922825
 20
755.2691815350508
 30
0.0
 11
-541.3229864996831
 21
770.4882152660474
 31
0.0
  0
LINE
  5
94
330
1F
100
AcDbEntity
  8
0-4
  6
Continuous
 62
     7
370
     9
100
AcDbLine
 10
-561.156772922825
 20
755.2691815350508
 30
0.0
 11
-538.059750118771
 21
764.8361948374156
 31
0.0
  0
LINE
  5
95
330
1F
100
AcDbEntity
  8
0-4
  6
Continuous
 62
     7
370
     9
100
AcDbLine
 10
-569.8138262774492
 20
750.270897117821
 30
0.0
 11
-589.6476127005911
 21
735.0518633868245
 31
0.0
  0
LINE
  5
96
330
1F
100
AcDbEntity
  8
0-4
  6
Continuous
 62
     7
370
     9
100
AcDbLine
 10
-1093.759237753378
 20
447.7702702702703
 30
0.0
 11
-1073.925451330236
 21
462.9894277211784
 31
0.0
  0
LINE
  5
97
330
1F
100
AcDbEntity
  8
0-4
  6
Continuous
 62
     7
370
     9
100
AcDbLine
 10
-1102.417652027027
 20
442.7719858530406
 30
0.0
 11
-1125.514427391258
 21
433.2049725506758
 31
0.0
  0
LINE
  5
98
330
1F
100
AcDbEntity
  8
0-4
  6
Continuous
 62
     7
370
     9
100
AcDbLine
 10
-1102.417652027027
 20
442.7719858530406
 30
0.0
 11
-1122.251438450169
 21
427.5528284021328
 31
0.0
  0
LINE
  5
99
330
1F
100
AcDbEntity
  8
0-4
  6
Continuous
 62
     7
370
     9
100
AcDbLine
 10
-1093.759732633024
 20
447.770517710093
 30
0.0
 11
-1070.66270982897
 21
457.3375310124578
 31
0.0
  0
LINE
  5
9A
330
1F
100
AcDbEntity
  8
0-E
  6
Continuous
 62
     7
370
     9
100
AcDbLine
 10
-678.6381077122044
 20
871.4206509976776
 30
0.0
 11
-669.0710944098396
 21
894.5176738017315
 31
0.0
  0
LINE
  5
9B
330
1F
100
AcDbEntity
  8
0-E
  6
Continuous
 62
     7
370
     9
100
AcDbLine
 10
-678.6381077122044
 20
871.4206509976776
 30
0.0
 11
-663.4190739812078
 21
891.2544374208193
 31
0.0
  0
LINE
  5
9C
330
1F
100
AcDbEntity
  8
0-0
  6
Continuous
 62
     3
370
     9
100
AcDbLine
 10
-1144.286696975296
 20
-571.2495216163428
 30
0.0
 11
-69.28649077544321
 21
-571.2495216163428
 31
0.0
  0
LINE
  5
9D
330
1F
100
AcDbEntity
  8
0-0
  6
Continuous
 62
     3
370
     9
100
AcDbLine
 10
-1144.286696975296
 20
-371.249727816195
 30
0.0
 11
-69.28649077544321
 21
-371.249727816195
 31
0.0
  0
LINE
  5
9E
330
1F
100
AcDbEntity
  8
0-0
  6
Continuous
 62
     3
370
     9
100
AcDbLine
 10
-1144.286696975296
 20
-571.2495216163428
 30
0.0
 11
-1144.286696975296
 21
-371.249727816195
 31
0.0
  0
LINE
  5
9F
330
1F
100
AcDbEntity
  8
0-0
  6
Continuous
 62
     3
370
     9
100
AcDbLine
 10
-69.28649077544321
 20
-571.2495216163428
 30
0.0
 11
-69.28649077544321
 21
-371.249727816195
 31
0.0
  0
LINE
  5
A0
330
1F
100
AcDbEntity
  8
0-0
  6
Continuous
 62
     3
370
     9
100
AcDbLine
 10
-519.2867382152658
 20
-571.2495216163428
 30
0.0
 11
-519.2867382152658
 21
-371.249727816195
 31
0.0
  0
LINE
  5
A1
330
1F
100
AcDbEntity
  8
0-0
  6
JWW_DASHED1
 62
     3
370
     9
100
AcDbLine
 10
-1134.286663983319
 20
-571.2495216163428
 30
0.0
 11
-1134.286663983319
 21
-371.249727816195
 31
0.0
  0
LINE
  5
A2
330
1F
100
AcDbEntity
  8
0-0
  6
JWW_DASHED1
 62
     3
370
     9
100
AcDbLine
 10
-529.286647487331
 20
-571.2495216163428
 30
0.0
 11
-529.286647487331
 21
-371.249727816195
 31
0.0
  0
LINE
  5
A3
330
1F
100
AcDbEntity
  8
0-0
  6
JWW_CENTER1
 62
     3
370
     9
100
AcDbLine
 10
-831.7865320154137
 20
-591.4626332875844
 30
0.0
 11
-831.7865320154137
 21
-351.0367398648648
 31
0.0
  0
LINE
  5
A4
330
1F
100
AcDbEntity
  8
0-0
  6
JWW_CENTER1
 62
     3
370
     9
100
AcDbLine
 10
-831.7865320154137
 20
232.3930812526393
 30
0.0
 11
-831.7865320154137
 21
962.7271827491554
 31
0.0
  0
LINE
  5
A5
330
1F
100
AcDbEntity
  8
0-4
  6
Continuous
 62
     7
370
     9
100
AcDbLine
 10
-1145.731992979308
 20
417.7639852987755
 30
0.0
 11
-512.1370882601352
 21
783.5701112489443
 31
0.0
  0
LINE
  5
A6
330
1F
100
AcDbEntity
  8
0-0
  6
Continuous
 62
     3
370
     9
100
AcDbLine
 10
-511.1914969779349
 20
624.0206661739867
 30
0.0
 11
-79.28664748733098
 21
624.0206661739867
 31
0.0
  0
LINE
  5
A7
330
1F
100
AcDbEntity
  8
0-0
  6
Continuous
 62
     3
370
     9
100
AcDbLine
 10
-511.2528620539484
 20
634.020699165963
 30
0.0
 11
-79.28664748733098
 21
634.020699165963
 31
0.0
  0
LINE
  5
A8
330
1F
100
AcDbEntity
  8
0-0
  6
Continuous
 62
     3
370
     9
100
AcDbLine
 10
-511.2528620539484
 20
624.0206661739867
 30
0.0
 11
-511.2528620539484
 21
634.020699165963
 31
0.0
  0
LINE
  5
A9
330
1F
100
AcDbEntity
  8
0-0
  6
Continuous
 62
     3
370
     9
100
AcDbLine
 10
-511.2528620539484
 20
574.020501214105
 30
0.0
 11
-511.2528620539484
 21
564.0205919420398
 31
0.0
  0
LINE
  5
AA
330
1F
100
AcDbEntity
  8
0-0
  6
Continuous
 62
     3
370
     9
100
AcDbLine
 10
-511.2528620539484
 20
564.0205919420398
 30
0.0
 11
-79.28664748733098
 21
564.0205919420398
 31
0.0
  0
LINE
  5
AB
330
1F
100
AcDbEntity
  8
0-0
  6
Continuous
 62
     3
370
     9
100
AcDbLine
 10
-511.1914969779349
 20
574.020501214105
 30
0.0
 11
-79.28664748733098
 21
574.020501214105
 31
0.0
  0
LINE
  5
AC
330
1F
100
AcDbEntity
  8
0-0
  6
Continuous
 62
     3
370
     9
100
AcDbLine
 10
-511.2528620539484
 20
-371.249727816195
 30
0.0
 11
-511.2528620539484
 21
-571.2495216163428
 31
0.0
  0
LINE
  5
AD
330
1F
100
AcDbEntity
  8
0-E
  6
Continuous
 62
     7
370
     9
100
AcDbLine
 10
-374.2868784311653
 20
674.0203362542231
 30
0.0
 11
-287.6844251478039
 21
824.0203362542231
 31
0.0
  0
LINE
  5
AE
330
1F
100
AcDbEntity
  8
0-E
  6
Continuous
 62
     7
370
     9
100
AcDbLine
 10
-287.6844251478039
 20
824.0203362542231
 30
0.0
 11
130.3032952385982
 21
824.0203362542231
 31
0.0
  0
LINE
  5
AF
330
1F
100
AcDbEntity
  8
0-E
  6
Continuous
 62
     7
370
     9
100
AcDbLine
 10
-678.6381077122044
 20
871.4206509976776
 30
0.0
 11
-596.3079504064613
 21
1014.020715661951
 31
0.0
  0
LINE
  5
B0
330
1F
100
AcDbEntity
  8
0-E
  6
Continuous
 62
     7
370
     9
100
AcDbLine
 10
-27.08958806218305
 20
1014.020715661951
 30
0.0
 11
-596.3079504064613
 21
1014.020715661951
 31
0.0
  0
LINE
  5
B1
330
1F
100
AcDbEntity
  8
0-9
  6
Continuous
 62
     2
370
     9
100
AcDbLine
 10
-529.2864000475083
 20
614.0206331820102
 30
0.0
 11
-529.2864000475083
 21
584.0205342060813
 31
0.0
  0
LINE
  5
B2
330
1F
100
AcDbEntity
  8
0-9
  6
Continuous
 62
     2
370
     9
100
AcDbLine
 10
-529.2864000475083
 20
614.0206331820102
 30
0.0
 11
440.7135834565034
 21
614.0206331820102
 31
0.0
  0
LINE
  5
B3
330
1F
100
AcDbEntity
  8
0-9
  6
Continuous
 62
     2
370
     9
100
AcDbLine
 10
-529.2864000475083
 20
584.0205342060813
 30
0.0
 11
440.7135834565034
 21
584.0205342060813
 31
0.0
  0
LINE
  5
B4
330
1F
100
AcDbEntity
  8
0-9
  6
Continuous
 62
     2
370
     9
100
AcDbLine
 10
440.7135834565034
 20
1049.020583694046
 30
0.0
 11
470.7136824324328
 21
1049.020583694046
 31
0.0
  0
LINE
  5
B5
330
1F
100
AcDbEntity
  8
0-9
  6
Continuous
 62
     2
370
     9
100
AcDbLine
 10
440.7135834565034
 20
1049.020583694046
 30
0.0
 11
440.7135834565034
 21
149.0205836940456
 31
0.0
  0
LINE
  5
B6
330
1F
100
AcDbEntity
  8
0-9
  6
Continuous
 62
     2
370
     9
100
AcDbLine
 10
440.7135834565034
 20
149.0205836940456
 30
0.0
 11
470.7136824324328
 21
149.0205836940456
 31
0.0
  0
LINE
  5
B7
330
1F
100
AcDbEntity
  8
0-9
  6
Continuous
 62
     2
370
     9
100
AcDbLine
 10
470.7136824324328
 20
1049.020583694046
 30
0.0
 11
470.7136824324328
 21
149.0205836940456
 31
0.0
  0
LINE
  5
B8
330
1F
100
AcDbEntity
  8
0-9
  6
Continuous
 62
     2
370
     9
100
AcDbLine
 10
470.7136824324328
 20
-371.2496040962837
 30
0.0
 11
470.7136824324328
 21
-571.2495216163428
 31
0.0
  0
LINE
  5
B9
330
1F
100
AcDbEntity
  8
0-9
  6
Continuous
 62
     2
370
     9
100
AcDbLine
 10
440.7135834565034
 20
-371.2496040962837
 30
0.0
 11
440.7135834565034
 21
-571.2495216163428
 31
0.0
  0
LINE
  5
BA
330
1F
100
AcDbEntity
  8
0-9
  6
JWW_HOJO
 62
     2
370
     9
100
AcDbLine
 10
-529.2864000475083
 20
-371.2496040962837
 30
0.0
 11
-529.2864000475083
 21
-571.2495216163428
 31
0.0
  0
LINE
  5
BB
330
1F
100
AcDbEntity
  8
0-9
  6
JWW_HOJO
 62
     2
370
     9
100
AcDbLine
 10
-424.2865485114018
 20
-506.2495546083193
 30
0.0
 11
-144.2866144953547
 21
-506.2495546083193
 31
0.0
  0
LINE
  5
BC
330
1F
100
AcDbEntity
  8
0-9
  6
JWW_HOJO
 62
     2
370
     9
100
AcDbLine
 10
-424.2865485114018
 20
-436.2495711043074
 30
0.0
 11
-144.2866144953547
 21
-436.2495711043074
 31
0.0
  0
LINE
  5
BD
330
1F
100
AcDbEntity
  8
0-9
  6
JWW_HOJO
 62
     2
370
     9
100
AcDbLine
 10
-459.2864165434966
 20
584.0205342060813
 30
0.0
 11
-459.2864165434966
 21
614.0206331820102
 31
0.0
  0
LINE
  5
BE
330
1F
100
AcDbEntity
  8
0-9
  6
JWW_HOJO
 62
     2
370
     9
100
AcDbLine
 10
-109.2867464632602
 20
584.0205342060813
 30
0.0
 11
-109.2867464632602
 21
614.0206331820102
 31
0.0
  0
LINE
  5
BF
330
1F
100
AcDbEntity
  8
0-9
  6
Continuous
 62
     2
370
     9
100
AcDbLine
 10
440.7135834565034
 20
889.0205507020693
 30
0.0
 11
470.7136824324328
 21
889.0205507020693
 31
0.0
  0
LINE
  5
C0
330
1F
100
AcDbEntity
  8
0-9
  6
Continuous
 62
     2
370
     9
100
AcDbLine
 10
440.7135834565034
 20
959.020781645904
 30
0.0
 11
470.7136824324328
 21
959.020781645904
 31
0.0
  0
LINE
  5
C1
330
1F
100
AcDbEntity
  8
0-9
  6
Continuous
 62
     2
370
     9
100
AcDbLine
 10
382.6201567778719
 20
924.0206661739867
 30
0.0
 11
533.2620156777875
 21
924.0206661739867
 31
0.0
  0
LINE
  5
C2
330
1F
100
AcDbEntity
  8
0-9
  6
Continuous
 62
     2
370
     9
100
AcDbLine
 10
440.7135834565034
 20
309.0206166860222
 30
0.0
 11
470.7136824324328
 21
309.0206166860222
 31
0.0
  0
LINE
  5
C3
330
1F
100
AcDbEntity
  8
0-9
  6
Continuous
 62
     2
370
     9
100
AcDbLine
 10
440.7135834565034
 20
239.0203857421875
 30
0.0
 11
470.7136824324328
 21
239.0203857421875
 31
0.0
  0
LINE
  5
C4
330
1F
100
AcDbEntity
  8
0-9
  6
Continuous
 62
     2
370
     9
100
AcDbLine
 10
382.6201567778719
 20
274.020501214105
 30
0.0
 11
533.2620156777875
 21
274.020501214105
 31
0.0
  0
LINE
  5
C5
330
1F
100
AcDbEntity
  8
0-4
  6
Continuous
 62
     7
370
     9
100
AcDbLine
 10
-529.2864000475083
 20
-0.9794163059544303
 30
0.0
 11
470.7136824324328
 21
-0.9794163059544303
 31
0.0
  0
LINE
  5
C6
330
1F
100
AcDbEntity
  8
0-4
  6
Continuous
 62
     7
370
     9
100
AcDbLine
 10
-529.2864000475083
 20
559.0204517261404
 30
0.0
 11
-529.2864000475083
 21
-3.979376715582816
 31
0.0
  0
LINE
  5
C7
330
1F
100
AcDbEntity
  8
0-4
  6
Continuous
 62
     7
370
     9
100
AcDbLine
 10
470.7136824324328
 20
124.0206249340162
 30
0.0
 11
470.7136824324328
 21
-3.979376715582816
 31
0.0
  0
LINE
  5
C8
330
1F
100
AcDbEntity
  8
0-4
  6
Continuous
 62
     7
370
     9
100
AcDbLine
 10
-529.2864000475083
 20
-0.9794163059544303
 30
0.0
 11
-504.5002292942357
 21
2.283696355046629
 31
0.0
  0
LINE
  5
C9
330
1F
100
AcDbEntity
  8
0-4
  6
Continuous
 62
     7
370
     9
100
AcDbLine
 10
-529.2864000475083
 20
-0.9794163059544303
 30
0.0
 11
-504.5002292942357
 21
-4.242528966955206
 31
0.0
  0
LINE
  5
CA
330
1F
100
AcDbEntity
  8
0-4
  6
Continuous
 62
     7
370
     9
100
AcDbLine
 10
470.7136824324328
 20
-0.9794163059544303
 30
0.0
 11
445.9276353990711
 21
2.283696355046629
 31
0.0
  0
LINE
  5
CB
330
1F
100
AcDbEntity
  8
0-4
  6
Continuous
 62
     7
370
     9
100
AcDbLine
 10
470.7136824324328
 20
-0.9794163059544303
 30
0.0
 11
445.9276353990711
 21
-4.242528966955206
 31
0.0
  0
LINE
  5
CC
330
1F
100
AcDbEntity
  8
0-4
  6
Continuous
 62
     7
370
     9
100
AcDbLine
 10
620.7136824324328
 20
274.020501214105
 30
0.0
 11
620.7136824324328
 21
924.0206661739867
 31
0.0
  0
LINE
  5
CD
330
1F
100
AcDbEntity
  8
0-4
  6
Continuous
 62
     7
370
     9
100
AcDbLine
 10
558.2620981577281
 20
274.020501214105
 30
0.0
 11
623.713642842061
 21
274.020501214105
 31
0.0
  0
LINE
  5
CE
330
1F
100
AcDbEntity
  8
0-4
  6
Continuous
 62
     7
370
     9
100
AcDbLine
 10
558.2620981577281
 20
924.0206661739867
 30
0.0
 11
623.713642842061
 21
924.0206661739867
 31
0.0
  0
LINE
  5
CF
330
1F
100
AcDbEntity
  8
0-4
  6
Continuous
 62
     7
370
     9
100
AcDbLine
 10
620.7136824324328
 20
274.020501214105
 30
0.0
 11
617.4504460515203
 21
298.8066719673776
 31
0.0
  0
LINE
  5
D0
330
1F
100
AcDbEntity
  8
0-4
  6
Continuous
 62
     7
370
     9
100
AcDbLine
 10
620.7136824324328
 20
274.020501214105
 30
0.0
 11
623.9769188133448
 21
298.8066719673776
 31
0.0
  0
LINE
  5
D1
330
1F
100
AcDbEntity
  8
0-4
  6
Continuous
 62
     7
370
     9
100
AcDbLine
 10
620.7136824324328
 20
924.0206661739867
 30
0.0
 11
617.4504460515203
 21
899.234619140625
 31
0.0
  0
LINE
  5
D2
330
1F
100
AcDbEntity
  8
0-4
  6
Continuous
 62
     7
370
     9
100
AcDbLine
 10
620.7136824324328
 20
924.0206661739867
 30
0.0
 11
623.9769188133448
 21
899.234619140625
 31
0.0
  0
LINE
  5
D3
330
1F
100
AcDbEntity
  8
0-4
  6
Continuous
 62
     7
370
     9
100
AcDbLine
 10
720.7137649123734
 20
149.0205836940456
 30
0.0
 11
720.7137649123734
 21
1049.020583694046
 31
0.0
  0
LINE
  5
D4
330
1F
100
AcDbEntity
  8
0-4
  6
Continuous
 62
     7
370
     9
100
AcDbLine
 10
495.7137649123734
 20
149.0205836940456
 30
0.0
 11
723.7137253220021
 21
149.0205836940456
 31
0.0
  0
LINE
  5
D5
330
1F
100
AcDbEntity
  8
0-4
  6
Continuous
 62
     7
370
     9
100
AcDbLine
 10
495.7137649123734
 20
1049.020583694046
 30
0.0
 11
723.7137253220021
 21
1049.020583694046
 31
0.0
  0
LINE
  5
D6
330
1F
100
AcDbEntity
  8
0-4
  6
Continuous
 62
     7
370
     9
100
AcDbLine
 10
720.7137649123734
 20
149.0205836940456
 30
0.0
 11
717.4505285314615
 21
173.8067544473185
 31
0.0
  0
LINE
  5
D7
330
1F
100
AcDbEntity
  8
0-4
  6
Continuous
 62
     7
370
     9
100
AcDbLine
 10
720.7137649123734
 20
149.0205836940456
 30
0.0
 11
723.9770012932854
 21
173.8067544473185
 31
0.0
  0
LINE
  5
D8
330
1F
100
AcDbEntity
  8
0-4
  6
Continuous
 62
     7
370
     9
100
AcDbLine
 10
720.7137649123734
 20
1049.020583694046
 30
0.0
 11
717.4505285314615
 21
1024.234536660684
 31
0.0
  0
LINE
  5
D9
330
1F
100
AcDbEntity
  8
0-4
  6
Continuous
 62
     7
370
     9
100
AcDbLine
 10
720.7137649123734
 20
1049.020583694046
 30
0.0
 11
723.9770012932854
 21
1024.234536660684
 31
0.0
  0
LINE
  5
DA
330
1F
100
AcDbEntity
  8
0-4
  6
Continuous
 62
     7
370
     9
100
AcDbLine
 10
470.7136824324328
 20
274.020501214105
 30
0.0
 11
485.9327161634292
 21
254.186714790963
 31
0.0
  0
LINE
  5
DB
330
1F
100
AcDbEntity
  8
0-4
  6
Continuous
 62
     7
370
     9
100
AcDbLine
 10
470.7136824324328
 20
274.020501214105
 30
0.0
 11
480.2806957347974
 21
250.9234784100508
 31
0.0
  0
LINE
  5
DC
330
1F
100
AcDbEntity
  8
0-4
  6
Continuous
 62
     7
370
     9
100
AcDbLine
 10
470.7136824324328
 20
274.020501214105
 30
0.0
 11
629.4849292652026
 21
-0.9794163059544303
 31
0.0
  0
LINE
  5
DD
330
1F
100
AcDbEntity
  8
0-4
  6
Continuous
 62
     7
370
     9
100
AcDbLine
 10
629.4849292652026
 20
-0.9794163059544303
 30
0.0
 11
826.6593314505911
 21
-0.9794163059544303
 31
0.0
  0
LINE
  5
DE
330
1F
100
AcDbEntity
  8
0-E
  6
Continuous
 62
     7
370
     9
100
AcDbLine
 10
470.7136824324328
 20
1049.020583694046
 30
0.0
 11
480.2806957347974
 21
1072.1176064981
 31
0.0
  0
LINE
  5
DF
330
1F
100
AcDbEntity
  8
0-E
  6
Continuous
 62
     7
370
     9
100
AcDbLine
 10
470.7136824324328
 20
1049.020583694046
 30
0.0
 11
485.9327161634292
 21
1068.854370117188
 31
0.0
  0
LINE
  5
E0
330
1F
100
AcDbEntity
  8
0-E
  6
Continuous
 62
     7
370
     9
100
AcDbLine
 10
470.7136824324328
 20
1049.020583694046
 30
0.0
 11
557.3161357157943
 21
1199.020583694046
 31
0.0
  0
LINE
  5
E1
330
1F
100
AcDbEntity
  8
0-E
  6
Continuous
 62
     7
370
     9
100
AcDbLine
 10
557.3161357157943
 20
1199.020583694046
 30
0.0
 11
972.3662505278719
 21
1199.020583694046
 31
0.0
  0
LINE
  5
E2
330
1F
100
AcDbEntity
  8
0-0
  6
JWW_CENTER1
 62
     3
370
     9
100
AcDbLine
 10
-1193.799158044763
 20
599.0205836940459
 30
0.0
 11
501.4504097603464
 21
599.0205836940459
 31
0.0
  0
LINE
  5
E3
330
1F
100
AcDbEntity
  8
0-9
  6
Continuous
 62
     2
370
     9
100
AcDbLine
 10
-69.28649077544321
 20
-371.2496040962837
 30
0.0
 11
470.7136824324328
 21
-371.2496040962837
 31
0.0
  0
LINE
  5
E4
330
1F
100
AcDbEntity
  8
0-9
  6
Continuous
 62
     2
370
     9
100
AcDbLine
 10
-69.28649077544321
 20
-571.2495216163428
 30
0.0
 11
470.7136824324328
 21
-571.2495216163428
 31
0.0
  0
LINE
  5
E5
330
1F
100
AcDbEntity
  8
0-4
  6
Continuous
 62
     7
370
     9
100
AcDbLine
 10
795.4242603198901
 20
-605.872909958298
 30
0.0
 11
795.4242603198901
 21
-775.8730996621621
 31
0.0
  0
LINE
  5
E6
330
1F
100
AcDbEntity
  8
0-4
  6
Continuous
 62
     7
370
     9
100
AcDbLine
 10
795.4242603198901
 20
-605.872909958298
 30
0.0
 11
1795.424095360009
 21
-605.872909958298
 31
0.0
  0
LINE
  5
E7
330
1F
100
AcDbEntity
  8
0-4
  6
Continuous
 62
     7
370
     9
100
AcDbLine
 10
795.4242603198901
 20
-775.8730996621621
 30
0.0
 11
1795.424095360009
 21
-775.8730996621621
 31
0.0
  0
LINE
  5
E8
330
1F
100
AcDbEntity
  8
0-4
  6
Continuous
 62
     7
370
     9
100
AcDbLine
 10
795.4242603198901
 20
-675.8728934623099
 30
0.0
 11
1795.424095360009
 21
-675.8728934623099
 31
0.0
  0
LINE
  5
E9
330
1F
100
AcDbEntity
  8
0-4
  6
Continuous
 62
     7
370
     9
100
AcDbLine
 10
1795.424095360009
 20
-605.872909958298
 30
0.0
 11
1795.424095360009
 21
-775.8730996621621
 31
0.0
  0
LINE
  5
EA
330
1F
100
AcDbEntity
  8
0-4
  6
Continuous
 62
     7
370
     9
100
AcDbLine
 10
795.4242603198901
 20
-670.8730006862331
 30
0.0
 11
1795.424095360009
 21
-670.8730006862331
 31
0.0
  0
LINE
  5
EB
330
1F
100
AcDbEntity
  8
0-4
  6
Continuous
 62
     7
370
     9
100
AcDbLine
 10
895.4243427998313
 20
-675.8728934623099
 30
0.0
 11
895.4243427998313
 21
-775.8730996621621
 31
0.0
  0
LINE
  5
EC
330
1F
100
AcDbEntity
  8
0-4
  6
Continuous
 62
     7
370
     9
100
AcDbLine
 10
995.4241778399495
 20
-675.8728934623099
 30
0.0
 11
995.4241778399495
 21
-775.8730996621621
 31
0.0
  0
LINE
  5
ED
330
1F
100
AcDbEntity
  8
0-4
  6
Continuous
 62
     7
370
     9
100
AcDbLine
 10
1095.424260319891
 20
-675.8728934623099
 30
0.0
 11
1095.424260319891
 21
-775.8730996621621
 31
0.0
  0
LINE
  5
EE
330
1F
100
AcDbEntity
  8
0-4
  6
Continuous
 62
     7
370
     9
100
AcDbLine
 10
1195.424342799831
 20
-675.8728934623099
 30
0.0
 11
1195.424342799831
 21
-775.8730996621621
 31
0.0
  0
LINE
  5
EF
330
1F
100
AcDbEntity
  8
0-4
  6
Continuous
 62
     7
370
     9
100
AcDbLine
 10
1295.42417783995
 20
-675.8728934623099
 30
0.0
 11
1295.42417783995
 21
-775.8730996621621
 31
0.0
  0
LINE
  5
F0
330
1F
100
AcDbEntity
  8
0-4
  6
Continuous
 62
     7
370
     9
100
AcDbLine
 10
1395.424260319891
 20
-675.8728934623099
 30
0.0
 11
1395.424260319891
 21
-775.8730996621621
 31
0.0
  0
LINE
  5
F1
330
1F
100
AcDbEntity
  8
0-4
  6
Continuous
 62
     7
370
     9
100
AcDbLine
 10
1495.424342799831
 20
-675.8728934623099
 30
0.0
 11
1495.424342799831
 21
-775.8730996621621
 31
0.0
  0
LINE
  5
F2
330
1F
100
AcDbEntity
  8
0-4
  6
Continuous
 62
     7
370
     9
100
AcDbLine
 10
811.502405115076
 20
-1051.619295687289
 30
0.0
 11
1621.845554661107
 21
-1051.619295687289
 31
0.0
  0
LINE
  5
F3
330
1F
100
AcDbEntity
  8
0-4
  6
Continuous
 62
     7
370
     9
100
AcDbLine
 10
811.502405115076
 20
-891.6195101351352
 30
0.0
 11
1756.845505173142
 21
-891.6195101351352
 31
0.0
  0
LINE
  5
F4
330
1F
100
AcDbEntity
  8
0-4
  6
Continuous
 62
     7
370
     9
100
AcDbLine
 10
811.502405115076
 20
-971.6192791913006
 30
0.0
 11
1779.345703125
 21
-971.6192791913006
 31
0.0
  0
LINE
  5
F5
330
1F
100
AcDbEntity
  8
0-4
  6
Continuous
 62
     7
370
     9
100
AcDbLine
 10
1595.424425279773
 20
-675.8728934623099
 30
0.0
 11
1595.424425279773
 21
-775.8730996621621
 31
0.0
  0
LINE
  5
F6
330
1F
100
AcDbEntity
  8
0-4
  6
Continuous
 62
     7
370
     9
100
AcDbLine
 10
1695.424260319891
 20
-675.8728934623099
 30
0.0
 11
1695.424260319891
 21
-775.8730996621621
 31
0.0
  0
CIRCLE
  5
F7
330
1F
100
AcDbEntity
  8
0-2
  6
Continuous
 62
     4
370
     9
100
AcDbCircle
 10
-374.0520580394846
 20
-471.2496865762246
 30
0.0
 40
49.99999097875647
  0
CIRCLE
  5
F8
330
1F
100
AcDbEntity
  8
0-2
  6
Continuous
 62
     4
370
     9
100
AcDbCircle
 10
-174.0518930796028
 20
-471.2496865762246
 30
0.0
 40
49.99999097875647
  0
ARC
  5
F9
330
1F
100
AcDbEntity
  8
0-2
  6
Continuous
 62
     4
370
     9
100
AcDbCircle
 10
-416.912099477407
 20
655.0204220333617
 30
0.0
 40
18.99999927830052
100
AcDbArc
 50
48.35789489746093
 51
131.6421203613281
  0
ARC
  5
FA
330
1F
100
AcDbEntity
  8
0-2
  6
Continuous
 62
     4
370
     9
100
AcDbCircle
 10
-331.6621522645693
 20
655.0204220333617
 30
0.0
 40
18.99999927830052
100
AcDbArc
 50
48.35787963867188
 51
131.6421051025391
  0
ARC
  5
FB
330
1F
100
AcDbEntity
  8
0-2
  6
Continuous
 62
     4
370
     9
100
AcDbCircle
 10
-374.287125870988
 20
577.8871196025127
 30
0.0
 40
96.13323984919369
100
AcDbArc
 50
71.81625366210938
 51
108.1837463378906
  0
ARC
  5
FC
330
1F
100
AcDbEntity
  8
0-2
  6
Continuous
 62
     4
370
     9
100
AcDbCircle
 10
-216.9119345175253
 20
655.0204220333617
 30
0.0
 40
18.99999927830052
100
AcDbArc
 50
48.35789489746093
 51
131.6421203613281
  0
ARC
  5
FD
330
1F
100
AcDbEntity
  8
0-2
  6
Continuous
 62
     4
370
     9
100
AcDbCircle
 10
-131.6619873046875
 20
655.0204220333617
 30
0.0
 40
18.99999927830052
100
AcDbArc
 50
48.35787963867188
 51
131.6421051025391
  0
ARC
  5
FE
330
1F
100
AcDbEntity
  8
0-2
  6
Continuous
 62
     4
370
     9
100
AcDbCircle
 10
-174.2869609111062
 20
577.8871196025127
 30
0.0
 40
96.13323984919369
100
AcDbArc
 50
71.81625366210938
 51
108.1837463378906
  0
ARC
  5
FF
330
1F
100
AcDbEntity
  8
0-2
  6
Continuous
 62
     4
370
     9
100
AcDbCircle
 10
-331.2204721811653
 20
537.6995519689613
 30
0.0
 40
23.67928930231043
100
AcDbArc
 50
232.4427795410156
 51
307.5572204589844
  0
ARC
  5
100
330
1F
100
AcDbEntity
  8
0-2
  6
Continuous
 62
     4
370
     9
100
AcDbCircle
 10
-374.2866309913427
 20
599.9994556323904
 30
0.0
 40
85.97918330012142
100
AcDbArc
 50
250.5480041503907
 51
289.4519958496094
  0
ARC
  5
101
330
1F
100
AcDbEntity
  8
0-2
  6
Continuous
 62
     4
370
     9
100
AcDbCircle
 10
-417.3530372413427
 20
537.6995519689613
 30
0.0
 40
23.67928930231043
100
AcDbArc
 50
232.4427795410156
 51
307.5572204589844
  0
ARC
  5
102
330
1F
100
AcDbEntity
  8
0-2
  6
Continuous
 62
     4
370
     9
100
AcDbCircle
 10
-131.2203072212836
 20
537.6995519689613
 30
0.0
 40
23.67928930231043
100
AcDbArc
 50
232.4427795410156
 51
307.5572204589844
  0
ARC
  5
103
330
1F
100
AcDbEntity
  8
0-2
  6
Continuous
 62
     4
370
     9
100
AcDbCircle
 10
-174.2863423115497
 20
599.9994556323904
 30
0.0
 40
85.97918330012142
100
AcDbArc
 50
250.5480041503907
 51
289.4519958496094
  0
ARC
  5
104
330
1F
100
AcDbEntity
  8
0-2
  6
Continuous
 62
     4
370
     9
100
AcDbCircle
 10
-217.3527485615497
 20
537.6995519689613
 30
0.0
 40
23.67928930231043
100
AcDbArc
 50
232.4427795410156
 51
307.5572204589844
  0
CIRCLE
  5
105
330
1F
100
AcDbEntity
  8
0-2
  6
Continuous
 62
     4
370
     9
100
AcDbCircle
 10
-374.2868784311653
 20
-471.2496865762246
 30
0.0
 40
24.58512589738176
  0
CIRCLE
  5
106
330
1F
100
AcDbEntity
  8
0-2
  6
Continuous
 62
     4
370
     9
100
AcDbCircle
 10
-374.2868784311653
 20
-471.2496865762246
 30
0.0
 40
30.00009897592906
  0
CIRCLE
  5
107
330
1F
100
AcDbEntity
  8
0-2
  6
Continuous
 62
     4
370
     9
100
AcDbCircle
 10
-174.2867134712836
 20
-471.2496865762246
 30
0.0
 40
24.58512589738176
  0
CIRCLE
  5
108
330
1F
100
AcDbEntity
  8
0-2
  6
Continuous
 62
     4
370
     9
100
AcDbCircle
 10
-174.2867134712836
 20
-471.2496865762246
 30
0.0
 40
30.00009897592906
  0
ARC
  5
109
330
1F
100
AcDbEntity
  8
0-0
  6
Continuous
 62
     3
370
     9
100
AcDbCircle
 10
-79.28664748733098
 20
574.020501214105
 30
0.0
 40
10.00000012887491
100
AcDbArc
 50
270.0
 51
90.0
  0
ARC
  5
10A
330
1F
100
AcDbEntity
  8
0-0
  6
Continuous
 62
     3
370
     9
100
AcDbCircle
 10
-79.28664748733098
 20
624.0206661739867
 30
0.0
 40
10.00000012887491
100
AcDbArc
 50
270.0
 51
90.0
  0
ARC
  5
10B
330
1F
100
AcDbEntity
  8
0-0
  6
Continuous
 62
     3
370
     9
100
AcDbCircle
 10
-831.7865320154137
 20
599.0205836940459
 30
0.0
 40
312.5000103099926
100
AcDbArc
 50
6.430648803710937
 51
180.0
  0
ARC
  5
10C
330
1F
100
AcDbEntity
  8
0-0
  6
Continuous
 62
     3
370
     9
100
AcDbCircle
 10
-831.7865320154137
 20
599.0205836940459
 30
0.0
 40
302.5000082479941
100
AcDbArc
 50
6.230438232421875
 51
180.0
  0
ARC
  5
10D
330
1F
100
AcDbEntity
  8
0-0
  6
Continuous
 62
     3
370
     9
100
AcDbCircle
 10
-511.1914969779349
 20
634.020699165963
 30
0.0
 40
10.00000012887491
100
AcDbArc
 50
186.2304382324219
 51
270.0
  0
ARC
  5
10E
330
1F
100
AcDbEntity
  8
0-0
  6
Continuous
 62
     3
370
     9
100
AcDbCircle
 10
-511.1914969779349
 20
634.020699165963
 30
0.0
 40
20.00000025774982
100
AcDbArc
 50
186.2304077148438
 51
270.0
  0
ARC
  5
10F
330
1F
100
AcDbEntity
  8
0-0
  6
Continuous
 62
     3
370
     9
100
AcDbCircle
 10
-511.1914969779349
 20
564.0204682221283
 30
0.0
 40
20.00000025774982
100
AcDbArc
 50
90.0
 51
173.7695922851562
  0
ARC
  5
110
330
1F
100
AcDbEntity
  8
0-0
  6
Continuous
 62
     3
370
     9
100
AcDbCircle
 10
-511.1914969779349
 20
564.0204682221283
 30
0.0
 40
10.00000012887491
100
AcDbArc
 50
90.0
 51
173.7695617675781
  0
ARC
  5
111
330
1F
100
AcDbEntity
  8
0-0
  6
Continuous
 62
     3
370
     9
100
AcDbCircle
 10
-831.7865320154137
 20
599.0205836940459
 30
0.0
 40
302.5000082479941
100
AcDbArc
 50
179.9999847412109
 51
353.7695617675781
  0
ARC
  5
112
330
1F
100
AcDbEntity
  8
0-0
  6
Continuous
 62
     3
370
     9
100
AcDbCircle
 10
-831.7865320154137
 20
599.0205836940459
 30
0.0
 40
312.5000103099926
100
AcDbArc
 50
179.9999847412109
 51
353.7695617675781
  0
ARC
  5
113
330
1F
100
AcDbEntity
  8
0-9
  6
JWW_HOJO
 62
     2
370
     9
100
AcDbCircle
 10
-424.2865485114018
 20
-471.2496865762246
 30
0.0
 40
34.99999175200591
100
AcDbArc
 50
90.0
 51
270.0
  0
ARC
  5
114
330
1F
100
AcDbEntity
  8
0-9
  6
JWW_HOJO
 62
     2
370
     9
100
AcDbCircle
 10
-144.2866144953547
 20
-471.2496865762246
 30
0.0
 40
34.99999175200591
100
AcDbArc
 50
270.0
 51
90.0
  0
TEXT
  5
115
330
1F
100
AcDbEntity
  8
0-E
  6
Continuous
 62
     7
370
     9
100
AcDbText
 10
-491.4737433356207
 20
1029.935813846073
 30
0.0
 40
22.86
  1
本体：ＳＵＳ３０４
 41
1.148148148148148
  7
ＭＳ ゴシック
100
AcDbText
  0
TEXT
  5
116
330
1F
100
AcDbEntity
  8
0-E
  6
Continuous
 62
     7
370
     9
100
AcDbText
 10
-277.2224797429263
 20
834.7738397381759
 30
0.0
 40
22.86
  1
六角ボルト：ＳＵＳ３０４
 41
1.152777777777778
  7
ＭＳ ゴシック
100
AcDbText
  0
TEXT
  5
117
330
1F
100
AcDbEntity
  8
0-E
  6
Continuous
 62
     7
370
     9
100
AcDbText
 10
-174.2571732804582
 20
790.3361219911318
 30
0.0
 40
22.86
  1
Ｍ６×２５
 41
1.133333333333333
  7
ＭＳ ゴシック
100
AcDbText
  0
TEXT
  5
118
330
1F
100
AcDbEntity
  8
0-4
  6
Continuous
 62
     2
370
     9
100
AcDbText
 10
-1140.250962477868
 20
438.9882773660538
 30
0.0
 40
30.48
  1
1
 50
29.99805764600719
 41
1.0
  7
ＭＳ ゴシック
100
AcDbText
  0
TEXT
  5
119
330
1F
100
AcDbEntity
  8
0-4
  6
Continuous
 62
     2
370
     9
100
AcDbText
 10
-553.0793781495007
 20
777.9918659970916
 30
0.0
 40
30.48
  1
1
 50
30.00258606142691
  7
ＭＳ ゴシック
100
AcDbText
  0
TEXT
  5
11A
330
1F
100
AcDbEntity
  8
0-4
  6
Continuous
 62
     2
370
     9
100
AcDbText
 10
-295.5367959512246
 20
259.6608063898862
 30
0.0
 40
30.48
  1
20
 41
1.0625
  7
ＭＳ ゴシック
100
AcDbText
  0
TEXT
  5
11B
330
1F
100
AcDbEntity
  8
0-4
  6
Continuous
 62
     2
370
     9
100
AcDbText
 10
-165.5366021233635
 20
259.6608063898862
 30
0.0
 40
30.48
  1
10.5
 41
1.09375
  7
ＭＳ ゴシック
100
AcDbText
  0
TEXT
  5
11C
330
1F
100
AcDbEntity
  8
0-4
  6
Continuous
 62
     2
370
     9
100
AcDbText
 10
-1309.926729038405
 20
-492.4996868227568
 30
0.0
 40
30.48
  1
20
 50
90.00000250447816
 41
1.062499999999999
  7
ＭＳ ゴシック
100
AcDbText
  0
TEXT
  5
11D
330
1F
100
AcDbEntity
  8
0-4
  6
Continuous
 62
     2
370
     9
100
AcDbText
 10
-785.9687656009246
 20
643.533198153395
 30
0.0
 40
30.48
  1
φ60.5
 50
30.0000144952044
 41
1.104166666666666
  7
ＭＳ ゴシック
100
AcDbText
  0
TEXT
  5
11E
330
1F
100
AcDbEntity
  8
0-E
  6
Continuous
 62
     7
370
     9
100
AcDbText
 10
-586.2080878180426
 20
974.2096439505915
 30
0.0
 40
22.86
  1
ヘアライン仕上＋セラミック系塗装
 41
1.15625
  7
ＭＳ ゴシック
100
AcDbText
  0
TEXT
  5
11F
330
1F
100
AcDbEntity
  8
0-E
  6
Continuous
 62
     7
370
     9
100
AcDbText
 10
566.3820916253169
 20
1216.017488782728
 30
0.0
 40
22.86
  1
支持金具：ＳＵＳ３０４
 41
1.151515151515152
  7
ＭＳ ゴシック
100
AcDbText
  0
TEXT
  5
120
330
1F
100
AcDbEntity
  8
0-E
  6
Continuous
 62
     7
370
     9
100
AcDbText
 10
557.366184543919
 20
1166.429558567357
 30
0.0
 40
22.86
  1
ヘアライン仕上＋電解研磨
 41
1.152777777777778
  7
ＭＳ ゴシック
100
AcDbText
  0
TEXT
  5
121
330
1F
100
AcDbEntity
  8
0-4
  6
Continuous
 62
     2
370
     9
100
AcDbText
 10
605.0736503693233
 20
577.7705215875577
 30
0.0
 40
30.48
  1
65
 50
90.00000250447816
 41
1.062499999999999
  7
ＭＳ ゴシック
100
AcDbText
  0
TEXT
  5
122
330
1F
100
AcDbEntity
  8
0-4
  6
Continuous
 62
     2
370
     9
100
AcDbText
 10
705.0737328492639
 20
577.7705215875577
 30
0.0
 40
30.48
  1
90
 50
90.00000250447816
 41
1.062499999999999
  7
ＭＳ ゴシック
100
AcDbText
  0
TEXT
  5
123
330
1F
100
AcDbEntity
  8
0-4
  6
Continuous
 62
     2
370
     9
100
AcDbText
 10
-49.28617322767096
 20
14.66061668602215
 30
0.0
 40
30.48
  1
Ａ
 41
0.9999999999999998
  7
ＭＳ ゴシック
100
AcDbText
  0
TEXT
  5
124
330
1F
100
AcDbEntity
  8
0-4
  6
Continuous
 62
     2
370
     9
100
AcDbText
 10
640.1728862040752
 20
20.87679991026199
 30
0.0
 40
30.48
  1
２－φ７
 41
1.09375
  7
ＭＳ ゴシック
100
AcDbText
  0
TEXT
  5
125
330
1F
100
AcDbEntity
  8
0-4
  6
Continuous
 62
     2
370
     9
100
AcDbText
 10
1230.42417783995
 20
-652.7329594462626
 30
0.0
 40
30.48
  1
Ａ寸法
 41
1.083333333333333
  7
ＭＳ ゴシック
100
AcDbText
  0
TEXT
  5
126
330
1F
100
AcDbEntity
  8
0-4
  6
Continuous
 62
     2
370
     9
100
AcDbText
 10
824.1740541200384
 20
-740.2330006862331
 30
0.0
 40
30.48
  1
60
 41
1.0625
  7
ＭＳ ゴシック
100
AcDbText
  0
TEXT
  5
127
330
1F
100
AcDbEntity
  8
0-4
  6
Continuous
 62
     2
370
     9
100
AcDbText
 10
924.1743840398019
 20
-740.2330006862331
 30
0.0
 40
30.48
  1
70
 41
1.0625
  7
ＭＳ ゴシック
100
AcDbText
  0
TEXT
  5
128
330
1F
100
AcDbEntity
  8
0-4
  6
Continuous
 62
     2
370
     9
100
AcDbText
 10
1024.17421907992
 20
-740.2330006862331
 30
0.0
 40
30.48
  1
80
 41
1.0625
  7
ＭＳ ゴシック
100
AcDbText
  0
TEXT
  5
129
330
1F
100
AcDbEntity
  8
0-4
  6
Continuous
 62
     2
370
     9
100
AcDbText
 10
1124.174054120038
 20
-740.2330006862331
 30
0.0
 40
30.48
  1
90
 41
1.0625
  7
ＭＳ ゴシック
100
AcDbText
  0
TEXT
  5
12A
330
1F
100
AcDbEntity
  8
0-4
  6
Continuous
 62
     2
370
     9
100
AcDbText
 10
1212.92426031989
 20
-740.2330006862331
 30
0.0
 40
30.48
  1
100
 41
1.083333333333333
  7
ＭＳ ゴシック
100
AcDbText
  0
TEXT
  5
12B
330
1F
100
AcDbEntity
  8
0-4
  6
Continuous
 62
     2
370
     9
100
AcDbText
 10
1312.924342799831
 20
-740.2330006862331
 30
0.0
 40
30.48
  1
110
 41
1.083333333333333
  7
ＭＳ ゴシック
100
AcDbText
  0
TEXT
  5
12C
330
1F
100
AcDbEntity
  8
0-4
  6
Continuous
 62
     2
370
     9
100
AcDbText
 10
1412.92417783995
 20
-740.2330006862331
 30
0.0
 40
30.48
  1
120
 41
1.083333333333333
  7
ＭＳ ゴシック
100
AcDbText
  0
TEXT
  5
12D
330
1F
100
AcDbEntity
  8
0-4
  6
Continuous
 62
     2
370
     9
100
AcDbText
 10
816.8455876530832
 20
-1035.308948215794
 30
0.0
 40
30.48
  1
※御注文の際は、Ａ寸法を御指示下さい
 41
1.118055555555555
  7
ＭＳ ゴシック
100
AcDbText
  0
TEXT
  5
12E
330
1F
100
AcDbEntity
  8
0-4
  6
Continuous
 62
     2
370
     9
100
AcDbText
 10
816.8456618850297
 20
-955.3089317198057
 30
0.0
 40
30.48
  1
※Ａ寸法は、0～＋10ｍｍの範囲で調節可能です
 41
1.119186046511628
  7
ＭＳ ゴシック
100
AcDbText
  0
TEXT
  5
12F
330
1F
100
AcDbEntity
  8
0-4
  6
Continuous
 62
     2
370
     9
100
AcDbText
 10
816.8455629091009
 20
-875.3089152238175
 30
0.0
 40
30.48
  1
※この図面は、Ａ寸法１００で作図しています
 41
1.119047619047619
  7
ＭＳ ゴシック
100
AcDbText
  0
TEXT
  5
130
330
1F
100
AcDbEntity
  8
0-4
  6
Continuous
 62
     2
370
     9
100
AcDbText
 10
1712.92417783995
 20
-740.2330006862331
 30
0.0
 40
30.48
  1
150
 41
1.083333333333333
  7
ＭＳ ゴシック
100
AcDbText
  0
TEXT
  5
131
330
1F
100
AcDbEntity
  8
0-4
  6
Continuous
 62
     2
370
     9
100
AcDbText
 10
1512.92426031989
 20
-740.2330006862331
 30
0.0
 40
30.48
  1
130
 41
1.083333333333333
  7
ＭＳ ゴシック
100
AcDbText
  0
TEXT
  5
132
330
1F
100
AcDbEntity
  8
0-4
  6
Continuous
 62
     2
370
     9
100
AcDbText
 10
1612.924342799831
 20
-740.2330006862331
 30
0.0
 40
30.48
  1
140
 41
1.083333333333333
  7
ＭＳ ゴシック
100
AcDbText
  0
TEXT
  5
133
330
1F
100
AcDbEntity
  8
F-5
  6
Continuous
 62
     2
370
     9
100
AcDbText
 10
-857.4150770476963
 20
-1356.48093623812
 30
0.0
 40
30.48
  1
ステンレス　つかみ金物　バンドタイプ　Ｔ字足　ＴＳ－２Ｔ－５０
 41
0.9233870967741934
  7
ＭＳ ゴシック
100
AcDbText
  0
ENDSEC
  0
SECTION
  2
OBJECTS
  0
DICTIONARY
  5
C
330
0
100
AcDbDictionary
281
     1
  3
ACAD_GROUP
350
D
  3
ACAD_LAYOUT
350
1A
  3
ACAD_MLEADERSTYLE
350
135
  3
ACAD_MLINESTYLE
350
17
  3
ACAD_PLOTSETTINGS
350
19
  3
ACAD_PLOTSTYLENAME
350
E
  3
ACAD_TABLESTYLE
350
134
  3
ACAD_VISUALSTYLE
350
2A
  3
AcDbVariableDictionary
350
136
  0
DICTIONARY
  5
D
102
{ACAD_REACTORS
330
C
102
}
330
C
100
AcDbDictionary
281
     1
  0
DICTIONARY
  5
1A
102
{ACAD_REACTORS
330
C
102
}
330
C
100
AcDbDictionary
281
     1
  3
Layout1
350
1E
  3
Layout2
350
26
  3
Model
350
22
  0
DICTIONARY
  5
135
102
{ACAD_REACTORS
330
C
102
}
330
C
100
AcDbDictionary
281
     1
  0
DICTIONARY
  5
17
102
{ACAD_REACTORS
330
C
102
}
330
C
100
AcDbDictionary
281
     1
  3
Standard
350
18
  0
DICTIONARY
  5
19
102
{ACAD_REACTORS
330
C
102
}
330
C
100
AcDbDictionary
281
     1
  0
ACDBDICTIONARYWDFLT
  5
E
102
{ACAD_REACTORS
330
C
102
}
330
C
100
AcDbDictionary
281
     1
  3
Normal
350
F
100
AcDbDictionaryWithDefault
340
F
  0
DICTIONARY
  5
134
102
{ACAD_REACTORS
330
C
102
}
330
C
100
AcDbDictionary
281
     1
  0
DICTIONARY
  5
2A
102
{ACAD_REACTORS
330
C
102
}
330
C
100
AcDbDictionary
281
     1
  3
2dWireframe
350
2F
  3
3D Hidden
350
31
  3
3dWireframe
350
30
  3
Basic
350
32
  3
Brighten
350
36
  3
ColorChange
350
3A
  3
Conceptual
350
34
  3
Dim
350
35
  3
Facepattern
350
39
  3
Flat
350
2B
  3
FlatWithEdges
350
2C
  3
Gouraud
350
2D
  3
GouraudWithEdges
350
2E
  3
Linepattern
350
38
  3
Realistic
350
33
  3
Thicken
350
37
  0
DICTIONARY
  5
136
102
{ACAD_REACTORS
330
C
102
}
330
C
100
AcDbDictionary
281
     1
  3
PSOLHEIGHT
350
138
  3
PSOLWIDTH
350
137
  0
LAYOUT
  5
1E
102
{ACAD_REACTORS
330
1A
102
}
102
{ACAD_XDICTIONARY
360
139
102
}
330
1A
100
AcDbPlotSettings
  1

  2
none_device
  4

  6

 40
0.0
 41
0.0
 42
0.0
 43
0.0
 44
0.0
 45
0.0
 46
0.0
 47
0.0
 48
0.0
 49
0.0
140
0.0
141
0.0
142
1.0
143
1.0
 70
   688
 72
     0
 73
     0
 74
     5
  7

 75
    16
147
1.0
148
0.0
149
0.0
100
AcDbLayout
  1
Layout1
 70
     1
 71
     1
 10
0.0
 20
0.0
 11
420.0
 21
297.0
 12
0.0
 22
0.0
 32
0.0
 14
1.000000000000000E+20
 24
1.000000000000000E+20
 34
1.000000000000000E+20
 15
-1.000000000000000E+20
 25
-1.000000000000000E+20
 35
-1.000000000000000E+20
146
0.0
 13
0.0
 23
0.0
 33
0.0
 16
1.0
 26
0.0
 36
0.0
 17
0.0
 27
1.0
 37
0.0
 76
     0
330
1B
  0
LAYOUT
  5
26
102
{ACAD_REACTORS
330
1A
102
}
102
{ACAD_XDICTIONARY
360
13D
102
}
330
1A
100
AcDbPlotSettings
  1

  2
none_device
  4

  6

 40
0.0
 41
0.0
 42
0.0
 43
0.0
 44
0.0
 45
0.0
 46
0.0
 47
0.0
 48
0.0
 49
0.0
140
0.0
141
0.0
142
1.0
143
1.0
 70
   688
 72
     0
 73
     0
 74
     5
  7

 75
    16
147
1.0
148
0.0
149
0.0
100
AcDbLayout
  1
Layout2
 70
     1
 71
     2
 10
0.0
 20
0.0
 11
0.0
 21
0.0
 12
0.0
 22
0.0
 32
0.0
 14
0.0
 24
0.0
 34
0.0
 15
0.0
 25
0.0
 35
0.0
146
0.0
 13
0.0
 23
0.0
 33
0.0
 16
1.0
 26
0.0
 36
0.0
 17
0.0
 27
1.0
 37
0.0
 76
     0
330
23
  0
LAYOUT
  5
22
102
{ACAD_REACTORS
330
1A
102
}
102
{ACAD_XDICTIONARY
360
13B
102
}
330
1A
100
AcDbPlotSettings
  1

  2
none_device
  4

  6

 40
0.0
 41
0.0
 42
0.0
 43
0.0
 44
0.0
 45
0.0
 46
0.0
 47
0.0
 48
0.0
 49
0.0
140
0.0
141
0.0
142
1.0
143
1.0
 70
  1712
 72
     0
 73
     0
 74
     0
  7

 75
     0
147
1.0
148
0.0
149
0.0
100
AcDbLayout
  1
Model
 70
     1
 71
     0
 10
-2100.0
 20
-1485.0
 11
2100.0
 21
1485.0
 12
0.0
 22
0.0
 32
0.0
 14
-2100.0
 24
-1485.0
 34
0.0
 15
2100.0
 25
1485.0
 35
0.0
146
0.0
 13
0.0
 23
0.0
 33
0.0
 16
1.0
 26
0.0
 36
0.0
 17
0.0
 27
1.0
 37
0.0
 76
     0
330
1F
331
29
  0
MLINESTYLE
  5
18
102
{ACAD_REACTORS
330
17
102
}
330
17
100
AcDbMlineStyle
  2
Standard
 70
     0
  3

 62
   256
 51
90.0
 52
90.0
 71
     2
 49
0.5
 62
   256
  6
BYLAYER
 49
-0.5
 62
   256
  6
BYLAYER
  0
ACDBPLACEHOLDER
  5
F
102
{ACAD_REACTORS
330
E
102
}
330
E
  0
VISUALSTYLE
  5
2F
102
{ACAD_REACTORS
330
2A
102
}
330
2A
100
AcDbVisualStyle
  2
2dWireframe
 70
     4
 71
     0
 72
     2
 73
     0
 90
        0
 40
-0.6
 41
-30.0
 62
     5
 63
     7
 74
     1
 91
        4
 64
     7
 65
   257
 75
     1
175
     1
 42
1.0
 92
        0
 66
   257
 43
1.0
 76
     1
 77
     6
 78
     2
 67
     7
 79
     5
170
     0
171
     0
290
     0
174
     0
 93
        1
 44
0.0
173
     0
291
     0
 45
0.0
1001
ACAD
1000
AcDbSavedByObjectVersion
1070
     0
  0
VISUALSTYLE
  5
31
102
{ACAD_REACTORS
330
2A
102
}
330
2A
100
AcDbVisualStyle
  2
3D Hidden
 70
     6
 71
     1
 72
     2
 73
     2
 90
        0
 40
-0.6
 41
-30.0
 62
     5
 63
     7
 74
     2
 91
        2
 64
     7
 65
   257
 75
     2
175
     1
 42
40.0
 92
        0
 66
   257
 43
1.0
 76
     1
 77
     6
 78
     2
 67
     7
 79
     3
170
     0
171
     0
290
     0
174
     0
 93
        1
 44
0.0
173
     0
291
     0
 45
0.0
1001
ACAD
1000
AcDbSavedByObjectVersion
1070
     0
  0
VISUALSTYLE
  5
30
102
{ACAD_REACTORS
330
2A
102
}
330
2A
100
AcDbVisualStyle
  2
3dWireframe
 70
     5
 71
     0
 72
     2
 73
     0
 90
        0
 40
-0.6
 41
-30.0
 62
     5
 63
     7
 74
     1
 91
        4
 64
     7
 65
   257
 75
     1
175
     1
 42
1.0
 92
        0
 66
   257
 43
1.0
 76
     1
 77
     6
 78
     2
 67
     7
 79
     5
170
     0
171
     0
290
     0
174
     0
 93
        1
 44
0.0
173
     0
291
     0
 45
0.0
1001
ACAD
1000
AcDbSavedByObjectVersion
1070
     0
  0
VISUALSTYLE
  5
32
102
{ACAD_REACTORS
330
2A
102
}
330
2A
100
AcDbVisualStyle
  2
Basic
 70
     7
 71
     1
 72
     0
 73
     1
 90
        0
 40
-0.6
 41
-30.0
 62
     5
 63
     7
 74
     0
 91
        4
 64
     7
 65
   257
 75
     1
175
     1
 42
1.0
 92
        8
 66
     7
 43
1.0
 76
     1
 77
     6
 78
     2
 67
     7
 79
     5
170
     0
171
     0
290
     0
174
     0
 93
        1
 44
0.0
173
     0
291
     1
 45
0.0
1001
ACAD
1000
AcDbSavedByObjectVersion
1070
     0
  0
VISUALSTYLE
  5
36
102
{ACAD_REACTORS
330
2A
102
}
330
2A
100
AcDbVisualStyle
  2
Brighten
 70
    12
 71
     2
 72
     2
 73
     0
 90
        0
 40
-0.6
 41
-30.0
 62
     5
 63
     7
 74
     1
 91
        4
 64
     7
 65
   257
 75
     1
175
     1
 42
1.0
 92
        8
 66
     7
 43
1.0
 76
     1
 77
     6
 78
     2
 67
     7
 79
     5
170
     0
171
     0
290
     0
174
     0
 93
        1
 44
50.0
173
     0
291
     1
 45
0.0
1001
ACAD
1000
AcDbSavedByObjectVersion
1070
     0
  0
VISUALSTYLE
  5
3A
102
{ACAD_REACTORS
330
2A
102
}
330
2A
100
AcDbVisualStyle
  2
ColorChange
 70
    16
 71
     2
 72
     2
 73
     3
 90
        0
 40
-0.6
 41
-30.0
 62
     5
 63
     8
 74
     1
 91
        4
 64
     7
 65
   257
 75
     1
175
     1
 42
1.0
 92
        8
 66
     8
 43
1.0
 76
     1
 77
     6
 78
     2
 67
     7
 79
     5
170
     0
171
     0
290
     0
174
     0
 93
        1
 44
0.0
173
     0
291
     1
 45
0.0
1001
ACAD
1000
AcDbSavedByObjectVersion
1070
     0
  0
VISUALSTYLE
  5
34
102
{ACAD_REACTORS
330
2A
102
}
330
2A
100
AcDbVisualStyle
  2
Conceptual
 70
     9
 71
     3
 72
     2
 73
     0
 90
        0
 40
-0.6
 41
-30.0
 62
     5
 63
     7
 74
     2
 91
        2
 64
     7
 65
   257
 75
     1
175
     1
 42
40.0
 92
        8
 66
     7
 43
1.0
 76
     1
 77
     6
 78
     2
 67
     7
 79
     3
170
     0
171
     0
290
     0
174
     0
 93
        1
 44
0.0
173
     0
291
     0
 45
0.0
1001
ACAD
1000
AcDbSavedByObjectVersion
1070
     0
  0
VISUALSTYLE
  5
35
102
{ACAD_REACTORS
330
2A
102
}
330
2A
100
AcDbVisualStyle
  2
Dim
 70
    11
 71
     2
 72
     2
 73
     0
 90
        0
 40
-0.6
 41
-30.0
 62
     5
 63
     7
 74
     1
 91
        4
 64
     7
 65
   257
 75
     1
175
     1
 42
1.0
 92
        8
 66
     7
 43
1.0
 76
     1
 77
     6
 78
     2
 67
     7
 79
     5
170
     0
171
     0
290
     0
174
     0
 93
        1
 44
-50.0
173
     0
291
     1
 45
0.0
1001
ACAD
1000
AcDbSavedByObjectVersion
1070
     0
  0
VISUALSTYLE
  5
39
102
{ACAD_REACTORS
330
2A
102
}
330
2A
100
AcDbVisualStyle
  2
Facepattern
 70
    15
 71
     2
 72
     2
 73
     0
 90
        0
 40
-0.6
 41
-30.0
 62
     5
 63
     7
 74
     1
 91
        4
 64
     7
 65
   257
 75
     1
175
     1
 42
1.0
 92
        8
 66
     7
 43
1.0
 76
     1
 77
     6
 78
     2
 67
     7
 79
     5
170
     0
171
     0
290
     0
174
     0
 93
        1
 44
0.0
173
     0
291
     1
 45
0.0
1001
ACAD
1000
AcDbSavedByObjectVersion
1070
     0
  0
VISUALSTYLE
  5
2B
102
{ACAD_REACTORS
330
2A
102
}
330
2A
100
AcDbVisualStyle
  2
Flat
 70
     0
 71
     2
 72
     1
 73
     1
 90
        2
 40
-0.6
 41
30.0
 62
     5
 63
     7
 74
     0
 91
        4
 64
     7
 65
   257
 75
     1
175
     1
 42
1.0
 92
        8
 66
     7
 43
1.0
 76
     1
 77
     6
 78
     2
 67
     7
 79
     5
170
     0
171
     0
290
     0
174
     0
 93
       13
 44
0.0
173
     0
291
     1
 45
0.0
1001
ACAD
1000
AcDbSavedByObjectVersion
1070
     0
  0
VISUALSTYLE
  5
2C
102
{ACAD_REACTORS
330
2A
102
}
330
2A
100
AcDbVisualStyle
  2
FlatWithEdges
 70
     1
 71
     2
 72
     1
 73
     1
 90
        2
 40
-0.6
 41
30.0
 62
     5
 63
     7
 74
     1
 91
        4
 64
     7
 65
   257
 75
     1
175
     1
 42
1.0
 92
        0
 66
   257
 43
1.0
 76
     1
 77
     6
 78
     2
 67
     7
 79
     5
170
     0
171
     0
290
     0
174
     0
 93
       13
 44
0.0
173
     0
291
     1
 45
0.0
1001
ACAD
1000
AcDbSavedByObjectVersion
1070
     0
  0
VISUALSTYLE
  5
2D
102
{ACAD_REACTORS
330
2A
102
}
330
2A
100
AcDbVisualStyle
  2
Gouraud
 70
     2
 71
     2
 72
     2
 73
     1
 90
        2
 40
-0.6
 41
30.0
 62
     5
 63
     7
 74
     0
 91
        4
 64
     7
 65
   257
 75
     1
175
     1
 42
1.0
 92
        0
 66
     7
 43
1.0
 76
     1
 77
     6
 78
     2
 67
     7
 79
     5
170
     0
171
     0
290
     0
174
     0
 93
       13
 44
0.0
173
     0
291
     1
 45
0.0
1001
ACAD
1000
AcDbSavedByObjectVersion
1070
     0
  0
VISUALSTYLE
  5
2E
102
{ACAD_REACTORS
330
2A
102
}
330
2A
100
AcDbVisualStyle
  2
GouraudWithEdges
 70
     3
 71
     2
 72
     2
 73
     1
 90
        2
 40
-0.6
 41
30.0
 62
     5
 63
     7
 74
     1
 91
        4
 64
     7
 65
   257
 75
     1
175
     1
 42
1.0
 92
        0
 66
   257
 43
1.0
 76
     1
 77
     6
 78
     2
 67
     7
 79
     5
170
     0
171
     0
290
     0
174
     0
 93
       13
 44
0.0
173
     0
291
     1
 45
0.0
1001
ACAD
1000
AcDbSavedByObjectVersion
1070
     0
  0
VISUALSTYLE
  5
38
102
{ACAD_REACTORS
330
2A
102
}
330
2A
100
AcDbVisualStyle
  2
Linepattern
 70
    14
 71
     2
 72
     2
 73
     0
 90
        0
 40
-0.6
 41
-30.0
 62
     5
 63
     7
 74
     1
 91
        4
 64
     7
 65
   257
 75
     7
175
     7
 42
1.0
 92
        8
 66
     7
 43
1.0
 76
     1
 77
     6
 78
     2
 67
     7
 79
     5
170
     0
171
     0
290
     0
174
     0
 93
        1
 44
0.0
173
     0
291
     1
 45
0.0
1001
ACAD
1000
AcDbSavedByObjectVersion
1070
     0
  0
VISUALSTYLE
  5
33
102
{ACAD_REACTORS
330
2A
102
}
330
2A
100
AcDbVisualStyle
  2
Realistic
 70
     8
 71
     2
 72
     2
 73
     0
 90
        0
 40
-0.6
 41
-30.0
 62
     5
 63
     7
 74
     1
 91
        0
 64
     7
 65
   257
 75
     1
175
     1
 42
1.0
 92
        8
 66
     8
 43
1.0
 76
     1
 77
     6
 78
     2
 67
     7
 79
     5
170
     0
171
     0
290
     0
174
     0
 93
       13
 44
0.0
173
     0
291
     0
 45
0.0
1001
ACAD
1000
AcDbSavedByObjectVersion
1070
     0
  0
VISUALSTYLE
  5
37
102
{ACAD_REACTORS
330
2A
102
}
330
2A
100
AcDbVisualStyle
  2
Thicken
 70
    13
 71
     2
 72
     2
 73
     0
 90
        0
 40
-0.6
 41
-30.0
 62
     5
 63
     7
 74
     1
 91
        4
 64
     7
 65
   257
 75
     1
175
     1
 42
1.0
 92
       12
 66
     7
 43
1.0
 76
     1
 77
     6
 78
     2
 67
     7
 79
     5
170
     0
171
     0
290
     0
174
     0
 93
        1
 44
0.0
173
     0
291
     1
 45
0.0
1001
ACAD
1000
AcDbSavedByObjectVersion
1070
     0
  0
DICTIONARYVAR
  5
138
102
{ACAD_REACTORS
330
136
102
}
330
136
100
DictionaryVariables
280
     0
  1
80.000000
  0
DICTIONARYVAR
  5
137
102
{ACAD_REACTORS
330
136
102
}
330
136
100
DictionaryVariables
280
     0
  1
5.000000
  0
DICTIONARY
  5
139
330
1E
100
AcDbDictionary
280
     1
281
     1
  3
ACAD_XREC_ROUNDTRIP
360
13A
  0
DICTIONARY
  5
13D
330
26
100
AcDbDictionary
280
     1
281
     1
  3
ACAD_XREC_ROUNDTRIP
360
13E
  0
DICTIONARY
  5
13B
330
22
100
AcDbDictionary
280
     1
281
     1
  3
ACAD_XREC_ROUNDTRIP
360
13C
  0
XRECORD
  5
13A
102
{ACAD_REACTORS
330
139
102
}
330
139
100
AcDbXrecord
280
     1
102
SHADEPLOT
 70
     0
102
SHADEPLOTRESLEVEL
 70
     5
102
SHADEPLOTCUSTOMDPI
 70
   300
  0
XRECORD
  5
13E
102
{ACAD_REACTORS
330
13D
102
}
330
13D
100
AcDbXrecord
280
     1
102
SHADEPLOT
 70
     0
102
SHADEPLOTRESLEVEL
 70
     5
102
SHADEPLOTCUSTOMDPI
 70
   300
  0
XRECORD
  5
13C
102
{ACAD_REACTORS
330
13B
102
}
330
13B
100
AcDbXrecord
280
     1
102
SHADEPLOT
 70
     0
102
SHADEPLOTRESLEVEL
 70
     5
102
SHADEPLOTCUSTOMDPI
 70
   300
  0
ENDSEC
  0
EOF
