  0
SECTION
  2
HEADER
  9
$ACADVER
  1
AC1018
  9
$ACADMAINTVER
 70
     0
  9
$DWGCODEPAGE
  3
ANSI_932
  9
$INSBASE
 10
0.0
 20
0.0
 30
0.0
  9
$EXTMIN
 10
-4200.0
 20
-2970.0
 30
0.0
  9
$EXTMAX
 10
4200.0
 20
2970.0
 30
0.0
  9
$LIMMIN
 10
-4200.0
 20
-2970.0
  9
$LIMMAX
 10
4200.0
 20
2970.0
  9
$ORTHOMODE
 70
     0
  9
$REGENMODE
 70
     1
  9
$FILLMODE
 70
     1
  9
$QTEXTMODE
 70
     0
  9
$MIRRTEXT
 70
     1
  9
$LTSCALE
 40
20.0
  9
$ATTMODE
 70
     1
  9
$TEXTSIZE
 40
2.5
  9
$TRACEWID
 40
1.0
  9
$TEXTSTYLE
  7
Standard
  9
$CLAYER
  8
0
  9
$CELTYPE
  6
ByLayer
  9
$CECOLOR
 62
   256
  9
$CELTSCALE
 40
1.0
  9
$DISPSILH
 70
     0
  9
$DIMSCALE
 40
1.0
  9
$DIMASZ
 40
2.5
  9
$DIMEXO
 40
0.625
  9
$DIMDLI
 40
3.75
  9
$DIMRND
 40
0.0
  9
$DIMDLE
 40
0.0
  9
$DIMEXE
 40
1.25
  9
$DIMTP
 40
0.0
  9
$DIMTM
 40
0.0
  9
$DIMTXT
 40
2.5
  9
$DIMCEN
 40
2.5
  9
$DIMTSZ
 40
0.0
  9
$DIMTOL
 70
     0
  9
$DIMLIM
 70
     0
  9
$DIMTIH
 70
     0
  9
$DIMTOH
 70
     0
  9
$DIMSE1
 70
     0
  9
$DIMSE2
 70
     0
  9
$DIMTAD
 70
     1
  9
$DIMZIN
 70
     8
  9
$DIMBLK
  1

  9
$DIMASO
 70
     1
  9
$DIMSHO
 70
     1
  9
$DIMPOST
  1

  9
$DIMAPOST
  1

  9
$DIMALT
 70
     0
  9
$DIMALTD
 70
     3
  9
$DIMALTF
 40
0.03937007874016
  9
$DIMLFAC
 40
1.0
  9
$DIMTOFL
 70
     1
  9
$DIMTVP
 40
0.0
  9
$DIMTIX
 70
     0
  9
$DIMSOXD
 70
     0
  9
$DIMSAH
 70
     0
  9
$DIMBLK1
  1

  9
$DIMBLK2
  1

  9
$DIMSTYLE
  2
ISO-25
  9
$DIMCLRD
 70
     0
  9
$DIMCLRE
 70
     0
  9
$DIMCLRT
 70
     0
  9
$DIMTFAC
 40
1.0
  9
$DIMGAP
 40
0.625
  9
$DIMJUST
 70
     0
  9
$DIMSD1
 70
     0
  9
$DIMSD2
 70
     0
  9
$DIMTOLJ
 70
     0
  9
$DIMTZIN
 70
     8
  9
$DIMALTZ
 70
     0
  9
$DIMALTTZ
 70
     0
  9
$DIMUPT
 70
     0
  9
$DIMDEC
 70
     2
  9
$DIMTDEC
 70
     2
  9
$DIMALTU
 70
     2
  9
$DIMALTTD
 70
     3
  9
$DIMTXSTY
  7
Standard
  9
$DIMAUNIT
 70
     0
  9
$DIMADEC
 70
     0
  9
$DIMALTRND
 40
0.0
  9
$DIMAZIN
 70
     0
  9
$DIMDSEP
 70
    44
  9
$DIMATFIT
 70
     3
  9
$DIMFRAC
 70
     0
  9
$DIMLDRBLK
  1

  9
$DIMLUNIT
 70
     2
  9
$DIMLWD
 70
    -2
  9
$DIMLWE
 70
    -2
  9
$DIMTMOVE
 70
     0
  9
$LUNITS
 70
     2
  9
$LUPREC
 70
     4
  9
$SKETCHINC
 40
1.0
  9
$FILLETRAD
 40
10.0
  9
$AUNITS
 70
     0
  9
$AUPREC
 70
     0
  9
$MENU
  1
.
  9
$ELEVATION
 40
0.0
  9
$PELEVATION
 40
0.0
  9
$THICKNESS
 40
0.0
  9
$LIMCHECK
 70
     0
  9
$CHAMFERA
 40
10.0
  9
$CHAMFERB
 40
10.0
  9
$CHAMFERC
 40
20.0
  9
$CHAMFERD
 40
0.0
  9
$SKPOLY
 70
     0
  9
$TDCREATE
 40
2456499.5870675
  9
$TDUCREATE
 40
2456499.2120675
  9
$TDUPDATE
 40
2456499.587067511
  9
$TDUUPDATE
 40
2456499.212067511
  9
$TDINDWG
 40
0.0000000116
  9
$TDUSRTIMER
 40
0.0000000116
  9
$USRTIMER
 70
     1
  9
$ANGBASE
 50
0.0
  9
$ANGDIR
 70
     0
  9
$PDMODE
 70
     0
  9
$PDSIZE
 40
0.0
  9
$PLINEWID
 40
0.0
  9
$SPLFRAME
 70
     0
  9
$SPLINETYPE
 70
     6
  9
$SPLINESEGS
 70
     8
  9
$HANDSEED
  5
15C
  9
$SURFTAB1
 70
     6
  9
$SURFTAB2
 70
     6
  9
$SURFTYPE
 70
     6
  9
$SURFU
 70
     6
  9
$SURFV
 70
     6
  9
$UCSBASE
  2

  9
$UCSNAME
  2

  9
$UCSORG
 10
0.0
 20
0.0
 30
0.0
  9
$UCSXDIR
 10
1.0
 20
0.0
 30
0.0
  9
$UCSYDIR
 10
0.0
 20
1.0
 30
0.0
  9
$UCSORTHOREF
  2

  9
$UCSORTHOVIEW
 70
     0
  9
$UCSORGTOP
 10
0.0
 20
0.0
 30
0.0
  9
$UCSORGBOTTOM
 10
0.0
 20
0.0
 30
0.0
  9
$UCSORGLEFT
 10
0.0
 20
0.0
 30
0.0
  9
$UCSORGRIGHT
 10
0.0
 20
0.0
 30
0.0
  9
$UCSORGFRONT
 10
0.0
 20
0.0
 30
0.0
  9
$UCSORGBACK
 10
0.0
 20
0.0
 30
0.0
  9
$PUCSBASE
  2

  9
$PUCSNAME
  2

  9
$PUCSORG
 10
0.0
 20
0.0
 30
0.0
  9
$PUCSXDIR
 10
1.0
 20
0.0
 30
0.0
  9
$PUCSYDIR
 10
0.0
 20
1.0
 30
0.0
  9
$PUCSORTHOREF
  2

  9
$PUCSORTHOVIEW
 70
     0
  9
$PUCSORGTOP
 10
0.0
 20
0.0
 30
0.0
  9
$PUCSORGBOTTOM
 10
0.0
 20
0.0
 30
0.0
  9
$PUCSORGLEFT
 10
0.0
 20
0.0
 30
0.0
  9
$PUCSORGRIGHT
 10
0.0
 20
0.0
 30
0.0
  9
$PUCSORGFRONT
 10
0.0
 20
0.0
 30
0.0
  9
$PUCSORGBACK
 10
0.0
 20
0.0
 30
0.0
  9
$USERI1
 70
     0
  9
$USERI2
 70
     0
  9
$USERI3
 70
     0
  9
$USERI4
 70
     0
  9
$USERI5
 70
     0
  9
$USERR1
 40
0.0
  9
$USERR2
 40
0.0
  9
$USERR3
 40
0.0
  9
$USERR4
 40
0.0
  9
$USERR5
 40
0.0
  9
$WORLDVIEW
 70
     1
  9
$SHADEDGE
 70
     3
  9
$SHADEDIF
 70
    70
  9
$TILEMODE
 70
     1
  9
$MAXACTVP
 70
    64
  9
$PINSBASE
 10
0.0
 20
0.0
 30
0.0
  9
$PLIMCHECK
 70
     0
  9
$PEXTMIN
 10
1.000000000000000E+20
 20
1.000000000000000E+20
 30
1.000000000000000E+20
  9
$PEXTMAX
 10
-1.000000000000000E+20
 20
-1.000000000000000E+20
 30
-1.000000000000000E+20
  9
$PLIMMIN
 10
0.0
 20
0.0
  9
$PLIMMAX
 10
420.0
 20
297.0
  9
$UNITMODE
 70
     0
  9
$VISRETAIN
 70
     1
  9
$PLINEGEN
 70
     0
  9
$PSLTSCALE
 70
     1
  9
$TREEDEPTH
 70
  3020
  9
$CMLSTYLE
  2
Standard
  9
$CMLJUST
 70
     0
  9
$CMLSCALE
 40
20.0
  9
$PROXYGRAPHICS
 70
     1
  9
$MEASUREMENT
 70
     1
  9
$CELWEIGHT
370
    -1
  9
$ENDCAPS
280
     0
  9
$JOINSTYLE
280
     0
  9
$LWDISPLAY
290
     0
  9
$INSUNITS
 70
     4
  9
$HYPERLINKBASE
  1

  9
$STYLESHEET
  1

  9
$XEDIT
290
     1
  9
$CEPSNTYPE
380
     0
  9
$PSTYLEMODE
290
     1
  9
$FINGERPRINTGUID
  2
{CB18B91F-5DF5-4D78-A0B1-80D99DF4D829}
  9
$VERSIONGUID
  2
{FAEB1C32-E019-11D5-929B-00C0DF256EC4}
  9
$EXTNAMES
290
     1
  9
$PSVPSCALE
 40
0.0
  9
$OLESTARTUP
290
     0
  9
$SORTENTS
280
   127
  9
$INDEXCTL
280
     0
  9
$HIDETEXT
280
     1
  9
$XCLIPFRAME
290
     0
  9
$HALOGAP
280
     0
  9
$OBSCOLOR
 70
   257
  9
$OBSLTYPE
280
     0
  9
$INTERSECTIONDISPLAY
280
     0
  9
$INTERSECTIONCOLOR
 70
   257
  9
$DIMASSOC
280
     2
  9
$PROJECTNAME
  1

  0
ENDSEC
  0
SECTION
  2
CLASSES
  0
CLASS
  1
ACDBDICTIONARYWDFLT
  2
AcDbDictionaryWithDefault
  3
ObjectDBX Classes
 90
        0
 91
        4
280
     0
281
     0
  0
CLASS
  1
VISUALSTYLE
  2
AcDbVisualStyle
  3
ObjectDBX Classes
 90
     4095
 91
        4
280
     0
281
     0
  0
ENDSEC
  0
SECTION
  2
TABLES
  0
TABLE
  2
VPORT
  5
8
330
0
100
AcDbSymbolTable
 70
     1
  0
VPORT
  5
29
330
8
100
AcDbSymbolTableRecord
100
AcDbViewportTableRecord
  2
*Active
 70
     0
 10
0.0
 20
0.0
 11
1.0
 21
1.0
 12
0.0
 22
0.0
 13
0.0
 23
0.0
 14
10.0
 24
10.0
 15
10.0
 25
10.0
 16
0.0
 26
0.0
 36
1.0
 17
0.0
 27
0.0
 37
0.0
 40
6534.000000000001
 41
1.414141414141414
 42
50.0
 43
0.0
 44
0.0
 50
0.0
 51
0.0
 71
     0
 72
 10000
 73
     1
 74
     3
 75
     0
 76
     0
 77
     0
 78
     0
281
     0
 65
     1
110
0.0
120
0.0
130
0.0
111
1.0
121
0.0
131
0.0
112
0.0
122
1.0
132
0.0
 79
     0
146
0.0
  0
ENDTAB
  0
TABLE
  2
LTYPE
  5
5
330
0
100
AcDbSymbolTable
 70
     2
  0
LTYPE
  5
14
330
5
100
AcDbSymbolTableRecord
100
AcDbLinetypeTableRecord
  2
ByBlock
 70
     0
  3

 72
    65
 73
     0
 40
0.0
  0
LTYPE
  5
15
330
5
100
AcDbSymbolTableRecord
100
AcDbLinetypeTableRecord
  2
ByLayer
 70
     0
  3

 72
    65
 73
     0
 40
0.0
  0
LTYPE
  5
16
330
5
100
AcDbSymbolTableRecord
100
AcDbLinetypeTableRecord
  2
Continuous
 70
     0
  3
Solid line
 72
    65
 73
     0
 40
0.0
  0
LTYPE
  5
3C
330
5
100
AcDbSymbolTableRecord
100
AcDbLinetypeTableRecord
  2
JWW_CENTER2
 70
     0
  3
-------------  --  -------------
 72
    65
 73
     4
 40
13.54666666666667
 49
11.00666666666667
 74
     0
 49
-0.8466666666666667
 74
     0
 49
0.8466666666666667
 74
     0
 49
-0.8466666666666667
 74
     0
  0
ENDTAB
  0
TABLE
  2
LAYER
  5
2
330
0
100
AcDbSymbolTable
 70
     6
  0
LAYER
  5
10
330
2
100
AcDbSymbolTableRecord
100
AcDbLayerTableRecord
  2
0
 70
     0
 62
     7
  6
Continuous
370
    -3
390
F
  0
LAYER
  5
3D
330
2
100
AcDbSymbolTableRecord
100
AcDbLayerTableRecord
  2
KC2梁点線
 70
     0
 62
     7
  6
Continuous
370
    -3
390
F
  0
LAYER
  5
3E
330
2
100
AcDbSymbolTableRecord
100
AcDbLayerTableRecord
  2
IF共通金物
 70
     0
 62
     7
  6
Continuous
370
    -3
390
F
  0
LAYER
  5
3F
330
2
100
AcDbSymbolTableRecord
100
AcDbLayerTableRecord
  2
IE2鉄骨階段
 70
     0
 62
     7
  6
Continuous
370
    -3
390
F
  0
LAYER
  5
40
330
2
100
AcDbSymbolTableRecord
100
AcDbLayerTableRecord
  2
JY2備品1
 70
     0
 62
     7
  6
Continuous
370
    -3
390
F
  0
LAYER
  5
41
330
2
100
AcDbSymbolTableRecord
100
AcDbLayerTableRecord
  2
F-5ﾚｲﾔ
 70
     0
 62
     7
  6
Continuous
370
    -3
390
F
  0
ENDTAB
  0
TABLE
  2
STYLE
  5
3
330
0
100
AcDbSymbolTable
 70
     2
  0
STYLE
  5
11
330
3
100
AcDbSymbolTableRecord
100
AcDbTextStyleTableRecord
  2
Standard
 70
     0
 40
0.0
 41
1.0
 50
0.0
 71
     0
 42
2.5
  3
txt
  4

1001
ACAD
1000

1071
        0
  0
STYLE
  5
3B
330
3
100
AcDbSymbolTableRecord
100
AcDbTextStyleTableRecord
  2
ＭＳ ゴシック
 70
     0
 40
1.0
 41
1.0
 50
0.0
 71
     0
 42
10.0
  3

  4

1001
ACAD
1000
MS Gothic
1071
    32817
  0
ENDTAB
  0
TABLE
  2
VIEW
  5
6
330
0
100
AcDbSymbolTable
 70
     0
  0
ENDTAB
  0
TABLE
  2
UCS
  5
7
330
0
100
AcDbSymbolTable
 70
     0
  0
ENDTAB
  0
TABLE
  2
APPID
  5
9
330
0
100
AcDbSymbolTable
 70
     1
  0
APPID
  5
12
330
9
100
AcDbSymbolTableRecord
100
AcDbRegAppTableRecord
  2
ACAD
 70
     0
  0
ENDTAB
  0
TABLE
  2
DIMSTYLE
  5
A
330
0
100
AcDbSymbolTable
 70
     1
100
AcDbDimStyleTable
  0
DIMSTYLE
105
27
330
A
100
AcDbSymbolTableRecord
100
AcDbDimStyleTableRecord
  2
ISO-25
 70
     0
 41
2.5
 42
0.625
 43
3.75
 44
1.25
 73
     0
 74
     0
 77
     1
 78
     8
140
2.5
141
2.5
143
0.03937007874016
147
0.625
171
     3
172
     1
271
     2
272
     2
274
     3
278
    44
283
     0
284
     8
340
11
  0
ENDTAB
  0
TABLE
  2
BLOCK_RECORD
  5
1
330
0
100
AcDbSymbolTable
 70
     1
  0
BLOCK_RECORD
  5
1F
330
1
100
AcDbSymbolTableRecord
100
AcDbBlockTableRecord
  2
*Model_Space
340
22
  0
BLOCK_RECORD
  5
1B
330
1
100
AcDbSymbolTableRecord
100
AcDbBlockTableRecord
  2
*Paper_Space
340
1E
  0
BLOCK_RECORD
  5
23
330
1
100
AcDbSymbolTableRecord
100
AcDbBlockTableRecord
  2
*Paper_Space0
340
26
  0
ENDTAB
  0
ENDSEC
  0
SECTION
  2
BLOCKS
  0
BLOCK
  5
20
330
1F
100
AcDbEntity
  8
0
100
AcDbBlockBegin
  2
*Model_Space
 70
     0
 10
0.0
 20
0.0
 30
0.0
  3
*Model_Space
  1

  0
ENDBLK
  5
21
330
1F
100
AcDbEntity
  8
0
100
AcDbBlockEnd
  0
BLOCK
  5
1C
330
1B
100
AcDbEntity
 67
     1
  8
0
100
AcDbBlockBegin
  2
*Paper_Space
 70
     0
 10
0.0
 20
0.0
 30
0.0
  3
*Paper_Space
  1

  0
ENDBLK
  5
1D
330
1B
100
AcDbEntity
 67
     1
  8
0
100
AcDbBlockEnd
  0
BLOCK
  5
24
330
23
100
AcDbEntity
  8
0
100
AcDbBlockBegin
  2
*Paper_Space0
 70
     0
 10
0.0
 20
0.0
 30
0.0
  3
*Paper_Space0
  1

  0
ENDBLK
  5
25
330
23
100
AcDbEntity
  8
0
100
AcDbBlockEnd
  0
ENDSEC
  0
SECTION
  2
ENTITIES
  0
LINE
  5
42
330
1F
100
AcDbEntity
  8
KC2梁点線
  6
Continuous
 62
     3
370
     9
100
AcDbLine
 10
-2180.269527950986
 20
-1153.783783783784
 30
0.0
 11
-2175.526082525079
 21
-1244.306347238509
 31
0.0
  0
LINE
  5
43
330
1F
100
AcDbEntity
  8
KC2梁点線
  6
Continuous
 62
     3
370
     9
100
AcDbLine
 10
2029.730059649678
 20
-1153.783783783784
 30
0.0
 11
2024.98661422377
 21
-1244.306347238509
 31
0.0
  0
LINE
  5
44
330
1F
100
AcDbEntity
  8
KC2梁点線
  6
Continuous
 62
     3
370
     9
100
AcDbLine
 10
-2020.271721917231
 20
-1153.783783783784
 30
0.0
 11
-2030.271721917231
 21
-1243.783783783784
 31
0.0
  0
LINE
  5
45
330
1F
100
AcDbEntity
  8
KC2梁点線
  6
Continuous
 62
     3
370
     9
100
AcDbLine
 10
-1900.271820893161
 20
-1153.783783783784
 30
0.0
 11
-1890.271820893161
 21
-1243.783783783784
 31
0.0
  0
LINE
  5
46
330
1F
100
AcDbEntity
  8
KC2梁点線
  6
Continuous
 62
     3
370
     9
100
AcDbLine
 10
-1840.271622941302
 20
-1153.783783783784
 30
0.0
 11
-1850.271622941302
 21
-1243.783783783784
 31
0.0
  0
LINE
  5
47
330
1F
100
AcDbEntity
  8
KC2梁点線
  6
Continuous
 62
     3
370
     9
100
AcDbLine
 10
-1720.271721917231
 20
-1153.783783783784
 30
0.0
 11
-1710.271721917231
 21
-1243.783783783784
 31
0.0
  0
LINE
  5
48
330
1F
100
AcDbEntity
  8
KC2梁点線
  6
Continuous
 62
     3
370
     9
100
AcDbLine
 10
-1660.271523965373
 20
-1153.783783783784
 30
0.0
 11
-1670.271523965373
 21
-1243.783783783784
 31
0.0
  0
LINE
  5
49
330
1F
100
AcDbEntity
  8
KC2梁点線
  6
Continuous
 62
     3
370
     9
100
AcDbLine
 10
-1540.271622941302
 20
-1153.783783783784
 30
0.0
 11
-1530.271622941302
 21
-1243.783783783784
 31
0.0
  0
LINE
  5
4A
330
1F
100
AcDbEntity
  8
KC2梁点線
  6
Continuous
 62
     3
370
     9
100
AcDbLine
 10
-1480.271424989444
 20
-1153.783783783784
 30
0.0
 11
-1490.271424989444
 21
-1243.783783783784
 31
0.0
  0
LINE
  5
4B
330
1F
100
AcDbEntity
  8
KC2梁点線
  6
Continuous
 62
     3
370
     9
100
AcDbLine
 10
-1360.271523965373
 20
-1153.783783783784
 30
0.0
 11
-1350.271523965373
 21
-1243.783783783784
 31
0.0
  0
LINE
  5
4C
330
1F
100
AcDbEntity
  8
KC2梁点線
  6
Continuous
 62
     3
370
     9
100
AcDbLine
 10
-1300.271326013515
 20
-1153.783783783784
 30
0.0
 11
-1310.271326013515
 21
-1243.783783783784
 31
0.0
  0
LINE
  5
4D
330
1F
100
AcDbEntity
  8
KC2梁点線
  6
Continuous
 62
     3
370
     9
100
AcDbLine
 10
-1180.271424989444
 20
-1153.783783783784
 30
0.0
 11
-1170.271424989444
 21
-1243.783783783784
 31
0.0
  0
LINE
  5
4E
330
1F
100
AcDbEntity
  8
KC2梁点線
  6
Continuous
 62
     3
370
     9
100
AcDbLine
 10
-1120.271227037586
 20
-1153.783783783784
 30
0.0
 11
-1130.271227037586
 21
-1243.783783783784
 31
0.0
  0
LINE
  5
4F
330
1F
100
AcDbEntity
  8
KC2梁点線
  6
Continuous
 62
     3
370
     9
100
AcDbLine
 10
-1000.271326013515
 20
-1153.783783783784
 30
0.0
 11
-990.2713260135147
 21
-1243.783783783784
 31
0.0
  0
LINE
  5
50
330
1F
100
AcDbEntity
  8
KC2梁点線
  6
Continuous
 62
     3
370
     9
100
AcDbLine
 10
-940.2711280616563
 20
-1153.783783783784
 30
0.0
 11
-950.2711280616563
 21
-1243.783783783784
 31
0.0
  0
LINE
  5
51
330
1F
100
AcDbEntity
  8
KC2梁点線
  6
Continuous
 62
     3
370
     9
100
AcDbLine
 10
-820.2712270375855
 20
-1153.783783783784
 30
0.0
 11
-810.2712270375855
 21
-1243.783783783784
 31
0.0
  0
LINE
  5
52
330
1F
100
AcDbEntity
  8
KC2梁点線
  6
Continuous
 62
     3
370
     9
100
AcDbLine
 10
-760.2710290857272
 20
-1153.783783783784
 30
0.0
 11
-770.2710290857272
 21
-1243.783783783784
 31
0.0
  0
LINE
  5
53
330
1F
100
AcDbEntity
  8
KC2梁点線
  6
Continuous
 62
     3
370
     9
100
AcDbLine
 10
-640.2711280616563
 20
-1153.783783783784
 30
0.0
 11
-630.2711280616563
 21
-1243.783783783784
 31
0.0
  0
LINE
  5
54
330
1F
100
AcDbEntity
  8
KC2梁点線
  6
Continuous
 62
     3
370
     9
100
AcDbLine
 10
-580.270930109798
 20
-1153.783783783784
 30
0.0
 11
-590.270930109798
 21
-1243.783783783784
 31
0.0
  0
LINE
  5
55
330
1F
100
AcDbEntity
  8
KC2梁点線
  6
Continuous
 62
     3
370
     9
100
AcDbLine
 10
-460.2710290857272
 20
-1153.783783783784
 30
0.0
 11
-450.2710290857272
 21
-1243.783783783784
 31
0.0
  0
LINE
  5
56
330
1F
100
AcDbEntity
  8
KC2梁点線
  6
Continuous
 62
     3
370
     9
100
AcDbLine
 10
-400.2708311338688
 20
-1153.783783783784
 30
0.0
 11
-410.2708311338688
 21
-1243.783783783784
 31
0.0
  0
LINE
  5
57
330
1F
100
AcDbEntity
  8
KC2梁点線
  6
Continuous
 62
     3
370
     9
100
AcDbLine
 10
-280.270930109798
 20
-1153.783783783784
 30
0.0
 11
-270.270930109798
 21
-1243.783783783784
 31
0.0
  0
LINE
  5
58
330
1F
100
AcDbEntity
  8
KC2梁点線
  6
Continuous
 62
     3
370
     9
100
AcDbLine
 10
-220.2707321579396
 20
-1153.783783783784
 30
0.0
 11
-230.2707321579396
 21
-1243.783783783784
 31
0.0
  0
LINE
  5
59
330
1F
100
AcDbEntity
  8
KC2梁点線
  6
Continuous
 62
     3
370
     9
100
AcDbLine
 10
-100.2708311338688
 20
-1153.783783783784
 30
0.0
 11
-90.2708311338688
 21
-1243.783783783784
 31
0.0
  0
LINE
  5
5A
330
1F
100
AcDbEntity
  8
KC2梁点線
  6
Continuous
 62
     3
370
     9
100
AcDbLine
 10
-40.27063318201044
 20
-1153.783783783784
 30
0.0
 11
-50.27063318201044
 21
-1243.783783783784
 31
0.0
  0
LINE
  5
5B
330
1F
100
AcDbEntity
  8
KC2梁点線
  6
Continuous
 62
     3
370
     9
100
AcDbLine
 10
79.72926784206038
 20
-1153.783783783784
 30
0.0
 11
89.72926784206038
 21
-1243.783783783784
 31
0.0
  0
LINE
  5
5C
330
1F
100
AcDbEntity
  8
KC2梁点線
  6
Continuous
 62
     3
370
     9
100
AcDbLine
 10
139.7294657939187
 20
-1153.783783783784
 30
0.0
 11
129.7294657939187
 21
-1243.783783783784
 31
0.0
  0
LINE
  5
5D
330
1F
100
AcDbEntity
  8
KC2梁点線
  6
Continuous
 62
     3
370
     9
100
AcDbLine
 10
259.7293668179896
 20
-1153.783783783784
 30
0.0
 11
269.7293668179896
 21
-1243.783783783784
 31
0.0
  0
LINE
  5
5E
330
1F
100
AcDbEntity
  8
KC2梁点線
  6
Continuous
 62
     3
370
     9
100
AcDbLine
 10
319.7295647698479
 20
-1153.783783783784
 30
0.0
 11
309.7295647698479
 21
-1243.783783783784
 31
0.0
  0
LINE
  5
5F
330
1F
100
AcDbEntity
  8
KC2梁点線
  6
Continuous
 62
     3
370
     9
100
AcDbLine
 10
439.7294657939187
 20
-1153.783783783784
 30
0.0
 11
449.7294657939187
 21
-1243.783783783784
 31
0.0
  0
LINE
  5
60
330
1F
100
AcDbEntity
  8
KC2梁点線
  6
Continuous
 62
     3
370
     9
100
AcDbLine
 10
499.7296637457771
 20
-1153.783783783784
 30
0.0
 11
489.7296637457771
 21
-1243.783783783784
 31
0.0
  0
LINE
  5
61
330
1F
100
AcDbEntity
  8
KC2梁点線
  6
Continuous
 62
     3
370
     9
100
AcDbLine
 10
619.7295647698479
 20
-1153.783783783784
 30
0.0
 11
629.7295647698479
 21
-1243.783783783784
 31
0.0
  0
LINE
  5
62
330
1F
100
AcDbEntity
  8
KC2梁点線
  6
Continuous
 62
     3
370
     9
100
AcDbLine
 10
679.7297627217063
 20
-1153.783783783784
 30
0.0
 11
669.7297627217063
 21
-1243.783783783784
 31
0.0
  0
LINE
  5
63
330
1F
100
AcDbEntity
  8
KC2梁点線
  6
Continuous
 62
     3
370
     9
100
AcDbLine
 10
799.7296637457771
 20
-1153.783783783784
 30
0.0
 11
809.7296637457771
 21
-1243.783783783784
 31
0.0
  0
LINE
  5
64
330
1F
100
AcDbEntity
  8
KC2梁点線
  6
Continuous
 62
     3
370
     9
100
AcDbLine
 10
859.7298616976354
 20
-1153.783783783784
 30
0.0
 11
849.7298616976354
 21
-1243.783783783784
 31
0.0
  0
LINE
  5
65
330
1F
100
AcDbEntity
  8
KC2梁点線
  6
Continuous
 62
     3
370
     9
100
AcDbLine
 10
979.7297627217063
 20
-1153.783783783784
 30
0.0
 11
989.7297627217063
 21
-1243.783783783784
 31
0.0
  0
LINE
  5
66
330
1F
100
AcDbEntity
  8
KC2梁点線
  6
Continuous
 62
     3
370
     9
100
AcDbLine
 10
1039.729960673565
 20
-1153.783783783784
 30
0.0
 11
1029.729960673565
 21
-1243.783783783784
 31
0.0
  0
LINE
  5
67
330
1F
100
AcDbEntity
  8
KC2梁点線
  6
Continuous
 62
     3
370
     9
100
AcDbLine
 10
1159.729861697635
 20
-1153.783783783784
 30
0.0
 11
1169.729861697635
 21
-1243.783783783784
 31
0.0
  0
LINE
  5
68
330
1F
100
AcDbEntity
  8
KC2梁点線
  6
Continuous
 62
     3
370
     9
100
AcDbLine
 10
1219.730059649494
 20
-1153.783783783784
 30
0.0
 11
1209.730059649494
 21
-1243.783783783784
 31
0.0
  0
LINE
  5
69
330
1F
100
AcDbEntity
  8
KC2梁点線
  6
Continuous
 62
     3
370
     9
100
AcDbLine
 10
1339.729960673565
 20
-1153.783783783784
 30
0.0
 11
1349.729960673565
 21
-1243.783783783784
 31
0.0
  0
LINE
  5
6A
330
1F
100
AcDbEntity
  8
KC2梁点線
  6
Continuous
 62
     3
370
     9
100
AcDbLine
 10
1399.730158625423
 20
-1153.783783783784
 30
0.0
 11
1389.730158625423
 21
-1243.783783783784
 31
0.0
  0
LINE
  5
6B
330
1F
100
AcDbEntity
  8
KC2梁点線
  6
Continuous
 62
     3
370
     9
100
AcDbLine
 10
1519.730059649494
 20
-1153.783783783784
 30
0.0
 11
1529.730059649494
 21
-1243.783783783784
 31
0.0
  0
LINE
  5
6C
330
1F
100
AcDbEntity
  8
KC2梁点線
  6
Continuous
 62
     3
370
     9
100
AcDbLine
 10
1579.730257601352
 20
-1153.783783783784
 30
0.0
 11
1569.730257601352
 21
-1243.783783783784
 31
0.0
  0
LINE
  5
6D
330
1F
100
AcDbEntity
  8
KC2梁点線
  6
Continuous
 62
     3
370
     9
100
AcDbLine
 10
1699.730158625423
 20
-1153.783783783784
 30
0.0
 11
1709.730158625423
 21
-1243.783783783784
 31
0.0
  0
LINE
  5
6E
330
1F
100
AcDbEntity
  8
KC2梁点線
  6
Continuous
 62
     3
370
     9
100
AcDbLine
 10
1759.730356577281
 20
-1153.783783783784
 30
0.0
 11
1749.730356577281
 21
-1243.783783783784
 31
0.0
  0
LINE
  5
6F
330
1F
100
AcDbEntity
  8
KC2梁点線
  6
Continuous
 62
     3
370
     9
100
AcDbLine
 10
1879.730257601352
 20
-1153.783783783784
 30
0.0
 11
1889.730257601352
 21
-1243.783783783784
 31
0.0
  0
LINE
  5
70
330
1F
100
AcDbEntity
  8
KC2梁点線
  6
Continuous
 62
     3
370
     9
100
AcDbLine
 10
-2270.269527950802
 20
-1153.783783783784
 30
0.0
 11
-2265.552828940208
 21
-1243.783783783784
 31
0.0
  0
LINE
  5
71
330
1F
100
AcDbEntity
  8
KC2梁点線
  6
Continuous
 62
     3
370
     9
100
AcDbLine
 10
2115.0133606389
 20
-1243.783783783784
 30
0.0
 11
-2265.552828940208
 21
-1243.783783783784
 31
0.0
  0
LINE
  5
72
330
1F
100
AcDbEntity
  8
KC2梁点線
  6
Continuous
 62
     3
370
     9
100
AcDbLine
 10
1759.730158625423
 20
1381.351351351352
 30
0.0
 11
1879.730059649494
 21
1381.351351351352
 31
0.0
  0
LINE
  5
73
330
1F
100
AcDbEntity
  8
KC2梁点線
  6
Continuous
 62
     3
370
     9
100
AcDbLine
 10
-640.269841374577
 20
1381.351351351352
 30
0.0
 11
-640.269841374577
 21
-18.64864864864842
 31
0.0
  0
LINE
  5
74
330
1F
100
AcDbEntity
  8
KC2梁点線
  6
Continuous
 62
     3
370
     9
100
AcDbLine
 10
2029.730059649494
 20
466.3513513513516
 30
0.0
 11
2029.730059649494
 21
-168.6486486486484
 31
0.0
  0
LINE
  5
75
330
1F
100
AcDbEntity
  8
KC2梁点線
  6
Continuous
 62
     3
370
     9
100
AcDbLine
 10
2119.730059649494
 20
881.3513513513516
 30
0.0
 11
2119.730059649494
 21
481.3513513513516
 31
0.0
  0
LINE
  5
76
330
1F
100
AcDbEntity
  8
KC2梁点線
  6
Continuous
 62
     3
370
     9
100
AcDbLine
 10
2029.730059649494
 20
896.3513513513516
 30
0.0
 11
2029.730059649494
 21
1531.351351351352
 31
0.0
  0
LINE
  5
77
330
1F
100
AcDbEntity
  8
KC2梁点線
  6
Continuous
 62
     3
370
     9
100
AcDbLine
 10
2044.730059649494
 20
881.3513513513516
 30
0.0
 11
2119.730059649494
 21
881.3513513513516
 31
0.0
  0
ARC
  5
78
330
1F
100
AcDbEntity
  8
KC2梁点線
  6
Continuous
 62
     3
370
     9
100
AcDbCircle
 10
2044.730059649494
 20
896.3513513513516
 30
0.0
 40
15.0
100
AcDbArc
 50
180.0
 51
270.0
  0
LINE
  5
79
330
1F
100
AcDbEntity
  8
KC2梁点線
  6
Continuous
 62
     3
370
     9
100
AcDbLine
 10
2044.730059649494
 20
481.3513513513516
 30
0.0
 11
2119.730059649494
 21
481.3513513513516
 31
0.0
  0
ARC
  5
7A
330
1F
100
AcDbEntity
  8
KC2梁点線
  6
Continuous
 62
     3
370
     9
100
AcDbCircle
 10
2044.730059649494
 20
466.3513513513516
 30
0.0
 40
15.0
100
AcDbArc
 50
90.0
 51
180.0
  0
LINE
  5
7B
330
1F
100
AcDbEntity
  8
KC2梁点線
  6
Continuous
 62
     3
370
     9
100
AcDbLine
 10
1879.730059649494
 20
-18.64864864864842
 30
0.0
 11
1759.730158625423
 21
-18.64864864864842
 31
0.0
  0
LINE
  5
7C
330
1F
100
AcDbEntity
  8
KC2梁点線
  6
Continuous
 62
     3
370
     9
100
AcDbLine
 10
1879.730059649494
 20
1381.351351351352
 30
0.0
 11
1879.730059649494
 21
-18.64864864864842
 31
0.0
  0
LINE
  5
7D
330
1F
100
AcDbEntity
  8
KC2梁点線
  6
Continuous
 62
     3
370
     9
100
AcDbLine
 10
1759.730158625423
 20
1381.351351351352
 30
0.0
 11
1759.730158625423
 21
-18.64864864864842
 31
0.0
  0
LINE
  5
7E
330
1F
100
AcDbEntity
  8
KC2梁点線
  6
Continuous
 62
     3
370
     9
100
AcDbLine
 10
1699.730158625423
 20
1381.351351351352
 30
0.0
 11
1699.730158625423
 21
-18.64864864864842
 31
0.0
  0
LINE
  5
7F
330
1F
100
AcDbEntity
  8
KC2梁点線
  6
Continuous
 62
     3
370
     9
100
AcDbLine
 10
1579.730158625423
 20
1381.351351351352
 30
0.0
 11
1579.730158625423
 21
-18.64864864864842
 31
0.0
  0
LINE
  5
80
330
1F
100
AcDbEntity
  8
KC2梁点線
  6
Continuous
 62
     3
370
     9
100
AcDbLine
 10
1579.730158625423
 20
1381.351351351352
 30
0.0
 11
1699.730158625423
 21
1381.351351351352
 31
0.0
  0
LINE
  5
81
330
1F
100
AcDbEntity
  8
KC2梁点線
  6
Continuous
 62
     3
370
     9
100
AcDbLine
 10
1579.730158625423
 20
-18.64864864864842
 30
0.0
 11
1699.730158625423
 21
-18.64864864864842
 31
0.0
  0
LINE
  5
82
330
1F
100
AcDbEntity
  8
KC2梁点線
  6
Continuous
 62
     3
370
     9
100
AcDbLine
 10
1519.730158625423
 20
1381.351351351352
 30
0.0
 11
1519.730158625423
 21
-18.64864864864842
 31
0.0
  0
LINE
  5
83
330
1F
100
AcDbEntity
  8
KC2梁点線
  6
Continuous
 62
     3
370
     9
100
AcDbLine
 10
1399.730158625423
 20
1381.351351351352
 30
0.0
 11
1399.730158625423
 21
-18.64864864864842
 31
0.0
  0
LINE
  5
84
330
1F
100
AcDbEntity
  8
KC2梁点線
  6
Continuous
 62
     3
370
     9
100
AcDbLine
 10
1399.730158625423
 20
1381.351351351352
 30
0.0
 11
1519.730158625423
 21
1381.351351351352
 31
0.0
  0
LINE
  5
85
330
1F
100
AcDbEntity
  8
KC2梁点線
  6
Continuous
 62
     3
370
     9
100
AcDbLine
 10
1399.730158625423
 20
-18.64864864864842
 30
0.0
 11
1519.730158625423
 21
-18.64864864864842
 31
0.0
  0
LINE
  5
86
330
1F
100
AcDbEntity
  8
KC2梁点線
  6
Continuous
 62
     3
370
     9
100
AcDbLine
 10
1339.730158625423
 20
1381.351351351352
 30
0.0
 11
1339.730158625423
 21
-18.64864864864842
 31
0.0
  0
LINE
  5
87
330
1F
100
AcDbEntity
  8
KC2梁点線
  6
Continuous
 62
     3
370
     9
100
AcDbLine
 10
1219.730158625423
 20
1381.351351351352
 30
0.0
 11
1219.730158625423
 21
-18.64864864864842
 31
0.0
  0
LINE
  5
88
330
1F
100
AcDbEntity
  8
KC2梁点線
  6
Continuous
 62
     3
370
     9
100
AcDbLine
 10
1219.730158625423
 20
1381.351351351352
 30
0.0
 11
1339.730158625423
 21
1381.351351351352
 31
0.0
  0
LINE
  5
89
330
1F
100
AcDbEntity
  8
KC2梁点線
  6
Continuous
 62
     3
370
     9
100
AcDbLine
 10
1219.730158625423
 20
-18.64864864864842
 30
0.0
 11
1339.730158625423
 21
-18.64864864864842
 31
0.0
  0
LINE
  5
8A
330
1F
100
AcDbEntity
  8
KC2梁点線
  6
Continuous
 62
     3
370
     9
100
AcDbLine
 10
1159.730158625423
 20
1381.351351351352
 30
0.0
 11
1159.730158625423
 21
-18.64864864864842
 31
0.0
  0
LINE
  5
8B
330
1F
100
AcDbEntity
  8
KC2梁点線
  6
Continuous
 62
     3
370
     9
100
AcDbLine
 10
1039.730158625423
 20
1381.351351351352
 30
0.0
 11
1039.730158625423
 21
-18.64864864864842
 31
0.0
  0
LINE
  5
8C
330
1F
100
AcDbEntity
  8
KC2梁点線
  6
Continuous
 62
     3
370
     9
100
AcDbLine
 10
1039.730158625423
 20
1381.351351351352
 30
0.0
 11
1159.730158625423
 21
1381.351351351352
 31
0.0
  0
LINE
  5
8D
330
1F
100
AcDbEntity
  8
KC2梁点線
  6
Continuous
 62
     3
370
     9
100
AcDbLine
 10
1039.730158625423
 20
-18.64864864864842
 30
0.0
 11
1159.730158625423
 21
-18.64864864864842
 31
0.0
  0
LINE
  5
8E
330
1F
100
AcDbEntity
  8
KC2梁点線
  6
Continuous
 62
     3
370
     9
100
AcDbLine
 10
979.730158625423
 20
1381.351351351352
 30
0.0
 11
979.730158625423
 21
-18.64864864864842
 31
0.0
  0
LINE
  5
8F
330
1F
100
AcDbEntity
  8
KC2梁点線
  6
Continuous
 62
     3
370
     9
100
AcDbLine
 10
859.730158625423
 20
1381.351351351352
 30
0.0
 11
859.730158625423
 21
-18.64864864864842
 31
0.0
  0
LINE
  5
90
330
1F
100
AcDbEntity
  8
KC2梁点線
  6
Continuous
 62
     3
370
     9
100
AcDbLine
 10
859.730158625423
 20
1381.351351351352
 30
0.0
 11
979.730158625423
 21
1381.351351351352
 31
0.0
  0
LINE
  5
91
330
1F
100
AcDbEntity
  8
KC2梁点線
  6
Continuous
 62
     3
370
     9
100
AcDbLine
 10
859.730158625423
 20
-18.64864864864842
 30
0.0
 11
979.730158625423
 21
-18.64864864864842
 31
0.0
  0
LINE
  5
92
330
1F
100
AcDbEntity
  8
KC2梁点線
  6
Continuous
 62
     3
370
     9
100
AcDbLine
 10
799.730158625423
 20
1381.351351351352
 30
0.0
 11
799.730158625423
 21
-18.64864864864842
 31
0.0
  0
LINE
  5
93
330
1F
100
AcDbEntity
  8
KC2梁点線
  6
Continuous
 62
     3
370
     9
100
AcDbLine
 10
679.730158625423
 20
1381.351351351352
 30
0.0
 11
679.730158625423
 21
-18.64864864864842
 31
0.0
  0
LINE
  5
94
330
1F
100
AcDbEntity
  8
KC2梁点線
  6
Continuous
 62
     3
370
     9
100
AcDbLine
 10
679.730158625423
 20
1381.351351351352
 30
0.0
 11
799.730158625423
 21
1381.351351351352
 31
0.0
  0
LINE
  5
95
330
1F
100
AcDbEntity
  8
KC2梁点線
  6
Continuous
 62
     3
370
     9
100
AcDbLine
 10
679.730158625423
 20
-18.64864864864842
 30
0.0
 11
799.730158625423
 21
-18.64864864864842
 31
0.0
  0
LINE
  5
96
330
1F
100
AcDbEntity
  8
KC2梁点線
  6
Continuous
 62
     3
370
     9
100
AcDbLine
 10
619.730158625423
 20
1381.351351351352
 30
0.0
 11
619.730158625423
 21
-18.64864864864842
 31
0.0
  0
LINE
  5
97
330
1F
100
AcDbEntity
  8
KC2梁点線
  6
Continuous
 62
     3
370
     9
100
AcDbLine
 10
499.730158625423
 20
1381.351351351352
 30
0.0
 11
499.730158625423
 21
-18.64864864864842
 31
0.0
  0
LINE
  5
98
330
1F
100
AcDbEntity
  8
KC2梁点線
  6
Continuous
 62
     3
370
     9
100
AcDbLine
 10
499.730158625423
 20
1381.351351351352
 30
0.0
 11
619.730158625423
 21
1381.351351351352
 31
0.0
  0
LINE
  5
99
330
1F
100
AcDbEntity
  8
KC2梁点線
  6
Continuous
 62
     3
370
     9
100
AcDbLine
 10
499.730158625423
 20
-18.64864864864842
 30
0.0
 11
619.730158625423
 21
-18.64864864864842
 31
0.0
  0
LINE
  5
9A
330
1F
100
AcDbEntity
  8
KC2梁点線
  6
Continuous
 62
     3
370
     9
100
AcDbLine
 10
439.730158625423
 20
1381.351351351352
 30
0.0
 11
439.730158625423
 21
-18.64864864864842
 31
0.0
  0
LINE
  5
9B
330
1F
100
AcDbEntity
  8
KC2梁点線
  6
Continuous
 62
     3
370
     9
100
AcDbLine
 10
319.730158625423
 20
1381.351351351352
 30
0.0
 11
319.730158625423
 21
-18.64864864864842
 31
0.0
  0
LINE
  5
9C
330
1F
100
AcDbEntity
  8
KC2梁点線
  6
Continuous
 62
     3
370
     9
100
AcDbLine
 10
319.730158625423
 20
1381.351351351352
 30
0.0
 11
439.730158625423
 21
1381.351351351352
 31
0.0
  0
LINE
  5
9D
330
1F
100
AcDbEntity
  8
KC2梁点線
  6
Continuous
 62
     3
370
     9
100
AcDbLine
 10
319.730158625423
 20
-18.64864864864842
 30
0.0
 11
439.730158625423
 21
-18.64864864864842
 31
0.0
  0
LINE
  5
9E
330
1F
100
AcDbEntity
  8
KC2梁点線
  6
Continuous
 62
     3
370
     9
100
AcDbLine
 10
259.730158625423
 20
1381.351351351352
 30
0.0
 11
259.730158625423
 21
-18.64864864864842
 31
0.0
  0
LINE
  5
9F
330
1F
100
AcDbEntity
  8
KC2梁点線
  6
Continuous
 62
     3
370
     9
100
AcDbLine
 10
139.730158625423
 20
1381.351351351352
 30
0.0
 11
139.730158625423
 21
-18.64864864864842
 31
0.0
  0
LINE
  5
A0
330
1F
100
AcDbEntity
  8
KC2梁点線
  6
Continuous
 62
     3
370
     9
100
AcDbLine
 10
139.730158625423
 20
1381.351351351352
 30
0.0
 11
259.730158625423
 21
1381.351351351352
 31
0.0
  0
LINE
  5
A1
330
1F
100
AcDbEntity
  8
KC2梁点線
  6
Continuous
 62
     3
370
     9
100
AcDbLine
 10
139.730158625423
 20
-18.64864864864842
 30
0.0
 11
259.730158625423
 21
-18.64864864864842
 31
0.0
  0
LINE
  5
A2
330
1F
100
AcDbEntity
  8
KC2梁点線
  6
Continuous
 62
     3
370
     9
100
AcDbLine
 10
79.73015862542297
 20
1381.351351351352
 30
0.0
 11
79.73015862542297
 21
-18.64864864864842
 31
0.0
  0
LINE
  5
A3
330
1F
100
AcDbEntity
  8
KC2梁点線
  6
Continuous
 62
     3
370
     9
100
AcDbLine
 10
-40.26984137457703
 20
1381.351351351352
 30
0.0
 11
-40.26984137457703
 21
-18.64864864864842
 31
0.0
  0
LINE
  5
A4
330
1F
100
AcDbEntity
  8
KC2梁点線
  6
Continuous
 62
     3
370
     9
100
AcDbLine
 10
-40.26984137457703
 20
1381.351351351352
 30
0.0
 11
79.73015862542297
 21
1381.351351351352
 31
0.0
  0
LINE
  5
A5
330
1F
100
AcDbEntity
  8
KC2梁点線
  6
Continuous
 62
     3
370
     9
100
AcDbLine
 10
-40.26984137457703
 20
-18.64864864864842
 30
0.0
 11
79.73015862542297
 21
-18.64864864864842
 31
0.0
  0
LINE
  5
A6
330
1F
100
AcDbEntity
  8
KC2梁点線
  6
Continuous
 62
     3
370
     9
100
AcDbLine
 10
-100.269841374577
 20
1381.351351351352
 30
0.0
 11
-100.269841374577
 21
-18.64864864864842
 31
0.0
  0
LINE
  5
A7
330
1F
100
AcDbEntity
  8
KC2梁点線
  6
Continuous
 62
     3
370
     9
100
AcDbLine
 10
-220.269841374577
 20
1381.351351351352
 30
0.0
 11
-220.269841374577
 21
-18.64864864864842
 31
0.0
  0
LINE
  5
A8
330
1F
100
AcDbEntity
  8
KC2梁点線
  6
Continuous
 62
     3
370
     9
100
AcDbLine
 10
-220.269841374577
 20
1381.351351351352
 30
0.0
 11
-100.269841374577
 21
1381.351351351352
 31
0.0
  0
LINE
  5
A9
330
1F
100
AcDbEntity
  8
KC2梁点線
  6
Continuous
 62
     3
370
     9
100
AcDbLine
 10
-220.269841374577
 20
-18.64864864864842
 30
0.0
 11
-100.269841374577
 21
-18.64864864864842
 31
0.0
  0
LINE
  5
AA
330
1F
100
AcDbEntity
  8
KC2梁点線
  6
Continuous
 62
     3
370
     9
100
AcDbLine
 10
-280.269841374577
 20
1381.351351351352
 30
0.0
 11
-280.269841374577
 21
-18.64864864864842
 31
0.0
  0
LINE
  5
AB
330
1F
100
AcDbEntity
  8
KC2梁点線
  6
Continuous
 62
     3
370
     9
100
AcDbLine
 10
-400.269841374577
 20
1381.351351351352
 30
0.0
 11
-400.269841374577
 21
-18.64864864864842
 31
0.0
  0
LINE
  5
AC
330
1F
100
AcDbEntity
  8
KC2梁点線
  6
Continuous
 62
     3
370
     9
100
AcDbLine
 10
-400.269841374577
 20
1381.351351351352
 30
0.0
 11
-280.269841374577
 21
1381.351351351352
 31
0.0
  0
LINE
  5
AD
330
1F
100
AcDbEntity
  8
KC2梁点線
  6
Continuous
 62
     3
370
     9
100
AcDbLine
 10
-400.269841374577
 20
-18.64864864864842
 30
0.0
 11
-280.269841374577
 21
-18.64864864864842
 31
0.0
  0
LINE
  5
AE
330
1F
100
AcDbEntity
  8
KC2梁点線
  6
Continuous
 62
     3
370
     9
100
AcDbLine
 10
-460.269841374577
 20
1381.351351351352
 30
0.0
 11
-460.269841374577
 21
-18.64864864864842
 31
0.0
  0
LINE
  5
AF
330
1F
100
AcDbEntity
  8
KC2梁点線
  6
Continuous
 62
     3
370
     9
100
AcDbLine
 10
-580.269841374577
 20
1381.351351351352
 30
0.0
 11
-580.269841374577
 21
-18.64864864864842
 31
0.0
  0
LINE
  5
B0
330
1F
100
AcDbEntity
  8
KC2梁点線
  6
Continuous
 62
     3
370
     9
100
AcDbLine
 10
-580.269841374577
 20
1381.351351351352
 30
0.0
 11
-460.269841374577
 21
1381.351351351352
 31
0.0
  0
LINE
  5
B1
330
1F
100
AcDbEntity
  8
KC2梁点線
  6
Continuous
 62
     3
370
     9
100
AcDbLine
 10
-580.269841374577
 20
-18.64864864864842
 30
0.0
 11
-460.269841374577
 21
-18.64864864864842
 31
0.0
  0
LINE
  5
B2
330
1F
100
AcDbEntity
  8
KC2梁点線
  6
Continuous
 62
     3
370
     9
100
AcDbLine
 10
-760.269841374577
 20
1381.351351351352
 30
0.0
 11
-760.269841374577
 21
-18.64864864864842
 31
0.0
  0
LINE
  5
B3
330
1F
100
AcDbEntity
  8
KC2梁点線
  6
Continuous
 62
     3
370
     9
100
AcDbLine
 10
-760.269841374577
 20
1381.351351351352
 30
0.0
 11
-640.269841374577
 21
1381.351351351352
 31
0.0
  0
LINE
  5
B4
330
1F
100
AcDbEntity
  8
KC2梁点線
  6
Continuous
 62
     3
370
     9
100
AcDbLine
 10
-760.269841374577
 20
-18.64864864864842
 30
0.0
 11
-640.269841374577
 21
-18.64864864864842
 31
0.0
  0
LINE
  5
B5
330
1F
100
AcDbEntity
  8
KC2梁点線
  6
Continuous
 62
     3
370
     9
100
AcDbLine
 10
-820.269841374577
 20
1381.351351351352
 30
0.0
 11
-820.269841374577
 21
-18.64864864864842
 31
0.0
  0
LINE
  5
B6
330
1F
100
AcDbEntity
  8
KC2梁点線
  6
Continuous
 62
     3
370
     9
100
AcDbLine
 10
-940.269841374577
 20
1381.351351351352
 30
0.0
 11
-940.269841374577
 21
-18.64864864864842
 31
0.0
  0
LINE
  5
B7
330
1F
100
AcDbEntity
  8
KC2梁点線
  6
Continuous
 62
     3
370
     9
100
AcDbLine
 10
-940.269841374577
 20
1381.351351351352
 30
0.0
 11
-820.269841374577
 21
1381.351351351352
 31
0.0
  0
LINE
  5
B8
330
1F
100
AcDbEntity
  8
KC2梁点線
  6
Continuous
 62
     3
370
     9
100
AcDbLine
 10
-940.269841374577
 20
-18.64864864864842
 30
0.0
 11
-820.269841374577
 21
-18.64864864864842
 31
0.0
  0
LINE
  5
B9
330
1F
100
AcDbEntity
  8
KC2梁点線
  6
Continuous
 62
     3
370
     9
100
AcDbLine
 10
-1000.269841374577
 20
1381.351351351352
 30
0.0
 11
-1000.269841374577
 21
-18.64864864864842
 31
0.0
  0
LINE
  5
BA
330
1F
100
AcDbEntity
  8
KC2梁点線
  6
Continuous
 62
     3
370
     9
100
AcDbLine
 10
-1120.269841374577
 20
1381.351351351352
 30
0.0
 11
-1120.269841374577
 21
-18.64864864864842
 31
0.0
  0
LINE
  5
BB
330
1F
100
AcDbEntity
  8
KC2梁点線
  6
Continuous
 62
     3
370
     9
100
AcDbLine
 10
-1120.269841374577
 20
1381.351351351352
 30
0.0
 11
-1000.269841374577
 21
1381.351351351352
 31
0.0
  0
LINE
  5
BC
330
1F
100
AcDbEntity
  8
KC2梁点線
  6
Continuous
 62
     3
370
     9
100
AcDbLine
 10
-1120.269841374577
 20
-18.64864864864842
 30
0.0
 11
-1000.269841374577
 21
-18.64864864864842
 31
0.0
  0
LINE
  5
BD
330
1F
100
AcDbEntity
  8
KC2梁点線
  6
Continuous
 62
     3
370
     9
100
AcDbLine
 10
-1180.269841374577
 20
1381.351351351352
 30
0.0
 11
-1180.269841374577
 21
-18.64864864864842
 31
0.0
  0
LINE
  5
BE
330
1F
100
AcDbEntity
  8
KC2梁点線
  6
Continuous
 62
     3
370
     9
100
AcDbLine
 10
-1300.269841374577
 20
1381.351351351352
 30
0.0
 11
-1300.269841374577
 21
-18.64864864864842
 31
0.0
  0
LINE
  5
BF
330
1F
100
AcDbEntity
  8
KC2梁点線
  6
Continuous
 62
     3
370
     9
100
AcDbLine
 10
-1300.269841374577
 20
1381.351351351352
 30
0.0
 11
-1180.269841374577
 21
1381.351351351352
 31
0.0
  0
LINE
  5
C0
330
1F
100
AcDbEntity
  8
KC2梁点線
  6
Continuous
 62
     3
370
     9
100
AcDbLine
 10
-1300.269841374577
 20
-18.64864864864842
 30
0.0
 11
-1180.269841374577
 21
-18.64864864864842
 31
0.0
  0
LINE
  5
C1
330
1F
100
AcDbEntity
  8
KC2梁点線
  6
Continuous
 62
     3
370
     9
100
AcDbLine
 10
-1360.269841374577
 20
1381.351351351352
 30
0.0
 11
-1360.269841374577
 21
-18.64864864864842
 31
0.0
  0
LINE
  5
C2
330
1F
100
AcDbEntity
  8
KC2梁点線
  6
Continuous
 62
     3
370
     9
100
AcDbLine
 10
-1480.269841374577
 20
1381.351351351352
 30
0.0
 11
-1480.269841374577
 21
-18.64864864864842
 31
0.0
  0
LINE
  5
C3
330
1F
100
AcDbEntity
  8
KC2梁点線
  6
Continuous
 62
     3
370
     9
100
AcDbLine
 10
-1480.269841374577
 20
1381.351351351352
 30
0.0
 11
-1360.269841374577
 21
1381.351351351352
 31
0.0
  0
LINE
  5
C4
330
1F
100
AcDbEntity
  8
KC2梁点線
  6
Continuous
 62
     3
370
     9
100
AcDbLine
 10
-1480.269841374577
 20
-18.64864864864842
 30
0.0
 11
-1360.269841374577
 21
-18.64864864864842
 31
0.0
  0
LINE
  5
C5
330
1F
100
AcDbEntity
  8
KC2梁点線
  6
Continuous
 62
     3
370
     9
100
AcDbLine
 10
-1540.269841374577
 20
1381.351351351352
 30
0.0
 11
-1540.269841374577
 21
-18.64864864864842
 31
0.0
  0
LINE
  5
C6
330
1F
100
AcDbEntity
  8
KC2梁点線
  6
Continuous
 62
     3
370
     9
100
AcDbLine
 10
-1660.269841374577
 20
1381.351351351352
 30
0.0
 11
-1660.269841374577
 21
-18.64864864864842
 31
0.0
  0
LINE
  5
C7
330
1F
100
AcDbEntity
  8
KC2梁点線
  6
Continuous
 62
     3
370
     9
100
AcDbLine
 10
-1660.269841374577
 20
1381.351351351352
 30
0.0
 11
-1540.269841374577
 21
1381.351351351352
 31
0.0
  0
LINE
  5
C8
330
1F
100
AcDbEntity
  8
KC2梁点線
  6
Continuous
 62
     3
370
     9
100
AcDbLine
 10
-1660.269841374577
 20
-18.64864864864842
 30
0.0
 11
-1540.269841374577
 21
-18.64864864864842
 31
0.0
  0
LINE
  5
C9
330
1F
100
AcDbEntity
  8
KC2梁点線
  6
Continuous
 62
     3
370
     9
100
AcDbLine
 10
-1720.269841374577
 20
1381.351351351352
 30
0.0
 11
-1720.269841374577
 21
-18.64864864864842
 31
0.0
  0
LINE
  5
CA
330
1F
100
AcDbEntity
  8
KC2梁点線
  6
Continuous
 62
     3
370
     9
100
AcDbLine
 10
-1840.269841374577
 20
1381.351351351352
 30
0.0
 11
-1840.269841374577
 21
-18.64864864864842
 31
0.0
  0
LINE
  5
CB
330
1F
100
AcDbEntity
  8
KC2梁点線
  6
Continuous
 62
     3
370
     9
100
AcDbLine
 10
-1840.269841374577
 20
1381.351351351352
 30
0.0
 11
-1720.269841374577
 21
1381.351351351352
 31
0.0
  0
LINE
  5
CC
330
1F
100
AcDbEntity
  8
KC2梁点線
  6
Continuous
 62
     3
370
     9
100
AcDbLine
 10
-1840.269841374577
 20
-18.64864864864842
 30
0.0
 11
-1720.269841374577
 21
-18.64864864864842
 31
0.0
  0
LINE
  5
CD
330
1F
100
AcDbEntity
  8
KC2梁点線
  6
Continuous
 62
     3
370
     9
100
AcDbLine
 10
-1900.269841374577
 20
1381.351351351352
 30
0.0
 11
-1900.269841374577
 21
-18.64864864864842
 31
0.0
  0
LINE
  5
CE
330
1F
100
AcDbEntity
  8
KC2梁点線
  6
Continuous
 62
     3
370
     9
100
AcDbLine
 10
-2020.269841374577
 20
1381.351351351352
 30
0.0
 11
-2020.269841374577
 21
-18.64864864864842
 31
0.0
  0
LINE
  5
CF
330
1F
100
AcDbEntity
  8
KC2梁点線
  6
Continuous
 62
     3
370
     9
100
AcDbLine
 10
-2020.269841374577
 20
1381.351351351352
 30
0.0
 11
-1900.269841374577
 21
1381.351351351352
 31
0.0
  0
LINE
  5
D0
330
1F
100
AcDbEntity
  8
KC2梁点線
  6
Continuous
 62
     3
370
     9
100
AcDbLine
 10
-2020.269841374577
 20
-18.64864864864842
 30
0.0
 11
-1900.269841374577
 21
-18.64864864864842
 31
0.0
  0
LINE
  5
D1
330
1F
100
AcDbEntity
  8
IF共通金物
  6
JWW_CENTER2
 62
     7
370
     9
100
AcDbLine
 10
2708.108108108108
 20
681.3513513513516
 30
0.0
 11
2983.783783783784
 21
681.3513513513516
 31
0.0
  0
LINE
  5
D2
330
1F
100
AcDbEntity
  8
KC2梁点線
  6
Continuous
 62
     3
370
     9
100
AcDbLine
 10
144.7300596695526
 20
-168.6486486486484
 30
0.0
 11
2029.730059649494
 21
-168.6486486486484
 31
0.0
  0
ARC
  5
D3
330
1F
100
AcDbEntity
  8
KC2梁点線
  6
Continuous
 62
     3
370
     9
100
AcDbCircle
 10
144.7300596695526
 20
-183.6486486486484
 30
0.0
 40
15.0
100
AcDbArc
 50
90.0
 51
180.0
  0
LINE
  5
D4
330
1F
100
AcDbEntity
  8
KC2梁点線
  6
Continuous
 62
     3
370
     9
100
AcDbLine
 10
-285.2699403304474
 20
-168.6486486486484
 30
0.0
 11
-2170.269940350506
 21
-168.6486486486484
 31
0.0
  0
ARC
  5
D5
330
1F
100
AcDbEntity
  8
KC2梁点線
  6
Continuous
 62
     3
370
     9
100
AcDbCircle
 10
-285.2699403304474
 20
-183.6486486486484
 30
0.0
 40
15.0
100
AcDbArc
 50
0.0
 51
90.00000000000001
  0
LINE
  5
D6
330
1F
100
AcDbEntity
  8
IE2鉄骨階段
  6
Continuous
 62
     7
370
     9
100
AcDbLine
 10
-2170.269940350506
 20
-646.9906953515634
 30
0.0
 11
2029.730059649494
 21
-646.9906953515634
 31
0.0
  0
LINE
  5
D7
330
1F
100
AcDbEntity
  8
IE2鉄骨階段
  6
Continuous
 62
     7
370
     9
100
AcDbLine
 10
-2170.269940350506
 20
-646.9906953515634
 30
0.0
 11
-2120.697697281816
 21
-640.4643857405608
 31
0.0
  0
LINE
  5
D8
330
1F
100
AcDbEntity
  8
IE2鉄骨階段
  6
Continuous
 62
     7
370
     9
100
AcDbLine
 10
-2170.269940350506
 20
-646.9906953515634
 30
0.0
 11
-2120.697697281816
 21
-653.517004962566
 31
0.0
  0
LINE
  5
D9
330
1F
100
AcDbEntity
  8
IE2鉄骨階段
  6
Continuous
 62
     7
370
     9
100
AcDbLine
 10
2029.730059649494
 20
-646.9906953515634
 30
0.0
 11
1980.157816580803
 21
-640.4643857405608
 31
0.0
  0
LINE
  5
DA
330
1F
100
AcDbEntity
  8
IE2鉄骨階段
  6
Continuous
 62
     7
370
     9
100
AcDbLine
 10
2029.730059649494
 20
-646.9906953515634
 30
0.0
 11
1980.157816580803
 21
-653.517004962566
 31
0.0
  0
LINE
  5
DB
330
1F
100
AcDbEntity
  8
IE2鉄骨階段
  6
Continuous
 62
     7
370
     9
100
AcDbLine
 10
-2170.269940350506
 20
-652.990695589982
 30
0.0
 11
-2170.269940350506
 21
-208.6486486486484
 31
0.0
  0
LINE
  5
DC
330
1F
100
AcDbEntity
  8
IE2鉄骨階段
  6
Continuous
 62
     7
370
     9
100
AcDbLine
 10
2029.730059649494
 20
-652.990695589982
 30
0.0
 11
2029.730059649494
 21
-208.6486486486484
 31
0.0
  0
TEXT
  5
DD
330
1F
100
AcDbEntity
  8
IE2鉄骨階段
  6
Continuous
 62
     2
370
   211
100
AcDbText
 10
-135.2699403505062
 20
-623.7106948747263
 30
0.0
 40
60.96000000000001
  1
420
 41
1.083333333333333
  7
ＭＳ ゴシック
100
AcDbText
  0
LINE
  5
DE
330
1F
100
AcDbEntity
  8
KC2梁点線
  6
Continuous
 62
     3
370
     9
100
AcDbLine
 10
129.7300596695527
 20
1631.351433831293
 30
0.0
 11
-270.2699403304473
 21
1631.351433831293
 31
0.0
  0
LINE
  5
DF
330
1F
100
AcDbEntity
  8
KC2梁点線
  6
Continuous
 62
     3
370
     9
100
AcDbLine
 10
129.7300596695527
 20
1546.351351351351
 30
0.0
 11
129.7300596695527
 21
1631.351433831293
 31
0.0
  0
ARC
  5
E0
330
1F
100
AcDbEntity
  8
KC2梁点線
  6
Continuous
 62
     3
370
     9
100
AcDbCircle
 10
144.7300596695527
 20
1546.351351351351
 30
0.0
 40
15.0
100
AcDbArc
 50
180.0
 51
270.0
  0
LINE
  5
E1
330
1F
100
AcDbEntity
  8
KC2梁点線
  6
Continuous
 62
     3
370
     9
100
AcDbLine
 10
-270.2699403304473
 20
1546.351351351351
 30
0.0
 11
-270.2699403304473
 21
1631.351433831293
 31
0.0
  0
ARC
  5
E2
330
1F
100
AcDbEntity
  8
KC2梁点線
  6
Continuous
 62
     3
370
     9
100
AcDbCircle
 10
-285.2699403304473
 20
1546.351351351351
 30
0.0
 40
15.0
100
AcDbArc
 50
270.0
 51
0.0
  0
LINE
  5
E3
330
1F
100
AcDbEntity
  8
KC2梁点線
  6
Continuous
 62
     3
370
     9
100
AcDbLine
 10
-2170.269940350506
 20
1531.351351351352
 30
0.0
 11
-285.2699403304473
 21
1531.351351351352
 31
0.0
  0
LINE
  5
E4
330
1F
100
AcDbEntity
  8
KC2梁点線
  6
Continuous
 62
     3
370
     9
100
AcDbLine
 10
144.7300596695527
 20
1531.351351351352
 30
0.0
 11
2029.730059649494
 21
1531.351351351352
 31
0.0
  0
LINE
  5
E5
330
1F
100
AcDbEntity
  8
KC2梁点線
  6
Continuous
 62
     3
370
     9
100
AcDbLine
 10
2119.730059649494
 20
-1153.783783783784
 30
0.0
 11
2115.0133606389
 21
-1243.783783783784
 31
0.0
  0
LINE
  5
E6
330
1F
100
AcDbEntity
  8
KC2梁点線
  6
Continuous
 62
     3
370
     9
100
AcDbLine
 10
-2270.269527950802
 20
-1153.783783783784
 30
0.0
 11
2119.730059649494
 21
-1153.783783783784
 31
0.0
  0
LINE
  5
E7
330
1F
100
AcDbEntity
  8
IE2鉄骨階段
  6
Continuous
 62
     7
370
     9
100
AcDbLine
 10
2458.171469051364
 20
-1243.783783783784
 30
0.0
 11
2155.0133606389
 21
-1243.783783783784
 31
0.0
  0
LINE
  5
E8
330
1F
100
AcDbEntity
  8
IE2鉄骨階段
  6
Continuous
 62
     7
370
     9
100
AcDbLine
 10
2458.171469051364
 20
-1153.783783783784
 30
0.0
 11
2159.730059649494
 21
-1153.783783783784
 31
0.0
  0
TEXT
  5
E9
330
1F
100
AcDbEntity
  8
IE2鉄骨階段
  6
Continuous
 62
     2
370
   211
100
AcDbText
 10
2428.891468336108
 20
-1218.783783783784
 30
0.0
 40
60.96000000000001
  1
9
 50
90.0
 41
0.9999999999999998
  7
ＭＳ ゴシック
100
AcDbText
  0
LINE
  5
EA
330
1F
100
AcDbEntity
  8
IE2鉄骨階段
  6
Continuous
 62
     7
370
     9
100
AcDbLine
 10
2452.171468812945
 20
-1153.783783783784
 30
0.0
 11
2445.645159201943
 21
-1104.211540715093
 31
0.0
  0
LINE
  5
EB
330
1F
100
AcDbEntity
  8
IE2鉄骨階段
  6
Continuous
 62
     7
370
     9
100
AcDbLine
 10
2452.171468812945
 20
-1153.783783783784
 30
0.0
 11
2458.697778423948
 21
-1104.211540715093
 31
0.0
  0
LINE
  5
EC
330
1F
100
AcDbEntity
  8
IE2鉄骨階段
  6
Continuous
 62
     7
370
     9
100
AcDbLine
 10
2452.171468812945
 20
-1243.783783783784
 30
0.0
 11
2445.645159201943
 21
-1293.356026852474
 31
0.0
  0
LINE
  5
ED
330
1F
100
AcDbEntity
  8
IE2鉄骨階段
  6
Continuous
 62
     7
370
     9
100
AcDbLine
 10
2452.171468812945
 20
-1243.783783783784
 30
0.0
 11
2458.697778423948
 21
-1293.356026852474
 31
0.0
  0
LINE
  5
EE
330
1F
100
AcDbEntity
  8
IE2鉄骨階段
  6
Continuous
 62
     7
370
     9
100
AcDbLine
 10
2452.171468812945
 20
-1325.088885903388
 30
0.0
 11
2452.171468812945
 21
-1075.160700448016
 31
0.0
  0
LINE
  5
EF
330
1F
100
AcDbEntity
  8
IE2鉄骨階段
  6
Continuous
 62
     7
370
     9
100
AcDbLine
 10
799.730158625423
 20
-354.7182094845966
 30
0.0
 11
799.730158625423
 21
-58.64864864864842
 31
0.0
  0
LINE
  5
F0
330
1F
100
AcDbEntity
  8
IE2鉄骨階段
  6
Continuous
 62
     7
370
     9
100
AcDbLine
 10
859.730158625423
 20
-354.7182094845966
 30
0.0
 11
859.730158625423
 21
-58.64864864864842
 31
0.0
  0
LINE
  5
F1
330
1F
100
AcDbEntity
  8
IE2鉄骨階段
  6
Continuous
 62
     7
370
     9
100
AcDbLine
 10
979.730158625423
 20
-354.7182094845966
 30
0.0
 11
979.730158625423
 21
-58.64864864864842
 31
0.0
  0
TEXT
  5
F2
330
1F
100
AcDbEntity
  8
IE2鉄骨階段
  6
Continuous
 62
     2
370
   211
100
AcDbText
 10
877.230158625423
 20
-325.4382087693409
 30
0.0
 40
60.96000000000001
  1
12
 41
1.0625
  7
ＭＳ ゴシック
100
AcDbText
  0
LINE
  5
F3
330
1F
100
AcDbEntity
  8
IE2鉄骨階段
  6
Continuous
 62
     7
370
     9
100
AcDbLine
 10
799.730158625423
 20
-348.718209246178
 30
0.0
 11
750.1579155567324
 21
-342.1918996351755
 31
0.0
  0
LINE
  5
F4
330
1F
100
AcDbEntity
  8
IE2鉄骨階段
  6
Continuous
 62
     7
370
     9
100
AcDbLine
 10
799.730158625423
 20
-348.718209246178
 30
0.0
 11
750.1579155567324
 21
-355.2445188571807
 31
0.0
  0
LINE
  5
F5
330
1F
100
AcDbEntity
  8
IE2鉄骨階段
  6
Continuous
 62
     7
370
     9
100
AcDbLine
 10
707.2264308911502
 20
-348.718209246178
 30
0.0
 11
859.730158625423
 21
-348.718209246178
 31
0.0
  0
LINE
  5
F6
330
1F
100
AcDbEntity
  8
KC2梁点線
  6
Continuous
 62
     3
370
     9
100
AcDbLine
 10
129.7300596695526
 20
-258.6486486486484
 30
0.0
 11
-270.2699403304474
 21
-258.6486486486484
 31
0.0
  0
LINE
  5
F7
330
1F
100
AcDbEntity
  8
KC2梁点線
  6
Continuous
 62
     3
370
     9
100
AcDbLine
 10
129.7300596695526
 20
-183.6486486486484
 30
0.0
 11
129.7300596695526
 21
-258.6486486486484
 31
0.0
  0
LINE
  5
F8
330
1F
100
AcDbEntity
  8
KC2梁点線
  6
Continuous
 62
     3
370
     9
100
AcDbLine
 10
-270.2699403304474
 20
-183.6486486486484
 30
0.0
 11
-270.2699403304474
 21
-258.6486486486484
 31
0.0
  0
LINE
  5
F9
330
1F
100
AcDbEntity
  8
IE2鉄骨階段
  6
Continuous
 62
     7
370
     9
100
AcDbLine
 10
-270.2699403304474
 20
-446.3120546722248
 30
0.0
 11
129.7300596695526
 21
-446.3120546722248
 31
0.0
  0
LINE
  5
FA
330
1F
100
AcDbEntity
  8
IE2鉄骨階段
  6
Continuous
 62
     7
370
     9
100
AcDbLine
 10
-270.2699403304474
 20
-446.3120546722248
 30
0.0
 11
-220.6976972617568
 21
-439.7857450612222
 31
0.0
  0
LINE
  5
FB
330
1F
100
AcDbEntity
  8
IE2鉄骨階段
  6
Continuous
 62
     7
370
     9
100
AcDbLine
 10
-270.2699403304474
 20
-446.3120546722248
 30
0.0
 11
-220.6976972617568
 21
-452.8383642832273
 31
0.0
  0
LINE
  5
FC
330
1F
100
AcDbEntity
  8
IE2鉄骨階段
  6
Continuous
 62
     7
370
     9
100
AcDbLine
 10
129.7300596695526
 20
-446.3120546722248
 30
0.0
 11
80.15781660086212
 21
-439.7857450612222
 31
0.0
  0
LINE
  5
FD
330
1F
100
AcDbEntity
  8
IE2鉄骨階段
  6
Continuous
 62
     7
370
     9
100
AcDbLine
 10
129.7300596695526
 20
-446.3120546722248
 30
0.0
 11
80.15781660086212
 21
-452.8383642832273
 31
0.0
  0
LINE
  5
FE
330
1F
100
AcDbEntity
  8
IE2鉄骨階段
  6
Continuous
 62
     7
370
     9
100
AcDbLine
 10
-270.2699403304474
 20
-452.3120549106434
 30
0.0
 11
-270.2699403304474
 21
-298.6486486486484
 31
0.0
  0
LINE
  5
FF
330
1F
100
AcDbEntity
  8
IE2鉄骨階段
  6
Continuous
 62
     7
370
     9
100
AcDbLine
 10
129.7300596695526
 20
-452.3120549106434
 30
0.0
 11
129.7300596695526
 21
-298.6486486486484
 31
0.0
  0
TEXT
  5
100
330
1F
100
AcDbEntity
  8
IE2鉄骨階段
  6
Continuous
 62
     2
370
   211
100
AcDbText
 10
-112.7699403304474
 20
-423.0320541953877
 30
0.0
 40
60.96000000000001
  1
40
 41
1.0625
  7
ＭＳ ゴシック
100
AcDbText
  0
LINE
  5
101
330
1F
100
AcDbEntity
  8
IF共通金物
  6
JWW_CENTER2
 62
     7
370
     9
100
AcDbLine
 10
-70.26994033044737
 20
1720.750118493133
 30
0.0
 11
-70.26994033044737
 21
-301.336575852921
 31
0.0
  0
LINE
  5
102
330
1F
100
AcDbEntity
  8
IE2鉄骨階段
  6
Continuous
 62
     7
370
     9
100
AcDbLine
 10
-423.0353833907064
 20
-168.6486486486484
 30
0.0
 11
-429.561693001709
 21
-119.0764055799579
 31
0.0
  0
LINE
  5
103
330
1F
100
AcDbEntity
  8
IE2鉄骨階段
  6
Continuous
 62
     7
370
     9
100
AcDbLine
 10
-423.0353833907064
 20
-168.6486486486484
 30
0.0
 11
-416.5090737797038
 21
-119.0764055799579
 31
0.0
  0
LINE
  5
104
330
1F
100
AcDbEntity
  8
IE2鉄骨階段
  6
Continuous
 62
     7
370
     9
100
AcDbLine
 10
-423.0353833907064
 20
-258.6486486486484
 30
0.0
 11
-429.561693001709
 21
-308.2208917173389
 31
0.0
  0
LINE
  5
105
330
1F
100
AcDbEntity
  8
IE2鉄骨階段
  6
Continuous
 62
     7
370
     9
100
AcDbLine
 10
-423.0353833907064
 20
-258.6486486486484
 30
0.0
 11
-416.5090737797038
 21
-308.2208917173389
 31
0.0
  0
LINE
  5
106
330
1F
100
AcDbEntity
  8
IE2鉄骨階段
  6
Continuous
 62
     7
370
     9
100
AcDbLine
 10
-429.035383629125
 20
-258.6486486486484
 30
0.0
 11
-310.2699403304474
 21
-258.6486486486484
 31
0.0
  0
TEXT
  5
107
330
1F
100
AcDbEntity
  8
IE2鉄骨階段
  6
Continuous
 62
     2
370
   211
100
AcDbText
 10
-446.3153838675436
 20
-233.6486486486484
 30
0.0
 40
60.96000000000001
  1
9
 50
90.0
 41
0.9999999999999998
  7
ＭＳ ゴシック
100
AcDbText
  0
LINE
  5
108
330
1F
100
AcDbEntity
  8
IE2鉄骨階段
  6
Continuous
 62
     7
370
     9
100
AcDbLine
 10
-423.0353833907064
 20
-84.31411328501994
 30
0.0
 11
-423.0353833907064
 21
-340.2112895877281
 31
0.0
  0
LINE
  5
109
330
1F
100
AcDbEntity
  8
IE2鉄骨階段
  6
Continuous
 62
     7
370
     9
100
AcDbLine
 10
292.9699773015204
 20
1923.479683540962
 30
0.0
 11
129.7300596695527
 21
1631.351433831293
 31
0.0
  0
LINE
  5
10A
330
1F
100
AcDbEntity
  8
IE2鉄骨階段
  6
Continuous
 62
     7
370
     9
100
AcDbLine
 10
129.7300596695527
 20
1631.351433831293
 30
0.0
 11
148.2143627482204
 21
1677.809269980816
 31
0.0
  0
LINE
  5
10B
330
1F
100
AcDbEntity
  8
IE2鉄骨階段
  6
Continuous
 62
     7
370
     9
100
AcDbLine
 10
129.7300596695527
 20
1631.351433831293
 30
0.0
 11
159.6086981839413
 21
1671.442167929416
 31
0.0
  0
ARC
  5
10C
330
1F
100
AcDbEntity
  8
KC2梁点線
  6
Continuous
 62
     3
370
     9
100
AcDbCircle
 10
-2185.269989838471
 20
896.3514008393162
 30
0.0
 40
15.00000019331236
100
AcDbArc
 50
270.0
 51
0.0
  0
LINE
  5
10D
330
1F
100
AcDbEntity
  8
KC2梁点線
  6
Continuous
 62
     3
370
     9
100
AcDbLine
 10
-2170.269940350506
 20
896.3514008393162
 30
0.0
 11
-2170.269940350506
 21
1531.351351351352
 31
0.0
  0
LINE
  5
10E
330
1F
100
AcDbEntity
  8
KC2梁点線
  6
Continuous
 62
     3
370
     9
100
AcDbLine
 10
-2185.269989838471
 20
881.3513513513516
 30
0.0
 11
-2260.269940350506
 21
881.3513513513516
 31
0.0
  0
LINE
  5
10F
330
1F
100
AcDbEntity
  8
KC2梁点線
  6
Continuous
 62
     3
370
     9
100
AcDbLine
 10
-2170.269940350506
 20
466.351301863387
 30
0.0
 11
-2170.269940350506
 21
-168.6486486486484
 31
0.0
  0
ARC
  5
110
330
1F
100
AcDbEntity
  8
KC2梁点線
  6
Continuous
 62
     3
370
     9
100
AcDbCircle
 10
-2185.269989838471
 20
466.351301863387
 30
0.0
 40
15.00000019331236
100
AcDbArc
 50
0.0
 51
90.0
  0
LINE
  5
111
330
1F
100
AcDbEntity
  8
KC2梁点線
  6
Continuous
 62
     3
370
     9
100
AcDbLine
 10
-2185.269989838471
 20
481.3513513513516
 30
0.0
 11
-2260.269940350506
 21
481.3513513513516
 31
0.0
  0
LINE
  5
112
330
1F
100
AcDbEntity
  8
KC2梁点線
  6
Continuous
 62
     3
370
     9
100
AcDbLine
 10
-2260.269940350506
 20
881.3513513513516
 30
0.0
 11
-2260.269940350506
 21
481.3513513513516
 31
0.0
  0
LINE
  5
113
330
1F
100
AcDbEntity
  8
IE2鉄骨階段
  6
Continuous
 62
     7
370
     9
100
AcDbLine
 10
-2475.412966171314
 20
481.3513513513516
 30
0.0
 11
-2475.412966171314
 21
881.3513513513516
 31
0.0
  0
LINE
  5
114
330
1F
100
AcDbEntity
  8
IE2鉄骨階段
  6
Continuous
 62
     7
370
     9
100
AcDbLine
 10
-2475.412966171314
 20
481.3513513513516
 30
0.0
 11
-2481.939275782317
 21
530.923594420042
 31
0.0
  0
LINE
  5
115
330
1F
100
AcDbEntity
  8
IE2鉄骨階段
  6
Continuous
 62
     7
370
     9
100
AcDbLine
 10
-2475.412966171314
 20
481.3513513513516
 30
0.0
 11
-2468.886656560311
 21
530.923594420042
 31
0.0
  0
LINE
  5
116
330
1F
100
AcDbEntity
  8
IE2鉄骨階段
  6
Continuous
 62
     7
370
     9
100
AcDbLine
 10
-2475.412966171314
 20
881.3513513513516
 30
0.0
 11
-2481.939275782317
 21
831.7791082826611
 31
0.0
  0
LINE
  5
117
330
1F
100
AcDbEntity
  8
IE2鉄骨階段
  6
Continuous
 62
     7
370
     9
100
AcDbLine
 10
-2475.412966171314
 20
881.3513513513516
 30
0.0
 11
-2468.886656560311
 21
831.7791082826611
 31
0.0
  0
LINE
  5
118
330
1F
100
AcDbEntity
  8
IE2鉄骨階段
  6
Continuous
 62
     7
370
     9
100
AcDbLine
 10
-2481.412966409733
 20
481.3513513513516
 30
0.0
 11
-2300.269940350506
 21
481.3513513513516
 31
0.0
  0
LINE
  5
119
330
1F
100
AcDbEntity
  8
IE2鉄骨階段
  6
Continuous
 62
     7
370
     9
100
AcDbLine
 10
-2481.412966409733
 20
881.3513513513516
 30
0.0
 11
-2300.269940350506
 21
881.3513513513516
 31
0.0
  0
TEXT
  5
11A
330
1F
100
AcDbEntity
  8
IE2鉄骨階段
  6
Continuous
 62
     2
370
   211
100
AcDbText
 10
-2498.692966648151
 20
638.8513513513516
 30
0.0
 40
60.96000000000001
  1
40
 50
90.0
 41
1.0625
  7
ＭＳ ゴシック
100
AcDbText
  0
LINE
  5
11B
330
1F
100
AcDbEntity
  8
IF共通金物
  6
JWW_CENTER2
 62
     7
370
     9
100
AcDbLine
 10
-2326.821626103624
 20
681.3513513513516
 30
0.0
 11
2220.968380489866
 21
681.3513513513516
 31
0.0
  0
LINE
  5
11C
330
1F
100
AcDbEntity
  8
IE2鉄骨階段
  6
Continuous
 62
     7
370
     9
100
AcDbLine
 10
2353.199764465947
 20
-168.6486486486484
 30
0.0
 11
2353.199764465947
 21
1531.351351351352
 31
0.0
  0
LINE
  5
11D
330
1F
100
AcDbEntity
  8
IE2鉄骨階段
  6
Continuous
 62
     7
370
     9
100
AcDbLine
 10
2353.199764465947
 20
-168.6486486486484
 30
0.0
 11
2346.673454854944
 21
-119.0764055799579
 31
0.0
  0
LINE
  5
11E
330
1F
100
AcDbEntity
  8
IE2鉄骨階段
  6
Continuous
 62
     7
370
     9
100
AcDbLine
 10
2353.199764465947
 20
-168.6486486486484
 30
0.0
 11
2359.726074076949
 21
-119.0764055799579
 31
0.0
  0
LINE
  5
11F
330
1F
100
AcDbEntity
  8
IE2鉄骨階段
  6
Continuous
 62
     7
370
     9
100
AcDbLine
 10
2353.199764465947
 20
1531.351351351352
 30
0.0
 11
2346.673454854944
 21
1481.779108282661
 31
0.0
  0
LINE
  5
120
330
1F
100
AcDbEntity
  8
IE2鉄骨階段
  6
Continuous
 62
     7
370
     9
100
AcDbLine
 10
2353.199764465947
 20
1531.351351351352
 30
0.0
 11
2359.726074076949
 21
1481.779108282661
 31
0.0
  0
LINE
  5
121
330
1F
100
AcDbEntity
  8
IE2鉄骨階段
  6
Continuous
 62
     7
370
     9
100
AcDbLine
 10
2359.199764704365
 20
-168.6486486486484
 30
0.0
 11
2069.730059649494
 21
-168.6486486486484
 31
0.0
  0
LINE
  5
122
330
1F
100
AcDbEntity
  8
IE2鉄骨階段
  6
Continuous
 62
     7
370
     9
100
AcDbLine
 10
2359.199764704365
 20
1531.351351351352
 30
0.0
 11
2069.730059649494
 21
1531.351351351352
 31
0.0
  0
TEXT
  5
123
330
1F
100
AcDbEntity
  8
IE2鉄骨階段
  6
Continuous
 62
     2
370
   211
100
AcDbText
 10
2329.919763989109
 20
616.3513513513516
 30
0.0
 40
60.96000000000001
  1
170
 50
90.0
 41
1.083333333333333
  7
ＭＳ ゴシック
100
AcDbText
  0
LINE
  5
124
330
1F
100
AcDbEntity
  8
IE2鉄骨階段
  6
Continuous
 62
     7
370
     9
100
AcDbLine
 10
-2639.917875820988
 20
-168.6486486486484
 30
0.0
 11
-2639.917875820988
 21
-18.64864864864842
 31
0.0
  0
LINE
  5
125
330
1F
100
AcDbEntity
  8
IE2鉄骨階段
  6
Continuous
 62
     7
370
     9
100
AcDbLine
 10
-2639.917875820988
 20
-168.6486486486484
 30
0.0
 11
-2646.444185431991
 21
-119.0764055799579
 31
0.0
  0
LINE
  5
126
330
1F
100
AcDbEntity
  8
IE2鉄骨階段
  6
Continuous
 62
     7
370
     9
100
AcDbLine
 10
-2639.917875820988
 20
-168.6486486486484
 30
0.0
 11
-2633.391566209985
 21
-119.0764055799579
 31
0.0
  0
LINE
  5
127
330
1F
100
AcDbEntity
  8
IE2鉄骨階段
  6
Continuous
 62
     7
370
     9
100
AcDbLine
 10
-2639.917875820988
 20
-18.64864864864842
 30
0.0
 11
-2646.444185431991
 21
-68.22089171733894
 31
0.0
  0
LINE
  5
128
330
1F
100
AcDbEntity
  8
IE2鉄骨階段
  6
Continuous
 62
     7
370
     9
100
AcDbLine
 10
-2639.917875820988
 20
-18.64864864864842
 30
0.0
 11
-2633.391566209985
 21
-68.22089171733894
 31
0.0
  0
LINE
  5
129
330
1F
100
AcDbEntity
  8
IE2鉄骨階段
  6
Continuous
 62
     7
370
     9
100
AcDbLine
 10
-2645.917876059407
 20
-168.6486486486484
 30
0.0
 11
-2210.269940350506
 21
-168.6486486486484
 31
0.0
  0
TEXT
  5
12A
330
1F
100
AcDbEntity
  8
IE2鉄骨階段
  6
Continuous
 62
     2
370
   211
100
AcDbText
 10
-2663.197876297826
 20
-136.1486486486484
 30
0.0
 40
60.96000000000001
  1
15
 50
90.0
 41
1.0625
  7
ＭＳ ゴシック
100
AcDbText
  0
LINE
  5
12B
330
1F
100
AcDbEntity
  8
IE2鉄骨階段
  6
Continuous
 62
     7
370
     9
100
AcDbLine
 10
-2639.917875820988
 20
-18.64864864864842
 30
0.0
 11
-2639.917875820988
 21
1381.351351351352
 31
0.0
  0
LINE
  5
12C
330
1F
100
AcDbEntity
  8
IE2鉄骨階段
  6
Continuous
 62
     7
370
     9
100
AcDbLine
 10
-2639.917875820988
 20
-18.64864864864842
 30
0.0
 11
-2646.444185431991
 21
30.9235944200421
 31
0.0
  0
LINE
  5
12D
330
1F
100
AcDbEntity
  8
IE2鉄骨階段
  6
Continuous
 62
     7
370
     9
100
AcDbLine
 10
-2639.917875820988
 20
-18.64864864864842
 30
0.0
 11
-2633.391566209985
 21
30.9235944200421
 31
0.0
  0
LINE
  5
12E
330
1F
100
AcDbEntity
  8
IE2鉄骨階段
  6
Continuous
 62
     7
370
     9
100
AcDbLine
 10
-2639.917875820988
 20
1381.351351351352
 30
0.0
 11
-2646.444185431991
 21
1331.779108282661
 31
0.0
  0
LINE
  5
12F
330
1F
100
AcDbEntity
  8
IE2鉄骨階段
  6
Continuous
 62
     7
370
     9
100
AcDbLine
 10
-2639.917875820988
 20
1381.351351351352
 30
0.0
 11
-2633.391566209985
 21
1331.779108282661
 31
0.0
  0
TEXT
  5
130
330
1F
100
AcDbEntity
  8
IE2鉄骨階段
  6
Continuous
 62
     2
370
   211
100
AcDbText
 10
-2663.197876297826
 20
616.3513513513516
 30
0.0
 40
60.96000000000001
  1
140
 50
90.0
 41
1.083333333333333
  7
ＭＳ ゴシック
100
AcDbText
  0
LINE
  5
131
330
1F
100
AcDbEntity
  8
IE2鉄骨階段
  6
Continuous
 62
     7
370
     9
100
AcDbLine
 10
-2639.917875820988
 20
1381.351351351352
 30
0.0
 11
-2639.917875820988
 21
1531.351351351352
 31
0.0
  0
LINE
  5
132
330
1F
100
AcDbEntity
  8
IE2鉄骨階段
  6
Continuous
 62
     7
370
     9
100
AcDbLine
 10
-2639.917875820988
 20
1381.351351351352
 30
0.0
 11
-2646.444185431991
 21
1430.923594420042
 31
0.0
  0
LINE
  5
133
330
1F
100
AcDbEntity
  8
IE2鉄骨階段
  6
Continuous
 62
     7
370
     9
100
AcDbLine
 10
-2639.917875820988
 20
1381.351351351352
 30
0.0
 11
-2633.391566209985
 21
1430.923594420042
 31
0.0
  0
LINE
  5
134
330
1F
100
AcDbEntity
  8
IE2鉄骨階段
  6
Continuous
 62
     7
370
     9
100
AcDbLine
 10
-2639.917875820988
 20
1531.351351351352
 30
0.0
 11
-2646.444185431991
 21
1481.779108282661
 31
0.0
  0
LINE
  5
135
330
1F
100
AcDbEntity
  8
IE2鉄骨階段
  6
Continuous
 62
     7
370
     9
100
AcDbLine
 10
-2639.917875820988
 20
1531.351351351352
 30
0.0
 11
-2633.391566209985
 21
1481.779108282661
 31
0.0
  0
LINE
  5
136
330
1F
100
AcDbEntity
  8
IE2鉄骨階段
  6
Continuous
 62
     7
370
     9
100
AcDbLine
 10
-2645.917876059407
 20
1531.351351351352
 30
0.0
 11
-2210.269940350506
 21
1531.351351351352
 31
0.0
  0
TEXT
  5
137
330
1F
100
AcDbEntity
  8
IE2鉄骨階段
  6
Continuous
 62
     2
370
   211
100
AcDbText
 10
-2663.197876297826
 20
1413.851351351352
 30
0.0
 40
60.96000000000001
  1
15
 50
90.0
 41
1.0625
  7
ＭＳ ゴシック
100
AcDbText
  0
LINE
  5
138
330
1F
100
AcDbEntity
  8
IE2鉄骨階段
  6
Continuous
 62
     7
370
     9
100
AcDbLine
 10
-2645.917876059407
 20
1381.351351351352
 30
0.0
 11
-2210.269940350506
 21
1381.351351351352
 31
0.0
  0
LINE
  5
139
330
1F
100
AcDbEntity
  8
IE2鉄骨階段
  6
Continuous
 62
     7
370
     9
100
AcDbLine
 10
-2645.917876059407
 20
-18.64864864864842
 30
0.0
 11
-2210.269940350506
 21
-18.64864864864845
 31
0.0
  0
LINE
  5
13A
330
1F
100
AcDbEntity
  8
IE2鉄骨階段
  6
Continuous
 62
     7
370
     9
100
AcDbLine
 10
2119.730059649494
 20
277.9418201219693
 30
0.0
 11
2119.730059649494
 21
441.3513513513516
 31
0.0
  0
TEXT
  5
13B
330
1F
100
AcDbEntity
  8
IE2鉄骨階段
  6
Continuous
 62
     2
370
   211
100
AcDbText
 10
2054.730059649494
 20
307.2218201219692
 30
0.0
 40
60.96000000000001
  1
9
 41
0.9999999999999998
  7
ＭＳ ゴシック
100
AcDbText
  0
LINE
  5
13C
330
1F
100
AcDbEntity
  8
IE2鉄骨階段
  6
Continuous
 62
     7
370
     9
100
AcDbLine
 10
2119.730059649494
 20
283.9418201219693
 30
0.0
 11
2169.302302718184
 21
290.4681297329719
 31
0.0
  0
LINE
  5
13D
330
1F
100
AcDbEntity
  8
IE2鉄骨階段
  6
Continuous
 62
     7
370
     9
100
AcDbLine
 10
2119.730059649494
 20
283.9418201219693
 30
0.0
 11
2169.302302718184
 21
277.4155105109667
 31
0.0
  0
LINE
  5
13E
330
1F
100
AcDbEntity
  8
IE2鉄骨階段
  6
Continuous
 62
     7
370
     9
100
AcDbLine
 10
2029.730059649494
 20
283.9418201219693
 30
0.0
 11
1980.157816580803
 21
290.4681297329719
 31
0.0
  0
LINE
  5
13F
330
1F
100
AcDbEntity
  8
IE2鉄骨階段
  6
Continuous
 62
     7
370
     9
100
AcDbLine
 10
2029.730059649494
 20
283.9418201219693
 30
0.0
 11
1980.157816580803
 21
277.4155105109667
 31
0.0
  0
LINE
  5
140
330
1F
100
AcDbEntity
  8
IE2鉄骨階段
  6
Continuous
 62
     7
370
     9
100
AcDbLine
 10
1949.132251364849
 20
283.9418201219693
 30
0.0
 11
2183.488646547257
 21
283.9418201219693
 31
0.0
  0
LINE
  5
141
330
1F
100
AcDbEntity
  8
IE2鉄骨階段
  6
Continuous
 62
     7
370
     9
100
AcDbLine
 10
292.9699773015204
 20
1923.479683540962
 30
0.0
 11
963.2989602802936
 21
1923.479683540962
 31
0.0
  0
TEXT
  5
142
330
1F
100
AcDbEntity
  8
IE2鉄骨階段
  6
Continuous
 62
     2
370
     9
100
AcDbText
 10
408.134468790907
 20
1835.87157694492
 30
0.0
 40
60.96000000000001
  1
樹脂系塗装
 41
1.1
  7
ＭＳ ゴシック
100
AcDbText
  0
TEXT
  5
143
330
1F
100
AcDbEntity
  8
IE2鉄骨階段
  6
Continuous
 62
     2
370
     9
100
AcDbText
 10
318.134468790907
 20
1952.887962074337
 30
0.0
 40
60.96000000000001
  1
蓋：ＦＣ２００
 41
1.107142857142857
  7
ＭＳ ゴシック
100
AcDbText
  0
LINE
  5
144
330
1F
100
AcDbEntity
  8
IE2鉄骨階段
  6
Continuous
 62
     7
370
     9
100
AcDbLine
 10
979.730158625423
 20
-348.718209246178
 30
0.0
 11
1029.302401694114
 21
-342.1918996351755
 31
0.0
  0
LINE
  5
145
330
1F
100
AcDbEntity
  8
IE2鉄骨階段
  6
Continuous
 62
     7
370
     9
100
AcDbLine
 10
979.730158625423
 20
-348.718209246178
 30
0.0
 11
1029.302401694114
 21
-355.2445188571807
 31
0.0
  0
LINE
  5
146
330
1F
100
AcDbEntity
  8
IE2鉄骨階段
  6
Continuous
 62
     7
370
     9
100
AcDbLine
 10
859.730158625423
 20
-348.718209246178
 30
0.0
 11
1066.750242036351
 21
-348.718209246178
 31
0.0
  0
LWPOLYLINE
  5
147
330
1F
100
AcDbEntity
  8
JY2備品1
  6
Continuous
 62
     7
370
     9
100
AcDbPolyline
 90
        4
 70
     1
 43
2.0
 10
860.730158625423
 20
-348.718209246178
 42
0.4142135623731
 10
859.730158625423
 20
-347.718209246178
 42
0.4142135623731
 10
858.730158625423
 20
-348.718209246178
 42
0.4142135623731
 10
859.730158625423
 20
-349.7182092461781
 42
0.4142135623731
  0
TEXT
  5
148
330
1F
100
AcDbEntity
  8
IE2鉄骨階段
  6
Continuous
 62
     2
370
   211
100
AcDbText
 10
728.6667876186666
 20
-325.4382087693409
 30
0.0
 40
60.96000000000001
  1
6
 41
0.9999999999999998
  7
ＭＳ ゴシック
100
AcDbText
  0
TEXT
  5
149
330
1F
100
AcDbEntity
  8
F-5ﾚｲﾔ
  6
Continuous
 62
     2
370
     9
100
AcDbText
 10
-1242.500453639675
 20
-2694.936591499947
 30
0.0
 40
60.96000000000001
  1
床下換気孔　ＵＡ １７０×４２０
 41
1.116935483870968
  7
ＭＳ ゴシック
100
AcDbText
  0
LINE
  5
14A
330
1F
100
AcDbEntity
  8
KC2梁点線
  6
Continuous
 62
     3
370
     9
100
AcDbLine
 10
2821.621621621622
 20
-18.64864864864842
 30
0.0
 11
2911.621621621622
 21
-28.64864864864842
 31
0.0
  0
LINE
  5
14B
330
1F
100
AcDbEntity
  8
KC2梁点線
  6
Continuous
 62
     3
370
     9
100
AcDbLine
 10
2821.621621621622
 20
-258.6486486486484
 30
0.0
 11
2911.621621621622
 21
-253.9319663108446
 31
0.0
  0
LINE
  5
14C
330
1F
100
AcDbEntity
  8
IE2鉄骨階段
  6
Continuous
 62
     7
370
     9
100
AcDbLine
 10
2821.621621621622
 20
-428.6403631431257
 30
0.0
 11
2821.621621621622
 21
-298.6486486486484
 31
0.0
  0
LINE
  5
14D
330
1F
100
AcDbEntity
  8
IE2鉄骨階段
  6
Continuous
 62
     7
370
     9
100
AcDbLine
 10
2911.621621621622
 20
-428.6403631431257
 30
0.0
 11
2911.621621621622
 21
-293.9319663108446
 31
0.0
  0
TEXT
  5
14E
330
1F
100
AcDbEntity
  8
IE2鉄骨階段
  6
Continuous
 62
     2
370
   211
100
AcDbText
 10
2846.621621621622
 20
-399.36036242787
 30
0.0
 40
60.96000000000001
  1
9
 41
0.9999999999999998
  7
ＭＳ ゴシック
100
AcDbText
  0
LINE
  5
14F
330
1F
100
AcDbEntity
  8
IE2鉄骨階段
  6
Continuous
 62
     7
370
     9
100
AcDbLine
 10
2911.621621621622
 20
-422.6403629047071
 30
0.0
 11
2961.193864690313
 21
-416.1140532937046
 31
0.0
  0
LINE
  5
150
330
1F
100
AcDbEntity
  8
IE2鉄骨階段
  6
Continuous
 62
     7
370
     9
100
AcDbLine
 10
2911.621621621622
 20
-422.6403629047071
 30
0.0
 11
2961.193864690313
 21
-429.1666725157097
 31
0.0
  0
LINE
  5
151
330
1F
100
AcDbEntity
  8
IE2鉄骨階段
  6
Continuous
 62
     7
370
     9
100
AcDbLine
 10
2821.621621621622
 20
-422.6403629047071
 30
0.0
 11
2772.049378552931
 21
-416.1140532937046
 31
0.0
  0
LINE
  5
152
330
1F
100
AcDbEntity
  8
IE2鉄骨階段
  6
Continuous
 62
     7
370
     9
100
AcDbLine
 10
2821.621621621622
 20
-422.6403629047071
 30
0.0
 11
2772.049378552931
 21
-429.1666725157097
 31
0.0
  0
LINE
  5
153
330
1F
100
AcDbEntity
  8
IE2鉄骨階段
  6
Continuous
 62
     7
370
     9
100
AcDbLine
 10
2735.102315684563
 20
-422.6403629047071
 30
0.0
 11
2998.207853407925
 21
-422.6403629047071
 31
0.0
  0
LINE
  5
154
330
1F
100
AcDbEntity
  8
KC2梁点線
  6
Continuous
 62
     3
370
     9
100
AcDbLine
 10
2821.621621621622
 20
-168.6486486486484
 30
0.0
 11
2911.621621621622
 21
-158.6486486486484
 31
0.0
  0
LINE
  5
155
330
1F
100
AcDbEntity
  8
KC2梁点線
  6
Continuous
 62
     3
370
     9
100
AcDbLine
 10
2821.621621621622
 20
1631.351433831293
 30
0.0
 11
2911.621621621622
 21
1626.634751493489
 31
0.0
  0
LINE
  5
156
330
1F
100
AcDbEntity
  8
KC2梁点線
  6
Continuous
 62
     3
370
     9
100
AcDbLine
 10
2821.621621621622
 20
1631.351433831293
 30
0.0
 11
2821.621621621622
 21
-258.6486486486484
 31
0.0
  0
LINE
  5
157
330
1F
100
AcDbEntity
  8
KC2梁点線
  6
Continuous
 62
     3
370
     9
100
AcDbLine
 10
2911.621621621622
 20
-253.9319663108446
 30
0.0
 11
2911.621621621622
 21
1626.634751493489
 31
0.0
  0
LINE
  5
158
330
1F
100
AcDbEntity
  8
KC2梁点線
  6
Continuous
 62
     3
370
     9
100
AcDbLine
 10
2821.621621621622
 20
1381.351351351352
 30
0.0
 11
2911.621621621622
 21
1391.351351351352
 31
0.0
  0
LINE
  5
159
330
1F
100
AcDbEntity
  8
KC2梁点線
  6
Continuous
 62
     3
370
     9
100
AcDbLine
 10
2821.621621621622
 20
1531.351351351352
 30
0.0
 11
2911.621621621622
 21
1521.351351351352
 31
0.0
  0
ENDSEC
  0
SECTION
  2
OBJECTS
  0
DICTIONARY
  5
C
330
0
100
AcDbDictionary
281
     1
  3
ACAD_GROUP
350
D
  3
ACAD_LAYOUT
350
1A
  3
ACAD_MLEADERSTYLE
350
15B
  3
ACAD_MLINESTYLE
350
17
  3
ACAD_PLOTSETTINGS
350
19
  3
ACAD_PLOTSTYLENAME
350
E
  3
ACAD_TABLESTYLE
350
15A
  3
ACAD_VISUALSTYLE
350
2A
  0
DICTIONARY
  5
D
102
{ACAD_REACTORS
330
C
102
}
330
C
100
AcDbDictionary
281
     1
  0
DICTIONARY
  5
1A
102
{ACAD_REACTORS
330
C
102
}
330
C
100
AcDbDictionary
281
     1
  3
Layout1
350
1E
  3
Layout2
350
26
  3
Model
350
22
  0
DICTIONARY
  5
15B
102
{ACAD_REACTORS
330
C
102
}
330
C
100
AcDbDictionary
281
     1
  0
DICTIONARY
  5
17
102
{ACAD_REACTORS
330
C
102
}
330
C
100
AcDbDictionary
281
     1
  3
Standard
350
18
  0
DICTIONARY
  5
19
102
{ACAD_REACTORS
330
C
102
}
330
C
100
AcDbDictionary
281
     1
  0
ACDBDICTIONARYWDFLT
  5
E
102
{ACAD_REACTORS
330
C
102
}
330
C
100
AcDbDictionary
281
     1
  3
Normal
350
F
100
AcDbDictionaryWithDefault
340
F
  0
DICTIONARY
  5
15A
102
{ACAD_REACTORS
330
C
102
}
330
C
100
AcDbDictionary
281
     1
  0
DICTIONARY
  5
2A
102
{ACAD_REACTORS
330
C
102
}
330
C
100
AcDbDictionary
281
     1
  3
2dWireframe
350
2F
  3
3D Hidden
350
31
  3
3dWireframe
350
30
  3
Basic
350
32
  3
Brighten
350
36
  3
ColorChange
350
3A
  3
Conceptual
350
34
  3
Dim
350
35
  3
Facepattern
350
39
  3
Flat
350
2B
  3
FlatWithEdges
350
2C
  3
Gouraud
350
2D
  3
GouraudWithEdges
350
2E
  3
Linepattern
350
38
  3
Realistic
350
33
  3
Thicken
350
37
  0
LAYOUT
  5
1E
102
{ACAD_REACTORS
330
1A
102
}
330
1A
100
AcDbPlotSettings
  1

  2
none_device
  4

  6

 40
0.0
 41
0.0
 42
0.0
 43
0.0
 44
0.0
 45
0.0
 46
0.0
 47
0.0
 48
0.0
 49
0.0
140
0.0
141
0.0
142
1.0
143
1.0
 70
   688
 72
     0
 73
     0
 74
     5
  7

 75
    16
 76
     0
 77
     5
 78
   300
147
1.0
148
0.0
149
0.0
100
AcDbLayout
  1
Layout1
 70
     1
 71
     1
 10
0.0
 20
0.0
 11
420.0
 21
297.0
 12
0.0
 22
0.0
 32
0.0
 14
1.000000000000000E+20
 24
1.000000000000000E+20
 34
1.000000000000000E+20
 15
-1.000000000000000E+20
 25
-1.000000000000000E+20
 35
-1.000000000000000E+20
146
0.0
 13
0.0
 23
0.0
 33
0.0
 16
1.0
 26
0.0
 36
0.0
 17
0.0
 27
1.0
 37
0.0
 76
     0
330
1B
  0
LAYOUT
  5
26
102
{ACAD_REACTORS
330
1A
102
}
330
1A
100
AcDbPlotSettings
  1

  2
none_device
  4

  6

 40
0.0
 41
0.0
 42
0.0
 43
0.0
 44
0.0
 45
0.0
 46
0.0
 47
0.0
 48
0.0
 49
0.0
140
0.0
141
0.0
142
1.0
143
1.0
 70
   688
 72
     0
 73
     0
 74
     5
  7

 75
    16
 76
     0
 77
     5
 78
   300
147
1.0
148
0.0
149
0.0
100
AcDbLayout
  1
Layout2
 70
     1
 71
     2
 10
0.0
 20
0.0
 11
0.0
 21
0.0
 12
0.0
 22
0.0
 32
0.0
 14
0.0
 24
0.0
 34
0.0
 15
0.0
 25
0.0
 35
0.0
146
0.0
 13
0.0
 23
0.0
 33
0.0
 16
1.0
 26
0.0
 36
0.0
 17
0.0
 27
1.0
 37
0.0
 76
     0
330
23
  0
LAYOUT
  5
22
102
{ACAD_REACTORS
330
1A
102
}
330
1A
100
AcDbPlotSettings
  1

  2
none_device
  4

  6

 40
0.0
 41
0.0
 42
0.0
 43
0.0
 44
0.0
 45
0.0
 46
0.0
 47
0.0
 48
0.0
 49
0.0
140
0.0
141
0.0
142
1.0
143
1.0
 70
  1712
 72
     0
 73
     0
 74
     0
  7

 75
     0
 76
     0
 77
     5
 78
   300
147
1.0
148
0.0
149
0.0
100
AcDbLayout
  1
Model
 70
     1
 71
     0
 10
-4200.0
 20
-2970.0
 11
4200.0
 21
2970.0
 12
0.0
 22
0.0
 32
0.0
 14
-4200.0
 24
-2970.0
 34
0.0
 15
4200.0
 25
2970.0
 35
0.0
146
0.0
 13
0.0
 23
0.0
 33
0.0
 16
1.0
 26
0.0
 36
0.0
 17
0.0
 27
1.0
 37
0.0
 76
     0
330
1F
331
29
  0
MLINESTYLE
  5
18
102
{ACAD_REACTORS
330
17
102
}
330
17
100
AcDbMlineStyle
  2
Standard
 70
     0
  3

 62
   256
 51
90.0
 52
90.0
 71
     2
 49
0.5
 62
   256
  6
BYLAYER
 49
-0.5
 62
   256
  6
BYLAYER
  0
ACDBPLACEHOLDER
  5
F
102
{ACAD_REACTORS
330
E
102
}
330
E
  0
VISUALSTYLE
  5
2F
102
{ACAD_REACTORS
330
2A
102
}
330
2A
100
AcDbVisualStyle
  2
2dWireframe
 70
     4
 71
     0
 72
     2
 73
     0
 90
        0
 40
-0.6
 41
-30.0
 62
     5
 63
     7
421
 16777215
 74
     1
 91
        4
 64
     7
 65
   257
 75
     1
175
     1
 42
1.0
 92
        0
 66
   257
 43
1.0
 76
     1
 77
     6
 78
     2
 67
     7
 79
     5
170
     0
171
     0
290
     0
174
     0
 93
        1
 44
0.0
173
     0
291
     0
 45
0.0
1001
ACAD
1000
AcDbSavedByObjectVersion
1070
     0
  0
VISUALSTYLE
  5
31
102
{ACAD_REACTORS
330
2A
102
}
330
2A
100
AcDbVisualStyle
  2
3D Hidden
 70
     6
 71
     1
 72
     2
 73
     2
 90
        0
 40
-0.6
 41
-30.0
 62
     5
 63
     7
421
 16777215
 74
     2
 91
        2
 64
     7
 65
   257
 75
     2
175
     1
 42
40.0
 92
        0
 66
   257
 43
1.0
 76
     1
 77
     6
 78
     2
 67
     7
 79
     3
170
     0
171
     0
290
     0
174
     0
 93
        1
 44
0.0
173
     0
291
     0
 45
0.0
1001
ACAD
1000
AcDbSavedByObjectVersion
1070
     0
  0
VISUALSTYLE
  5
30
102
{ACAD_REACTORS
330
2A
102
}
330
2A
100
AcDbVisualStyle
  2
3dWireframe
 70
     5
 71
     0
 72
     2
 73
     0
 90
        0
 40
-0.6
 41
-30.0
 62
     5
 63
     7
421
 16777215
 74
     1
 91
        4
 64
     7
 65
   257
 75
     1
175
     1
 42
1.0
 92
        0
 66
   257
 43
1.0
 76
     1
 77
     6
 78
     2
 67
     7
 79
     5
170
     0
171
     0
290
     0
174
     0
 93
        1
 44
0.0
173
     0
291
     0
 45
0.0
1001
ACAD
1000
AcDbSavedByObjectVersion
1070
     0
  0
VISUALSTYLE
  5
32
102
{ACAD_REACTORS
330
2A
102
}
330
2A
100
AcDbVisualStyle
  2
Basic
 70
     7
 71
     1
 72
     0
 73
     1
 90
        0
 40
-0.6
 41
-30.0
 62
     5
 63
     7
421
 16777215
 74
     0
 91
        4
 64
     7
 65
   257
 75
     1
175
     1
 42
1.0
 92
        8
 66
     7
 43
1.0
 76
     1
 77
     6
 78
     2
 67
     7
 79
     5
170
     0
171
     0
290
     0
174
     0
 93
        1
 44
0.0
173
     0
291
     1
 45
0.0
1001
ACAD
1000
AcDbSavedByObjectVersion
1070
     0
  0
VISUALSTYLE
  5
36
102
{ACAD_REACTORS
330
2A
102
}
330
2A
100
AcDbVisualStyle
  2
Brighten
 70
    12
 71
     2
 72
     2
 73
     0
 90
        0
 40
-0.6
 41
-30.0
 62
     5
 63
     7
421
 16777215
 74
     1
 91
        4
 64
     7
 65
   257
 75
     1
175
     1
 42
1.0
 92
        8
 66
     7
 43
1.0
 76
     1
 77
     6
 78
     2
 67
     7
 79
     5
170
     0
171
     0
290
     0
174
     0
 93
        1
 44
50.0
173
     0
291
     1
 45
0.0
1001
ACAD
1000
AcDbSavedByObjectVersion
1070
     0
  0
VISUALSTYLE
  5
3A
102
{ACAD_REACTORS
330
2A
102
}
330
2A
100
AcDbVisualStyle
  2
ColorChange
 70
    16
 71
     2
 72
     2
 73
     3
 90
        0
 40
-0.6
 41
-30.0
 62
     5
 63
     8
421
  8421504
 74
     1
 91
        4
 64
     7
 65
   257
 75
     1
175
     1
 42
1.0
 92
        8
 66
     8
424
  8421504
 43
1.0
 76
     1
 77
     6
 78
     2
 67
     7
 79
     5
170
     0
171
     0
290
     0
174
     0
 93
        1
 44
0.0
173
     0
291
     1
 45
0.0
1001
ACAD
1000
AcDbSavedByObjectVersion
1070
     0
  0
VISUALSTYLE
  5
34
102
{ACAD_REACTORS
330
2A
102
}
330
2A
100
AcDbVisualStyle
  2
Conceptual
 70
     9
 71
     3
 72
     2
 73
     0
 90
        0
 40
-0.6
 41
-30.0
 62
     5
 63
     7
421
 16777215
 74
     2
 91
        2
 64
     7
 65
   257
 75
     1
175
     1
 42
40.0
 92
        8
 66
     7
 43
1.0
 76
     1
 77
     6
 78
     2
 67
     7
 79
     3
170
     0
171
     0
290
     0
174
     0
 93
        1
 44
0.0
173
     0
291
     0
 45
0.0
1001
ACAD
1000
AcDbSavedByObjectVersion
1070
     0
  0
VISUALSTYLE
  5
35
102
{ACAD_REACTORS
330
2A
102
}
330
2A
100
AcDbVisualStyle
  2
Dim
 70
    11
 71
     2
 72
     2
 73
     0
 90
        0
 40
-0.6
 41
-30.0
 62
     5
 63
     7
421
 16777215
 74
     1
 91
        4
 64
     7
 65
   257
 75
     1
175
     1
 42
1.0
 92
        8
 66
     7
 43
1.0
 76
     1
 77
     6
 78
     2
 67
     7
 79
     5
170
     0
171
     0
290
     0
174
     0
 93
        1
 44
-50.0
173
     0
291
     1
 45
0.0
1001
ACAD
1000
AcDbSavedByObjectVersion
1070
     0
  0
VISUALSTYLE
  5
39
102
{ACAD_REACTORS
330
2A
102
}
330
2A
100
AcDbVisualStyle
  2
Facepattern
 70
    15
 71
     2
 72
     2
 73
     0
 90
        0
 40
-0.6
 41
-30.0
 62
     5
 63
     7
421
 16777215
 74
     1
 91
        4
 64
     7
 65
   257
 75
     1
175
     1
 42
1.0
 92
        8
 66
     7
 43
1.0
 76
     1
 77
     6
 78
     2
 67
     7
 79
     5
170
     0
171
     0
290
     0
174
     0
 93
        1
 44
0.0
173
     0
291
     1
 45
0.0
1001
ACAD
1000
AcDbSavedByObjectVersion
1070
     0
  0
VISUALSTYLE
  5
2B
102
{ACAD_REACTORS
330
2A
102
}
330
2A
100
AcDbVisualStyle
  2
Flat
 70
     0
 71
     2
 72
     1
 73
     1
 90
        2
 40
-0.6
 41
30.0
 62
     5
 63
     7
421
 16777215
 74
     0
 91
        4
 64
     7
 65
   257
 75
     1
175
     1
 42
1.0
 92
        8
 66
     7
 43
1.0
 76
     1
 77
     6
 78
     2
 67
     7
 79
     5
170
     0
171
     0
290
     0
174
     0
 93
       13
 44
0.0
173
     0
291
     1
 45
0.0
1001
ACAD
1000
AcDbSavedByObjectVersion
1070
     0
  0
VISUALSTYLE
  5
2C
102
{ACAD_REACTORS
330
2A
102
}
330
2A
100
AcDbVisualStyle
  2
FlatWithEdges
 70
     1
 71
     2
 72
     1
 73
     1
 90
        2
 40
-0.6
 41
30.0
 62
     5
 63
     7
421
 16777215
 74
     1
 91
        4
 64
     7
 65
   257
 75
     1
175
     1
 42
1.0
 92
        0
 66
   257
 43
1.0
 76
     1
 77
     6
 78
     2
 67
     7
 79
     5
170
     0
171
     0
290
     0
174
     0
 93
       13
 44
0.0
173
     0
291
     1
 45
0.0
1001
ACAD
1000
AcDbSavedByObjectVersion
1070
     0
  0
VISUALSTYLE
  5
2D
102
{ACAD_REACTORS
330
2A
102
}
330
2A
100
AcDbVisualStyle
  2
Gouraud
 70
     2
 71
     2
 72
     2
 73
     1
 90
        2
 40
-0.6
 41
30.0
 62
     5
 63
     7
421
 16777215
 74
     0
 91
        4
 64
     7
 65
   257
 75
     1
175
     1
 42
1.0
 92
        0
 66
     7
 43
1.0
 76
     1
 77
     6
 78
     2
 67
     7
 79
     5
170
     0
171
     0
290
     0
174
     0
 93
       13
 44
0.0
173
     0
291
     1
 45
0.0
1001
ACAD
1000
AcDbSavedByObjectVersion
1070
     0
  0
VISUALSTYLE
  5
2E
102
{ACAD_REACTORS
330
2A
102
}
330
2A
100
AcDbVisualStyle
  2
GouraudWithEdges
 70
     3
 71
     2
 72
     2
 73
     1
 90
        2
 40
-0.6
 41
30.0
 62
     5
 63
     7
421
 16777215
 74
     1
 91
        4
 64
     7
 65
   257
 75
     1
175
     1
 42
1.0
 92
        0
 66
   257
 43
1.0
 76
     1
 77
     6
 78
     2
 67
     7
 79
     5
170
     0
171
     0
290
     0
174
     0
 93
       13
 44
0.0
173
     0
291
     1
 45
0.0
1001
ACAD
1000
AcDbSavedByObjectVersion
1070
     0
  0
VISUALSTYLE
  5
38
102
{ACAD_REACTORS
330
2A
102
}
330
2A
100
AcDbVisualStyle
  2
Linepattern
 70
    14
 71
     2
 72
     2
 73
     0
 90
        0
 40
-0.6
 41
-30.0
 62
     5
 63
     7
421
 16777215
 74
     1
 91
        4
 64
     7
 65
   257
 75
     7
175
     7
 42
1.0
 92
        8
 66
     7
 43
1.0
 76
     1
 77
     6
 78
     2
 67
     7
 79
     5
170
     0
171
     0
290
     0
174
     0
 93
        1
 44
0.0
173
     0
291
     1
 45
0.0
1001
ACAD
1000
AcDbSavedByObjectVersion
1070
     0
  0
VISUALSTYLE
  5
33
102
{ACAD_REACTORS
330
2A
102
}
330
2A
100
AcDbVisualStyle
  2
Realistic
 70
     8
 71
     2
 72
     2
 73
     0
 90
        0
 40
-0.6
 41
-30.0
 62
     5
 63
     7
421
 16777215
 74
     1
 91
        0
 64
     7
 65
   257
 75
     1
175
     1
 42
1.0
 92
        8
 66
     8
424
  7895160
 43
1.0
 76
     1
 77
     6
 78
     2
 67
     7
 79
     5
170
     0
171
     0
290
     0
174
     0
 93
       13
 44
0.0
173
     0
291
     0
 45
0.0
1001
ACAD
1000
AcDbSavedByObjectVersion
1070
     0
  0
VISUALSTYLE
  5
37
102
{ACAD_REACTORS
330
2A
102
}
330
2A
100
AcDbVisualStyle
  2
Thicken
 70
    13
 71
     2
 72
     2
 73
     0
 90
        0
 40
-0.6
 41
-30.0
 62
     5
 63
     7
421
 16777215
 74
     1
 91
        4
 64
     7
 65
   257
 75
     1
175
     1
 42
1.0
 92
       12
 66
     7
 43
1.0
 76
     1
 77
     6
 78
     2
 67
     7
 79
     5
170
     0
171
     0
290
     0
174
     0
 93
        1
 44
0.0
173
     0
291
     1
 45
0.0
1001
ACAD
1000
AcDbSavedByObjectVersion
1070
     0
  0
ENDSEC
  0
EOF
