  0
SECTION
  2
HEADER
  9
$ACADVER
  1
AC1015
  9
$ACADMAINTVER
 70
     6
  9
$DWGCODEPAGE
  3
ANSI_932
  9
$INSBASE
 10
0.0
 20
0.0
 30
0.0
  9
$EXTMIN
 10
-2100.0
 20
-1485.0
 30
0.0
  9
$EXTMAX
 10
2100.0
 20
1485.0
 30
0.0
  9
$LIMMIN
 10
-2100.0
 20
-1485.0
  9
$LIMMAX
 10
2100.0
 20
1485.0
  9
$ORTHOMODE
 70
     0
  9
$REGENMODE
 70
     1
  9
$FILLMODE
 70
     1
  9
$QTEXTMODE
 70
     0
  9
$MIRRTEXT
 70
     1
  9
$LTSCALE
 40
10.0
  9
$ATTMODE
 70
     1
  9
$TEXTSIZE
 40
2.5
  9
$TRACEWID
 40
1.0
  9
$TEXTSTYLE
  7
Standard
  9
$CLAYER
  8
0
  9
$CELTYPE
  6
ByLayer
  9
$CECOLOR
 62
   256
  9
$CELTSCALE
 40
1.0
  9
$DISPSILH
 70
     0
  9
$DIMSCALE
 40
1.0
  9
$DIMASZ
 40
2.5
  9
$DIMEXO
 40
0.625
  9
$DIMDLI
 40
3.75
  9
$DIMRND
 40
0.0
  9
$DIMDLE
 40
0.0
  9
$DIMEXE
 40
1.25
  9
$DIMTP
 40
0.0
  9
$DIMTM
 40
0.0
  9
$DIMTXT
 40
2.5
  9
$DIMCEN
 40
2.5
  9
$DIMTSZ
 40
0.0
  9
$DIMTOL
 70
     0
  9
$DIMLIM
 70
     0
  9
$DIMTIH
 70
     0
  9
$DIMTOH
 70
     0
  9
$DIMSE1
 70
     0
  9
$DIMSE2
 70
     0
  9
$DIMTAD
 70
     1
  9
$DIMZIN
 70
     8
  9
$DIMBLK
  1

  9
$DIMASO
 70
     1
  9
$DIMSHO
 70
     1
  9
$DIMPOST
  1

  9
$DIMAPOST
  1

  9
$DIMALT
 70
     0
  9
$DIMALTD
 70
     3
  9
$DIMALTF
 40
0.03937007874016
  9
$DIMLFAC
 40
1.0
  9
$DIMTOFL
 70
     1
  9
$DIMTVP
 40
0.0
  9
$DIMTIX
 70
     0
  9
$DIMSOXD
 70
     0
  9
$DIMSAH
 70
     0
  9
$DIMBLK1
  1

  9
$DIMBLK2
  1

  9
$DIMSTYLE
  2
ISO-25
  9
$DIMCLRD
 70
     0
  9
$DIMCLRE
 70
     0
  9
$DIMCLRT
 70
     0
  9
$DIMTFAC
 40
1.0
  9
$DIMGAP
 40
0.625
  9
$DIMJUST
 70
     0
  9
$DIMSD1
 70
     0
  9
$DIMSD2
 70
     0
  9
$DIMTOLJ
 70
     0
  9
$DIMTZIN
 70
     8
  9
$DIMALTZ
 70
     0
  9
$DIMALTTZ
 70
     0
  9
$DIMUPT
 70
     0
  9
$DIMDEC
 70
     2
  9
$DIMTDEC
 70
     2
  9
$DIMALTU
 70
     2
  9
$DIMALTTD
 70
     3
  9
$DIMTXSTY
  7
Standard
  9
$DIMAUNIT
 70
     0
  9
$DIMADEC
 70
     0
  9
$DIMALTRND
 40
0.0
  9
$DIMAZIN
 70
     0
  9
$DIMDSEP
 70
    44
  9
$DIMATFIT
 70
     3
  9
$DIMFRAC
 70
     0
  9
$DIMLDRBLK
  1

  9
$DIMLUNIT
 70
     2
  9
$DIMLWD
 70
    -2
  9
$DIMLWE
 70
    -2
  9
$DIMTMOVE
 70
     0
  9
$LUNITS
 70
     2
  9
$LUPREC
 70
     4
  9
$SKETCHINC
 40
1.0
  9
$FILLETRAD
 40
10.0
  9
$AUNITS
 70
     0
  9
$AUPREC
 70
     0
  9
$MENU
  1
.
  9
$ELEVATION
 40
0.0
  9
$PELEVATION
 40
0.0
  9
$THICKNESS
 40
0.0
  9
$LIMCHECK
 70
     0
  9
$CHAMFERA
 40
10.0
  9
$CHAMFERB
 40
10.0
  9
$CHAMFERC
 40
20.0
  9
$CHAMFERD
 40
0.0
  9
$SKPOLY
 70
     0
  9
$TDCREATE
 40
2456904.666071111
  9
$TDUCREATE
 40
2456904.291071111
  9
$TDUPDATE
 40
2456904.666071123
  9
$TDUUPDATE
 40
2456904.291071123
  9
$TDINDWG
 40
0.0000000116
  9
$TDUSRTIMER
 40
0.0000000116
  9
$USRTIMER
 70
     1
  9
$ANGBASE
 50
0.0
  9
$ANGDIR
 70
     0
  9
$PDMODE
 70
     0
  9
$PDSIZE
 40
0.0
  9
$PLINEWID
 40
0.0
  9
$SPLFRAME
 70
     0
  9
$SPLINETYPE
 70
     6
  9
$SPLINESEGS
 70
     8
  9
$HANDSEED
  5
1A6
  9
$SURFTAB1
 70
     6
  9
$SURFTAB2
 70
     6
  9
$SURFTYPE
 70
     6
  9
$SURFU
 70
     6
  9
$SURFV
 70
     6
  9
$UCSBASE
  2

  9
$UCSNAME
  2

  9
$UCSORG
 10
0.0
 20
0.0
 30
0.0
  9
$UCSXDIR
 10
1.0
 20
0.0
 30
0.0
  9
$UCSYDIR
 10
0.0
 20
1.0
 30
0.0
  9
$UCSORTHOREF
  2

  9
$UCSORTHOVIEW
 70
     0
  9
$UCSORGTOP
 10
0.0
 20
0.0
 30
0.0
  9
$UCSORGBOTTOM
 10
0.0
 20
0.0
 30
0.0
  9
$UCSORGLEFT
 10
0.0
 20
0.0
 30
0.0
  9
$UCSORGRIGHT
 10
0.0
 20
0.0
 30
0.0
  9
$UCSORGFRONT
 10
0.0
 20
0.0
 30
0.0
  9
$UCSORGBACK
 10
0.0
 20
0.0
 30
0.0
  9
$PUCSBASE
  2

  9
$PUCSNAME
  2

  9
$PUCSORG
 10
0.0
 20
0.0
 30
0.0
  9
$PUCSXDIR
 10
1.0
 20
0.0
 30
0.0
  9
$PUCSYDIR
 10
0.0
 20
1.0
 30
0.0
  9
$PUCSORTHOREF
  2

  9
$PUCSORTHOVIEW
 70
     0
  9
$PUCSORGTOP
 10
0.0
 20
0.0
 30
0.0
  9
$PUCSORGBOTTOM
 10
0.0
 20
0.0
 30
0.0
  9
$PUCSORGLEFT
 10
0.0
 20
0.0
 30
0.0
  9
$PUCSORGRIGHT
 10
0.0
 20
0.0
 30
0.0
  9
$PUCSORGFRONT
 10
0.0
 20
0.0
 30
0.0
  9
$PUCSORGBACK
 10
0.0
 20
0.0
 30
0.0
  9
$USERI1
 70
     0
  9
$USERI2
 70
     0
  9
$USERI3
 70
     0
  9
$USERI4
 70
     0
  9
$USERI5
 70
     0
  9
$USERR1
 40
0.0
  9
$USERR2
 40
0.0
  9
$USERR3
 40
0.0
  9
$USERR4
 40
0.0
  9
$USERR5
 40
0.0
  9
$WORLDVIEW
 70
     1
  9
$SHADEDGE
 70
     3
  9
$SHADEDIF
 70
    70
  9
$TILEMODE
 70
     1
  9
$MAXACTVP
 70
    64
  9
$PINSBASE
 10
0.0
 20
0.0
 30
0.0
  9
$PLIMCHECK
 70
     0
  9
$PEXTMIN
 10
1.000000000000000E+20
 20
1.000000000000000E+20
 30
1.000000000000000E+20
  9
$PEXTMAX
 10
-1.000000000000000E+20
 20
-1.000000000000000E+20
 30
-1.000000000000000E+20
  9
$PLIMMIN
 10
0.0
 20
0.0
  9
$PLIMMAX
 10
420.0
 20
297.0
  9
$UNITMODE
 70
     0
  9
$VISRETAIN
 70
     1
  9
$PLINEGEN
 70
     0
  9
$PSLTSCALE
 70
     1
  9
$TREEDEPTH
 70
  3020
  9
$CMLSTYLE
  2
Standard
  9
$CMLJUST
 70
     0
  9
$CMLSCALE
 40
20.0
  9
$PROXYGRAPHICS
 70
     1
  9
$MEASUREMENT
 70
     1
  9
$CELWEIGHT
370
    -1
  9
$ENDCAPS
280
     0
  9
$JOINSTYLE
280
     0
  9
$LWDISPLAY
290
     0
  9
$INSUNITS
 70
     4
  9
$HYPERLINKBASE
  1

  9
$STYLESHEET
  1

  9
$XEDIT
290
     1
  9
$CEPSNTYPE
380
     0
  9
$PSTYLEMODE
290
     1
  9
$FINGERPRINTGUID
  2
{195482F4-70F9-45F5-9EB4-660D414895C8}
  9
$VERSIONGUID
  2
{FAEB1C32-E019-11D5-929B-00C0DF256EC4}
  9
$EXTNAMES
290
     1
  9
$PSVPSCALE
 40
0.0
  9
$OLESTARTUP
290
     0
  0
ENDSEC
  0
SECTION
  2
CLASSES
  0
CLASS
  1
ACDBDICTIONARYWDFLT
  2
AcDbDictionaryWithDefault
  3
ObjectDBX Classes
 90
        0
280
     0
281
     0
  0
CLASS
  1
VISUALSTYLE
  2
AcDbVisualStyle
  3
ObjectDBX Classes
 90
     4095
280
     0
281
     0
  0
CLASS
  1
DICTIONARYVAR
  2
AcDbDictionaryVar
  3
ObjectDBX Classes
 90
        0
280
     0
281
     0
  0
CLASS
  1
ACDBPLACEHOLDER
  2
AcDbPlaceHolder
  3
ObjectDBX Classes
 90
        0
280
     0
281
     0
  0
CLASS
  1
LAYOUT
  2
AcDbLayout
  3
ObjectDBX Classes
 90
        0
280
     0
281
     0
  0
ENDSEC
  0
SECTION
  2
TABLES
  0
TABLE
  2
VPORT
  5
8
330
0
100
AcDbSymbolTable
 70
     1
  0
VPORT
  5
29
330
8
100
AcDbSymbolTableRecord
100
AcDbViewportTableRecord
  2
*Active
 70
     0
 10
0.0
 20
0.0
 11
1.0
 21
1.0
 12
0.0
 22
0.0
 13
0.0
 23
0.0
 14
10.0
 24
10.0
 15
10.0
 25
10.0
 16
0.0
 26
0.0
 36
1.0
 17
0.0
 27
0.0
 37
0.0
 40
3267.0
 41
1.414141414141414
 42
50.0
 43
0.0
 44
0.0
 50
0.0
 51
0.0
 71
     0
 72
 10000
 73
     1
 74
     3
 75
     0
 76
     0
 77
     0
 78
     0
281
     0
 65
     1
110
0.0
120
0.0
130
0.0
111
1.0
121
0.0
131
0.0
112
0.0
122
1.0
132
0.0
 79
     0
146
0.0
  0
ENDTAB
  0
TABLE
  2
LTYPE
  5
5
330
0
100
AcDbSymbolTable
 70
     3
  0
LTYPE
  5
14
330
5
100
AcDbSymbolTableRecord
100
AcDbLinetypeTableRecord
  2
ByBlock
 70
     0
  3

 72
    65
 73
     0
 40
0.0
  0
LTYPE
  5
15
330
5
100
AcDbSymbolTableRecord
100
AcDbLinetypeTableRecord
  2
ByLayer
 70
     0
  3

 72
    65
 73
     0
 40
0.0
  0
LTYPE
  5
16
330
5
100
AcDbSymbolTableRecord
100
AcDbLinetypeTableRecord
  2
Continuous
 70
     0
  3
Solid line
 72
    65
 73
     0
 40
0.0
  0
LTYPE
  5
3C
330
5
100
AcDbSymbolTableRecord
100
AcDbLinetypeTableRecord
  2
JWW_CENTER1
 70
     0
  3
-----  --  ----------  --  -----
 72
    65
 73
     4
 40
6.773333333333333
 49
4.233333333333333
 74
     0
 49
-0.8466666666666667
 74
     0
 49
0.8466666666666667
 74
     0
 49
-0.8466666666666667
 74
     0
  0
LTYPE
  5
3D
330
5
100
AcDbSymbolTableRecord
100
AcDbLinetypeTableRecord
  2
JWW_DASHED1
 70
     0
  3
-  --  --  --  --  --  --  --  -
 72
    65
 73
     2
 40
1.693333333333333
 49
0.8466666666666667
 74
     0
 49
-0.8466666666666667
 74
     0
  0
ENDTAB
  0
TABLE
  2
LAYER
  5
2
330
0
100
AcDbSymbolTable
 70
     8
  0
LAYER
  5
10
330
2
100
AcDbSymbolTableRecord
100
AcDbLayerTableRecord
  2
0
 70
     0
 62
     7
  6
Continuous
370
    -3
390
F
  0
LAYER
  5
3E
330
2
100
AcDbSymbolTableRecord
100
AcDbLayerTableRecord
  2
0-2
 70
     0
 62
     7
  6
Continuous
370
    -3
390
F
  0
LAYER
  5
3F
330
2
100
AcDbSymbolTableRecord
100
AcDbLayerTableRecord
  2
0-3
 70
     0
 62
     7
  6
Continuous
370
    -3
390
F
  0
LAYER
  5
40
330
2
100
AcDbSymbolTableRecord
100
AcDbLayerTableRecord
  2
0-1
 70
     0
 62
     7
  6
Continuous
370
    -3
390
F
  0
LAYER
  5
41
330
2
100
AcDbSymbolTableRecord
100
AcDbLayerTableRecord
  2
0-6
 70
     0
 62
     7
  6
Continuous
370
    -3
390
F
  0
LAYER
  5
42
330
2
100
AcDbSymbolTableRecord
100
AcDbLayerTableRecord
  2
0-4
 70
     0
 62
     7
  6
Continuous
370
    -3
390
F
  0
LAYER
  5
43
330
2
100
AcDbSymbolTableRecord
100
AcDbLayerTableRecord
  2
0-E
 70
     0
 62
     7
  6
Continuous
370
    -3
390
F
  0
LAYER
  5
44
330
2
100
AcDbSymbolTableRecord
100
AcDbLayerTableRecord
  2
0-5
 70
     0
 62
     7
  6
Continuous
370
    -3
390
F
  0
ENDTAB
  0
TABLE
  2
STYLE
  5
3
330
0
100
AcDbSymbolTable
 70
     2
  0
STYLE
  5
11
330
3
100
AcDbSymbolTableRecord
100
AcDbTextStyleTableRecord
  2
Standard
 70
     0
 40
0.0
 41
1.0
 50
0.0
 71
     0
 42
2.5
  3
txt
  4

1001
ACAD
1000

1071
        0
  0
STYLE
  5
3B
330
3
100
AcDbSymbolTableRecord
100
AcDbTextStyleTableRecord
  2
ＭＳ ゴシック
 70
     0
 40
1.0
 41
1.0
 50
0.0
 71
     0
 42
10.0
  3

  4

1001
ACAD
1000
MS Gothic
1071
    32817
  0
ENDTAB
  0
TABLE
  2
VIEW
  5
6
330
0
100
AcDbSymbolTable
 70
     0
  0
ENDTAB
  0
TABLE
  2
UCS
  5
7
330
0
100
AcDbSymbolTable
 70
     0
  0
ENDTAB
  0
TABLE
  2
APPID
  5
9
330
0
100
AcDbSymbolTable
 70
     1
  0
APPID
  5
12
330
9
100
AcDbSymbolTableRecord
100
AcDbRegAppTableRecord
  2
ACAD
 70
     0
  0
ENDTAB
  0
TABLE
  2
DIMSTYLE
  5
A
330
0
100
AcDbSymbolTable
 70
     1
100
AcDbDimStyleTable
  0
DIMSTYLE
105
27
330
A
100
AcDbSymbolTableRecord
100
AcDbDimStyleTableRecord
  2
ISO-25
 70
     0
 41
2.5
 42
0.625
 43
3.75
 44
1.25
 73
     0
 74
     0
 77
     1
 78
     8
140
2.5
141
2.5
143
0.03937007874016
147
0.625
171
     3
172
     1
271
     2
272
     2
274
     3
278
    44
283
     0
284
     8
340
11
  0
ENDTAB
  0
TABLE
  2
BLOCK_RECORD
  5
1
330
0
100
AcDbSymbolTable
 70
     1
  0
BLOCK_RECORD
  5
1F
330
1
100
AcDbSymbolTableRecord
100
AcDbBlockTableRecord
  2
*Model_Space
340
22
  0
BLOCK_RECORD
  5
1B
330
1
100
AcDbSymbolTableRecord
100
AcDbBlockTableRecord
  2
*Paper_Space
340
1E
  0
BLOCK_RECORD
  5
23
330
1
100
AcDbSymbolTableRecord
100
AcDbBlockTableRecord
  2
*Paper_Space0
340
26
  0
ENDTAB
  0
ENDSEC
  0
SECTION
  2
BLOCKS
  0
BLOCK
  5
20
330
1F
100
AcDbEntity
  8
0
100
AcDbBlockBegin
  2
*Model_Space
 70
     0
 10
0.0
 20
0.0
 30
0.0
  3
*Model_Space
  1

  0
ENDBLK
  5
21
330
1F
100
AcDbEntity
  8
0
100
AcDbBlockEnd
  0
BLOCK
  5
1C
330
1B
100
AcDbEntity
 67
     1
  8
0
100
AcDbBlockBegin
  2
*Paper_Space
 70
     0
 10
0.0
 20
0.0
 30
0.0
  3
*Paper_Space
  1

  0
ENDBLK
  5
1D
330
1B
100
AcDbEntity
 67
     1
  8
0
100
AcDbBlockEnd
  0
BLOCK
  5
24
330
23
100
AcDbEntity
  8
0
100
AcDbBlockBegin
  2
*Paper_Space0
 70
     0
 10
0.0
 20
0.0
 30
0.0
  3
*Paper_Space0
  1

  0
ENDBLK
  5
25
330
23
100
AcDbEntity
  8
0
100
AcDbBlockEnd
  0
ENDSEC
  0
SECTION
  2
ENTITIES
  0
LINE
  5
45
330
1F
100
AcDbEntity
  8
0-2
  6
Continuous
 62
     3
370
     9
100
AcDbLine
 10
-188.1626438450166
 20
172.8437186576227
 30
0.0
 11
-188.1626438450166
 21
-660.4896215490392
 31
0.0
  0
LINE
  5
46
330
1F
100
AcDbEntity
  8
0-2
  6
Continuous
 62
     3
370
     9
100
AcDbLine
 10
-438.1626026050463
 20
-660.4896215490392
 30
0.0
 11
-188.1626438450166
 21
-660.4896215490392
 31
0.0
  0
LINE
  5
47
330
1F
100
AcDbEntity
  8
0-2
  6
Continuous
 62
     3
370
     9
100
AcDbLine
 10
-188.1626438450166
 20
1019.240211280617
 30
0.0
 11
-521.4960046716637
 21
1019.240211280617
 31
0.0
  0
LINE
  5
48
330
1F
100
AcDbEntity
  8
0-2
  6
Continuous
 62
     3
370
     9
100
AcDbLine
 10
-188.1626438450166
 20
652.5734896273227
 30
0.0
 11
-521.4960046716637
 21
652.5734896273227
 31
0.0
  0
LINE
  5
49
330
1F
100
AcDbEntity
  8
0-2
  6
Continuous
 62
     3
370
     9
100
AcDbLine
 10
-188.1626438450166
 20
833.2401914854311
 30
0.0
 11
-188.1626438450166
 21
652.5734896273227
 31
0.0
  0
LINE
  5
4A
330
1F
100
AcDbEntity
  8
0-3
  6
Continuous
 62
     4
370
     9
100
AcDbLine
 10
781.5040382179058
 20
189.5102753510346
 30
0.0
 11
824.8371845967063
 21
189.5102753510346
 31
0.0
  0
LINE
  5
4B
330
1F
100
AcDbEntity
  8
0-3
  6
Continuous
 62
     4
370
     9
100
AcDbLine
 10
826.5039392419766
 20
187.8436444256758
 30
0.0
 11
826.5039392419766
 21
172.8437186576227
 31
0.0
  0
LINE
  5
4C
330
1F
100
AcDbEntity
  8
0-3
  6
Continuous
 62
     4
370
     9
100
AcDbLine
 10
779.8372835726354
 20
187.8436444256758
 30
0.0
 11
779.8372835726354
 21
172.8437186576227
 31
0.0
  0
LINE
  5
4D
330
1F
100
AcDbEntity
  8
0-3
  6
Continuous
 62
     4
370
     9
100
AcDbLine
 10
-631.1626949825802
 20
812.8127969277873
 30
0.0
 11
-631.1626949825802
 21
859.0009039801521
 31
0.0
  0
LINE
  5
4E
330
1F
100
AcDbEntity
  8
0-3
  6
Continuous
 62
     4
370
     9
100
AcDbLine
 10
-637.8293424039273
 20
812.8127969277873
 30
0.0
 11
-637.8293424039273
 21
859.0009039801521
 31
0.0
  0
LINE
  5
4F
330
1F
100
AcDbEntity
  8
0-2
  6
Continuous
 62
     3
370
     9
100
AcDbLine
 10
-521.4960046716637
 20
1016.573552312078
 30
0.0
 11
-190.8293028135557
 21
1016.573552312078
 31
0.0
  0
LINE
  5
50
330
1F
100
AcDbEntity
  8
0-2
  6
Continuous
 62
     3
370
     9
100
AcDbLine
 10
-521.4960046716637
 20
655.2401485958617
 30
0.0
 11
-190.8293028135557
 21
655.2401485958617
 31
0.0
  0
LINE
  5
51
330
1F
100
AcDbEntity
  8
0-2
  6
Continuous
 62
     3
370
     9
100
AcDbLine
 10
-190.8293028135557
 20
655.2401485958617
 30
0.0
 11
-190.8293028135557
 21
1016.573552312078
 31
0.0
  0
LINE
  5
52
330
1F
100
AcDbEntity
  8
0-3
  6
Continuous
 62
     4
370
     9
100
AcDbLine
 10
779.8372835726354
 20
187.8436444256758
 30
0.0
 11
826.5039392419766
 21
187.8436444256758
 31
0.0
  0
LINE
  5
53
330
1F
100
AcDbEntity
  8
0-1
  6
Continuous
 62
     2
370
     9
100
AcDbLine
 10
-701.1628022065033
 20
169.5103330869932
 30
0.0
 11
-701.1628022065033
 21
149.5102671030406
 31
0.0
  0
LINE
  5
54
330
1F
100
AcDbEntity
  8
0-1
  6
Continuous
 62
     2
370
     9
100
AcDbLine
 10
-191.8293308567354
 20
169.5103330869932
 30
0.0
 11
-191.8293308567354
 21
146.1770052523227
 31
0.0
  0
LINE
  5
55
330
1F
100
AcDbEntity
  8
0-2
  6
Continuous
 62
     3
370
     9
100
AcDbLine
 10
-704.8293654983106
 20
-627.1563225823479
 30
0.0
 11
-671.4960046716637
 21
-660.4896215490392
 31
0.0
  0
LINE
  5
56
330
1F
100
AcDbEntity
  8
0-2
  6
Continuous
 62
     3
370
     9
100
AcDbLine
 10
-702.1627065297719
 20
-627.1563225823479
 30
0.0
 11
-671.4960046716637
 21
-657.823024440456
 31
0.0
  0
LINE
  5
57
330
1F
100
AcDbEntity
  8
0-2
  6
Continuous
 62
     3
370
     9
100
AcDbLine
 10
-671.4960046716637
 20
-660.4896215490392
 30
0.0
 11
-604.8292830183698
 21
-660.4896215490392
 31
0.0
  0
LINE
  5
58
330
1F
100
AcDbEntity
  8
0-2
  6
Continuous
 62
     3
370
     9
100
AcDbLine
 10
619.8372505806589
 20
-627.1563225823479
 30
0.0
 11
986.5039722339526
 21
-627.1563225823479
 31
0.0
  0
LINE
  5
59
330
1F
100
AcDbEntity
  8
0-1
  6
Continuous
 62
     2
370
     9
100
AcDbLine
 10
-695.162633947424
 20
170.1771834089951
 30
0.0
 11
-673.829362199113
 21
170.1771834089951
 31
0.0
  0
LINE
  5
5A
330
1F
100
AcDbEntity
  8
0-1
  6
Continuous
 62
     2
370
     9
100
AcDbLine
 10
-698.4960195180531
 20
166.8437978383659
 30
0.0
 11
-698.4960195180531
 21
152.1770497914909
 31
0.0
  0
LINE
  5
5B
330
1F
100
AcDbEntity
  8
0-2
  6
Continuous
 62
     3
370
     9
100
AcDbLine
 10
-671.4960046716637
 20
-657.823024440456
 30
0.0
 11
-190.8293028135557
 21
-657.823024440456
 31
0.0
  0
LINE
  5
5C
330
1F
100
AcDbEntity
  8
0-2
  6
Continuous
 62
     3
370
     9
100
AcDbLine
 10
-604.8292830183698
 20
-660.4896215490392
 30
0.0
 11
-604.8292830183698
 21
-827.1564256822741
 31
0.0
  0
LINE
  5
5D
330
1F
100
AcDbEntity
  8
0-2
  6
Continuous
 62
     3
370
     9
100
AcDbLine
 10
-602.162624049831
 20
-657.823024440456
 30
0.0
 11
-602.162624049831
 21
-827.1564256822741
 31
0.0
  0
LINE
  5
5E
330
1F
100
AcDbEntity
  8
0-6
  6
Continuous
 62
     6
370
     9
100
AcDbLine
 10
-642.1627560177365
 20
140.1770844330659
 30
0.0
 11
-626.8294050886823
 21
140.1770844330659
 31
0.0
  0
LINE
  5
5F
330
1F
100
AcDbEntity
  8
0-6
  6
Continuous
 62
     6
370
     9
100
AcDbLine
 10
-639.4960970491977
 20
146.1770052523227
 30
0.0
 11
-639.4960970491977
 21
140.1770844330659
 31
0.0
  0
LINE
  5
60
330
1F
100
AcDbEntity
  8
0-1
  6
Continuous
 62
     2
370
     9
100
AcDbLine
 10
-695.162633947424
 20
148.8436642208615
 30
0.0
 11
-684.4959980732685
 21
148.8436642208615
 31
0.0
  0
LINE
  5
61
330
1F
100
AcDbEntity
  8
0-3
  6
Continuous
 62
     4
370
     9
100
AcDbLine
 10
826.5039392419766
 20
187.8436444256758
 30
0.0
 11
824.8371845967063
 21
189.5102753510346
 31
0.0
  0
LINE
  5
62
330
1F
100
AcDbEntity
  8
0-3
  6
Continuous
 62
     4
370
     9
100
AcDbLine
 10
781.5040382179058
 20
189.5102753510346
 30
0.0
 11
779.8372835726354
 21
187.8436444256758
 31
0.0
  0
LINE
  5
63
330
1F
100
AcDbEntity
  8
0-1
  6
Continuous
 62
     2
370
     9
100
AcDbLine
 10
-684.4959980732685
 20
148.8436642208615
 30
0.0
 11
-684.4959980732685
 21
146.1770052523227
 31
0.0
  0
LINE
  5
64
330
1F
100
AcDbEntity
  8
0-6
  6
Continuous
 62
     6
370
     9
100
AcDbLine
 10
-629.496064057221
 20
140.1770844330659
 30
0.0
 11
-629.496064057221
 21
146.1770052523227
 31
0.0
  0
LINE
  5
65
330
1F
100
AcDbEntity
  8
0-6
  6
Continuous
 62
     6
370
     9
100
AcDbLine
 10
-204.1627213761612
 20
146.1770052523227
 30
0.0
 11
-190.8293028135557
 21
146.1770052523227
 31
0.0
  0
LINE
  5
66
330
1F
100
AcDbEntity
  8
0-1
  6
Continuous
 62
     2
370
     9
100
AcDbLine
 10
-667.8294413798562
 20
169.5103330869932
 30
0.0
 11
-667.8294413798562
 21
166.8437978383659
 31
0.0
  0
LINE
  5
67
330
1F
100
AcDbEntity
  8
0-2
  6
Continuous
 62
     3
370
     9
100
AcDbLine
 10
-188.1626438450166
 20
1019.240211280617
 30
0.0
 11
-188.1626438450166
 21
838.573261982686
 31
0.0
  0
LINE
  5
68
330
1F
100
AcDbEntity
  8
0-1
  6
Continuous
 62
     2
370
     9
100
AcDbLine
 10
-670.4959766284838
 20
166.8437978383659
 30
0.0
 11
-670.4959766284838
 21
164.1770151499156
 31
0.0
  0
LINE
  5
69
330
1F
100
AcDbEntity
  8
0-1
  6
Continuous
 62
     2
370
     9
100
AcDbLine
 10
-664.4960558092271
 20
163.5104122677365
 30
0.0
 11
-604.4959815772802
 21
163.5104122677365
 31
0.0
  0
LINE
  5
6A
330
1F
100
AcDbEntity
  8
0-1
  6
Continuous
 62
     2
370
     9
100
AcDbLine
 10
-667.1627147777658
 20
160.8437532991977
 30
0.0
 11
-601.8293226087414
 21
160.8437532991977
 31
0.0
  0
LINE
  5
6B
330
1F
100
AcDbEntity
  8
0-1
  6
Continuous
 62
     2
370
     9
100
AcDbLine
 10
-595.1626751873943
 20
170.1771834089951
 30
0.0
 11
-531.1627362225505
 21
170.1771834089951
 31
0.0
  0
LINE
  5
6C
330
1F
100
AcDbEntity
  8
0-1
  6
Continuous
 62
     2
370
     9
100
AcDbLine
 10
-597.8294578758446
 20
172.8437186576227
 30
0.0
 11
-195.1627164273648
 21
172.8437186576227
 31
0.0
  0
LINE
  5
6D
330
1F
100
AcDbEntity
  8
0-1
  6
Continuous
 62
     2
370
     9
100
AcDbLine
 10
-601.1627197265625
 20
169.5103330869932
 30
0.0
 11
-601.1627197265625
 21
166.8437978383659
 31
0.0
  0
LINE
  5
6E
330
1F
100
AcDbEntity
  8
0-1
  6
Continuous
 62
     2
370
     9
100
AcDbLine
 10
-598.4960607580238
 20
166.8437978383659
 30
0.0
 11
-598.4960607580238
 21
164.1770151499156
 31
0.0
  0
LINE
  5
6F
330
1F
100
AcDbEntity
  8
0-1
  6
Continuous
 62
     2
370
     9
100
AcDbLine
 10
-527.8293506519213
 20
166.8437978383659
 30
0.0
 11
-527.8293506519213
 21
163.5104122677365
 31
0.0
  0
LINE
  5
70
330
1F
100
AcDbEntity
  8
0-1
  6
Continuous
 62
     2
370
     9
100
AcDbLine
 10
-455.8294347814609
 20
166.8437978383659
 30
0.0
 11
-455.8294347814609
 21
163.5104122677365
 31
0.0
  0
LINE
  5
71
330
1F
100
AcDbEntity
  8
0-1
  6
Continuous
 62
     2
370
     9
100
AcDbLine
 10
-525.1626916833825
 20
169.5103330869932
 30
0.0
 11
-525.1626916833825
 21
163.5104122677365
 31
0.0
  0
LINE
  5
72
330
1F
100
AcDbEntity
  8
0-1
  6
Continuous
 62
     2
370
     9
100
AcDbLine
 10
-458.4959700300885
 20
169.5103330869932
 30
0.0
 11
-458.4959700300885
 21
163.5104122677365
 31
0.0
  0
LINE
  5
73
330
1F
100
AcDbEntity
  8
0-1
  6
Continuous
 62
     2
370
     9
100
AcDbLine
 10
-391.829372096706
 20
169.5103330869932
 30
0.0
 11
-391.829372096706
 21
163.5104122677365
 31
0.0
  0
LINE
  5
74
330
1F
100
AcDbEntity
  8
0-1
  6
Continuous
 62
     2
370
     9
100
AcDbLine
 10
-325.162650443412
 20
169.5103330869932
 30
0.0
 11
-325.162650443412
 21
163.5104122677365
 31
0.0
  0
LINE
  5
75
330
1F
100
AcDbEntity
  8
0-1
  6
Continuous
 62
     2
370
     9
100
AcDbLine
 10
-527.8293506519213
 20
163.5104122677365
 30
0.0
 11
-455.8294347814609
 21
163.5104122677365
 31
0.0
  0
LINE
  5
76
330
1F
100
AcDbEntity
  8
0-1
  6
Continuous
 62
     2
370
     9
100
AcDbLine
 10
-394.4960310652448
 20
163.5104122677365
 30
0.0
 11
-322.4959914748732
 21
163.5104122677365
 31
0.0
  0
LINE
  5
77
330
1F
100
AcDbEntity
  8
0-1
  6
Continuous
 62
     2
370
     9
100
AcDbLine
 10
-394.4960310652448
 20
166.8437978383659
 30
0.0
 11
-394.4960310652448
 21
163.5104122677365
 31
0.0
  0
LINE
  5
78
330
1F
100
AcDbEntity
  8
0-1
  6
Continuous
 62
     2
370
     9
100
AcDbLine
 10
-322.4959914748732
 20
166.8437978383659
 30
0.0
 11
-322.4959914748732
 21
163.5104122677365
 31
0.0
  0
LINE
  5
79
330
1F
100
AcDbEntity
  8
0-1
  6
Continuous
 62
     2
370
     9
100
AcDbLine
 10
-452.4960492108318
 20
170.1771834089951
 30
0.0
 11
-397.8294166358739
 21
170.1771834089951
 31
0.0
  0
LINE
  5
7A
330
1F
100
AcDbEntity
  8
0-1
  6
Continuous
 62
     2
370
     9
100
AcDbLine
 10
-319.1627296241552
 20
170.1771834089951
 30
0.0
 11
-197.8293753959036
 21
170.1771834089951
 31
0.0
  0
LINE
  5
7B
330
1F
100
AcDbEntity
  8
0-1
  6
Continuous
 62
     2
370
     9
100
AcDbLine
 10
-194.4961135451857
 20
166.8437978383659
 30
0.0
 11
-194.4961135451857
 21
146.1770052523227
 31
0.0
  0
LINE
  5
7C
330
1F
100
AcDbEntity
  8
0-6
  6
Continuous
 62
     6
370
     9
100
AcDbLine
 10
-602.1627477697425
 20
143.5103462837839
 30
0.0
 11
-602.1627477697425
 21
146.1770052523227
 31
0.0
  0
LINE
  5
7D
330
1F
100
AcDbEntity
  8
0-3
  6
Continuous
 62
     4
370
     9
100
AcDbLine
 10
-641.1627279745564
 20
129.1770233979096
 30
0.0
 11
-627.829309411951
 21
129.1770233979096
 31
0.0
  0
LINE
  5
7E
330
1F
100
AcDbEntity
  8
0-3
  6
Continuous
 62
     4
370
     9
100
AcDbLine
 10
-627.829309411951
 20
129.1770233979096
 30
0.0
 11
-629.496064057221
 21
127.5102687526393
 31
0.0
  0
LINE
  5
7F
330
1F
100
AcDbEntity
  8
0-3
  6
Continuous
 62
     4
370
     9
100
AcDbLine
 10
-639.4960970491977
 20
127.5102687526393
 30
0.0
 11
-629.496064057221
 21
127.5102687526393
 31
0.0
  0
LINE
  5
80
330
1F
100
AcDbEntity
  8
0-3
  6
Continuous
 62
     4
370
     9
100
AcDbLine
 10
-641.1627279745564
 20
129.1770233979096
 30
0.0
 11
-639.4960970491977
 21
127.5102687526393
 31
0.0
  0
LINE
  5
81
330
1F
100
AcDbEntity
  8
0-3
  6
Continuous
 62
     4
370
     9
100
AcDbLine
 10
-627.829309411951
 20
139.1770563898859
 30
0.0
 11
-627.829309411951
 21
129.1770233979096
 31
0.0
  0
LINE
  5
82
330
1F
100
AcDbEntity
  8
0-3
  6
Continuous
 62
     4
370
     9
100
AcDbLine
 10
-641.1627279745564
 20
139.1770563898859
 30
0.0
 11
-641.1627279745564
 21
129.1770233979096
 31
0.0
  0
LINE
  5
83
330
1F
100
AcDbEntity
  8
0-1
  6
Continuous
 62
     2
370
     9
100
AcDbLine
 10
-624.4960475612331
 20
163.5104122677365
 30
0.0
 11
-624.4960475612331
 21
160.8437532991977
 31
0.0
  0
LINE
  5
84
330
1F
100
AcDbEntity
  8
0-1
  6
Continuous
 62
     2
370
     9
100
AcDbLine
 10
-644.4961135451856
 20
163.5104122677365
 30
0.0
 11
-644.4961135451856
 21
160.8437532991977
 31
0.0
  0
LINE
  5
85
330
1F
100
AcDbEntity
  8
0-3
  6
Continuous
 62
     4
370
     9
100
AcDbLine
 10
-656.1626537426096
 20
172.8437186576227
 30
0.0
 11
-612.8293836438977
 21
172.8437186576227
 31
0.0
  0
LINE
  5
86
330
1F
100
AcDbEntity
  8
0-3
  6
Continuous
 62
     4
370
     9
100
AcDbLine
 10
-631.1626949825802
 20
187.8436444256758
 30
0.0
 11
-611.1627527185387
 21
187.8436444256758
 31
0.0
  0
LINE
  5
87
330
1F
100
AcDbEntity
  8
0-3
  6
Continuous
 62
     4
370
     9
100
AcDbLine
 10
-631.1626949825802
 20
189.5102753510346
 30
0.0
 11
-612.8293836438977
 21
189.5102753510346
 31
0.0
  0
LINE
  5
88
330
1F
100
AcDbEntity
  8
0-3
  6
Continuous
 62
     4
370
     9
100
AcDbLine
 10
-631.1626949825802
 20
189.5102753510346
 30
0.0
 11
-631.1626949825802
 21
184.5103825749578
 31
0.0
  0
LINE
  5
89
330
1F
100
AcDbEntity
  8
0-3
  6
Continuous
 62
     4
370
     9
100
AcDbLine
 10
-637.8293424039273
 20
184.5103825749578
 30
0.0
 11
-631.1626949825802
 21
184.5103825749578
 31
0.0
  0
LINE
  5
8A
330
1F
100
AcDbEntity
  8
0-3
  6
Continuous
 62
     4
370
     9
100
AcDbLine
 10
-637.8293424039273
 20
189.5102753510346
 30
0.0
 11
-637.8293424039273
 21
184.5103825749578
 31
0.0
  0
LINE
  5
8B
330
1F
100
AcDbEntity
  8
0-3
  6
Continuous
 62
     4
370
     9
100
AcDbLine
 10
-657.82940838788
 20
187.8436444256758
 30
0.0
 11
-657.82940838788
 21
174.5103495829815
 31
0.0
  0
LINE
  5
8C
330
1F
100
AcDbEntity
  8
0-3
  6
Continuous
 62
     4
370
     9
100
AcDbLine
 10
-611.1627527185387
 20
174.5103495829815
 30
0.0
 11
-611.1627527185387
 21
187.8436444256758
 31
0.0
  0
LINE
  5
8D
330
1F
100
AcDbEntity
  8
0-3
  6
Continuous
 62
     4
370
     9
100
AcDbLine
 10
-611.1627527185387
 20
174.5103495829815
 30
0.0
 11
-612.8293836438977
 21
172.8437186576227
 31
0.0
  0
LINE
  5
8E
330
1F
100
AcDbEntity
  8
0-3
  6
Continuous
 62
     4
370
     9
100
AcDbLine
 10
-657.82940838788
 20
174.5103495829815
 30
0.0
 11
-656.1626537426096
 21
172.8437186576227
 31
0.0
  0
LINE
  5
8F
330
1F
100
AcDbEntity
  8
0-3
  6
Continuous
 62
     4
370
     9
100
AcDbLine
 10
-656.1626537426096
 20
189.5102753510346
 30
0.0
 11
-657.82940838788
 21
187.8436444256758
 31
0.0
  0
LINE
  5
90
330
1F
100
AcDbEntity
  8
0-3
  6
Continuous
 62
     4
370
     9
100
AcDbLine
 10
-612.8293836438977
 20
189.5102753510346
 30
0.0
 11
-611.1627527185387
 21
187.8436444256758
 31
0.0
  0
LINE
  5
91
330
1F
100
AcDbEntity
  8
0-3
  6
Continuous
 62
     4
370
     9
100
AcDbLine
 10
-656.1626537426096
 20
189.5102753510346
 30
0.0
 11
-637.8293424039273
 21
189.5102753510346
 31
0.0
  0
LINE
  5
92
330
1F
100
AcDbEntity
  8
0-3
  6
Continuous
 62
     4
370
     9
100
AcDbLine
 10
-657.82940838788
 20
187.8436444256758
 30
0.0
 11
-637.8293424039273
 21
187.8436444256758
 31
0.0
  0
LINE
  5
93
330
1F
100
AcDbEntity
  8
0-3
  6
Continuous
 62
     4
370
     9
100
AcDbLine
 10
-657.82940838788
 20
174.5103495829815
 30
0.0
 11
-611.1627527185387
 21
174.5103495829815
 31
0.0
  0
LINE
  5
94
330
1F
100
AcDbEntity
  8
0-3
  6
Continuous
 62
     4
370
     9
100
AcDbLine
 10
-639.4960970491977
 20
160.8437532991977
 30
0.0
 11
-639.4960970491977
 21
127.5102687526393
 31
0.0
  0
LINE
  5
95
330
1F
100
AcDbEntity
  8
0-3
  6
Continuous
 62
     4
370
     9
100
AcDbLine
 10
-629.496064057221
 20
160.8437532991977
 30
0.0
 11
-629.496064057221
 21
127.5102687526393
 31
0.0
  0
LINE
  5
96
330
1F
100
AcDbEntity
  8
0-3
  6
Continuous
 62
     4
370
     9
100
AcDbLine
 10
-627.829309411951
 20
139.1770563898859
 30
0.0
 11
-641.1627279745564
 21
139.1770563898859
 31
0.0
  0
LINE
  5
97
330
1F
100
AcDbEntity
  8
0-2
  6
Continuous
 62
     3
370
     9
100
AcDbLine
 10
-440.8293852934966
 20
-657.823024440456
 30
0.0
 11
-440.8293852934966
 21
-827.1564256822741
 31
0.0
  0
LINE
  5
98
330
1F
100
AcDbEntity
  8
0-2
  6
Continuous
 62
     3
370
     9
100
AcDbLine
 10
-438.1626026050463
 20
-660.4896215490392
 30
0.0
 11
-438.1626026050463
 21
-827.1564256822741
 31
0.0
  0
LINE
  5
99
330
1F
100
AcDbEntity
  8
0-2
  6
Continuous
 62
     3
370
     9
100
AcDbLine
 10
-604.8292830183698
 20
-827.1564256822741
 30
0.0
 11
-438.1626026050463
 21
-827.1564256822741
 31
0.0
  0
LINE
  5
9A
330
1F
100
AcDbEntity
  8
0-2
  6
Continuous
 62
     3
370
     9
100
AcDbLine
 10
-704.8293654983106
 20
172.8437186576227
 30
0.0
 11
-704.8293654983106
 21
-627.1563225823479
 31
0.0
  0
LINE
  5
9B
330
1F
100
AcDbEntity
  8
0-6
  6
Continuous
 62
     6
370
     9
100
AcDbLine
 10
-702.1627065297719
 20
46.17692277238177
 30
0.0
 11
-699.4960475612331
 21
46.17692277238177
 31
0.0
  0
LINE
  5
9C
330
1F
100
AcDbEntity
  8
0-6
  6
Continuous
 62
     6
370
     9
100
AcDbLine
 10
-699.4960475612331
 20
140.1770844330659
 30
0.0
 11
-699.4960475612331
 21
46.17692277238177
 31
0.0
  0
LINE
  5
9D
330
1F
100
AcDbEntity
  8
0-6
  6
Continuous
 62
     6
370
     9
100
AcDbLine
 10
-696.1627857105151
 20
143.5103462837839
 30
0.0
 11
-642.1627560177365
 21
143.5103462837839
 31
0.0
  0
LINE
  5
9E
330
1F
100
AcDbEntity
  8
0-6
  6
Continuous
 62
     6
370
     9
100
AcDbLine
 10
-642.1627560177365
 20
143.5103462837839
 30
0.0
 11
-642.1627560177365
 21
140.1770844330659
 31
0.0
  0
LINE
  5
9F
330
1F
100
AcDbEntity
  8
0-6
  6
Continuous
 62
     6
370
     9
100
AcDbLine
 10
-626.8294050886823
 20
140.1770844330659
 30
0.0
 11
-626.8294050886823
 21
143.5103462837839
 31
0.0
  0
LINE
  5
A0
330
1F
100
AcDbEntity
  8
0-6
  6
Continuous
 62
     6
370
     9
100
AcDbLine
 10
-626.8294050886823
 20
143.5103462837839
 30
0.0
 11
-602.1627477697425
 21
143.5103462837839
 31
0.0
  0
LINE
  5
A1
330
1F
100
AcDbEntity
  8
0-6
  6
Continuous
 62
     6
370
     9
100
AcDbLine
 10
-699.4960475612331
 20
108.5103545317779
 30
0.0
 11
-664.4960558092271
 21
143.5103462837839
 31
0.0
  0
LINE
  5
A2
330
1F
100
AcDbEntity
  8
0-6
  6
Continuous
 62
     6
370
     9
100
AcDbLine
 10
-204.1627213761612
 20
146.1770052523227
 30
0.0
 11
-204.1627213761612
 21
136.1770959802578
 31
0.0
  0
LINE
  5
A3
330
1F
100
AcDbEntity
  8
0-6
  6
Continuous
 62
     6
370
     9
100
AcDbLine
 10
-204.1627213761612
 20
136.1770959802578
 30
0.0
 11
-195.8294430294552
 21
136.1770959802578
 31
0.0
  0
LINE
  5
A4
330
1F
100
AcDbEntity
  8
0-6
  6
Continuous
 62
     6
370
     9
100
AcDbLine
 10
-195.8294430294552
 20
136.1770959802578
 30
0.0
 11
-195.8294430294552
 21
112.8436444256758
 31
0.0
  0
LINE
  5
A5
330
1F
100
AcDbEntity
  8
0-6
  6
Continuous
 62
     6
370
     9
100
AcDbLine
 10
-195.8294430294552
 20
112.8436444256758
 30
0.0
 11
-190.8293028135557
 21
112.8436444256758
 31
0.0
  0
LINE
  5
A6
330
1F
100
AcDbEntity
  8
0-2
  6
Continuous
 62
     3
370
     9
100
AcDbLine
 10
-207.4961069467903
 20
-43.82300299567135
 30
0.0
 11
-207.4961069467903
 21
-327.1563225823479
 31
0.0
  0
LINE
  5
A7
330
1F
100
AcDbEntity
  8
0-2
  6
Continuous
 62
     3
370
     9
100
AcDbLine
 10
-190.8293028135557
 20
-43.82300299567135
 30
0.0
 11
-207.4961069467903
 21
-43.82300299567135
 31
0.0
  0
LINE
  5
A8
330
1F
100
AcDbEntity
  8
0-2
  6
Continuous
 62
     3
370
     9
100
AcDbLine
 10
-190.8293028135557
 20
-327.1563225823479
 30
0.0
 11
-207.4961069467903
 21
-327.1563225823479
 31
0.0
  0
LINE
  5
A9
330
1F
100
AcDbEntity
  8
0-2
  6
Continuous
 62
     3
370
     9
100
AcDbLine
 10
619.8372505806589
 20
172.8437186576227
 30
0.0
 11
619.8372505806589
 21
-627.1563225823479
 31
0.0
  0
LINE
  5
AA
330
1F
100
AcDbEntity
  8
0-2
  6
Continuous
 62
     3
370
     9
100
AcDbLine
 10
986.5039722339526
 20
172.8437186576227
 30
0.0
 11
986.5039722339526
 21
-627.1563225823479
 31
0.0
  0
LINE
  5
AB
330
1F
100
AcDbEntity
  8
0-2
  6
Continuous
 62
     3
370
     9
100
AcDbLine
 10
619.8372505806589
 20
172.8437186576227
 30
0.0
 11
986.5039722339526
 21
172.8437186576227
 31
0.0
  0
LINE
  5
AC
330
1F
100
AcDbEntity
  8
0-2
  6
Continuous
 62
     3
370
     9
100
AcDbLine
 10
719.8373330606
 20
-393.8230442356418
 30
0.0
 11
886.503889754012
 21
-393.8230442356418
 31
0.0
  0
LINE
  5
AD
330
1F
100
AcDbEntity
  8
0-2
  6
Continuous
 62
     3
370
     9
100
AcDbLine
 10
-704.8293654983106
 20
-627.1563225823479
 30
0.0
 11
-190.8293028135557
 21
-627.1563225823479
 31
0.0
  0
LINE
  5
AE
330
1F
100
AcDbEntity
  8
0-2
  6
JWW_CENTER1
 62
     3
370
     9
100
AcDbLine
 10
-521.4960046716637
 20
-843.5606343037373
 30
0.0
 11
-521.4960046716637
 21
-605.2265971415751
 31
0.0
  0
LINE
  5
AF
330
1F
100
AcDbEntity
  8
0-2
  6
Continuous
 62
     3
370
     9
100
AcDbLine
 10
694.8372505806589
 20
39.51027535103464
 30
0.0
 11
694.8372505806589
 21
106.1769970043287
 31
0.0
  0
LINE
  5
B0
330
1F
100
AcDbEntity
  8
0-2
  6
Continuous
 62
     3
370
     9
100
AcDbLine
 10
661.503889754012
 20
39.51027535103464
 30
0.0
 11
661.503889754012
 21
106.1769970043287
 31
0.0
  0
LINE
  5
B1
330
1F
100
AcDbEntity
  8
0-2
  6
Continuous
 62
     3
370
     9
100
AcDbLine
 10
911.5039722339526
 20
39.51027535103464
 30
0.0
 11
911.5039722339526
 21
106.1769970043287
 31
0.0
  0
LINE
  5
B2
330
1F
100
AcDbEntity
  8
0-2
  6
Continuous
 62
     3
370
     9
100
AcDbLine
 10
944.8373330606
 20
39.51027535103464
 30
0.0
 11
944.8373330606
 21
106.1769970043287
 31
0.0
  0
LINE
  5
B3
330
1F
100
AcDbEntity
  8
0-2
  6
Continuous
 62
     3
370
     9
100
AcDbLine
 10
653.1706114073057
 20
-660.4896215490392
 30
0.0
 11
953.1706114073057
 21
-660.4896215490392
 31
0.0
  0
LINE
  5
B4
330
1F
100
AcDbEntity
  8
0-2
  6
Continuous
 62
     3
370
     9
100
AcDbLine
 10
619.8372505806589
 20
-627.1563225823479
 30
0.0
 11
653.1706114073057
 21
-660.4896215490392
 31
0.0
  0
LINE
  5
B5
330
1F
100
AcDbEntity
  8
0-2
  6
Continuous
 62
     3
370
     9
100
AcDbLine
 10
986.5039722339526
 20
-627.1563225823479
 30
0.0
 11
953.1706114073057
 21
-660.4896215490392
 31
0.0
  0
LINE
  5
B6
330
1F
100
AcDbEntity
  8
0-2
  6
JWW_DASHED1
 62
     3
370
     9
100
AcDbLine
 10
622.5041569890203
 20
172.8437186576227
 30
0.0
 11
622.5041569890203
 21
-627.1563225823479
 31
0.0
  0
LINE
  5
B7
330
1F
100
AcDbEntity
  8
0-2
  6
JWW_DASHED1
 62
     3
370
     9
100
AcDbLine
 10
983.8373132654141
 20
172.8437186576227
 30
0.0
 11
983.8373132654141
 21
-627.1563225823479
 31
0.0
  0
LINE
  5
B8
330
1F
100
AcDbEntity
  8
0-2
  6
JWW_DASHED1
 62
     3
370
     9
100
AcDbLine
 10
653.1706114073057
 20
-657.823024440456
 30
0.0
 11
953.1706114073057
 21
-657.823024440456
 31
0.0
  0
LINE
  5
B9
330
1F
100
AcDbEntity
  8
0-2
  6
JWW_DASHED1
 62
     3
370
     9
100
AcDbLine
 10
653.1706114073057
 20
-657.823024440456
 30
0.0
 11
622.5041569890203
 21
-627.1563225823479
 31
0.0
  0
LINE
  5
BA
330
1F
100
AcDbEntity
  8
0-2
  6
JWW_DASHED1
 62
     3
370
     9
100
AcDbLine
 10
953.1706114073057
 20
-657.823024440456
 30
0.0
 11
983.8373132654141
 21
-627.1563225823479
 31
0.0
  0
LINE
  5
BB
330
1F
100
AcDbEntity
  8
0-2
  6
Continuous
 62
     3
370
     9
100
AcDbLine
 10
719.8373330606
 20
-660.4896215490392
 30
0.0
 11
719.8373330606
 21
-827.1564256822741
 31
0.0
  0
LINE
  5
BC
330
1F
100
AcDbEntity
  8
0-2
  6
Continuous
 62
     3
370
     9
100
AcDbLine
 10
886.503889754012
 20
-660.4896215490392
 30
0.0
 11
886.503889754012
 21
-827.1564256822741
 31
0.0
  0
LINE
  5
BD
330
1F
100
AcDbEntity
  8
0-2
  6
Continuous
 62
     3
370
     9
100
AcDbLine
 10
719.8373330606
 20
-827.1564256822741
 30
0.0
 11
886.503889754012
 21
-827.1564256822741
 31
0.0
  0
LINE
  5
BE
330
1F
100
AcDbEntity
  8
0-2
  6
JWW_CENTER1
 62
     3
370
     9
100
AcDbLine
 10
-726.5389932168495
 20
835.9068504539698
 30
0.0
 11
-166.9543292071367
 21
835.9068504539698
 31
0.0
  0
LINE
  5
BF
330
1F
100
AcDbEntity
  8
0-1
  6
JWW_CENTER1
 62
     2
370
     9
100
AcDbLine
 10
-491.8294545766469
 20
855.5100229624156
 30
0.0
 11
-491.8294545766469
 21
948.0963134765625
 31
0.0
  0
LINE
  5
C0
330
1F
100
AcDbEntity
  8
0-1
  6
JWW_CENTER1
 62
     2
370
     9
100
AcDbLine
 10
-533.1545030748521
 20
902.5735721072635
 30
0.0
 11
-451.6922409470016
 21
902.5735721072635
 31
0.0
  0
LINE
  5
C1
330
1F
100
AcDbEntity
  8
0-1
  6
JWW_CENTER1
 62
     2
370
     9
100
AcDbLine
 10
-533.1545030748521
 20
769.2401288006758
 30
0.0
 11
-449.6556874868031
 21
769.2401288006758
 31
0.0
  0
LINE
  5
C2
330
1F
100
AcDbEntity
  8
0-1
  6
JWW_CENTER1
 62
     2
370
     9
100
AcDbLine
 10
-491.8294545766469
 20
728.4363122888516
 30
0.0
 11
-491.8294545766469
 21
813.683785103463
 31
0.0
  0
LINE
  5
C3
330
1F
100
AcDbEntity
  8
0-1
  6
JWW_CENTER1
 62
     2
370
     9
100
AcDbLine
 10
-403.4127725137245
 20
769.2401288006758
 30
0.0
 11
-319.00634765625
 21
769.2401288006758
 31
0.0
  0
LINE
  5
C4
330
1F
100
AcDbEntity
  8
0-1
  6
JWW_CENTER1
 62
     2
370
     9
100
AcDbLine
 10
-358.4960112700591
 20
728.6797930743245
 30
0.0
 11
-358.4960112700591
 21
809.9979215054901
 31
0.0
  0
LINE
  5
C5
330
1F
100
AcDbEntity
  8
0-1
  6
JWW_CENTER1
 62
     2
370
     9
100
AcDbLine
 10
-399.250958416913
 20
902.5735721072635
 30
0.0
 11
-316.5712923616977
 21
902.5735721072635
 31
0.0
  0
LINE
  5
C6
330
1F
100
AcDbEntity
  8
0-1
  6
JWW_CENTER1
 62
     2
370
     9
100
AcDbLine
 10
-358.4960112700591
 20
859.1961340002113
 30
0.0
 11
-358.4960112700591
 21
947.8528326910896
 31
0.0
  0
LINE
  5
C7
330
1F
100
AcDbEntity
  8
0-2
  6
Continuous
 62
     3
370
     9
100
AcDbLine
 10
-190.8293028135557
 20
172.8437186576227
 30
0.0
 11
-190.8293028135557
 21
-657.823024440456
 31
0.0
  0
LINE
  5
C8
330
1F
100
AcDbEntity
  8
0-2
  6
Continuous
 62
     3
370
     9
100
AcDbLine
 10
-195.1627164273648
 20
172.8437186576227
 30
0.0
 11
-188.1626438450166
 21
172.8437186576227
 31
0.0
  0
LINE
  5
C9
330
1F
100
AcDbEntity
  8
0-1
  6
Continuous
 62
     2
370
     9
100
AcDbLine
 10
-697.8294166358739
 20
172.8437186576227
 30
0.0
 11
-671.1627032305742
 21
172.8437186576227
 31
0.0
  0
LINE
  5
CA
330
1F
100
AcDbEntity
  8
0-2
  6
Continuous
 62
     3
370
     9
100
AcDbLine
 10
-697.8294166358739
 20
172.8437186576227
 30
0.0
 11
-704.8293654983106
 21
172.8437186576227
 31
0.0
  0
LINE
  5
CB
330
1F
100
AcDbEntity
  8
0-3
  6
JWW_CENTER1
 62
     4
370
     9
100
AcDbLine
 10
-634.4960805532094
 20
187.8436444256758
 30
0.0
 11
-634.4960805532094
 21
122.4303291939401
 31
0.0
  0
LINE
  5
CC
330
1F
100
AcDbEntity
  8
0-2
  6
Continuous
 62
     3
370
     9
100
AcDbLine
 10
-702.1627065297719
 20
172.8437186576227
 30
0.0
 11
-702.1627065297719
 21
-627.1563225823479
 31
0.0
  0
LINE
  5
CD
330
1F
100
AcDbEntity
  8
0-6
  6
Continuous
 62
     6
370
     9
100
AcDbLine
 10
-697.8294166358739
 20
146.1770052523227
 30
0.0
 11
-602.1627477697425
 21
146.1770052523227
 31
0.0
  0
LINE
  5
CE
330
1F
100
AcDbEntity
  8
0-1
  6
Continuous
 62
     2
370
     9
100
AcDbLine
 10
-601.1627197265625
 20
146.1770052523227
 30
0.0
 11
-204.1627213761612
 21
146.1770052523227
 31
0.0
  0
LINE
  5
CF
330
1F
100
AcDbEntity
  8
0-3
  6
JWW_CENTER1
 62
     4
370
     9
100
AcDbLine
 10
-634.4960805532094
 20
809.0428037901186
 30
0.0
 11
-634.4960805532094
 21
866.7190469277873
 31
0.0
  0
LINE
  5
D0
330
1F
100
AcDbEntity
  8
0-2
  6
JWW_CENTER1
 62
     3
370
     9
100
AcDbLine
 10
644.9548669763516
 20
72.84375989759297
 30
0.0
 11
707.4208027607688
 21
72.84375989759297
 31
0.0
  0
LINE
  5
D1
330
1F
100
AcDbEntity
  8
0-2
  6
JWW_CENTER1
 62
     3
370
     9
100
AcDbLine
 10
678.1706938872469
 20
138.0431634026607
 30
0.0
 11
678.1706938872469
 21
14.5306066564612
 31
0.0
  0
LINE
  5
D2
330
1F
100
AcDbEntity
  8
0-2
  6
JWW_CENTER1
 62
     3
370
     9
100
AcDbLine
 10
900.0613650760135
 20
72.84375989759297
 30
0.0
 11
955.92041015625
 21
72.84375989759297
 31
0.0
  0
LINE
  5
D3
330
1F
100
AcDbEntity
  8
0-2
  6
JWW_CENTER1
 62
     3
370
     9
100
AcDbLine
 10
928.1705289273651
 20
133.2926899678
 30
0.0
 11
928.1705289273651
 21
14.80353278082788
 31
0.0
  0
LINE
  5
D4
330
1F
100
AcDbEntity
  8
0-1
  6
Continuous
 62
     2
370
     9
100
AcDbLine
 10
-521.4960046716637
 20
656.2403003589529
 30
0.0
 11
-191.8293308567354
 21
656.2403003589529
 31
0.0
  0
LINE
  5
D5
330
1F
100
AcDbEntity
  8
0-1
  6
Continuous
 62
     2
370
     9
100
AcDbLine
 10
-521.4960046716637
 20
1015.573400548987
 30
0.0
 11
-191.8293308567354
 21
1015.573400548987
 31
0.0
  0
LINE
  5
D6
330
1F
100
AcDbEntity
  8
0-1
  6
Continuous
 62
     2
370
     9
100
AcDbLine
 10
-191.8293308567354
 20
656.2403003589529
 30
0.0
 11
-191.8293308567354
 21
1015.573400548987
 31
0.0
  0
LINE
  5
D7
330
1F
100
AcDbEntity
  8
0-1
  6
JWW_DASHED1
 62
     2
370
     9
100
AcDbLine
 10
-193.8293869430953
 20
658.2401090054898
 30
0.0
 11
-193.8293869430953
 21
1013.573344462627
 31
0.0
  0
LINE
  5
D8
330
1F
100
AcDbEntity
  8
0-1
  6
JWW_DASHED1
 62
     2
370
     9
100
AcDbLine
 10
-521.4960046716637
 20
1013.573344462627
 30
0.0
 11
-193.8293869430953
 21
1013.573344462627
 31
0.0
  0
LINE
  5
D9
330
1F
100
AcDbEntity
  8
0-1
  6
JWW_DASHED1
 62
     2
370
     9
100
AcDbLine
 10
-521.4960046716637
 20
658.2401090054898
 30
0.0
 11
-193.8293869430953
 21
658.2401090054898
 31
0.0
  0
LINE
  5
DA
330
1F
100
AcDbEntity
  8
0-6
  6
JWW_DASHED1
 62
     6
370
     9
100
AcDbLine
 10
-602.1627477697425
 20
802.5734896273227
 30
0.0
 11
-602.1627477697425
 21
869.2402112806167
 31
0.0
  0
LINE
  5
DB
330
1F
100
AcDbEntity
  8
0-6
  6
JWW_DASHED1
 62
     6
370
     9
100
AcDbLine
 10
-698.0434520824533
 20
869.2402112806167
 30
0.0
 11
-602.1627477697425
 21
869.2402112806167
 31
0.0
  0
LINE
  5
DC
330
1F
100
AcDbEntity
  8
0-6
  6
JWW_DASHED1
 62
     6
370
     9
100
AcDbLine
 10
-698.0434520824533
 20
802.5734896273227
 30
0.0
 11
-602.1627477697425
 21
802.5734896273227
 31
0.0
  0
LINE
  5
DD
330
1F
100
AcDbEntity
  8
0-6
  6
JWW_DASHED1
 62
     6
370
     9
100
AcDbLine
 10
-204.16259765625
 20
662.5735226192992
 30
0.0
 11
-204.16259765625
 21
695.906883445946
 31
0.0
  0
LINE
  5
DE
330
1F
100
AcDbEntity
  8
0-6
  6
JWW_DASHED1
 62
     6
370
     9
100
AcDbLine
 10
-190.8293028135557
 20
695.906883445946
 30
0.0
 11
-204.16259765625
 21
695.906883445946
 31
0.0
  0
LINE
  5
DF
330
1F
100
AcDbEntity
  8
0-6
  6
JWW_DASHED1
 62
     6
370
     9
100
AcDbLine
 10
-190.8293028135557
 20
662.5735226192992
 30
0.0
 11
-204.16259765625
 21
662.5735226192992
 31
0.0
  0
LINE
  5
E0
330
1F
100
AcDbEntity
  8
0-6
  6
JWW_DASHED1
 62
     6
370
     9
100
AcDbLine
 10
-204.16259765625
 20
1009.24017828864
 30
0.0
 11
-204.16259765625
 21
975.9068174619936
 31
0.0
  0
LINE
  5
E1
330
1F
100
AcDbEntity
  8
0-6
  6
JWW_DASHED1
 62
     6
370
     9
100
AcDbLine
 10
-190.8293028135557
 20
975.9068174619936
 30
0.0
 11
-204.16259765625
 21
975.9068174619936
 31
0.0
  0
LINE
  5
E2
330
1F
100
AcDbEntity
  8
0-6
  6
JWW_DASHED1
 62
     6
370
     9
100
AcDbLine
 10
-190.8293028135557
 20
1009.24017828864
 30
0.0
 11
-204.16259765625
 21
1009.24017828864
 31
0.0
  0
LINE
  5
E3
330
1F
100
AcDbEntity
  8
0-4
  6
Continuous
 62
     7
370
     9
100
AcDbLine
 10
-704.8293654983106
 20
1119.240293760558
 30
0.0
 11
-188.1626438450166
 21
1119.240293760558
 31
0.0
  0
LINE
  5
E4
330
1F
100
AcDbEntity
  8
0-4
  6
Continuous
 62
     7
370
     9
100
AcDbLine
 10
-704.8293654983106
 20
860.9069329339106
 30
0.0
 11
-704.8293654983106
 21
1122.240254170186
 31
0.0
  0
LINE
  5
E5
330
1F
100
AcDbEntity
  8
0-4
  6
Continuous
 62
     7
370
     9
100
AcDbLine
 10
-188.1626438450166
 20
1044.240293760558
 30
0.0
 11
-188.1626438450166
 21
1122.240254170186
 31
0.0
  0
LINE
  5
E6
330
1F
100
AcDbEntity
  8
0-4
  6
Continuous
 62
     7
370
     9
100
AcDbLine
 10
-704.8293654983106
 20
1119.240293760558
 30
0.0
 11
-680.043194745038
 21
1122.50353014147
 31
0.0
  0
LINE
  5
E7
330
1F
100
AcDbEntity
  8
0-4
  6
Continuous
 62
     7
370
     9
100
AcDbLine
 10
-704.8293654983106
 20
1119.240293760558
 30
0.0
 11
-680.043194745038
 21
1115.977057379645
 31
0.0
  0
LINE
  5
E8
330
1F
100
AcDbEntity
  8
0-4
  6
Continuous
 62
     7
370
     9
100
AcDbLine
 10
-188.1626438450166
 20
1119.240293760558
 30
0.0
 11
-212.9488145982896
 21
1122.50353014147
 31
0.0
  0
LINE
  5
E9
330
1F
100
AcDbEntity
  8
0-4
  6
Continuous
 62
     7
370
     9
100
AcDbLine
 10
-188.1626438450166
 20
1119.240293760558
 30
0.0
 11
-212.9488145982896
 21
1115.977057379645
 31
0.0
  0
LINE
  5
EA
330
1F
100
AcDbEntity
  8
0-4
  6
Continuous
 62
     7
370
     9
100
AcDbLine
 10
-88.16268508498723
 20
652.5734896273227
 30
0.0
 11
-88.16268508498723
 21
1019.240211280617
 31
0.0
  0
LINE
  5
EB
330
1F
100
AcDbEntity
  8
0-4
  6
Continuous
 62
     7
370
     9
100
AcDbLine
 10
-163.1626850849872
 20
652.5734896273227
 30
0.0
 11
-85.16272467535885
 21
652.5734896273227
 31
0.0
  0
LINE
  5
EC
330
1F
100
AcDbEntity
  8
0-4
  6
Continuous
 62
     7
370
     9
100
AcDbLine
 10
-163.1626850849872
 20
1019.240211280617
 30
0.0
 11
-85.16272467535885
 21
1019.240211280617
 31
0.0
  0
LINE
  5
ED
330
1F
100
AcDbEntity
  8
0-4
  6
Continuous
 62
     7
370
     9
100
AcDbLine
 10
-88.16268508498723
 20
652.5734896273227
 30
0.0
 11
-91.425797745988
 21
677.3595366606842
 31
0.0
  0
LINE
  5
EE
330
1F
100
AcDbEntity
  8
0-4
  6
Continuous
 62
     7
370
     9
100
AcDbLine
 10
-88.16268508498723
 20
652.5734896273227
 30
0.0
 11
-84.89957242398646
 21
677.3595366606842
 31
0.0
  0
LINE
  5
EF
330
1F
100
AcDbEntity
  8
0-4
  6
Continuous
 62
     7
370
     9
100
AcDbLine
 10
-88.16268508498723
 20
1019.240211280617
 30
0.0
 11
-91.425797745988
 21
994.4541642472552
 31
0.0
  0
LINE
  5
F0
330
1F
100
AcDbEntity
  8
0-4
  6
Continuous
 62
     7
370
     9
100
AcDbLine
 10
-88.16268508498723
 20
1019.240211280617
 30
0.0
 11
-84.89957242398646
 21
994.4541642472552
 31
0.0
  0
LINE
  5
F1
330
1F
100
AcDbEntity
  8
0-4
  6
Continuous
 62
     7
370
     9
100
AcDbLine
 10
-804.829200538429
 20
-827.1564256822741
 30
0.0
 11
-804.829200538429
 21
172.8437186576227
 31
0.0
  0
LINE
  5
F2
330
1F
100
AcDbEntity
  8
0-4
  6
Continuous
 62
     7
370
     9
100
AcDbLine
 10
-629.8292417783995
 20
-827.1564256822741
 30
0.0
 11
-807.8291609480573
 21
-827.1564256822741
 31
0.0
  0
LINE
  5
F3
330
1F
100
AcDbEntity
  8
0-4
  6
Continuous
 62
     7
370
     9
100
AcDbLine
 10
-696.4959634316932
 20
-660.4896215490392
 30
0.0
 11
-807.8291609480573
 21
-660.4896215490392
 31
0.0
  0
LINE
  5
F4
330
1F
100
AcDbEntity
  8
0-4
  6
Continuous
 62
     7
370
     9
100
AcDbLine
 10
-804.829200538429
 20
-827.1564256822741
 30
0.0
 11
-808.0924369193411
 21
-802.3703167889569
 31
0.0
  0
LINE
  5
F5
330
1F
100
AcDbEntity
  8
0-4
  6
Continuous
 62
     7
370
     9
100
AcDbLine
 10
-804.829200538429
 20
-827.1564256822741
 30
0.0
 11
-801.5662115973396
 21
-802.3703167889569
 31
0.0
  0
LINE
  5
F6
330
1F
100
AcDbEntity
  8
0-4
  6
Continuous
 62
     7
370
     9
100
AcDbLine
 10
-804.829200538429
 20
-660.4896215490392
 30
0.0
 11
-808.0924369193411
 21
-685.2757304423563
 31
0.0
  0
LINE
  5
F7
330
1F
100
AcDbEntity
  8
0-4
  6
Continuous
 62
     7
370
     9
100
AcDbLine
 10
-804.829200538429
 20
-660.4896215490392
 30
0.0
 11
-801.5662115973396
 21
-685.2757304423563
 31
0.0
  0
LINE
  5
F8
330
1F
100
AcDbEntity
  8
0-4
  6
Continuous
 62
     7
370
     9
100
AcDbLine
 10
-729.8293242583404
 20
-627.1563225823479
 30
0.0
 11
-807.8291609480573
 21
-627.1563225823479
 31
0.0
  0
LINE
  5
F9
330
1F
100
AcDbEntity
  8
0-4
  6
Continuous
 62
     7
370
     9
100
AcDbLine
 10
-729.8293242583404
 20
172.8437186576227
 30
0.0
 11
-807.8291609480573
 21
172.8437186576227
 31
0.0
  0
LINE
  5
FA
330
1F
100
AcDbEntity
  8
0-4
  6
Continuous
 62
     7
370
     9
100
AcDbLine
 10
-804.829200538429
 20
-627.1563225823479
 30
0.0
 11
-808.0924369193411
 21
-602.3702136890307
 31
0.0
  0
LINE
  5
FB
330
1F
100
AcDbEntity
  8
0-4
  6
Continuous
 62
     7
370
     9
100
AcDbLine
 10
-804.829200538429
 20
-627.1563225823479
 30
0.0
 11
-801.5662115973396
 21
-602.3702136890307
 31
0.0
  0
LINE
  5
FC
330
1F
100
AcDbEntity
  8
0-4
  6
Continuous
 62
     7
370
     9
100
AcDbLine
 10
-804.829200538429
 20
172.8437186576227
 30
0.0
 11
-808.0924369193411
 21
148.0575479043497
 31
0.0
  0
LINE
  5
FD
330
1F
100
AcDbEntity
  8
0-4
  6
Continuous
 62
     7
370
     9
100
AcDbLine
 10
-804.829200538429
 20
172.8437186576227
 30
0.0
 11
-801.5662115973396
 21
148.0575479043497
 31
0.0
  0
LINE
  5
FE
330
1F
100
AcDbEntity
  8
0-4
  6
Continuous
 62
     7
370
     9
100
AcDbLine
 10
678.1706938872469
 20
272.8436774176521
 30
0.0
 11
928.1705289273651
 21
272.8436774176521
 31
0.0
  0
LINE
  5
FF
330
1F
100
AcDbEntity
  8
0-4
  6
Continuous
 62
     7
370
     9
100
AcDbLine
 10
678.1706938872469
 20
163.0431221626901
 30
0.0
 11
678.1706938872469
 21
275.8436378272805
 31
0.0
  0
LINE
  5
100
330
1F
100
AcDbEntity
  8
0-4
  6
Continuous
 62
     7
370
     9
100
AcDbLine
 10
928.1705289273651
 20
158.2926487278294
 30
0.0
 11
928.1705289273651
 21
275.8436378272805
 31
0.0
  0
LINE
  5
101
330
1F
100
AcDbEntity
  8
0-4
  6
Continuous
 62
     7
370
     9
100
AcDbLine
 10
678.1706938872469
 20
272.8436774176521
 30
0.0
 11
702.9567409206084
 21
276.1067900786529
 31
0.0
  0
LINE
  5
102
330
1F
100
AcDbEntity
  8
0-4
  6
Continuous
 62
     7
370
     9
100
AcDbLine
 10
678.1706938872469
 20
272.8436774176521
 30
0.0
 11
702.9567409206084
 21
269.5805647566513
 31
0.0
  0
LINE
  5
103
330
1F
100
AcDbEntity
  8
0-4
  6
Continuous
 62
     7
370
     9
100
AcDbLine
 10
928.1705289273651
 20
272.8436774176521
 30
0.0
 11
903.3844818940037
 21
276.1067900786529
 31
0.0
  0
LINE
  5
104
330
1F
100
AcDbEntity
  8
0-4
  6
Continuous
 62
     7
370
     9
100
AcDbLine
 10
928.1705289273651
 20
272.8436774176521
 30
0.0
 11
903.3844818940037
 21
269.5805647566513
 31
0.0
  0
LINE
  5
105
330
1F
100
AcDbEntity
  8
0-4
  6
Continuous
 62
     7
370
     9
100
AcDbLine
 10
519.8371681007183
 20
72.84375989759297
 30
0.0
 11
519.8371681007183
 21
172.8437186576227
 31
0.0
  0
LINE
  5
106
330
1F
100
AcDbEntity
  8
0-4
  6
Continuous
 62
     7
370
     9
100
AcDbLine
 10
619.9547844964104
 20
72.84375989759297
 30
0.0
 11
516.8372076910896
 21
72.84375989759297
 31
0.0
  0
LINE
  5
107
330
1F
100
AcDbEntity
  8
0-4
  6
Continuous
 62
     7
370
     9
100
AcDbLine
 10
594.8371681007183
 20
172.8437186576227
 30
0.0
 11
436.8371911951016
 21
172.8437186576227
 31
0.0
  0
LINE
  5
108
330
1F
100
AcDbEntity
  8
0-4
  6
Continuous
 62
     7
370
     9
100
AcDbLine
 10
519.8371681007183
 20
72.84375989759297
 30
0.0
 11
516.5739317198057
 21
97.6299306508659
 31
0.0
  0
LINE
  5
109
330
1F
100
AcDbEntity
  8
0-4
  6
Continuous
 62
     7
370
     9
100
AcDbLine
 10
519.8371681007183
 20
72.84375989759297
 30
0.0
 11
523.1004044816302
 21
97.6299306508659
 31
0.0
  0
LINE
  5
10A
330
1F
100
AcDbEntity
  8
0-4
  6
Continuous
 62
     7
370
     9
100
AcDbLine
 10
519.8371681007183
 20
172.8437186576227
 30
0.0
 11
516.5739317198057
 21
148.0575479043497
 31
0.0
  0
LINE
  5
10B
330
1F
100
AcDbEntity
  8
0-4
  6
Continuous
 62
     7
370
     9
100
AcDbLine
 10
519.8371681007183
 20
172.8437186576227
 30
0.0
 11
523.1004044816302
 21
148.0575479043497
 31
0.0
  0
LINE
  5
10C
330
1F
100
AcDbEntity
  8
0-4
  6
Continuous
 62
     7
370
     9
100
AcDbLine
 10
1086.504054713894
 20
-827.1564256822741
 30
0.0
 11
1086.504054713894
 21
172.8437186576227
 31
0.0
  0
LINE
  5
10D
330
1F
100
AcDbEntity
  8
0-4
  6
Continuous
 62
     7
370
     9
100
AcDbLine
 10
911.5039722339526
 20
-827.1564256822741
 30
0.0
 11
1169.50403161951
 21
-827.1564256822741
 31
0.0
  0
LINE
  5
10E
330
1F
100
AcDbEntity
  8
0-4
  6
Continuous
 62
     7
370
     9
100
AcDbLine
 10
978.1706938872469
 20
-660.4896215490392
 30
0.0
 11
1089.504015123522
 21
-660.4896215490392
 31
0.0
  0
LINE
  5
10F
330
1F
100
AcDbEntity
  8
0-4
  6
Continuous
 62
     7
370
     9
100
AcDbLine
 10
1086.504054713894
 20
-827.1564256822741
 30
0.0
 11
1083.240818332982
 21
-802.3703167889569
 31
0.0
  0
LINE
  5
110
330
1F
100
AcDbEntity
  8
0-4
  6
Continuous
 62
     7
370
     9
100
AcDbLine
 10
1086.504054713894
 20
-827.1564256822741
 30
0.0
 11
1089.767291094806
 21
-802.3703167889569
 31
0.0
  0
LINE
  5
111
330
1F
100
AcDbEntity
  8
0-4
  6
Continuous
 62
     7
370
     9
100
AcDbLine
 10
1089.767291094806
 20
-635.7035126557221
 30
0.0
 11
1083.240818332982
 21
-685.2757304423563
 31
0.0
  0
LINE
  5
112
330
1F
100
AcDbEntity
  8
0-4
  6
Continuous
 62
     7
370
     9
100
AcDbLine
 10
1083.240818332982
 20
-635.7035126557221
 30
0.0
 11
1089.767291094806
 21
-685.2757304423563
 31
0.0
  0
LINE
  5
113
330
1F
100
AcDbEntity
  8
0-4
  6
Continuous
 62
     7
370
     9
100
AcDbLine
 10
1011.504054713894
 20
172.8437186576227
 30
0.0
 11
1169.50403161951
 21
172.8437186576227
 31
0.0
  0
LINE
  5
114
330
1F
100
AcDbEntity
  8
0-4
  6
Continuous
 62
     7
370
     9
100
AcDbLine
 10
1086.504054713894
 20
172.8437186576227
 30
0.0
 11
1083.240818332982
 21
148.0575479043497
 31
0.0
  0
LINE
  5
115
330
1F
100
AcDbEntity
  8
0-4
  6
Continuous
 62
     7
370
     9
100
AcDbLine
 10
1086.504054713894
 20
172.8437186576227
 30
0.0
 11
1089.767291094806
 21
148.0575479043497
 31
0.0
  0
LINE
  5
116
330
1F
100
AcDbEntity
  8
0-4
  6
Continuous
 62
     7
370
     9
100
AcDbLine
 10
-604.8292830183698
 20
-927.1564463022593
 30
0.0
 11
-438.1626026050463
 21
-927.1564463022593
 31
0.0
  0
LINE
  5
117
330
1F
100
AcDbEntity
  8
0-4
  6
Continuous
 62
     7
370
     9
100
AcDbLine
 10
-604.8292830183698
 20
-852.1564463022593
 30
0.0
 11
-604.8292830183698
 21
-930.1564685718432
 31
0.0
  0
LINE
  5
118
330
1F
100
AcDbEntity
  8
0-4
  6
Continuous
 62
     7
370
     9
100
AcDbLine
 10
-438.1626026050463
 20
-852.1564463022593
 30
0.0
 11
-438.1626026050463
 21
-930.1564685718432
 31
0.0
  0
LINE
  5
119
330
1F
100
AcDbEntity
  8
0-4
  6
Continuous
 62
     7
370
     9
100
AcDbLine
 10
-604.8292830183698
 20
-927.1564463022593
 30
0.0
 11
-580.0431122650971
 21
-923.8932717813027
 31
0.0
  0
LINE
  5
11A
330
1F
100
AcDbEntity
  8
0-4
  6
Continuous
 62
     7
370
     9
100
AcDbLine
 10
-604.8292830183698
 20
-927.1564463022593
 30
0.0
 11
-580.0431122650971
 21
-930.4196208232157
 31
0.0
  0
LINE
  5
11B
330
1F
100
AcDbEntity
  8
0-4
  6
Continuous
 62
     7
370
     9
100
AcDbLine
 10
-438.1626026050463
 20
-927.1564463022593
 30
0.0
 11
-462.9487733583193
 21
-923.8932717813027
 31
0.0
  0
LINE
  5
11C
330
1F
100
AcDbEntity
  8
0-4
  6
Continuous
 62
     7
370
     9
100
AcDbLine
 10
-438.1626026050463
 20
-927.1564463022593
 30
0.0
 11
-462.9487733583193
 21
-930.4196208232157
 31
0.0
  0
LINE
  5
11D
330
1F
100
AcDbEntity
  8
0-4
  6
Continuous
 62
     7
370
     9
100
AcDbLine
 10
-521.4960046716637
 20
-1007.156462798247
 30
0.0
 11
-188.1626438450166
 21
-1007.156462798247
 31
0.0
  0
LINE
  5
11E
330
1F
100
AcDbEntity
  8
0-4
  6
Continuous
 62
     7
370
     9
100
AcDbLine
 10
-188.1626438450166
 20
-685.4896421690245
 30
0.0
 11
-188.1626438450166
 21
-1010.156423207876
 31
0.0
  0
LINE
  5
11F
330
1F
100
AcDbEntity
  8
0-4
  6
Continuous
 62
     7
370
     9
100
AcDbLine
 10
-521.4960046716637
 20
-1007.156462798247
 30
0.0
 11
-496.7098339183909
 21
-1003.893350137247
 31
0.0
  0
LINE
  5
120
330
1F
100
AcDbEntity
  8
0-4
  6
Continuous
 62
     7
370
     9
100
AcDbLine
 10
-521.4960046716637
 20
-1007.156462798247
 30
0.0
 11
-496.7098339183909
 21
-1010.419575459248
 31
0.0
  0
LINE
  5
121
330
1F
100
AcDbEntity
  8
0-4
  6
Continuous
 62
     7
370
     9
100
AcDbLine
 10
-188.1626438450166
 20
-1007.156462798247
 30
0.0
 11
-212.9488145982896
 21
-1003.893350137247
 31
0.0
  0
LINE
  5
122
330
1F
100
AcDbEntity
  8
0-4
  6
Continuous
 62
     7
370
     9
100
AcDbLine
 10
-188.1626438450166
 20
-1007.156462798247
 30
0.0
 11
-212.9488145982896
 21
-1010.419575459248
 31
0.0
  0
LINE
  5
123
330
1F
100
AcDbEntity
  8
0-4
  6
Continuous
 62
     7
370
     9
100
AcDbLine
 10
-521.4960046716637
 20
-938.5155425200592
 30
0.0
 11
-521.4960046716637
 21
-1010.156423207876
 31
0.0
  0
LINE
  5
124
330
1F
100
AcDbEntity
  8
0-4
  6
Continuous
 62
     7
370
     9
100
AcDbLine
 10
653.1706114073057
 20
-293.8230854756122
 30
0.0
 11
953.1708588471287
 21
-293.8230854756122
 31
0.0
  0
LINE
  5
125
330
1F
100
AcDbEntity
  8
0-4
  6
Continuous
 62
     7
370
     9
100
AcDbLine
 10
653.1706114073057
 20
-293.8230854756122
 30
0.0
 11
677.9566584406672
 21
-290.5599728146115
 31
0.0
  0
LINE
  5
126
330
1F
100
AcDbEntity
  8
0-4
  6
Continuous
 62
     7
370
     9
100
AcDbLine
 10
653.1706114073057
 20
-293.8230854756122
 30
0.0
 11
677.9566584406672
 21
-297.0861981366131
 31
0.0
  0
LINE
  5
127
330
1F
100
AcDbEntity
  8
0-4
  6
Continuous
 62
     7
370
     9
100
AcDbLine
 10
953.1708588471287
 20
-293.8230854756122
 30
0.0
 11
928.3848118137672
 21
-290.5599728146115
 31
0.0
  0
LINE
  5
128
330
1F
100
AcDbEntity
  8
0-4
  6
Continuous
 62
     7
370
     9
100
AcDbLine
 10
953.1708588471287
 20
-293.8230854756122
 30
0.0
 11
928.3848118137672
 21
-297.0861981366131
 31
0.0
  0
LINE
  5
129
330
1F
100
AcDbEntity
  8
0-2
  6
JWW_CENTER1
 62
     3
370
     9
100
AcDbLine
 10
803.1706114073057
 20
202.8449311127534
 30
0.0
 11
803.1706114073057
 21
-223.7095270930109
 31
0.0
  0
LINE
  5
12A
330
1F
100
AcDbEntity
  8
0-2
  6
JWW_CENTER1
 62
     3
370
     9
100
AcDbLine
 10
803.1706114073057
 20
-322.4282424514358
 30
0.0
 11
803.1706114073057
 21
-856.0737898543074
 31
0.0
  0
LINE
  5
12B
330
1F
100
AcDbEntity
  8
0-2
  6
Continuous
 62
     3
370
     9
100
AcDbLine
 10
653.1706114073057
 20
-43.82300299567135
 30
0.0
 11
653.1706114073057
 21
-327.1563225823479
 31
0.0
  0
LINE
  5
12C
330
1F
100
AcDbEntity
  8
0-2
  6
Continuous
 62
     3
370
     9
100
AcDbLine
 10
736.503889754012
 20
39.51027535103464
 30
0.0
 11
869.8373330606
 21
39.51027535103464
 31
0.0
  0
LINE
  5
12D
330
1F
100
AcDbEntity
  8
0-2
  6
Continuous
 62
     3
370
     9
100
AcDbLine
 10
953.1706114073057
 20
-43.82300299567135
 30
0.0
 11
953.1706114073057
 21
-327.1563225823479
 31
0.0
  0
LINE
  5
12E
330
1F
100
AcDbEntity
  8
0-4
  6
Continuous
 62
     7
370
     9
100
AcDbLine
 10
439.83715160473
 20
-393.8230442356418
 30
0.0
 11
439.83715160473
 21
172.8437186576227
 31
0.0
  0
LINE
  5
12F
330
1F
100
AcDbEntity
  8
0-4
  6
Continuous
 62
     7
370
     9
100
AcDbLine
 10
694.8372505806589
 20
-393.8230442356418
 30
0.0
 11
436.8371911951016
 21
-393.8230442356418
 31
0.0
  0
LINE
  5
130
330
1F
100
AcDbEntity
  8
0-4
  6
Continuous
 62
     7
370
     9
100
AcDbLine
 10
661.503889754012
 20
-10.48964216902448
 30
0.0
 11
436.8371911951016
 21
-10.48964216902448
 31
0.0
  0
LINE
  5
131
330
1F
100
AcDbEntity
  8
0-4
  6
Continuous
 62
     7
370
     9
100
AcDbLine
 10
439.83715160473
 20
-393.8230442356418
 30
0.0
 11
436.5739152238177
 21
-369.036873482369
 31
0.0
  0
LINE
  5
132
330
1F
100
AcDbEntity
  8
0-4
  6
Continuous
 62
     7
370
     9
100
AcDbLine
 10
439.83715160473
 20
-393.8230442356418
 30
0.0
 11
443.1003879856419
 21
-369.036873482369
 31
0.0
  0
LINE
  5
133
330
1F
100
AcDbEntity
  8
0-4
  6
Continuous
 62
     7
370
     9
100
AcDbLine
 10
443.1003879856419
 20
14.29652858424845
 30
0.0
 11
436.5739152238177
 21
-35.27581292229712
 31
0.0
  0
LINE
  5
134
330
1F
100
AcDbEntity
  8
0-4
  6
Continuous
 62
     7
370
     9
100
AcDbLine
 10
436.5739152238177
 20
14.29652858424845
 30
0.0
 11
443.1003879856419
 21
-35.27581292229712
 31
0.0
  0
LINE
  5
135
330
1F
100
AcDbEntity
  8
0-4
  6
Continuous
 62
     7
370
     9
100
AcDbLine
 10
439.83715160473
 20
172.8437186576227
 30
0.0
 11
436.5739152238177
 21
148.0575479043497
 31
0.0
  0
LINE
  5
136
330
1F
100
AcDbEntity
  8
0-4
  6
Continuous
 62
     7
370
     9
100
AcDbLine
 10
439.83715160473
 20
172.8437186576227
 30
0.0
 11
443.1003879856419
 21
148.0575479043497
 31
0.0
  0
LINE
  5
137
330
1F
100
AcDbEntity
  8
0-4
  6
Continuous
 62
     7
370
     9
100
AcDbLine
 10
-702.1629539695946
 20
-527.1563019623627
 30
0.0
 11
-677.3767832163217
 21
-523.8931274414062
 31
0.0
  0
LINE
  5
138
330
1F
100
AcDbEntity
  8
0-4
  6
Continuous
 62
     7
370
     9
100
AcDbLine
 10
-702.1629539695946
 20
-527.1563019623627
 30
0.0
 11
-677.3767832163217
 21
-530.4194764833193
 31
0.0
  0
LINE
  5
139
330
1F
100
AcDbEntity
  8
0-4
  6
Continuous
 62
     7
370
     9
100
AcDbLine
 10
-704.8288706186654
 20
-527.1563019623627
 30
0.0
 11
-729.6150413719383
 21
-523.8931274414062
 31
0.0
  0
LINE
  5
13A
330
1F
100
AcDbEntity
  8
0-4
  6
Continuous
 62
     7
370
     9
100
AcDbLine
 10
-704.8288706186654
 20
-527.1563019623627
 30
0.0
 11
-729.6150413719383
 21
-530.4194764833193
 31
0.0
  0
LINE
  5
13B
330
1F
100
AcDbEntity
  8
0-4
  6
Continuous
 62
     7
370
     9
100
AcDbLine
 10
-765.4669684332771
 20
-527.1563019623627
 30
0.0
 11
-591.9770111908783
 21
-527.1563019623627
 31
0.0
  0
LINE
  5
13C
330
1F
100
AcDbEntity
  8
0-4
  6
Continuous
 62
     7
370
     9
100
AcDbLine
 10
1166.504071209882
 20
-827.1564256822741
 30
0.0
 11
1166.504071209882
 21
172.8437186576227
 31
0.0
  0
LINE
  5
13D
330
1F
100
AcDbEntity
  8
0-4
  6
Continuous
 62
     7
370
     9
100
AcDbLine
 10
1166.504071209882
 20
-827.1564256822741
 30
0.0
 11
1163.24083482897
 21
-802.3703167889569
 31
0.0
  0
LINE
  5
13E
330
1F
100
AcDbEntity
  8
0-4
  6
Continuous
 62
     7
370
     9
100
AcDbLine
 10
1166.504071209882
 20
-827.1564256822741
 30
0.0
 11
1169.767307590794
 21
-802.3703167889569
 31
0.0
  0
LINE
  5
13F
330
1F
100
AcDbEntity
  8
0-4
  6
Continuous
 62
     7
370
     9
100
AcDbLine
 10
1166.504071209882
 20
172.8437186576227
 30
0.0
 11
1163.24083482897
 21
148.0575479043497
 31
0.0
  0
LINE
  5
140
330
1F
100
AcDbEntity
  8
0-4
  6
Continuous
 62
     7
370
     9
100
AcDbLine
 10
1166.504071209882
 20
172.8437186576227
 30
0.0
 11
1169.767307590794
 21
148.0575479043497
 31
0.0
  0
LINE
  5
141
330
1F
100
AcDbEntity
  8
0-E
  6
Continuous
 62
     7
370
     9
100
AcDbLine
 10
-604.8292830183698
 20
-827.1564256822741
 30
0.0
 11
-614.396420040646
 21
-850.2533866263724
 31
0.0
  0
LINE
  5
142
330
1F
100
AcDbEntity
  8
0-E
  6
Continuous
 62
     7
370
     9
100
AcDbLine
 10
-604.8292830183698
 20
-827.1564256822741
 30
0.0
 11
-620.0483167493664
 21
-846.9902739653717
 31
0.0
  0
LINE
  5
143
330
1F
100
AcDbEntity
  8
0-E
  6
Continuous
 62
     7
370
     9
100
AcDbLine
 10
-604.8292830183698
 20
-827.1564256822741
 30
0.0
 11
-662.5642931139146
 21
-927.1564463022593
 31
0.0
  0
LINE
  5
144
330
1F
100
AcDbEntity
  8
0-E
  6
Continuous
 62
     7
370
     9
100
AcDbLine
 10
-662.5642931139146
 20
-927.1564463022593
 30
0.0
 11
-1252.593086861275
 21
-927.1564463022593
 31
0.0
  0
LINE
  5
145
330
1F
100
AcDbEntity
  8
0-E
  6
Continuous
 62
     7
370
     9
100
AcDbLine
 10
-341.8293308567357
 20
740.3725618929477
 30
0.0
 11
-326.6102971257388
 21
720.5387754698057
 31
0.0
  0
LINE
  5
146
330
1F
100
AcDbEntity
  8
0-E
  6
Continuous
 62
     7
370
     9
100
AcDbLine
 10
-341.8293308567357
 20
740.3725618929477
 30
0.0
 11
-332.2621938344594
 21
717.2755390888938
 31
0.0
  0
LINE
  5
147
330
1F
100
AcDbEntity
  8
0-E
  6
Continuous
 62
     7
370
     9
100
AcDbLine
 10
-656.1626537426096
 20
189.5102753510346
 30
0.0
 11
-665.7297907648859
 21
212.6072981550888
 31
0.0
  0
LINE
  5
148
330
1F
100
AcDbEntity
  8
0-E
  6
Continuous
 62
     7
370
     9
100
AcDbLine
 10
-656.1626537426096
 20
189.5102753510346
 30
0.0
 11
-659.4257664036106
 21
214.2964461043076
 31
0.0
  0
LINE
  5
149
330
1F
100
AcDbEntity
  8
0-E
  6
Continuous
 62
     7
370
     9
100
AcDbLine
 10
-684.4959980732685
 20
172.8437186576227
 30
0.0
 11
-699.7150318042651
 21
192.6775050807643
 31
0.0
  0
LINE
  5
14A
330
1F
100
AcDbEntity
  8
0-E
  6
Continuous
 62
     7
370
     9
100
AcDbLine
 10
-684.4959980732685
 20
172.8437186576227
 30
0.0
 11
-694.0631350955448
 21
195.9407414616766
 31
0.0
  0
LINE
  5
14B
330
1F
100
AcDbEntity
  8
0-E
  6
Continuous
 62
     7
370
     9
100
AcDbLine
 10
-684.4959980732685
 20
172.8437186576227
 30
0.0
 11
-771.0985750765415
 21
322.8437186576227
 31
0.0
  0
LINE
  5
14C
330
1F
100
AcDbEntity
  8
0-E
  6
Continuous
 62
     7
370
     9
100
AcDbLine
 10
-656.1626537426096
 20
189.5102753510346
 30
0.0
 11
-732.081768963788
 21
472.8437186576227
 31
0.0
  0
LINE
  5
14D
330
1F
100
AcDbEntity
  8
0-E
  6
Continuous
 62
     7
370
     9
100
AcDbLine
 10
-1138.061111037796
 20
472.8437186576227
 30
0.0
 11
-732.081768963788
 21
472.8437186576227
 31
0.0
  0
LINE
  5
14E
330
1F
100
AcDbEntity
  8
0-E
  6
Continuous
 62
     7
370
     9
100
AcDbLine
 10
-1344.985137114654
 20
322.8437186576227
 30
0.0
 11
-771.0985750765415
 21
322.8437186576227
 31
0.0
  0
LINE
  5
14F
330
1F
100
AcDbEntity
  8
0-E
  6
Continuous
 62
     7
370
     9
100
AcDbLine
 10
-341.8293308567357
 20
740.3725618929477
 30
0.0
 11
-233.4035512563344
 21
552.5735308672932
 31
0.0
  0
LINE
  5
150
330
1F
100
AcDbEntity
  8
0-E
  6
Continuous
 62
     7
370
     9
100
AcDbLine
 10
-233.4035512563344
 20
552.5735308672932
 30
0.0
 11
-40.38403485272369
 21
552.5735308672932
 31
0.0
  0
ARC
  5
151
330
1F
100
AcDbEntity
  8
0-2
  6
Continuous
 62
     3
370
     9
100
AcDbCircle
 10
-521.4960046716637
 20
835.9068504539698
 30
0.0
 40
183.333345361658
100
AcDbArc
 50
90.0
 51
270.0
  0
CIRCLE
  5
152
330
1F
100
AcDbEntity
  8
0-2
  6
JWW_DASHED1
 62
     3
370
     9
100
AcDbCircle
 10
-521.4960046716637
 20
835.9068504539698
 30
0.0
 40
83.33334020666175
  0
CIRCLE
  5
153
330
1F
100
AcDbEntity
  8
0-3
  6
Continuous
 62
     4
370
     9
100
AcDbCircle
 10
-634.4960805532094
 20
835.9068504539698
 30
0.0
 40
23.33333363404145
  0
ARC
  5
154
330
1F
100
AcDbEntity
  8
0-3
  6
Continuous
 62
     4
370
     9
100
AcDbCircle
 10
-634.4960805532094
 20
835.9068504539698
 30
0.0
 40
21.66666597933382
100
AcDbArc
 50
98.84986877441408
 51
261.1501159667969
  0
ARC
  5
155
330
1F
100
AcDbEntity
  8
0-3
  6
Continuous
 62
     4
370
     9
100
AcDbCircle
 10
-634.4960805532094
 20
835.9068504539698
 30
0.0
 40
21.66666597933382
100
AcDbArc
 50
278.8498687744141
 51
81.15011596679689
  0
ARC
  5
156
330
1F
100
AcDbEntity
  8
0-2
  6
Continuous
 62
     3
370
     9
100
AcDbCircle
 10
-521.4960046716637
 20
835.9068504539698
 30
0.0
 40
180.6666709281303
100
AcDbArc
 50
90.0
 51
270.0
  0
CIRCLE
  5
157
330
1F
100
AcDbEntity
  8
0-1
  6
Continuous
 62
     2
370
     9
100
AcDbCircle
 10
-491.8294545766469
 20
902.5735721072635
 30
0.0
 40
33.33333376291636
  0
CIRCLE
  5
158
330
1F
100
AcDbEntity
  8
0-1
  6
Continuous
 62
     2
370
     9
100
AcDbCircle
 10
-358.4960112700591
 20
902.5735721072635
 30
0.0
 40
33.33333376291636
  0
CIRCLE
  5
159
330
1F
100
AcDbEntity
  8
0-1
  6
Continuous
 62
     2
370
     9
100
AcDbCircle
 10
-358.4960112700591
 20
769.2401288006758
 30
0.0
 40
33.33333376291636
  0
CIRCLE
  5
15A
330
1F
100
AcDbEntity
  8
0-1
  6
Continuous
 62
     2
370
     9
100
AcDbCircle
 10
-491.8294545766469
 20
769.2401288006758
 30
0.0
 40
33.33333376291636
  0
ARC
  5
15B
330
1F
100
AcDbEntity
  8
0-1
  6
Continuous
 62
     2
370
     9
100
AcDbCircle
 10
-695.162633947424
 20
152.1770497914909
 30
0.0
 40
3.333333376291636
100
AcDbArc
 50
180.0
 51
270.0
  0
ARC
  5
15C
330
1F
100
AcDbEntity
  8
0-1
  6
Continuous
 62
     2
370
     9
100
AcDbCircle
 10
-697.8294166358739
 20
149.5102671030406
 30
0.0
 40
3.333333376291636
100
AcDbArc
 50
180.0
 51
270.0
  0
ARC
  5
15D
330
1F
100
AcDbEntity
  8
0-1
  6
Continuous
 62
     2
370
     9
100
AcDbCircle
 10
-695.162633947424
 20
166.8437978383659
 30
0.0
 40
3.333333376291636
100
AcDbArc
 50
90.0
 51
180.0
  0
ARC
  5
15E
330
1F
100
AcDbEntity
  8
0-1
  6
Continuous
 62
     2
370
     9
100
AcDbCircle
 10
-697.8294166358739
 20
169.5103330869932
 30
0.0
 40
3.333333376291636
100
AcDbArc
 50
90.0
 51
180.0
  0
ARC
  5
15F
330
1F
100
AcDbEntity
  8
0-2
  6
Continuous
 62
     3
370
     9
100
AcDbCircle
 10
-190.8293028135557
 20
833.2401914854311
 30
0.0
 40
2.666666701033309
100
AcDbArc
 50
0.0
 51
90.0
  0
ARC
  5
160
330
1F
100
AcDbEntity
  8
0-2
  6
Continuous
 62
     3
370
     9
100
AcDbCircle
 10
-190.8293028135557
 20
838.573261982686
 30
0.0
 40
2.666666701033309
100
AcDbArc
 50
270.0
 51
0.0
  0
ARC
  5
161
330
1F
100
AcDbEntity
  8
0-1
  6
Continuous
 62
     2
370
     9
100
AcDbCircle
 10
-673.829362199113
 20
166.8437978383659
 30
0.0
 40
3.333333376291636
100
AcDbArc
 50
0.0
 51
90.0
  0
ARC
  5
162
330
1F
100
AcDbEntity
  8
0-1
  6
Continuous
 62
     2
370
     9
100
AcDbCircle
 10
-671.1627032305742
 20
169.5103330869932
 30
0.0
 40
3.333333376291636
100
AcDbArc
 50
0.0
 51
90.0
  0
ARC
  5
163
330
1F
100
AcDbEntity
  8
0-1
  6
Continuous
 62
     2
370
     9
100
AcDbCircle
 10
-664.4960558092271
 20
166.8437978383659
 30
0.0
 40
3.333333376291636
100
AcDbArc
 50
180.0
 51
270.0
  0
ARC
  5
164
330
1F
100
AcDbEntity
  8
0-1
  6
Continuous
 62
     2
370
     9
100
AcDbCircle
 10
-667.1627147777658
 20
164.1770151499156
 30
0.0
 40
3.333333376291636
100
AcDbArc
 50
180.0
 51
270.0
  0
ARC
  5
165
330
1F
100
AcDbEntity
  8
0-1
  6
Continuous
 62
     2
370
     9
100
AcDbCircle
 10
-595.1626751873943
 20
166.8437978383659
 30
0.0
 40
3.333333376291636
100
AcDbArc
 50
90.0
 51
180.0
  0
ARC
  5
166
330
1F
100
AcDbEntity
  8
0-1
  6
Continuous
 62
     2
370
     9
100
AcDbCircle
 10
-597.8294578758446
 20
169.5103330869932
 30
0.0
 40
3.333333376291636
100
AcDbArc
 50
90.0
 51
180.0
  0
ARC
  5
167
330
1F
100
AcDbEntity
  8
0-1
  6
Continuous
 62
     2
370
     9
100
AcDbCircle
 10
-604.4959815772802
 20
166.8437978383659
 30
0.0
 40
3.333333376291636
100
AcDbArc
 50
270.0
 51
0.0
  0
ARC
  5
168
330
1F
100
AcDbEntity
  8
0-1
  6
Continuous
 62
     2
370
     9
100
AcDbCircle
 10
-601.8293226087414
 20
164.1770151499156
 30
0.0
 40
3.333333376291636
100
AcDbArc
 50
270.0
 51
0.0
  0
ARC
  5
169
330
1F
100
AcDbEntity
  8
0-1
  6
Continuous
 62
     2
370
     9
100
AcDbCircle
 10
-531.1627362225505
 20
166.8437978383659
 30
0.0
 40
3.333333376291636
100
AcDbArc
 50
0.0
 51
90.0
  0
ARC
  5
16A
330
1F
100
AcDbEntity
  8
0-1
  6
Continuous
 62
     2
370
     9
100
AcDbCircle
 10
-528.4960772540117
 20
169.5103330869932
 30
0.0
 40
3.333333376291636
100
AcDbArc
 50
0.0
 51
90.0
  0
ARC
  5
16B
330
1F
100
AcDbEntity
  8
0-1
  6
Continuous
 62
     2
370
     9
100
AcDbCircle
 10
-455.1625844594594
 20
169.5103330869932
 30
0.0
 40
3.333333376291636
100
AcDbArc
 50
90.0
 51
180.0
  0
ARC
  5
16C
330
1F
100
AcDbEntity
  8
0-1
  6
Continuous
 62
     2
370
     9
100
AcDbCircle
 10
-452.4960492108318
 20
166.8437978383659
 30
0.0
 40
3.333333376291636
100
AcDbArc
 50
90.0
 51
180.0
  0
ARC
  5
16D
330
1F
100
AcDbEntity
  8
0-1
  6
Continuous
 62
     2
370
     9
100
AcDbCircle
 10
-397.8294166358739
 20
166.8437978383659
 30
0.0
 40
3.333333376291636
100
AcDbArc
 50
0.0
 51
90.0
  0
ARC
  5
16E
330
1F
100
AcDbEntity
  8
0-1
  6
Continuous
 62
     2
370
     9
100
AcDbCircle
 10
-395.162633947424
 20
169.5103330869932
 30
0.0
 40
3.333333376291636
100
AcDbArc
 50
0.0
 51
90.0
  0
ARC
  5
16F
330
1F
100
AcDbEntity
  8
0-1
  6
Continuous
 62
     2
370
     9
100
AcDbCircle
 10
-321.8292648727828
 20
169.5103330869932
 30
0.0
 40
3.333333376291636
100
AcDbArc
 50
90.0
 51
180.0
  0
ARC
  5
170
330
1F
100
AcDbEntity
  8
0-1
  6
Continuous
 62
     2
370
     9
100
AcDbCircle
 10
-319.1627296241552
 20
166.8437978383659
 30
0.0
 40
3.333333376291636
100
AcDbArc
 50
90.0
 51
180.0
  0
ARC
  5
171
330
1F
100
AcDbEntity
  8
0-1
  6
Continuous
 62
     2
370
     9
100
AcDbCircle
 10
-197.8293753959036
 20
166.8437978383659
 30
0.0
 40
3.333333376291636
100
AcDbArc
 50
0.0
 51
90.0
  0
ARC
  5
172
330
1F
100
AcDbEntity
  8
0-1
  6
Continuous
 62
     2
370
     9
100
AcDbCircle
 10
-195.1627164273648
 20
169.5103330869932
 30
0.0
 40
3.333333376291636
100
AcDbArc
 50
0.0
 51
90.0
  0
ARC
  5
173
330
1F
100
AcDbEntity
  8
0-3
  6
Continuous
 62
     4
370
     9
100
AcDbCircle
 10
-613.4959865260769
 20
163.5104122677365
 30
0.0
 40
9.333333453616582
100
AcDbArc
 50
90.0
 51
180.0
  0
ARC
  5
174
330
1F
100
AcDbEntity
  8
0-3
  6
Continuous
 62
     4
370
     9
100
AcDbCircle
 10
-655.4960508604307
 20
163.5104122677365
 30
0.0
 40
9.333333453616582
100
AcDbArc
 50
0.0
 51
90.0
  0
ARC
  5
175
330
1F
100
AcDbEntity
  8
0-6
  6
Continuous
 62
     6
370
     9
100
AcDbCircle
 10
-696.1627857105151
 20
140.1770844330659
 30
0.0
 40
3.333333376291636
100
AcDbArc
 50
90.0
 51
180.0
  0
ARC
  5
176
330
1F
100
AcDbEntity
  8
0-6
  6
Continuous
 62
     6
370
     9
100
AcDbCircle
 10
-698.8293209591427
 20
142.8436196816935
 30
0.0
 40
3.333333376291636
100
AcDbArc
 50
73.30075073242188
 51
180.0
  0
ARC
  5
177
330
1F
100
AcDbEntity
  8
0-2
  6
Continuous
 62
     3
370
     9
100
AcDbCircle
 10
678.1706938872469
 20
106.1769970043287
 30
0.0
 40
16.66666688145818
100
AcDbArc
 50
0.0
 51
179.9999847412109
  0
ARC
  5
178
330
1F
100
AcDbEntity
  8
0-2
  6
Continuous
 62
     3
370
     9
100
AcDbCircle
 10
678.1706938872469
 20
39.51027535103464
 30
0.0
 40
16.66666688145818
100
AcDbArc
 50
180.0
 51
0.0
  0
ARC
  5
179
330
1F
100
AcDbEntity
  8
0-2
  6
Continuous
 62
     3
370
     9
100
AcDbCircle
 10
928.1705289273651
 20
39.51027535103464
 30
0.0
 40
16.66666688145818
100
AcDbArc
 50
180.0
 51
0.0
  0
ARC
  5
17A
330
1F
100
AcDbEntity
  8
0-2
  6
Continuous
 62
     3
370
     9
100
AcDbCircle
 10
928.1705289273651
 20
106.1769970043287
 30
0.0
 40
16.66666688145818
100
AcDbArc
 50
0.0
 51
179.9999847412109
  0
ARC
  5
17B
330
1F
100
AcDbEntity
  8
0-2
  6
Continuous
 62
     3
370
     9
100
AcDbCircle
 10
719.8373330606
 20
-327.1563225823479
 30
0.0
 40
66.66666752583272
100
AcDbArc
 50
180.0
 51
270.0
  0
ARC
  5
17C
330
1F
100
AcDbEntity
  8
0-2
  6
Continuous
 62
     3
370
     9
100
AcDbCircle
 10
886.503889754012
 20
-327.1563225823479
 30
0.0
 40
66.66666752583272
100
AcDbArc
 50
270.0
 51
0.0
  0
ARC
  5
17D
330
1F
100
AcDbEntity
  8
0-1
  6
Continuous
 62
     2
370
     9
100
AcDbCircle
 10
-521.4960046716637
 20
835.9068504539698
 30
0.0
 40
179.6666738149282
100
AcDbArc
 50
90.0
 51
270.0
  0
ARC
  5
17E
330
1F
100
AcDbEntity
  8
0-1
  6
JWW_DASHED1
 62
     2
370
     9
100
AcDbCircle
 10
-521.4960046716637
 20
835.9068504539698
 30
0.0
 40
177.6666795885241
100
AcDbArc
 50
90.0
 51
270.0
  0
CIRCLE
  5
17F
330
1F
100
AcDbEntity
  8
0-1
  6
Continuous
 62
     2
370
     9
100
AcDbCircle
 10
-634.4960805532094
 20
835.9068504539698
 30
0.0
 40
33.33333376291636
  0
ARC
  5
180
330
1F
100
AcDbEntity
  8
0-2
  6
Continuous
 62
     3
370
     9
100
AcDbCircle
 10
686.5039722339526
 20
39.51039907094611
 30
0.0
 40
49.99999871125092
100
AcDbArc
 50
270.0
 51
359.9998626708984
  0
ARC
  5
181
330
1F
100
AcDbEntity
  8
0-2
  6
Continuous
 62
     3
370
     9
100
AcDbCircle
 10
686.5039722339526
 20
-43.82300299567135
 30
0.0
 40
33.33333376291636
100
AcDbArc
 50
90.0
 51
180.0
  0
ARC
  5
182
330
1F
100
AcDbEntity
  8
0-2
  6
Continuous
 62
     3
370
     9
100
AcDbCircle
 10
919.8372505806589
 20
39.51039907094611
 30
0.0
 40
49.99999871125092
100
AcDbArc
 50
180.0001373291016
 51
270.0
  0
ARC
  5
183
330
1F
100
AcDbEntity
  8
0-2
  6
Continuous
 62
     3
370
     9
100
AcDbCircle
 10
919.8372505806589
 20
-43.82300299567135
 30
0.0
 40
33.33333376291636
100
AcDbArc
 50
0.0
 51
90.0
  0
TEXT
  5
184
330
1F
100
AcDbEntity
  8
0-4
  6
Continuous
 62
     2
370
     9
100
AcDbText
 10
-478.9960046716636
 20
1134.880326752534
 30
0.0
 40
30.48
  1
155
 41
1.083333333333333
  7
ＭＳ ゴシック
100
AcDbText
  0
TEXT
  5
185
330
1F
100
AcDbEntity
  8
0-4
  6
Continuous
 62
     2
370
     9
100
AcDbText
 10
-103.8027166563433
 20
803.4068502074374
 30
0.0
 40
30.48
  1
110
 50
90.00000250447816
 41
1.083333333333334
  7
ＭＳ ゴシック
100
AcDbText
  0
TEXT
  5
186
330
1F
100
AcDbEntity
  8
0-4
  6
Continuous
 62
     2
370
     9
100
AcDbText
 10
-820.4692326015384
 20
-765.073023862189
 30
0.0
 40
30.48
  1
50
 50
90.00000250447816
 41
1.062500000000001
  7
ＭＳ ゴシック
100
AcDbText
  0
TEXT
  5
187
330
1F
100
AcDbEntity
  8
0-4
  6
Continuous
 62
     2
370
     9
100
AcDbText
 10
-820.4692321097853
 20
-259.6563640688506
 30
0.0
 40
30.48
  1
240
 50
90.00000250447816
 41
1.083333333333333
  7
ＭＳ ゴシック
100
AcDbText
  0
TEXT
  5
188
330
1F
100
AcDbEntity
  8
0-4
  6
Continuous
 62
     2
370
     9
100
AcDbText
 10
-820.4692326015384
 20
-665.072941382248
 30
0.0
 40
30.48
  1
10
 50
90.00000250447816
 41
1.062499999999999
  7
ＭＳ ゴシック
100
AcDbText
  0
TEXT
  5
189
330
1F
100
AcDbEntity
  8
0-4
  6
Continuous
 62
     2
370
     9
100
AcDbText
 10
781.9207351272172
 20
288.4837104096284
 30
0.0
 40
30.48
  1
75
 41
1.0625
  7
ＭＳ ゴシック
100
AcDbText
  0
TEXT
  5
18A
330
1F
100
AcDbEntity
  8
0-4
  6
Continuous
 62
     2
370
     9
100
AcDbText
 10
504.1971360376087
 20
101.5938008910312
 30
0.0
 40
30.48
  1
30
 50
90.00000250447816
 41
1.0625
  7
ＭＳ ゴシック
100
AcDbText
  0
TEXT
  5
18B
330
1F
100
AcDbEntity
  8
0-4
  6
Continuous
 62
     2
370
     9
100
AcDbText
 10
1070.864022650784
 20
-765.073023862189
 30
0.0
 40
30.48
  1
50
 50
90.00000250447816
 41
1.062500000000001
  7
ＭＳ ゴシック
100
AcDbText
  0
TEXT
  5
18C
330
1F
100
AcDbEntity
  8
0-4
  6
Continuous
 62
     2
370
     9
100
AcDbText
 10
1070.864023142537
 20
-276.323044482174
 30
0.0
 40
30.48
  1
250
 50
90.00000250447816
 41
1.083333333333333
  7
ＭＳ ゴシック
100
AcDbText
  0
TEXT
  5
18D
330
1F
100
AcDbEntity
  8
0-4
  6
Continuous
 62
     2
370
     9
100
AcDbText
 10
-387.3293242583402
 20
-991.516429806271
 30
0.0
 40
30.48
  1
100
 41
1.083333333333333
  7
ＭＳ ゴシック
100
AcDbText
  0
TEXT
  5
18E
330
1F
100
AcDbEntity
  8
0-4
  6
Continuous
 62
     2
370
     9
100
AcDbText
 10
781.9207351272172
 20
-278.1830524836359
 30
0.0
 40
30.48
  1
90
 41
1.0625
  7
ＭＳ ゴシック
100
AcDbText
  0
TEXT
  5
18F
330
1F
100
AcDbEntity
  8
0-4
  6
Continuous
 62
     2
370
     9
100
AcDbText
 10
424.1971200333736
 20
-234.6564053088211
 30
0.0
 40
30.48
  1
115
 50
90.00000250447816
 41
1.083333333333333
  7
ＭＳ ゴシック
100
AcDbText
  0
TEXT
  5
190
330
1F
100
AcDbEntity
  8
0-4
  6
Continuous
 62
     2
370
     9
100
AcDbText
 10
424.1971195416204
 20
59.92703799776687
 30
0.0
 40
30.48
  1
55
 50
90.00000250447816
 41
1.0625
  7
ＭＳ ゴシック
100
AcDbText
  0
TEXT
  5
191
330
1F
100
AcDbEntity
  8
0-4
  6
Continuous
 62
     2
370
     9
100
AcDbText
 10
-665.921820563239
 20
-511.5163308303421
 30
0.0
 40
30.48
  1
0.8
 41
1.083333333333333
  7
ＭＳ ゴシック
100
AcDbText
  0
TEXT
  5
192
330
1F
100
AcDbEntity
  8
0-4
  6
Continuous
 62
     2
370
     9
100
AcDbText
 10
1150.864039638526
 20
-359.6563228288801
 30
0.0
 40
30.48
  1
300
 50
90.00000250447816
 41
1.083333333333333
  7
ＭＳ ゴシック
100
AcDbText
  0
TEXT
  5
193
330
1F
100
AcDbEntity
  8
0-E
  6
Continuous
 62
     7
370
     9
100
AcDbText
 10
-1116.508341982629
 20
-911.9032496436929
 30
0.0
 40
22.86
  1
本体：ＳＵＳ３０４
 50
359.9999771334578
 41
1.148148148148148
  7
ＭＳ ゴシック
100
AcDbText
  0
TEXT
  5
194
330
1F
100
AcDbEntity
  8
0-E
  6
Continuous
 62
     7
370
     9
100
AcDbText
 10
-1227.329740782042
 20
-965.4668573492927
 30
0.0
 40
22.86
  1
ヘアライン仕上＋セラミック系塗装
 41
1.15625
  7
ＭＳ ゴシック
100
AcDbText
  0
TEXT
  5
195
330
1F
100
AcDbEntity
  8
0-4
  6
Continuous
 62
     2
370
     9
100
AcDbText
 10
-565.2458190917968
 20
-911.5164751702386
 30
0.0
 40
30.48
  1
φ50
 41
1.09375
  7
ＭＳ ゴシック
100
AcDbText
  0
TEXT
  5
196
330
1F
100
AcDbEntity
  8
0-E
  6
Continuous
 62
     7
370
     9
100
AcDbText
 10
-1207.646115436212
 20
343.2638299725393
 30
0.0
 40
22.86
  1
蓋：ＳＵＳ３０４
 50
359.9999742231727
 41
1.145833333333333
  7
ＭＳ ゴシック
100
AcDbText
  0
TEXT
  5
197
330
1F
100
AcDbEntity
  8
0-E
  6
Continuous
 62
     7
370
     9
100
AcDbText
 10
-1123.411428090688
 20
489.7587211650128
 30
0.0
 40
22.86
  1
止めビス：ＳＵＳ３０４
 41
1.151515151515152
  7
ＭＳ ゴシック
100
AcDbText
  0
TEXT
  5
198
330
1F
100
AcDbEntity
  8
0-E
  6
Continuous
 62
     7
370
     9
100
AcDbText
 10
-1335.829133729677
 20
282.8346950881547
 30
0.0
 40
22.86
  1
ヘアライン仕上＋セラミック系塗装
 41
1.15625
  7
ＭＳ ゴシック
100
AcDbText
  0
TEXT
  5
199
330
1F
100
AcDbEntity
  8
0-4
  6
Continuous
 62
     7
370
     9
100
AcDbText
 10
-223.5521347458298
 20
568.2648197318415
 30
0.0
 40
22.86
  1
４－φ２０
 41
1.133333333333333
  7
ＭＳ ゴシック
100
AcDbText
  0
TEXT
  5
19A
330
1F
100
AcDbEntity
  8
0-5
  6
Continuous
 62
     2
370
     9
100
AcDbText
 10
-642.1246337890624
 20
-1343.247498185441
 30
0.0
 40
30.48
  1
ステンレスかざり桝　ＸＳ－１－５０
 41
1.117647058823529
  7
ＭＳ ゴシック
100
AcDbText
  0
ENDSEC
  0
SECTION
  2
OBJECTS
  0
DICTIONARY
  5
C
330
0
100
AcDbDictionary
281
     1
  3
ACAD_GROUP
350
D
  3
ACAD_LAYOUT
350
1A
  3
ACAD_MLEADERSTYLE
350
19C
  3
ACAD_MLINESTYLE
350
17
  3
ACAD_PLOTSETTINGS
350
19
  3
ACAD_PLOTSTYLENAME
350
E
  3
ACAD_TABLESTYLE
350
19B
  3
ACAD_VISUALSTYLE
350
2A
  3
AcDbVariableDictionary
350
19D
  0
DICTIONARY
  5
D
102
{ACAD_REACTORS
330
C
102
}
330
C
100
AcDbDictionary
281
     1
  0
DICTIONARY
  5
1A
102
{ACAD_REACTORS
330
C
102
}
330
C
100
AcDbDictionary
281
     1
  3
Layout1
350
1E
  3
Layout2
350
26
  3
Model
350
22
  0
DICTIONARY
  5
19C
102
{ACAD_REACTORS
330
C
102
}
330
C
100
AcDbDictionary
281
     1
  0
DICTIONARY
  5
17
102
{ACAD_REACTORS
330
C
102
}
330
C
100
AcDbDictionary
281
     1
  3
Standard
350
18
  0
DICTIONARY
  5
19
102
{ACAD_REACTORS
330
C
102
}
330
C
100
AcDbDictionary
281
     1
  0
ACDBDICTIONARYWDFLT
  5
E
102
{ACAD_REACTORS
330
C
102
}
330
C
100
AcDbDictionary
281
     1
  3
Normal
350
F
100
AcDbDictionaryWithDefault
340
F
  0
DICTIONARY
  5
19B
102
{ACAD_REACTORS
330
C
102
}
330
C
100
AcDbDictionary
281
     1
  0
DICTIONARY
  5
2A
102
{ACAD_REACTORS
330
C
102
}
330
C
100
AcDbDictionary
281
     1
  3
2dWireframe
350
2F
  3
3D Hidden
350
31
  3
3dWireframe
350
30
  3
Basic
350
32
  3
Brighten
350
36
  3
ColorChange
350
3A
  3
Conceptual
350
34
  3
Dim
350
35
  3
Facepattern
350
39
  3
Flat
350
2B
  3
FlatWithEdges
350
2C
  3
Gouraud
350
2D
  3
GouraudWithEdges
350
2E
  3
Linepattern
350
38
  3
Realistic
350
33
  3
Thicken
350
37
  0
DICTIONARY
  5
19D
102
{ACAD_REACTORS
330
C
102
}
330
C
100
AcDbDictionary
281
     1
  3
PSOLHEIGHT
350
19F
  3
PSOLWIDTH
350
19E
  0
LAYOUT
  5
1E
102
{ACAD_REACTORS
330
1A
102
}
102
{ACAD_XDICTIONARY
360
1A0
102
}
330
1A
100
AcDbPlotSettings
  1

  2
none_device
  4

  6

 40
0.0
 41
0.0
 42
0.0
 43
0.0
 44
0.0
 45
0.0
 46
0.0
 47
0.0
 48
0.0
 49
0.0
140
0.0
141
0.0
142
1.0
143
1.0
 70
   688
 72
     0
 73
     0
 74
     5
  7

 75
    16
147
1.0
148
0.0
149
0.0
100
AcDbLayout
  1
Layout1
 70
     1
 71
     1
 10
0.0
 20
0.0
 11
420.0
 21
297.0
 12
0.0
 22
0.0
 32
0.0
 14
1.000000000000000E+20
 24
1.000000000000000E+20
 34
1.000000000000000E+20
 15
-1.000000000000000E+20
 25
-1.000000000000000E+20
 35
-1.000000000000000E+20
146
0.0
 13
0.0
 23
0.0
 33
0.0
 16
1.0
 26
0.0
 36
0.0
 17
0.0
 27
1.0
 37
0.0
 76
     0
330
1B
  0
LAYOUT
  5
26
102
{ACAD_REACTORS
330
1A
102
}
102
{ACAD_XDICTIONARY
360
1A4
102
}
330
1A
100
AcDbPlotSettings
  1

  2
none_device
  4

  6

 40
0.0
 41
0.0
 42
0.0
 43
0.0
 44
0.0
 45
0.0
 46
0.0
 47
0.0
 48
0.0
 49
0.0
140
0.0
141
0.0
142
1.0
143
1.0
 70
   688
 72
     0
 73
     0
 74
     5
  7

 75
    16
147
1.0
148
0.0
149
0.0
100
AcDbLayout
  1
Layout2
 70
     1
 71
     2
 10
0.0
 20
0.0
 11
0.0
 21
0.0
 12
0.0
 22
0.0
 32
0.0
 14
0.0
 24
0.0
 34
0.0
 15
0.0
 25
0.0
 35
0.0
146
0.0
 13
0.0
 23
0.0
 33
0.0
 16
1.0
 26
0.0
 36
0.0
 17
0.0
 27
1.0
 37
0.0
 76
     0
330
23
  0
LAYOUT
  5
22
102
{ACAD_REACTORS
330
1A
102
}
102
{ACAD_XDICTIONARY
360
1A2
102
}
330
1A
100
AcDbPlotSettings
  1

  2
none_device
  4

  6

 40
0.0
 41
0.0
 42
0.0
 43
0.0
 44
0.0
 45
0.0
 46
0.0
 47
0.0
 48
0.0
 49
0.0
140
0.0
141
0.0
142
1.0
143
1.0
 70
  1712
 72
     0
 73
     0
 74
     0
  7

 75
     0
147
1.0
148
0.0
149
0.0
100
AcDbLayout
  1
Model
 70
     1
 71
     0
 10
-2100.0
 20
-1485.0
 11
2100.0
 21
1485.0
 12
0.0
 22
0.0
 32
0.0
 14
-2100.0
 24
-1485.0
 34
0.0
 15
2100.0
 25
1485.0
 35
0.0
146
0.0
 13
0.0
 23
0.0
 33
0.0
 16
1.0
 26
0.0
 36
0.0
 17
0.0
 27
1.0
 37
0.0
 76
     0
330
1F
331
29
  0
MLINESTYLE
  5
18
102
{ACAD_REACTORS
330
17
102
}
330
17
100
AcDbMlineStyle
  2
Standard
 70
     0
  3

 62
   256
 51
90.0
 52
90.0
 71
     2
 49
0.5
 62
   256
  6
BYLAYER
 49
-0.5
 62
   256
  6
BYLAYER
  0
ACDBPLACEHOLDER
  5
F
102
{ACAD_REACTORS
330
E
102
}
330
E
  0
VISUALSTYLE
  5
2F
102
{ACAD_REACTORS
330
2A
102
}
330
2A
100
AcDbVisualStyle
  2
2dWireframe
 70
     4
 71
     0
 72
     2
 73
     0
 90
        0
 40
-0.6
 41
-30.0
 62
     5
 63
     7
 74
     1
 91
        4
 64
     7
 65
   257
 75
     1
175
     1
 42
1.0
 92
        0
 66
   257
 43
1.0
 76
     1
 77
     6
 78
     2
 67
     7
 79
     5
170
     0
171
     0
290
     0
174
     0
 93
        1
 44
0.0
173
     0
291
     0
 45
0.0
1001
ACAD
1000
AcDbSavedByObjectVersion
1070
     0
  0
VISUALSTYLE
  5
31
102
{ACAD_REACTORS
330
2A
102
}
330
2A
100
AcDbVisualStyle
  2
3D Hidden
 70
     6
 71
     1
 72
     2
 73
     2
 90
        0
 40
-0.6
 41
-30.0
 62
     5
 63
     7
 74
     2
 91
        2
 64
     7
 65
   257
 75
     2
175
     1
 42
40.0
 92
        0
 66
   257
 43
1.0
 76
     1
 77
     6
 78
     2
 67
     7
 79
     3
170
     0
171
     0
290
     0
174
     0
 93
        1
 44
0.0
173
     0
291
     0
 45
0.0
1001
ACAD
1000
AcDbSavedByObjectVersion
1070
     0
  0
VISUALSTYLE
  5
30
102
{ACAD_REACTORS
330
2A
102
}
330
2A
100
AcDbVisualStyle
  2
3dWireframe
 70
     5
 71
     0
 72
     2
 73
     0
 90
        0
 40
-0.6
 41
-30.0
 62
     5
 63
     7
 74
     1
 91
        4
 64
     7
 65
   257
 75
     1
175
     1
 42
1.0
 92
        0
 66
   257
 43
1.0
 76
     1
 77
     6
 78
     2
 67
     7
 79
     5
170
     0
171
     0
290
     0
174
     0
 93
        1
 44
0.0
173
     0
291
     0
 45
0.0
1001
ACAD
1000
AcDbSavedByObjectVersion
1070
     0
  0
VISUALSTYLE
  5
32
102
{ACAD_REACTORS
330
2A
102
}
330
2A
100
AcDbVisualStyle
  2
Basic
 70
     7
 71
     1
 72
     0
 73
     1
 90
        0
 40
-0.6
 41
-30.0
 62
     5
 63
     7
 74
     0
 91
        4
 64
     7
 65
   257
 75
     1
175
     1
 42
1.0
 92
        8
 66
     7
 43
1.0
 76
     1
 77
     6
 78
     2
 67
     7
 79
     5
170
     0
171
     0
290
     0
174
     0
 93
        1
 44
0.0
173
     0
291
     1
 45
0.0
1001
ACAD
1000
AcDbSavedByObjectVersion
1070
     0
  0
VISUALSTYLE
  5
36
102
{ACAD_REACTORS
330
2A
102
}
330
2A
100
AcDbVisualStyle
  2
Brighten
 70
    12
 71
     2
 72
     2
 73
     0
 90
        0
 40
-0.6
 41
-30.0
 62
     5
 63
     7
 74
     1
 91
        4
 64
     7
 65
   257
 75
     1
175
     1
 42
1.0
 92
        8
 66
     7
 43
1.0
 76
     1
 77
     6
 78
     2
 67
     7
 79
     5
170
     0
171
     0
290
     0
174
     0
 93
        1
 44
50.0
173
     0
291
     1
 45
0.0
1001
ACAD
1000
AcDbSavedByObjectVersion
1070
     0
  0
VISUALSTYLE
  5
3A
102
{ACAD_REACTORS
330
2A
102
}
330
2A
100
AcDbVisualStyle
  2
ColorChange
 70
    16
 71
     2
 72
     2
 73
     3
 90
        0
 40
-0.6
 41
-30.0
 62
     5
 63
     8
 74
     1
 91
        4
 64
     7
 65
   257
 75
     1
175
     1
 42
1.0
 92
        8
 66
     8
 43
1.0
 76
     1
 77
     6
 78
     2
 67
     7
 79
     5
170
     0
171
     0
290
     0
174
     0
 93
        1
 44
0.0
173
     0
291
     1
 45
0.0
1001
ACAD
1000
AcDbSavedByObjectVersion
1070
     0
  0
VISUALSTYLE
  5
34
102
{ACAD_REACTORS
330
2A
102
}
330
2A
100
AcDbVisualStyle
  2
Conceptual
 70
     9
 71
     3
 72
     2
 73
     0
 90
        0
 40
-0.6
 41
-30.0
 62
     5
 63
     7
 74
     2
 91
        2
 64
     7
 65
   257
 75
     1
175
     1
 42
40.0
 92
        8
 66
     7
 43
1.0
 76
     1
 77
     6
 78
     2
 67
     7
 79
     3
170
     0
171
     0
290
     0
174
     0
 93
        1
 44
0.0
173
     0
291
     0
 45
0.0
1001
ACAD
1000
AcDbSavedByObjectVersion
1070
     0
  0
VISUALSTYLE
  5
35
102
{ACAD_REACTORS
330
2A
102
}
330
2A
100
AcDbVisualStyle
  2
Dim
 70
    11
 71
     2
 72
     2
 73
     0
 90
        0
 40
-0.6
 41
-30.0
 62
     5
 63
     7
 74
     1
 91
        4
 64
     7
 65
   257
 75
     1
175
     1
 42
1.0
 92
        8
 66
     7
 43
1.0
 76
     1
 77
     6
 78
     2
 67
     7
 79
     5
170
     0
171
     0
290
     0
174
     0
 93
        1
 44
-50.0
173
     0
291
     1
 45
0.0
1001
ACAD
1000
AcDbSavedByObjectVersion
1070
     0
  0
VISUALSTYLE
  5
39
102
{ACAD_REACTORS
330
2A
102
}
330
2A
100
AcDbVisualStyle
  2
Facepattern
 70
    15
 71
     2
 72
     2
 73
     0
 90
        0
 40
-0.6
 41
-30.0
 62
     5
 63
     7
 74
     1
 91
        4
 64
     7
 65
   257
 75
     1
175
     1
 42
1.0
 92
        8
 66
     7
 43
1.0
 76
     1
 77
     6
 78
     2
 67
     7
 79
     5
170
     0
171
     0
290
     0
174
     0
 93
        1
 44
0.0
173
     0
291
     1
 45
0.0
1001
ACAD
1000
AcDbSavedByObjectVersion
1070
     0
  0
VISUALSTYLE
  5
2B
102
{ACAD_REACTORS
330
2A
102
}
330
2A
100
AcDbVisualStyle
  2
Flat
 70
     0
 71
     2
 72
     1
 73
     1
 90
        2
 40
-0.6
 41
30.0
 62
     5
 63
     7
 74
     0
 91
        4
 64
     7
 65
   257
 75
     1
175
     1
 42
1.0
 92
        8
 66
     7
 43
1.0
 76
     1
 77
     6
 78
     2
 67
     7
 79
     5
170
     0
171
     0
290
     0
174
     0
 93
       13
 44
0.0
173
     0
291
     1
 45
0.0
1001
ACAD
1000
AcDbSavedByObjectVersion
1070
     0
  0
VISUALSTYLE
  5
2C
102
{ACAD_REACTORS
330
2A
102
}
330
2A
100
AcDbVisualStyle
  2
FlatWithEdges
 70
     1
 71
     2
 72
     1
 73
     1
 90
        2
 40
-0.6
 41
30.0
 62
     5
 63
     7
 74
     1
 91
        4
 64
     7
 65
   257
 75
     1
175
     1
 42
1.0
 92
        0
 66
   257
 43
1.0
 76
     1
 77
     6
 78
     2
 67
     7
 79
     5
170
     0
171
     0
290
     0
174
     0
 93
       13
 44
0.0
173
     0
291
     1
 45
0.0
1001
ACAD
1000
AcDbSavedByObjectVersion
1070
     0
  0
VISUALSTYLE
  5
2D
102
{ACAD_REACTORS
330
2A
102
}
330
2A
100
AcDbVisualStyle
  2
Gouraud
 70
     2
 71
     2
 72
     2
 73
     1
 90
        2
 40
-0.6
 41
30.0
 62
     5
 63
     7
 74
     0
 91
        4
 64
     7
 65
   257
 75
     1
175
     1
 42
1.0
 92
        0
 66
     7
 43
1.0
 76
     1
 77
     6
 78
     2
 67
     7
 79
     5
170
     0
171
     0
290
     0
174
     0
 93
       13
 44
0.0
173
     0
291
     1
 45
0.0
1001
ACAD
1000
AcDbSavedByObjectVersion
1070
     0
  0
VISUALSTYLE
  5
2E
102
{ACAD_REACTORS
330
2A
102
}
330
2A
100
AcDbVisualStyle
  2
GouraudWithEdges
 70
     3
 71
     2
 72
     2
 73
     1
 90
        2
 40
-0.6
 41
30.0
 62
     5
 63
     7
 74
     1
 91
        4
 64
     7
 65
   257
 75
     1
175
     1
 42
1.0
 92
        0
 66
   257
 43
1.0
 76
     1
 77
     6
 78
     2
 67
     7
 79
     5
170
     0
171
     0
290
     0
174
     0
 93
       13
 44
0.0
173
     0
291
     1
 45
0.0
1001
ACAD
1000
AcDbSavedByObjectVersion
1070
     0
  0
VISUALSTYLE
  5
38
102
{ACAD_REACTORS
330
2A
102
}
330
2A
100
AcDbVisualStyle
  2
Linepattern
 70
    14
 71
     2
 72
     2
 73
     0
 90
        0
 40
-0.6
 41
-30.0
 62
     5
 63
     7
 74
     1
 91
        4
 64
     7
 65
   257
 75
     7
175
     7
 42
1.0
 92
        8
 66
     7
 43
1.0
 76
     1
 77
     6
 78
     2
 67
     7
 79
     5
170
     0
171
     0
290
     0
174
     0
 93
        1
 44
0.0
173
     0
291
     1
 45
0.0
1001
ACAD
1000
AcDbSavedByObjectVersion
1070
     0
  0
VISUALSTYLE
  5
33
102
{ACAD_REACTORS
330
2A
102
}
330
2A
100
AcDbVisualStyle
  2
Realistic
 70
     8
 71
     2
 72
     2
 73
     0
 90
        0
 40
-0.6
 41
-30.0
 62
     5
 63
     7
 74
     1
 91
        0
 64
     7
 65
   257
 75
     1
175
     1
 42
1.0
 92
        8
 66
     8
 43
1.0
 76
     1
 77
     6
 78
     2
 67
     7
 79
     5
170
     0
171
     0
290
     0
174
     0
 93
       13
 44
0.0
173
     0
291
     0
 45
0.0
1001
ACAD
1000
AcDbSavedByObjectVersion
1070
     0
  0
VISUALSTYLE
  5
37
102
{ACAD_REACTORS
330
2A
102
}
330
2A
100
AcDbVisualStyle
  2
Thicken
 70
    13
 71
     2
 72
     2
 73
     0
 90
        0
 40
-0.6
 41
-30.0
 62
     5
 63
     7
 74
     1
 91
        4
 64
     7
 65
   257
 75
     1
175
     1
 42
1.0
 92
       12
 66
     7
 43
1.0
 76
     1
 77
     6
 78
     2
 67
     7
 79
     5
170
     0
171
     0
290
     0
174
     0
 93
        1
 44
0.0
173
     0
291
     1
 45
0.0
1001
ACAD
1000
AcDbSavedByObjectVersion
1070
     0
  0
DICTIONARYVAR
  5
19F
102
{ACAD_REACTORS
330
19D
102
}
330
19D
100
DictionaryVariables
280
     0
  1
80.000000
  0
DICTIONARYVAR
  5
19E
102
{ACAD_REACTORS
330
19D
102
}
330
19D
100
DictionaryVariables
280
     0
  1
5.000000
  0
DICTIONARY
  5
1A0
330
1E
100
AcDbDictionary
280
     1
281
     1
  3
ACAD_XREC_ROUNDTRIP
360
1A1
  0
DICTIONARY
  5
1A4
330
26
100
AcDbDictionary
280
     1
281
     1
  3
ACAD_XREC_ROUNDTRIP
360
1A5
  0
DICTIONARY
  5
1A2
330
22
100
AcDbDictionary
280
     1
281
     1
  3
ACAD_XREC_ROUNDTRIP
360
1A3
  0
XRECORD
  5
1A1
102
{ACAD_REACTORS
330
1A0
102
}
330
1A0
100
AcDbXrecord
280
     1
102
SHADEPLOT
 70
     0
102
SHADEPLOTRESLEVEL
 70
     5
102
SHADEPLOTCUSTOMDPI
 70
   300
  0
XRECORD
  5
1A5
102
{ACAD_REACTORS
330
1A4
102
}
330
1A4
100
AcDbXrecord
280
     1
102
SHADEPLOT
 70
     0
102
SHADEPLOTRESLEVEL
 70
     5
102
SHADEPLOTCUSTOMDPI
 70
   300
  0
XRECORD
  5
1A3
102
{ACAD_REACTORS
330
1A2
102
}
330
1A2
100
AcDbXrecord
280
     1
102
SHADEPLOT
 70
     0
102
SHADEPLOTRESLEVEL
 70
     5
102
SHADEPLOTCUSTOMDPI
 70
   300
  0
ENDSEC
  0
EOF
