  0
SECTION
  2
HEADER
  9
$ACADVER
  1
AC1018
  9
$ACADMAINTVER
 70
     0
  9
$DWGCODEPAGE
  3
ANSI_932
  9
$INSBASE
 10
0.0
 20
0.0
 30
0.0
  9
$EXTMIN
 10
-2100.0
 20
-1485.0
 30
0.0
  9
$EXTMAX
 10
2100.0
 20
1485.0
 30
0.0
  9
$LIMMIN
 10
-2100.0
 20
-1485.0
  9
$LIMMAX
 10
2100.0
 20
1485.0
  9
$ORTHOMODE
 70
     0
  9
$REGENMODE
 70
     1
  9
$FILLMODE
 70
     1
  9
$QTEXTMODE
 70
     0
  9
$MIRRTEXT
 70
     1
  9
$LTSCALE
 40
10.0
  9
$ATTMODE
 70
     1
  9
$TEXTSIZE
 40
2.5
  9
$TRACEWID
 40
1.0
  9
$TEXTSTYLE
  7
Standard
  9
$CLAYER
  8
0
  9
$CELTYPE
  6
ByLayer
  9
$CECOLOR
 62
   256
  9
$CELTSCALE
 40
1.0
  9
$DISPSILH
 70
     0
  9
$DIMSCALE
 40
1.0
  9
$DIMASZ
 40
2.5
  9
$DIMEXO
 40
0.625
  9
$DIMDLI
 40
3.75
  9
$DIMRND
 40
0.0
  9
$DIMDLE
 40
0.0
  9
$DIMEXE
 40
1.25
  9
$DIMTP
 40
0.0
  9
$DIMTM
 40
0.0
  9
$DIMTXT
 40
2.5
  9
$DIMCEN
 40
2.5
  9
$DIMTSZ
 40
0.0
  9
$DIMTOL
 70
     0
  9
$DIMLIM
 70
     0
  9
$DIMTIH
 70
     0
  9
$DIMTOH
 70
     0
  9
$DIMSE1
 70
     0
  9
$DIMSE2
 70
     0
  9
$DIMTAD
 70
     1
  9
$DIMZIN
 70
     8
  9
$DIMBLK
  1

  9
$DIMASO
 70
     1
  9
$DIMSHO
 70
     1
  9
$DIMPOST
  1

  9
$DIMAPOST
  1

  9
$DIMALT
 70
     0
  9
$DIMALTD
 70
     3
  9
$DIMALTF
 40
0.03937007874016
  9
$DIMLFAC
 40
1.0
  9
$DIMTOFL
 70
     1
  9
$DIMTVP
 40
0.0
  9
$DIMTIX
 70
     0
  9
$DIMSOXD
 70
     0
  9
$DIMSAH
 70
     0
  9
$DIMBLK1
  1

  9
$DIMBLK2
  1

  9
$DIMSTYLE
  2
ISO-25
  9
$DIMCLRD
 70
     0
  9
$DIMCLRE
 70
     0
  9
$DIMCLRT
 70
     0
  9
$DIMTFAC
 40
1.0
  9
$DIMGAP
 40
0.625
  9
$DIMJUST
 70
     0
  9
$DIMSD1
 70
     0
  9
$DIMSD2
 70
     0
  9
$DIMTOLJ
 70
     0
  9
$DIMTZIN
 70
     8
  9
$DIMALTZ
 70
     0
  9
$DIMALTTZ
 70
     0
  9
$DIMUPT
 70
     0
  9
$DIMDEC
 70
     2
  9
$DIMTDEC
 70
     2
  9
$DIMALTU
 70
     2
  9
$DIMALTTD
 70
     3
  9
$DIMTXSTY
  7
Standard
  9
$DIMAUNIT
 70
     0
  9
$DIMADEC
 70
     0
  9
$DIMALTRND
 40
0.0
  9
$DIMAZIN
 70
     0
  9
$DIMDSEP
 70
    44
  9
$DIMATFIT
 70
     3
  9
$DIMFRAC
 70
     0
  9
$DIMLDRBLK
  1

  9
$DIMLUNIT
 70
     2
  9
$DIMLWD
 70
    -2
  9
$DIMLWE
 70
    -2
  9
$DIMTMOVE
 70
     0
  9
$LUNITS
 70
     2
  9
$LUPREC
 70
     4
  9
$SKETCHINC
 40
1.0
  9
$FILLETRAD
 40
10.0
  9
$AUNITS
 70
     0
  9
$AUPREC
 70
     0
  9
$MENU
  1
.
  9
$ELEVATION
 40
0.0
  9
$PELEVATION
 40
0.0
  9
$THICKNESS
 40
0.0
  9
$LIMCHECK
 70
     0
  9
$CHAMFERA
 40
10.0
  9
$CHAMFERB
 40
10.0
  9
$CHAMFERC
 40
20.0
  9
$CHAMFERD
 40
0.0
  9
$SKPOLY
 70
     0
  9
$TDCREATE
 40
2456499.588104259
  9
$TDUCREATE
 40
2456499.213104259
  9
$TDUPDATE
 40
2456499.588104271
  9
$TDUUPDATE
 40
2456499.213104271
  9
$TDINDWG
 40
0.0000000116
  9
$TDUSRTIMER
 40
0.0000000116
  9
$USRTIMER
 70
     1
  9
$ANGBASE
 50
0.0
  9
$ANGDIR
 70
     0
  9
$PDMODE
 70
     0
  9
$PDSIZE
 40
0.0
  9
$PLINEWID
 40
0.0
  9
$SPLFRAME
 70
     0
  9
$SPLINETYPE
 70
     6
  9
$SPLINESEGS
 70
     8
  9
$HANDSEED
  5
1C5
  9
$SURFTAB1
 70
     6
  9
$SURFTAB2
 70
     6
  9
$SURFTYPE
 70
     6
  9
$SURFU
 70
     6
  9
$SURFV
 70
     6
  9
$UCSBASE
  2

  9
$UCSNAME
  2

  9
$UCSORG
 10
0.0
 20
0.0
 30
0.0
  9
$UCSXDIR
 10
1.0
 20
0.0
 30
0.0
  9
$UCSYDIR
 10
0.0
 20
1.0
 30
0.0
  9
$UCSORTHOREF
  2

  9
$UCSORTHOVIEW
 70
     0
  9
$UCSORGTOP
 10
0.0
 20
0.0
 30
0.0
  9
$UCSORGBOTTOM
 10
0.0
 20
0.0
 30
0.0
  9
$UCSORGLEFT
 10
0.0
 20
0.0
 30
0.0
  9
$UCSORGRIGHT
 10
0.0
 20
0.0
 30
0.0
  9
$UCSORGFRONT
 10
0.0
 20
0.0
 30
0.0
  9
$UCSORGBACK
 10
0.0
 20
0.0
 30
0.0
  9
$PUCSBASE
  2

  9
$PUCSNAME
  2

  9
$PUCSORG
 10
0.0
 20
0.0
 30
0.0
  9
$PUCSXDIR
 10
1.0
 20
0.0
 30
0.0
  9
$PUCSYDIR
 10
0.0
 20
1.0
 30
0.0
  9
$PUCSORTHOREF
  2

  9
$PUCSORTHOVIEW
 70
     0
  9
$PUCSORGTOP
 10
0.0
 20
0.0
 30
0.0
  9
$PUCSORGBOTTOM
 10
0.0
 20
0.0
 30
0.0
  9
$PUCSORGLEFT
 10
0.0
 20
0.0
 30
0.0
  9
$PUCSORGRIGHT
 10
0.0
 20
0.0
 30
0.0
  9
$PUCSORGFRONT
 10
0.0
 20
0.0
 30
0.0
  9
$PUCSORGBACK
 10
0.0
 20
0.0
 30
0.0
  9
$USERI1
 70
     0
  9
$USERI2
 70
     0
  9
$USERI3
 70
     0
  9
$USERI4
 70
     0
  9
$USERI5
 70
     0
  9
$USERR1
 40
0.0
  9
$USERR2
 40
0.0
  9
$USERR3
 40
0.0
  9
$USERR4
 40
0.0
  9
$USERR5
 40
0.0
  9
$WORLDVIEW
 70
     1
  9
$SHADEDGE
 70
     3
  9
$SHADEDIF
 70
    70
  9
$TILEMODE
 70
     1
  9
$MAXACTVP
 70
    64
  9
$PINSBASE
 10
0.0
 20
0.0
 30
0.0
  9
$PLIMCHECK
 70
     0
  9
$PEXTMIN
 10
1.000000000000000E+20
 20
1.000000000000000E+20
 30
1.000000000000000E+20
  9
$PEXTMAX
 10
-1.000000000000000E+20
 20
-1.000000000000000E+20
 30
-1.000000000000000E+20
  9
$PLIMMIN
 10
0.0
 20
0.0
  9
$PLIMMAX
 10
420.0
 20
297.0
  9
$UNITMODE
 70
     0
  9
$VISRETAIN
 70
     1
  9
$PLINEGEN
 70
     0
  9
$PSLTSCALE
 70
     1
  9
$TREEDEPTH
 70
  3020
  9
$CMLSTYLE
  2
Standard
  9
$CMLJUST
 70
     0
  9
$CMLSCALE
 40
20.0
  9
$PROXYGRAPHICS
 70
     1
  9
$MEASUREMENT
 70
     1
  9
$CELWEIGHT
370
    -1
  9
$ENDCAPS
280
     0
  9
$JOINSTYLE
280
     0
  9
$LWDISPLAY
290
     0
  9
$INSUNITS
 70
     4
  9
$HYPERLINKBASE
  1

  9
$STYLESHEET
  1

  9
$XEDIT
290
     1
  9
$CEPSNTYPE
380
     0
  9
$PSTYLEMODE
290
     1
  9
$FINGERPRINTGUID
  2
{86DD05B2-35A6-4F71-B684-F0FAF49AF3C1}
  9
$VERSIONGUID
  2
{FAEB1C32-E019-11D5-929B-00C0DF256EC4}
  9
$EXTNAMES
290
     1
  9
$PSVPSCALE
 40
0.0
  9
$OLESTARTUP
290
     0
  9
$SORTENTS
280
   127
  9
$INDEXCTL
280
     0
  9
$HIDETEXT
280
     1
  9
$XCLIPFRAME
290
     0
  9
$HALOGAP
280
     0
  9
$OBSCOLOR
 70
   257
  9
$OBSLTYPE
280
     0
  9
$INTERSECTIONDISPLAY
280
     0
  9
$INTERSECTIONCOLOR
 70
   257
  9
$DIMASSOC
280
     2
  9
$PROJECTNAME
  1

  0
ENDSEC
  0
SECTION
  2
CLASSES
  0
CLASS
  1
ACDBDICTIONARYWDFLT
  2
AcDbDictionaryWithDefault
  3
ObjectDBX Classes
 90
        0
 91
        4
280
     0
281
     0
  0
CLASS
  1
VISUALSTYLE
  2
AcDbVisualStyle
  3
ObjectDBX Classes
 90
     4095
 91
        4
280
     0
281
     0
  0
ENDSEC
  0
SECTION
  2
TABLES
  0
TABLE
  2
VPORT
  5
8
330
0
100
AcDbSymbolTable
 70
     1
  0
VPORT
  5
29
330
8
100
AcDbSymbolTableRecord
100
AcDbViewportTableRecord
  2
*Active
 70
     0
 10
0.0
 20
0.0
 11
1.0
 21
1.0
 12
0.0
 22
0.0
 13
0.0
 23
0.0
 14
10.0
 24
10.0
 15
10.0
 25
10.0
 16
0.0
 26
0.0
 36
1.0
 17
0.0
 27
0.0
 37
0.0
 40
3267.0
 41
1.414141414141414
 42
50.0
 43
0.0
 44
0.0
 50
0.0
 51
0.0
 71
     0
 72
 10000
 73
     1
 74
     3
 75
     0
 76
     0
 77
     0
 78
     0
281
     0
 65
     1
110
0.0
120
0.0
130
0.0
111
1.0
121
0.0
131
0.0
112
0.0
122
1.0
132
0.0
 79
     0
146
0.0
  0
ENDTAB
  0
TABLE
  2
LTYPE
  5
5
330
0
100
AcDbSymbolTable
 70
     3
  0
LTYPE
  5
14
330
5
100
AcDbSymbolTableRecord
100
AcDbLinetypeTableRecord
  2
ByBlock
 70
     0
  3

 72
    65
 73
     0
 40
0.0
  0
LTYPE
  5
15
330
5
100
AcDbSymbolTableRecord
100
AcDbLinetypeTableRecord
  2
ByLayer
 70
     0
  3

 72
    65
 73
     0
 40
0.0
  0
LTYPE
  5
16
330
5
100
AcDbSymbolTableRecord
100
AcDbLinetypeTableRecord
  2
Continuous
 70
     0
  3
Solid line
 72
    65
 73
     0
 40
0.0
  0
LTYPE
  5
3C
330
5
100
AcDbSymbolTableRecord
100
AcDbLinetypeTableRecord
  2
JWW_CENTER1
 70
     0
  3
-----  --  ----------  --  -----
 72
    65
 73
     4
 40
6.773333333333333
 49
4.233333333333333
 74
     0
 49
-0.8466666666666667
 74
     0
 49
0.8466666666666667
 74
     0
 49
-0.8466666666666667
 74
     0
  0
LTYPE
  5
3D
330
5
100
AcDbSymbolTableRecord
100
AcDbLinetypeTableRecord
  2
JWW_DASHED1
 70
     0
  3
-  --  --  --  --  --  --  --  -
 72
    65
 73
     2
 40
1.693333333333333
 49
0.8466666666666667
 74
     0
 49
-0.8466666666666667
 74
     0
  0
ENDTAB
  0
TABLE
  2
LAYER
  5
2
330
0
100
AcDbSymbolTable
 70
     6
  0
LAYER
  5
10
330
2
100
AcDbSymbolTableRecord
100
AcDbLayerTableRecord
  2
0
 70
     0
 62
     7
  6
Continuous
370
    -3
390
F
  0
LAYER
  5
3E
330
2
100
AcDbSymbolTableRecord
100
AcDbLayerTableRecord
  2
0-F
 70
     0
 62
     7
  6
Continuous
370
    -3
390
F
  0
LAYER
  5
3F
330
2
100
AcDbSymbolTableRecord
100
AcDbLayerTableRecord
  2
0-0
 70
     0
 62
     7
  6
Continuous
370
    -3
390
F
  0
LAYER
  5
40
330
2
100
AcDbSymbolTableRecord
100
AcDbLayerTableRecord
  2
0-D
 70
     0
 62
     7
  6
Continuous
370
    -3
390
F
  0
LAYER
  5
41
330
2
100
AcDbSymbolTableRecord
100
AcDbLayerTableRecord
  2
0-1
 70
     0
 62
     7
  6
Continuous
370
    -3
390
F
  0
LAYER
  5
42
330
2
100
AcDbSymbolTableRecord
100
AcDbLayerTableRecord
  2
0-5
 70
     0
 62
     7
  6
Continuous
370
    -3
390
F
  0
ENDTAB
  0
TABLE
  2
STYLE
  5
3
330
0
100
AcDbSymbolTable
 70
     2
  0
STYLE
  5
11
330
3
100
AcDbSymbolTableRecord
100
AcDbTextStyleTableRecord
  2
Standard
 70
     0
 40
0.0
 41
1.0
 50
0.0
 71
     0
 42
2.5
  3
txt
  4

1001
ACAD
1000

1071
        0
  0
STYLE
  5
3B
330
3
100
AcDbSymbolTableRecord
100
AcDbTextStyleTableRecord
  2
ＭＳ ゴシック
 70
     0
 40
1.0
 41
1.0
 50
0.0
 71
     0
 42
10.0
  3

  4

1001
ACAD
1000
MS Gothic
1071
    32817
  0
ENDTAB
  0
TABLE
  2
VIEW
  5
6
330
0
100
AcDbSymbolTable
 70
     0
  0
ENDTAB
  0
TABLE
  2
UCS
  5
7
330
0
100
AcDbSymbolTable
 70
     0
  0
ENDTAB
  0
TABLE
  2
APPID
  5
9
330
0
100
AcDbSymbolTable
 70
     1
  0
APPID
  5
12
330
9
100
AcDbSymbolTableRecord
100
AcDbRegAppTableRecord
  2
ACAD
 70
     0
  0
ENDTAB
  0
TABLE
  2
DIMSTYLE
  5
A
330
0
100
AcDbSymbolTable
 70
     1
100
AcDbDimStyleTable
  0
DIMSTYLE
105
27
330
A
100
AcDbSymbolTableRecord
100
AcDbDimStyleTableRecord
  2
ISO-25
 70
     0
 41
2.5
 42
0.625
 43
3.75
 44
1.25
 73
     0
 74
     0
 77
     1
 78
     8
140
2.5
141
2.5
143
0.03937007874016
147
0.625
171
     3
172
     1
271
     2
272
     2
274
     3
278
    44
283
     0
284
     8
340
11
  0
ENDTAB
  0
TABLE
  2
BLOCK_RECORD
  5
1
330
0
100
AcDbSymbolTable
 70
     1
  0
BLOCK_RECORD
  5
1F
330
1
100
AcDbSymbolTableRecord
100
AcDbBlockTableRecord
  2
*Model_Space
340
22
  0
BLOCK_RECORD
  5
1B
330
1
100
AcDbSymbolTableRecord
100
AcDbBlockTableRecord
  2
*Paper_Space
340
1E
  0
BLOCK_RECORD
  5
23
330
1
100
AcDbSymbolTableRecord
100
AcDbBlockTableRecord
  2
*Paper_Space0
340
26
  0
ENDTAB
  0
ENDSEC
  0
SECTION
  2
BLOCKS
  0
BLOCK
  5
20
330
1F
100
AcDbEntity
  8
0
100
AcDbBlockBegin
  2
*Model_Space
 70
     0
 10
0.0
 20
0.0
 30
0.0
  3
*Model_Space
  1

  0
ENDBLK
  5
21
330
1F
100
AcDbEntity
  8
0
100
AcDbBlockEnd
  0
BLOCK
  5
1C
330
1B
100
AcDbEntity
 67
     1
  8
0
100
AcDbBlockBegin
  2
*Paper_Space
 70
     0
 10
0.0
 20
0.0
 30
0.0
  3
*Paper_Space
  1

  0
ENDBLK
  5
1D
330
1B
100
AcDbEntity
 67
     1
  8
0
100
AcDbBlockEnd
  0
BLOCK
  5
24
330
23
100
AcDbEntity
  8
0
100
AcDbBlockBegin
  2
*Paper_Space0
 70
     0
 10
0.0
 20
0.0
 30
0.0
  3
*Paper_Space0
  1

  0
ENDBLK
  5
25
330
23
100
AcDbEntity
  8
0
100
AcDbBlockEnd
  0
ENDSEC
  0
SECTION
  2
ENTITIES
  0
LINE
  5
43
330
1F
100
AcDbEntity
  8
0-F
  6
Continuous
 62
     7
370
    13
100
AcDbLine
 10
-1312.877098289696
 20
1218.116009686444
 30
0.0
 11
-1288.090803816512
 21
1221.378751187711
 31
0.0
  0
LINE
  5
44
330
1F
100
AcDbEntity
  8
0-F
  6
Continuous
 62
     7
370
    13
100
AcDbLine
 10
-1312.877098289696
 20
1218.116009686444
 30
0.0
 11
-1288.090803816512
 21
1214.852773305532
 31
0.0
  0
LINE
  5
45
330
1F
100
AcDbEntity
  8
0-F
  6
Continuous
 62
     7
370
    13
100
AcDbLine
 10
-62.87718076963671
 20
1218.116009686444
 30
0.0
 11
-87.66322780299816
 21
1221.378751187711
 31
0.0
  0
LINE
  5
46
330
1F
100
AcDbEntity
  8
0-F
  6
Continuous
 62
     7
370
    13
100
AcDbLine
 10
-62.87718076963671
 20
1218.116009686444
 30
0.0
 11
-87.66322780299816
 21
1214.852773305532
 31
0.0
  0
LINE
  5
47
330
1F
100
AcDbEntity
  8
0-F
  6
Continuous
 62
     7
370
    13
100
AcDbLine
 10
-1312.877098289696
 20
902.5406626108531
 30
0.0
 11
-1312.877098289696
 21
1221.115970096073
 31
0.0
  0
LINE
  5
48
330
1F
100
AcDbEntity
  8
0-F
  6
Continuous
 62
     7
370
    13
100
AcDbLine
 10
-62.87718076963671
 20
902.5406626108531
 30
0.0
 11
-62.87718076963671
 21
1221.115970096073
 31
0.0
  0
LINE
  5
49
330
1F
100
AcDbEntity
  8
0-F
  6
Continuous
 62
     7
370
    13
100
AcDbLine
 10
-1312.877098289696
 20
1218.116009686444
 30
0.0
 11
-62.87718076963671
 21
1218.116009686444
 31
0.0
  0
LINE
  5
4A
330
1F
100
AcDbEntity
  8
0-F
  6
Continuous
 62
     7
370
    13
100
AcDbLine
 10
-970.7937704550252
 20
776.0343314505915
 30
0.0
 11
-1223.384547877956
 21
921.8676922772383
 31
0.0
  0
LINE
  5
4B
330
1F
100
AcDbEntity
  8
0-F
  6
Continuous
 62
     7
370
    13
100
AcDbLine
 10
-1059.304974530194
 20
827.1360985008448
 30
0.0
 11
-1223.384547877956
 21
921.8676922772383
 31
0.0
  0
LINE
  5
4C
330
1F
100
AcDbEntity
  8
0-0
  6
Continuous
 62
     3
370
    13
100
AcDbLine
 10
-687.877015809755
 20
1017.281972524282
 30
0.0
 11
-970.7927806957348
 21
1017.283952042863
 31
0.0
  0
LINE
  5
4D
330
1F
100
AcDbEntity
  8
0-0
  6
JWW_CENTER1
 62
     3
370
    13
100
AcDbLine
 10
-687.877015809755
 20
1067.698826145481
 30
0.0
 11
-970.7926569758234
 21
1067.700805664062
 31
0.0
  0
LINE
  5
4E
330
1F
100
AcDbEntity
  8
0-0
  6
Continuous
 62
     3
370
    13
100
AcDbLine
 10
-687.877015809755
 20
1118.115679766681
 30
0.0
 11
-970.7924095360008
 21
1118.117659285262
 31
0.0
  0
LINE
  5
4F
330
1F
100
AcDbEntity
  8
0-0
  6
Continuous
 62
     3
370
    13
100
AcDbLine
 10
927.956246040963
 20
-631.8814334353884
 30
0.0
 11
1028.789458403716
 21
-631.8810622756546
 31
0.0
  0
LINE
  5
50
330
1F
100
AcDbEntity
  8
0-0
  6
Continuous
 62
     3
370
    13
100
AcDbLine
 10
891.8918918918922
 20
1067.702042863176
 30
0.0
 11
1070.27027027027
 21
1067.702785182644
 31
0.0
  0
LINE
  5
51
330
1F
100
AcDbEntity
  8
0-0
  6
Continuous
 62
     3
370
    13
100
AcDbLine
 10
927.956246040963
 20
-215.2142993823901
 30
0.0
 11
927.956246040963
 21
-631.8814334353884
 31
0.0
  0
LINE
  5
52
330
1F
100
AcDbEntity
  8
0-0
  6
Continuous
 62
     3
370
    13
100
AcDbLine
 10
1028.789458403716
 20
-215.2142993823901
 30
0.0
 11
1028.789458403716
 21
-631.8810622756546
 31
0.0
  0
LINE
  5
53
330
1F
100
AcDbEntity
  8
0-0
  6
JWW_CENTER1
 62
     3
370
    13
100
AcDbLine
 10
978.3730996621625
 20
1149.84637286212
 30
0.0
 11
978.3730996621625
 21
-701.7198387352196
 31
0.0
  0
LINE
  5
54
330
1F
100
AcDbEntity
  8
0-0
  6
Continuous
 62
     3
370
    13
100
AcDbLine
 10
927.956246040963
 20
1067.702290302998
 30
0.0
 11
927.956246040963
 21
-215.2142993823901
 31
0.0
  0
LINE
  5
55
330
1F
100
AcDbEntity
  8
0-0
  6
Continuous
 62
     3
370
    13
100
AcDbLine
 10
1028.789458403716
 20
1067.702290302998
 30
0.0
 11
1028.789458403716
 21
-215.2142993823901
 31
0.0
  0
LINE
  5
56
330
1F
100
AcDbEntity
  8
0-F
  6
Continuous
 62
     7
370
    13
100
AcDbLine
 10
1556.868599556588
 20
-665.2142993823901
 30
0.0
 11
420.3819481102198
 21
-665.2142993823901
 31
0.0
  0
LINE
  5
57
330
1F
100
AcDbEntity
  8
0-D
  6
Continuous
 62
     2
370
    13
100
AcDbLine
 10
1228.347695840372
 20
-580.2142663904137
 30
0.0
 11
1261.731286951014
 21
-580.2142663904137
 31
0.0
  0
LINE
  5
58
330
1F
100
AcDbEntity
  8
0-D
  6
Continuous
 62
     2
370
    13
100
AcDbLine
 10
1040.455751161318
 20
-365.1895554001267
 30
0.0
 11
1040.455751161318
 21
-398.5726516311233
 31
0.0
  0
LINE
  5
59
330
1F
100
AcDbEntity
  8
0-D
  6
Continuous
 62
     2
370
    13
100
AcDbLine
 10
1051.694467905406
 20
-398.5726516311233
 30
0.0
 11
1040.455751161318
 21
-398.5726516311233
 31
0.0
  0
LINE
  5
5A
330
1F
100
AcDbEntity
  8
0-D
  6
Continuous
 62
     2
370
    13
100
AcDbLine
 10
1051.694467905406
 20
-365.1895554001267
 30
0.0
 11
1040.455751161318
 21
-365.1895554001267
 31
0.0
  0
LINE
  5
5B
330
1F
100
AcDbEntity
  8
0-D
  6
Continuous
 62
     2
370
    13
100
AcDbLine
 10
1052.9559161212
 20
-368.5351892419763
 30
0.0
 11
1052.9559161212
 21
-395.2267703494509
 31
0.0
  0
LINE
  5
5C
330
1F
100
AcDbEntity
  8
0-D
  6
Continuous
 62
     2
370
    13
100
AcDbLine
 10
901.4994853251693
 20
-400.1310276340793
 30
0.0
 11
916.2894584037161
 21
-400.1310276340793
 31
0.0
  0
LINE
  5
5D
330
1F
100
AcDbEntity
  8
0-D
  6
Continuous
 62
     2
370
    13
100
AcDbLine
 10
916.2894584037161
 20
-400.1310276340793
 30
0.0
 11
916.2894584037161
 21
-363.6309319573479
 31
0.0
  0
LINE
  5
5E
330
1F
100
AcDbEntity
  8
0-D
  6
Continuous
 62
     2
370
    13
100
AcDbLine
 10
901.4994853251693
 20
-363.6309319573479
 30
0.0
 11
916.2894584037161
 21
-363.6309319573479
 31
0.0
  0
LINE
  5
5F
330
1F
100
AcDbEntity
  8
0-D
  6
Continuous
 62
     2
370
    13
100
AcDbLine
 10
901.4994853251693
 20
-390.9896108266469
 30
0.0
 11
916.2894584037161
 21
-390.9896108266469
 31
0.0
  0
LINE
  5
60
330
1F
100
AcDbEntity
  8
0-D
  6
Continuous
 62
     2
370
    13
100
AcDbLine
 10
901.4994853251693
 20
-372.7723487647803
 30
0.0
 11
916.2894584037161
 21
-372.7723487647803
 31
0.0
  0
LINE
  5
61
330
1F
100
AcDbEntity
  8
0-D
  6
Continuous
 62
     2
370
    13
100
AcDbLine
 10
899.6229017103042
 20
-395.5603192303631
 30
0.0
 11
899.6229017103042
 21
-368.2016403610642
 31
0.0
  0
LINE
  5
62
330
1F
100
AcDbEntity
  8
0-D
  6
Continuous
 62
     2
370
    13
100
AcDbLine
 10
890.4557511613177
 20
-390.3027178790117
 30
0.0
 11
892.0344172297297
 21
-391.8808890677786
 31
0.0
  0
LINE
  5
63
330
1F
100
AcDbEntity
  8
0-D
  6
Continuous
 62
     2
370
    13
100
AcDbLine
 10
890.4557511613177
 20
-390.3027178790117
 30
0.0
 11
890.4557511613177
 21
-373.4592417124155
 31
0.0
  0
LINE
  5
64
330
1F
100
AcDbEntity
  8
0-D
  6
Continuous
 62
     2
370
    13
100
AcDbLine
 10
890.4557511613177
 20
-373.4592417124155
 30
0.0
 11
892.0344172297297
 21
-371.8808230838259
 31
0.0
  0
LINE
  5
65
330
1F
100
AcDbEntity
  8
0-D
  6
Continuous
 62
     2
370
    13
100
AcDbLine
 10
892.0344172297297
 20
-371.8808230838259
 30
0.0
 11
892.0344172297297
 21
-391.8808890677786
 31
0.0
  0
LINE
  5
66
330
1F
100
AcDbEntity
  8
0-D
  6
Continuous
 62
     2
370
    13
100
AcDbLine
 10
1051.694467905406
 20
-371.8808230838259
 30
0.0
 11
916.2894584037161
 21
-371.8808230838259
 31
0.0
  0
LINE
  5
67
330
1F
100
AcDbEntity
  8
0-D
  6
Continuous
 62
     2
370
    13
100
AcDbLine
 10
899.6229017103042
 20
-371.8808230838259
 30
0.0
 11
892.0344172297297
 21
-371.8808230838259
 31
0.0
  0
LINE
  5
68
330
1F
100
AcDbEntity
  8
0-D
  6
Continuous
 62
     2
370
    13
100
AcDbLine
 10
1040.455751161318
 20
-390.3027178790117
 30
0.0
 11
916.2894584037161
 21
-390.3027178790117
 31
0.0
  0
LINE
  5
69
330
1F
100
AcDbEntity
  8
0-D
  6
Continuous
 62
     2
370
    13
100
AcDbLine
 10
899.6229017103042
 20
-390.3027178790117
 30
0.0
 11
890.4557511613177
 21
-390.3027178790117
 31
0.0
  0
LINE
  5
6A
330
1F
100
AcDbEntity
  8
0-D
  6
Continuous
 62
     2
370
    13
100
AcDbLine
 10
1051.694467905406
 20
-391.8808890677786
 30
0.0
 11
916.2894584037161
 21
-391.8808890677786
 31
0.0
  0
LINE
  5
6B
330
1F
100
AcDbEntity
  8
0-D
  6
Continuous
 62
     2
370
    13
100
AcDbLine
 10
899.6229017103042
 20
-391.8808890677786
 30
0.0
 11
892.0344172297297
 21
-391.8808890677786
 31
0.0
  0
LINE
  5
6C
330
1F
100
AcDbEntity
  8
0-D
  6
Continuous
 62
     2
370
    13
100
AcDbLine
 10
1040.455751161318
 20
-373.4592417124155
 30
0.0
 11
916.2894584037161
 21
-373.4592417124155
 31
0.0
  0
LINE
  5
6D
330
1F
100
AcDbEntity
  8
0-D
  6
Continuous
 62
     2
370
    13
100
AcDbLine
 10
899.6229017103042
 20
-373.4592417124155
 30
0.0
 11
890.4557511613177
 21
-373.4592417124155
 31
0.0
  0
LINE
  5
6E
330
1F
100
AcDbEntity
  8
0-D
  6
JWW_CENTER1
 62
     2
370
    13
100
AcDbLine
 10
1062.911904824747
 20
-381.8808560758023
 30
0.0
 11
886.6065772804058
 21
-381.8808560758023
 31
0.0
  0
LINE
  5
6F
330
1F
100
AcDbEntity
  8
0-0
  6
Continuous
 62
     2
370
    13
100
AcDbLine
 10
1016.658473659206
 20
-632.6696529903927
 30
0.0
 11
1029.670344172298
 21
-631.926096323374
 31
0.0
  0
LINE
  5
70
330
1F
100
AcDbEntity
  8
0-0
  6
Continuous
 62
     2
370
    13
100
AcDbLine
 10
1015.873099662163
 20
-633.5015456740921
 30
0.0
 11
1015.873099662163
 21
-650.2144973342483
 31
0.0
  0
LINE
  5
71
330
1F
100
AcDbEntity
  8
0-0
  6
Continuous
 62
     2
370
    13
100
AcDbLine
 10
1297.299276815879
 20
-597.7099939294762
 30
0.0
 11
1282.606300147804
 21
-595.6835855020058
 31
0.0
  0
LINE
  5
72
330
1F
100
AcDbEntity
  8
0-0
  6
Continuous
 62
     2
370
    13
100
AcDbLine
 10
1031.289590371622
 20
-370.2145633182009
 30
0.0
 11
1040.455751161318
 21
-370.2145633182009
 31
0.0
  0
LINE
  5
73
330
1F
100
AcDbEntity
  8
0-0
  6
Continuous
 62
     2
370
    13
100
AcDbLine
 10
1031.289590371622
 20
-393.547643713049
 30
0.0
 11
1040.455751161318
 21
-393.547643713049
 31
0.0
  0
LINE
  5
74
330
1F
100
AcDbEntity
  8
0-0
  6
Continuous
 62
     2
370
    13
100
AcDbLine
 10
1061.534654771959
 20
-565.2143406223605
 30
0.0
 11
1048.789524387669
 21
-565.2143406223605
 31
0.0
  0
LINE
  5
75
330
1F
100
AcDbEntity
  8
0-0
  6
Continuous
 62
     2
370
    13
100
AcDbLine
 10
1061.876121727196
 20
-565.2378474055109
 30
0.0
 11
1170.285941459038
 21
-580.1907596072634
 31
0.0
  0
LINE
  5
76
330
1F
100
AcDbEntity
  8
0-0
  6
Continuous
 62
     2
370
    13
100
AcDbLine
 10
1276.132284628379
 20
-580.2142663904137
 30
0.0
 11
1170.627408414274
 21
-580.2142663904137
 31
0.0
  0
LINE
  5
77
330
1F
100
AcDbEntity
  8
0-0
  6
Continuous
 62
     2
370
    13
100
AcDbLine
 10
1278.617570206926
 20
-582.441595953864
 30
0.0
 11
1279.748865076014
 21
-592.7452376082136
 31
0.0
  0
LINE
  5
78
330
1F
100
AcDbEntity
  8
0-0
  6
Continuous
 62
     2
370
    13
100
AcDbLine
 10
1311.587936813767
 20
-647.8389513170397
 30
0.0
 11
1304.381004539696
 21
-604.5956255938554
 31
0.0
  0
LINE
  5
79
330
1F
100
AcDbEntity
  8
0-0
  6
Continuous
 62
     2
370
    13
100
AcDbLine
 10
1040.455751161318
 20
-301.0477096970017
 30
0.0
 11
1040.455751161318
 21
-371.8808230838259
 31
0.0
  0
LINE
  5
7A
330
1F
100
AcDbEntity
  8
0-0
  6
Continuous
 62
     2
370
    13
100
AcDbLine
 10
1040.455751161318
 20
-391.8808890677786
 30
0.0
 11
1040.455751161318
 21
-556.8809385557432
 31
0.0
  0
LINE
  5
7B
330
1F
100
AcDbEntity
  8
0-0
  6
Continuous
 62
     2
370
    13
100
AcDbLine
 10
1030.456213048986
 20
-298.5478251689188
 30
0.0
 11
1030.456213048986
 21
-371.8808230838259
 31
0.0
  0
LINE
  5
7C
330
1F
100
AcDbEntity
  8
0-0
  6
Continuous
 62
     2
370
    13
100
AcDbLine
 10
1030.456213048986
 20
-391.8808890677786
 30
0.0
 11
1030.456213048986
 21
-631.0942036396748
 31
0.0
  0
LINE
  5
7D
330
1F
100
AcDbEntity
  8
0-0
  6
Continuous
 62
     2
370
    13
100
AcDbLine
 10
1311.430070206926
 20
-649.2115000131968
 30
0.0
 11
1304.762061866554
 21
-665.2142993823901
 31
0.0
  0
LINE
  5
7E
330
1F
100
AcDbEntity
  8
0-0
  6
Continuous
 62
     2
370
    13
100
AcDbLine
 10
1218.524334881757
 20
-665.2142993823901
 30
0.0
 11
1212.372486011402
 21
-651.6800834037161
 31
0.0
  0
LINE
  5
7F
330
1F
100
AcDbEntity
  8
0-0
  6
Continuous
 62
     2
370
    13
100
AcDbLine
 10
1256.70627903294
 20
-580.2142663904137
 30
0.0
 11
1256.70627903294
 21
-665.2142993823901
 31
0.0
  0
LINE
  5
80
330
1F
100
AcDbEntity
  8
0-0
  6
Continuous
 62
     2
370
    13
100
AcDbLine
 10
1233.372703758446
 20
-580.2142663904137
 30
0.0
 11
1233.372703758446
 21
-665.2142993823901
 31
0.0
  0
LINE
  5
81
330
1F
100
AcDbEntity
  8
0-0
  6
Continuous
 62
     2
370
    13
100
AcDbLine
 10
940.0872307854729
 20
-632.6696529903927
 30
0.0
 11
927.0753602723818
 21
-631.926096323374
 31
0.0
  0
LINE
  5
82
330
1F
100
AcDbEntity
  8
0-0
  6
Continuous
 62
     2
370
    13
100
AcDbLine
 10
940.8730996621625
 20
-633.5015456740921
 30
0.0
 11
940.8730996621625
 21
-650.2144973342483
 31
0.0
  0
LINE
  5
83
330
1F
100
AcDbEntity
  8
0-0
  6
Continuous
 62
     2
370
    13
100
AcDbLine
 10
659.4459327491558
 20
-597.7099939294762
 30
0.0
 11
674.139404296875
 21
-595.6835855020058
 31
0.0
  0
LINE
  5
84
330
1F
100
AcDbEntity
  8
0-0
  6
Continuous
 62
     2
370
    13
100
AcDbLine
 10
925.4566089527026
 20
-370.2145633182009
 30
0.0
 11
916.2894584037161
 21
-370.2145633182009
 31
0.0
  0
LINE
  5
85
330
1F
100
AcDbEntity
  8
0-0
  6
Continuous
 62
     2
370
    13
100
AcDbLine
 10
925.4566089527026
 20
-393.547643713049
 30
0.0
 11
916.2894584037161
 21
-393.547643713049
 31
0.0
  0
LINE
  5
86
330
1F
100
AcDbEntity
  8
0-0
  6
Continuous
 62
     2
370
    13
100
AcDbLine
 10
895.2115445523651
 20
-565.2143406223605
 30
0.0
 11
907.9566749366558
 21
-565.2143406223605
 31
0.0
  0
LINE
  5
87
330
1F
100
AcDbEntity
  8
0-0
  6
Continuous
 62
     2
370
    13
100
AcDbLine
 10
894.8695827174834
 20
-565.2378474055109
 30
0.0
 11
786.4597629856422
 21
-580.1907596072634
 31
0.0
  0
LINE
  5
88
330
1F
100
AcDbEntity
  8
0-0
  6
Continuous
 62
     2
370
    13
100
AcDbLine
 10
680.6134198163011
 20
-580.2142663904137
 30
0.0
 11
786.1182960304058
 21
-580.2142663904137
 31
0.0
  0
LINE
  5
89
330
1F
100
AcDbEntity
  8
0-0
  6
Continuous
 62
     2
370
    13
100
AcDbLine
 10
678.1281342377537
 20
-582.441595953864
 30
0.0
 11
676.9968393686656
 21
-592.7452376082136
 31
0.0
  0
LINE
  5
8A
330
1F
100
AcDbEntity
  8
0-0
  6
Continuous
 62
     2
370
    13
100
AcDbLine
 10
645.1577676309125
 20
-647.8389513170397
 30
0.0
 11
652.3646999049834
 21
-604.5956255938554
 31
0.0
  0
LINE
  5
8B
330
1F
100
AcDbEntity
  8
0-0
  6
Continuous
 62
     2
370
    13
100
AcDbLine
 10
916.2894584037161
 20
-301.0477096970017
 30
0.0
 11
916.2894584037161
 21
-371.8808230838259
 31
0.0
  0
LINE
  5
8C
330
1F
100
AcDbEntity
  8
0-0
  6
Continuous
 62
     2
370
    13
100
AcDbLine
 10
916.2894584037161
 20
-391.8808890677786
 30
0.0
 11
916.2894584037161
 21
-556.8809385557432
 31
0.0
  0
LINE
  5
8D
330
1F
100
AcDbEntity
  8
0-0
  6
Continuous
 62
     2
370
    13
100
AcDbLine
 10
926.2894913956927
 20
-298.5478251689188
 30
0.0
 11
926.2894913956927
 21
-371.8808230838259
 31
0.0
  0
LINE
  5
8E
330
1F
100
AcDbEntity
  8
0-0
  6
Continuous
 62
     2
370
    13
100
AcDbLine
 10
926.2894913956927
 20
-391.8808890677786
 30
0.0
 11
926.2894913956927
 21
-631.0942036396748
 31
0.0
  0
LINE
  5
8F
330
1F
100
AcDbEntity
  8
0-0
  6
Continuous
 62
     2
370
    13
100
AcDbLine
 10
645.316129117399
 20
-649.2115000131968
 30
0.0
 11
651.9841374577703
 21
-665.2144231023015
 31
0.0
  0
LINE
  5
90
330
1F
100
AcDbEntity
  8
0-0
  6
Continuous
 62
     2
370
    13
100
AcDbLine
 10
738.2213695629224
 20
-665.2144231023015
 30
0.0
 11
744.3732184332771
 21
-651.6800834037161
 31
0.0
  0
LINE
  5
91
330
1F
100
AcDbEntity
  8
0-0
  6
Continuous
 62
     2
370
    13
100
AcDbLine
 10
700.0394254117401
 20
-580.2142663904137
 30
0.0
 11
700.0394254117401
 21
-665.2144231023015
 31
0.0
  0
LINE
  5
92
330
1F
100
AcDbEntity
  8
0-0
  6
Continuous
 62
     2
370
    13
100
AcDbLine
 10
723.372505806588
 20
-580.2142663904137
 30
0.0
 11
723.372505806588
 21
-665.2144231023015
 31
0.0
  0
LINE
  5
93
330
1F
100
AcDbEntity
  8
0-0
  6
Continuous
 62
     2
370
    13
100
AcDbLine
 10
918.7895903716219
 20
-298.5478251689188
 30
0.0
 11
927.9557511613177
 21
-298.5478251689188
 31
0.0
  0
LINE
  5
94
330
1F
100
AcDbEntity
  8
0-0
  6
Continuous
 62
     2
370
    13
100
AcDbLine
 10
1037.956608952702
 20
-298.5478251689188
 30
0.0
 11
1028.789458403716
 21
-298.5478251689188
 31
0.0
  0
LINE
  5
95
330
1F
100
AcDbEntity
  8
0-0
  6
Continuous
 62
     2
370
    13
100
AcDbLine
 10
928.3625422297297
 20
-631.8813097154772
 30
0.0
 11
1028.382667335304
 21
-631.8813097154772
 31
0.0
  0
LINE
  5
96
330
1F
100
AcDbEntity
  8
0-0
  6
Continuous
 62
     2
370
    13
100
AcDbLine
 10
940.8730996621625
 20
-632.7146870381123
 30
0.0
 11
1015.873099662163
 21
-632.7146870381123
 31
0.0
  0
LINE
  5
97
330
1F
100
AcDbEntity
  8
0-0
  6
Continuous
 62
     2
370
    13
100
AcDbLine
 10
746.6496648015203
 20
-650.2144973342483
 30
0.0
 11
1210.096534522804
 21
-650.2146210541596
 31
0.0
  0
LINE
  5
98
330
1F
100
AcDbEntity
  8
0-0
  6
Continuous
 62
     3
370
    13
100
AcDbLine
 10
-1312.876850849873
 20
-215.2142993823901
 30
0.0
 11
-1312.876850849873
 21
-301.2502391918285
 31
0.0
  0
LINE
  5
99
330
1F
100
AcDbEntity
  8
0-0
  6
Continuous
 62
     3
370
    13
100
AcDbLine
 10
-1212.04363848712
 20
-215.2142993823901
 30
0.0
 11
-1212.04363848712
 21
-301.2501154719172
 31
0.0
  0
LINE
  5
9A
330
1F
100
AcDbEntity
  8
0-1
  6
Continuous
 62
     2
370
    13
100
AcDbLine
 10
-1279.151792783995
 20
-381.8812272355362
 30
0.0
 11
-1270.806142446157
 21
-367.4257927971917
 31
0.0
  0
LINE
  5
9B
330
1F
100
AcDbEntity
  8
0-1
  6
Continuous
 62
     2
370
    13
100
AcDbLine
 10
-1270.806142446157
 20
-367.4257927971917
 30
0.0
 11
-1254.114594330659
 21
-367.4257927971917
 31
0.0
  0
LINE
  5
9C
330
1F
100
AcDbEntity
  8
0-1
  6
Continuous
 62
     2
370
    13
100
AcDbLine
 10
-1254.114594330659
 20
-367.4257927971917
 30
0.0
 11
-1245.768696552998
 21
-381.8812272355362
 31
0.0
  0
LINE
  5
9D
330
1F
100
AcDbEntity
  8
0-1
  6
Continuous
 62
     2
370
    13
100
AcDbLine
 10
-1245.768696552998
 20
-381.8812272355362
 30
0.0
 11
-1254.114594330659
 21
-396.3364142340582
 31
0.0
  0
LINE
  5
9E
330
1F
100
AcDbEntity
  8
0-1
  6
Continuous
 62
     2
370
    13
100
AcDbLine
 10
-1270.806142446157
 20
-396.3364142340582
 30
0.0
 11
-1279.151792783995
 21
-381.8812272355362
 31
0.0
  0
LINE
  5
9F
330
1F
100
AcDbEntity
  8
0-D
  6
JWW_CENTER1
 62
     2
370
    13
100
AcDbLine
 10
-1281.465850005279
 20
-381.8812272355362
 30
0.0
 11
-1242.179829365498
 21
-381.8812272355362
 31
0.0
  0
LINE
  5
A0
330
1F
100
AcDbEntity
  8
0-1
  6
Continuous
 62
     2
370
    13
100
AcDbLine
 10
-1254.114594330659
 20
-396.3364142340582
 30
0.0
 11
-1270.806142446157
 21
-396.3364142340582
 31
0.0
  0
LINE
  5
A1
330
1F
100
AcDbEntity
  8
0-0
  6
Continuous
 62
     2
370
    13
100
AcDbLine
 10
-1350.353591506546
 20
-601.6273374815245
 30
0.0
 11
-1262.460492108319
 21
-598.5477014490075
 31
0.0
  0
LINE
  5
A2
330
1F
100
AcDbEntity
  8
0-0
  6
Continuous
 62
     2
370
    13
100
AcDbLine
 10
-1346.891413508235
 20
-568.2843265017947
 30
0.0
 11
-1262.460492108319
 21
-565.2142169024492
 31
0.0
  0
LINE
  5
A3
330
1F
100
AcDbEntity
  8
0-0
  6
Continuous
 62
     2
370
    13
100
AcDbLine
 10
-1174.56714527027
 20
-601.6273374815245
 30
0.0
 11
-1262.460492108319
 21
-598.5477014490075
 31
0.0
  0
LINE
  5
A4
330
1F
100
AcDbEntity
  8
0-0
  6
Continuous
 62
     2
370
    13
100
AcDbLine
 10
-1178.029075828759
 20
-568.2843265017947
 30
0.0
 11
-1262.460492108319
 21
-565.2142169024492
 31
0.0
  0
LINE
  5
A5
330
1F
100
AcDbEntity
  8
0-0
  6
Continuous
 62
     2
370
    13
100
AcDbLine
 10
-1163.587992900127
 20
-648.547742688978
 30
0.0
 11
-1361.497291358742
 21
-648.547742688978
 31
0.0
  0
LINE
  5
A6
330
1F
100
AcDbEntity
  8
0-0
  6
Continuous
 62
     2
370
    13
100
AcDbLine
 10
-1296.160063872466
 20
-583.8137734902871
 30
0.0
 11
-1296.945685309333
 21
-587.9528231234162
 31
0.0
  0
LINE
  5
A7
330
1F
100
AcDbEntity
  8
0-0
  6
Continuous
 62
     2
370
    13
100
AcDbLine
 10
-1293.828933303421
 20
-581.7826637061866
 30
0.0
 11
-1262.460492108319
 21
-580.2145138302365
 31
0.0
  0
LINE
  5
A8
330
1F
100
AcDbEntity
  8
0-0
  6
Continuous
 62
     2
370
    13
100
AcDbLine
 10
-1231.09130859375
 20
-581.7826637061866
 30
0.0
 11
-1262.460492108319
 21
-580.2145138302365
 31
0.0
  0
LINE
  5
A9
330
1F
100
AcDbEntity
  8
0-0
  6
Continuous
 62
     2
370
    13
100
AcDbLine
 10
-1228.760178024704
 20
-583.8137734902871
 30
0.0
 11
-1227.97480402766
 21
-587.9528231234162
 31
0.0
  0
LINE
  5
AA
330
1F
100
AcDbEntity
  8
0-0
  6
Continuous
 62
     2
370
    13
100
AcDbLine
 10
-1324.543391047298
 20
-304.2452508050042
 30
0.0
 11
-1324.543391047298
 21
-567.4721052839949
 31
0.0
  0
LINE
  5
AB
330
1F
100
AcDbEntity
  8
0-0
  6
Continuous
 62
     2
370
    13
100
AcDbLine
 10
-1322.177124023438
 20
-301.7488304344383
 30
0.0
 11
-1262.460492108319
 21
-298.5479488888302
 31
0.0
  0
LINE
  5
AC
330
1F
100
AcDbEntity
  8
0-0
  6
Continuous
 62
     2
370
    13
100
AcDbLine
 10
-1202.743117873733
 20
-301.7488304344383
 30
0.0
 11
-1262.460492108319
 21
-298.5479488888302
 31
0.0
  0
LINE
  5
AD
330
1F
100
AcDbEntity
  8
0-0
  6
Continuous
 62
     2
370
    13
100
AcDbLine
 10
-1200.376850849873
 20
-304.2452508050042
 30
0.0
 11
-1200.376850849873
 21
-567.4721052839949
 31
0.0
  0
LINE
  5
AE
330
1F
100
AcDbEntity
  8
0-0
  6
Continuous
 62
     2
370
    13
100
AcDbLine
 10
-1362.389806798986
 20
-647.8724794130068
 30
0.0
 11
-1354.877286343961
 21
-575.7492147909627
 31
0.0
  0
LINE
  5
AF
330
1F
100
AcDbEntity
  8
0-0
  6
Continuous
 62
     2
370
    13
100
AcDbLine
 10
-1162.530435098184
 20
-647.8724794130068
 30
0.0
 11
-1170.043450432855
 21
-575.7492147909627
 31
0.0
  0
LINE
  5
B0
330
1F
100
AcDbEntity
  8
0-1
  6
JWW_DASHED1
 62
     4
370
    13
100
AcDbLine
 10
-1312.877098289696
 20
-301.2502391918285
 30
0.0
 11
-1312.877098289696
 21
-631.8811859955658
 31
0.0
  0
LINE
  5
B1
330
1F
100
AcDbEntity
  8
0-1
  6
JWW_DASHED1
 62
     4
370
    13
100
AcDbLine
 10
-1212.04363848712
 20
-301.2502391918285
 30
0.0
 11
-1212.04363848712
 21
-631.8811859955658
 31
0.0
  0
LINE
  5
B2
330
1F
100
AcDbEntity
  8
0-0
  6
Continuous
 62
     2
370
    13
100
AcDbLine
 10
-1354.88470953864
 20
-665.2142993823901
 30
0.0
 11
-1362.179235509924
 21
-649.1660948057432
 31
0.0
  0
LINE
  5
B3
330
1F
100
AcDbEntity
  8
0-0
  6
Continuous
 62
     2
370
    13
100
AcDbLine
 10
-1170.03553235853
 20
-665.2142993823901
 30
0.0
 11
-1162.741253827069
 21
-649.1660948057432
 31
0.0
  0
LINE
  5
B4
330
1F
100
AcDbEntity
  8
0-0
  6
JWW_DASHED1
 62
     2
370
    13
100
AcDbLine
 10
-1224.17462323163
 20
-632.6695292704813
 30
0.0
 11
-1211.162752718539
 21
-631.926096323374
 31
0.0
  0
LINE
  5
B5
330
1F
100
AcDbEntity
  8
0-0
  6
JWW_DASHED1
 62
     2
370
    13
100
AcDbLine
 10
-1300.746113545186
 20
-632.6695292704813
 30
0.0
 11
-1313.757984058277
 21
-631.926096323374
 31
0.0
  0
LINE
  5
B6
330
1F
100
AcDbEntity
  8
0-0
  6
JWW_DASHED1
 62
     2
370
    13
100
AcDbLine
 10
-1312.470554661106
 20
-631.8811859955658
 30
0.0
 11
-1212.450182115709
 21
-631.8811859955658
 31
0.0
  0
LINE
  5
B7
330
1F
100
AcDbEntity
  8
0-0
  6
JWW_DASHED1
 62
     2
370
    13
100
AcDbLine
 10
-1299.960244668497
 20
-632.7145633182009
 30
0.0
 11
-1224.960492108319
 21
-632.7145633182009
 31
0.0
  0
LINE
  5
B8
330
1F
100
AcDbEntity
  8
0-0
  6
JWW_DASHED1
 62
     2
370
    13
100
AcDbLine
 10
-1210.377131281672
 20
-301.3395649677997
 30
0.0
 11
-1210.377131281672
 21
-631.0940799197634
 31
0.0
  0
LINE
  5
B9
330
1F
100
AcDbEntity
  8
0-0
  6
JWW_DASHED1
 62
     2
370
    13
100
AcDbLine
 10
-1314.543605495144
 20
-301.3395649677997
 30
0.0
 11
-1314.543605495144
 21
-631.0940799197634
 31
0.0
  0
LINE
  5
BA
330
1F
100
AcDbEntity
  8
0-0
  6
JWW_DASHED1
 62
     2
370
    13
100
AcDbLine
 10
-1299.960244668497
 20
-633.5014219541807
 30
0.0
 11
-1299.960244668497
 21
-649.5894643422719
 31
0.0
  0
LINE
  5
BB
330
1F
100
AcDbEntity
  8
0-0
  6
JWW_DASHED1
 62
     2
370
    13
100
AcDbLine
 10
-1362.368279534417
 20
-648.5494747677365
 30
0.0
 11
-1262.460492108319
 21
-650.2144973342483
 31
0.0
  0
LINE
  5
BC
330
1F
100
AcDbEntity
  8
0-0
  6
JWW_DASHED1
 62
     2
370
    13
100
AcDbLine
 10
-1162.552704682221
 20
-648.5494747677365
 30
0.0
 11
-1262.460492108319
 21
-650.2144973342483
 31
0.0
  0
LINE
  5
BD
330
1F
100
AcDbEntity
  8
0-0
  6
JWW_DASHED1
 62
     2
370
    13
100
AcDbLine
 10
-1224.960492108319
 20
-633.5014219541807
 30
0.0
 11
-1224.960492108319
 21
-649.5894643422719
 31
0.0
  0
LINE
  5
BE
330
1F
100
AcDbEntity
  8
0-0
  6
Continuous
 62
     3
370
    13
100
AcDbLine
 10
932.6229610958615
 20
1067.702290302998
 30
0.0
 11
932.6229610958615
 21
-371.8808230838259
 31
0.0
  0
LINE
  5
BF
330
1F
100
AcDbEntity
  8
0-0
  6
Continuous
 62
     3
370
    13
100
AcDbLine
 10
1024.122743348818
 20
1067.702290302998
 30
0.0
 11
1024.122743348818
 21
-371.8808230838259
 31
0.0
  0
LINE
  5
C0
330
1F
100
AcDbEntity
  8
0-1
  6
Continuous
 62
     4
370
    13
100
AcDbLine
 10
927.9557511613177
 20
-370.2143158783784
 30
0.0
 11
932.6229610958615
 21
-370.2143158783784
 31
0.0
  0
LINE
  5
C1
330
1F
100
AcDbEntity
  8
0-1
  6
Continuous
 62
     4
370
    13
100
AcDbLine
 10
1028.789458403716
 20
-370.2143158783784
 30
0.0
 11
1024.122743348818
 21
-370.2143158783784
 31
0.0
  0
LINE
  5
C2
330
1F
100
AcDbEntity
  8
0-1
  6
Continuous
 62
     4
370
    13
100
AcDbLine
 10
927.9557511613177
 20
-393.547643713049
 30
0.0
 11
932.6229610958615
 21
-393.547643713049
 31
0.0
  0
LINE
  5
C3
330
1F
100
AcDbEntity
  8
0-1
  6
Continuous
 62
     4
370
    13
100
AcDbLine
 10
1028.789458403716
 20
-393.547643713049
 30
0.0
 11
1024.122743348818
 21
-393.547643713049
 31
0.0
  0
LINE
  5
C4
330
1F
100
AcDbEntity
  8
0-0
  6
Continuous
 62
     3
370
    13
100
AcDbLine
 10
932.6229610958615
 20
-631.8814334353884
 30
0.0
 11
932.6229610958615
 21
-391.8808890677786
 31
0.0
  0
LINE
  5
C5
330
1F
100
AcDbEntity
  8
0-0
  6
Continuous
 62
     3
370
    13
100
AcDbLine
 10
1024.122743348818
 20
-631.8810622756546
 30
0.0
 11
1024.122743348818
 21
-391.8808890677786
 31
0.0
  0
LINE
  5
C6
330
1F
100
AcDbEntity
  8
0-0
  6
Continuous
 62
     2
370
    13
100
AcDbLine
 10
-1262.460492108319
 20
-668.5478086729307
 30
0.0
 11
-1262.460492108319
 21
-580.2145138302365
 31
0.0
  0
LINE
  5
C7
330
1F
100
AcDbEntity
  8
0-1
  6
Continuous
 62
     2
370
    13
100
AcDbLine
 10
-129.9852113466005
 20
-381.8812272355362
 30
0.0
 11
-121.6394372888513
 21
-367.4257927971917
 31
0.0
  0
LINE
  5
C8
330
1F
100
AcDbEntity
  8
0-1
  6
Continuous
 62
     2
370
    13
100
AcDbLine
 10
-121.6394372888513
 20
-367.4257927971917
 30
0.0
 11
-104.9478891733528
 21
-367.4257927971917
 31
0.0
  0
LINE
  5
C9
330
1F
100
AcDbEntity
  8
0-1
  6
Continuous
 62
     2
370
    13
100
AcDbLine
 10
-104.9478891733528
 20
-367.4257927971917
 30
0.0
 11
-96.6022388355151
 21
-381.8812272355362
 31
0.0
  0
LINE
  5
CA
330
1F
100
AcDbEntity
  8
0-1
  6
Continuous
 62
     2
370
    13
100
AcDbLine
 10
-96.6022388355151
 20
-381.8812272355362
 30
0.0
 11
-104.9478891733528
 21
-396.3364142340582
 31
0.0
  0
LINE
  5
CB
330
1F
100
AcDbEntity
  8
0-1
  6
Continuous
 62
     2
370
    13
100
AcDbLine
 10
-121.6394372888513
 20
-396.3364142340582
 30
0.0
 11
-129.9852113466005
 21
-381.8812272355362
 31
0.0
  0
LINE
  5
CC
330
1F
100
AcDbEntity
  8
0-D
  6
JWW_CENTER1
 62
     2
370
    13
100
AcDbLine
 10
-132.2992685678841
 20
-381.8812272355362
 30
0.0
 11
-93.0133716480151
 21
-381.8812272355362
 31
0.0
  0
LINE
  5
CD
330
1F
100
AcDbEntity
  8
0-1
  6
Continuous
 62
     2
370
    13
100
AcDbLine
 10
-104.9478891733528
 20
-396.3364142340582
 30
0.0
 11
-121.6394372888513
 21
-396.3364142340582
 31
0.0
  0
LINE
  5
CE
330
1F
100
AcDbEntity
  8
0-0
  6
Continuous
 62
     2
370
    13
100
AcDbLine
 10
-201.1868863492398
 20
-601.6273374815245
 30
0.0
 11
-113.2937869510135
 21
-598.5477014490075
 31
0.0
  0
LINE
  5
CF
330
1F
100
AcDbEntity
  8
0-0
  6
Continuous
 62
     2
370
    13
100
AcDbLine
 10
-197.7248320708404
 20
-568.2843265017947
 30
0.0
 11
-113.2937869510135
 21
-565.2142169024492
 31
0.0
  0
LINE
  5
D0
330
1F
100
AcDbEntity
  8
0-0
  6
Continuous
 62
     2
370
    13
100
AcDbLine
 10
-25.4004401129643
 20
-601.6273374815245
 30
0.0
 11
-113.2937869510135
 21
-598.5477014490075
 31
0.0
  0
LINE
  5
D1
330
1F
100
AcDbEntity
  8
0-0
  6
Continuous
 62
     2
370
    13
100
AcDbLine
 10
-28.86261811127525
 20
-568.2843265017947
 30
0.0
 11
-113.2937869510135
 21
-565.2142169024492
 31
0.0
  0
LINE
  5
D2
330
1F
100
AcDbEntity
  8
0-0
  6
Continuous
 62
     2
370
    13
100
AcDbLine
 10
-14.42153518264348
 20
-648.547742688978
 30
0.0
 11
-212.3304624815245
 21
-648.547742688978
 31
0.0
  0
LINE
  5
D3
330
1F
100
AcDbEntity
  8
0-0
  6
Continuous
 62
     2
370
    13
100
AcDbLine
 10
-146.9933587151604
 20
-583.8137734902871
 30
0.0
 11
-147.7791038719383
 21
-587.9528231234162
 31
0.0
  0
LINE
  5
D4
330
1F
100
AcDbEntity
  8
0-0
  6
Continuous
 62
     2
370
    13
100
AcDbLine
 10
-144.6622281461148
 20
-581.7826637061866
 30
0.0
 11
-113.2937869510135
 21
-580.2145138302365
 31
0.0
  0
LINE
  5
D5
330
1F
100
AcDbEntity
  8
0-0
  6
Continuous
 62
     2
370
    13
100
AcDbLine
 10
-81.92460343644427
 20
-581.7826637061866
 30
0.0
 11
-113.2937869510135
 21
-580.2145138302365
 31
0.0
  0
LINE
  5
D6
330
1F
100
AcDbEntity
  8
0-0
  6
Continuous
 62
     2
370
    13
100
AcDbLine
 10
-79.59372030722108
 20
-583.8137734902871
 30
0.0
 11
-78.80834631017734
 21
-587.9528231234162
 31
0.0
  0
LINE
  5
D7
330
1F
100
AcDbEntity
  8
0-0
  6
Continuous
 62
     2
370
    13
100
AcDbLine
 10
-175.3766858899914
 20
-304.2452508050042
 30
0.0
 11
-175.3766858899914
 21
-567.4721052839949
 31
0.0
  0
LINE
  5
D8
330
1F
100
AcDbEntity
  8
0-0
  6
Continuous
 62
     2
370
    13
100
AcDbLine
 10
-173.0104188661318
 20
-301.7488304344383
 30
0.0
 11
-113.2937869510135
 21
-298.5479488888302
 31
0.0
  0
LINE
  5
D9
330
1F
100
AcDbEntity
  8
0-0
  6
Continuous
 62
     2
370
    13
100
AcDbLine
 10
-53.57641271642734
 20
-301.7488304344383
 30
0.0
 11
-113.2937869510135
 21
-298.5479488888302
 31
0.0
  0
LINE
  5
DA
330
1F
100
AcDbEntity
  8
0-0
  6
Continuous
 62
     2
370
    13
100
AcDbLine
 10
-51.2103931323901
 20
-304.2452508050042
 30
0.0
 11
-51.2103931323901
 21
-567.4721052839949
 31
0.0
  0
LINE
  5
DB
330
1F
100
AcDbEntity
  8
0-0
  6
Continuous
 62
     2
370
    13
100
AcDbLine
 10
-213.2231016416807
 20
-647.8724794130068
 30
0.0
 11
-205.7105811866552
 21
-575.7492147909627
 31
0.0
  0
LINE
  5
DC
330
1F
100
AcDbEntity
  8
0-0
  6
Continuous
 62
     2
370
    13
100
AcDbLine
 10
-13.36397738070076
 20
-647.8724794130068
 30
0.0
 11
-20.87674527554896
 21
-575.7492147909627
 31
0.0
  0
LINE
  5
DD
330
1F
100
AcDbEntity
  8
0-1
  6
JWW_DASHED1
 62
     4
370
    13
100
AcDbLine
 10
-163.7103931323901
 20
-301.2502391918285
 30
0.0
 11
-163.7103931323901
 21
-631.8811859955658
 31
0.0
  0
LINE
  5
DE
330
1F
100
AcDbEntity
  8
0-1
  6
JWW_DASHED1
 62
     4
370
    13
100
AcDbLine
 10
-62.87668588999139
 20
-301.2502391918285
 30
0.0
 11
-62.87668588999139
 21
-631.8811859955658
 31
0.0
  0
LINE
  5
DF
330
1F
100
AcDbEntity
  8
0-0
  6
Continuous
 62
     2
370
    13
100
AcDbLine
 10
-205.7180043813344
 20
-665.2142993823901
 30
0.0
 11
-213.0125303526182
 21
-649.1660948057432
 31
0.0
  0
LINE
  5
E0
330
1F
100
AcDbEntity
  8
0-0
  6
Continuous
 62
     2
370
    13
100
AcDbLine
 10
-20.86882720122446
 20
-665.2142993823901
 30
0.0
 11
-13.57430122994089
 21
-649.1660948057432
 31
0.0
  0
LINE
  5
E1
330
1F
100
AcDbEntity
  8
0-0
  6
JWW_DASHED1
 62
     2
370
    13
100
AcDbLine
 10
-75.00816551414687
 20
-632.6695292704813
 30
0.0
 11
-61.99629500105573
 21
-631.926096323374
 31
0.0
  0
LINE
  5
E2
330
1F
100
AcDbEntity
  8
0-0
  6
JWW_DASHED1
 62
     2
370
    13
100
AcDbLine
 10
-151.5794083878799
 20
-632.6695292704813
 30
0.0
 11
-164.5912789009711
 21
-631.926096323374
 31
0.0
  0
LINE
  5
E3
330
1F
100
AcDbEntity
  8
0-0
  6
JWW_DASHED1
 62
     2
370
    13
100
AcDbLine
 10
-163.3038495038005
 20
-631.8811859955658
 30
0.0
 11
-63.28347695840364
 21
-631.8811859955658
 31
0.0
  0
LINE
  5
E4
330
1F
100
AcDbEntity
  8
0-0
  6
JWW_DASHED1
 62
     2
370
    13
100
AcDbLine
 10
-150.7935395111909
 20
-632.7145633182009
 30
0.0
 11
-75.79403439083592
 21
-632.7145633182009
 31
0.0
  0
LINE
  5
E5
330
1F
100
AcDbEntity
  8
0-0
  6
JWW_DASHED1
 62
     2
370
    13
100
AcDbLine
 10
-61.21042612436639
 20
-301.3395649677997
 30
0.0
 11
-61.21042612436639
 21
-631.0940799197634
 31
0.0
  0
LINE
  5
E6
330
1F
100
AcDbEntity
  8
0-0
  6
JWW_DASHED1
 62
     2
370
    13
100
AcDbLine
 10
-165.3769003378378
 20
-301.3395649677997
 30
0.0
 11
-165.3769003378378
 21
-631.0940799197634
 31
0.0
  0
LINE
  5
E7
330
1F
100
AcDbEntity
  8
0-0
  6
Continuous
 62
     2
370
    13
100
AcDbLine
 10
-113.2937869510135
 20
-580.2145138302365
 30
0.0
 11
-113.2937869510135
 21
-565.2142169024492
 31
0.0
  0
LINE
  5
E8
330
1F
100
AcDbEntity
  8
0-0
  6
JWW_DASHED1
 62
     2
370
    13
100
AcDbLine
 10
-150.7935395111909
 20
-633.5014219541807
 30
0.0
 11
-150.7935395111909
 21
-649.5894643422719
 31
0.0
  0
LINE
  5
E9
330
1F
100
AcDbEntity
  8
0-0
  6
JWW_DASHED1
 62
     2
370
    13
100
AcDbLine
 10
-213.2014506572
 20
-648.5494747677365
 30
0.0
 11
-113.2937869510135
 21
-650.2144973342483
 31
0.0
  0
LINE
  5
EA
330
1F
100
AcDbEntity
  8
0-0
  6
JWW_DASHED1
 62
     2
370
    13
100
AcDbLine
 10
-13.38575208509269
 20
-648.5494747677365
 30
0.0
 11
-113.2937869510135
 21
-650.2144973342483
 31
0.0
  0
LINE
  5
EB
330
1F
100
AcDbEntity
  8
0-0
  6
JWW_DASHED1
 62
     2
370
    13
100
AcDbLine
 10
-75.79403439083592
 20
-633.5014219541807
 30
0.0
 11
-75.79403439083592
 21
-649.5894643422719
 31
0.0
  0
LINE
  5
EC
330
1F
100
AcDbEntity
  8
0-0
  6
Continuous
 62
     2
370
    13
100
AcDbLine
 10
-113.2937869510135
 20
-668.5478086729307
 30
0.0
 11
-113.2937869510135
 21
-580.2145138302365
 31
0.0
  0
LINE
  5
ED
330
1F
100
AcDbEntity
  8
0-F
  6
Continuous
 62
     7
370
    13
100
AcDbLine
 10
-1590.315318751979
 20
-665.2142993823901
 30
0.0
 11
-1590.315318751979
 21
1118.117659285262
 31
0.0
  0
LINE
  5
EE
330
1F
100
AcDbEntity
  8
0-F
  6
Continuous
 62
     7
370
    13
100
AcDbLine
 10
-1570.315221838049
 20
-665.2142993823901
 30
0.0
 11
-1587.315358342351
 21
-665.2142993823901
 31
0.0
  0
LINE
  5
EF
330
1F
100
AcDbEntity
  8
0-F
  6
Continuous
 62
     7
370
    13
100
AcDbLine
 10
-990.7923518000422
 20
1118.117659285262
 30
0.0
 11
-1593.315279161608
 21
1118.117659285262
 31
0.0
  0
LINE
  5
F0
330
1F
100
AcDbEntity
  8
0-F
  6
Continuous
 62
     7
370
    13
100
AcDbLine
 10
-1590.315318751979
 20
-665.2142993823901
 30
0.0
 11
-1594.231053945181
 21
-635.470919222445
 31
0.0
  0
LINE
  5
F1
330
1F
100
AcDbEntity
  8
0-F
  6
Continuous
 62
     7
370
    13
100
AcDbLine
 10
-1590.315318751979
 20
-665.2142993823901
 30
0.0
 11
-1586.399583558778
 21
-635.470919222445
 31
0.0
  0
LINE
  5
F2
330
1F
100
AcDbEntity
  8
0-F
  6
Continuous
 62
     7
370
    13
100
AcDbLine
 10
-1590.315318751979
 20
1118.117659285262
 30
0.0
 11
-1594.231053945181
 21
1088.374402845228
 31
0.0
  0
LINE
  5
F3
330
1F
100
AcDbEntity
  8
0-F
  6
Continuous
 62
     7
370
    13
100
AcDbLine
 10
-1590.315318751979
 20
1118.117659285262
 30
0.0
 11
-1586.399583558778
 21
1088.374402845228
 31
0.0
  0
LINE
  5
F4
330
1F
100
AcDbEntity
  8
0-F
  6
Continuous
 62
     7
370
    13
100
AcDbLine
 10
-1476.692900786529
 20
-665.2140519425676
 30
0.0
 11
-1476.692900786529
 21
-298.5479488888302
 31
0.0
  0
LINE
  5
F5
330
1F
100
AcDbEntity
  8
0-F
  6
Continuous
 62
     7
370
    13
100
AcDbLine
 10
-1456.693082242398
 20
-665.2140519425676
 30
0.0
 11
-1473.6929403769
 21
-665.2140519425676
 31
0.0
  0
LINE
  5
F6
330
1F
100
AcDbEntity
  8
0-F
  6
Continuous
 62
     7
370
    13
100
AcDbLine
 10
-1476.692900786529
 20
-665.2140519425676
 30
0.0
 11
-1480.608883419552
 21
-635.4707955025337
 31
0.0
  0
LINE
  5
F7
330
1F
100
AcDbEntity
  8
0-F
  6
Continuous
 62
     7
370
    13
100
AcDbLine
 10
-1476.692900786529
 20
-665.2140519425676
 30
0.0
 11
-1472.777165593327
 21
-635.4707955025337
 31
0.0
  0
LINE
  5
F8
330
1F
100
AcDbEntity
  8
0-F
  6
Continuous
 62
     7
370
    13
100
AcDbLine
 10
-1476.692900786529
 20
-298.5479488888302
 30
0.0
 11
-1480.608883419552
 21
-328.2913290487753
 31
0.0
  0
LINE
  5
F9
330
1F
100
AcDbEntity
  8
0-F
  6
Continuous
 62
     7
370
    13
100
AcDbLine
 10
-1476.692900786529
 20
-298.5479488888302
 30
0.0
 11
-1472.777165593327
 21
-328.2913290487753
 31
0.0
  0
LINE
  5
FA
330
1F
100
AcDbEntity
  8
0-F
  6
Continuous
 62
     7
370
    13
100
AcDbLine
 10
-1476.692900786529
 20
-298.5479488888302
 30
0.0
 11
-1476.692900786529
 21
1118.117659285262
 31
0.0
  0
LINE
  5
FB
330
1F
100
AcDbEntity
  8
0-F
  6
Continuous
 62
     7
370
    13
100
AcDbLine
 10
-1456.693082242398
 20
1118.117659285262
 30
0.0
 11
-1473.6929403769
 21
1118.117659285262
 31
0.0
  0
LINE
  5
FC
330
1F
100
AcDbEntity
  8
0-F
  6
Continuous
 62
     7
370
    13
100
AcDbLine
 10
-1476.692900786529
 20
-298.5479488888302
 30
0.0
 11
-1480.608883419552
 21
-268.804568728885
 31
0.0
  0
LINE
  5
FD
330
1F
100
AcDbEntity
  8
0-F
  6
Continuous
 62
     7
370
    13
100
AcDbLine
 10
-1476.692900786529
 20
-298.5479488888302
 30
0.0
 11
-1472.777165593327
 21
-268.804568728885
 31
0.0
  0
LINE
  5
FE
330
1F
100
AcDbEntity
  8
0-F
  6
Continuous
 62
     7
370
    13
100
AcDbLine
 10
-1476.692900786529
 20
1118.117659285262
 30
0.0
 11
-1480.608883419552
 21
1088.374402845228
 31
0.0
  0
LINE
  5
FF
330
1F
100
AcDbEntity
  8
0-F
  6
Continuous
 62
     7
370
    13
100
AcDbLine
 10
-1476.692900786529
 20
1118.117659285262
 30
0.0
 11
-1472.777165593327
 21
1088.374402845228
 31
0.0
  0
LINE
  5
100
330
1F
100
AcDbEntity
  8
0-F
  6
Continuous
 62
     7
370
    13
100
AcDbLine
 10
234.101084116343
 20
-665.2142993823901
 30
0.0
 11
-1759.459459459459
 21
-665.2142993823901
 31
0.0
  0
LINE
  5
101
330
1F
100
AcDbEntity
  8
0-F
  6
Continuous
 62
     7
370
    13
100
AcDbLine
 10
-1319.222445101351
 20
-298.5479488888302
 30
0.0
 11
-1479.69310863598
 21
-298.5479488888302
 31
0.0
  0
LINE
  5
102
330
1F
100
AcDbEntity
  8
0-D
  6
JWW_CENTER1
 62
     2
370
    13
100
AcDbLine
 10
711.7062130489865
 20
-561.7256865630279
 30
0.0
 11
711.7062130489865
 21
-678.9733144399281
 31
0.0
  0
LINE
  5
103
330
1F
100
AcDbEntity
  8
0-D
  6
JWW_CENTER1
 62
     2
370
    13
100
AcDbLine
 10
1245.039491395693
 20
-563.392441208298
 30
0.0
 11
1245.039491395693
 21
-678.9733144399281
 31
0.0
  0
LINE
  5
104
330
1F
100
AcDbEntity
  8
0-0
  6
Continuous
 62
     2
370
    13
100
AcDbLine
 10
-1262.460492108319
 20
-565.2142169024492
 30
0.0
 11
-1262.460492108319
 21
-580.2142663904137
 31
0.0
  0
LINE
  5
105
330
1F
100
AcDbEntity
  8
0-F
  6
Continuous
 62
     7
370
    13
100
AcDbLine
 10
645.1231260557432
 20
-896.5825343776394
 30
0.0
 11
1311.621588629645
 21
-896.5825343776394
 31
0.0
  0
LINE
  5
106
330
1F
100
AcDbEntity
  8
0-F
  6
Continuous
 62
     7
370
    13
100
AcDbLine
 10
645.1231260557432
 20
-668.249891126478
 30
0.0
 11
645.1231260557432
 21
-899.5824947872677
 31
0.0
  0
LINE
  5
107
330
1F
100
AcDbEntity
  8
0-F
  6
Continuous
 62
     7
370
    13
100
AcDbLine
 10
1311.621588629645
 20
-668.249891126478
 30
0.0
 11
1311.621588629645
 21
-899.5824947872677
 31
0.0
  0
LINE
  5
108
330
1F
100
AcDbEntity
  8
0-F
  6
Continuous
 62
     7
370
    13
100
AcDbLine
 10
645.1231260557432
 20
-896.5825343776394
 30
0.0
 11
674.8663824957771
 21
-892.6666754645271
 31
0.0
  0
LINE
  5
109
330
1F
100
AcDbEntity
  8
0-F
  6
Continuous
 62
     7
370
    13
100
AcDbLine
 10
645.1231260557432
 20
-896.5825343776394
 30
0.0
 11
674.8663824957771
 21
-900.4982695708404
 31
0.0
  0
LINE
  5
10A
330
1F
100
AcDbEntity
  8
0-F
  6
Continuous
 62
     7
370
    13
100
AcDbLine
 10
1311.621588629645
 20
-896.5825343776394
 30
0.0
 11
1281.878332189611
 21
-892.6666754645271
 31
0.0
  0
LINE
  5
10B
330
1F
100
AcDbEntity
  8
0-F
  6
Continuous
 62
     7
370
    13
100
AcDbLine
 10
1311.621588629645
 20
-896.5825343776394
 30
0.0
 11
1281.878332189611
 21
-900.4982695708404
 31
0.0
  0
LINE
  5
10C
330
1F
100
AcDbEntity
  8
0-F
  6
Continuous
 62
     7
370
    13
100
AcDbLine
 10
-1262.460244668497
 20
-815.9760428763724
 30
0.0
 11
-113.2935395111909
 21
-815.9760428763724
 31
0.0
  0
LINE
  5
10D
330
1F
100
AcDbEntity
  8
0-F
  6
Continuous
 62
     7
370
    13
100
AcDbLine
 10
-1262.460244668497
 20
-721.7199047191723
 30
0.0
 11
-1262.460244668497
 21
-818.9761270059121
 31
0.0
  0
LINE
  5
10E
330
1F
100
AcDbEntity
  8
0-F
  6
Continuous
 62
     7
370
    13
100
AcDbLine
 10
-113.2935395111909
 20
-721.7199047191723
 30
0.0
 11
-113.2935395111909
 21
-818.9761270059121
 31
0.0
  0
LINE
  5
10F
330
1F
100
AcDbEntity
  8
0-F
  6
Continuous
 62
     7
370
    13
100
AcDbLine
 10
-1262.460244668497
 20
-815.9760428763724
 30
0.0
 11
-1232.716988228463
 21
-812.0601839632602
 31
0.0
  0
LINE
  5
110
330
1F
100
AcDbEntity
  8
0-F
  6
Continuous
 62
     7
370
    13
100
AcDbLine
 10
-1262.460244668497
 20
-815.9760428763724
 30
0.0
 11
-1232.716988228463
 21
-819.8919017894848
 31
0.0
  0
LINE
  5
111
330
1F
100
AcDbEntity
  8
0-F
  6
Continuous
 62
     7
370
    13
100
AcDbLine
 10
-113.2935395111909
 20
-815.9760428763724
 30
0.0
 11
-143.0370433910471
 21
-812.0601839632602
 31
0.0
  0
LINE
  5
112
330
1F
100
AcDbEntity
  8
0-F
  6
Continuous
 62
     7
370
    13
100
AcDbLine
 10
-113.2935395111909
 20
-815.9760428763724
 30
0.0
 11
-143.0370433910471
 21
-819.8919017894848
 31
0.0
  0
LINE
  5
113
330
1F
100
AcDbEntity
  8
0-F
  6
Continuous
 62
     7
370
    13
100
AcDbLine
 10
711.7062130489865
 20
-815.9760428763724
 30
0.0
 11
1245.039491395693
 21
-815.9760428763724
 31
0.0
  0
LINE
  5
114
330
1F
100
AcDbEntity
  8
0-F
  6
Continuous
 62
     7
370
    13
100
AcDbLine
 10
711.7062130489865
 20
-698.9732567039696
 30
0.0
 11
711.7062130489865
 21
-818.9761270059121
 31
0.0
  0
LINE
  5
115
330
1F
100
AcDbEntity
  8
0-F
  6
Continuous
 62
     7
370
    13
100
AcDbLine
 10
1245.039491395693
 20
-698.9732567039696
 30
0.0
 11
1245.039491395693
 21
-818.9761270059121
 31
0.0
  0
LINE
  5
116
330
1F
100
AcDbEntity
  8
0-F
  6
Continuous
 62
     7
370
    13
100
AcDbLine
 10
711.7062130489865
 20
-815.9760428763724
 30
0.0
 11
741.4494694890203
 21
-812.0601839632602
 31
0.0
  0
LINE
  5
117
330
1F
100
AcDbEntity
  8
0-F
  6
Continuous
 62
     7
370
    13
100
AcDbLine
 10
711.7062130489865
 20
-815.9760428763724
 30
0.0
 11
741.4494694890203
 21
-819.8919017894848
 31
0.0
  0
LINE
  5
118
330
1F
100
AcDbEntity
  8
0-F
  6
Continuous
 62
     7
370
    13
100
AcDbLine
 10
1245.039491395693
 20
-815.9760428763724
 30
0.0
 11
1215.296234955659
 21
-812.0601839632602
 31
0.0
  0
LINE
  5
119
330
1F
100
AcDbEntity
  8
0-F
  6
Continuous
 62
     7
370
    13
100
AcDbLine
 10
1245.039491395693
 20
-815.9760428763724
 30
0.0
 11
1215.296234955659
 21
-819.8919017894848
 31
0.0
  0
LINE
  5
11A
330
1F
100
AcDbEntity
  8
0-F
  6
Continuous
 62
     7
370
    13
100
AcDbLine
 10
-213.2367108319255
 20
-913.5421835409627
 30
0.0
 11
-13.35061563027864
 21
-913.5421835409627
 31
0.0
  0
LINE
  5
11B
330
1F
100
AcDbEntity
  8
0-F
  6
Continuous
 62
     7
370
    13
100
AcDbLine
 10
-13.35061563027864
 20
-690.7810190561655
 30
0.0
 11
-13.35061563027864
 21
-916.5421439505911
 31
0.0
  0
LINE
  5
11C
330
1F
100
AcDbEntity
  8
0-F
  6
Continuous
 62
     7
370
    13
100
AcDbLine
 10
-213.2367108319255
 20
-913.5421835409627
 30
0.0
 11
-183.4933306719805
 21
-909.6263246278505
 31
0.0
  0
LINE
  5
11D
330
1F
100
AcDbEntity
  8
0-F
  6
Continuous
 62
     7
370
    13
100
AcDbLine
 10
-213.2367108319255
 20
-913.5421835409627
 30
0.0
 11
-183.4933306719805
 21
-917.4579187341637
 31
0.0
  0
LINE
  5
11E
330
1F
100
AcDbEntity
  8
0-F
  6
Continuous
 62
     7
370
    13
100
AcDbLine
 10
-13.35061563027864
 20
-913.5421835409627
 30
0.0
 11
-43.0938720703125
 21
-909.6263246278505
 31
0.0
  0
LINE
  5
11F
330
1F
100
AcDbEntity
  8
0-F
  6
Continuous
 62
     7
370
    13
100
AcDbLine
 10
-13.35061563027864
 20
-913.5421835409627
 30
0.0
 11
-43.0938720703125
 21
-917.4579187341637
 31
0.0
  0
LINE
  5
120
330
1F
100
AcDbEntity
  8
0-F
  6
Continuous
 62
     7
370
    13
100
AcDbLine
 10
-213.2367108319255
 20
-836.602502771326
 30
0.0
 11
-213.2367108319255
 21
-916.5421439505911
 31
0.0
  0
LINE
  5
121
330
1F
100
AcDbEntity
  8
0-F
  6
Continuous
 62
     7
370
    13
100
AcDbLine
 10
-213.2367108319255
 20
-690.7810190561655
 30
0.0
 11
-213.2367108319255
 21
-793.1486057590793
 31
0.0
  0
LINE
  5
122
330
1F
100
AcDbEntity
  8
0-F
  6
Continuous
 62
     7
370
    13
100
AcDbLine
 10
1245.039491395693
 20
-580.2142663904137
 30
0.0
 11
1256.519709406673
 21
-552.4980369774071
 31
0.0
  0
LINE
  5
123
330
1F
100
AcDbEntity
  8
0-F
  6
Continuous
 62
     7
370
    13
100
AcDbLine
 10
1245.039491395693
 20
-580.2142663904137
 30
0.0
 11
1263.302034945102
 21
-556.4137721706081
 31
0.0
  0
LINE
  5
124
330
1F
100
AcDbEntity
  8
0-F
  6
Continuous
 62
     7
370
    13
100
AcDbLine
 10
1316.672825168919
 20
-456.140887286212
 30
0.0
 11
1637.683930268159
 21
-456.140887286212
 31
0.0
  0
LINE
  5
125
330
1F
100
AcDbEntity
  8
0-F
  6
Continuous
 62
     7
370
    13
100
AcDbLine
 10
1245.039491395693
 20
-580.2142663904137
 30
0.0
 11
1316.672825168919
 21
-456.140887286212
 31
0.0
  0
LINE
  5
126
330
1F
100
AcDbEntity
  8
0-F
  6
Continuous
 62
     7
370
    13
100
AcDbLine
 10
1249.055439717061
 20
-332.0305159285261
 30
0.0
 11
1725.8056640625
 21
-332.0305159285261
 31
0.0
  0
LINE
  5
127
330
1F
100
AcDbEntity
  8
0-F
  6
Continuous
 62
     7
370
    13
100
AcDbLine
 10
1110.538627005913
 20
-571.9499000343116
 30
0.0
 11
1249.055439717061
 21
-332.0305159285261
 31
0.0
  0
LINE
  5
128
330
1F
100
AcDbEntity
  8
0-F
  6
Continuous
 62
     7
370
    13
100
AcDbLine
 10
1110.538627005913
 20
-571.9499000343116
 30
0.0
 11
1122.018845016892
 21
-544.2334231814822
 31
0.0
  0
LINE
  5
129
330
1F
100
AcDbEntity
  8
0-F
  6
Continuous
 62
     7
370
    13
100
AcDbLine
 10
1110.538627005913
 20
-571.9499000343116
 30
0.0
 11
1128.801170555321
 21
-548.1492820945946
 31
0.0
  0
LINE
  5
12A
330
1F
100
AcDbEntity
  8
0-F
  6
Continuous
 62
     7
370
    13
100
AcDbLine
 10
1051.694467905406
 20
-365.1895554001267
 30
0.0
 11
1150.841130437078
 21
-193.4617408546242
 31
0.0
  0
LINE
  5
12B
330
1F
100
AcDbEntity
  8
0-F
  6
Continuous
 62
     7
370
    13
100
AcDbLine
 10
1051.694467905406
 20
-365.1895554001267
 30
0.0
 11
1063.175180796031
 21
-337.4732022672086
 31
0.0
  0
LINE
  5
12C
330
1F
100
AcDbEntity
  8
0-F
  6
Continuous
 62
     7
370
    13
100
AcDbLine
 10
1051.694467905406
 20
-365.1895554001267
 30
0.0
 11
1069.957506334459
 21
-341.3889374604095
 31
0.0
  0
LINE
  5
12D
330
1F
100
AcDbEntity
  8
0-F
  6
Continuous
 62
     7
370
    13
100
AcDbLine
 10
1245.039491395693
 20
-580.2142663904137
 30
0.0
 11
1256.520204286318
 21
-552.4980369774071
 31
0.0
  0
LINE
  5
12E
330
1F
100
AcDbEntity
  8
0-F
  6
Continuous
 62
     7
370
    13
100
AcDbLine
 10
1245.039491395693
 20
-580.2142663904137
 30
0.0
 11
1263.302529824747
 21
-556.4137721706081
 31
0.0
  0
LINE
  5
12F
330
1F
100
AcDbEntity
  8
0-F
  6
Continuous
 62
     7
370
    13
100
AcDbLine
 10
-1223.384547877956
 20
921.8676922772383
 30
0.0
 11
-1195.668071025127
 21
910.387226826436
 31
0.0
  0
LINE
  5
130
330
1F
100
AcDbEntity
  8
0-F
  6
Continuous
 62
     7
370
    13
100
AcDbLine
 10
-1223.384547877956
 20
921.8676922772383
 30
0.0
 11
-1199.58405365815
 21
903.6049012880068
 31
0.0
  0
LINE
  5
131
330
1F
100
AcDbEntity
  8
0-F
  6
Continuous
 62
     7
370
    13
100
AcDbLine
 10
-1312.876850849873
 20
339.7209703600086
 30
0.0
 11
-1312.876850849873
 21
326.4461950353675
 31
0.0
  0
LINE
  5
132
330
1F
100
AcDbEntity
  8
0-F
  6
Continuous
 62
     7
370
    13
100
AcDbLine
 10
-1312.876850849873
 20
326.4461950353675
 30
0.0
 11
-1312.876850849873
 21
313.1715434306378
 31
0.0
  0
LINE
  5
133
330
1F
100
AcDbEntity
  8
0-0
  6
Continuous
 62
     3
370
    13
100
AcDbLine
 10
-1312.876850849873
 20
776.0340840107688
 30
0.0
 11
-1312.876850849873
 21
-215.2142993823901
 31
0.0
  0
LINE
  5
134
330
1F
100
AcDbEntity
  8
0-F
  6
Continuous
 62
     7
370
    13
100
AcDbLine
 10
-1045.82049395587
 20
326.4461950353675
 30
0.0
 11
-1363.647295977618
 21
326.4461950353675
 31
0.0
  0
LINE
  5
135
330
1F
100
AcDbEntity
  8
0-F
  6
Continuous
 62
     7
370
    13
100
AcDbLine
 10
-1212.04363848712
 20
326.4461950353675
 30
0.0
 11
-1182.300382047086
 21
330.36205394848
 31
0.0
  0
LINE
  5
136
330
1F
100
AcDbEntity
  8
0-F
  6
Continuous
 62
     7
370
    13
100
AcDbLine
 10
-1212.04363848712
 20
326.4461950353675
 30
0.0
 11
-1182.300382047086
 21
322.5304598421664
 31
0.0
  0
LINE
  5
137
330
1F
100
AcDbEntity
  8
0-F
  6
Continuous
 62
     7
370
    13
100
AcDbLine
 10
-1312.876850849873
 20
326.4461950353675
 30
0.0
 11
-1342.620107289907
 21
330.36205394848
 31
0.0
  0
LINE
  5
138
330
1F
100
AcDbEntity
  8
0-F
  6
Continuous
 62
     7
370
    13
100
AcDbLine
 10
-1312.876850849873
 20
326.4461950353675
 30
0.0
 11
-1342.620107289907
 21
322.5304598421664
 31
0.0
  0
LINE
  5
139
330
1F
100
AcDbEntity
  8
0-F
  6
Continuous
 62
     7
370
    13
100
AcDbLine
 10
1150.841130437078
 20
-193.4617408546242
 30
0.0
 11
1584.399249102618
 21
-193.4617408546242
 31
0.0
  0
LINE
  5
13A
330
1F
100
AcDbEntity
  8
0-0
  6
Continuous
 62
     3
370
    13
100
AcDbLine
 10
-1212.04363848712
 20
776.0335891311234
 30
0.0
 11
-1212.04363848712
 21
-215.2142993823901
 31
0.0
  0
LINE
  5
13B
330
1F
100
AcDbEntity
  8
0-F
  6
Continuous
 62
     7
370
    13
100
AcDbLine
 10
1028.789458403716
 20
732.4873970650339
 30
0.0
 11
1038.356719145904
 21
755.5839249894427
 31
0.0
  0
LINE
  5
13C
330
1F
100
AcDbEntity
  8
0-F
  6
Continuous
 62
     7
370
    13
100
AcDbLine
 10
1028.789458403716
 20
732.4873970650339
 30
0.0
 11
1044.008492134713
 21
752.3211834881758
 31
0.0
  0
LINE
  5
13D
330
1F
100
AcDbEntity
  8
0-F
  6
Continuous
 62
     7
370
    13
100
AcDbLine
 10
1028.789458403716
 20
732.4873970650339
 30
0.0
 11
1130.287789009713
 21
908.2879473711995
 31
0.0
  0
LINE
  5
13E
330
1F
100
AcDbEntity
  8
0-F
  6
Continuous
 62
     7
370
    13
100
AcDbLine
 10
1130.287789009713
 20
908.2879473711995
 30
0.0
 11
1470.50121410473
 21
908.2879473711995
 31
0.0
  0
LINE
  5
13F
330
1F
100
AcDbEntity
  8
0-0
  6
JWW_CENTER1
 62
     3
370
    13
100
AcDbLine
 10
-687.8768920898438
 20
929.4316802153717
 30
0.0
 11
-687.8768920898438
 21
1188.891139674831
 31
0.0
  0
LINE
  5
140
330
1F
100
AcDbEntity
  8
0-0
  6
Continuous
 62
     3
370
    13
100
AcDbLine
 10
-687.877015809755
 20
1118.115679766681
 30
0.0
 11
-687.8768920898438
 21
1118.115679766681
 31
0.0
  0
LINE
  5
141
330
1F
100
AcDbEntity
  8
0-0
  6
JWW_CENTER1
 62
     3
370
    13
100
AcDbLine
 10
-687.877015809755
 20
1067.698826145481
 30
0.0
 11
-687.8768920898438
 21
1067.698826145481
 31
0.0
  0
LINE
  5
142
330
1F
100
AcDbEntity
  8
0-0
  6
Continuous
 62
     3
370
    13
100
AcDbLine
 10
-687.877015809755
 20
1017.281972524282
 30
0.0
 11
-687.8768920898438
 21
1017.281972524282
 31
0.0
  0
LINE
  5
143
330
1F
100
AcDbEntity
  8
0-F
  6
Continuous
 62
     7
370
    13
100
AcDbLine
 10
-62.87680960990286
 20
326.4460713154563
 30
0.0
 11
-62.87680960990286
 21
323.4461109058279
 31
0.0
  0
LINE
  5
144
330
1F
100
AcDbEntity
  8
0-F
  6
Continuous
 62
     7
370
    13
100
AcDbLine
 10
-67.87682610589087
 20
326.4460713154563
 30
0.0
 11
-67.87682610589087
 21
323.4461109058279
 31
0.0
  0
LINE
  5
145
330
1F
100
AcDbEntity
  8
0-F
  6
Continuous
 62
     7
370
    13
100
AcDbLine
 10
-62.87680960990286
 20
326.4460713154563
 30
0.0
 11
-38.09076257654141
 21
323.1833298141893
 31
0.0
  0
LINE
  5
146
330
1F
100
AcDbEntity
  8
0-F
  6
Continuous
 62
     7
370
    13
100
AcDbLine
 10
-67.87682610589087
 20
326.4460713154563
 30
0.0
 11
-92.66287313925233
 21
329.7093076963682
 31
0.0
  0
LINE
  5
147
330
1F
100
AcDbEntity
  8
0-F
  6
Continuous
 62
     7
370
    13
100
AcDbLine
 10
-67.87682610589087
 20
326.4460713154563
 30
0.0
 11
-92.66287313925233
 21
323.1833298141893
 31
0.0
  0
LINE
  5
148
330
1F
100
AcDbEntity
  8
0-F
  6
Continuous
 62
     7
370
    13
100
AcDbLine
 10
-62.87680960990286
 20
326.4460713154563
 30
0.0
 11
-38.09076257654141
 21
329.7093076963682
 31
0.0
  0
LINE
  5
149
330
1F
100
AcDbEntity
  8
0-F
  6
Continuous
 62
     7
370
    13
100
AcDbLine
 10
11.96297310494089
 20
326.4460713154563
 30
0.0
 11
-135.9110239389778
 21
326.4460713154563
 31
0.0
  0
LINE
  5
14A
330
1F
100
AcDbEntity
  8
0-0
  6
Continuous
 62
     3
370
    13
100
AcDbLine
 10
-163.7101456925674
 20
-631.8814334353884
 30
0.0
 11
-62.87705704972552
 21
-631.8809385557432
 31
0.0
  0
LINE
  5
14B
330
1F
100
AcDbEntity
  8
0-0
  6
Continuous
 62
     3
370
    13
100
AcDbLine
 10
-687.8768920898438
 20
1017.281972524282
 30
0.0
 11
-404.9611272038641
 21
1017.283952042863
 31
0.0
  0
LINE
  5
14C
330
1F
100
AcDbEntity
  8
0-0
  6
JWW_CENTER1
 62
     3
370
    13
100
AcDbLine
 10
-687.8768920898438
 20
1067.698826145481
 30
0.0
 11
-404.9613746436864
 21
1067.700805664062
 31
0.0
  0
LINE
  5
14D
330
1F
100
AcDbEntity
  8
0-0
  6
Continuous
 62
     3
370
    13
100
AcDbLine
 10
-687.8768920898438
 20
1118.115679766681
 30
0.0
 11
-404.9614983635979
 21
1118.117659285262
 31
0.0
  0
LINE
  5
14E
330
1F
100
AcDbEntity
  8
0-0
  6
Continuous
 62
     3
370
    13
100
AcDbLine
 10
-687.8768920898438
 20
1113.115910710515
 30
0.0
 11
-404.9614983635979
 21
1113.117890229096
 31
0.0
  0
LINE
  5
14F
330
1F
100
AcDbEntity
  8
0-0
  6
Continuous
 62
     3
370
    13
100
AcDbLine
 10
-687.8768920898438
 20
1022.281741580448
 30
0.0
 11
-404.9611272038641
 21
1022.283721099029
 31
0.0
  0
LINE
  5
150
330
1F
100
AcDbEntity
  8
0-0
  6
Continuous
 62
     3
370
    13
100
AcDbLine
 10
-62.87705704972552
 20
776.0340840107688
 30
0.0
 11
-62.87705704972552
 21
-215.2140519425674
 31
0.0
  0
LINE
  5
151
330
1F
100
AcDbEntity
  8
0-0
  6
Continuous
 62
     3
370
    13
100
AcDbLine
 10
-67.87707354571353
 20
776.0340840107688
 30
0.0
 11
-67.87707354571353
 21
-215.2140519425674
 31
0.0
  0
LINE
  5
152
330
1F
100
AcDbEntity
  8
0-0
  6
Continuous
 62
     3
370
    13
100
AcDbLine
 10
-158.7101291965791
 20
776.0335891311234
 30
0.0
 11
-158.7101291965791
 21
-215.2140519425674
 31
0.0
  0
LINE
  5
153
330
1F
100
AcDbEntity
  8
0-0
  6
Continuous
 62
     3
370
    13
100
AcDbLine
 10
-163.7101456925674
 20
776.0335891311234
 30
0.0
 11
-163.7101456925674
 21
-215.2140519425674
 31
0.0
  0
LINE
  5
154
330
1F
100
AcDbEntity
  8
0-1
  6
Continuous
 62
     3
370
    13
100
AcDbLine
 10
-94.7967941696578
 20
-381.881103515625
 30
0.0
 11
-133.2223428262245
 21
-381.881103515625
 31
0.0
  0
LINE
  5
155
330
1F
100
AcDbEntity
  8
0-0
  6
JWW_CENTER1
 62
     3
370
    13
100
AcDbLine
 10
-113.2935395111909
 20
776.0345788904141
 30
0.0
 11
-113.2935395111909
 21
-701.7198387352196
 31
0.0
  0
LINE
  5
156
330
1F
100
AcDbEntity
  8
0-0
  6
JWW_CENTER1
 62
     3
370
    13
100
AcDbLine
 10
-1262.460244668497
 20
776.0343314505915
 30
0.0
 11
-1262.460244668497
 21
-701.7198387352196
 31
0.0
  0
LINE
  5
157
330
1F
100
AcDbEntity
  8
0-0
  6
Continuous
 62
     3
370
    13
100
AcDbLine
 10
-163.7101456925674
 20
-215.2140519425674
 30
0.0
 11
-163.7101456925674
 21
-301.3395649677997
 31
0.0
  0
LINE
  5
158
330
1F
100
AcDbEntity
  8
0-0
  6
Continuous
 62
     3
370
    13
100
AcDbLine
 10
-158.7101291965791
 20
-215.2140519425674
 30
0.0
 11
-158.7101291965791
 21
-300.9823855838259
 31
0.0
  0
LINE
  5
159
330
1F
100
AcDbEntity
  8
0-0
  6
Continuous
 62
     3
370
    13
100
AcDbLine
 10
-67.87707354571353
 20
-215.2140519425674
 30
0.0
 11
-67.87707354571353
 21
-300.9822618639146
 31
0.0
  0
LINE
  5
15A
330
1F
100
AcDbEntity
  8
0-0
  6
Continuous
 62
     3
370
    13
100
AcDbLine
 10
-62.87705704972552
 20
-215.2140519425674
 30
0.0
 11
-62.87705704972552
 21
-301.2503629117398
 31
0.0
  0
ARC
  5
15B
330
1F
100
AcDbEntity
  8
0-0
  6
JWW_CENTER1
 62
     3
370
    13
100
AcDbCircle
 10
-970.7937704550252
 20
776.0343314505915
 30
0.0
 40
291.6666597933383
100
AcDbArc
 50
89.99975585937501
 51
180.0
  0
ARC
  5
15C
330
1F
100
AcDbEntity
  8
0-0
  6
Continuous
 62
     3
370
    13
100
AcDbCircle
 10
-970.7937704550252
 20
776.0340840107688
 30
0.0
 40
342.0833278346706
100
AcDbArc
 50
89.99977111816406
 51
180.0
  0
ARC
  5
15D
330
1F
100
AcDbEntity
  8
0-0
  6
Continuous
 62
     3
370
    13
100
AcDbCircle
 10
-970.7937704550252
 20
776.0335891311234
 30
0.0
 40
241.2500072169948
100
AcDbArc
 50
89.99980163574219
 51
180.0
  0
ARC
  5
15E
330
1F
100
AcDbEntity
  8
0-0
  6
Continuous
 62
     3
370
    13
100
AcDbCircle
 10
978.3726047825172
 20
1067.702290302998
 30
0.0
 40
50.41660618137669
100
AcDbArc
 50
0.0
 51
180.0
  0
ARC
  5
15F
330
1F
100
AcDbEntity
  8
0-D
  6
Continuous
 62
     2
370
    13
100
AcDbCircle
 10
1047.889338312923
 20
-395.2267703494509
 30
0.0
 40
5.066666731963286
100
AcDbArc
 50
318.6724548339844
 51
41.32754516601564
  0
ARC
  5
160
330
1F
100
AcDbEntity
  8
0-D
  6
Continuous
 62
     2
370
    13
100
AcDbCircle
 10
1047.889338312923
 20
-368.5351892419763
 30
0.0
 40
5.066666731963286
100
AcDbArc
 50
318.6724548339844
 51
41.32754516601564
  0
ARC
  5
161
330
1F
100
AcDbEntity
  8
0-D
  6
Continuous
 62
     2
370
    13
100
AcDbCircle
 10
1012.69993137669
 20
-381.8808560758023
 30
0.0
 40
40.25578756590147
100
AcDbArc
 50
345.6165313720703
 51
14.38359069824219
  0
ARC
  5
162
330
1F
100
AcDbEntity
  8
0-D
  6
Continuous
 62
     2
370
    13
100
AcDbCircle
 10
906.1280946473818
 20
-395.5603192303631
 30
0.0
 40
6.505050369211146
100
AcDbArc
 50
135.3612976074219
 51
224.6389617919922
  0
ARC
  5
163
330
1F
100
AcDbEntity
  8
0-D
  6
Continuous
 62
     2
370
    13
100
AcDbCircle
 10
922.6694467905406
 20
-381.8808560758023
 30
0.0
 40
23.04650061839336
100
AcDbArc
 50
156.7198028564453
 51
203.2803039550781
  0
ARC
  5
164
330
1F
100
AcDbEntity
  8
0-D
  6
Continuous
 62
     2
370
    13
100
AcDbCircle
 10
906.1280946473818
 20
-368.2016403610642
 30
0.0
 40
6.505101113706022
100
AcDbArc
 50
135.3612976074219
 51
224.63818359375
  0
ARC
  5
165
330
1F
100
AcDbEntity
  8
0-0
  6
Continuous
 62
     2
370
    13
100
AcDbCircle
 10
1283.062084301098
 20
-592.3812536291173
 30
0.0
 40
3.333333376291636
100
AcDbArc
 50
186.2657318115234
 51
262.1466522216797
  0
ARC
  5
166
330
1F
100
AcDbEntity
  8
0-0
  6
Continuous
 62
     2
370
    13
100
AcDbCircle
 10
1296.161053631757
 20
-605.9654524519636
 30
0.0
 40
8.333334407290899
100
AcDbArc
 50
9.462356567382812
 51
82.14665222167969
  0
ARC
  5
167
330
1F
100
AcDbEntity
  8
0-0
  6
Continuous
 62
     2
370
    13
100
AcDbCircle
 10
1048.789524387669
 20
-556.8809385557432
 30
0.0
 40
8.333334407290899
100
AcDbArc
 50
180.0
 51
270.0
  0
ARC
  5
168
330
1F
100
AcDbEntity
  8
0-0
  6
Continuous
 62
     2
370
    13
100
AcDbCircle
 10
1029.622835726352
 20
-631.0942036396748
 30
0.0
 40
0.833333344072909
100
AcDbArc
 50
273.2700347900391
 51
359.9999999999999
  0
ARC
  5
169
330
1F
100
AcDbEntity
  8
0-0
  6
Continuous
 62
     2
370
    13
100
AcDbCircle
 10
1016.705982105152
 20
-633.5015456740921
 30
0.0
 40
0.833333344072909
100
AcDbArc
 50
93.27003479003906
 51
180.0
  0
ARC
  5
16A
330
1F
100
AcDbEntity
  8
0-0
  6
Continuous
 62
     2
370
    13
100
AcDbCircle
 10
1031.289590371622
 20
-369.3809385557432
 30
0.0
 40
0.833333344072909
100
AcDbArc
 50
180.0
 51
270.0
  0
ARC
  5
16B
330
1F
100
AcDbEntity
  8
0-0
  6
Continuous
 62
     2
370
    13
100
AcDbCircle
 10
1031.289590371622
 20
-394.3810210356841
 30
0.0
 40
0.833333344072909
100
AcDbArc
 50
90.0
 51
180.0
  0
ARC
  5
16C
330
1F
100
AcDbEntity
  8
0-0
  6
Continuous
 62
     2
370
    13
100
AcDbCircle
 10
1170.627408414274
 20
-577.7142581424197
 30
0.0
 40
2.500000273859179
100
AcDbArc
 50
262.1459045410156
 51
270.0
  0
ARC
  5
16D
330
1F
100
AcDbEntity
  8
0-0
  6
Continuous
 62
     2
370
    13
100
AcDbCircle
 10
1037.956608952702
 20
-301.0477096970017
 30
0.0
 40
2.500000273859179
100
AcDbArc
 50
0.0
 51
90.0
  0
ARC
  5
16E
330
1F
100
AcDbEntity
  8
0-0
  6
Continuous
 62
     2
370
    13
100
AcDbCircle
 10
1061.534654771959
 20
-567.714472590266
 30
0.0
 40
2.500000273859179
100
AcDbArc
 50
82.1468505859375
 51
90.0
  0
ARC
  5
16F
330
1F
100
AcDbEntity
  8
0-0
  6
Continuous
 62
     2
370
    13
100
AcDbCircle
 10
1276.132284628379
 20
-582.7145220782304
 30
0.0
 40
2.500000273859179
100
AcDbArc
 50
6.265106201171875
 51
90.0
  0
ARC
  5
170
330
1F
100
AcDbEntity
  8
0-0
  6
Continuous
 62
     2
370
    13
100
AcDbCircle
 10
1210.096534522804
 20
-652.7145055822423
 30
0.0
 40
2.500000273859179
100
AcDbArc
 50
24.44400024414062
 51
90.0
  0
ARC
  5
171
330
1F
100
AcDbEntity
  8
0-0
  6
Continuous
 62
     2
370
    13
100
AcDbCircle
 10
1309.121951541385
 20
-648.2499488624366
 30
0.0
 40
2.500000273859179
100
AcDbArc
 50
337.3799133300781
 51
9.462326049804702
  0
ARC
  5
172
330
1F
100
AcDbEntity
  8
0-0
  6
Continuous
 62
     2
370
    13
100
AcDbCircle
 10
673.6836201435813
 20
-592.3812536291173
 30
0.0
 40
3.333333376291636
100
AcDbArc
 50
277.8533477783203
 51
353.7342681884766
  0
ARC
  5
173
330
1F
100
AcDbEntity
  8
0-0
  6
Continuous
 62
     2
370
    13
100
AcDbCircle
 10
660.5851456925677
 20
-605.9654524519636
 30
0.0
 40
8.333334407290899
100
AcDbArc
 50
97.85334777832031
 51
170.5376434326172
  0
ARC
  5
174
330
1F
100
AcDbEntity
  8
0-0
  6
Continuous
 62
     2
370
    13
100
AcDbCircle
 10
907.9566749366558
 20
-556.8809385557432
 30
0.0
 40
8.333334407290899
100
AcDbArc
 50
270.0
 51
0.0
  0
ARC
  5
175
330
1F
100
AcDbEntity
  8
0-0
  6
Continuous
 62
     2
370
    13
100
AcDbCircle
 10
927.1228687183276
 20
-631.0942036396748
 30
0.0
 40
0.833333344072909
100
AcDbArc
 50
180.0
 51
266.7299652099609
  0
ARC
  5
176
330
1F
100
AcDbEntity
  8
0-0
  6
Continuous
 62
     2
370
    13
100
AcDbCircle
 10
940.0397223395271
 20
-633.5015456740921
 30
0.0
 40
0.833333344072909
100
AcDbArc
 50
0.0
 51
86.72996520996094
  0
ARC
  5
177
330
1F
100
AcDbEntity
  8
0-0
  6
Continuous
 62
     2
370
    13
100
AcDbCircle
 10
925.4566089527026
 20
-369.3809385557432
 30
0.0
 40
0.833333344072909
100
AcDbArc
 50
270.0
 51
0.0
  0
ARC
  5
178
330
1F
100
AcDbEntity
  8
0-0
  6
Continuous
 62
     2
370
    13
100
AcDbCircle
 10
925.4566089527026
 20
-394.3810210356841
 30
0.0
 40
0.833333344072909
100
AcDbArc
 50
0.0
 51
90.0
  0
ARC
  5
179
330
1F
100
AcDbEntity
  8
0-0
  6
Continuous
 62
     2
370
    13
100
AcDbCircle
 10
786.1182960304058
 20
-577.7142581424197
 30
0.0
 40
2.500000273859179
100
AcDbArc
 50
270.0
 51
277.8540954589844
  0
ARC
  5
17A
330
1F
100
AcDbEntity
  8
0-0
  6
Continuous
 62
     2
370
    13
100
AcDbCircle
 10
918.7895903716219
 20
-301.0477096970017
 30
0.0
 40
2.500000273859179
100
AcDbArc
 50
90.0
 51
180.0
  0
ARC
  5
17B
330
1F
100
AcDbEntity
  8
0-0
  6
Continuous
 62
     2
370
    13
100
AcDbCircle
 10
895.2115445523651
 20
-567.714472590266
 30
0.0
 40
2.500000273859179
100
AcDbArc
 50
90.0
 51
97.8531494140625
  0
ARC
  5
17C
330
1F
100
AcDbEntity
  8
0-0
  6
Continuous
 62
     2
370
    13
100
AcDbCircle
 10
680.6134198163011
 20
-582.7145220782304
 30
0.0
 40
2.500000273859179
100
AcDbArc
 50
90.0
 51
173.7348937988281
  0
ARC
  5
17D
330
1F
100
AcDbEntity
  8
0-0
  6
Continuous
 62
     2
370
    13
100
AcDbCircle
 10
746.6496648015203
 20
-652.7145055822423
 30
0.0
 40
2.500000273859179
100
AcDbArc
 50
90.0
 51
155.5559997558594
  0
ARC
  5
17E
330
1F
100
AcDbEntity
  8
0-0
  6
Continuous
 62
     2
370
    13
100
AcDbCircle
 10
647.623258023649
 20
-648.2499488624366
 30
0.0
 40
2.500000273859179
100
AcDbArc
 50
170.5376739501953
 51
202.6200866699219
  0
CIRCLE
  5
17F
330
1F
100
AcDbEntity
  8
0-1
  6
Continuous
 62
     2
370
    13
100
AcDbCircle
 10
-1262.460492108319
 20
-381.8809797957136
 30
0.0
 40
14.45539287618689
  0
ELLIPSE
  5
180
330
1F
100
AcDbEntity
  8
0-0
  6
Continuous
 62
     2
370
    13
100
AcDbEllipse
 10
-1262.459997228674
 20
-590.6648872994087
 30
0.0
 11
34.99996468827531
 21
0.0
 31
0.0
210
0.0
220
0.0
230
1.0
 40
0.1351
 41
3.141592653589792
 42
6.283185307179586
  0
ARC
  5
181
330
1F
100
AcDbEntity
  8
0-0
  6
Continuous
 62
     2
370
    13
100
AcDbCircle
 10
-1300.220303922086
 20
-587.3316254486908
 30
0.0
 40
3.333333376291636
100
AcDbArc
 50
270.0
 51
349.2559356689454
  0
CIRCLE
  5
182
330
1F
100
AcDbEntity
  8
0-0
  6
Continuous
 62
     2
370
    13
100
AcDbCircle
 10
-1262.460492108319
 20
-381.8812272355362
 30
0.0
 40
11.66665521827904
  0
ARC
  5
183
330
1F
100
AcDbEntity
  8
0-0
  6
Continuous
 62
     2
370
    13
100
AcDbCircle
 10
-1224.699937975084
 20
-587.3316254486908
 30
0.0
 40
3.333333376291636
100
AcDbArc
 50
190.7440643310547
 51
270.0
  0
ARC
  5
184
330
1F
100
AcDbEntity
  8
0-0
  6
Continuous
 62
     2
370
    13
100
AcDbCircle
 10
-1350.061612515836
 20
-609.9555433118666
 30
0.0
 40
8.333334407290899
100
AcDbArc
 50
92.007080078125
 51
174.0531921386719
  0
ARC
  5
185
330
1F
100
AcDbEntity
  8
0-0
  6
Continuous
 62
     2
370
    13
100
AcDbCircle
 10
-1346.588547165329
 20
-576.6125323321367
 30
0.0
 40
8.333334407290899
100
AcDbArc
 50
92.08251953124999
 51
174.0531005859375
  0
ARC
  5
186
330
1F
100
AcDbEntity
  8
0-0
  6
Continuous
 62
     2
370
    13
100
AcDbCircle
 10
-1174.858629381334
 20
-609.9555433118666
 30
0.0
 40
8.333334407290899
100
AcDbArc
 50
5.946807861328125
 51
87.992919921875
  0
ARC
  5
187
330
1F
100
AcDbEntity
  8
0-0
  6
Continuous
 62
     2
370
    13
100
AcDbCircle
 10
-1178.331942171664
 20
-576.6125323321367
 30
0.0
 40
8.333334407290899
100
AcDbArc
 50
5.946899414062499
 51
87.91748046875
  0
ARC
  5
188
330
1F
100
AcDbEntity
  8
0-0
  6
Continuous
 62
     2
370
    13
100
AcDbCircle
 10
-1293.703728753167
 20
-584.2797026763092
 30
0.0
 40
2.500000273859179
100
AcDbArc
 50
92.86273193359376
 51
169.2561798095703
  0
ARC
  5
189
330
1F
100
AcDbEntity
  8
0-0
  6
Continuous
 62
     2
370
    13
100
AcDbCircle
 10
-1231.216513144003
 20
-584.2797026763092
 30
0.0
 40
2.500000273859179
100
AcDbArc
 50
10.74382019042969
 51
87.13726806640625
  0
ARC
  5
18A
330
1F
100
AcDbEntity
  8
0-0
  6
Continuous
 62
     2
370
    13
100
AcDbCircle
 10
-1322.043259079392
 20
-304.2452508050042
 30
0.0
 40
2.500000273859179
100
AcDbArc
 50
93.06739807128906
 51
180.0
  0
ARC
  5
18B
330
1F
100
AcDbEntity
  8
0-0
  6
Continuous
 62
     2
370
    13
100
AcDbCircle
 10
-1202.876982817779
 20
-304.2452508050042
 30
0.0
 40
2.500000273859179
100
AcDbArc
 50
0.0
 51
86.93260192871094
  0
ARC
  5
18C
330
1F
100
AcDbEntity
  8
0-0
  6
Continuous
 62
     2
370
    13
100
AcDbCircle
 10
-1359.903284021326
 20
-648.1315489073057
 30
0.0
 40
2.500000273859179
100
AcDbArc
 50
174.0530242919922
 51
204.4447784423828
  0
ARC
  5
18D
330
1F
100
AcDbEntity
  8
0-0
  6
Continuous
 62
     2
370
    13
100
AcDbCircle
 10
-1165.016957875845
 20
-648.1315489073057
 30
0.0
 40
2.500000273859179
100
AcDbArc
 50
335.5550079345703
 51
5.946975708007843
  0
ARC
  5
18E
330
1F
100
AcDbEntity
  8
0-0
  6
JWW_DASHED1
 62
     2
370
    13
100
AcDbCircle
 10
-1211.210261164485
 20
-631.0940799197634
 30
0.0
 40
0.833333344072909
100
AcDbArc
 50
273.2700347900391
 51
359.9999999999999
  0
ARC
  5
18F
330
1F
100
AcDbEntity
  8
0-0
  6
JWW_DASHED1
 62
     2
370
    13
100
AcDbCircle
 10
-1224.127114785684
 20
-633.5014219541807
 30
0.0
 40
0.833333344072909
100
AcDbArc
 50
93.27003479003906
 51
180.0
  0
ARC
  5
190
330
1F
100
AcDbEntity
  8
0-0
  6
JWW_DASHED1
 62
     2
370
    13
100
AcDbCircle
 10
-1313.710475612331
 20
-631.0940799197634
 30
0.0
 40
0.833333344072909
100
AcDbArc
 50
180.0
 51
266.7299652099609
  0
ARC
  5
191
330
1F
100
AcDbEntity
  8
0-0
  6
JWW_DASHED1
 62
     2
370
    13
100
AcDbCircle
 10
-1300.793621991132
 20
-633.5014219541807
 30
0.0
 40
0.833333344072909
100
AcDbArc
 50
0.0
 51
86.72996520996094
  0
ARC
  5
192
330
1F
100
AcDbEntity
  8
0-0
  6
Continuous
 62
     3
370
    13
100
AcDbCircle
 10
978.3726047825172
 20
1067.702290302998
 30
0.0
 40
45.74993752144479
100
AcDbArc
 50
0.0
 51
180.0
  0
CIRCLE
  5
193
330
1F
100
AcDbEntity
  8
0-1
  6
Continuous
 62
     2
370
    13
100
AcDbCircle
 10
-113.2937869510135
 20
-381.8809797957136
 30
0.0
 40
14.45539287618689
  0
ELLIPSE
  5
194
330
1F
100
AcDbEntity
  8
0-0
  6
Continuous
 62
     2
370
    13
100
AcDbEllipse
 10
-113.2932920713682
 20
-590.6648872994087
 30
0.0
 11
34.99996468827531
 21
0.0
 31
0.0
210
0.0
220
0.0
230
1.0
 40
0.1351
 41
3.141592653589792
 42
6.283185307179586
  0
ARC
  5
195
330
1F
100
AcDbEntity
  8
0-0
  6
Continuous
 62
     2
370
    13
100
AcDbCircle
 10
-151.0537224846917
 20
-587.3316254486908
 30
0.0
 40
3.333333376291636
100
AcDbArc
 50
270.0
 51
349.2559356689454
  0
ARC
  5
196
330
1F
100
AcDbEntity
  8
0-0
  6
Continuous
 62
     2
370
    13
100
AcDbCircle
 10
-75.53323281777864
 20
-587.3316254486908
 30
0.0
 40
3.333333376291636
100
AcDbArc
 50
190.7440643310547
 51
270.0
  0
ARC
  5
197
330
1F
100
AcDbEntity
  8
0-0
  6
Continuous
 62
     2
370
    13
100
AcDbCircle
 10
-200.8950310784417
 20
-609.9555433118666
 30
0.0
 40
8.333334407290899
100
AcDbArc
 50
92.007080078125
 51
174.0531921386719
  0
ARC
  5
198
330
1F
100
AcDbEntity
  8
0-0
  6
Continuous
 62
     2
370
    13
100
AcDbCircle
 10
-197.4218420080234
 20
-576.6125323321367
 30
0.0
 40
8.333334407290899
100
AcDbArc
 50
92.08251953124999
 51
174.0531005859375
  0
ARC
  5
199
330
1F
100
AcDbEntity
  8
0-0
  6
Continuous
 62
     2
370
    13
100
AcDbCircle
 10
-25.69192422402864
 20
-609.9555433118666
 30
0.0
 40
8.333334407290899
100
AcDbArc
 50
5.946807861328125
 51
87.992919921875
  0
ARC
  5
19A
330
1F
100
AcDbEntity
  8
0-0
  6
Continuous
 62
     2
370
    13
100
AcDbCircle
 10
-29.16498957453541
 20
-576.6125323321367
 30
0.0
 40
8.333334407290899
100
AcDbArc
 50
5.946899414062499
 51
87.91748046875
  0
ARC
  5
19B
330
1F
100
AcDbEntity
  8
0-0
  6
Continuous
 62
     2
370
    13
100
AcDbCircle
 10
-144.5370235958615
 20
-584.2797026763092
 30
0.0
 40
2.500000273859179
100
AcDbArc
 50
92.86273193359376
 51
169.2561798095703
  0
ARC
  5
19C
330
1F
100
AcDbEntity
  8
0-0
  6
Continuous
 62
     2
370
    13
100
AcDbCircle
 10
-82.04980798669766
 20
-584.2797026763092
 30
0.0
 40
2.500000273859179
100
AcDbArc
 50
10.74382019042969
 51
87.13726806640625
  0
ARC
  5
19D
330
1F
100
AcDbEntity
  8
0-0
  6
Continuous
 62
     2
370
    13
100
AcDbCircle
 10
-172.8765539220859
 20
-304.2452508050042
 30
0.0
 40
2.500000273859179
100
AcDbArc
 50
93.06739807128906
 51
180.0
  0
ARC
  5
19E
330
1F
100
AcDbEntity
  8
0-0
  6
Continuous
 62
     2
370
    13
100
AcDbCircle
 10
-53.71052510029557
 20
-304.2452508050042
 30
0.0
 40
2.500000273859179
100
AcDbArc
 50
0.0
 51
86.93260192871094
  0
ARC
  5
19F
330
1F
100
AcDbEntity
  8
0-0
  6
Continuous
 62
     2
370
    13
100
AcDbCircle
 10
-210.7367025839315
 20
-648.1315489073057
 30
0.0
 40
2.500000273859179
100
AcDbArc
 50
174.0530242919922
 51
204.4447784423828
  0
ARC
  5
1A0
330
1F
100
AcDbEntity
  8
0-0
  6
Continuous
 62
     2
370
    13
100
AcDbCircle
 10
-15.8502527185388
 20
-648.1315489073057
 30
0.0
 40
2.500000273859179
100
AcDbArc
 50
335.5550079345703
 51
5.946975708007843
  0
ARC
  5
1A1
330
1F
100
AcDbEntity
  8
0-0
  6
JWW_DASHED1
 62
     2
370
    13
100
AcDbCircle
 10
-62.04380344700155
 20
-631.0940799197634
 30
0.0
 40
0.833333344072909
100
AcDbArc
 50
273.2700347900391
 51
359.9999999999999
  0
ARC
  5
1A2
330
1F
100
AcDbEntity
  8
0-0
  6
JWW_DASHED1
 62
     2
370
    13
100
AcDbCircle
 10
-74.96065706820076
 20
-633.5014219541807
 30
0.0
 40
0.833333344072909
100
AcDbArc
 50
93.27003479003906
 51
180.0
  0
ARC
  5
1A3
330
1F
100
AcDbEntity
  8
0-0
  6
JWW_DASHED1
 62
     2
370
    13
100
AcDbCircle
 10
-164.5437704550253
 20
-631.0940799197634
 30
0.0
 40
0.833333344072909
100
AcDbArc
 50
180.0
 51
266.7299652099609
  0
ARC
  5
1A4
330
1F
100
AcDbEntity
  8
0-0
  6
JWW_DASHED1
 62
     2
370
    13
100
AcDbCircle
 10
-151.626916833826
 20
-633.5014219541807
 30
0.0
 40
0.833333344072909
100
AcDbArc
 50
0.0
 51
86.72996520996094
  0
ARC
  5
1A5
330
1F
100
AcDbEntity
  8
0-0
  6
JWW_CENTER1
 62
     3
370
    13
100
AcDbCircle
 10
-404.9601374445734
 20
776.0345788904141
 30
0.0
 40
291.6666597933383
100
AcDbArc
 50
0.0
 51
90.000244140625
  0
ARC
  5
1A6
330
1F
100
AcDbEntity
  8
0-0
  6
Continuous
 62
     3
370
    13
100
AcDbCircle
 10
-404.9601374445734
 20
776.0340840107688
 30
0.0
 40
342.0833278346706
100
AcDbArc
 50
0.0
 51
90.00022888183595
  0
ARC
  5
1A7
330
1F
100
AcDbEntity
  8
0-0
  6
Continuous
 62
     3
370
    13
100
AcDbCircle
 10
-404.9603848843961
 20
776.0335891311234
 30
0.0
 40
241.2500072169948
100
AcDbArc
 50
0.0
 51
90.00019836425781
  0
ARC
  5
1A8
330
1F
100
AcDbEntity
  8
0-0
  6
Continuous
 62
     3
370
    13
100
AcDbCircle
 10
-404.9601374445734
 20
776.0340840107688
 30
0.0
 40
337.0833422686603
100
AcDbArc
 50
0.0
 51
90.00022888183595
  0
ARC
  5
1A9
330
1F
100
AcDbEntity
  8
0-0
  6
Continuous
 62
     3
370
    13
100
AcDbCircle
 10
-404.9603848843961
 20
776.0335891311234
 30
0.0
 40
246.2500082479941
100
AcDbArc
 50
0.0
 51
90.00019836425781
  0
CIRCLE
  5
1AA
330
1F
100
AcDbEntity
  8
0-0
  6
Continuous
 62
     2
370
    13
100
AcDbCircle
 10
-113.2937869510135
 20
-381.8812272355362
 30
0.0
 40
11.66665521827904
  0
TEXT
  5
1AB
330
1F
100
AcDbEntity
  8
0-F
  6
Continuous
 62
     2
370
    13
100
AcDbText
 10
-1190.413900839316
 20
337.0862115313557
 30
0.0
 40
30.48
  1
φ60.5
 41
1.104166666666667
  7
ＭＳ ゴシック
100
AcDbText
  0
TEXT
  5
1AC
330
1F
100
AcDbEntity
  8
0-F
  6
Continuous
 62
     2
370
    13
100
AcDbText
 10
-1048.60004000156
 20
837.7652827650751
 30
0.0
 40
30.48
  1
R175
 50
329.9999479387552
 41
1.093749999999999
  7
ＭＳ ゴシック
100
AcDbText
  0
TEXT
  5
1AD
330
1F
100
AcDbEntity
  8
0-F
  6
Continuous
 62
     2
370
    13
100
AcDbText
 10
123.279171778888
 20
-652.7105661423795
 30
0.0
 40
30.48
  1
G.L.
 50
0.0000810129783828
 41
1.09375
  7
ＭＳ ゴシック
100
AcDbText
  0
TEXT
  5
1AE
330
1F
100
AcDbEntity
  8
0-F
  6
Continuous
 62
     2
370
    13
100
AcDbText
 10
-1487.333163301719
 20
-514.3809078722976
 30
0.0
 40
30.48
  1
220
 50
90.00000250447816
 41
1.083333333333333
  7
ＭＳ ゴシック
100
AcDbText
  0
TEXT
  5
1AF
330
1F
100
AcDbEntity
  8
0-F
  6
Continuous
 62
     2
370
    13
100
AcDbText
 10
945.8723519751658
 20
-885.9425178816701
 30
0.0
 40
30.48
  1
400
 50
0.0000545279424189
 41
1.083333333333333
  7
ＭＳ ゴシック
100
AcDbText
  0
TEXT
  5
1B0
330
1F
100
AcDbEntity
  8
0-F
  6
Continuous
 62
     2
370
    13
100
AcDbText
 10
945.8728468548107
 20
-805.3360263804033
 30
0.0
 40
30.48
  1
320
 50
0.0000545279424189
 41
1.083333333333333
  7
ＭＳ ゴシック
100
AcDbText
  0
TEXT
  5
1B1
330
1F
100
AcDbEntity
  8
0-F
  6
Continuous
 62
     2
370
    13
100
AcDbText
 10
-145.7935448787197
 20
-902.9021670449936
 30
0.0
 40
30.48
  1
120
 50
0.0000545279424189
 41
1.083333333333333
  7
ＭＳ ゴシック
100
AcDbText
  0
TEXT
  5
1B2
330
1F
100
AcDbEntity
  8
0-F
  6
Continuous
 62
     7
370
    13
100
AcDbText
 10
1328.192650047509
 20
-443.2688040408572
 30
0.0
 40
22.86
  1
アンカー穴：φ１４
 41
1.148148148148148
  7
ＭＳ ゴシック
100
AcDbText
  0
TEXT
  5
1B3
330
1F
100
AcDbEntity
  8
0-F
  6
Continuous
 62
     7
370
    13
100
AcDbText
 10
1260.575198611698
 20
-319.1584326831713
 30
0.0
 40
22.86
  1
支持脚：ＦＣＤ５００
 41
1.15
  7
ＭＳ ゴシック
100
AcDbText
  0
TEXT
  5
1B4
330
1F
100
AcDbEntity
  8
0-F
  6
Continuous
 62
     7
370
    13
100
AcDbText
 10
1165.180829022382
 20
-180.5896576092693
 30
0.0
 40
22.86
  1
六角ボルト：Ｍ１２×９０
 41
1.152777777777778
  7
ＭＳ ゴシック
100
AcDbText
  0
TEXT
  5
1B5
330
1F
100
AcDbEntity
  8
0-F
  6
Continuous
 62
     7
370
    13
100
AcDbText
 10
1165.180779534418
 20
-144.6637460409628
 30
0.0
 40
22.86
  1
六角ナット：Ｍ１２
 41
1.148148148148148
  7
ＭＳ ゴシック
100
AcDbText
  0
TEXT
  5
1B6
330
1F
100
AcDbEntity
  8
0-F
  6
Continuous
 62
     2
370
    13
100
AcDbText
 10
239.8936668602197
 20
-992.255223256704
 30
0.0
 40
30.48
  1
注記
 41
1.0625
  7
ＭＳ ゴシック
100
AcDbText
  0
TEXT
  5
1B7
330
1F
100
AcDbEntity
  8
0-F
  6
Continuous
 62
     7
370
    13
100
AcDbText
 10
1165.180787782411
 20
-224.9604428842905
 30
0.0
 40
22.86
  1
溶融亜鉛めっき
 41
1.142857142857143
  7
ＭＳ ゴシック
100
AcDbText
  0
TEXT
  5
1B8
330
1F
100
AcDbEntity
  8
0-F
  6
Continuous
 62
     7
370
    13
100
AcDbText
 10
1181.980219660579
 20
872.2198978568415
 30
0.0
 40
22.86
  1
ヘアライン仕上
 41
1.142857142857143
  7
ＭＳ ゴシック
100
AcDbText
  0
TEXT
  5
1B9
330
1F
100
AcDbEntity
  8
0-F
  6
Continuous
 62
     7
370
    13
100
AcDbText
 10
1154.196678367821
 20
917.1010277660474
 30
0.0
 40
22.86
  1
本体：ＳＵＳ３０４
 41
1.148148148148148
  7
ＭＳ ゴシック
100
AcDbText
  0
TEXT
  5
1BA
330
1F
100
AcDbEntity
  8
0-F
  6
Continuous
 62
     2
370
    13
100
AcDbText
 10
-20.97865749049816
 20
337.0863352512669
 30
0.0
 40
30.48
  1
3
 41
0.9999999999999998
  7
ＭＳ ゴシック
100
AcDbText
  0
TEXT
  5
1BB
330
1F
100
AcDbEntity
  8
0-F
  6
Continuous
 62
     2
370
    13
100
AcDbText
 10
265.7345993454395
 20
-1060.671932125607
 30
0.0
 40
30.48
  1
一定の場所に固定したい場合には、
 41
1.1171875
  7
ＭＳ ゴシック
100
AcDbText
  0
TEXT
  5
1BC
330
1F
100
AcDbEntity
  8
0-F
  6
Continuous
 62
     2
370
    13
100
AcDbText
 10
-1601.955299518819
 20
182.701617844948
 30
0.0
 40
30.48
  1
1070
 50
90.00000250447816
 41
1.09375
  7
ＭＳ ゴシック
100
AcDbText
  0
TEXT
  5
1BD
330
1F
100
AcDbEntity
  8
0-F
  6
Continuous
 62
     2
370
    13
100
AcDbText
 10
-1488.332882045121
 20
377.2847930917281
 30
0.0
 40
30.48
  1
850
 50
90.00000250447816
 41
1.083333333333333
  7
ＭＳ ゴシック
100
AcDbText
  0
TEXT
  5
1BE
330
1F
100
AcDbEntity
  8
0-F
  6
Continuous
 62
     2
370
    13
100
AcDbText
 10
-720.3771395296662
 20
1229.755930505701
 30
0.0
 40
30.48
  1
750
 41
1.083333333333333
  7
ＭＳ ゴシック
100
AcDbText
  0
TEXT
  5
1BF
330
1F
100
AcDbEntity
  8
0-5
  6
Continuous
 62
     2
370
    13
100
AcDbText
 10
-833.8513513513512
 20
-1353.414058178051
 30
0.0
 40
30.48
  1
アーチ型据置式ステンレス製車止め　　ＹＡ６Ｈ７Ａ－Ｓ
 41
1.120192307692307
  7
ＭＳ ゴシック
100
AcDbText
  0
TEXT
  5
1C0
330
1F
100
AcDbEntity
  8
0-F
  6
Continuous
 62
     2
370
    13
100
AcDbText
 10
-742.8769539497994
 20
-804.33606019716
 30
0.0
 40
30.48
  1
689.5
 41
1.1
  7
ＭＳ ゴシック
100
AcDbText
  0
TEXT
  5
1C1
330
1F
100
AcDbEntity
  8
0-F
  6
Continuous
 62
     2
370
    13
100
AcDbText
 10
265.7345746014572
 20
-1118.222321183488
 30
0.0
 40
30.48
  1
Ｍ１２のアンカーボルトで固定できます。
 41
1.118421052631579
  7
ＭＳ ゴシック
100
AcDbText
  0
TEXT
  5
1C2
330
1F
100
AcDbEntity
  8
0-F
  6
Continuous
 62
     7
370
    13
100
AcDbText
 10
1260.575248099663
 20
-363.5292179581924
 30
0.0
 40
22.86
  1
溶融亜鉛めっき＋樹脂系塗装
 41
1.153846153846154
  7
ＭＳ ゴシック
100
AcDbText
  0
ENDSEC
  0
SECTION
  2
OBJECTS
  0
DICTIONARY
  5
C
330
0
100
AcDbDictionary
281
     1
  3
ACAD_GROUP
350
D
  3
ACAD_LAYOUT
350
1A
  3
ACAD_MLEADERSTYLE
350
1C4
  3
ACAD_MLINESTYLE
350
17
  3
ACAD_PLOTSETTINGS
350
19
  3
ACAD_PLOTSTYLENAME
350
E
  3
ACAD_TABLESTYLE
350
1C3
  3
ACAD_VISUALSTYLE
350
2A
  0
DICTIONARY
  5
D
102
{ACAD_REACTORS
330
C
102
}
330
C
100
AcDbDictionary
281
     1
  0
DICTIONARY
  5
1A
102
{ACAD_REACTORS
330
C
102
}
330
C
100
AcDbDictionary
281
     1
  3
Layout1
350
1E
  3
Layout2
350
26
  3
Model
350
22
  0
DICTIONARY
  5
1C4
102
{ACAD_REACTORS
330
C
102
}
330
C
100
AcDbDictionary
281
     1
  0
DICTIONARY
  5
17
102
{ACAD_REACTORS
330
C
102
}
330
C
100
AcDbDictionary
281
     1
  3
Standard
350
18
  0
DICTIONARY
  5
19
102
{ACAD_REACTORS
330
C
102
}
330
C
100
AcDbDictionary
281
     1
  0
ACDBDICTIONARYWDFLT
  5
E
102
{ACAD_REACTORS
330
C
102
}
330
C
100
AcDbDictionary
281
     1
  3
Normal
350
F
100
AcDbDictionaryWithDefault
340
F
  0
DICTIONARY
  5
1C3
102
{ACAD_REACTORS
330
C
102
}
330
C
100
AcDbDictionary
281
     1
  0
DICTIONARY
  5
2A
102
{ACAD_REACTORS
330
C
102
}
330
C
100
AcDbDictionary
281
     1
  3
2dWireframe
350
2F
  3
3D Hidden
350
31
  3
3dWireframe
350
30
  3
Basic
350
32
  3
Brighten
350
36
  3
ColorChange
350
3A
  3
Conceptual
350
34
  3
Dim
350
35
  3
Facepattern
350
39
  3
Flat
350
2B
  3
FlatWithEdges
350
2C
  3
Gouraud
350
2D
  3
GouraudWithEdges
350
2E
  3
Linepattern
350
38
  3
Realistic
350
33
  3
Thicken
350
37
  0
LAYOUT
  5
1E
102
{ACAD_REACTORS
330
1A
102
}
330
1A
100
AcDbPlotSettings
  1

  2
none_device
  4

  6

 40
0.0
 41
0.0
 42
0.0
 43
0.0
 44
0.0
 45
0.0
 46
0.0
 47
0.0
 48
0.0
 49
0.0
140
0.0
141
0.0
142
1.0
143
1.0
 70
   688
 72
     0
 73
     0
 74
     5
  7

 75
    16
 76
     0
 77
     5
 78
   300
147
1.0
148
0.0
149
0.0
100
AcDbLayout
  1
Layout1
 70
     1
 71
     1
 10
0.0
 20
0.0
 11
420.0
 21
297.0
 12
0.0
 22
0.0
 32
0.0
 14
1.000000000000000E+20
 24
1.000000000000000E+20
 34
1.000000000000000E+20
 15
-1.000000000000000E+20
 25
-1.000000000000000E+20
 35
-1.000000000000000E+20
146
0.0
 13
0.0
 23
0.0
 33
0.0
 16
1.0
 26
0.0
 36
0.0
 17
0.0
 27
1.0
 37
0.0
 76
     0
330
1B
  0
LAYOUT
  5
26
102
{ACAD_REACTORS
330
1A
102
}
330
1A
100
AcDbPlotSettings
  1

  2
none_device
  4

  6

 40
0.0
 41
0.0
 42
0.0
 43
0.0
 44
0.0
 45
0.0
 46
0.0
 47
0.0
 48
0.0
 49
0.0
140
0.0
141
0.0
142
1.0
143
1.0
 70
   688
 72
     0
 73
     0
 74
     5
  7

 75
    16
 76
     0
 77
     5
 78
   300
147
1.0
148
0.0
149
0.0
100
AcDbLayout
  1
Layout2
 70
     1
 71
     2
 10
0.0
 20
0.0
 11
0.0
 21
0.0
 12
0.0
 22
0.0
 32
0.0
 14
0.0
 24
0.0
 34
0.0
 15
0.0
 25
0.0
 35
0.0
146
0.0
 13
0.0
 23
0.0
 33
0.0
 16
1.0
 26
0.0
 36
0.0
 17
0.0
 27
1.0
 37
0.0
 76
     0
330
23
  0
LAYOUT
  5
22
102
{ACAD_REACTORS
330
1A
102
}
330
1A
100
AcDbPlotSettings
  1

  2
none_device
  4

  6

 40
0.0
 41
0.0
 42
0.0
 43
0.0
 44
0.0
 45
0.0
 46
0.0
 47
0.0
 48
0.0
 49
0.0
140
0.0
141
0.0
142
1.0
143
1.0
 70
  1712
 72
     0
 73
     0
 74
     0
  7

 75
     0
 76
     0
 77
     5
 78
   300
147
1.0
148
0.0
149
0.0
100
AcDbLayout
  1
Model
 70
     1
 71
     0
 10
-2100.0
 20
-1485.0
 11
2100.0
 21
1485.0
 12
0.0
 22
0.0
 32
0.0
 14
-2100.0
 24
-1485.0
 34
0.0
 15
2100.0
 25
1485.0
 35
0.0
146
0.0
 13
0.0
 23
0.0
 33
0.0
 16
1.0
 26
0.0
 36
0.0
 17
0.0
 27
1.0
 37
0.0
 76
     0
330
1F
331
29
  0
MLINESTYLE
  5
18
102
{ACAD_REACTORS
330
17
102
}
330
17
100
AcDbMlineStyle
  2
Standard
 70
     0
  3

 62
   256
 51
90.0
 52
90.0
 71
     2
 49
0.5
 62
   256
  6
BYLAYER
 49
-0.5
 62
   256
  6
BYLAYER
  0
ACDBPLACEHOLDER
  5
F
102
{ACAD_REACTORS
330
E
102
}
330
E
  0
VISUALSTYLE
  5
2F
102
{ACAD_REACTORS
330
2A
102
}
330
2A
100
AcDbVisualStyle
  2
2dWireframe
 70
     4
 71
     0
 72
     2
 73
     0
 90
        0
 40
-0.6
 41
-30.0
 62
     5
 63
     7
421
 16777215
 74
     1
 91
        4
 64
     7
 65
   257
 75
     1
175
     1
 42
1.0
 92
        0
 66
   257
 43
1.0
 76
     1
 77
     6
 78
     2
 67
     7
 79
     5
170
     0
171
     0
290
     0
174
     0
 93
        1
 44
0.0
173
     0
291
     0
 45
0.0
1001
ACAD
1000
AcDbSavedByObjectVersion
1070
     0
  0
VISUALSTYLE
  5
31
102
{ACAD_REACTORS
330
2A
102
}
330
2A
100
AcDbVisualStyle
  2
3D Hidden
 70
     6
 71
     1
 72
     2
 73
     2
 90
        0
 40
-0.6
 41
-30.0
 62
     5
 63
     7
421
 16777215
 74
     2
 91
        2
 64
     7
 65
   257
 75
     2
175
     1
 42
40.0
 92
        0
 66
   257
 43
1.0
 76
     1
 77
     6
 78
     2
 67
     7
 79
     3
170
     0
171
     0
290
     0
174
     0
 93
        1
 44
0.0
173
     0
291
     0
 45
0.0
1001
ACAD
1000
AcDbSavedByObjectVersion
1070
     0
  0
VISUALSTYLE
  5
30
102
{ACAD_REACTORS
330
2A
102
}
330
2A
100
AcDbVisualStyle
  2
3dWireframe
 70
     5
 71
     0
 72
     2
 73
     0
 90
        0
 40
-0.6
 41
-30.0
 62
     5
 63
     7
421
 16777215
 74
     1
 91
        4
 64
     7
 65
   257
 75
     1
175
     1
 42
1.0
 92
        0
 66
   257
 43
1.0
 76
     1
 77
     6
 78
     2
 67
     7
 79
     5
170
     0
171
     0
290
     0
174
     0
 93
        1
 44
0.0
173
     0
291
     0
 45
0.0
1001
ACAD
1000
AcDbSavedByObjectVersion
1070
     0
  0
VISUALSTYLE
  5
32
102
{ACAD_REACTORS
330
2A
102
}
330
2A
100
AcDbVisualStyle
  2
Basic
 70
     7
 71
     1
 72
     0
 73
     1
 90
        0
 40
-0.6
 41
-30.0
 62
     5
 63
     7
421
 16777215
 74
     0
 91
        4
 64
     7
 65
   257
 75
     1
175
     1
 42
1.0
 92
        8
 66
     7
 43
1.0
 76
     1
 77
     6
 78
     2
 67
     7
 79
     5
170
     0
171
     0
290
     0
174
     0
 93
        1
 44
0.0
173
     0
291
     1
 45
0.0
1001
ACAD
1000
AcDbSavedByObjectVersion
1070
     0
  0
VISUALSTYLE
  5
36
102
{ACAD_REACTORS
330
2A
102
}
330
2A
100
AcDbVisualStyle
  2
Brighten
 70
    12
 71
     2
 72
     2
 73
     0
 90
        0
 40
-0.6
 41
-30.0
 62
     5
 63
     7
421
 16777215
 74
     1
 91
        4
 64
     7
 65
   257
 75
     1
175
     1
 42
1.0
 92
        8
 66
     7
 43
1.0
 76
     1
 77
     6
 78
     2
 67
     7
 79
     5
170
     0
171
     0
290
     0
174
     0
 93
        1
 44
50.0
173
     0
291
     1
 45
0.0
1001
ACAD
1000
AcDbSavedByObjectVersion
1070
     0
  0
VISUALSTYLE
  5
3A
102
{ACAD_REACTORS
330
2A
102
}
330
2A
100
AcDbVisualStyle
  2
ColorChange
 70
    16
 71
     2
 72
     2
 73
     3
 90
        0
 40
-0.6
 41
-30.0
 62
     5
 63
     8
421
  8421504
 74
     1
 91
        4
 64
     7
 65
   257
 75
     1
175
     1
 42
1.0
 92
        8
 66
     8
424
  8421504
 43
1.0
 76
     1
 77
     6
 78
     2
 67
     7
 79
     5
170
     0
171
     0
290
     0
174
     0
 93
        1
 44
0.0
173
     0
291
     1
 45
0.0
1001
ACAD
1000
AcDbSavedByObjectVersion
1070
     0
  0
VISUALSTYLE
  5
34
102
{ACAD_REACTORS
330
2A
102
}
330
2A
100
AcDbVisualStyle
  2
Conceptual
 70
     9
 71
     3
 72
     2
 73
     0
 90
        0
 40
-0.6
 41
-30.0
 62
     5
 63
     7
421
 16777215
 74
     2
 91
        2
 64
     7
 65
   257
 75
     1
175
     1
 42
40.0
 92
        8
 66
     7
 43
1.0
 76
     1
 77
     6
 78
     2
 67
     7
 79
     3
170
     0
171
     0
290
     0
174
     0
 93
        1
 44
0.0
173
     0
291
     0
 45
0.0
1001
ACAD
1000
AcDbSavedByObjectVersion
1070
     0
  0
VISUALSTYLE
  5
35
102
{ACAD_REACTORS
330
2A
102
}
330
2A
100
AcDbVisualStyle
  2
Dim
 70
    11
 71
     2
 72
     2
 73
     0
 90
        0
 40
-0.6
 41
-30.0
 62
     5
 63
     7
421
 16777215
 74
     1
 91
        4
 64
     7
 65
   257
 75
     1
175
     1
 42
1.0
 92
        8
 66
     7
 43
1.0
 76
     1
 77
     6
 78
     2
 67
     7
 79
     5
170
     0
171
     0
290
     0
174
     0
 93
        1
 44
-50.0
173
     0
291
     1
 45
0.0
1001
ACAD
1000
AcDbSavedByObjectVersion
1070
     0
  0
VISUALSTYLE
  5
39
102
{ACAD_REACTORS
330
2A
102
}
330
2A
100
AcDbVisualStyle
  2
Facepattern
 70
    15
 71
     2
 72
     2
 73
     0
 90
        0
 40
-0.6
 41
-30.0
 62
     5
 63
     7
421
 16777215
 74
     1
 91
        4
 64
     7
 65
   257
 75
     1
175
     1
 42
1.0
 92
        8
 66
     7
 43
1.0
 76
     1
 77
     6
 78
     2
 67
     7
 79
     5
170
     0
171
     0
290
     0
174
     0
 93
        1
 44
0.0
173
     0
291
     1
 45
0.0
1001
ACAD
1000
AcDbSavedByObjectVersion
1070
     0
  0
VISUALSTYLE
  5
2B
102
{ACAD_REACTORS
330
2A
102
}
330
2A
100
AcDbVisualStyle
  2
Flat
 70
     0
 71
     2
 72
     1
 73
     1
 90
        2
 40
-0.6
 41
30.0
 62
     5
 63
     7
421
 16777215
 74
     0
 91
        4
 64
     7
 65
   257
 75
     1
175
     1
 42
1.0
 92
        8
 66
     7
 43
1.0
 76
     1
 77
     6
 78
     2
 67
     7
 79
     5
170
     0
171
     0
290
     0
174
     0
 93
       13
 44
0.0
173
     0
291
     1
 45
0.0
1001
ACAD
1000
AcDbSavedByObjectVersion
1070
     0
  0
VISUALSTYLE
  5
2C
102
{ACAD_REACTORS
330
2A
102
}
330
2A
100
AcDbVisualStyle
  2
FlatWithEdges
 70
     1
 71
     2
 72
     1
 73
     1
 90
        2
 40
-0.6
 41
30.0
 62
     5
 63
     7
421
 16777215
 74
     1
 91
        4
 64
     7
 65
   257
 75
     1
175
     1
 42
1.0
 92
        0
 66
   257
 43
1.0
 76
     1
 77
     6
 78
     2
 67
     7
 79
     5
170
     0
171
     0
290
     0
174
     0
 93
       13
 44
0.0
173
     0
291
     1
 45
0.0
1001
ACAD
1000
AcDbSavedByObjectVersion
1070
     0
  0
VISUALSTYLE
  5
2D
102
{ACAD_REACTORS
330
2A
102
}
330
2A
100
AcDbVisualStyle
  2
Gouraud
 70
     2
 71
     2
 72
     2
 73
     1
 90
        2
 40
-0.6
 41
30.0
 62
     5
 63
     7
421
 16777215
 74
     0
 91
        4
 64
     7
 65
   257
 75
     1
175
     1
 42
1.0
 92
        0
 66
     7
 43
1.0
 76
     1
 77
     6
 78
     2
 67
     7
 79
     5
170
     0
171
     0
290
     0
174
     0
 93
       13
 44
0.0
173
     0
291
     1
 45
0.0
1001
ACAD
1000
AcDbSavedByObjectVersion
1070
     0
  0
VISUALSTYLE
  5
2E
102
{ACAD_REACTORS
330
2A
102
}
330
2A
100
AcDbVisualStyle
  2
GouraudWithEdges
 70
     3
 71
     2
 72
     2
 73
     1
 90
        2
 40
-0.6
 41
30.0
 62
     5
 63
     7
421
 16777215
 74
     1
 91
        4
 64
     7
 65
   257
 75
     1
175
     1
 42
1.0
 92
        0
 66
   257
 43
1.0
 76
     1
 77
     6
 78
     2
 67
     7
 79
     5
170
     0
171
     0
290
     0
174
     0
 93
       13
 44
0.0
173
     0
291
     1
 45
0.0
1001
ACAD
1000
AcDbSavedByObjectVersion
1070
     0
  0
VISUALSTYLE
  5
38
102
{ACAD_REACTORS
330
2A
102
}
330
2A
100
AcDbVisualStyle
  2
Linepattern
 70
    14
 71
     2
 72
     2
 73
     0
 90
        0
 40
-0.6
 41
-30.0
 62
     5
 63
     7
421
 16777215
 74
     1
 91
        4
 64
     7
 65
   257
 75
     7
175
     7
 42
1.0
 92
        8
 66
     7
 43
1.0
 76
     1
 77
     6
 78
     2
 67
     7
 79
     5
170
     0
171
     0
290
     0
174
     0
 93
        1
 44
0.0
173
     0
291
     1
 45
0.0
1001
ACAD
1000
AcDbSavedByObjectVersion
1070
     0
  0
VISUALSTYLE
  5
33
102
{ACAD_REACTORS
330
2A
102
}
330
2A
100
AcDbVisualStyle
  2
Realistic
 70
     8
 71
     2
 72
     2
 73
     0
 90
        0
 40
-0.6
 41
-30.0
 62
     5
 63
     7
421
 16777215
 74
     1
 91
        0
 64
     7
 65
   257
 75
     1
175
     1
 42
1.0
 92
        8
 66
     8
424
  7895160
 43
1.0
 76
     1
 77
     6
 78
     2
 67
     7
 79
     5
170
     0
171
     0
290
     0
174
     0
 93
       13
 44
0.0
173
     0
291
     0
 45
0.0
1001
ACAD
1000
AcDbSavedByObjectVersion
1070
     0
  0
VISUALSTYLE
  5
37
102
{ACAD_REACTORS
330
2A
102
}
330
2A
100
AcDbVisualStyle
  2
Thicken
 70
    13
 71
     2
 72
     2
 73
     0
 90
        0
 40
-0.6
 41
-30.0
 62
     5
 63
     7
421
 16777215
 74
     1
 91
        4
 64
     7
 65
   257
 75
     1
175
     1
 42
1.0
 92
       12
 66
     7
 43
1.0
 76
     1
 77
     6
 78
     2
 67
     7
 79
     5
170
     0
171
     0
290
     0
174
     0
 93
        1
 44
0.0
173
     0
291
     1
 45
0.0
1001
ACAD
1000
AcDbSavedByObjectVersion
1070
     0
  0
ENDSEC
  0
EOF
