  0
SECTION
  2
HEADER
  9
$ACADVER
  1
AC1018
  9
$ACADMAINTVER
 70
     0
  9
$DWGCODEPAGE
  3
ANSI_932
  9
$INSBASE
 10
0.0
 20
0.0
 30
0.0
  9
$EXTMIN
 10
-2100.0
 20
-1485.0
 30
0.0
  9
$EXTMAX
 10
2100.0
 20
1485.0
 30
0.0
  9
$LIMMIN
 10
-2100.0
 20
-1485.0
  9
$LIMMAX
 10
2100.0
 20
1485.0
  9
$ORTHOMODE
 70
     0
  9
$REGENMODE
 70
     1
  9
$FILLMODE
 70
     1
  9
$QTEXTMODE
 70
     0
  9
$MIRRTEXT
 70
     1
  9
$LTSCALE
 40
10.0
  9
$ATTMODE
 70
     1
  9
$TEXTSIZE
 40
2.5
  9
$TRACEWID
 40
1.0
  9
$TEXTSTYLE
  7
Standard
  9
$CLAYER
  8
0
  9
$CELTYPE
  6
ByLayer
  9
$CECOLOR
 62
   256
  9
$CELTSCALE
 40
1.0
  9
$DISPSILH
 70
     0
  9
$DIMSCALE
 40
1.0
  9
$DIMASZ
 40
2.5
  9
$DIMEXO
 40
0.625
  9
$DIMDLI
 40
3.75
  9
$DIMRND
 40
0.0
  9
$DIMDLE
 40
0.0
  9
$DIMEXE
 40
1.25
  9
$DIMTP
 40
0.0
  9
$DIMTM
 40
0.0
  9
$DIMTXT
 40
2.5
  9
$DIMCEN
 40
2.5
  9
$DIMTSZ
 40
0.0
  9
$DIMTOL
 70
     0
  9
$DIMLIM
 70
     0
  9
$DIMTIH
 70
     0
  9
$DIMTOH
 70
     0
  9
$DIMSE1
 70
     0
  9
$DIMSE2
 70
     0
  9
$DIMTAD
 70
     1
  9
$DIMZIN
 70
     8
  9
$DIMBLK
  1

  9
$DIMASO
 70
     1
  9
$DIMSHO
 70
     1
  9
$DIMPOST
  1

  9
$DIMAPOST
  1

  9
$DIMALT
 70
     0
  9
$DIMALTD
 70
     3
  9
$DIMALTF
 40
0.03937007874016
  9
$DIMLFAC
 40
1.0
  9
$DIMTOFL
 70
     1
  9
$DIMTVP
 40
0.0
  9
$DIMTIX
 70
     0
  9
$DIMSOXD
 70
     0
  9
$DIMSAH
 70
     0
  9
$DIMBLK1
  1

  9
$DIMBLK2
  1

  9
$DIMSTYLE
  2
ISO-25
  9
$DIMCLRD
 70
     0
  9
$DIMCLRE
 70
     0
  9
$DIMCLRT
 70
     0
  9
$DIMTFAC
 40
1.0
  9
$DIMGAP
 40
0.625
  9
$DIMJUST
 70
     0
  9
$DIMSD1
 70
     0
  9
$DIMSD2
 70
     0
  9
$DIMTOLJ
 70
     0
  9
$DIMTZIN
 70
     8
  9
$DIMALTZ
 70
     0
  9
$DIMALTTZ
 70
     0
  9
$DIMUPT
 70
     0
  9
$DIMDEC
 70
     2
  9
$DIMTDEC
 70
     2
  9
$DIMALTU
 70
     2
  9
$DIMALTTD
 70
     3
  9
$DIMTXSTY
  7
Standard
  9
$DIMAUNIT
 70
     0
  9
$DIMADEC
 70
     0
  9
$DIMALTRND
 40
0.0
  9
$DIMAZIN
 70
     0
  9
$DIMDSEP
 70
    44
  9
$DIMATFIT
 70
     3
  9
$DIMFRAC
 70
     0
  9
$DIMLDRBLK
  1

  9
$DIMLUNIT
 70
     2
  9
$DIMLWD
 70
    -2
  9
$DIMLWE
 70
    -2
  9
$DIMTMOVE
 70
     0
  9
$LUNITS
 70
     2
  9
$LUPREC
 70
     4
  9
$SKETCHINC
 40
1.0
  9
$FILLETRAD
 40
10.0
  9
$AUNITS
 70
     0
  9
$AUPREC
 70
     0
  9
$MENU
  1
.
  9
$ELEVATION
 40
0.0
  9
$PELEVATION
 40
0.0
  9
$THICKNESS
 40
0.0
  9
$LIMCHECK
 70
     0
  9
$CHAMFERA
 40
10.0
  9
$CHAMFERB
 40
10.0
  9
$CHAMFERC
 40
20.0
  9
$CHAMFERD
 40
0.0
  9
$SKPOLY
 70
     0
  9
$TDCREATE
 40
2456499.588115995
  9
$TDUCREATE
 40
2456499.213115995
  9
$TDUPDATE
 40
2456499.588116007
  9
$TDUUPDATE
 40
2456499.213116007
  9
$TDINDWG
 40
0.0000000116
  9
$TDUSRTIMER
 40
0.0000000116
  9
$USRTIMER
 70
     1
  9
$ANGBASE
 50
0.0
  9
$ANGDIR
 70
     0
  9
$PDMODE
 70
     0
  9
$PDSIZE
 40
0.0
  9
$PLINEWID
 40
0.0
  9
$SPLFRAME
 70
     0
  9
$SPLINETYPE
 70
     6
  9
$SPLINESEGS
 70
     8
  9
$HANDSEED
  5
1BB
  9
$SURFTAB1
 70
     6
  9
$SURFTAB2
 70
     6
  9
$SURFTYPE
 70
     6
  9
$SURFU
 70
     6
  9
$SURFV
 70
     6
  9
$UCSBASE
  2

  9
$UCSNAME
  2

  9
$UCSORG
 10
0.0
 20
0.0
 30
0.0
  9
$UCSXDIR
 10
1.0
 20
0.0
 30
0.0
  9
$UCSYDIR
 10
0.0
 20
1.0
 30
0.0
  9
$UCSORTHOREF
  2

  9
$UCSORTHOVIEW
 70
     0
  9
$UCSORGTOP
 10
0.0
 20
0.0
 30
0.0
  9
$UCSORGBOTTOM
 10
0.0
 20
0.0
 30
0.0
  9
$UCSORGLEFT
 10
0.0
 20
0.0
 30
0.0
  9
$UCSORGRIGHT
 10
0.0
 20
0.0
 30
0.0
  9
$UCSORGFRONT
 10
0.0
 20
0.0
 30
0.0
  9
$UCSORGBACK
 10
0.0
 20
0.0
 30
0.0
  9
$PUCSBASE
  2

  9
$PUCSNAME
  2

  9
$PUCSORG
 10
0.0
 20
0.0
 30
0.0
  9
$PUCSXDIR
 10
1.0
 20
0.0
 30
0.0
  9
$PUCSYDIR
 10
0.0
 20
1.0
 30
0.0
  9
$PUCSORTHOREF
  2

  9
$PUCSORTHOVIEW
 70
     0
  9
$PUCSORGTOP
 10
0.0
 20
0.0
 30
0.0
  9
$PUCSORGBOTTOM
 10
0.0
 20
0.0
 30
0.0
  9
$PUCSORGLEFT
 10
0.0
 20
0.0
 30
0.0
  9
$PUCSORGRIGHT
 10
0.0
 20
0.0
 30
0.0
  9
$PUCSORGFRONT
 10
0.0
 20
0.0
 30
0.0
  9
$PUCSORGBACK
 10
0.0
 20
0.0
 30
0.0
  9
$USERI1
 70
     0
  9
$USERI2
 70
     0
  9
$USERI3
 70
     0
  9
$USERI4
 70
     0
  9
$USERI5
 70
     0
  9
$USERR1
 40
0.0
  9
$USERR2
 40
0.0
  9
$USERR3
 40
0.0
  9
$USERR4
 40
0.0
  9
$USERR5
 40
0.0
  9
$WORLDVIEW
 70
     1
  9
$SHADEDGE
 70
     3
  9
$SHADEDIF
 70
    70
  9
$TILEMODE
 70
     1
  9
$MAXACTVP
 70
    64
  9
$PINSBASE
 10
0.0
 20
0.0
 30
0.0
  9
$PLIMCHECK
 70
     0
  9
$PEXTMIN
 10
1.000000000000000E+20
 20
1.000000000000000E+20
 30
1.000000000000000E+20
  9
$PEXTMAX
 10
-1.000000000000000E+20
 20
-1.000000000000000E+20
 30
-1.000000000000000E+20
  9
$PLIMMIN
 10
0.0
 20
0.0
  9
$PLIMMAX
 10
420.0
 20
297.0
  9
$UNITMODE
 70
     0
  9
$VISRETAIN
 70
     1
  9
$PLINEGEN
 70
     0
  9
$PSLTSCALE
 70
     1
  9
$TREEDEPTH
 70
  3020
  9
$CMLSTYLE
  2
Standard
  9
$CMLJUST
 70
     0
  9
$CMLSCALE
 40
20.0
  9
$PROXYGRAPHICS
 70
     1
  9
$MEASUREMENT
 70
     1
  9
$CELWEIGHT
370
    -1
  9
$ENDCAPS
280
     0
  9
$JOINSTYLE
280
     0
  9
$LWDISPLAY
290
     0
  9
$INSUNITS
 70
     4
  9
$HYPERLINKBASE
  1

  9
$STYLESHEET
  1

  9
$XEDIT
290
     1
  9
$CEPSNTYPE
380
     0
  9
$PSTYLEMODE
290
     1
  9
$FINGERPRINTGUID
  2
{FD10C992-F204-4283-B4E6-0AEDE1526B77}
  9
$VERSIONGUID
  2
{FAEB1C32-E019-11D5-929B-00C0DF256EC4}
  9
$EXTNAMES
290
     1
  9
$PSVPSCALE
 40
0.0
  9
$OLESTARTUP
290
     0
  9
$SORTENTS
280
   127
  9
$INDEXCTL
280
     0
  9
$HIDETEXT
280
     1
  9
$XCLIPFRAME
290
     0
  9
$HALOGAP
280
     0
  9
$OBSCOLOR
 70
   257
  9
$OBSLTYPE
280
     0
  9
$INTERSECTIONDISPLAY
280
     0
  9
$INTERSECTIONCOLOR
 70
   257
  9
$DIMASSOC
280
     2
  9
$PROJECTNAME
  1

  0
ENDSEC
  0
SECTION
  2
CLASSES
  0
CLASS
  1
ACDBDICTIONARYWDFLT
  2
AcDbDictionaryWithDefault
  3
ObjectDBX Classes
 90
        0
 91
        4
280
     0
281
     0
  0
CLASS
  1
VISUALSTYLE
  2
AcDbVisualStyle
  3
ObjectDBX Classes
 90
     4095
 91
        4
280
     0
281
     0
  0
ENDSEC
  0
SECTION
  2
TABLES
  0
TABLE
  2
VPORT
  5
8
330
0
100
AcDbSymbolTable
 70
     1
  0
VPORT
  5
29
330
8
100
AcDbSymbolTableRecord
100
AcDbViewportTableRecord
  2
*Active
 70
     0
 10
0.0
 20
0.0
 11
1.0
 21
1.0
 12
0.0
 22
0.0
 13
0.0
 23
0.0
 14
10.0
 24
10.0
 15
10.0
 25
10.0
 16
0.0
 26
0.0
 36
1.0
 17
0.0
 27
0.0
 37
0.0
 40
3267.0
 41
1.414141414141414
 42
50.0
 43
0.0
 44
0.0
 50
0.0
 51
0.0
 71
     0
 72
 10000
 73
     1
 74
     3
 75
     0
 76
     0
 77
     0
 78
     0
281
     0
 65
     1
110
0.0
120
0.0
130
0.0
111
1.0
121
0.0
131
0.0
112
0.0
122
1.0
132
0.0
 79
     0
146
0.0
  0
ENDTAB
  0
TABLE
  2
LTYPE
  5
5
330
0
100
AcDbSymbolTable
 70
     3
  0
LTYPE
  5
14
330
5
100
AcDbSymbolTableRecord
100
AcDbLinetypeTableRecord
  2
ByBlock
 70
     0
  3

 72
    65
 73
     0
 40
0.0
  0
LTYPE
  5
15
330
5
100
AcDbSymbolTableRecord
100
AcDbLinetypeTableRecord
  2
ByLayer
 70
     0
  3

 72
    65
 73
     0
 40
0.0
  0
LTYPE
  5
16
330
5
100
AcDbSymbolTableRecord
100
AcDbLinetypeTableRecord
  2
Continuous
 70
     0
  3
Solid line
 72
    65
 73
     0
 40
0.0
  0
LTYPE
  5
3C
330
5
100
AcDbSymbolTableRecord
100
AcDbLinetypeTableRecord
  2
JWW_CENTER1
 70
     0
  3
-----  --  ----------  --  -----
 72
    65
 73
     4
 40
6.773333333333333
 49
4.233333333333333
 74
     0
 49
-0.8466666666666667
 74
     0
 49
0.8466666666666667
 74
     0
 49
-0.8466666666666667
 74
     0
  0
LTYPE
  5
3D
330
5
100
AcDbSymbolTableRecord
100
AcDbLinetypeTableRecord
  2
JWW_DASHED1
 70
     0
  3
-  --  --  --  --  --  --  --  -
 72
    65
 73
     2
 40
1.693333333333333
 49
0.8466666666666667
 74
     0
 49
-0.8466666666666667
 74
     0
  0
ENDTAB
  0
TABLE
  2
LAYER
  5
2
330
0
100
AcDbSymbolTable
 70
     8
  0
LAYER
  5
10
330
2
100
AcDbSymbolTableRecord
100
AcDbLayerTableRecord
  2
0
 70
     0
 62
     7
  6
Continuous
370
    -3
390
F
  0
LAYER
  5
3E
330
2
100
AcDbSymbolTableRecord
100
AcDbLayerTableRecord
  2
1-F
 70
     0
 62
     7
  6
Continuous
370
    -3
390
F
  0
LAYER
  5
3F
330
2
100
AcDbSymbolTableRecord
100
AcDbLayerTableRecord
  2
1-0
 70
     0
 62
     7
  6
Continuous
370
    -3
390
F
  0
LAYER
  5
40
330
2
100
AcDbSymbolTableRecord
100
AcDbLayerTableRecord
  2
1-D
 70
     0
 62
     7
  6
Continuous
370
    -3
390
F
  0
LAYER
  5
41
330
2
100
AcDbSymbolTableRecord
100
AcDbLayerTableRecord
  2
1-1
 70
     0
 62
     7
  6
Continuous
370
    -3
390
F
  0
LAYER
  5
42
330
2
100
AcDbSymbolTableRecord
100
AcDbLayerTableRecord
  2
1-4
 70
     0
 62
     7
  6
Continuous
370
    -3
390
F
  0
LAYER
  5
43
330
2
100
AcDbSymbolTableRecord
100
AcDbLayerTableRecord
  2
0-F
 70
     0
 62
     7
  6
Continuous
370
    -3
390
F
  0
LAYER
  5
44
330
2
100
AcDbSymbolTableRecord
100
AcDbLayerTableRecord
  2
0-5
 70
     0
 62
     7
  6
Continuous
370
    -3
390
F
  0
ENDTAB
  0
TABLE
  2
STYLE
  5
3
330
0
100
AcDbSymbolTable
 70
     2
  0
STYLE
  5
11
330
3
100
AcDbSymbolTableRecord
100
AcDbTextStyleTableRecord
  2
Standard
 70
     0
 40
0.0
 41
1.0
 50
0.0
 71
     0
 42
2.5
  3
txt
  4

1001
ACAD
1000

1071
        0
  0
STYLE
  5
3B
330
3
100
AcDbSymbolTableRecord
100
AcDbTextStyleTableRecord
  2
ＭＳ ゴシック
 70
     0
 40
1.0
 41
1.0
 50
0.0
 71
     0
 42
10.0
  3

  4

1001
ACAD
1000
MS Gothic
1071
    32817
  0
ENDTAB
  0
TABLE
  2
VIEW
  5
6
330
0
100
AcDbSymbolTable
 70
     0
  0
ENDTAB
  0
TABLE
  2
UCS
  5
7
330
0
100
AcDbSymbolTable
 70
     0
  0
ENDTAB
  0
TABLE
  2
APPID
  5
9
330
0
100
AcDbSymbolTable
 70
     1
  0
APPID
  5
12
330
9
100
AcDbSymbolTableRecord
100
AcDbRegAppTableRecord
  2
ACAD
 70
     0
  0
ENDTAB
  0
TABLE
  2
DIMSTYLE
  5
A
330
0
100
AcDbSymbolTable
 70
     1
100
AcDbDimStyleTable
  0
DIMSTYLE
105
27
330
A
100
AcDbSymbolTableRecord
100
AcDbDimStyleTableRecord
  2
ISO-25
 70
     0
 41
2.5
 42
0.625
 43
3.75
 44
1.25
 73
     0
 74
     0
 77
     1
 78
     8
140
2.5
141
2.5
143
0.03937007874016
147
0.625
171
     3
172
     1
271
     2
272
     2
274
     3
278
    44
283
     0
284
     8
340
11
  0
ENDTAB
  0
TABLE
  2
BLOCK_RECORD
  5
1
330
0
100
AcDbSymbolTable
 70
     1
  0
BLOCK_RECORD
  5
1F
330
1
100
AcDbSymbolTableRecord
100
AcDbBlockTableRecord
  2
*Model_Space
340
22
  0
BLOCK_RECORD
  5
1B
330
1
100
AcDbSymbolTableRecord
100
AcDbBlockTableRecord
  2
*Paper_Space
340
1E
  0
BLOCK_RECORD
  5
23
330
1
100
AcDbSymbolTableRecord
100
AcDbBlockTableRecord
  2
*Paper_Space0
340
26
  0
ENDTAB
  0
ENDSEC
  0
SECTION
  2
BLOCKS
  0
BLOCK
  5
20
330
1F
100
AcDbEntity
  8
0
100
AcDbBlockBegin
  2
*Model_Space
 70
     0
 10
0.0
 20
0.0
 30
0.0
  3
*Model_Space
  1

  0
ENDBLK
  5
21
330
1F
100
AcDbEntity
  8
0
100
AcDbBlockEnd
  0
BLOCK
  5
1C
330
1B
100
AcDbEntity
 67
     1
  8
0
100
AcDbBlockBegin
  2
*Paper_Space
 70
     0
 10
0.0
 20
0.0
 30
0.0
  3
*Paper_Space
  1

  0
ENDBLK
  5
1D
330
1B
100
AcDbEntity
 67
     1
  8
0
100
AcDbBlockEnd
  0
BLOCK
  5
24
330
23
100
AcDbEntity
  8
0
100
AcDbBlockBegin
  2
*Paper_Space0
 70
     0
 10
0.0
 20
0.0
 30
0.0
  3
*Paper_Space0
  1

  0
ENDBLK
  5
25
330
23
100
AcDbEntity
  8
0
100
AcDbBlockEnd
  0
ENDSEC
  0
SECTION
  2
ENTITIES
  0
LINE
  5
45
330
1F
100
AcDbEntity
  8
1-F
  6
Continuous
 62
     7
370
    13
100
AcDbLine
 10
-1282.425792797192
 20
530.0848388671875
 30
0.0
 11
-1282.425792797192
 21
793.2207592113599
 31
0.0
  0
LINE
  5
46
330
1F
100
AcDbEntity
  8
1-F
  6
Continuous
 62
     7
370
    13
100
AcDbLine
 10
217.5743309227198
 20
530.0848388671875
 30
0.0
 11
217.5743309227198
 21
793.2207592113599
 31
0.0
  0
LINE
  5
47
330
1F
100
AcDbEntity
  8
1-F
  6
Continuous
 62
     7
370
    13
100
AcDbLine
 10
-1282.425792797192
 20
791.4206345016894
 30
0.0
 11
217.5743309227198
 21
791.4206345016894
 31
0.0
  0
LINE
  5
48
330
1F
100
AcDbEntity
  8
1-F
  6
Continuous
 62
     7
370
    13
100
AcDbLine
 10
-1130.282469053526
 20
484.8420756572003
 30
0.0
 11
-1228.730237806165
 21
541.6811061549834
 31
0.0
  0
LINE
  5
49
330
1F
100
AcDbEntity
  8
1-0
  6
Continuous
 62
     3
370
    13
100
AcDbLine
 10
-532.4256690772802
 20
598.9297732791385
 30
0.0
 11
-1077.175202240815
 21
598.9307630384292
 31
0.0
  0
LINE
  5
4A
330
1F
100
AcDbEntity
  8
1-0
  6
JWW_CENTER1
 62
     3
370
    13
100
AcDbLine
 10
-532.4256690772802
 20
629.1797864759292
 30
0.0
 11
-1077.174954800992
 21
629.1810236750425
 31
0.0
  0
LINE
  5
4B
330
1F
100
AcDbEntity
  8
1-0
  6
Continuous
 62
     3
370
    13
100
AcDbLine
 10
-532.4256690772802
 20
659.4297996727198
 30
0.0
 11
-1077.174954800992
 21
659.4310368718328
 31
0.0
  0
LINE
  5
4C
330
1F
100
AcDbEntity
  8
1-0
  6
Continuous
 62
     3
370
    13
100
AcDbLine
 10
898.6655570365286
 20
-240.5684682485219
 30
0.0
 11
959.1655834301099
 21
-240.5682208086992
 31
0.0
  0
LINE
  5
4D
330
1F
100
AcDbEntity
  8
1-0
  6
Continuous
 62
     3
370
    13
100
AcDbLine
 10
877.0269445470865
 20
629.1815185546875
 30
0.0
 11
984.0540705500422
 21
629.1820134343328
 31
0.0
  0
LINE
  5
4E
330
1F
100
AcDbEntity
  8
1-0
  6
Continuous
 62
     3
370
    13
100
AcDbLine
 10
898.6655570365286
 20
9.431861671241677
 30
0.0
 11
898.6655570365286
 21
-240.5684682485219
 31
0.0
  0
LINE
  5
4F
330
1F
100
AcDbEntity
  8
1-0
  6
Continuous
 62
     3
370
    13
100
AcDbLine
 10
959.1655834301099
 20
9.431861671241677
 30
0.0
 11
959.1655834301099
 21
-240.5682208086992
 31
0.0
  0
LINE
  5
50
330
1F
100
AcDbEntity
  8
1-0
  6
JWW_CENTER1
 62
     3
370
    13
100
AcDbLine
 10
928.9155702333193
 20
678.4683145059123
 30
0.0
 11
928.9155702333193
 21
-282.4714124524916
 31
0.0
  0
LINE
  5
51
330
1F
100
AcDbEntity
  8
1-0
  6
Continuous
 62
     3
370
    13
100
AcDbLine
 10
898.6655570365286
 20
629.1817659945102
 30
0.0
 11
898.6655570365286
 21
9.431861671241677
 31
0.0
  0
LINE
  5
52
330
1F
100
AcDbEntity
  8
1-0
  6
Continuous
 62
     3
370
    13
100
AcDbLine
 10
959.1655834301099
 20
629.1817659945102
 30
0.0
 11
959.1655834301099
 21
9.431861671241677
 31
0.0
  0
LINE
  5
53
330
1F
100
AcDbEntity
  8
1-D
  6
Continuous
 62
     2
370
    13
100
AcDbLine
 10
1078.900476404139
 20
-209.5680937895904
 30
0.0
 11
1098.93048260663
 21
-209.5680937895904
 31
0.0
  0
LINE
  5
54
330
1F
100
AcDbEntity
  8
1-D
  6
Continuous
 62
     2
370
    13
100
AcDbLine
 10
966.1651611328125
 20
-80.55334142736484
 30
0.0
 11
966.1651611328125
 21
-100.5831001900336
 31
0.0
  0
LINE
  5
55
330
1F
100
AcDbEntity
  8
1-D
  6
Continuous
 62
     2
370
    13
100
AcDbLine
 10
972.9083911792651
 20
-100.5831001900336
 30
0.0
 11
966.1651611328125
 21
-100.5831001900336
 31
0.0
  0
LINE
  5
56
330
1F
100
AcDbEntity
  8
1-D
  6
Continuous
 62
     2
370
    13
100
AcDbLine
 10
972.9083911792651
 20
-80.55334142736484
 30
0.0
 11
966.1651611328125
 21
-80.55334142736484
 31
0.0
  0
LINE
  5
57
330
1F
100
AcDbEntity
  8
1-D
  6
Continuous
 62
     2
370
    13
100
AcDbLine
 10
973.6655570365286
 20
-82.56057326858098
 30
0.0
 11
973.6655570365286
 21
-98.57562090899478
 31
0.0
  0
LINE
  5
58
330
1F
100
AcDbEntity
  8
1-D
  6
Continuous
 62
     2
370
    13
100
AcDbLine
 10
882.7915500950172
 20
-101.5181752797719
 30
0.0
 11
891.6654844541807
 21
-101.5181752797719
 31
0.0
  0
LINE
  5
59
330
1F
100
AcDbEntity
  8
1-D
  6
Continuous
 62
     2
370
    13
100
AcDbLine
 10
891.6654844541807
 20
-101.5181752797719
 30
0.0
 11
891.6654844541807
 21
-79.61801889780389
 31
0.0
  0
LINE
  5
5A
330
1F
100
AcDbEntity
  8
1-D
  6
Continuous
 62
     2
370
    13
100
AcDbLine
 10
882.7915500950172
 20
-79.61801889780389
 30
0.0
 11
891.6654844541807
 21
-79.61801889780389
 31
0.0
  0
LINE
  5
5B
330
1F
100
AcDbEntity
  8
1-D
  6
Continuous
 62
     2
370
    13
100
AcDbLine
 10
882.7915500950172
 20
-96.0333004513302
 30
0.0
 11
891.6654844541807
 21
-96.0333004513302
 31
0.0
  0
LINE
  5
5C
330
1F
100
AcDbEntity
  8
1-D
  6
Continuous
 62
     2
370
    13
100
AcDbLine
 10
882.7915500950172
 20
-85.10301744615703
 30
0.0
 11
891.6654844541807
 21
-85.10301744615703
 31
0.0
  0
LINE
  5
5D
330
1F
100
AcDbEntity
  8
1-D
  6
Continuous
 62
     2
370
    13
100
AcDbLine
 10
881.6654514622047
 20
-98.77579972550677
 30
0.0
 11
881.6654514622047
 21
-82.36051817198046
 31
0.0
  0
LINE
  5
5E
330
1F
100
AcDbEntity
  8
1-D
  6
Continuous
 62
     2
370
    13
100
AcDbLine
 10
876.1653590846709
 20
-95.62118942673123
 30
0.0
 11
877.1125587257183
 21
-96.56814162795598
 31
0.0
  0
LINE
  5
5F
330
1F
100
AcDbEntity
  8
1-D
  6
Continuous
 62
     2
370
    13
100
AcDbLine
 10
876.1653590846709
 20
-95.62118942673123
 30
0.0
 11
876.1653590846709
 21
-85.51500475084453
 31
0.0
  0
LINE
  5
60
330
1F
100
AcDbEntity
  8
1-D
  6
Continuous
 62
     2
370
    13
100
AcDbLine
 10
876.1653590846709
 20
-85.51500475084453
 30
0.0
 11
877.1125587257183
 21
-84.56805254961978
 31
0.0
  0
LINE
  5
61
330
1F
100
AcDbEntity
  8
1-D
  6
Continuous
 62
     2
370
    13
100
AcDbLine
 10
877.1125587257183
 20
-84.56805254961978
 30
0.0
 11
877.1125587257183
 21
-96.56814162795598
 31
0.0
  0
LINE
  5
62
330
1F
100
AcDbEntity
  8
1-D
  6
Continuous
 62
     2
370
    13
100
AcDbLine
 10
972.9083911792651
 20
-84.56805254961978
 30
0.0
 11
891.6654844541807
 21
-84.56805254961978
 31
0.0
  0
LINE
  5
63
330
1F
100
AcDbEntity
  8
1-D
  6
Continuous
 62
     2
370
    13
100
AcDbLine
 10
881.6654514622047
 20
-84.56805254961978
 30
0.0
 11
877.1125587257183
 21
-84.56805254961978
 31
0.0
  0
LINE
  5
64
330
1F
100
AcDbEntity
  8
1-D
  6
Continuous
 62
     2
370
    13
100
AcDbLine
 10
966.1651611328125
 20
-95.62118942673123
 30
0.0
 11
891.6654844541807
 21
-95.62118942673123
 31
0.0
  0
LINE
  5
65
330
1F
100
AcDbEntity
  8
1-D
  6
Continuous
 62
     2
370
    13
100
AcDbLine
 10
881.6654514622047
 20
-95.62118942673123
 30
0.0
 11
876.1653590846709
 21
-95.62118942673123
 31
0.0
  0
LINE
  5
66
330
1F
100
AcDbEntity
  8
1-D
  6
Continuous
 62
     2
370
    13
100
AcDbLine
 10
972.9083911792651
 20
-96.56814162795598
 30
0.0
 11
891.6654844541807
 21
-96.56814162795598
 31
0.0
  0
LINE
  5
67
330
1F
100
AcDbEntity
  8
1-D
  6
Continuous
 62
     2
370
    13
100
AcDbLine
 10
881.6654514622047
 20
-96.56814162795598
 30
0.0
 11
877.1125587257183
 21
-96.56814162795598
 31
0.0
  0
LINE
  5
68
330
1F
100
AcDbEntity
  8
1-D
  6
Continuous
 62
     2
370
    13
100
AcDbLine
 10
966.1651611328125
 20
-85.51500475084453
 30
0.0
 11
891.6654844541807
 21
-85.51500475084453
 31
0.0
  0
LINE
  5
69
330
1F
100
AcDbEntity
  8
1-D
  6
Continuous
 62
     2
370
    13
100
AcDbLine
 10
881.6654514622047
 20
-85.51500475084453
 30
0.0
 11
876.1653590846709
 21
-85.51500475084453
 31
0.0
  0
LINE
  5
6A
330
1F
100
AcDbEntity
  8
1-D
  6
JWW_CENTER1
 62
     2
370
    13
100
AcDbLine
 10
979.6390017947635
 20
-90.56797336887655
 30
0.0
 11
873.8557557801943
 21
-90.56797336887655
 31
0.0
  0
LINE
  5
6B
330
1F
100
AcDbEntity
  8
1-0
  6
Continuous
 62
     2
370
    13
100
AcDbLine
 10
951.886893607475
 20
-241.0413257495776
 30
0.0
 11
959.6941148912589
 21
-240.5951917493665
 31
0.0
  0
LINE
  5
6C
330
1F
100
AcDbEntity
  8
1-0
  6
Continuous
 62
     2
370
    13
100
AcDbLine
 10
951.4157681851776
 20
-241.5404118718327
 30
0.0
 11
951.4157681851776
 21
-251.5681581239441
 31
0.0
  0
LINE
  5
6D
330
1F
100
AcDbEntity
  8
1-0
  6
Continuous
 62
     2
370
    13
100
AcDbLine
 10
1120.271424989443
 20
-220.0656045449746
 30
0.0
 11
1111.455638988598
 21
-218.8496852565456
 31
0.0
  0
LINE
  5
6E
330
1F
100
AcDbEntity
  8
1-0
  6
Continuous
 62
     2
370
    13
100
AcDbLine
 10
960.665563634924
 20
-83.56827194626248
 30
0.0
 11
966.1651611328125
 21
-83.56827194626248
 31
0.0
  0
LINE
  5
6F
330
1F
100
AcDbEntity
  8
1-0
  6
Continuous
 62
     2
370
    13
100
AcDbLine
 10
960.665563634924
 20
-97.56804595122446
 30
0.0
 11
966.1651611328125
 21
-97.56804595122446
 31
0.0
  0
LINE
  5
70
330
1F
100
AcDbEntity
  8
1-0
  6
Continuous
 62
     2
370
    13
100
AcDbLine
 10
978.8128002269849
 20
-200.5680888407937
 30
0.0
 11
971.1654250686234
 21
-200.5680888407937
 31
0.0
  0
LINE
  5
71
330
1F
100
AcDbEntity
  8
1-0
  6
Continuous
 62
     2
370
    13
100
AcDbLine
 10
979.0176804001271
 20
-200.5821929106841
 30
0.0
 11
1044.063423775338
 21
-209.5539897197001
 31
0.0
  0
LINE
  5
72
330
1F
100
AcDbEntity
  8
1-0
  6
Continuous
 62
     2
370
    13
100
AcDbLine
 10
1107.571328652872
 20
-209.5680937895904
 30
0.0
 11
1044.26830394848
 21
-209.5680937895904
 31
0.0
  0
LINE
  5
73
330
1F
100
AcDbEntity
  8
1-0
  6
Continuous
 62
     2
370
    13
100
AcDbLine
 10
1109.062401024071
 20
-210.9045162716427
 30
0.0
 11
1109.741128457559
 21
-217.0866765202702
 31
0.0
  0
LINE
  5
74
330
1F
100
AcDbEntity
  8
1-0
  6
Continuous
 62
     2
370
    13
100
AcDbLine
 10
1128.844719964105
 20
-250.1429047455657
 30
0.0
 11
1124.520461623733
 21
-224.1968598236907
 31
0.0
  0
LINE
  5
75
330
1F
100
AcDbEntity
  8
1-0
  6
Continuous
 62
     2
370
    13
100
AcDbLine
 10
966.1651611328125
 20
-42.06815977354296
 30
0.0
 11
966.1651611328125
 21
-84.56805254961978
 31
0.0
  0
LINE
  5
76
330
1F
100
AcDbEntity
  8
1-0
  6
Continuous
 62
     2
370
    13
100
AcDbLine
 10
966.1651611328125
 20
-96.56814162795598
 30
0.0
 11
966.1651611328125
 21
-195.5680723448057
 31
0.0
  0
LINE
  5
77
330
1F
100
AcDbEntity
  8
1-0
  6
Continuous
 62
     2
370
    13
100
AcDbLine
 10
960.165735193201
 20
-40.5683032886401
 30
0.0
 11
960.165735193201
 21
-84.56805254961978
 31
0.0
  0
LINE
  5
78
330
1F
100
AcDbEntity
  8
1-0
  6
Continuous
 62
     2
370
    13
100
AcDbLine
 10
960.165735193201
 20
-96.56814162795598
 30
0.0
 11
960.165735193201
 21
-240.0961056271115
 31
0.0
  0
LINE
  5
79
330
1F
100
AcDbEntity
  8
1-0
  6
Continuous
 62
     2
370
    13
100
AcDbLine
 10
1128.749950512035
 20
-250.9663844752956
 30
0.0
 11
1124.749096019848
 21
-260.5680393528293
 31
0.0
  0
LINE
  5
7A
330
1F
100
AcDbEntity
  8
1-0
  6
Continuous
 62
     2
370
    13
100
AcDbLine
 10
1073.00645982897
 20
-260.5680393528293
 30
0.0
 11
1069.315399994721
 21
-252.4475592535894
 31
0.0
  0
LINE
  5
7B
330
1F
100
AcDbEntity
  8
1-0
  6
Continuous
 62
     2
370
    13
100
AcDbLine
 10
1095.915675807644
 20
-209.5680937895904
 30
0.0
 11
1095.915675807644
 21
-260.5680393528293
 31
0.0
  0
LINE
  5
7C
330
1F
100
AcDbEntity
  8
1-0
  6
Continuous
 62
     2
370
    13
100
AcDbLine
 10
1081.915530642948
 20
-209.5680937895904
 30
0.0
 11
1081.915530642948
 21
-260.5680393528293
 31
0.0
  0
LINE
  5
7D
330
1F
100
AcDbEntity
  8
1-0
  6
Continuous
 62
     2
370
    13
100
AcDbLine
 10
905.9442468591641
 20
-241.0413257495776
 30
0.0
 11
898.1370255753802
 21
-240.5951917493665
 31
0.0
  0
LINE
  5
7E
330
1F
100
AcDbEntity
  8
1-0
  6
Continuous
 62
     2
370
    13
100
AcDbLine
 10
906.4158671611068
 20
-241.5404118718327
 30
0.0
 11
906.4158671611068
 21
-251.5681581239441
 31
0.0
  0
LINE
  5
7F
330
1F
100
AcDbEntity
  8
1-0
  6
Continuous
 62
     2
370
    13
100
AcDbLine
 10
737.5594680373734
 20
-220.0656045449746
 30
0.0
 11
746.3755014780406
 21
-218.8496852565456
 31
0.0
  0
LINE
  5
80
330
1F
100
AcDbEntity
  8
1-0
  6
Continuous
 62
     2
370
    13
100
AcDbLine
 10
897.1658242715375
 20
-83.56827194626248
 30
0.0
 11
891.6654844541807
 21
-83.56827194626248
 31
0.0
  0
LINE
  5
81
330
1F
100
AcDbEntity
  8
1-0
  6
Continuous
 62
     2
370
    13
100
AcDbLine
 10
897.1658242715375
 20
-97.56804595122446
 30
0.0
 11
891.6654844541807
 21
-97.56804595122446
 31
0.0
  0
LINE
  5
82
330
1F
100
AcDbEntity
  8
1-0
  6
Continuous
 62
     2
370
    13
100
AcDbLine
 10
879.018835119299
 20
-200.5680888407937
 30
0.0
 11
886.6657153980151
 21
-200.5680888407937
 31
0.0
  0
LINE
  5
83
330
1F
100
AcDbEntity
  8
1-0
  6
Continuous
 62
     2
370
    13
100
AcDbLine
 10
878.813460066512
 20
-200.5821929106841
 30
0.0
 11
813.7677166913011
 21
-209.5539897197001
 31
0.0
  0
LINE
  5
84
330
1F
100
AcDbEntity
  8
1-0
  6
Continuous
 62
     2
370
    13
100
AcDbLine
 10
750.2600592535896
 20
-209.5680937895904
 30
0.0
 11
813.5628365181589
 21
-209.5680937895904
 31
0.0
  0
LINE
  5
85
330
1F
100
AcDbEntity
  8
1-0
  6
Continuous
 62
     2
370
    13
100
AcDbLine
 10
748.7687394425677
 20
-210.9045162716427
 30
0.0
 11
748.0900120090797
 21
-217.0866765202702
 31
0.0
  0
LINE
  5
86
330
1F
100
AcDbEntity
  8
1-0
  6
Continuous
 62
     2
370
    13
100
AcDbLine
 10
728.9866679423568
 20
-250.1429047455657
 30
0.0
 11
733.3106788429058
 21
-224.1968598236907
 31
0.0
  0
LINE
  5
87
330
1F
100
AcDbEntity
  8
1-0
  6
Continuous
 62
     2
370
    13
100
AcDbLine
 10
891.6654844541807
 20
-42.06815977354296
 30
0.0
 11
891.6654844541807
 21
-84.56805254961978
 31
0.0
  0
LINE
  5
88
330
1F
100
AcDbEntity
  8
1-0
  6
Continuous
 62
     2
370
    13
100
AcDbLine
 10
891.6654844541807
 20
-96.56814162795598
 30
0.0
 11
891.6654844541807
 21
-195.5680723448057
 31
0.0
  0
LINE
  5
89
330
1F
100
AcDbEntity
  8
1-0
  6
Continuous
 62
     2
370
    13
100
AcDbLine
 10
897.6654052734375
 20
-40.5683032886401
 30
0.0
 11
897.6654052734375
 21
-84.56805254961978
 31
0.0
  0
LINE
  5
8A
330
1F
100
AcDbEntity
  8
1-0
  6
Continuous
 62
     2
370
    13
100
AcDbLine
 10
897.6654052734375
 20
-96.56814162795598
 30
0.0
 11
897.6654052734375
 21
-240.0961056271115
 31
0.0
  0
LINE
  5
8B
330
1F
100
AcDbEntity
  8
1-0
  6
Continuous
 62
     2
370
    13
100
AcDbLine
 10
729.0816848342484
 20
-250.9663844752956
 30
0.0
 11
733.0822918866136
 21
-260.5681630727406
 31
0.0
  0
LINE
  5
8C
330
1F
100
AcDbEntity
  8
1-0
  6
Continuous
 62
     2
370
    13
100
AcDbLine
 10
784.8246806376693
 20
-260.5681630727406
 30
0.0
 11
788.5157404719172
 21
-252.4475592535894
 31
0.0
  0
LINE
  5
8D
330
1F
100
AcDbEntity
  8
1-0
  6
Continuous
 62
     2
370
    13
100
AcDbLine
 10
761.9154646589953
 20
-209.5680937895904
 30
0.0
 11
761.9154646589953
 21
-260.5681630727406
 31
0.0
  0
LINE
  5
8E
330
1F
100
AcDbEntity
  8
1-0
  6
Continuous
 62
     2
370
    13
100
AcDbLine
 10
775.9153623838682
 20
-209.5680937895904
 30
0.0
 11
775.9153623838682
 21
-260.5681630727406
 31
0.0
  0
LINE
  5
8F
330
1F
100
AcDbEntity
  8
1-0
  6
Continuous
 62
     2
370
    13
100
AcDbLine
 10
893.1654646589953
 20
-40.5683032886401
 30
0.0
 11
898.6653095967063
 21
-40.5683032886401
 31
0.0
  0
LINE
  5
90
330
1F
100
AcDbEntity
  8
1-0
  6
Continuous
 62
     2
370
    13
100
AcDbLine
 10
964.6656758076438
 20
-40.5683032886401
 30
0.0
 11
959.1655834301099
 21
-40.5683032886401
 31
0.0
  0
LINE
  5
91
330
1F
100
AcDbEntity
  8
1-0
  6
Continuous
 62
     2
370
    13
100
AcDbLine
 10
898.9095327016469
 20
-240.5683445286105
 30
0.0
 11
958.9216077649917
 21
-240.5683445286105
 31
0.0
  0
LINE
  5
92
330
1F
100
AcDbEntity
  8
1-0
  6
Continuous
 62
     2
370
    13
100
AcDbLine
 10
906.4158671611068
 20
-241.0682966902449
 30
0.0
 11
951.4157681851776
 21
-241.0682966902449
 31
0.0
  0
LINE
  5
93
330
1F
100
AcDbEntity
  8
1-0
  6
Continuous
 62
     2
370
    13
100
AcDbLine
 10
789.8816082928636
 20
-251.5681581239441
 30
0.0
 11
1067.949779613598
 21
-251.5682818438555
 31
0.0
  0
LINE
  5
94
330
1F
100
AcDbEntity
  8
1-0
  6
Continuous
 62
     3
370
    13
100
AcDbLine
 10
-1282.42566907728
 20
9.431861671241677
 30
0.0
 11
-1282.42566907728
 21
-42.18965272645676
 31
0.0
  0
LINE
  5
95
330
1F
100
AcDbEntity
  8
1-0
  6
Continuous
 62
     3
370
    13
100
AcDbLine
 10
-1221.925766403611
 20
9.431861671241677
 30
0.0
 11
-1221.925766403611
 21
-42.18952900654557
 31
0.0
  0
LINE
  5
96
330
1F
100
AcDbEntity
  8
1-1
  6
Continuous
 62
     2
370
    13
100
AcDbLine
 10
-1262.190658981736
 20
-90.56822080869921
 30
0.0
 11
-1257.183219291068
 21
-81.89496014569244
 31
0.0
  0
LINE
  5
97
330
1F
100
AcDbEntity
  8
1-1
  6
Continuous
 62
     2
370
    13
100
AcDbLine
 10
-1257.183219291068
 20
-81.89496014569244
 30
0.0
 11
-1247.168339909734
 21
-81.89496014569244
 31
0.0
  0
LINE
  5
98
330
1F
100
AcDbEntity
  8
1-1
  6
Continuous
 62
     2
370
    13
100
AcDbLine
 10
-1247.168339909734
 20
-81.89496014569244
 30
0.0
 11
-1242.160776499155
 21
-90.56822080869921
 31
0.0
  0
LINE
  5
99
330
1F
100
AcDbEntity
  8
1-1
  6
Continuous
 62
     2
370
    13
100
AcDbLine
 10
-1242.160776499155
 20
-90.56822080869921
 30
0.0
 11
-1247.168339909734
 21
-99.2413577517948
 31
0.0
  0
LINE
  5
9A
330
1F
100
AcDbEntity
  8
1-1
  6
Continuous
 62
     2
370
    13
100
AcDbLine
 10
-1257.183219291068
 20
-99.2413577517948
 30
0.0
 11
-1262.190658981736
 21
-90.56822080869921
 31
0.0
  0
LINE
  5
9B
330
1F
100
AcDbEntity
  8
1-D
  6
JWW_CENTER1
 62
     2
370
    13
100
AcDbLine
 10
-1263.579043826541
 20
-90.56822080869921
 30
0.0
 11
-1240.007431442673
 21
-90.56822080869921
 31
0.0
  0
LINE
  5
9C
330
1F
100
AcDbEntity
  8
1-1
  6
Continuous
 62
     2
370
    13
100
AcDbLine
 10
-1247.168339909734
 20
-99.2413577517948
 30
0.0
 11
-1257.183219291068
 21
-99.2413577517948
 31
0.0
  0
LINE
  5
9D
330
1F
100
AcDbEntity
  8
1-0
  6
Continuous
 62
     2
370
    13
100
AcDbLine
 10
-1304.911639239337
 20
-222.4159117002745
 30
0.0
 11
-1252.175779600401
 21
-220.5681548247466
 31
0.0
  0
LINE
  5
9E
330
1F
100
AcDbEntity
  8
1-0
  6
Continuous
 62
     2
370
    13
100
AcDbLine
 10
-1302.834381928315
 20
-202.410154600401
 30
0.0
 11
-1252.175779600401
 21
-200.5680888407937
 31
0.0
  0
LINE
  5
9F
330
1F
100
AcDbEntity
  8
1-0
  6
Continuous
 62
     2
370
    13
100
AcDbLine
 10
-1199.439796241554
 20
-222.4159117002745
 30
0.0
 11
-1252.175779600401
 21
-220.5681548247466
 31
0.0
  0
LINE
  5
A0
330
1F
100
AcDbEntity
  8
1-0
  6
Continuous
 62
     2
370
    13
100
AcDbLine
 10
-1201.516929832665
 20
-202.410154600401
 30
0.0
 11
-1252.175779600401
 21
-200.5680888407937
 31
0.0
  0
LINE
  5
A1
330
1F
100
AcDbEntity
  8
1-0
  6
Continuous
 62
     2
370
    13
100
AcDbLine
 10
-1192.85232956345
 20
-250.5682538006756
 30
0.0
 11
-1311.597958126584
 21
-250.5682538006756
 31
0.0
  0
LINE
  5
A2
330
1F
100
AcDbEntity
  8
1-0
  6
Continuous
 62
     2
370
    13
100
AcDbLine
 10
-1272.395572146854
 20
-211.7278722814611
 30
0.0
 11
-1272.866945008974
 21
-214.2111783414273
 31
0.0
  0
LINE
  5
A3
330
1F
100
AcDbEntity
  8
1-0
  6
Continuous
 62
     2
370
    13
100
AcDbLine
 10
-1270.996918549409
 20
-210.5091074350717
 30
0.0
 11
-1252.175779600401
 21
-209.5682175095016
 31
0.0
  0
LINE
  5
A4
330
1F
100
AcDbEntity
  8
1-0
  6
Continuous
 62
     2
370
    13
100
AcDbLine
 10
-1233.35426949166
 20
-210.5091074350717
 30
0.0
 11
-1252.175779600401
 21
-209.5682175095016
 31
0.0
  0
LINE
  5
A5
330
1F
100
AcDbEntity
  8
1-0
  6
Continuous
 62
     2
370
    13
100
AcDbLine
 10
-1231.955615894214
 20
-211.7278722814611
 30
0.0
 11
-1231.484366752006
 21
-214.2111783414273
 31
0.0
  0
LINE
  5
A6
330
1F
100
AcDbEntity
  8
1-0
  6
Continuous
 62
     2
370
    13
100
AcDbLine
 10
-1289.425617939717
 20
-43.98668443834453
 30
0.0
 11
-1289.425617939717
 21
-201.9228218697211
 31
0.0
  0
LINE
  5
A7
330
1F
100
AcDbEntity
  8
1-0
  6
Continuous
 62
     2
370
    13
100
AcDbLine
 10
-1288.005808237436
 20
-42.48880747202264
 30
0.0
 11
-1252.175779600401
 21
-40.5683032886401
 31
0.0
  0
LINE
  5
A8
330
1F
100
AcDbEntity
  8
1-0
  6
Continuous
 62
     2
370
    13
100
AcDbLine
 10
-1216.345379803632
 20
-42.48880747202264
 30
0.0
 11
-1252.175779600401
 21
-40.5683032886401
 31
0.0
  0
LINE
  5
A9
330
1F
100
AcDbEntity
  8
1-0
  6
Continuous
 62
     2
370
    13
100
AcDbLine
 10
-1214.925693821263
 20
-43.98668443834453
 30
0.0
 11
-1214.925693821263
 21
-201.9228218697211
 31
0.0
  0
LINE
  5
AA
330
1F
100
AcDbEntity
  8
1-0
  6
Continuous
 62
     2
370
    13
100
AcDbLine
 10
-1312.133417902766
 20
-250.1629473711992
 30
0.0
 11
-1307.625930373733
 21
-206.8890628299197
 31
0.0
  0
LINE
  5
AB
330
1F
100
AcDbEntity
  8
1-0
  6
Continuous
 62
     2
370
    13
100
AcDbLine
 10
-1192.217770138302
 20
-250.1629473711992
 30
0.0
 11
-1196.725628827069
 21
-206.8890628299197
 31
0.0
  0
LINE
  5
AC
330
1F
100
AcDbEntity
  8
1-1
  6
JWW_DASHED1
 62
     4
370
    13
100
AcDbLine
 10
-1282.425792797192
 20
-42.18965272645676
 30
0.0
 11
-1282.425792797192
 21
-240.5682208086992
 31
0.0
  0
LINE
  5
AD
330
1F
100
AcDbEntity
  8
1-1
  6
JWW_DASHED1
 62
     4
370
    13
100
AcDbLine
 10
-1221.925766403611
 20
-42.18965272645676
 30
0.0
 11
-1221.925766403611
 21
-240.5682208086992
 31
0.0
  0
LINE
  5
AE
330
1F
100
AcDbEntity
  8
1-0
  6
Continuous
 62
     2
370
    13
100
AcDbLine
 10
-1307.630384290541
 20
-260.5680393528293
 30
0.0
 11
-1312.007099873311
 21
-250.9391660948057
 31
0.0
  0
LINE
  5
AF
330
1F
100
AcDbEntity
  8
1-0
  6
Continuous
 62
     2
370
    13
100
AcDbLine
 10
-1196.720803750528
 20
-260.5680393528293
 30
0.0
 11
-1192.34433560758
 21
-250.9391660948057
 31
0.0
  0
LINE
  5
B0
330
1F
100
AcDbEntity
  8
1-0
  6
JWW_DASHED1
 62
     2
370
    13
100
AcDbLine
 10
-1229.204332506334
 20
-241.0413257495776
 30
0.0
 11
-1221.397234942462
 21
-240.5951917493665
 31
0.0
  0
LINE
  5
B1
330
1F
100
AcDbEntity
  8
1-0
  6
JWW_DASHED1
 62
     2
370
    13
100
AcDbLine
 10
-1275.147226694468
 20
-241.0413257495776
 30
0.0
 11
-1282.95432425834
 21
-240.5951917493665
 31
0.0
  0
LINE
  5
B2
330
1F
100
AcDbEntity
  8
1-0
  6
JWW_DASHED1
 62
     2
370
    13
100
AcDbLine
 10
-1282.181817132073
 20
-240.5682208086992
 30
0.0
 11
-1222.169618348817
 21
-240.5682208086992
 31
0.0
  0
LINE
  5
B3
330
1F
100
AcDbEntity
  8
1-0
  6
JWW_DASHED1
 62
     2
370
    13
100
AcDbLine
 10
-1274.675730112437
 20
-241.0682966902449
 30
0.0
 11
-1229.675829088366
 21
-241.0682966902449
 31
0.0
  0
LINE
  5
B4
330
1F
100
AcDbEntity
  8
1-0
  6
JWW_DASHED1
 62
     2
370
    13
100
AcDbLine
 10
-1220.925862080342
 20
-42.24322344805728
 30
0.0
 11
-1220.925862080342
 21
-240.0959819072001
 31
0.0
  0
LINE
  5
B5
330
1F
100
AcDbEntity
  8
1-0
  6
JWW_DASHED1
 62
     2
370
    13
100
AcDbLine
 10
-1283.42569712046
 20
-42.24322344805728
 30
0.0
 11
-1283.42569712046
 21
-240.0959819072001
 31
0.0
  0
LINE
  5
B6
330
1F
100
AcDbEntity
  8
1-0
  6
JWW_DASHED1
 62
     2
370
    13
100
AcDbLine
 10
-1274.675730112437
 20
-241.5404118718327
 30
0.0
 11
-1274.675730112437
 21
-251.1932867926519
 31
0.0
  0
LINE
  5
B7
330
1F
100
AcDbEntity
  8
1-0
  6
JWW_DASHED1
 62
     2
370
    13
100
AcDbLine
 10
-1312.120551031989
 20
-250.5692435599661
 30
0.0
 11
-1252.175779600401
 21
-251.5681581239441
 31
0.0
  0
LINE
  5
B8
330
1F
100
AcDbEntity
  8
1-0
  6
JWW_DASHED1
 62
     2
370
    13
100
AcDbLine
 10
-1192.231131888725
 20
-250.5692435599661
 30
0.0
 11
-1252.175779600401
 21
-251.5681581239441
 31
0.0
  0
LINE
  5
B9
330
1F
100
AcDbEntity
  8
1-0
  6
JWW_DASHED1
 62
     2
370
    13
100
AcDbLine
 10
-1229.675829088366
 20
-241.5404118718327
 30
0.0
 11
-1229.675829088366
 21
-251.1932867926519
 31
0.0
  0
LINE
  5
BA
330
1F
100
AcDbEntity
  8
1-0
  6
Continuous
 62
     3
370
    13
100
AcDbLine
 10
901.4655860694683
 20
629.1817659945102
 30
0.0
 11
901.4655860694683
 21
-84.56805254961978
 31
0.0
  0
LINE
  5
BB
330
1F
100
AcDbEntity
  8
1-0
  6
Continuous
 62
     3
370
    13
100
AcDbLine
 10
956.3655543971709
 20
629.1817659945102
 30
0.0
 11
956.3655543971709
 21
-84.56805254961978
 31
0.0
  0
LINE
  5
BC
330
1F
100
AcDbEntity
  8
1-1
  6
Continuous
 62
     4
370
    13
100
AcDbLine
 10
898.6653095967063
 20
-83.5681482263513
 30
0.0
 11
901.4655860694683
 21
-83.5681482263513
 31
0.0
  0
LINE
  5
BD
330
1F
100
AcDbEntity
  8
1-1
  6
Continuous
 62
     4
370
    13
100
AcDbLine
 10
959.1655834301099
 20
-83.5681482263513
 30
0.0
 11
956.3655543971709
 21
-83.5681482263513
 31
0.0
  0
LINE
  5
BE
330
1F
100
AcDbEntity
  8
1-1
  6
Continuous
 62
     4
370
    13
100
AcDbLine
 10
898.6653095967063
 20
-97.56804595122446
 30
0.0
 11
901.4655860694683
 21
-97.56804595122446
 31
0.0
  0
LINE
  5
BF
330
1F
100
AcDbEntity
  8
1-1
  6
Continuous
 62
     4
370
    13
100
AcDbLine
 10
959.1655834301099
 20
-97.56804595122446
 30
0.0
 11
956.3655543971709
 21
-97.56804595122446
 31
0.0
  0
LINE
  5
C0
330
1F
100
AcDbEntity
  8
1-0
  6
Continuous
 62
     3
370
    13
100
AcDbLine
 10
901.4655860694683
 20
-240.5684682485219
 30
0.0
 11
901.4655860694683
 21
-96.56814162795598
 31
0.0
  0
LINE
  5
C1
330
1F
100
AcDbEntity
  8
1-0
  6
Continuous
 62
     3
370
    13
100
AcDbLine
 10
956.3655543971709
 20
-240.5682208086992
 30
0.0
 11
956.3655543971709
 21
-96.56814162795598
 31
0.0
  0
LINE
  5
C2
330
1F
100
AcDbEntity
  8
1-0
  6
Continuous
 62
     2
370
    13
100
AcDbLine
 10
-1252.175779600401
 20
-262.5682191591004
 30
0.0
 11
-1252.175779600401
 21
-209.5682175095016
 31
0.0
  0
LINE
  5
C3
330
1F
100
AcDbEntity
  8
1-1
  6
Continuous
 62
     2
370
    13
100
AcDbLine
 10
177.3094383445948
 20
-90.56822080869921
 30
0.0
 11
182.3171254750847
 21
-81.89496014569244
 31
0.0
  0
LINE
  5
C4
330
1F
100
AcDbEntity
  8
1-1
  6
Continuous
 62
     2
370
    13
100
AcDbLine
 10
182.3171254750847
 20
-81.89496014569244
 30
0.0
 11
192.332004856419
 21
-81.89496014569244
 31
0.0
  0
LINE
  5
C5
330
1F
100
AcDbEntity
  8
1-1
  6
Continuous
 62
     2
370
    13
100
AcDbLine
 10
192.332004856419
 20
-81.89496014569244
 30
0.0
 11
197.3391971072635
 21
-90.56822080869921
 31
0.0
  0
LINE
  5
C6
330
1F
100
AcDbEntity
  8
1-1
  6
Continuous
 62
     2
370
    13
100
AcDbLine
 10
197.3391971072635
 20
-90.56822080869921
 30
0.0
 11
192.332004856419
 21
-99.2413577517948
 31
0.0
  0
LINE
  5
C7
330
1F
100
AcDbEntity
  8
1-1
  6
Continuous
 62
     2
370
    13
100
AcDbLine
 10
182.3171254750847
 20
-99.2413577517948
 30
0.0
 11
177.3094383445948
 21
-90.56822080869921
 31
0.0
  0
LINE
  5
C8
330
1F
100
AcDbEntity
  8
1-D
  6
JWW_CENTER1
 62
     2
370
    13
100
AcDbLine
 10
175.9210534997891
 20
-90.56822080869921
 30
0.0
 11
199.4926658836573
 21
-90.56822080869921
 31
0.0
  0
LINE
  5
C9
330
1F
100
AcDbEntity
  8
1-1
  6
Continuous
 62
     2
370
    13
100
AcDbLine
 10
192.332004856419
 20
-99.2413577517948
 30
0.0
 11
182.3171254750847
 21
-99.2413577517948
 31
0.0
  0
LINE
  5
CA
330
1F
100
AcDbEntity
  8
1-0
  6
Continuous
 62
     2
370
    13
100
AcDbLine
 10
134.5884580869932
 20
-222.4159117002745
 30
0.0
 11
187.3243177259292
 21
-220.5681548247466
 31
0.0
  0
LINE
  5
CB
330
1F
100
AcDbEntity
  8
1-0
  6
Continuous
 62
     2
370
    13
100
AcDbLine
 10
136.6657153980154
 20
-202.410154600401
 30
0.0
 11
187.3243177259292
 21
-200.5680888407937
 31
0.0
  0
LINE
  5
CC
330
1F
100
AcDbEntity
  8
1-0
  6
Continuous
 62
     2
370
    13
100
AcDbLine
 10
240.0604248046875
 20
-222.4159117002745
 30
0.0
 11
187.3243177259292
 21
-220.5681548247466
 31
0.0
  0
LINE
  5
CD
330
1F
100
AcDbEntity
  8
1-0
  6
Continuous
 62
     2
370
    13
100
AcDbLine
 10
237.9831674936656
 20
-202.410154600401
 30
0.0
 11
187.3243177259292
 21
-200.5680888407937
 31
0.0
  0
LINE
  5
CE
330
1F
100
AcDbEntity
  8
1-0
  6
Continuous
 62
     2
370
    13
100
AcDbLine
 10
246.6477677628802
 20
-250.5682538006756
 30
0.0
 11
127.9023866395693
 21
-250.5682538006756
 31
0.0
  0
LINE
  5
CF
330
1F
100
AcDbEntity
  8
1-0
  6
Continuous
 62
     2
370
    13
100
AcDbLine
 10
167.1045251794766
 20
-211.7278722814611
 30
0.0
 11
166.6331523173565
 21
-214.2111783414273
 31
0.0
  0
LINE
  5
D0
330
1F
100
AcDbEntity
  8
1-0
  6
Continuous
 62
     2
370
    13
100
AcDbLine
 10
168.5033024968328
 20
-210.5091074350717
 30
0.0
 11
187.3243177259292
 21
-209.5682175095016
 31
0.0
  0
LINE
  5
D1
330
1F
100
AcDbEntity
  8
1-0
  6
Continuous
 62
     2
370
    13
100
AcDbLine
 10
206.1460752744935
 20
-210.5091074350717
 30
0.0
 11
187.3243177259292
 21
-209.5682175095016
 31
0.0
  0
LINE
  5
D2
330
1F
100
AcDbEntity
  8
1-0
  6
Continuous
 62
     2
370
    13
100
AcDbLine
 10
207.5446051520271
 20
-211.7278722814611
 30
0.0
 11
208.0157305743245
 21
-214.2111783414273
 31
0.0
  0
LINE
  5
D3
330
1F
100
AcDbEntity
  8
1-0
  6
Continuous
 62
     2
370
    13
100
AcDbLine
 10
150.0747268264359
 20
-43.98668443834453
 30
0.0
 11
150.0747268264359
 21
-201.9228218697211
 31
0.0
  0
LINE
  5
D4
330
1F
100
AcDbEntity
  8
1-0
  6
Continuous
 62
     2
370
    13
100
AcDbLine
 10
151.4945365287164
 20
-42.48880747202264
 30
0.0
 11
187.3243177259292
 21
-40.5683032886401
 31
0.0
  0
LINE
  5
D5
330
1F
100
AcDbEntity
  8
1-0
  6
Continuous
 62
     2
370
    13
100
AcDbLine
 10
223.1548412426099
 20
-42.48880747202264
 30
0.0
 11
187.3243177259292
 21
-40.5683032886401
 31
0.0
  0
LINE
  5
D6
330
1F
100
AcDbEntity
  8
1-0
  6
Continuous
 62
     2
370
    13
100
AcDbLine
 10
224.5744035050677
 20
-43.98668443834453
 30
0.0
 11
224.5744035050677
 21
-201.9228218697211
 31
0.0
  0
LINE
  5
D7
330
1F
100
AcDbEntity
  8
1-0
  6
Continuous
 62
     2
370
    13
100
AcDbLine
 10
127.3666794235643
 20
-250.1629473711992
 30
0.0
 11
131.8742906725086
 21
-206.8890628299197
 31
0.0
  0
LINE
  5
D8
330
1F
100
AcDbEntity
  8
1-0
  6
Continuous
 62
     2
370
    13
100
AcDbLine
 10
247.2824509079393
 20
-250.1629473711992
 30
0.0
 11
242.7745922191724
 21
-206.8890628299197
 31
0.0
  0
LINE
  5
D9
330
1F
100
AcDbEntity
  8
1-1
  6
JWW_DASHED1
 62
     4
370
    13
100
AcDbLine
 10
157.0743045291385
 20
-42.18965272645676
 30
0.0
 11
157.0743045291385
 21
-240.5682208086992
 31
0.0
  0
LINE
  5
DA
330
1F
100
AcDbEntity
  8
1-1
  6
JWW_DASHED1
 62
     4
370
    13
100
AcDbLine
 10
217.5748258023651
 20
-42.18965272645676
 30
0.0
 11
217.5748258023651
 21
-240.5682208086992
 31
0.0
  0
LINE
  5
DB
330
1F
100
AcDbEntity
  8
1-0
  6
Continuous
 62
     2
370
    13
100
AcDbLine
 10
131.869836755701
 20
-260.5680393528293
 30
0.0
 11
127.4931211729307
 21
-250.9391660948057
 31
0.0
  0
LINE
  5
DC
330
1F
100
AcDbEntity
  8
1-0
  6
Continuous
 62
     2
370
    13
100
AcDbLine
 10
242.779541015625
 20
-260.5680393528293
 30
0.0
 11
247.1562565983953
 21
-250.9391660948057
 31
0.0
  0
LINE
  5
DD
330
1F
100
AcDbEntity
  8
1-0
  6
JWW_DASHED1
 62
     2
370
    13
100
AcDbLine
 10
210.2956411000847
 20
-241.0413257495776
 30
0.0
 11
218.1028623838685
 21
-240.5951917493665
 31
0.0
  0
LINE
  5
DE
330
1F
100
AcDbEntity
  8
1-0
  6
JWW_DASHED1
 62
     2
370
    13
100
AcDbLine
 10
164.3529943517737
 20
-241.0413257495776
 30
0.0
 11
156.5457730679901
 21
-240.5951917493665
 31
0.0
  0
LINE
  5
DF
330
1F
100
AcDbEntity
  8
1-0
  6
JWW_DASHED1
 62
     2
370
    13
100
AcDbLine
 10
157.3182801942568
 20
-240.5682208086992
 30
0.0
 11
217.3306026974242
 21
-240.5682208086992
 31
0.0
  0
LINE
  5
E0
330
1F
100
AcDbEntity
  8
1-0
  6
JWW_DASHED1
 62
     2
370
    13
100
AcDbLine
 10
164.8246146537164
 20
-241.0682966902449
 30
0.0
 11
209.8242682379646
 21
-241.0682966902449
 31
0.0
  0
LINE
  5
E1
330
1F
100
AcDbEntity
  8
1-0
  6
JWW_DASHED1
 62
     2
370
    13
100
AcDbLine
 10
218.5744826858109
 20
-42.24322344805728
 30
0.0
 11
218.5744826858109
 21
-240.0959819072001
 31
0.0
  0
LINE
  5
E2
330
1F
100
AcDbEntity
  8
1-0
  6
JWW_DASHED1
 62
     2
370
    13
100
AcDbLine
 10
156.0746476456927
 20
-42.24322344805728
 30
0.0
 11
156.0746476456927
 21
-240.0959819072001
 31
0.0
  0
LINE
  5
E3
330
1F
100
AcDbEntity
  8
1-0
  6
Continuous
 62
     2
370
    13
100
AcDbLine
 10
187.3243177259292
 20
-209.5682175095016
 30
0.0
 11
187.3243177259292
 21
-200.5680888407937
 31
0.0
  0
LINE
  5
E4
330
1F
100
AcDbEntity
  8
1-0
  6
JWW_DASHED1
 62
     2
370
    13
100
AcDbLine
 10
164.8246146537164
 20
-241.5404118718327
 30
0.0
 11
164.8246146537164
 21
-251.1932867926519
 31
0.0
  0
LINE
  5
E5
330
1F
100
AcDbEntity
  8
1-0
  6
JWW_DASHED1
 62
     2
370
    13
100
AcDbLine
 10
127.3797937341641
 20
-250.5692435599661
 30
0.0
 11
187.3243177259292
 21
-251.5681581239441
 31
0.0
  0
LINE
  5
E6
330
1F
100
AcDbEntity
  8
1-0
  6
JWW_DASHED1
 62
     2
370
    13
100
AcDbLine
 10
247.2690891575169
 20
-250.5692435599661
 30
0.0
 11
187.3243177259292
 21
-251.5681581239441
 31
0.0
  0
LINE
  5
E7
330
1F
100
AcDbEntity
  8
1-0
  6
JWW_DASHED1
 62
     2
370
    13
100
AcDbLine
 10
209.8242682379646
 20
-241.5404118718327
 30
0.0
 11
209.8242682379646
 21
-251.1932867926519
 31
0.0
  0
LINE
  5
E8
330
1F
100
AcDbEntity
  8
1-0
  6
Continuous
 62
     2
370
    13
100
AcDbLine
 10
187.3243177259292
 20
-262.5682191591004
 30
0.0
 11
187.3243177259292
 21
-209.5682175095016
 31
0.0
  0
LINE
  5
E9
330
1F
100
AcDbEntity
  8
1-F
  6
Continuous
 62
     7
370
    13
100
AcDbLine
 10
-1551.024936985325
 20
-260.5680393528293
 30
0.0
 11
-1551.024936985325
 21
659.4310368718328
 31
0.0
  0
LINE
  5
EA
330
1F
100
AcDbEntity
  8
1-F
  6
Continuous
 62
     7
370
    13
100
AcDbLine
 10
-1089.174920159417
 20
659.4310368718328
 30
0.0
 11
-1552.824937975084
 21
659.4310368718328
 31
0.0
  0
LINE
  5
EB
330
1F
100
AcDbEntity
  8
1-F
  6
Continuous
 62
     7
370
    13
100
AcDbLine
 10
-1433.513538257496
 20
-260.5680393528293
 30
0.0
 11
-1433.513538257496
 21
-40.5683032886401
 31
0.0
  0
LINE
  5
EC
330
1F
100
AcDbEntity
  8
1-F
  6
Continuous
 62
     7
370
    13
100
AcDbLine
 10
-1433.513538257496
 20
-40.5683032886401
 30
0.0
 11
-1433.513538257496
 21
659.4310368718328
 31
0.0
  0
LINE
  5
ED
330
1F
100
AcDbEntity
  8
1-F
  6
Continuous
 62
     7
370
    13
100
AcDbLine
 10
-1286.233025628167
 20
-40.5683032886401
 30
0.0
 11
-1435.313662967166
 21
-40.5683032886401
 31
0.0
  0
LINE
  5
EE
330
1F
100
AcDbEntity
  8
1-D
  6
JWW_CENTER1
 62
     2
370
    13
100
AcDbLine
 10
768.9155372413433
 20
-198.4749953811232
 30
0.0
 11
768.9155372413433
 21
-268.8234978753167
 31
0.0
  0
LINE
  5
EF
330
1F
100
AcDbEntity
  8
1-D
  6
JWW_CENTER1
 62
     2
370
    13
100
AcDbLine
 10
1088.915603225296
 20
-199.4750234243031
 30
0.0
 11
1088.915603225296
 21
-268.8234978753167
 31
0.0
  0
LINE
  5
F0
330
1F
100
AcDbEntity
  8
1-0
  6
Continuous
 62
     2
370
    13
100
AcDbLine
 10
-1252.175779600401
 20
-200.5680888407937
 30
0.0
 11
-1252.175779600401
 21
-209.5680937895904
 31
0.0
  0
LINE
  5
F1
330
1F
100
AcDbEntity
  8
1-F
  6
Continuous
 62
     7
370
    13
100
AcDbLine
 10
728.9658829972552
 20
-441.1867378853462
 30
0.0
 11
1128.864762589739
 21
-441.1867378853462
 31
0.0
  0
LINE
  5
F2
330
1F
100
AcDbEntity
  8
1-F
  6
Continuous
 62
     7
370
    13
100
AcDbLine
 10
728.9658829972552
 20
-262.3894438872466
 30
0.0
 11
728.9658829972552
 21
-442.9867388751055
 31
0.0
  0
LINE
  5
F3
330
1F
100
AcDbEntity
  8
1-F
  6
Continuous
 62
     7
370
    13
100
AcDbLine
 10
1128.864762589739
 20
-262.3894438872466
 30
0.0
 11
1128.864762589739
 21
-442.9867388751055
 31
0.0
  0
LINE
  5
F4
330
1F
100
AcDbEntity
  8
1-F
  6
Continuous
 62
     7
370
    13
100
AcDbLine
 10
-1252.17565588049
 20
-441.1867378853462
 30
0.0
 11
187.3245651657518
 21
-441.1867378853462
 31
0.0
  0
LINE
  5
F5
330
1F
100
AcDbEntity
  8
1-F
  6
Continuous
 62
     7
370
    13
100
AcDbLine
 10
-1252.17565588049
 20
-294.4715015308276
 30
0.0
 11
-1252.17565588049
 21
-442.9868625950168
 31
0.0
  0
LINE
  5
F6
330
1F
100
AcDbEntity
  8
1-F
  6
Continuous
 62
     7
370
    13
100
AcDbLine
 10
187.3245651657518
 20
-294.4715015308276
 30
0.0
 11
187.3245651657518
 21
-442.9868625950168
 31
0.0
  0
LINE
  5
F7
330
1F
100
AcDbEntity
  8
1-F
  6
Continuous
 62
     7
370
    13
100
AcDbLine
 10
768.9155372413433
 20
-366.5218951251055
 30
0.0
 11
1088.915603225296
 21
-366.5218951251055
 31
0.0
  0
LINE
  5
F8
330
1F
100
AcDbEntity
  8
1-F
  6
Continuous
 62
     7
370
    13
100
AcDbLine
 10
768.9155372413433
 20
-280.8234632337416
 30
0.0
 11
768.9155372413433
 21
-368.3220198347761
 31
0.0
  0
LINE
  5
F9
330
1F
100
AcDbEntity
  8
1-F
  6
Continuous
 62
     7
370
    13
100
AcDbLine
 10
1088.915603225296
 20
-280.8234632337416
 30
0.0
 11
1088.915603225296
 21
-368.3220198347761
 31
0.0
  0
LINE
  5
FA
330
1F
100
AcDbEntity
  8
1-F
  6
Continuous
 62
     7
370
    13
100
AcDbLine
 10
127.3587613492401
 20
-551.2049164643158
 30
0.0
 11
247.2903689822635
 21
-551.2049164643158
 31
0.0
  0
LINE
  5
FB
330
1F
100
AcDbEntity
  8
1-F
  6
Continuous
 62
     7
370
    13
100
AcDbLine
 10
247.2903689822635
 20
-275.9080711570945
 30
0.0
 11
247.2903689822635
 21
-553.0047937341637
 31
0.0
  0
LINE
  5
FC
330
1F
100
AcDbEntity
  8
1-F
  6
Continuous
 62
     7
370
    13
100
AcDbLine
 10
127.3587613492401
 20
-453.5626880542651
 30
0.0
 11
127.3587613492401
 21
-553.0047937341637
 31
0.0
  0
LINE
  5
FD
330
1F
100
AcDbEntity
  8
1-F
  6
Continuous
 62
     7
370
    13
100
AcDbLine
 10
127.3587613492401
 20
-275.9080711570945
 30
0.0
 11
127.3587613492401
 21
-427.4903251029349
 31
0.0
  0
LINE
  5
FE
330
1F
100
AcDbEntity
  8
1-F
  6
Continuous
 62
     7
370
    13
100
AcDbLine
 10
1088.915603225296
 20
-209.5680937895904
 30
0.0
 11
1131.895652977196
 21
-135.1240910710516
 31
0.0
  0
LINE
  5
FF
330
1F
100
AcDbEntity
  8
1-F
  6
Continuous
 62
     7
370
    13
100
AcDbLine
 10
1008.215084591428
 20
-204.6095234638935
 30
0.0
 11
1105.255786792652
 21
-32.64874432537994
 31
0.0
  0
LINE
  5
100
330
1F
100
AcDbEntity
  8
1-F
  6
Continuous
 62
     7
370
    13
100
AcDbLine
 10
972.9083911792651
 20
-80.55334142736484
 30
0.0
 11
1067.579362199114
 21
81.11864244615731
 31
0.0
  0
LINE
  5
101
330
1F
100
AcDbEntity
  8
1-0
  6
Continuous
 62
     3
370
    13
100
AcDbLine
 10
-1282.42566907728
 20
454.1809411951016
 30
0.0
 11
-1282.42566907728
 21
9.431861671241677
 31
0.0
  0
LINE
  5
102
330
1F
100
AcDbEntity
  8
1-0
  6
Continuous
 62
     3
370
    13
100
AcDbLine
 10
-1221.925766403611
 20
454.1805700353675
 30
0.0
 11
-1221.925766403611
 21
9.431861671241677
 31
0.0
  0
LINE
  5
103
330
1F
100
AcDbEntity
  8
1-F
  6
Continuous
 62
     7
370
    13
100
AcDbLine
 10
959.1655834301099
 20
428.0529042836784
 30
0.0
 11
1020.064482817779
 21
533.5331602354307
 31
0.0
  0
LINE
  5
104
330
1F
100
AcDbEntity
  8
1-0
  6
JWW_CENTER1
 62
     3
370
    13
100
AcDbLine
 10
-532.4256690772802
 20
546.2193999419342
 30
0.0
 11
-532.4256690772802
 21
701.8951745935391
 31
0.0
  0
LINE
  5
105
330
1F
100
AcDbEntity
  8
1-0
  6
Continuous
 62
     3
370
    13
100
AcDbLine
 10
157.0745519689612
 20
-240.5684682485219
 30
0.0
 11
217.5743309227198
 21
-240.5680970887879
 31
0.0
  0
LINE
  5
106
330
1F
100
AcDbEntity
  8
1-0
  6
Continuous
 62
     3
370
    13
100
AcDbLine
 10
-532.4256690772802
 20
598.9297732791385
 30
0.0
 11
12.32398780616563
 21
598.9307630384292
 31
0.0
  0
LINE
  5
107
330
1F
100
AcDbEntity
  8
1-0
  6
JWW_CENTER1
 62
     3
370
    13
100
AcDbLine
 10
-532.4256690772802
 20
629.1797864759292
 30
0.0
 11
12.32349292652032
 21
629.1810236750425
 31
0.0
  0
LINE
  5
108
330
1F
100
AcDbEntity
  8
1-0
  6
Continuous
 62
     3
370
    13
100
AcDbLine
 10
-532.4256690772802
 20
659.4297996727198
 30
0.0
 11
12.32349292652032
 21
659.4310368718328
 31
0.0
  0
LINE
  5
109
330
1F
100
AcDbEntity
  8
1-0
  6
Continuous
 62
     3
370
    13
100
AcDbLine
 10
-532.4256690772802
 20
656.4300867029141
 30
0.0
 11
12.32349292652032
 21
656.4310764622044
 31
0.0
  0
LINE
  5
10A
330
1F
100
AcDbEntity
  8
1-0
  6
Continuous
 62
     3
370
    13
100
AcDbLine
 10
-532.4256690772802
 20
601.9294862489443
 30
0.0
 11
12.32398780616563
 21
601.9307234480575
 31
0.0
  0
LINE
  5
10B
330
1F
100
AcDbEntity
  8
1-0
  6
Continuous
 62
     3
370
    13
100
AcDbLine
 10
217.5743309227198
 20
454.1809411951016
 30
0.0
 11
217.5743309227198
 21
9.432109111064335
 31
0.0
  0
LINE
  5
10C
330
1F
100
AcDbEntity
  8
1-0
  6
Continuous
 62
     3
370
    13
100
AcDbLine
 10
214.5743705130914
 20
454.1809411951016
 30
0.0
 11
214.5743705130914
 21
9.432109111064335
 31
0.0
  0
LINE
  5
10D
330
1F
100
AcDbEntity
  8
1-0
  6
Continuous
 62
     3
370
    13
100
AcDbLine
 10
160.0747598184122
 20
454.1805700353675
 30
0.0
 11
160.0747598184122
 21
9.432109111064335
 31
0.0
  0
LINE
  5
10E
330
1F
100
AcDbEntity
  8
1-0
  6
Continuous
 62
     3
370
    13
100
AcDbLine
 10
157.0745519689612
 20
454.1805700353675
 30
0.0
 11
157.0745519689612
 21
9.432109111064335
 31
0.0
  0
LINE
  5
10F
330
1F
100
AcDbEntity
  8
1-1
  6
Continuous
 62
     3
370
    13
100
AcDbLine
 10
198.4224886507602
 20
-90.56822080869921
 30
0.0
 11
175.3672831767315
 21
-90.56822080869921
 31
0.0
  0
LINE
  5
110
330
1F
100
AcDbEntity
  8
1-0
  6
JWW_CENTER1
 62
     3
370
    13
100
AcDbLine
 10
187.3245651657518
 20
454.181188634924
 30
0.0
 11
187.3245651657518
 21
-282.4714124524916
 31
0.0
  0
LINE
  5
111
330
1F
100
AcDbEntity
  8
1-0
  6
JWW_CENTER1
 62
     3
370
    13
100
AcDbLine
 10
-1252.17565588049
 20
454.1810649150128
 30
0.0
 11
-1252.17565588049
 21
-282.4714124524916
 31
0.0
  0
LINE
  5
112
330
1F
100
AcDbEntity
  8
1-0
  6
Continuous
 62
     3
370
    13
100
AcDbLine
 10
157.0745519689612
 20
9.432109111064335
 30
0.0
 11
157.0745519689612
 21
-42.24322344805728
 31
0.0
  0
LINE
  5
113
330
1F
100
AcDbEntity
  8
1-0
  6
Continuous
 62
     3
370
    13
100
AcDbLine
 10
160.0747598184122
 20
9.432109111064335
 30
0.0
 11
160.0747598184122
 21
-42.02894056165519
 31
0.0
  0
LINE
  5
114
330
1F
100
AcDbEntity
  8
1-0
  6
Continuous
 62
     3
370
    13
100
AcDbLine
 10
214.5743705130914
 20
9.432109111064335
 30
0.0
 11
214.5743705130914
 21
-42.02894056165519
 31
0.0
  0
LINE
  5
115
330
1F
100
AcDbEntity
  8
1-0
  6
Continuous
 62
     3
370
    13
100
AcDbLine
 10
217.5743309227198
 20
9.432109111064335
 30
0.0
 11
217.5743309227198
 21
-42.18977644636823
 31
0.0
  0
LINE
  5
116
330
1F
100
AcDbEntity
  8
1-F
  6
Continuous
 62
     7
370
    13
100
AcDbLine
 10
-1045.846227697424
 20
334.428232553843
 30
0.0
 11
-1312.887861921981
 21
334.428232553843
 31
0.0
  0
LINE
  5
117
330
1F
100
AcDbEntity
  8
1-F
  6
Continuous
 62
     7
370
    13
100
AcDbLine
 10
-1037.448986156567
 20
431.2448779956716
 30
0.0
 11
-1228.730237806165
 21
541.6811061549834
 31
0.0
  0
LINE
  5
118
330
1F
100
AcDbEntity
  8
1-F
  6
Continuous
 62
     7
370
    13
100
AcDbLine
 10
302.5031012457771
 20
334.4281088339318
 30
0.0
 11
173.7542229729732
 21
334.4281088339318
 31
0.0
  0
LINE
  5
119
330
1F
100
AcDbEntity
  8
1-F
  6
Continuous
 62
     7
370
    13
100
AcDbLine
 10
436.1211003483953
 20
-260.5680393528293
 30
0.0
 11
-1623.964381862331
 21
-260.5680393528293
 31
0.0
  0
LINE
  5
11A
330
1F
100
AcDbEntity
  8
1-F
  6
Continuous
 62
     7
370
    13
100
AcDbLine
 10
1226.331308725718
 20
-260.5680393528293
 30
0.0
 11
621.9033730996625
 21
-260.5680393528293
 31
0.0
  0
LINE
  5
11B
330
1F
100
AcDbEntity
  8
1-F
  6
Continuous
 62
     7
370
    13
100
AcDbLine
 10
1020.064482817779
 20
533.5331602354307
 30
0.0
 11
1319.824961069468
 21
533.5331602354307
 31
0.0
  0
LINE
  5
11C
330
1F
100
AcDbEntity
  8
1-F
  6
Continuous
 62
     7
370
    13
100
AcDbLine
 10
1067.579362199114
 20
81.11864244615731
 30
0.0
 11
1497.950208509291
 21
81.11864244615731
 31
0.0
  0
LINE
  5
11D
330
1F
100
AcDbEntity
  8
1-F
  6
Continuous
 62
     7
370
    13
100
AcDbLine
 10
1105.255786792652
 20
-32.64874432537994
 30
0.0
 11
1576.259963576858
 21
-32.64874432537994
 31
0.0
  0
LINE
  5
11E
330
1F
100
AcDbEntity
  8
1-F
  6
Continuous
 62
     7
370
    13
100
AcDbLine
 10
1131.895652977196
 20
-135.1240910710516
 30
0.0
 11
1467.767004064611
 21
-135.1240910710516
 31
0.0
  0
LINE
  5
11F
330
1F
100
AcDbEntity
  8
1-4
  6
Continuous
 62
     7
370
    13
100
AcDbLine
 10
-1551.024936985325
 20
659.4310368718328
 30
0.0
 11
-1547.761762464369
 21
634.6449898384714
 31
0.0
  0
LINE
  5
120
330
1F
100
AcDbEntity
  8
1-4
  6
Continuous
 62
     7
370
    13
100
AcDbLine
 10
-1551.024936985325
 20
659.4310368718328
 30
0.0
 11
-1554.288111506282
 21
634.6449898384714
 31
0.0
  0
LINE
  5
121
330
1F
100
AcDbEntity
  8
1-4
  6
Continuous
 62
     7
370
    13
100
AcDbLine
 10
-1433.513538257496
 20
659.4310368718328
 30
0.0
 11
-1430.250363736539
 21
634.6449898384714
 31
0.0
  0
LINE
  5
122
330
1F
100
AcDbEntity
  8
1-4
  6
Continuous
 62
     7
370
    13
100
AcDbLine
 10
-1433.513538257496
 20
659.4310368718328
 30
0.0
 11
-1436.776712778452
 21
634.6449898384714
 31
0.0
  0
LINE
  5
123
330
1F
100
AcDbEntity
  8
1-4
  6
Continuous
 62
     7
370
    13
100
AcDbLine
 10
-1282.425792797192
 20
791.4206345016894
 30
0.0
 11
-1257.639683903874
 21
794.6838708826016
 31
0.0
  0
LINE
  5
124
330
1F
100
AcDbEntity
  8
1-4
  6
Continuous
 62
     7
370
    13
100
AcDbLine
 10
-1282.425792797192
 20
791.4206345016894
 30
0.0
 11
-1257.639683903874
 21
788.1573981207771
 31
0.0
  0
LINE
  5
125
330
1F
100
AcDbEntity
  8
1-4
  6
Continuous
 62
     7
370
    13
100
AcDbLine
 10
-1228.730237806165
 20
541.6811061549834
 30
0.0
 11
-1205.633276862067
 21
532.1139691327071
 31
0.0
  0
LINE
  5
126
330
1F
100
AcDbEntity
  8
1-4
  6
Continuous
 62
     7
370
    13
100
AcDbLine
 10
-1228.730237806165
 20
541.6811061549834
 30
0.0
 11
-1208.896451383024
 21
526.4620724239867
 31
0.0
  0
LINE
  5
127
330
1F
100
AcDbEntity
  8
1-4
  6
Continuous
 62
     7
370
    13
100
AcDbLine
 10
-1221.925766403611
 20
334.428232553843
 30
0.0
 11
-1197.139657510294
 21
337.6913452148438
 31
0.0
  0
LINE
  5
128
330
1F
100
AcDbEntity
  8
1-4
  6
Continuous
 62
     7
370
    13
100
AcDbLine
 10
-1221.925766403611
 20
334.428232553843
 30
0.0
 11
-1197.139657510294
 21
331.1651198928422
 31
0.0
  0
LINE
  5
129
330
1F
100
AcDbEntity
  8
1-4
  6
Continuous
 62
     7
370
    13
100
AcDbLine
 10
-1282.42566907728
 20
334.428232553843
 30
0.0
 11
-1307.211777970597
 21
337.6913452148438
 31
0.0
  0
LINE
  5
12A
330
1F
100
AcDbEntity
  8
1-4
  6
Continuous
 62
     7
370
    13
100
AcDbLine
 10
-1282.42566907728
 20
334.428232553843
 30
0.0
 11
-1307.211777970597
 21
331.1651198928422
 31
0.0
  0
LINE
  5
12B
330
1F
100
AcDbEntity
  8
1-4
  6
Continuous
 62
     7
370
    13
100
AcDbLine
 10
-1433.513538257496
 20
-40.5683032886401
 30
0.0
 11
-1430.250363736539
 21
-65.35447404191302
 31
0.0
  0
LINE
  5
12C
330
1F
100
AcDbEntity
  8
1-4
  6
Continuous
 62
     7
370
    13
100
AcDbLine
 10
-1433.513538257496
 20
-40.5683032886401
 30
0.0
 11
-1436.776712778452
 21
-65.35447404191302
 31
0.0
  0
LINE
  5
12D
330
1F
100
AcDbEntity
  8
1-4
  6
Continuous
 62
     7
370
    13
100
AcDbLine
 10
-1433.513538257496
 20
-40.5683032886401
 30
0.0
 11
-1436.776712778452
 21
-15.78213253536745
 31
0.0
  0
LINE
  5
12E
330
1F
100
AcDbEntity
  8
1-4
  6
Continuous
 62
     7
370
    13
100
AcDbLine
 10
-1433.513538257496
 20
-40.5683032886401
 30
0.0
 11
-1430.250363736539
 21
-15.78213253536745
 31
0.0
  0
LINE
  5
12F
330
1F
100
AcDbEntity
  8
1-4
  6
Continuous
 62
     7
370
    13
100
AcDbLine
 10
-1433.513538257496
 20
-260.5680393528293
 30
0.0
 11
-1436.776712778452
 21
-235.7818685995565
 31
0.0
  0
LINE
  5
130
330
1F
100
AcDbEntity
  8
1-4
  6
Continuous
 62
     7
370
    13
100
AcDbLine
 10
-1433.513538257496
 20
-260.5680393528293
 30
0.0
 11
-1430.250363736539
 21
-235.7818685995565
 31
0.0
  0
LINE
  5
131
330
1F
100
AcDbEntity
  8
1-4
  6
Continuous
 62
     7
370
    13
100
AcDbLine
 10
-1551.024936985325
 20
-260.5680393528293
 30
0.0
 11
-1554.288111506282
 21
-235.7818685995565
 31
0.0
  0
LINE
  5
132
330
1F
100
AcDbEntity
  8
1-4
  6
Continuous
 62
     7
370
    13
100
AcDbLine
 10
-1551.024936985325
 20
-260.5680393528293
 30
0.0
 11
-1547.761762464369
 21
-235.7818685995565
 31
0.0
  0
LINE
  5
133
330
1F
100
AcDbEntity
  8
1-4
  6
Continuous
 62
     7
370
    13
100
AcDbLine
 10
-1252.17565588049
 20
-441.1867378853462
 30
0.0
 11
-1227.389546987173
 21
-437.9236252243454
 31
0.0
  0
LINE
  5
134
330
1F
100
AcDbEntity
  8
1-4
  6
Continuous
 62
     7
370
    13
100
AcDbLine
 10
-1252.17565588049
 20
-441.1867378853462
 30
0.0
 11
-1227.389546987173
 21
-444.4498505463471
 31
0.0
  0
LINE
  5
135
330
1F
100
AcDbEntity
  8
1-4
  6
Continuous
 62
     7
370
    13
100
AcDbLine
 10
187.3245651657518
 20
-441.1867378853462
 30
0.0
 11
162.5385181323904
 21
-444.4498505463471
 31
0.0
  0
LINE
  5
136
330
1F
100
AcDbEntity
  8
1-4
  6
Continuous
 62
     7
370
    13
100
AcDbLine
 10
187.3245651657518
 20
-441.1867378853462
 30
0.0
 11
162.5385181323904
 21
-437.9236252243454
 31
0.0
  0
LINE
  5
137
330
1F
100
AcDbEntity
  8
1-4
  6
Continuous
 62
     7
370
    13
100
AcDbLine
 10
127.3587613492401
 20
-551.2049164643158
 30
0.0
 11
152.1448083826016
 21
-547.9417419433594
 31
0.0
  0
LINE
  5
138
330
1F
100
AcDbEntity
  8
1-4
  6
Continuous
 62
     7
370
    13
100
AcDbLine
 10
127.3587613492401
 20
-551.2049164643158
 30
0.0
 11
152.1448083826016
 21
-554.4680909852724
 31
0.0
  0
LINE
  5
139
330
1F
100
AcDbEntity
  8
1-4
  6
Continuous
 62
     7
370
    13
100
AcDbLine
 10
247.2903689822635
 20
-551.2049164643158
 30
0.0
 11
222.5043219489021
 21
-554.4680909852724
 31
0.0
  0
LINE
  5
13A
330
1F
100
AcDbEntity
  8
1-4
  6
Continuous
 62
     7
370
    13
100
AcDbLine
 10
247.2903689822635
 20
-551.2049164643158
 30
0.0
 11
222.5043219489021
 21
-547.9417419433594
 31
0.0
  0
LINE
  5
13B
330
1F
100
AcDbEntity
  8
1-4
  6
Continuous
 62
     7
370
    13
100
AcDbLine
 10
217.5743309227198
 20
334.4281088339318
 30
0.0
 11
242.3603779560813
 21
337.6912214949326
 31
0.0
  0
LINE
  5
13C
330
1F
100
AcDbEntity
  8
1-4
  6
Continuous
 62
     7
370
    13
100
AcDbLine
 10
217.5743309227198
 20
334.4281088339318
 30
0.0
 11
242.3603779560813
 21
331.1649961729307
 31
0.0
  0
LINE
  5
13D
330
1F
100
AcDbEntity
  8
1-4
  6
Continuous
 62
     7
370
    13
100
AcDbLine
 10
214.5743705130914
 20
334.4281088339318
 30
0.0
 11
189.78832347973
 21
337.6912214949326
 31
0.0
  0
LINE
  5
13E
330
1F
100
AcDbEntity
  8
1-4
  6
Continuous
 62
     7
370
    13
100
AcDbLine
 10
214.5743705130914
 20
334.4281088339318
 30
0.0
 11
189.78832347973
 21
331.1649961729307
 31
0.0
  0
LINE
  5
13F
330
1F
100
AcDbEntity
  8
1-4
  6
Continuous
 62
     7
370
    13
100
AcDbLine
 10
217.5743309227198
 20
791.4206345016894
 30
0.0
 11
192.7882838893584
 21
788.1573981207771
 31
0.0
  0
LINE
  5
140
330
1F
100
AcDbEntity
  8
1-4
  6
Continuous
 62
     7
370
    13
100
AcDbLine
 10
217.5743309227198
 20
791.4206345016894
 30
0.0
 11
192.7882838893584
 21
794.6838708826016
 31
0.0
  0
LINE
  5
141
330
1F
100
AcDbEntity
  8
1-4
  6
Continuous
 62
     7
370
    13
100
AcDbLine
 10
959.1655834301099
 20
428.0529042836784
 30
0.0
 11
968.732596732475
 21
451.1499270877323
 31
0.0
  0
LINE
  5
142
330
1F
100
AcDbEntity
  8
1-4
  6
Continuous
 62
     7
370
    13
100
AcDbLine
 10
959.1655834301099
 20
428.0529042836784
 30
0.0
 11
974.3846171611068
 21
447.8868144267315
 31
0.0
  0
LINE
  5
143
330
1F
100
AcDbEntity
  8
1-4
  6
Continuous
 62
     7
370
    13
100
AcDbLine
 10
972.9083911792651
 20
-80.55334142736484
 30
0.0
 11
982.6171875
 21
-57.51558046083176
 31
0.0
  0
LINE
  5
144
330
1F
100
AcDbEntity
  8
1-4
  6
Continuous
 62
     7
370
    13
100
AcDbLine
 10
972.9083911792651
 20
-80.55334142736484
 30
0.0
 11
988.2489178631761
 21
-60.81345841691302
 31
0.0
  0
LINE
  5
145
330
1F
100
AcDbEntity
  8
1-4
  6
Continuous
 62
     7
370
    13
100
AcDbLine
 10
1008.215084591428
 20
-204.6095234638935
 30
0.0
 11
1017.554700696791
 21
-181.4195870064398
 31
0.0
  0
LINE
  5
146
330
1F
100
AcDbEntity
  8
1-4
  6
Continuous
 62
     7
370
    13
100
AcDbLine
 10
1008.215084591428
 20
-204.6095234638935
 30
0.0
 11
1023.23839342272
 21
-184.6270257073479
 31
0.0
  0
LINE
  5
147
330
1F
100
AcDbEntity
  8
1-4
  6
Continuous
 62
     7
370
    13
100
AcDbLine
 10
1088.915603225296
 20
-209.5680937895904
 30
0.0
 11
1098.48261652766
 21
-186.4710709855362
 31
0.0
  0
LINE
  5
148
330
1F
100
AcDbEntity
  8
1-4
  6
Continuous
 62
     7
370
    13
100
AcDbLine
 10
1088.915603225296
 20
-209.5680937895904
 30
0.0
 11
1104.134636956292
 21
-189.734183646537
 31
0.0
  0
LINE
  5
149
330
1F
100
AcDbEntity
  8
1-4
  6
Continuous
 62
     7
370
    13
100
AcDbLine
 10
768.9155372413433
 20
-366.5218951251055
 30
0.0
 11
793.7015842747047
 21
-363.2587824641047
 31
0.0
  0
LINE
  5
14A
330
1F
100
AcDbEntity
  8
1-4
  6
Continuous
 62
     7
370
    13
100
AcDbLine
 10
768.9155372413433
 20
-366.5218951251055
 30
0.0
 11
793.7015842747047
 21
-369.7850077861063
 31
0.0
  0
LINE
  5
14B
330
1F
100
AcDbEntity
  8
1-4
  6
Continuous
 62
     7
370
    13
100
AcDbLine
 10
728.9658829972552
 20
-441.1867378853462
 30
0.0
 11
753.7519300306167
 21
-437.9236252243454
 31
0.0
  0
LINE
  5
14C
330
1F
100
AcDbEntity
  8
1-4
  6
Continuous
 62
     7
370
    13
100
AcDbLine
 10
728.9658829972552
 20
-441.1867378853462
 30
0.0
 11
753.7519300306167
 21
-444.4498505463471
 31
0.0
  0
LINE
  5
14D
330
1F
100
AcDbEntity
  8
1-4
  6
Continuous
 62
     7
370
    13
100
AcDbLine
 10
1088.915603225296
 20
-366.5218951251055
 30
0.0
 11
1064.129556191934
 21
-369.7850077861063
 31
0.0
  0
LINE
  5
14E
330
1F
100
AcDbEntity
  8
1-4
  6
Continuous
 62
     7
370
    13
100
AcDbLine
 10
1088.915603225296
 20
-366.5218951251055
 30
0.0
 11
1064.129556191934
 21
-363.2587824641047
 31
0.0
  0
LINE
  5
14F
330
1F
100
AcDbEntity
  8
1-4
  6
Continuous
 62
     7
370
    13
100
AcDbLine
 10
1128.864762589739
 20
-441.1867378853462
 30
0.0
 11
1104.078715556377
 21
-444.4498505463471
 31
0.0
  0
LINE
  5
150
330
1F
100
AcDbEntity
  8
1-4
  6
Continuous
 62
     7
370
    13
100
AcDbLine
 10
1128.864762589739
 20
-441.1867378853462
 30
0.0
 11
1104.078715556377
 21
-437.9236252243454
 31
0.0
  0
ARC
  5
151
330
1F
100
AcDbEntity
  8
1-0
  6
JWW_CENTER1
 62
     3
370
    13
100
AcDbCircle
 10
-1077.17569712046
 20
454.1810649150128
 30
0.0
 40
175.0000051549963
100
AcDbArc
 50
89.99975585937501
 51
180.0
  0
ARC
  5
152
330
1F
100
AcDbEntity
  8
1-0
  6
Continuous
 62
     3
370
    13
100
AcDbCircle
 10
-1077.17569712046
 20
454.1809411951016
 30
0.0
 40
205.2500028867979
100
AcDbArc
 50
89.99977111816406
 51
180.0
  0
ARC
  5
153
330
1F
100
AcDbEntity
  8
1-0
  6
Continuous
 62
     3
370
    13
100
AcDbCircle
 10
-1077.17569712046
 20
454.1805700353675
 30
0.0
 40
144.7500074231947
100
AcDbArc
 50
89.99980163574219
 51
180.0
  0
ARC
  5
154
330
1F
100
AcDbEntity
  8
1-0
  6
Continuous
 62
     3
370
    13
100
AcDbCircle
 10
928.9155702333193
 20
629.1817659945102
 30
0.0
 40
30.24996486870018
100
AcDbArc
 50
0.0
 51
180.0
  0
ARC
  5
155
330
1F
100
AcDbEntity
  8
1-D
  6
Continuous
 62
     2
370
    13
100
AcDbCircle
 10
970.6255113756339
 20
-98.57562090899478
 30
0.0
 40
3.040000232490334
100
AcDbArc
 50
318.6724548339844
 51
41.32754516601564
  0
ARC
  5
156
330
1F
100
AcDbEntity
  8
1-D
  6
Continuous
 62
     2
370
    13
100
AcDbCircle
 10
970.6255113756339
 20
-82.56057326858098
 30
0.0
 40
3.040000232490334
100
AcDbArc
 50
318.6724548339844
 51
41.32754516601564
  0
ARC
  5
157
330
1F
100
AcDbEntity
  8
1-D
  6
Continuous
 62
     2
370
    13
100
AcDbCircle
 10
949.5119661898229
 20
-90.56797336887655
 30
0.0
 40
24.15347292616561
100
AcDbArc
 50
345.6165313720703
 51
14.38359069824219
  0
ARC
  5
158
330
1F
100
AcDbEntity
  8
1-D
  6
Continuous
 62
     2
370
    13
100
AcDbCircle
 10
885.568567224451
 20
-98.77579972550677
 30
0.0
 40
3.903030463167139
100
AcDbArc
 50
135.3612976074219
 51
224.6389617919922
  0
ARC
  5
159
330
1F
100
AcDbEntity
  8
1-D
  6
Continuous
 62
     2
370
    13
100
AcDbCircle
 10
895.4933785103464
 20
-90.56797336887655
 30
0.0
 40
13.8279009509731
100
AcDbArc
 50
156.7198028564453
 51
203.2803039550781
  0
ARC
  5
15A
330
1F
100
AcDbEntity
  8
1-D
  6
Continuous
 62
     2
370
    13
100
AcDbCircle
 10
885.568567224451
 20
-82.36051817198046
 30
0.0
 40
3.903060909864065
100
AcDbArc
 50
135.3612976074219
 51
224.63818359375
  0
ARC
  5
15B
330
1F
100
AcDbEntity
  8
1-0
  6
Continuous
 62
     2
370
    13
100
AcDbCircle
 10
1111.72905999261
 20
-216.8683108767947
 30
0.0
 40
2.000000146595208
100
AcDbArc
 50
186.2657318115234
 51
262.1466522216797
  0
ARC
  5
15C
330
1F
100
AcDbEntity
  8
1-0
  6
Continuous
 62
     2
370
    13
100
AcDbCircle
 10
1119.58849107897
 20
-225.0188549144848
 30
0.0
 40
5.000001030999261
100
AcDbArc
 50
9.462356567382812
 51
82.14665222167969
  0
ARC
  5
15D
330
1F
100
AcDbEntity
  8
1-0
  6
Continuous
 62
     2
370
    13
100
AcDbCircle
 10
971.1654250686234
 20
-195.5680723448057
 30
0.0
 40
5.000001030999261
100
AcDbArc
 50
180.0
 51
270.0
  0
ARC
  5
15E
330
1F
100
AcDbEntity
  8
1-0
  6
Continuous
 62
     2
370
    13
100
AcDbCircle
 10
959.6654118718328
 20
-240.0961056271115
 30
0.0
 40
0.5000000366488019
100
AcDbArc
 50
273.2700347900391
 51
359.9999999999999
  0
ARC
  5
15F
330
1F
100
AcDbEntity
  8
1-0
  6
Continuous
 62
     2
370
    13
100
AcDbCircle
 10
951.9155966269005
 20
-241.5404118718327
 30
0.0
 40
0.5000000366488019
100
AcDbArc
 50
93.27003479003906
 51
180.0
  0
ARC
  5
160
330
1F
100
AcDbEntity
  8
1-0
  6
Continuous
 62
     2
370
    13
100
AcDbCircle
 10
960.665563634924
 20
-83.06807234480573
 30
0.0
 40
0.5000000366488019
100
AcDbArc
 50
180.0
 51
270.0
  0
ARC
  5
161
330
1F
100
AcDbEntity
  8
1-0
  6
Continuous
 62
     2
370
    13
100
AcDbCircle
 10
960.665563634924
 20
-98.06812183277032
 30
0.0
 40
0.5000000366488019
100
AcDbArc
 50
90.0
 51
180.0
  0
ARC
  5
162
330
1F
100
AcDbEntity
  8
1-0
  6
Continuous
 62
     2
370
    13
100
AcDbCircle
 10
1044.26830394848
 20
-208.0681135847762
 30
0.0
 40
1.500000260971688
100
AcDbArc
 50
262.1459045410156
 51
270.0
  0
ARC
  5
163
330
1F
100
AcDbEntity
  8
1-0
  6
Continuous
 62
     2
370
    13
100
AcDbCircle
 10
964.6656758076438
 20
-42.06815977354296
 30
0.0
 40
1.500000260971688
100
AcDbArc
 50
0.0
 51
90.0
  0
ARC
  5
164
330
1F
100
AcDbEntity
  8
1-0
  6
Continuous
 62
     2
370
    13
100
AcDbCircle
 10
978.8128002269849
 20
-202.0681927655193
 30
0.0
 40
1.500000260971688
100
AcDbArc
 50
82.1468505859375
 51
90.0
  0
ARC
  5
165
330
1F
100
AcDbEntity
  8
1-0
  6
Continuous
 62
     2
370
    13
100
AcDbCircle
 10
1107.571328652872
 20
-211.0681977143157
 30
0.0
 40
1.500000260971688
100
AcDbArc
 50
6.265106201171875
 51
90.0
  0
ARC
  5
166
330
1F
100
AcDbEntity
  8
1-0
  6
Continuous
 62
     2
370
    13
100
AcDbCircle
 10
1067.949779613598
 20
-253.0682620486697
 30
0.0
 40
1.500000260971688
100
AcDbArc
 50
24.44400024414062
 51
90.0
  0
ARC
  5
167
330
1F
100
AcDbEntity
  8
1-0
  6
Continuous
 62
     2
370
    13
100
AcDbCircle
 10
1127.365029824747
 20
-250.3894785288217
 30
0.0
 40
1.500000260971688
100
AcDbArc
 50
337.3799133300781
 51
9.462326049804702
  0
ARC
  5
168
330
1F
100
AcDbEntity
  8
1-0
  6
Continuous
 62
     2
370
    13
100
AcDbCircle
 10
746.1020804740286
 20
-216.8683108767947
 30
0.0
 40
2.000000146595208
100
AcDbArc
 50
277.8533477783203
 51
353.7342681884766
  0
ARC
  5
169
330
1F
100
AcDbEntity
  8
1-0
  6
Continuous
 62
     2
370
    13
100
AcDbCircle
 10
738.2428968274917
 20
-225.0188549144848
 30
0.0
 40
5.000001030999261
100
AcDbArc
 50
97.85334777832031
 51
170.5376434326172
  0
ARC
  5
16A
330
1F
100
AcDbEntity
  8
1-0
  6
Continuous
 62
     2
370
    13
100
AcDbCircle
 10
886.6657153980151
 20
-195.5680723448057
 30
0.0
 40
5.000001030999261
100
AcDbArc
 50
270.0
 51
0.0
  0
ARC
  5
16B
330
1F
100
AcDbEntity
  8
1-0
  6
Continuous
 62
     2
370
    13
100
AcDbCircle
 10
898.1657285948057
 20
-240.0961056271115
 30
0.0
 40
0.5000000366488019
100
AcDbArc
 50
180.0
 51
266.7299652099609
  0
ARC
  5
16C
330
1F
100
AcDbEntity
  8
1-0
  6
Continuous
 62
     2
370
    13
100
AcDbCircle
 10
905.9155438397386
 20
-241.5404118718327
 30
0.0
 40
0.5000000366488019
100
AcDbArc
 50
0.0
 51
86.72996520996094
  0
ARC
  5
16D
330
1F
100
AcDbEntity
  8
1-0
  6
Continuous
 62
     2
370
    13
100
AcDbCircle
 10
897.1658242715375
 20
-83.06807234480573
 30
0.0
 40
0.5000000366488019
100
AcDbArc
 50
270.0
 51
0.0
  0
ARC
  5
16E
330
1F
100
AcDbEntity
  8
1-0
  6
Continuous
 62
     2
370
    13
100
AcDbCircle
 10
897.1658242715375
 20
-98.06812183277032
 30
0.0
 40
0.5000000366488019
100
AcDbArc
 50
0.0
 51
90.0
  0
ARC
  5
16F
330
1F
100
AcDbEntity
  8
1-0
  6
Continuous
 62
     2
370
    13
100
AcDbCircle
 10
813.5628365181589
 20
-208.0681135847762
 30
0.0
 40
1.500000260971688
100
AcDbArc
 50
270.0
 51
277.8540954589844
  0
ARC
  5
170
330
1F
100
AcDbEntity
  8
1-0
  6
Continuous
 62
     2
370
    13
100
AcDbCircle
 10
893.1654646589953
 20
-42.06815977354296
 30
0.0
 40
1.500000260971688
100
AcDbArc
 50
90.0
 51
180.0
  0
ARC
  5
171
330
1F
100
AcDbEntity
  8
1-0
  6
Continuous
 62
     2
370
    13
100
AcDbCircle
 10
879.018835119299
 20
-202.0681927655193
 30
0.0
 40
1.500000260971688
100
AcDbArc
 50
90.0
 51
97.8531494140625
  0
ARC
  5
172
330
1F
100
AcDbEntity
  8
1-0
  6
Continuous
 62
     2
370
    13
100
AcDbCircle
 10
750.2600592535896
 20
-211.0681977143157
 30
0.0
 40
1.500000260971688
100
AcDbArc
 50
90.0
 51
173.7348937988281
  0
ARC
  5
173
330
1F
100
AcDbEntity
  8
1-0
  6
Continuous
 62
     2
370
    13
100
AcDbCircle
 10
789.8816082928636
 20
-253.0682620486697
 30
0.0
 40
1.500000260971688
100
AcDbArc
 50
90.0
 51
155.5559997558594
  0
ARC
  5
174
330
1F
100
AcDbEntity
  8
1-0
  6
Continuous
 62
     2
370
    13
100
AcDbCircle
 10
730.4658632020693
 20
-250.3894785288217
 30
0.0
 40
1.500000260971688
100
AcDbArc
 50
170.5376739501953
 51
202.6200866699219
  0
CIRCLE
  5
175
330
1F
100
AcDbEntity
  8
1-1
  6
Continuous
 62
     2
370
    13
100
AcDbCircle
 10
-1252.175779600401
 20
-90.56809708878802
 30
0.0
 40
8.673236498961579
  0
ELLIPSE
  5
176
330
1F
100
AcDbEntity
  8
1-0
  6
Continuous
 62
     2
370
    13
100
AcDbEllipse
 10
-1252.175532160579
 20
-215.8384663349872
 30
0.0
 11
20.99997997283936
 21
0.0
 31
0.0
210
0.0
220
0.0
230
1.0
 40
0.1351
 41
3.141592653589792
 42
6.283185307179586
  0
ARC
  5
177
330
1F
100
AcDbEntity
  8
1-0
  6
Continuous
 62
     2
370
    13
100
AcDbCircle
 10
-1274.831740920608
 20
-213.8385339685388
 30
0.0
 40
2.000000146595208
100
AcDbArc
 50
270.0
 51
349.2559356689454
  0
CIRCLE
  5
178
330
1F
100
AcDbEntity
  8
1-0
  6
Continuous
 62
     2
370
    13
100
AcDbCircle
 10
-1252.175779600401
 20
-90.56822080869921
 30
0.0
 40
6.999993324279785
  0
ARC
  5
179
330
1F
100
AcDbEntity
  8
1-0
  6
Continuous
 62
     2
370
    13
100
AcDbCircle
 10
-1229.51944712046
 20
-213.8385339685388
 30
0.0
 40
2.000000146595208
100
AcDbArc
 50
190.7440643310547
 51
270.0
  0
ARC
  5
17A
330
1F
100
AcDbEntity
  8
1-0
  6
Continuous
 62
     2
370
    13
100
AcDbCircle
 10
-1304.736451844911
 20
-227.4128351984797
 30
0.0
 40
5.000001030999261
100
AcDbArc
 50
92.007080078125
 51
174.0531921386719
  0
ARC
  5
17B
330
1F
100
AcDbEntity
  8
1-0
  6
Continuous
 62
     2
370
    13
100
AcDbCircle
 10
-1302.65263737859
 20
-207.4070780986064
 30
0.0
 40
5.000001030999261
100
AcDbArc
 50
92.08251953124999
 51
174.0531005859375
  0
ARC
  5
17C
330
1F
100
AcDbEntity
  8
1-0
  6
Continuous
 62
     2
370
    13
100
AcDbCircle
 10
-1199.614736196157
 20
-227.4128351984797
 30
0.0
 40
5.000001030999261
100
AcDbArc
 50
5.946807861328125
 51
87.992919921875
  0
ARC
  5
17D
330
1F
100
AcDbEntity
  8
1-0
  6
Continuous
 62
     2
370
    13
100
AcDbCircle
 10
-1201.69867438239
 20
-207.4070780986064
 30
0.0
 40
5.000001030999261
100
AcDbArc
 50
5.946899414062499
 51
87.91748046875
  0
ARC
  5
17E
330
1F
100
AcDbEntity
  8
1-0
  6
Continuous
 62
     2
370
    13
100
AcDbCircle
 10
-1270.921820563239
 20
-212.0073555611275
 30
0.0
 40
1.500000260971688
100
AcDbArc
 50
92.86273193359376
 51
169.2561798095703
  0
ARC
  5
17F
330
1F
100
AcDbEntity
  8
1-0
  6
Continuous
 62
     2
370
    13
100
AcDbCircle
 10
-1233.429491197741
 20
-212.0073555611275
 30
0.0
 40
1.500000260971688
100
AcDbArc
 50
10.74382019042969
 51
87.13726806640625
  0
ARC
  5
180
330
1F
100
AcDbEntity
  8
1-0
  6
Continuous
 62
     2
370
    13
100
AcDbCircle
 10
-1287.925514014992
 20
-43.98668443834453
 30
0.0
 40
1.500000260971688
100
AcDbArc
 50
93.06739807128906
 51
180.0
  0
ARC
  5
181
330
1F
100
AcDbEntity
  8
1-0
  6
Continuous
 62
     2
370
    13
100
AcDbCircle
 10
-1216.425674026077
 20
-43.98668443834453
 30
0.0
 40
1.500000260971688
100
AcDbArc
 50
0.0
 51
86.93260192871094
  0
ARC
  5
182
330
1F
100
AcDbEntity
  8
1-0
  6
Continuous
 62
     2
370
    13
100
AcDbCircle
 10
-1310.641479492188
 20
-250.3184632997254
 30
0.0
 40
1.500000260971688
100
AcDbArc
 50
174.0530242919922
 51
204.4447784423828
  0
ARC
  5
183
330
1F
100
AcDbEntity
  8
1-0
  6
Continuous
 62
     2
370
    13
100
AcDbCircle
 10
-1193.709708548881
 20
-250.3184632997254
 30
0.0
 40
1.500000260971688
100
AcDbArc
 50
335.5550079345703
 51
5.946975708007843
  0
ARC
  5
184
330
1F
100
AcDbEntity
  8
1-0
  6
JWW_DASHED1
 62
     2
370
    13
100
AcDbCircle
 10
-1221.425690522065
 20
-240.0959819072001
 30
0.0
 40
0.5000000366488019
100
AcDbArc
 50
273.2700347900391
 51
359.9999999999999
  0
ARC
  5
185
330
1F
100
AcDbEntity
  8
1-0
  6
JWW_DASHED1
 62
     2
370
    13
100
AcDbCircle
 10
-1229.17575320682
 20
-241.5404118718327
 30
0.0
 40
0.5000000366488019
100
AcDbArc
 50
93.27003479003906
 51
180.0
  0
ARC
  5
186
330
1F
100
AcDbEntity
  8
1-0
  6
JWW_DASHED1
 62
     2
370
    13
100
AcDbCircle
 10
-1282.925868678737
 20
-240.0959819072001
 30
0.0
 40
0.5000000366488019
100
AcDbArc
 50
180.0
 51
266.7299652099609
  0
ARC
  5
187
330
1F
100
AcDbEntity
  8
1-0
  6
JWW_DASHED1
 62
     2
370
    13
100
AcDbCircle
 10
-1275.175682274071
 20
-241.5404118718327
 30
0.0
 40
0.5000000366488019
100
AcDbArc
 50
0.0
 51
86.72996520996094
  0
ARC
  5
188
330
1F
100
AcDbEntity
  8
1-0
  6
Continuous
 62
     3
370
    13
100
AcDbCircle
 10
928.9155702333193
 20
629.1817659945102
 30
0.0
 40
27.4499628994916
100
AcDbArc
 50
0.0
 51
180.0
  0
CIRCLE
  5
189
330
1F
100
AcDbEntity
  8
1-1
  6
Continuous
 62
     2
370
    13
100
AcDbCircle
 10
187.3243177259292
 20
-90.56809708878802
 30
0.0
 40
8.673236498961579
  0
ELLIPSE
  5
18A
330
1F
100
AcDbEntity
  8
1-0
  6
Continuous
 62
     2
370
    13
100
AcDbEllipse
 10
187.3248126055745
 20
-215.8384663349872
 30
0.0
 11
20.99997997283936
 21
0.0
 31
0.0
210
0.0
220
0.0
230
1.0
 40
0.1351
 41
3.141592653589792
 42
6.283185307179586
  0
ARC
  5
18B
330
1F
100
AcDbEntity
  8
1-0
  6
Continuous
 62
     2
370
    13
100
AcDbCircle
 10
164.6682326858109
 20
-213.8385339685388
 30
0.0
 40
2.000000146595208
100
AcDbArc
 50
270.0
 51
349.2559356689454
  0
ARC
  5
18C
330
1F
100
AcDbEntity
  8
1-0
  6
Continuous
 62
     2
370
    13
100
AcDbCircle
 10
209.9808976456927
 20
-213.8385339685388
 30
0.0
 40
2.000000146595208
100
AcDbArc
 50
190.7440643310547
 51
270.0
  0
ARC
  5
18D
330
1F
100
AcDbEntity
  8
1-0
  6
Continuous
 62
     2
370
    13
100
AcDbCircle
 10
134.763645481419
 20
-227.4128351984797
 30
0.0
 40
5.000001030999261
100
AcDbArc
 50
92.007080078125
 51
174.0531921386719
  0
ARC
  5
18E
330
1F
100
AcDbEntity
  8
1-0
  6
Continuous
 62
     2
370
    13
100
AcDbCircle
 10
136.8475836676521
 20
-207.4070780986064
 30
0.0
 40
5.000001030999261
100
AcDbArc
 50
92.08251953124999
 51
174.0531005859375
  0
ARC
  5
18F
330
1F
100
AcDbEntity
  8
1-0
  6
Continuous
 62
     2
370
    13
100
AcDbCircle
 10
239.8854848500847
 20
-227.4128351984797
 30
0.0
 40
5.000001030999261
100
AcDbArc
 50
5.946807861328125
 51
87.992919921875
  0
ARC
  5
190
330
1F
100
AcDbEntity
  8
1-0
  6
Continuous
 62
     2
370
    13
100
AcDbCircle
 10
237.8015466638516
 20
-207.4070780986064
 30
0.0
 40
5.000001030999261
100
AcDbArc
 50
5.946899414062499
 51
87.91748046875
  0
ARC
  5
191
330
1F
100
AcDbEntity
  8
1-0
  6
Continuous
 62
     2
370
    13
100
AcDbCircle
 10
168.5785242029141
 20
-212.0073555611275
 30
0.0
 40
1.500000260971688
100
AcDbArc
 50
92.86273193359376
 51
169.2561798095703
  0
ARC
  5
192
330
1F
100
AcDbEntity
  8
1-0
  6
Continuous
 62
     2
370
    13
100
AcDbCircle
 10
206.0708535684122
 20
-212.0073555611275
 30
0.0
 40
1.500000260971688
100
AcDbArc
 50
10.74382019042969
 51
87.13726806640625
  0
ARC
  5
193
330
1F
100
AcDbEntity
  8
1-0
  6
Continuous
 62
     2
370
    13
100
AcDbCircle
 10
151.57470703125
 20
-43.98668443834453
 30
0.0
 40
1.500000260971688
100
AcDbArc
 50
93.06739807128906
 51
180.0
  0
ARC
  5
194
330
1F
100
AcDbEntity
  8
1-0
  6
Continuous
 62
     2
370
    13
100
AcDbCircle
 10
223.0744233002534
 20
-43.98668443834453
 30
0.0
 40
1.500000260971688
100
AcDbArc
 50
0.0
 51
86.93260192871094
  0
ARC
  5
195
330
1F
100
AcDbEntity
  8
1-0
  6
Continuous
 62
     2
370
    13
100
AcDbCircle
 10
128.8587415540542
 20
-250.3184632997254
 30
0.0
 40
1.500000260971688
100
AcDbArc
 50
174.0530242919922
 51
204.4447784423828
  0
ARC
  5
196
330
1F
100
AcDbEntity
  8
1-0
  6
Continuous
 62
     2
370
    13
100
AcDbCircle
 10
245.7903887774495
 20
-250.3184632997254
 30
0.0
 40
1.500000260971688
100
AcDbArc
 50
335.5550079345703
 51
5.946975708007843
  0
ARC
  5
197
330
1F
100
AcDbEntity
  8
1-0
  6
JWW_DASHED1
 62
     2
370
    13
100
AcDbCircle
 10
218.0744068042654
 20
-240.0959819072001
 30
0.0
 40
0.5000000366488019
100
AcDbArc
 50
273.2700347900391
 51
359.9999999999999
  0
ARC
  5
198
330
1F
100
AcDbEntity
  8
1-0
  6
JWW_DASHED1
 62
     2
370
    13
100
AcDbCircle
 10
210.3243441195102
 20
-241.5404118718327
 30
0.0
 40
0.5000000366488019
100
AcDbArc
 50
93.27003479003906
 51
180.0
  0
ARC
  5
199
330
1F
100
AcDbEntity
  8
1-0
  6
JWW_DASHED1
 62
     2
370
    13
100
AcDbCircle
 10
156.5744760874156
 20
-240.0959819072001
 30
0.0
 40
0.5000000366488019
100
AcDbArc
 50
180.0
 51
266.7299652099609
  0
ARC
  5
19A
330
1F
100
AcDbEntity
  8
1-0
  6
JWW_DASHED1
 62
     2
370
    13
100
AcDbCircle
 10
164.3245387721709
 20
-241.5404118718327
 30
0.0
 40
0.5000000366488019
100
AcDbArc
 50
0.0
 51
86.72996520996094
  0
ARC
  5
19B
330
1F
100
AcDbEntity
  8
1-0
  6
JWW_CENTER1
 62
     3
370
    13
100
AcDbCircle
 10
12.32448268581095
 20
454.181188634924
 30
0.0
 40
175.0000051549963
100
AcDbArc
 50
0.0
 51
90.000244140625
  0
ARC
  5
19C
330
1F
100
AcDbEntity
  8
1-0
  6
Continuous
 62
     3
370
    13
100
AcDbCircle
 10
12.32448268581095
 20
454.1809411951016
 30
0.0
 40
205.2500028867979
100
AcDbArc
 50
0.0
 51
90.00022888183595
  0
ARC
  5
19D
330
1F
100
AcDbEntity
  8
1-0
  6
Continuous
 62
     3
370
    13
100
AcDbCircle
 10
12.32448268581095
 20
454.1805700353675
 30
0.0
 40
144.7500074231947
100
AcDbArc
 50
0.0
 51
90.00019836425781
  0
ARC
  5
19E
330
1F
100
AcDbEntity
  8
1-0
  6
Continuous
 62
     3
370
    13
100
AcDbCircle
 10
12.32448268581095
 20
454.1809411951016
 30
0.0
 40
202.2500115471917
100
AcDbArc
 50
0.0
 51
90.00022888183595
  0
ARC
  5
19F
330
1F
100
AcDbEntity
  8
1-0
  6
Continuous
 62
     3
370
    13
100
AcDbCircle
 10
12.32448268581095
 20
454.1805700353675
 30
0.0
 40
147.7500142277898
100
AcDbArc
 50
0.0
 51
90.00019836425781
  0
CIRCLE
  5
1A0
330
1F
100
AcDbEntity
  8
1-0
  6
Continuous
 62
     2
370
    13
100
AcDbCircle
 10
187.3243177259292
 20
-90.56822080869921
 30
0.0
 40
6.999993324279785
  0
TEXT
  5
1A1
330
1F
100
AcDbEntity
  8
1-F
  6
Continuous
 62
     2
370
    13
100
AcDbText
 10
-1208.947916804133
 20
343.0681929634713
 30
0.0
 40
30.48
  1
φ60.5
 41
1.104166666666667
  7
ＭＳ ゴシック
100
AcDbText
  0
TEXT
  5
1A2
330
1F
100
AcDbEntity
  8
1-F
  6
Continuous
 62
     2
370
    13
100
AcDbText
 10
-1122.73152622411
 20
493.1734100085296
 30
0.0
 40
30.48
  1
R175
 50
329.9999479387552
 41
1.09375
  7
ＭＳ ゴシック
100
AcDbText
  0
TEXT
  5
1A3
330
1F
100
AcDbEntity
  8
1-F
  6
Continuous
 62
     2
370
    13
100
AcDbText
 10
313.7585946832378
 20
-243.147429397236
 30
0.0
 40
30.48
  1
G.L.
 50
0.0000810129783828
 41
1.09375
  7
ＭＳ ゴシック
100
AcDbText
  0
TEXT
  5
1A4
330
1F
100
AcDbEntity
  8
1-F
  6
Continuous
 62
     2
370
    13
100
AcDbText
 10
-1559.664895974334
 20
166.9314985129695
 30
0.0
 40
30.48
  1
920
 50
90.00000250447816
 41
1.083333333333333
  7
ＭＳ ゴシック
100
AcDbText
  0
TEXT
  5
1A5
330
1F
100
AcDbEntity
  8
1-F
  6
Continuous
 62
     2
370
    13
100
AcDbText
 10
-1442.153620966415
 20
-183.068171567267
 30
0.0
 40
30.48
  1
220
 50
90.00000250447816
 41
1.083333333333333
  7
ＭＳ ゴシック
100
AcDbText
  0
TEXT
  5
1A6
330
1F
100
AcDbEntity
  8
1-F
  6
Continuous
 62
     2
370
    13
100
AcDbText
 10
-1442.153620966415
 20
276.9313665450642
 30
0.0
 40
30.48
  1
700
 50
90.00000250447816
 41
1.083333333333334
  7
ＭＳ ゴシック
100
AcDbText
  0
TEXT
  5
1A7
330
1F
100
AcDbEntity
  8
1-F
  6
Continuous
 62
     2
370
    13
100
AcDbText
 10
896.4153120584685
 20
-432.5467774757608
 30
0.0
 40
30.48
  1
400
 50
0.0001090558848377
 41
1.083333333333332
  7
ＭＳ ゴシック
100
AcDbText
  0
TEXT
  5
1A8
330
1F
100
AcDbEntity
  8
1-F
  6
Continuous
 62
     2
370
    13
100
AcDbText
 10
896.4155702333196
 20
-357.8819347154771
 30
0.0
 40
30.48
  1
320
 41
1.083333333333333
  7
ＭＳ ゴシック
100
AcDbText
  0
TEXT
  5
1A9
330
1F
100
AcDbEntity
  8
1-F
  6
Continuous
 62
     2
370
    13
100
AcDbText
 10
154.8245544307235
 20
-542.5647086149079
 30
0.0
 40
30.48
  1
120
 50
0.0001090558848377
 41
1.083333333333333
  7
ＭＳ ゴシック
100
AcDbText
  0
TEXT
  5
1AA
330
1F
100
AcDbEntity
  8
1-F
  6
Continuous
 62
     7
370
    13
100
AcDbText
 10
1138.807406038852
 20
-125.7088658678208
 30
0.0
 40
22.86
  1
アンカー穴：φ１４
 41
1.148148148148148
  7
ＭＳ ゴシック
100
AcDbText
  0
TEXT
  5
1AB
330
1F
100
AcDbEntity
  8
1-F
  6
Continuous
 62
     7
370
    13
100
AcDbText
 10
1112.167721310178
 20
-20.05329880173123
 30
0.0
 40
22.86
  1
支持脚：ＦＣＤ５００
 41
1.15
  7
ＭＳ ゴシック
100
AcDbText
  0
TEXT
  5
1AC
330
1F
100
AcDbEntity
  8
1-F
  6
Continuous
 62
     7
370
    13
100
AcDbText
 10
1071.045936378273
 20
93.45576079497475
 30
0.0
 40
22.86
  1
六角ボルト：Ｍ１２×９０
 41
1.152777777777778
  7
ＭＳ ゴシック
100
AcDbText
  0
TEXT
  5
1AD
330
1F
100
AcDbEntity
  8
1-F
  6
Continuous
 62
     7
370
    13
100
AcDbText
 10
1074.975849873311
 20
130.3022722233953
 30
0.0
 40
22.86
  1
六角ナット：Ｍ１２
 41
1.148148148148148
  7
ＭＳ ゴシック
100
AcDbText
  0
TEXT
  5
1AE
330
1F
100
AcDbEntity
  8
0-F
  6
Continuous
 62
     2
370
    13
100
AcDbText
 10
239.8936668602197
 20
-992.255223256704
 30
0.0
 40
30.48
  1
注記
 41
1.0625
  7
ＭＳ ゴシック
100
AcDbText
  0
TEXT
  5
1AF
330
1F
100
AcDbEntity
  8
1-F
  6
Continuous
 62
     7
370
    13
100
AcDbText
 10
1143.994742728569
 20
49.79982916754663
 30
0.0
 40
22.86
  1
溶融亜鉛めっき
 41
1.142857142857143
  7
ＭＳ ゴシック
100
AcDbText
  0
TEXT
  5
1B0
330
1F
100
AcDbEntity
  8
1-F
  6
Continuous
 62
     7
370
    13
100
AcDbText
 10
1054.862435005807
 20
500.1018294710727
 30
0.0
 40
22.86
  1
ヘアライン仕上
 41
0.9857142857142859
  7
ＭＳ ゴシック
100
AcDbText
  0
TEXT
  5
1B1
330
1F
100
AcDbEntity
  8
1-F
  6
Continuous
 62
     7
370
    13
100
AcDbText
 10
1033.750597154772
 20
548.9849273516683
 30
0.0
 40
22.86
  1
本体：ＳＵＳ３０４
 41
0.9888888888888885
  7
ＭＳ ゴシック
100
AcDbText
  0
TEXT
  5
1B2
330
1F
100
AcDbEntity
  8
1-F
  6
Continuous
 62
     2
370
    13
100
AcDbText
 10
242.7132601351353
 20
343.0683166833828
 30
0.0
 40
30.48
  1
3
 41
0.9999999999999998
  7
ＭＳ ゴシック
100
AcDbText
  0
TEXT
  5
1B3
330
1F
100
AcDbEntity
  8
0-F
  6
Continuous
 62
     2
370
    13
100
AcDbText
 10
265.7345993454395
 20
-1060.671932125607
 30
0.0
 40
30.48
  1
一定の場所に固定したい場合には、
 41
1.1171875
  7
ＭＳ ゴシック
100
AcDbText
  0
TEXT
  5
1B4
330
1F
100
AcDbEntity
  8
0-5
  6
Continuous
 62
     2
370
    13
100
AcDbText
 10
-833.8512894913956
 20
-1353.414058178051
 30
0.0
 40
30.48
  1
アーチ型据置式ステンレス製車止め　　ＹＡ６Ｌ１５－Ｓ
 41
1.120192307692307
  7
ＭＳ ゴシック
100
AcDbText
  0
TEXT
  5
1B5
330
1F
100
AcDbEntity
  8
1-F
  6
Continuous
 62
     2
370
    13
100
AcDbText
 10
-598.675545357369
 20
-429.5466933461781
 30
0.0
 40
30.48
  1
1439.5
 41
1.104166666666667
  7
ＭＳ ゴシック
100
AcDbText
  0
TEXT
  5
1B6
330
1F
100
AcDbEntity
  8
1-F
  6
Continuous
 62
     2
370
    13
100
AcDbText
 10
-576.1896995926301
 20
803.9082800883692
 30
0.0
 40
30.48
  1
1500
 50
0.0686989698168072
 41
1.09375
  7
ＭＳ ゴシック
100
AcDbText
  0
TEXT
  5
1B7
330
1F
100
AcDbEntity
  8
0-F
  6
Continuous
 62
     2
370
    13
100
AcDbText
 10
265.7345746014572
 20
-1118.222321183488
 30
0.0
 40
30.48
  1
Ｍ１２のアンカーボルトで固定できます。
 41
1.118421052631579
  7
ＭＳ ゴシック
100
AcDbText
  0
TEXT
  5
1B8
330
1F
100
AcDbEntity
  8
1-F
  6
Continuous
 62
     7
370
    13
100
AcDbText
 10
1107.890278584248
 20
-65.567379777238
 30
0.0
 40
22.86
  1
溶融亜鉛めっき＋樹脂系塗装
 41
1.153846153846154
  7
ＭＳ ゴシック
100
AcDbText
  0
ENDSEC
  0
SECTION
  2
OBJECTS
  0
DICTIONARY
  5
C
330
0
100
AcDbDictionary
281
     1
  3
ACAD_GROUP
350
D
  3
ACAD_LAYOUT
350
1A
  3
ACAD_MLEADERSTYLE
350
1BA
  3
ACAD_MLINESTYLE
350
17
  3
ACAD_PLOTSETTINGS
350
19
  3
ACAD_PLOTSTYLENAME
350
E
  3
ACAD_TABLESTYLE
350
1B9
  3
ACAD_VISUALSTYLE
350
2A
  0
DICTIONARY
  5
D
102
{ACAD_REACTORS
330
C
102
}
330
C
100
AcDbDictionary
281
     1
  0
DICTIONARY
  5
1A
102
{ACAD_REACTORS
330
C
102
}
330
C
100
AcDbDictionary
281
     1
  3
Layout1
350
1E
  3
Layout2
350
26
  3
Model
350
22
  0
DICTIONARY
  5
1BA
102
{ACAD_REACTORS
330
C
102
}
330
C
100
AcDbDictionary
281
     1
  0
DICTIONARY
  5
17
102
{ACAD_REACTORS
330
C
102
}
330
C
100
AcDbDictionary
281
     1
  3
Standard
350
18
  0
DICTIONARY
  5
19
102
{ACAD_REACTORS
330
C
102
}
330
C
100
AcDbDictionary
281
     1
  0
ACDBDICTIONARYWDFLT
  5
E
102
{ACAD_REACTORS
330
C
102
}
330
C
100
AcDbDictionary
281
     1
  3
Normal
350
F
100
AcDbDictionaryWithDefault
340
F
  0
DICTIONARY
  5
1B9
102
{ACAD_REACTORS
330
C
102
}
330
C
100
AcDbDictionary
281
     1
  0
DICTIONARY
  5
2A
102
{ACAD_REACTORS
330
C
102
}
330
C
100
AcDbDictionary
281
     1
  3
2dWireframe
350
2F
  3
3D Hidden
350
31
  3
3dWireframe
350
30
  3
Basic
350
32
  3
Brighten
350
36
  3
ColorChange
350
3A
  3
Conceptual
350
34
  3
Dim
350
35
  3
Facepattern
350
39
  3
Flat
350
2B
  3
FlatWithEdges
350
2C
  3
Gouraud
350
2D
  3
GouraudWithEdges
350
2E
  3
Linepattern
350
38
  3
Realistic
350
33
  3
Thicken
350
37
  0
LAYOUT
  5
1E
102
{ACAD_REACTORS
330
1A
102
}
330
1A
100
AcDbPlotSettings
  1

  2
none_device
  4

  6

 40
0.0
 41
0.0
 42
0.0
 43
0.0
 44
0.0
 45
0.0
 46
0.0
 47
0.0
 48
0.0
 49
0.0
140
0.0
141
0.0
142
1.0
143
1.0
 70
   688
 72
     0
 73
     0
 74
     5
  7

 75
    16
 76
     0
 77
     5
 78
   300
147
1.0
148
0.0
149
0.0
100
AcDbLayout
  1
Layout1
 70
     1
 71
     1
 10
0.0
 20
0.0
 11
420.0
 21
297.0
 12
0.0
 22
0.0
 32
0.0
 14
1.000000000000000E+20
 24
1.000000000000000E+20
 34
1.000000000000000E+20
 15
-1.000000000000000E+20
 25
-1.000000000000000E+20
 35
-1.000000000000000E+20
146
0.0
 13
0.0
 23
0.0
 33
0.0
 16
1.0
 26
0.0
 36
0.0
 17
0.0
 27
1.0
 37
0.0
 76
     0
330
1B
  0
LAYOUT
  5
26
102
{ACAD_REACTORS
330
1A
102
}
330
1A
100
AcDbPlotSettings
  1

  2
none_device
  4

  6

 40
0.0
 41
0.0
 42
0.0
 43
0.0
 44
0.0
 45
0.0
 46
0.0
 47
0.0
 48
0.0
 49
0.0
140
0.0
141
0.0
142
1.0
143
1.0
 70
   688
 72
     0
 73
     0
 74
     5
  7

 75
    16
 76
     0
 77
     5
 78
   300
147
1.0
148
0.0
149
0.0
100
AcDbLayout
  1
Layout2
 70
     1
 71
     2
 10
0.0
 20
0.0
 11
0.0
 21
0.0
 12
0.0
 22
0.0
 32
0.0
 14
0.0
 24
0.0
 34
0.0
 15
0.0
 25
0.0
 35
0.0
146
0.0
 13
0.0
 23
0.0
 33
0.0
 16
1.0
 26
0.0
 36
0.0
 17
0.0
 27
1.0
 37
0.0
 76
     0
330
23
  0
LAYOUT
  5
22
102
{ACAD_REACTORS
330
1A
102
}
330
1A
100
AcDbPlotSettings
  1

  2
none_device
  4

  6

 40
0.0
 41
0.0
 42
0.0
 43
0.0
 44
0.0
 45
0.0
 46
0.0
 47
0.0
 48
0.0
 49
0.0
140
0.0
141
0.0
142
1.0
143
1.0
 70
  1712
 72
     0
 73
     0
 74
     0
  7

 75
     0
 76
     0
 77
     5
 78
   300
147
1.0
148
0.0
149
0.0
100
AcDbLayout
  1
Model
 70
     1
 71
     0
 10
-2100.0
 20
-1485.0
 11
2100.0
 21
1485.0
 12
0.0
 22
0.0
 32
0.0
 14
-2100.0
 24
-1485.0
 34
0.0
 15
2100.0
 25
1485.0
 35
0.0
146
0.0
 13
0.0
 23
0.0
 33
0.0
 16
1.0
 26
0.0
 36
0.0
 17
0.0
 27
1.0
 37
0.0
 76
     0
330
1F
331
29
  0
MLINESTYLE
  5
18
102
{ACAD_REACTORS
330
17
102
}
330
17
100
AcDbMlineStyle
  2
Standard
 70
     0
  3

 62
   256
 51
90.0
 52
90.0
 71
     2
 49
0.5
 62
   256
  6
BYLAYER
 49
-0.5
 62
   256
  6
BYLAYER
  0
ACDBPLACEHOLDER
  5
F
102
{ACAD_REACTORS
330
E
102
}
330
E
  0
VISUALSTYLE
  5
2F
102
{ACAD_REACTORS
330
2A
102
}
330
2A
100
AcDbVisualStyle
  2
2dWireframe
 70
     4
 71
     0
 72
     2
 73
     0
 90
        0
 40
-0.6
 41
-30.0
 62
     5
 63
     7
421
 16777215
 74
     1
 91
        4
 64
     7
 65
   257
 75
     1
175
     1
 42
1.0
 92
        0
 66
   257
 43
1.0
 76
     1
 77
     6
 78
     2
 67
     7
 79
     5
170
     0
171
     0
290
     0
174
     0
 93
        1
 44
0.0
173
     0
291
     0
 45
0.0
1001
ACAD
1000
AcDbSavedByObjectVersion
1070
     0
  0
VISUALSTYLE
  5
31
102
{ACAD_REACTORS
330
2A
102
}
330
2A
100
AcDbVisualStyle
  2
3D Hidden
 70
     6
 71
     1
 72
     2
 73
     2
 90
        0
 40
-0.6
 41
-30.0
 62
     5
 63
     7
421
 16777215
 74
     2
 91
        2
 64
     7
 65
   257
 75
     2
175
     1
 42
40.0
 92
        0
 66
   257
 43
1.0
 76
     1
 77
     6
 78
     2
 67
     7
 79
     3
170
     0
171
     0
290
     0
174
     0
 93
        1
 44
0.0
173
     0
291
     0
 45
0.0
1001
ACAD
1000
AcDbSavedByObjectVersion
1070
     0
  0
VISUALSTYLE
  5
30
102
{ACAD_REACTORS
330
2A
102
}
330
2A
100
AcDbVisualStyle
  2
3dWireframe
 70
     5
 71
     0
 72
     2
 73
     0
 90
        0
 40
-0.6
 41
-30.0
 62
     5
 63
     7
421
 16777215
 74
     1
 91
        4
 64
     7
 65
   257
 75
     1
175
     1
 42
1.0
 92
        0
 66
   257
 43
1.0
 76
     1
 77
     6
 78
     2
 67
     7
 79
     5
170
     0
171
     0
290
     0
174
     0
 93
        1
 44
0.0
173
     0
291
     0
 45
0.0
1001
ACAD
1000
AcDbSavedByObjectVersion
1070
     0
  0
VISUALSTYLE
  5
32
102
{ACAD_REACTORS
330
2A
102
}
330
2A
100
AcDbVisualStyle
  2
Basic
 70
     7
 71
     1
 72
     0
 73
     1
 90
        0
 40
-0.6
 41
-30.0
 62
     5
 63
     7
421
 16777215
 74
     0
 91
        4
 64
     7
 65
   257
 75
     1
175
     1
 42
1.0
 92
        8
 66
     7
 43
1.0
 76
     1
 77
     6
 78
     2
 67
     7
 79
     5
170
     0
171
     0
290
     0
174
     0
 93
        1
 44
0.0
173
     0
291
     1
 45
0.0
1001
ACAD
1000
AcDbSavedByObjectVersion
1070
     0
  0
VISUALSTYLE
  5
36
102
{ACAD_REACTORS
330
2A
102
}
330
2A
100
AcDbVisualStyle
  2
Brighten
 70
    12
 71
     2
 72
     2
 73
     0
 90
        0
 40
-0.6
 41
-30.0
 62
     5
 63
     7
421
 16777215
 74
     1
 91
        4
 64
     7
 65
   257
 75
     1
175
     1
 42
1.0
 92
        8
 66
     7
 43
1.0
 76
     1
 77
     6
 78
     2
 67
     7
 79
     5
170
     0
171
     0
290
     0
174
     0
 93
        1
 44
50.0
173
     0
291
     1
 45
0.0
1001
ACAD
1000
AcDbSavedByObjectVersion
1070
     0
  0
VISUALSTYLE
  5
3A
102
{ACAD_REACTORS
330
2A
102
}
330
2A
100
AcDbVisualStyle
  2
ColorChange
 70
    16
 71
     2
 72
     2
 73
     3
 90
        0
 40
-0.6
 41
-30.0
 62
     5
 63
     8
421
  8421504
 74
     1
 91
        4
 64
     7
 65
   257
 75
     1
175
     1
 42
1.0
 92
        8
 66
     8
424
  8421504
 43
1.0
 76
     1
 77
     6
 78
     2
 67
     7
 79
     5
170
     0
171
     0
290
     0
174
     0
 93
        1
 44
0.0
173
     0
291
     1
 45
0.0
1001
ACAD
1000
AcDbSavedByObjectVersion
1070
     0
  0
VISUALSTYLE
  5
34
102
{ACAD_REACTORS
330
2A
102
}
330
2A
100
AcDbVisualStyle
  2
Conceptual
 70
     9
 71
     3
 72
     2
 73
     0
 90
        0
 40
-0.6
 41
-30.0
 62
     5
 63
     7
421
 16777215
 74
     2
 91
        2
 64
     7
 65
   257
 75
     1
175
     1
 42
40.0
 92
        8
 66
     7
 43
1.0
 76
     1
 77
     6
 78
     2
 67
     7
 79
     3
170
     0
171
     0
290
     0
174
     0
 93
        1
 44
0.0
173
     0
291
     0
 45
0.0
1001
ACAD
1000
AcDbSavedByObjectVersion
1070
     0
  0
VISUALSTYLE
  5
35
102
{ACAD_REACTORS
330
2A
102
}
330
2A
100
AcDbVisualStyle
  2
Dim
 70
    11
 71
     2
 72
     2
 73
     0
 90
        0
 40
-0.6
 41
-30.0
 62
     5
 63
     7
421
 16777215
 74
     1
 91
        4
 64
     7
 65
   257
 75
     1
175
     1
 42
1.0
 92
        8
 66
     7
 43
1.0
 76
     1
 77
     6
 78
     2
 67
     7
 79
     5
170
     0
171
     0
290
     0
174
     0
 93
        1
 44
-50.0
173
     0
291
     1
 45
0.0
1001
ACAD
1000
AcDbSavedByObjectVersion
1070
     0
  0
VISUALSTYLE
  5
39
102
{ACAD_REACTORS
330
2A
102
}
330
2A
100
AcDbVisualStyle
  2
Facepattern
 70
    15
 71
     2
 72
     2
 73
     0
 90
        0
 40
-0.6
 41
-30.0
 62
     5
 63
     7
421
 16777215
 74
     1
 91
        4
 64
     7
 65
   257
 75
     1
175
     1
 42
1.0
 92
        8
 66
     7
 43
1.0
 76
     1
 77
     6
 78
     2
 67
     7
 79
     5
170
     0
171
     0
290
     0
174
     0
 93
        1
 44
0.0
173
     0
291
     1
 45
0.0
1001
ACAD
1000
AcDbSavedByObjectVersion
1070
     0
  0
VISUALSTYLE
  5
2B
102
{ACAD_REACTORS
330
2A
102
}
330
2A
100
AcDbVisualStyle
  2
Flat
 70
     0
 71
     2
 72
     1
 73
     1
 90
        2
 40
-0.6
 41
30.0
 62
     5
 63
     7
421
 16777215
 74
     0
 91
        4
 64
     7
 65
   257
 75
     1
175
     1
 42
1.0
 92
        8
 66
     7
 43
1.0
 76
     1
 77
     6
 78
     2
 67
     7
 79
     5
170
     0
171
     0
290
     0
174
     0
 93
       13
 44
0.0
173
     0
291
     1
 45
0.0
1001
ACAD
1000
AcDbSavedByObjectVersion
1070
     0
  0
VISUALSTYLE
  5
2C
102
{ACAD_REACTORS
330
2A
102
}
330
2A
100
AcDbVisualStyle
  2
FlatWithEdges
 70
     1
 71
     2
 72
     1
 73
     1
 90
        2
 40
-0.6
 41
30.0
 62
     5
 63
     7
421
 16777215
 74
     1
 91
        4
 64
     7
 65
   257
 75
     1
175
     1
 42
1.0
 92
        0
 66
   257
 43
1.0
 76
     1
 77
     6
 78
     2
 67
     7
 79
     5
170
     0
171
     0
290
     0
174
     0
 93
       13
 44
0.0
173
     0
291
     1
 45
0.0
1001
ACAD
1000
AcDbSavedByObjectVersion
1070
     0
  0
VISUALSTYLE
  5
2D
102
{ACAD_REACTORS
330
2A
102
}
330
2A
100
AcDbVisualStyle
  2
Gouraud
 70
     2
 71
     2
 72
     2
 73
     1
 90
        2
 40
-0.6
 41
30.0
 62
     5
 63
     7
421
 16777215
 74
     0
 91
        4
 64
     7
 65
   257
 75
     1
175
     1
 42
1.0
 92
        0
 66
     7
 43
1.0
 76
     1
 77
     6
 78
     2
 67
     7
 79
     5
170
     0
171
     0
290
     0
174
     0
 93
       13
 44
0.0
173
     0
291
     1
 45
0.0
1001
ACAD
1000
AcDbSavedByObjectVersion
1070
     0
  0
VISUALSTYLE
  5
2E
102
{ACAD_REACTORS
330
2A
102
}
330
2A
100
AcDbVisualStyle
  2
GouraudWithEdges
 70
     3
 71
     2
 72
     2
 73
     1
 90
        2
 40
-0.6
 41
30.0
 62
     5
 63
     7
421
 16777215
 74
     1
 91
        4
 64
     7
 65
   257
 75
     1
175
     1
 42
1.0
 92
        0
 66
   257
 43
1.0
 76
     1
 77
     6
 78
     2
 67
     7
 79
     5
170
     0
171
     0
290
     0
174
     0
 93
       13
 44
0.0
173
     0
291
     1
 45
0.0
1001
ACAD
1000
AcDbSavedByObjectVersion
1070
     0
  0
VISUALSTYLE
  5
38
102
{ACAD_REACTORS
330
2A
102
}
330
2A
100
AcDbVisualStyle
  2
Linepattern
 70
    14
 71
     2
 72
     2
 73
     0
 90
        0
 40
-0.6
 41
-30.0
 62
     5
 63
     7
421
 16777215
 74
     1
 91
        4
 64
     7
 65
   257
 75
     7
175
     7
 42
1.0
 92
        8
 66
     7
 43
1.0
 76
     1
 77
     6
 78
     2
 67
     7
 79
     5
170
     0
171
     0
290
     0
174
     0
 93
        1
 44
0.0
173
     0
291
     1
 45
0.0
1001
ACAD
1000
AcDbSavedByObjectVersion
1070
     0
  0
VISUALSTYLE
  5
33
102
{ACAD_REACTORS
330
2A
102
}
330
2A
100
AcDbVisualStyle
  2
Realistic
 70
     8
 71
     2
 72
     2
 73
     0
 90
        0
 40
-0.6
 41
-30.0
 62
     5
 63
     7
421
 16777215
 74
     1
 91
        0
 64
     7
 65
   257
 75
     1
175
     1
 42
1.0
 92
        8
 66
     8
424
  7895160
 43
1.0
 76
     1
 77
     6
 78
     2
 67
     7
 79
     5
170
     0
171
     0
290
     0
174
     0
 93
       13
 44
0.0
173
     0
291
     0
 45
0.0
1001
ACAD
1000
AcDbSavedByObjectVersion
1070
     0
  0
VISUALSTYLE
  5
37
102
{ACAD_REACTORS
330
2A
102
}
330
2A
100
AcDbVisualStyle
  2
Thicken
 70
    13
 71
     2
 72
     2
 73
     0
 90
        0
 40
-0.6
 41
-30.0
 62
     5
 63
     7
421
 16777215
 74
     1
 91
        4
 64
     7
 65
   257
 75
     1
175
     1
 42
1.0
 92
       12
 66
     7
 43
1.0
 76
     1
 77
     6
 78
     2
 67
     7
 79
     5
170
     0
171
     0
290
     0
174
     0
 93
        1
 44
0.0
173
     0
291
     1
 45
0.0
1001
ACAD
1000
AcDbSavedByObjectVersion
1070
     0
  0
ENDSEC
  0
EOF
