  0
SECTION
  2
HEADER
  9
$ACADVER
  1
AC1018
  9
$ACADMAINTVER
 70
     0
  9
$DWGCODEPAGE
  3
ANSI_932
  9
$INSBASE
 10
0.0
 20
0.0
 30
0.0
  9
$EXTMIN
 10
-2100.0
 20
-1485.0
 30
0.0
  9
$EXTMAX
 10
2100.0
 20
1485.0
 30
0.0
  9
$LIMMIN
 10
-2100.0
 20
-1485.0
  9
$LIMMAX
 10
2100.0
 20
1485.0
  9
$ORTHOMODE
 70
     0
  9
$REGENMODE
 70
     1
  9
$FILLMODE
 70
     1
  9
$QTEXTMODE
 70
     0
  9
$MIRRTEXT
 70
     1
  9
$LTSCALE
 40
10.0
  9
$ATTMODE
 70
     1
  9
$TEXTSIZE
 40
2.5
  9
$TRACEWID
 40
1.0
  9
$TEXTSTYLE
  7
Standard
  9
$CLAYER
  8
0
  9
$CELTYPE
  6
ByLayer
  9
$CECOLOR
 62
   256
  9
$CELTSCALE
 40
1.0
  9
$DISPSILH
 70
     0
  9
$DIMSCALE
 40
1.0
  9
$DIMASZ
 40
2.5
  9
$DIMEXO
 40
0.625
  9
$DIMDLI
 40
3.75
  9
$DIMRND
 40
0.0
  9
$DIMDLE
 40
0.0
  9
$DIMEXE
 40
1.25
  9
$DIMTP
 40
0.0
  9
$DIMTM
 40
0.0
  9
$DIMTXT
 40
2.5
  9
$DIMCEN
 40
2.5
  9
$DIMTSZ
 40
0.0
  9
$DIMTOL
 70
     0
  9
$DIMLIM
 70
     0
  9
$DIMTIH
 70
     0
  9
$DIMTOH
 70
     0
  9
$DIMSE1
 70
     0
  9
$DIMSE2
 70
     0
  9
$DIMTAD
 70
     1
  9
$DIMZIN
 70
     8
  9
$DIMBLK
  1

  9
$DIMASO
 70
     1
  9
$DIMSHO
 70
     1
  9
$DIMPOST
  1

  9
$DIMAPOST
  1

  9
$DIMALT
 70
     0
  9
$DIMALTD
 70
     3
  9
$DIMALTF
 40
0.03937007874016
  9
$DIMLFAC
 40
1.0
  9
$DIMTOFL
 70
     1
  9
$DIMTVP
 40
0.0
  9
$DIMTIX
 70
     0
  9
$DIMSOXD
 70
     0
  9
$DIMSAH
 70
     0
  9
$DIMBLK1
  1

  9
$DIMBLK2
  1

  9
$DIMSTYLE
  2
ISO-25
  9
$DIMCLRD
 70
     0
  9
$DIMCLRE
 70
     0
  9
$DIMCLRT
 70
     0
  9
$DIMTFAC
 40
1.0
  9
$DIMGAP
 40
0.625
  9
$DIMJUST
 70
     0
  9
$DIMSD1
 70
     0
  9
$DIMSD2
 70
     0
  9
$DIMTOLJ
 70
     0
  9
$DIMTZIN
 70
     8
  9
$DIMALTZ
 70
     0
  9
$DIMALTTZ
 70
     0
  9
$DIMUPT
 70
     0
  9
$DIMDEC
 70
     2
  9
$DIMTDEC
 70
     2
  9
$DIMALTU
 70
     2
  9
$DIMALTTD
 70
     3
  9
$DIMTXSTY
  7
Standard
  9
$DIMAUNIT
 70
     0
  9
$DIMADEC
 70
     0
  9
$DIMALTRND
 40
0.0
  9
$DIMAZIN
 70
     0
  9
$DIMDSEP
 70
    44
  9
$DIMATFIT
 70
     3
  9
$DIMFRAC
 70
     0
  9
$DIMLDRBLK
  1

  9
$DIMLUNIT
 70
     2
  9
$DIMLWD
 70
    -2
  9
$DIMLWE
 70
    -2
  9
$DIMTMOVE
 70
     0
  9
$LUNITS
 70
     2
  9
$LUPREC
 70
     4
  9
$SKETCHINC
 40
1.0
  9
$FILLETRAD
 40
10.0
  9
$AUNITS
 70
     0
  9
$AUPREC
 70
     0
  9
$MENU
  1
.
  9
$ELEVATION
 40
0.0
  9
$PELEVATION
 40
0.0
  9
$THICKNESS
 40
0.0
  9
$LIMCHECK
 70
     0
  9
$CHAMFERA
 40
10.0
  9
$CHAMFERB
 40
10.0
  9
$CHAMFERC
 40
20.0
  9
$CHAMFERD
 40
0.0
  9
$SKPOLY
 70
     0
  9
$TDCREATE
 40
2456499.588141817
  9
$TDUCREATE
 40
2456499.213141817
  9
$TDUPDATE
 40
2456499.588141829
  9
$TDUUPDATE
 40
2456499.213141829
  9
$TDINDWG
 40
0.0000000116
  9
$TDUSRTIMER
 40
0.0000000116
  9
$USRTIMER
 70
     1
  9
$ANGBASE
 50
0.0
  9
$ANGDIR
 70
     0
  9
$PDMODE
 70
     0
  9
$PDSIZE
 40
0.0
  9
$PLINEWID
 40
0.0
  9
$SPLFRAME
 70
     0
  9
$SPLINETYPE
 70
     6
  9
$SPLINESEGS
 70
     8
  9
$HANDSEED
  5
1F2
  9
$SURFTAB1
 70
     6
  9
$SURFTAB2
 70
     6
  9
$SURFTYPE
 70
     6
  9
$SURFU
 70
     6
  9
$SURFV
 70
     6
  9
$UCSBASE
  2

  9
$UCSNAME
  2

  9
$UCSORG
 10
0.0
 20
0.0
 30
0.0
  9
$UCSXDIR
 10
1.0
 20
0.0
 30
0.0
  9
$UCSYDIR
 10
0.0
 20
1.0
 30
0.0
  9
$UCSORTHOREF
  2

  9
$UCSORTHOVIEW
 70
     0
  9
$UCSORGTOP
 10
0.0
 20
0.0
 30
0.0
  9
$UCSORGBOTTOM
 10
0.0
 20
0.0
 30
0.0
  9
$UCSORGLEFT
 10
0.0
 20
0.0
 30
0.0
  9
$UCSORGRIGHT
 10
0.0
 20
0.0
 30
0.0
  9
$UCSORGFRONT
 10
0.0
 20
0.0
 30
0.0
  9
$UCSORGBACK
 10
0.0
 20
0.0
 30
0.0
  9
$PUCSBASE
  2

  9
$PUCSNAME
  2

  9
$PUCSORG
 10
0.0
 20
0.0
 30
0.0
  9
$PUCSXDIR
 10
1.0
 20
0.0
 30
0.0
  9
$PUCSYDIR
 10
0.0
 20
1.0
 30
0.0
  9
$PUCSORTHOREF
  2

  9
$PUCSORTHOVIEW
 70
     0
  9
$PUCSORGTOP
 10
0.0
 20
0.0
 30
0.0
  9
$PUCSORGBOTTOM
 10
0.0
 20
0.0
 30
0.0
  9
$PUCSORGLEFT
 10
0.0
 20
0.0
 30
0.0
  9
$PUCSORGRIGHT
 10
0.0
 20
0.0
 30
0.0
  9
$PUCSORGFRONT
 10
0.0
 20
0.0
 30
0.0
  9
$PUCSORGBACK
 10
0.0
 20
0.0
 30
0.0
  9
$USERI1
 70
     0
  9
$USERI2
 70
     0
  9
$USERI3
 70
     0
  9
$USERI4
 70
     0
  9
$USERI5
 70
     0
  9
$USERR1
 40
0.0
  9
$USERR2
 40
0.0
  9
$USERR3
 40
0.0
  9
$USERR4
 40
0.0
  9
$USERR5
 40
0.0
  9
$WORLDVIEW
 70
     1
  9
$SHADEDGE
 70
     3
  9
$SHADEDIF
 70
    70
  9
$TILEMODE
 70
     1
  9
$MAXACTVP
 70
    64
  9
$PINSBASE
 10
0.0
 20
0.0
 30
0.0
  9
$PLIMCHECK
 70
     0
  9
$PEXTMIN
 10
1.000000000000000E+20
 20
1.000000000000000E+20
 30
1.000000000000000E+20
  9
$PEXTMAX
 10
-1.000000000000000E+20
 20
-1.000000000000000E+20
 30
-1.000000000000000E+20
  9
$PLIMMIN
 10
0.0
 20
0.0
  9
$PLIMMAX
 10
420.0
 20
297.0
  9
$UNITMODE
 70
     0
  9
$VISRETAIN
 70
     1
  9
$PLINEGEN
 70
     0
  9
$PSLTSCALE
 70
     1
  9
$TREEDEPTH
 70
  3020
  9
$CMLSTYLE
  2
Standard
  9
$CMLJUST
 70
     0
  9
$CMLSCALE
 40
20.0
  9
$PROXYGRAPHICS
 70
     1
  9
$MEASUREMENT
 70
     1
  9
$CELWEIGHT
370
    -1
  9
$ENDCAPS
280
     0
  9
$JOINSTYLE
280
     0
  9
$LWDISPLAY
290
     0
  9
$INSUNITS
 70
     4
  9
$HYPERLINKBASE
  1

  9
$STYLESHEET
  1

  9
$XEDIT
290
     1
  9
$CEPSNTYPE
380
     0
  9
$PSTYLEMODE
290
     1
  9
$FINGERPRINTGUID
  2
{A0295AEA-3E9C-48E2-8405-EC3FE377FFA0}
  9
$VERSIONGUID
  2
{FAEB1C32-E019-11D5-929B-00C0DF256EC4}
  9
$EXTNAMES
290
     1
  9
$PSVPSCALE
 40
0.0
  9
$OLESTARTUP
290
     0
  9
$SORTENTS
280
   127
  9
$INDEXCTL
280
     0
  9
$HIDETEXT
280
     1
  9
$XCLIPFRAME
290
     0
  9
$HALOGAP
280
     0
  9
$OBSCOLOR
 70
   257
  9
$OBSLTYPE
280
     0
  9
$INTERSECTIONDISPLAY
280
     0
  9
$INTERSECTIONCOLOR
 70
   257
  9
$DIMASSOC
280
     2
  9
$PROJECTNAME
  1

  0
ENDSEC
  0
SECTION
  2
CLASSES
  0
CLASS
  1
ACDBDICTIONARYWDFLT
  2
AcDbDictionaryWithDefault
  3
ObjectDBX Classes
 90
        0
 91
        4
280
     0
281
     0
  0
CLASS
  1
VISUALSTYLE
  2
AcDbVisualStyle
  3
ObjectDBX Classes
 90
     4095
 91
        4
280
     0
281
     0
  0
ENDSEC
  0
SECTION
  2
TABLES
  0
TABLE
  2
VPORT
  5
8
330
0
100
AcDbSymbolTable
 70
     1
  0
VPORT
  5
29
330
8
100
AcDbSymbolTableRecord
100
AcDbViewportTableRecord
  2
*Active
 70
     0
 10
0.0
 20
0.0
 11
1.0
 21
1.0
 12
0.0
 22
0.0
 13
0.0
 23
0.0
 14
10.0
 24
10.0
 15
10.0
 25
10.0
 16
0.0
 26
0.0
 36
1.0
 17
0.0
 27
0.0
 37
0.0
 40
3267.0
 41
1.414141414141414
 42
50.0
 43
0.0
 44
0.0
 50
0.0
 51
0.0
 71
     0
 72
 10000
 73
     1
 74
     3
 75
     0
 76
     0
 77
     0
 78
     0
281
     0
 65
     1
110
0.0
120
0.0
130
0.0
111
1.0
121
0.0
131
0.0
112
0.0
122
1.0
132
0.0
 79
     0
146
0.0
  0
ENDTAB
  0
TABLE
  2
LTYPE
  5
5
330
0
100
AcDbSymbolTable
 70
     5
  0
LTYPE
  5
14
330
5
100
AcDbSymbolTableRecord
100
AcDbLinetypeTableRecord
  2
ByBlock
 70
     0
  3

 72
    65
 73
     0
 40
0.0
  0
LTYPE
  5
15
330
5
100
AcDbSymbolTableRecord
100
AcDbLinetypeTableRecord
  2
ByLayer
 70
     0
  3

 72
    65
 73
     0
 40
0.0
  0
LTYPE
  5
16
330
5
100
AcDbSymbolTableRecord
100
AcDbLinetypeTableRecord
  2
Continuous
 70
     0
  3
Solid line
 72
    65
 73
     0
 40
0.0
  0
LTYPE
  5
3C
330
5
100
AcDbSymbolTableRecord
100
AcDbLinetypeTableRecord
  2
JWW_CENTER1
 70
     0
  3
-----  --  ----------  --  -----
 72
    65
 73
     4
 40
6.773333333333333
 49
4.233333333333333
 74
     0
 49
-0.8466666666666667
 74
     0
 49
0.8466666666666667
 74
     0
 49
-0.8466666666666667
 74
     0
  0
LTYPE
  5
3D
330
5
100
AcDbSymbolTableRecord
100
AcDbLinetypeTableRecord
  2
JWW_DASHED1
 70
     0
  3
-  --  --  --  --  --  --  --  -
 72
    65
 73
     2
 40
1.693333333333333
 49
0.8466666666666667
 74
     0
 49
-0.8466666666666667
 74
     0
  0
LTYPE
  5
3E
330
5
100
AcDbSymbolTableRecord
100
AcDbLinetypeTableRecord
  2
JWW_PHANTOM1
 70
     0
  3
----  -  -  --------  -  -  ----
 72
    65
 73
     6
 40
6.773333333333333
 49
3.386666666666667
 74
     0
 49
-0.8466666666666667
 74
     0
 49
0.4233333333333333
 74
     0
 49
-0.8466666666666667
 74
     0
 49
0.4233333333333333
 74
     0
 49
-0.8466666666666667
 74
     0
  0
LTYPE
  5
3F
330
5
100
AcDbSymbolTableRecord
100
AcDbLinetypeTableRecord
  2
JWW_DASHED2
 70
     0
  3
--    ----    ----    ----    --
 72
    65
 73
     2
 40
3.386666666666667
 49
1.693333333333333
 74
     0
 49
-1.693333333333333
 74
     0
  0
ENDTAB
  0
TABLE
  2
LAYER
  5
2
330
0
100
AcDbSymbolTable
 70
     6
  0
LAYER
  5
10
330
2
100
AcDbSymbolTableRecord
100
AcDbLayerTableRecord
  2
0
 70
     0
 62
     7
  6
Continuous
370
    -3
390
F
  0
LAYER
  5
40
330
2
100
AcDbSymbolTableRecord
100
AcDbLayerTableRecord
  2
0-F
 70
     0
 62
     7
  6
Continuous
370
    -3
390
F
  0
LAYER
  5
41
330
2
100
AcDbSymbolTableRecord
100
AcDbLayerTableRecord
  2
0-0
 70
     0
 62
     7
  6
Continuous
370
    -3
390
F
  0
LAYER
  5
42
330
2
100
AcDbSymbolTableRecord
100
AcDbLayerTableRecord
  2
0-D
 70
     0
 62
     7
  6
Continuous
370
    -3
390
F
  0
LAYER
  5
43
330
2
100
AcDbSymbolTableRecord
100
AcDbLayerTableRecord
  2
0-1
 70
     0
 62
     7
  6
Continuous
370
    -3
390
F
  0
LAYER
  5
44
330
2
100
AcDbSymbolTableRecord
100
AcDbLayerTableRecord
  2
0-5
 70
     0
 62
     7
  6
Continuous
370
    -3
390
F
  0
ENDTAB
  0
TABLE
  2
STYLE
  5
3
330
0
100
AcDbSymbolTable
 70
     2
  0
STYLE
  5
11
330
3
100
AcDbSymbolTableRecord
100
AcDbTextStyleTableRecord
  2
Standard
 70
     0
 40
0.0
 41
1.0
 50
0.0
 71
     0
 42
2.5
  3
txt
  4

1001
ACAD
1000

1071
        0
  0
STYLE
  5
3B
330
3
100
AcDbSymbolTableRecord
100
AcDbTextStyleTableRecord
  2
ＭＳ ゴシック
 70
     0
 40
1.0
 41
1.0
 50
0.0
 71
     0
 42
10.0
  3

  4

1001
ACAD
1000
MS Gothic
1071
    32817
  0
ENDTAB
  0
TABLE
  2
VIEW
  5
6
330
0
100
AcDbSymbolTable
 70
     0
  0
ENDTAB
  0
TABLE
  2
UCS
  5
7
330
0
100
AcDbSymbolTable
 70
     0
  0
ENDTAB
  0
TABLE
  2
APPID
  5
9
330
0
100
AcDbSymbolTable
 70
     1
  0
APPID
  5
12
330
9
100
AcDbSymbolTableRecord
100
AcDbRegAppTableRecord
  2
ACAD
 70
     0
  0
ENDTAB
  0
TABLE
  2
DIMSTYLE
  5
A
330
0
100
AcDbSymbolTable
 70
     1
100
AcDbDimStyleTable
  0
DIMSTYLE
105
27
330
A
100
AcDbSymbolTableRecord
100
AcDbDimStyleTableRecord
  2
ISO-25
 70
     0
 41
2.5
 42
0.625
 43
3.75
 44
1.25
 73
     0
 74
     0
 77
     1
 78
     8
140
2.5
141
2.5
143
0.03937007874016
147
0.625
171
     3
172
     1
271
     2
272
     2
274
     3
278
    44
283
     0
284
     8
340
11
  0
ENDTAB
  0
TABLE
  2
BLOCK_RECORD
  5
1
330
0
100
AcDbSymbolTable
 70
     1
  0
BLOCK_RECORD
  5
1F
330
1
100
AcDbSymbolTableRecord
100
AcDbBlockTableRecord
  2
*Model_Space
340
22
  0
BLOCK_RECORD
  5
1B
330
1
100
AcDbSymbolTableRecord
100
AcDbBlockTableRecord
  2
*Paper_Space
340
1E
  0
BLOCK_RECORD
  5
23
330
1
100
AcDbSymbolTableRecord
100
AcDbBlockTableRecord
  2
*Paper_Space0
340
26
  0
ENDTAB
  0
ENDSEC
  0
SECTION
  2
BLOCKS
  0
BLOCK
  5
20
330
1F
100
AcDbEntity
  8
0
100
AcDbBlockBegin
  2
*Model_Space
 70
     0
 10
0.0
 20
0.0
 30
0.0
  3
*Model_Space
  1

  0
ENDBLK
  5
21
330
1F
100
AcDbEntity
  8
0
100
AcDbBlockEnd
  0
BLOCK
  5
1C
330
1B
100
AcDbEntity
 67
     1
  8
0
100
AcDbBlockBegin
  2
*Paper_Space
 70
     0
 10
0.0
 20
0.0
 30
0.0
  3
*Paper_Space
  1

  0
ENDBLK
  5
1D
330
1B
100
AcDbEntity
 67
     1
  8
0
100
AcDbBlockEnd
  0
BLOCK
  5
24
330
23
100
AcDbEntity
  8
0
100
AcDbBlockBegin
  2
*Paper_Space0
 70
     0
 10
0.0
 20
0.0
 30
0.0
  3
*Paper_Space0
  1

  0
ENDBLK
  5
25
330
23
100
AcDbEntity
  8
0
100
AcDbBlockEnd
  0
ENDSEC
  0
SECTION
  2
ENTITIES
  0
LINE
  5
45
330
1F
100
AcDbEntity
  8
0-F
  6
Continuous
 62
     7
370
    13
100
AcDbLine
 10
-1431.069946289062
 20
1073.954599741343
 30
0.0
 11
-1406.283651815878
 21
1077.21734124261
 31
0.0
  0
LINE
  5
46
330
1F
100
AcDbEntity
  8
0-F
  6
Continuous
 62
     7
370
    13
100
AcDbLine
 10
-1431.069946289062
 20
1073.954599741343
 30
0.0
 11
-1406.283651815878
 21
1070.691363360431
 31
0.0
  0
LINE
  5
47
330
1F
100
AcDbEntity
  8
0-F
  6
Continuous
 62
     7
370
    13
100
AcDbLine
 10
235.5968578441724
 20
1073.954599741343
 30
0.0
 11
210.8108108108109
 21
1077.21734124261
 31
0.0
  0
LINE
  5
48
330
1F
100
AcDbEntity
  8
0-F
  6
Continuous
 62
     7
370
    13
100
AcDbLine
 10
235.5968578441724
 20
1073.954599741343
 30
0.0
 11
210.8108108108109
 21
1070.691363360431
 31
0.0
  0
LINE
  5
49
330
1F
100
AcDbEntity
  8
0-F
  6
Continuous
 62
     7
370
    13
100
AcDbLine
 10
-1431.069946289062
 20
758.3792526657519
 30
0.0
 11
-1431.069946289062
 21
1076.954560150971
 31
0.0
  0
LINE
  5
4A
330
1F
100
AcDbEntity
  8
0-F
  6
Continuous
 62
     7
370
    13
100
AcDbLine
 10
235.5968578441724
 20
758.3792526657519
 30
0.0
 11
235.5968578441724
 21
1076.954560150971
 31
0.0
  0
LINE
  5
4B
330
1F
100
AcDbEntity
  8
0-F
  6
Continuous
 62
     7
370
    13
100
AcDbLine
 10
-1431.069946289062
 20
1073.954599741343
 30
0.0
 11
235.5968578441724
 21
1073.954599741343
 31
0.0
  0
LINE
  5
4C
330
1F
100
AcDbEntity
  8
0-F
  6
Continuous
 62
     7
370
    13
100
AcDbLine
 10
-1088.986618454392
 20
631.8729215054898
 30
0.0
 11
-1341.577395877323
 21
777.706282332137
 31
0.0
  0
LINE
  5
4D
330
1F
100
AcDbEntity
  8
0-F
  6
Continuous
 62
     7
370
    13
100
AcDbLine
 10
-1177.497822529561
 20
682.9746885557432
 30
0.0
 11
-1341.577395877323
 21
777.706282332137
 31
0.0
  0
LINE
  5
4E
330
1F
100
AcDbEntity
  8
0-0
  6
Continuous
 62
     3
370
    13
100
AcDbLine
 10
-597.7364205025335
 20
873.1205625791811
 30
0.0
 11
-1088.985628695101
 21
873.122542097762
 31
0.0
  0
LINE
  5
4F
330
1F
100
AcDbEntity
  8
0-0
  6
JWW_CENTER1
 62
     3
370
    13
100
AcDbLine
 10
-597.7364205025335
 20
923.5374162003802
 30
0.0
 11
-1088.985381255279
 21
923.5393957189613
 31
0.0
  0
LINE
  5
50
330
1F
100
AcDbEntity
  8
0-0
  6
Continuous
 62
     3
370
    13
100
AcDbLine
 10
-597.7364205025335
 20
973.9542698215794
 30
0.0
 11
-1088.985133815456
 21
973.9562493401606
 31
0.0
  0
LINE
  5
51
330
1F
100
AcDbEntity
  8
0-0
  6
Continuous
 62
     3
370
    13
100
AcDbLine
 10
1017.145435230152
 20
-526.042760900549
 30
0.0
 11
1117.978647592906
 21
-526.042389740815
 31
0.0
  0
LINE
  5
52
330
1F
100
AcDbEntity
  8
0-0
  6
Continuous
 62
     3
370
    13
100
AcDbLine
 10
981.0810810810813
 20
923.5406329180745
 30
0.0
 11
1159.459459459459
 21
923.5413752375425
 31
0.0
  0
LINE
  5
53
330
1F
100
AcDbEntity
  8
0-0
  6
Continuous
 62
     3
370
    13
100
AcDbLine
 10
1017.145435230152
 20
-109.3756268475505
 30
0.0
 11
1017.145435230152
 21
-526.042760900549
 31
0.0
  0
LINE
  5
54
330
1F
100
AcDbEntity
  8
0-0
  6
Continuous
 62
     3
370
    13
100
AcDbLine
 10
1117.978647592906
 20
-109.3756268475505
 30
0.0
 11
1117.978647592906
 21
-526.042389740815
 31
0.0
  0
LINE
  5
55
330
1F
100
AcDbEntity
  8
0-0
  6
Continuous
 62
     3
370
    13
100
AcDbLine
 10
1017.145435230152
 20
923.5408803578971
 30
0.0
 11
1017.145435230152
 21
-109.3756268475505
 31
0.0
  0
LINE
  5
56
330
1F
100
AcDbEntity
  8
0-0
  6
Continuous
 62
     3
370
    13
100
AcDbLine
 10
1117.978647592906
 20
923.5408803578971
 30
0.0
 11
1117.978647592906
 21
-109.3756268475505
 31
0.0
  0
LINE
  5
57
330
1F
100
AcDbEntity
  8
0-D
  6
Continuous
 62
     2
370
    13
100
AcDbLine
 10
1317.536885029561
 20
-474.3755938555742
 30
0.0
 11
1350.920476140203
 21
-474.3755938555742
 31
0.0
  0
LINE
  5
58
330
1F
100
AcDbEntity
  8
0-D
  6
Continuous
 62
     2
370
    13
100
AcDbLine
 10
1129.644940350507
 20
-259.3508828652871
 30
0.0
 11
1129.644940350507
 21
-292.7339790962837
 31
0.0
  0
LINE
  5
59
330
1F
100
AcDbEntity
  8
0-D
  6
Continuous
 62
     2
370
    13
100
AcDbLine
 10
1140.883657094595
 20
-292.7339790962837
 30
0.0
 11
1129.644940350507
 21
-292.7339790962837
 31
0.0
  0
LINE
  5
5A
330
1F
100
AcDbEntity
  8
0-D
  6
Continuous
 62
     2
370
    13
100
AcDbLine
 10
1140.883657094595
 20
-259.3508828652871
 30
0.0
 11
1129.644940350507
 21
-259.3508828652871
 31
0.0
  0
LINE
  5
5B
330
1F
100
AcDbEntity
  8
0-D
  6
Continuous
 62
     2
370
    13
100
AcDbLine
 10
1142.145105310389
 20
-262.6965167071367
 30
0.0
 11
1142.145105310389
 21
-289.3880978146115
 31
0.0
  0
LINE
  5
5C
330
1F
100
AcDbEntity
  8
0-D
  6
Continuous
 62
     2
370
    13
100
AcDbLine
 10
990.6886745143584
 20
-294.2923550992398
 30
0.0
 11
1005.478647592906
 21
-294.2923550992398
 31
0.0
  0
LINE
  5
5D
330
1F
100
AcDbEntity
  8
0-D
  6
Continuous
 62
     2
370
    13
100
AcDbLine
 10
1005.478647592906
 20
-294.2923550992398
 30
0.0
 11
1005.478647592906
 21
-257.7922594225083
 31
0.0
  0
LINE
  5
5E
330
1F
100
AcDbEntity
  8
0-D
  6
Continuous
 62
     2
370
    13
100
AcDbLine
 10
990.6886745143584
 20
-257.7922594225083
 30
0.0
 11
1005.478647592906
 21
-257.7922594225083
 31
0.0
  0
LINE
  5
5F
330
1F
100
AcDbEntity
  8
0-D
  6
Continuous
 62
     2
370
    13
100
AcDbLine
 10
990.6886745143584
 20
-285.1509382918074
 30
0.0
 11
1005.478647592906
 21
-285.1509382918074
 31
0.0
  0
LINE
  5
60
330
1F
100
AcDbEntity
  8
0-D
  6
Continuous
 62
     2
370
    13
100
AcDbLine
 10
990.6886745143584
 20
-266.9336762299407
 30
0.0
 11
1005.478647592906
 21
-266.9336762299407
 31
0.0
  0
LINE
  5
61
330
1F
100
AcDbEntity
  8
0-D
  6
Continuous
 62
     2
370
    13
100
AcDbLine
 10
988.8120908994932
 20
-289.7216466955235
 30
0.0
 11
988.8120908994932
 21
-262.3629678262246
 31
0.0
  0
LINE
  5
62
330
1F
100
AcDbEntity
  8
0-D
  6
Continuous
 62
     2
370
    13
100
AcDbLine
 10
979.6449403505068
 20
-284.4640453441723
 30
0.0
 11
981.2236064189193
 21
-286.0422165329392
 31
0.0
  0
LINE
  5
63
330
1F
100
AcDbEntity
  8
0-D
  6
Continuous
 62
     2
370
    13
100
AcDbLine
 10
979.6449403505068
 20
-284.4640453441723
 30
0.0
 11
979.6449403505068
 21
-267.6205691775759
 31
0.0
  0
LINE
  5
64
330
1F
100
AcDbEntity
  8
0-D
  6
Continuous
 62
     2
370
    13
100
AcDbLine
 10
979.6449403505068
 20
-267.6205691775759
 30
0.0
 11
981.2236064189193
 21
-266.0421505489865
 31
0.0
  0
LINE
  5
65
330
1F
100
AcDbEntity
  8
0-D
  6
Continuous
 62
     2
370
    13
100
AcDbLine
 10
981.2236064189193
 20
-266.0421505489865
 30
0.0
 11
981.2236064189193
 21
-286.0422165329392
 31
0.0
  0
LINE
  5
66
330
1F
100
AcDbEntity
  8
0-D
  6
Continuous
 62
     2
370
    13
100
AcDbLine
 10
1140.883657094595
 20
-266.0421505489865
 30
0.0
 11
1005.478647592906
 21
-266.0421505489865
 31
0.0
  0
LINE
  5
67
330
1F
100
AcDbEntity
  8
0-D
  6
Continuous
 62
     2
370
    13
100
AcDbLine
 10
988.8120908994932
 20
-266.0421505489865
 30
0.0
 11
981.2236064189193
 21
-266.0421505489865
 31
0.0
  0
LINE
  5
68
330
1F
100
AcDbEntity
  8
0-D
  6
Continuous
 62
     2
370
    13
100
AcDbLine
 10
1129.644940350507
 20
-284.4640453441723
 30
0.0
 11
1005.478647592906
 21
-284.4640453441723
 31
0.0
  0
LINE
  5
69
330
1F
100
AcDbEntity
  8
0-D
  6
Continuous
 62
     2
370
    13
100
AcDbLine
 10
988.8120908994932
 20
-284.4640453441723
 30
0.0
 11
979.6449403505068
 21
-284.4640453441723
 31
0.0
  0
LINE
  5
6A
330
1F
100
AcDbEntity
  8
0-D
  6
Continuous
 62
     2
370
    13
100
AcDbLine
 10
1140.883657094595
 20
-286.0422165329392
 30
0.0
 11
1005.478647592906
 21
-286.0422165329392
 31
0.0
  0
LINE
  5
6B
330
1F
100
AcDbEntity
  8
0-D
  6
Continuous
 62
     2
370
    13
100
AcDbLine
 10
988.8120908994932
 20
-286.0422165329392
 30
0.0
 11
981.2236064189193
 21
-286.0422165329392
 31
0.0
  0
LINE
  5
6C
330
1F
100
AcDbEntity
  8
0-D
  6
Continuous
 62
     2
370
    13
100
AcDbLine
 10
1129.644940350507
 20
-267.6205691775759
 30
0.0
 11
1005.478647592906
 21
-267.6205691775759
 31
0.0
  0
LINE
  5
6D
330
1F
100
AcDbEntity
  8
0-D
  6
Continuous
 62
     2
370
    13
100
AcDbLine
 10
988.8120908994932
 20
-267.6205691775759
 30
0.0
 11
979.6449403505068
 21
-267.6205691775759
 31
0.0
  0
LINE
  5
6E
330
1F
100
AcDbEntity
  8
0-D
  6
JWW_CENTER1
 62
     2
370
    13
100
AcDbLine
 10
1152.101094013936
 20
-276.0421835409628
 30
0.0
 11
975.7957664695948
 21
-276.0421835409628
 31
0.0
  0
LINE
  5
6F
330
1F
100
AcDbEntity
  8
0-0
  6
Continuous
 62
     2
370
    13
100
AcDbLine
 10
1105.847662848395
 20
-526.8309804555531
 30
0.0
 11
1118.859533361486
 21
-526.0874237885346
 31
0.0
  0
LINE
  5
70
330
1F
100
AcDbEntity
  8
0-0
  6
Continuous
 62
     2
370
    13
100
AcDbLine
 10
1105.062288851352
 20
-527.6628731392525
 30
0.0
 11
1105.062288851352
 21
-544.3758247994087
 31
0.0
  0
LINE
  5
71
330
1F
100
AcDbEntity
  8
0-0
  6
Continuous
 62
     2
370
    13
100
AcDbLine
 10
1386.488466005068
 20
-491.8713213946367
 30
0.0
 11
1371.795489336993
 21
-489.8449129671662
 31
0.0
  0
LINE
  5
72
330
1F
100
AcDbEntity
  8
0-0
  6
Continuous
 62
     2
370
    13
100
AcDbLine
 10
1120.478779560811
 20
-264.3758907833615
 30
0.0
 11
1129.644940350507
 21
-264.3758907833615
 31
0.0
  0
LINE
  5
73
330
1F
100
AcDbEntity
  8
0-0
  6
Continuous
 62
     2
370
    13
100
AcDbLine
 10
1120.478779560811
 20
-287.7089711782094
 30
0.0
 11
1129.644940350507
 21
-287.7089711782094
 31
0.0
  0
LINE
  5
74
330
1F
100
AcDbEntity
  8
0-0
  6
Continuous
 62
     2
370
    13
100
AcDbLine
 10
1150.723843961149
 20
-459.3756680875211
 30
0.0
 11
1137.978713576858
 21
-459.3756680875211
 31
0.0
  0
LINE
  5
75
330
1F
100
AcDbEntity
  8
0-0
  6
Continuous
 62
     2
370
    13
100
AcDbLine
 10
1151.065310916385
 20
-459.3991748706713
 30
0.0
 11
1259.475130648227
 21
-474.352087072424
 31
0.0
  0
LINE
  5
76
330
1F
100
AcDbEntity
  8
0-0
  6
Continuous
 62
     2
370
    13
100
AcDbLine
 10
1365.321473817568
 20
-474.3755938555742
 30
0.0
 11
1259.816597603463
 21
-474.3755938555742
 31
0.0
  0
LINE
  5
77
330
1F
100
AcDbEntity
  8
0-0
  6
Continuous
 62
     2
370
    13
100
AcDbLine
 10
1367.806759396115
 20
-476.6029234190245
 30
0.0
 11
1368.938054265203
 21
-486.9065650733741
 31
0.0
  0
LINE
  5
78
330
1F
100
AcDbEntity
  8
0-0
  6
Continuous
 62
     2
370
    13
100
AcDbLine
 10
1400.777126002956
 20
-542.0002787822001
 30
0.0
 11
1393.570193728885
 21
-498.756953059016
 31
0.0
  0
LINE
  5
79
330
1F
100
AcDbEntity
  8
0-0
  6
Continuous
 62
     2
370
    13
100
AcDbLine
 10
1129.644940350507
 20
-195.209037162162
 30
0.0
 11
1129.644940350507
 21
-266.0421505489865
 31
0.0
  0
LINE
  5
7A
330
1F
100
AcDbEntity
  8
0-0
  6
Continuous
 62
     2
370
    13
100
AcDbLine
 10
1129.644940350507
 20
-286.0422165329392
 30
0.0
 11
1129.644940350507
 21
-451.0422660209036
 31
0.0
  0
LINE
  5
7B
330
1F
100
AcDbEntity
  8
0-0
  6
Continuous
 62
     2
370
    13
100
AcDbLine
 10
1119.645402238176
 20
-192.7091526340794
 30
0.0
 11
1119.645402238176
 21
-266.0421505489865
 31
0.0
  0
LINE
  5
7C
330
1F
100
AcDbEntity
  8
0-0
  6
Continuous
 62
     2
370
    13
100
AcDbLine
 10
1119.645402238176
 20
-286.0422165329392
 30
0.0
 11
1119.645402238176
 21
-525.2555311048353
 31
0.0
  0
LINE
  5
7D
330
1F
100
AcDbEntity
  8
0-0
  6
Continuous
 62
     2
370
    13
100
AcDbLine
 10
1400.619259396115
 20
-543.3728274783572
 30
0.0
 11
1393.951251055743
 21
-559.3756268475506
 31
0.0
  0
LINE
  5
7E
330
1F
100
AcDbEntity
  8
0-0
  6
Continuous
 62
     2
370
    13
100
AcDbLine
 10
1307.713524070946
 20
-559.3756268475506
 30
0.0
 11
1301.561675200591
 21
-545.8414108688767
 31
0.0
  0
LINE
  5
7F
330
1F
100
AcDbEntity
  8
0-0
  6
Continuous
 62
     2
370
    13
100
AcDbLine
 10
1345.895468222129
 20
-474.3755938555742
 30
0.0
 11
1345.895468222129
 21
-559.3756268475506
 31
0.0
  0
LINE
  5
80
330
1F
100
AcDbEntity
  8
0-0
  6
Continuous
 62
     2
370
    13
100
AcDbLine
 10
1322.561892947635
 20
-474.3755938555742
 30
0.0
 11
1322.561892947635
 21
-559.3756268475506
 31
0.0
  0
LINE
  5
81
330
1F
100
AcDbEntity
  8
0-0
  6
Continuous
 62
     2
370
    13
100
AcDbLine
 10
1029.276419974663
 20
-526.8309804555531
 30
0.0
 11
1016.264549461571
 21
-526.0874237885346
 31
0.0
  0
LINE
  5
82
330
1F
100
AcDbEntity
  8
0-0
  6
Continuous
 62
     2
370
    13
100
AcDbLine
 10
1030.062288851352
 20
-527.6628731392525
 30
0.0
 11
1030.062288851352
 21
-544.3758247994087
 31
0.0
  0
LINE
  5
83
330
1F
100
AcDbEntity
  8
0-0
  6
Continuous
 62
     2
370
    13
100
AcDbLine
 10
748.6351219383448
 20
-491.8713213946367
 30
0.0
 11
763.3285934860646
 21
-489.8449129671662
 31
0.0
  0
LINE
  5
84
330
1F
100
AcDbEntity
  8
0-0
  6
Continuous
 62
     2
370
    13
100
AcDbLine
 10
1014.645798141892
 20
-264.3758907833615
 30
0.0
 11
1005.478647592906
 21
-264.3758907833615
 31
0.0
  0
LINE
  5
85
330
1F
100
AcDbEntity
  8
0-0
  6
Continuous
 62
     2
370
    13
100
AcDbLine
 10
1014.645798141892
 20
-287.7089711782094
 30
0.0
 11
1005.478647592906
 21
-287.7089711782094
 31
0.0
  0
LINE
  5
86
330
1F
100
AcDbEntity
  8
0-0
  6
Continuous
 62
     2
370
    13
100
AcDbLine
 10
984.4007337415542
 20
-459.3756680875211
 30
0.0
 11
997.1458641258448
 21
-459.3756680875211
 31
0.0
  0
LINE
  5
87
330
1F
100
AcDbEntity
  8
0-0
  6
Continuous
 62
     2
370
    13
100
AcDbLine
 10
984.0587719066724
 20
-459.3991748706713
 30
0.0
 11
875.6489521748313
 21
-474.352087072424
 31
0.0
  0
LINE
  5
88
330
1F
100
AcDbEntity
  8
0-0
  6
Continuous
 62
     2
370
    13
100
AcDbLine
 10
769.8026090054901
 20
-474.3755938555742
 30
0.0
 11
875.3074852195948
 21
-474.3755938555742
 31
0.0
  0
LINE
  5
89
330
1F
100
AcDbEntity
  8
0-0
  6
Continuous
 62
     2
370
    13
100
AcDbLine
 10
767.3173234269427
 20
-476.6029234190245
 30
0.0
 11
766.1860285578547
 21
-486.9065650733741
 31
0.0
  0
LINE
  5
8A
330
1F
100
AcDbEntity
  8
0-0
  6
Continuous
 62
     2
370
    13
100
AcDbLine
 10
734.3469568201016
 20
-542.0002787822001
 30
0.0
 11
741.5538890941724
 21
-498.756953059016
 31
0.0
  0
LINE
  5
8B
330
1F
100
AcDbEntity
  8
0-0
  6
Continuous
 62
     2
370
    13
100
AcDbLine
 10
1005.478647592906
 20
-195.209037162162
 30
0.0
 11
1005.478647592906
 21
-266.0421505489865
 31
0.0
  0
LINE
  5
8C
330
1F
100
AcDbEntity
  8
0-0
  6
Continuous
 62
     2
370
    13
100
AcDbLine
 10
1005.478647592906
 20
-286.0422165329392
 30
0.0
 11
1005.478647592906
 21
-451.0422660209036
 31
0.0
  0
LINE
  5
8D
330
1F
100
AcDbEntity
  8
0-0
  6
Continuous
 62
     2
370
    13
100
AcDbLine
 10
1015.478680584882
 20
-192.7091526340794
 30
0.0
 11
1015.478680584882
 21
-266.0421505489865
 31
0.0
  0
LINE
  5
8E
330
1F
100
AcDbEntity
  8
0-0
  6
Continuous
 62
     2
370
    13
100
AcDbLine
 10
1015.478680584882
 20
-286.0422165329392
 30
0.0
 11
1015.478680584882
 21
-525.2555311048353
 31
0.0
  0
LINE
  5
8F
330
1F
100
AcDbEntity
  8
0-0
  6
Continuous
 62
     2
370
    13
100
AcDbLine
 10
734.505318306588
 20
-543.3728274783572
 30
0.0
 11
741.1733266469594
 21
-559.375750567462
 31
0.0
  0
LINE
  5
90
330
1F
100
AcDbEntity
  8
0-0
  6
Continuous
 62
     2
370
    13
100
AcDbLine
 10
827.4105587521115
 20
-559.375750567462
 30
0.0
 11
833.5624076224661
 21
-545.8414108688767
 31
0.0
  0
LINE
  5
91
330
1F
100
AcDbEntity
  8
0-0
  6
Continuous
 62
     2
370
    13
100
AcDbLine
 10
789.2286146009292
 20
-474.3755938555742
 30
0.0
 11
789.2286146009292
 21
-559.375750567462
 31
0.0
  0
LINE
  5
92
330
1F
100
AcDbEntity
  8
0-0
  6
Continuous
 62
     2
370
    13
100
AcDbLine
 10
812.5616949957771
 20
-474.3755938555742
 30
0.0
 11
812.5616949957771
 21
-559.375750567462
 31
0.0
  0
LINE
  5
93
330
1F
100
AcDbEntity
  8
0-0
  6
Continuous
 62
     2
370
    13
100
AcDbLine
 10
1007.978779560811
 20
-192.7091526340794
 30
0.0
 11
1017.144940350507
 21
-192.7091526340794
 31
0.0
  0
LINE
  5
94
330
1F
100
AcDbEntity
  8
0-0
  6
Continuous
 62
     2
370
    13
100
AcDbLine
 10
1127.145798141892
 20
-192.7091526340794
 30
0.0
 11
1117.978647592906
 21
-192.7091526340794
 31
0.0
  0
LINE
  5
95
330
1F
100
AcDbEntity
  8
0-0
  6
Continuous
 62
     2
370
    13
100
AcDbLine
 10
1017.551731418919
 20
-526.0426371806376
 30
0.0
 11
1117.571856524493
 21
-526.0426371806376
 31
0.0
  0
LINE
  5
96
330
1F
100
AcDbEntity
  8
0-0
  6
Continuous
 62
     2
370
    13
100
AcDbLine
 10
1030.062288851352
 20
-526.8760145032728
 30
0.0
 11
1105.062288851352
 21
-526.8760145032728
 31
0.0
  0
LINE
  5
97
330
1F
100
AcDbEntity
  8
0-0
  6
Continuous
 62
     2
370
    13
100
AcDbLine
 10
835.8388539907094
 20
-544.3758247994087
 30
0.0
 11
1299.285723711993
 21
-544.37594851932
 31
0.0
  0
LINE
  5
98
330
1F
100
AcDbEntity
  8
0-0
  6
Continuous
 62
     3
370
    13
100
AcDbLine
 10
-1431.06969884924
 20
-109.3756268475505
 30
0.0
 11
-1431.06969884924
 21
-195.4115666569891
 31
0.0
  0
LINE
  5
99
330
1F
100
AcDbEntity
  8
0-0
  6
Continuous
 62
     3
370
    13
100
AcDbLine
 10
-1330.236486486486
 20
-109.3756268475505
 30
0.0
 11
-1330.236486486486
 21
-195.4114429370776
 31
0.0
  0
LINE
  5
9A
330
1F
100
AcDbEntity
  8
0-1
  6
Continuous
 62
     2
370
    13
100
AcDbLine
 10
-1397.344640783361
 20
-276.0425547006968
 30
0.0
 11
-1388.998990445523
 21
-261.5871202623521
 31
0.0
  0
LINE
  5
9B
330
1F
100
AcDbEntity
  8
0-1
  6
Continuous
 62
     2
370
    13
100
AcDbLine
 10
-1388.998990445523
 20
-261.5871202623521
 30
0.0
 11
-1372.307442330025
 21
-261.5871202623521
 31
0.0
  0
LINE
  5
9C
330
1F
100
AcDbEntity
  8
0-1
  6
Continuous
 62
     2
370
    13
100
AcDbLine
 10
-1372.307442330025
 20
-261.5871202623521
 30
0.0
 11
-1363.961544552365
 21
-276.0425547006968
 31
0.0
  0
LINE
  5
9D
330
1F
100
AcDbEntity
  8
0-1
  6
Continuous
 62
     2
370
    13
100
AcDbLine
 10
-1363.961544552365
 20
-276.0425547006968
 30
0.0
 11
-1372.307442330025
 21
-290.4977416992188
 31
0.0
  0
LINE
  5
9E
330
1F
100
AcDbEntity
  8
0-1
  6
Continuous
 62
     2
370
    13
100
AcDbLine
 10
-1388.998990445523
 20
-290.4977416992188
 30
0.0
 11
-1397.344640783361
 21
-276.0425547006968
 31
0.0
  0
LINE
  5
9F
330
1F
100
AcDbEntity
  8
0-D
  6
JWW_CENTER1
 62
     2
370
    13
100
AcDbLine
 10
-1399.658698004645
 20
-276.0425547006968
 30
0.0
 11
-1360.372677364865
 21
-276.0425547006968
 31
0.0
  0
LINE
  5
A0
330
1F
100
AcDbEntity
  8
0-1
  6
Continuous
 62
     2
370
    13
100
AcDbLine
 10
-1372.307442330025
 20
-290.4977416992188
 30
0.0
 11
-1388.998990445523
 21
-290.4977416992188
 31
0.0
  0
LINE
  5
A1
330
1F
100
AcDbEntity
  8
0-0
  6
Continuous
 62
     2
370
    13
100
AcDbLine
 10
-1468.546439505912
 20
-495.7886649466849
 30
0.0
 11
-1380.653340107686
 21
-492.709028914168
 31
0.0
  0
LINE
  5
A2
330
1F
100
AcDbEntity
  8
0-0
  6
Continuous
 62
     2
370
    13
100
AcDbLine
 10
-1465.084261507601
 20
-462.4456539669552
 30
0.0
 11
-1380.653340107686
 21
-459.3755443676098
 31
0.0
  0
LINE
  5
A3
330
1F
100
AcDbEntity
  8
0-0
  6
Continuous
 62
     2
370
    13
100
AcDbLine
 10
-1292.759993269637
 20
-495.7886649466849
 30
0.0
 11
-1380.653340107686
 21
-492.709028914168
 31
0.0
  0
LINE
  5
A4
330
1F
100
AcDbEntity
  8
0-0
  6
Continuous
 62
     2
370
    13
100
AcDbLine
 10
-1296.221923828125
 20
-462.4456539669552
 30
0.0
 11
-1380.653340107686
 21
-459.3755443676098
 31
0.0
  0
LINE
  5
A5
330
1F
100
AcDbEntity
  8
0-0
  6
Continuous
 62
     2
370
    13
100
AcDbLine
 10
-1281.780840899493
 20
-542.7090701541384
 30
0.0
 11
-1479.690139358108
 21
-542.7090701541384
 31
0.0
  0
LINE
  5
A6
330
1F
100
AcDbEntity
  8
0-0
  6
Continuous
 62
     2
370
    13
100
AcDbLine
 10
-1414.352911871833
 20
-477.9751009554475
 30
0.0
 11
-1415.1385333087
 21
-482.1141505885768
 31
0.0
  0
LINE
  5
A7
330
1F
100
AcDbEntity
  8
0-0
  6
Continuous
 62
     2
370
    13
100
AcDbLine
 10
-1412.021781302787
 20
-475.9439911713471
 30
0.0
 11
-1380.653340107686
 21
-474.3758412953969
 31
0.0
  0
LINE
  5
A8
330
1F
100
AcDbEntity
  8
0-0
  6
Continuous
 62
     2
370
    13
100
AcDbLine
 10
-1349.284156593117
 20
-475.9439911713471
 30
0.0
 11
-1380.653340107686
 21
-474.3758412953969
 31
0.0
  0
LINE
  5
A9
330
1F
100
AcDbEntity
  8
0-0
  6
Continuous
 62
     2
370
    13
100
AcDbLine
 10
-1346.953026024071
 20
-477.9751009554475
 30
0.0
 11
-1346.167652027027
 21
-482.1141505885768
 31
0.0
  0
LINE
  5
AA
330
1F
100
AcDbEntity
  8
0-0
  6
Continuous
 62
     2
370
    13
100
AcDbLine
 10
-1442.736239046664
 20
-198.4065782701646
 30
0.0
 11
-1442.736239046664
 21
-461.6334327491553
 31
0.0
  0
LINE
  5
AB
330
1F
100
AcDbEntity
  8
0-0
  6
Continuous
 62
     2
370
    13
100
AcDbLine
 10
-1440.369972022804
 20
-195.9101578995987
 30
0.0
 11
-1380.653340107686
 21
-192.7092763539906
 31
0.0
  0
LINE
  5
AC
330
1F
100
AcDbEntity
  8
0-0
  6
Continuous
 62
     2
370
    13
100
AcDbLine
 10
-1320.9359658731
 20
-195.9101578995987
 30
0.0
 11
-1380.653340107686
 21
-192.7092763539906
 31
0.0
  0
LINE
  5
AD
330
1F
100
AcDbEntity
  8
0-0
  6
Continuous
 62
     2
370
    13
100
AcDbLine
 10
-1318.56969884924
 20
-198.4065782701646
 30
0.0
 11
-1318.56969884924
 21
-461.6334327491553
 31
0.0
  0
LINE
  5
AE
330
1F
100
AcDbEntity
  8
0-0
  6
Continuous
 62
     2
370
    13
100
AcDbLine
 10
-1480.582654798353
 20
-542.0338068781672
 30
0.0
 11
-1473.070134343327
 21
-469.9105422561233
 31
0.0
  0
LINE
  5
AF
330
1F
100
AcDbEntity
  8
0-0
  6
Continuous
 62
     2
370
    13
100
AcDbLine
 10
-1280.72328309755
 20
-542.0338068781672
 30
0.0
 11
-1288.236298432221
 21
-469.9105422561233
 31
0.0
  0
LINE
  5
B0
330
1F
100
AcDbEntity
  8
0-1
  6
JWW_DASHED1
 62
     4
370
    13
100
AcDbLine
 10
-1431.069946289062
 20
-195.4115666569891
 30
0.0
 11
-1431.069946289062
 21
-526.0425134607262
 31
0.0
  0
LINE
  5
B1
330
1F
100
AcDbEntity
  8
0-1
  6
JWW_DASHED1
 62
     4
370
    13
100
AcDbLine
 10
-1330.236486486486
 20
-195.4115666569891
 30
0.0
 11
-1330.236486486486
 21
-526.0425134607262
 31
0.0
  0
LINE
  5
B2
330
1F
100
AcDbEntity
  8
0-0
  6
Continuous
 62
     2
370
    13
100
AcDbLine
 10
-1473.077557538007
 20
-559.3756268475506
 30
0.0
 11
-1480.372083509291
 21
-543.3274222709036
 31
0.0
  0
LINE
  5
B3
330
1F
100
AcDbEntity
  8
0-0
  6
Continuous
 62
     2
370
    13
100
AcDbLine
 10
-1288.228380357897
 20
-559.3756268475506
 30
0.0
 11
-1280.934101826436
 21
-543.3274222709036
 31
0.0
  0
LINE
  5
B4
330
1F
100
AcDbEntity
  8
0-0
  6
JWW_DASHED1
 62
     2
370
    13
100
AcDbLine
 10
-1342.367471230997
 20
-526.8308567356418
 30
0.0
 11
-1329.355600717905
 21
-526.0874237885346
 31
0.0
  0
LINE
  5
B5
330
1F
100
AcDbEntity
  8
0-0
  6
JWW_DASHED1
 62
     2
370
    13
100
AcDbLine
 10
-1418.938961544552
 20
-526.8308567356418
 30
0.0
 11
-1431.950832057644
 21
-526.0874237885346
 31
0.0
  0
LINE
  5
B6
330
1F
100
AcDbEntity
  8
0-0
  6
JWW_DASHED1
 62
     2
370
    13
100
AcDbLine
 10
-1430.663402660473
 20
-526.0425134607262
 30
0.0
 11
-1330.643030115076
 21
-526.0425134607262
 31
0.0
  0
LINE
  5
B7
330
1F
100
AcDbEntity
  8
0-0
  6
JWW_DASHED1
 62
     2
370
    13
100
AcDbLine
 10
-1418.153092667863
 20
-526.8758907833615
 30
0.0
 11
-1343.153340107686
 21
-526.8758907833615
 31
0.0
  0
LINE
  5
B8
330
1F
100
AcDbEntity
  8
0-0
  6
JWW_DASHED1
 62
     2
370
    13
100
AcDbLine
 10
-1328.569979281039
 20
-195.5008924329601
 30
0.0
 11
-1328.569979281039
 21
-525.255407384924
 31
0.0
  0
LINE
  5
B9
330
1F
100
AcDbEntity
  8
0-0
  6
JWW_DASHED1
 62
     2
370
    13
100
AcDbLine
 10
-1432.73645349451
 20
-195.5008924329601
 30
0.0
 11
-1432.73645349451
 21
-525.255407384924
 31
0.0
  0
LINE
  5
BA
330
1F
100
AcDbEntity
  8
0-0
  6
JWW_DASHED1
 62
     2
370
    13
100
AcDbLine
 10
-1418.153092667863
 20
-527.6627494193411
 30
0.0
 11
-1418.153092667863
 21
-543.7507918074324
 31
0.0
  0
LINE
  5
BB
330
1F
100
AcDbEntity
  8
0-0
  6
JWW_DASHED1
 62
     2
370
    13
100
AcDbLine
 10
-1480.561127533784
 20
-542.7108022328969
 30
0.0
 11
-1380.653340107686
 21
-544.3758247994087
 31
0.0
  0
LINE
  5
BC
330
1F
100
AcDbEntity
  8
0-0
  6
JWW_DASHED1
 62
     2
370
    13
100
AcDbLine
 10
-1280.745552681588
 20
-542.7108022328969
 30
0.0
 11
-1380.653340107686
 21
-544.3758247994087
 31
0.0
  0
LINE
  5
BD
330
1F
100
AcDbEntity
  8
0-0
  6
JWW_DASHED1
 62
     2
370
    13
100
AcDbLine
 10
-1343.153340107686
 20
-527.6627494193411
 30
0.0
 11
-1343.153340107686
 21
-543.7507918074324
 31
0.0
  0
LINE
  5
BE
330
1F
100
AcDbEntity
  8
0-0
  6
Continuous
 62
     3
370
    13
100
AcDbLine
 10
1021.812150285051
 20
923.5408803578971
 30
0.0
 11
1021.812150285051
 21
-266.0421505489865
 31
0.0
  0
LINE
  5
BF
330
1F
100
AcDbEntity
  8
0-0
  6
Continuous
 62
     3
370
    13
100
AcDbLine
 10
1113.311932538007
 20
923.5408803578971
 30
0.0
 11
1113.311932538007
 21
-266.0421505489865
 31
0.0
  0
LINE
  5
C0
330
1F
100
AcDbEntity
  8
0-1
  6
Continuous
 62
     4
370
    13
100
AcDbLine
 10
1017.144940350507
 20
-264.3756433435388
 30
0.0
 11
1021.812150285051
 21
-264.3756433435388
 31
0.0
  0
LINE
  5
C1
330
1F
100
AcDbEntity
  8
0-1
  6
Continuous
 62
     4
370
    13
100
AcDbLine
 10
1117.978647592906
 20
-264.3756433435388
 30
0.0
 11
1113.311932538007
 21
-264.3756433435388
 31
0.0
  0
LINE
  5
C2
330
1F
100
AcDbEntity
  8
0-1
  6
Continuous
 62
     4
370
    13
100
AcDbLine
 10
1017.144940350507
 20
-287.7089711782094
 30
0.0
 11
1021.812150285051
 21
-287.7089711782094
 31
0.0
  0
LINE
  5
C3
330
1F
100
AcDbEntity
  8
0-1
  6
Continuous
 62
     4
370
    13
100
AcDbLine
 10
1117.978647592906
 20
-287.7089711782094
 30
0.0
 11
1113.311932538007
 21
-287.7089711782094
 31
0.0
  0
LINE
  5
C4
330
1F
100
AcDbEntity
  8
0-0
  6
Continuous
 62
     3
370
    13
100
AcDbLine
 10
1021.812150285051
 20
-526.042760900549
 30
0.0
 11
1021.812150285051
 21
-286.0422165329392
 31
0.0
  0
LINE
  5
C5
330
1F
100
AcDbEntity
  8
0-0
  6
Continuous
 62
     3
370
    13
100
AcDbLine
 10
1113.311932538007
 20
-526.042389740815
 30
0.0
 11
1113.311932538007
 21
-286.0422165329392
 31
0.0
  0
LINE
  5
C6
330
1F
100
AcDbEntity
  8
0-0
  6
Continuous
 62
     2
370
    13
100
AcDbLine
 10
-1380.653340107686
 20
-562.7091361380911
 30
0.0
 11
-1380.653340107686
 21
-474.3758412953969
 31
0.0
  0
LINE
  5
C7
330
1F
100
AcDbEntity
  8
0-1
  6
Continuous
 62
     2
370
    13
100
AcDbLine
 10
168.4887035472974
 20
-276.0425547006968
 30
0.0
 11
176.8346013249578
 21
-261.5871202623521
 31
0.0
  0
LINE
  5
C8
330
1F
100
AcDbEntity
  8
0-1
  6
Continuous
 62
     2
370
    13
100
AcDbLine
 10
176.8346013249578
 20
-261.5871202623521
 30
0.0
 11
193.5261494404563
 21
-261.5871202623521
 31
0.0
  0
LINE
  5
C9
330
1F
100
AcDbEntity
  8
0-1
  6
Continuous
 62
     2
370
    13
100
AcDbLine
 10
193.5261494404563
 20
-261.5871202623521
 30
0.0
 11
201.871799778294
 21
-276.0425547006968
 31
0.0
  0
LINE
  5
CA
330
1F
100
AcDbEntity
  8
0-1
  6
Continuous
 62
     2
370
    13
100
AcDbLine
 10
201.871799778294
 20
-276.0425547006968
 30
0.0
 11
193.5261494404563
 21
-290.4977416992188
 31
0.0
  0
LINE
  5
CB
330
1F
100
AcDbEntity
  8
0-1
  6
Continuous
 62
     2
370
    13
100
AcDbLine
 10
176.8346013249578
 20
-290.4977416992188
 30
0.0
 11
168.4887035472974
 21
-276.0425547006968
 31
0.0
  0
LINE
  5
CC
330
1F
100
AcDbEntity
  8
0-D
  6
JWW_CENTER1
 62
     2
370
    13
100
AcDbLine
 10
166.1746463260135
 20
-276.0425547006968
 30
0.0
 11
205.460666965794
 21
-276.0425547006968
 31
0.0
  0
LINE
  5
CD
330
1F
100
AcDbEntity
  8
0-1
  6
Continuous
 62
     2
370
    13
100
AcDbLine
 10
193.5261494404563
 20
-290.4977416992188
 30
0.0
 11
176.8346013249578
 21
-290.4977416992188
 31
0.0
  0
LINE
  5
CE
330
1F
100
AcDbEntity
  8
0-0
  6
Continuous
 62
     2
370
    13
100
AcDbLine
 10
97.28715226456927
 20
-495.7886649466849
 30
0.0
 11
185.1802516627959
 21
-492.709028914168
 31
0.0
  0
LINE
  5
CF
330
1F
100
AcDbEntity
  8
0-0
  6
Continuous
 62
     2
370
    13
100
AcDbLine
 10
100.7490828230576
 20
-462.4456539669552
 30
0.0
 11
185.1802516627959
 21
-459.3755443676098
 31
0.0
  0
LINE
  5
D0
330
1F
100
AcDbEntity
  8
0-0
  6
Continuous
 62
     2
370
    13
100
AcDbLine
 10
273.0735985008448
 20
-495.7886649466849
 30
0.0
 11
185.1802516627959
 21
-492.709028914168
 31
0.0
  0
LINE
  5
D1
330
1F
100
AcDbEntity
  8
0-0
  6
Continuous
 62
     2
370
    13
100
AcDbLine
 10
269.6114205025339
 20
-462.4456539669552
 30
0.0
 11
185.1802516627959
 21
-459.3755443676098
 31
0.0
  0
LINE
  5
D2
330
1F
100
AcDbEntity
  8
0-0
  6
Continuous
 62
     2
370
    13
100
AcDbLine
 10
284.0525034311656
 20
-542.7090701541384
 30
0.0
 11
86.14345241237345
 21
-542.7090701541384
 31
0.0
  0
LINE
  5
D3
330
1F
100
AcDbEntity
  8
0-0
  6
Continuous
 62
     2
370
    13
100
AcDbLine
 10
151.4806798986487
 20
-477.9751009554475
 30
0.0
 11
150.6948110219597
 21
-482.1141505885768
 31
0.0
  0
LINE
  5
D4
330
1F
100
AcDbEntity
  8
0-0
  6
Continuous
 62
     2
370
    13
100
AcDbLine
 10
153.8118104676943
 20
-475.9439911713471
 30
0.0
 11
185.1802516627959
 21
-474.3758412953969
 31
0.0
  0
LINE
  5
D5
330
1F
100
AcDbEntity
  8
0-0
  6
Continuous
 62
     2
370
    13
100
AcDbLine
 10
216.5494351773651
 20
-475.9439911713471
 30
0.0
 11
185.1802516627959
 21
-474.3758412953969
 31
0.0
  0
LINE
  5
D6
330
1F
100
AcDbEntity
  8
0-0
  6
Continuous
 62
     2
370
    13
100
AcDbLine
 10
218.880318306588
 20
-477.9751009554475
 30
0.0
 11
219.6656923036318
 21
-482.1141505885768
 31
0.0
  0
LINE
  5
D7
330
1F
100
AcDbEntity
  8
0-0
  6
Continuous
 62
     2
370
    13
100
AcDbLine
 10
123.0973527238177
 20
-198.4065782701646
 30
0.0
 11
123.0973527238177
 21
-461.6334327491553
 31
0.0
  0
LINE
  5
D8
330
1F
100
AcDbEntity
  8
0-0
  6
Continuous
 62
     2
370
    13
100
AcDbLine
 10
125.4636197476776
 20
-195.9101578995987
 30
0.0
 11
185.1802516627959
 21
-192.7092763539906
 31
0.0
  0
LINE
  5
D9
330
1F
100
AcDbEntity
  8
0-0
  6
Continuous
 62
     2
370
    13
100
AcDbLine
 10
244.8976258973818
 20
-195.9101578995987
 30
0.0
 11
185.1802516627959
 21
-192.7092763539906
 31
0.0
  0
LINE
  5
DA
330
1F
100
AcDbEntity
  8
0-0
  6
Continuous
 62
     2
370
    13
100
AcDbLine
 10
247.263645481419
 20
-198.4065782701646
 30
0.0
 11
247.263645481419
 21
-461.6334327491553
 31
0.0
  0
LINE
  5
DB
330
1F
100
AcDbEntity
  8
0-0
  6
Continuous
 62
     2
370
    13
100
AcDbLine
 10
85.25093697212839
 20
-542.0338068781672
 30
0.0
 11
92.76345742715392
 21
-469.9105422561233
 31
0.0
  0
LINE
  5
DC
330
1F
100
AcDbEntity
  8
0-0
  6
Continuous
 62
     2
370
    13
100
AcDbLine
 10
285.1100612331084
 20
-542.0338068781672
 30
0.0
 11
277.5972933382602
 21
-469.9105422561233
 31
0.0
  0
LINE
  5
DD
330
1F
100
AcDbEntity
  8
0-1
  6
JWW_DASHED1
 62
     4
370
    13
100
AcDbLine
 10
134.763645481419
 20
-195.4115666569891
 30
0.0
 11
134.763645481419
 21
-526.0425134607262
 31
0.0
  0
LINE
  5
DE
330
1F
100
AcDbEntity
  8
0-1
  6
JWW_DASHED1
 62
     4
370
    13
100
AcDbLine
 10
235.5973527238177
 20
-195.4115666569891
 30
0.0
 11
235.5973527238177
 21
-526.0425134607262
 31
0.0
  0
LINE
  5
DF
330
1F
100
AcDbEntity
  8
0-0
  6
Continuous
 62
     2
370
    13
100
AcDbLine
 10
92.75603423247475
 20
-559.3756268475506
 30
0.0
 11
85.46150826119089
 21
-543.3274222709036
 31
0.0
  0
LINE
  5
E0
330
1F
100
AcDbEntity
  8
0-0
  6
Continuous
 62
     2
370
    13
100
AcDbLine
 10
277.6052114125847
 20
-559.3756268475506
 30
0.0
 11
284.8997373838685
 21
-543.3274222709036
 31
0.0
  0
LINE
  5
E1
330
1F
100
AcDbEntity
  8
0-0
  6
JWW_DASHED1
 62
     2
370
    13
100
AcDbLine
 10
223.4658730996622
 20
-526.8308567356418
 30
0.0
 11
236.4777436127534
 21
-526.0874237885346
 31
0.0
  0
LINE
  5
E2
330
1F
100
AcDbEntity
  8
0-0
  6
JWW_DASHED1
 62
     2
370
    13
100
AcDbLine
 10
146.8946302259292
 20
-526.8308567356418
 30
0.0
 11
133.882759712838
 21
-526.0874237885346
 31
0.0
  0
LINE
  5
E3
330
1F
100
AcDbEntity
  8
0-0
  6
JWW_DASHED1
 62
     2
370
    13
100
AcDbLine
 10
135.1701891100086
 20
-526.0425134607262
 30
0.0
 11
235.1905616554055
 21
-526.0425134607262
 31
0.0
  0
LINE
  5
E4
330
1F
100
AcDbEntity
  8
0-0
  6
JWW_DASHED1
 62
     2
370
    13
100
AcDbLine
 10
147.6804991026182
 20
-526.8758907833615
 30
0.0
 11
222.6800042229732
 21
-526.8758907833615
 31
0.0
  0
LINE
  5
E5
330
1F
100
AcDbEntity
  8
0-0
  6
JWW_DASHED1
 62
     2
370
    13
100
AcDbLine
 10
237.2636124894427
 20
-195.5008924329601
 30
0.0
 11
237.2636124894427
 21
-525.255407384924
 31
0.0
  0
LINE
  5
E6
330
1F
100
AcDbEntity
  8
0-0
  6
JWW_DASHED1
 62
     2
370
    13
100
AcDbLine
 10
133.0971382759714
 20
-195.5008924329601
 30
0.0
 11
133.0971382759714
 21
-525.255407384924
 31
0.0
  0
LINE
  5
E7
330
1F
100
AcDbEntity
  8
0-0
  6
Continuous
 62
     2
370
    13
100
AcDbLine
 10
185.1802516627959
 20
-474.3758412953969
 30
0.0
 11
185.1802516627959
 21
-459.3755443676098
 31
0.0
  0
LINE
  5
E8
330
1F
100
AcDbEntity
  8
0-0
  6
JWW_DASHED1
 62
     2
370
    13
100
AcDbLine
 10
147.6804991026182
 20
-527.6627494193411
 30
0.0
 11
147.6804991026182
 21
-543.7507918074324
 31
0.0
  0
LINE
  5
E9
330
1F
100
AcDbEntity
  8
0-0
  6
JWW_DASHED1
 62
     2
370
    13
100
AcDbLine
 10
85.27246423669766
 20
-542.7108022328969
 30
0.0
 11
185.1802516627959
 21
-544.3758247994087
 31
0.0
  0
LINE
  5
EA
330
1F
100
AcDbEntity
  8
0-0
  6
JWW_DASHED1
 62
     2
370
    13
100
AcDbLine
 10
285.0882865287164
 20
-542.7108022328969
 30
0.0
 11
185.1802516627959
 21
-544.3758247994087
 31
0.0
  0
LINE
  5
EB
330
1F
100
AcDbEntity
  8
0-0
  6
JWW_DASHED1
 62
     2
370
    13
100
AcDbLine
 10
222.6800042229732
 20
-527.6627494193411
 30
0.0
 11
222.6800042229732
 21
-543.7507918074324
 31
0.0
  0
LINE
  5
EC
330
1F
100
AcDbEntity
  8
0-0
  6
Continuous
 62
     2
370
    13
100
AcDbLine
 10
185.1802516627959
 20
-562.7091361380911
 30
0.0
 11
185.1802516627959
 21
-474.3758412953969
 31
0.0
  0
LINE
  5
ED
330
1F
100
AcDbEntity
  8
0-F
  6
Continuous
 62
     7
370
    13
100
AcDbLine
 10
-1708.508135821368
 20
-559.3756268475506
 30
0.0
 11
-1708.508135821368
 21
973.9562493401606
 31
0.0
  0
LINE
  5
EE
330
1F
100
AcDbEntity
  8
0-F
  6
Continuous
 62
     7
370
    13
100
AcDbLine
 10
-1688.508069837416
 20
-559.3756268475506
 30
0.0
 11
-1705.50817541174
 21
-559.3756268475506
 31
0.0
  0
LINE
  5
EF
330
1F
100
AcDbEntity
  8
0-F
  6
Continuous
 62
     7
370
    13
100
AcDbLine
 10
-1108.985199799409
 20
973.9562493401606
 30
0.0
 11
-1711.508096230997
 21
973.9562493401606
 31
0.0
  0
LINE
  5
F0
330
1F
100
AcDbEntity
  8
0-F
  6
Continuous
 62
     7
370
    13
100
AcDbLine
 10
-1708.508135821368
 20
-559.3756268475506
 30
0.0
 11
-1712.423871014569
 21
-529.6322466876054
 31
0.0
  0
LINE
  5
F1
330
1F
100
AcDbEntity
  8
0-F
  6
Continuous
 62
     7
370
    13
100
AcDbLine
 10
-1708.508135821368
 20
-559.3756268475506
 30
0.0
 11
-1704.592400628167
 21
-529.6322466876054
 31
0.0
  0
LINE
  5
F2
330
1F
100
AcDbEntity
  8
0-F
  6
Continuous
 62
     7
370
    13
100
AcDbLine
 10
-1708.508135821368
 20
973.9562493401606
 30
0.0
 11
-1712.423871014569
 21
944.2129929001269
 31
0.0
  0
LINE
  5
F3
330
1F
100
AcDbEntity
  8
0-F
  6
Continuous
 62
     7
370
    13
100
AcDbLine
 10
-1708.508135821368
 20
973.9562493401606
 30
0.0
 11
-1704.592400628167
 21
944.2129929001269
 31
0.0
  0
LINE
  5
F4
330
1F
100
AcDbEntity
  8
0-F
  6
Continuous
 62
     7
370
    13
100
AcDbLine
 10
-1594.885748785895
 20
-559.375379407728
 30
0.0
 11
-1594.885748785895
 21
-192.7092763539906
 31
0.0
  0
LINE
  5
F5
330
1F
100
AcDbEntity
  8
0-F
  6
Continuous
 62
     7
370
    13
100
AcDbLine
 10
-1574.885930241765
 20
-559.375379407728
 30
0.0
 11
-1591.885788376267
 21
-559.375379407728
 31
0.0
  0
LINE
  5
F6
330
1F
100
AcDbEntity
  8
0-F
  6
Continuous
 62
     7
370
    13
100
AcDbLine
 10
-1594.885748785895
 20
-559.375379407728
 30
0.0
 11
-1598.801731418919
 21
-529.6321229676943
 31
0.0
  0
LINE
  5
F7
330
1F
100
AcDbEntity
  8
0-F
  6
Continuous
 62
     7
370
    13
100
AcDbLine
 10
-1594.885748785895
 20
-559.375379407728
 30
0.0
 11
-1590.970013592694
 21
-529.6321229676943
 31
0.0
  0
LINE
  5
F8
330
1F
100
AcDbEntity
  8
0-F
  6
Continuous
 62
     7
370
    13
100
AcDbLine
 10
-1594.885748785895
 20
-192.7092763539906
 30
0.0
 11
-1598.801731418919
 21
-222.4526565139358
 31
0.0
  0
LINE
  5
F9
330
1F
100
AcDbEntity
  8
0-F
  6
Continuous
 62
     7
370
    13
100
AcDbLine
 10
-1594.885748785895
 20
-192.7092763539906
 30
0.0
 11
-1590.970013592694
 21
-222.4526565139358
 31
0.0
  0
LINE
  5
FA
330
1F
100
AcDbEntity
  8
0-F
  6
Continuous
 62
     7
370
    13
100
AcDbLine
 10
-1594.885748785895
 20
-192.7092763539906
 30
0.0
 11
-1594.885748785895
 21
973.9562493401606
 31
0.0
  0
LINE
  5
FB
330
1F
100
AcDbEntity
  8
0-F
  6
Continuous
 62
     7
370
    13
100
AcDbLine
 10
-1574.885930241765
 20
973.9562493401606
 30
0.0
 11
-1591.885788376267
 21
973.9562493401606
 31
0.0
  0
LINE
  5
FC
330
1F
100
AcDbEntity
  8
0-F
  6
Continuous
 62
     7
370
    13
100
AcDbLine
 10
-1594.885748785895
 20
-192.7092763539906
 30
0.0
 11
-1598.801731418919
 21
-162.9658961940456
 31
0.0
  0
LINE
  5
FD
330
1F
100
AcDbEntity
  8
0-F
  6
Continuous
 62
     7
370
    13
100
AcDbLine
 10
-1594.885748785895
 20
-192.7092763539906
 30
0.0
 11
-1590.970013592694
 21
-162.9658961940456
 31
0.0
  0
LINE
  5
FE
330
1F
100
AcDbEntity
  8
0-F
  6
Continuous
 62
     7
370
    13
100
AcDbLine
 10
-1594.885748785895
 20
973.9562493401606
 30
0.0
 11
-1598.801731418919
 21
944.2129929001269
 31
0.0
  0
LINE
  5
FF
330
1F
100
AcDbEntity
  8
0-F
  6
Continuous
 62
     7
370
    13
100
AcDbLine
 10
-1594.885748785895
 20
973.9562493401606
 30
0.0
 11
-1590.970013592694
 21
944.2129929001269
 31
0.0
  0
LINE
  5
100
330
1F
100
AcDbEntity
  8
0-F
  6
Continuous
 62
     7
370
    13
100
AcDbLine
 10
-1437.415293100718
 20
-192.7092763539906
 30
0.0
 11
-1597.885956635346
 21
-192.7092763539906
 31
0.0
  0
LINE
  5
101
330
1F
100
AcDbEntity
  8
0-D
  6
JWW_CENTER1
 62
     2
370
    13
100
AcDbLine
 10
800.8954022381761
 20
-455.8870140281883
 30
0.0
 11
800.8954022381761
 21
-573.1346419050886
 31
0.0
  0
LINE
  5
102
330
1F
100
AcDbEntity
  8
0-D
  6
JWW_CENTER1
 62
     2
370
    13
100
AcDbLine
 10
1334.228680584882
 20
-457.5537686734586
 30
0.0
 11
1334.228680584882
 21
-573.1346419050886
 31
0.0
  0
LINE
  5
103
330
1F
100
AcDbEntity
  8
0-0
  6
Continuous
 62
     2
370
    13
100
AcDbLine
 10
-1380.653340107686
 20
-459.3755443676098
 30
0.0
 11
-1380.653340107686
 21
-474.3755938555742
 31
0.0
  0
LINE
  5
104
330
1F
100
AcDbEntity
  8
0-F
  6
Continuous
 62
     7
370
    13
100
AcDbLine
 10
734.3123152449328
 20
-790.7438618427998
 30
0.0
 11
1400.810777818835
 21
-790.7438618427998
 31
0.0
  0
LINE
  5
105
330
1F
100
AcDbEntity
  8
0-F
  6
Continuous
 62
     7
370
    13
100
AcDbLine
 10
734.3123152449328
 20
-562.4112185916384
 30
0.0
 11
734.3123152449328
 21
-793.7438222524281
 31
0.0
  0
LINE
  5
106
330
1F
100
AcDbEntity
  8
0-F
  6
Continuous
 62
     7
370
    13
100
AcDbLine
 10
1400.810777818835
 20
-562.4112185916384
 30
0.0
 11
1400.810777818835
 21
-793.7438222524281
 31
0.0
  0
LINE
  5
107
330
1F
100
AcDbEntity
  8
0-F
  6
Continuous
 62
     7
370
    13
100
AcDbLine
 10
734.3123152449328
 20
-790.7438618427998
 30
0.0
 11
764.0555716849661
 21
-786.8280029296875
 31
0.0
  0
LINE
  5
108
330
1F
100
AcDbEntity
  8
0-F
  6
Continuous
 62
     7
370
    13
100
AcDbLine
 10
734.3123152449328
 20
-790.7438618427998
 30
0.0
 11
764.0555716849661
 21
-794.6595970360008
 31
0.0
  0
LINE
  5
109
330
1F
100
AcDbEntity
  8
0-F
  6
Continuous
 62
     7
370
    13
100
AcDbLine
 10
1400.810777818835
 20
-790.7438618427998
 30
0.0
 11
1371.067521378801
 21
-786.8280029296875
 31
0.0
  0
LINE
  5
10A
330
1F
100
AcDbEntity
  8
0-F
  6
Continuous
 62
     7
370
    13
100
AcDbLine
 10
1400.810777818835
 20
-790.7438618427998
 30
0.0
 11
1371.067521378801
 21
-794.6595970360008
 31
0.0
  0
LINE
  5
10B
330
1F
100
AcDbEntity
  8
0-F
  6
Continuous
 62
     7
370
    13
100
AcDbLine
 10
-1380.653092667863
 20
-710.1373703415329
 30
0.0
 11
185.1804991026185
 21
-710.1373703415329
 31
0.0
  0
LINE
  5
10C
330
1F
100
AcDbEntity
  8
0-F
  6
Continuous
 62
     7
370
    13
100
AcDbLine
 10
-1380.653092667863
 20
-615.8812321843327
 30
0.0
 11
-1380.653092667863
 21
-713.1374544710727
 31
0.0
  0
LINE
  5
10D
330
1F
100
AcDbEntity
  8
0-F
  6
Continuous
 62
     7
370
    13
100
AcDbLine
 10
185.1804991026185
 20
-615.8812321843327
 30
0.0
 11
185.1804991026185
 21
-713.1374544710727
 31
0.0
  0
LINE
  5
10E
330
1F
100
AcDbEntity
  8
0-F
  6
Continuous
 62
     7
370
    13
100
AcDbLine
 10
-1380.653092667863
 20
-710.1373703415329
 30
0.0
 11
-1350.909836227829
 21
-706.2215114284206
 31
0.0
  0
LINE
  5
10F
330
1F
100
AcDbEntity
  8
0-F
  6
Continuous
 62
     7
370
    13
100
AcDbLine
 10
-1380.653092667863
 20
-710.1373703415329
 30
0.0
 11
-1350.909836227829
 21
-714.0532292546452
 31
0.0
  0
LINE
  5
110
330
1F
100
AcDbEntity
  8
0-F
  6
Continuous
 62
     7
370
    13
100
AcDbLine
 10
185.1804991026185
 20
-710.1373703415329
 30
0.0
 11
155.436995222762
 21
-706.2215114284206
 31
0.0
  0
LINE
  5
111
330
1F
100
AcDbEntity
  8
0-F
  6
Continuous
 62
     7
370
    13
100
AcDbLine
 10
185.1804991026185
 20
-710.1373703415329
 30
0.0
 11
155.436995222762
 21
-714.0532292546452
 31
0.0
  0
LINE
  5
112
330
1F
100
AcDbEntity
  8
0-F
  6
Continuous
 62
     7
370
    13
100
AcDbLine
 10
800.8954022381761
 20
-710.1373703415329
 30
0.0
 11
1334.228680584882
 21
-710.1373703415329
 31
0.0
  0
LINE
  5
113
330
1F
100
AcDbEntity
  8
0-F
  6
Continuous
 62
     7
370
    13
100
AcDbLine
 10
800.8954022381761
 20
-593.1345841691301
 30
0.0
 11
800.8954022381761
 21
-713.1374544710727
 31
0.0
  0
LINE
  5
114
330
1F
100
AcDbEntity
  8
0-F
  6
Continuous
 62
     7
370
    13
100
AcDbLine
 10
1334.228680584882
 20
-593.1345841691301
 30
0.0
 11
1334.228680584882
 21
-713.1374544710727
 31
0.0
  0
LINE
  5
115
330
1F
100
AcDbEntity
  8
0-F
  6
Continuous
 62
     7
370
    13
100
AcDbLine
 10
800.8954022381761
 20
-710.1373703415329
 30
0.0
 11
830.6386586782094
 21
-706.2215114284206
 31
0.0
  0
LINE
  5
116
330
1F
100
AcDbEntity
  8
0-F
  6
Continuous
 62
     7
370
    13
100
AcDbLine
 10
800.8954022381761
 20
-710.1373703415329
 30
0.0
 11
830.6386586782094
 21
-714.0532292546452
 31
0.0
  0
LINE
  5
117
330
1F
100
AcDbEntity
  8
0-F
  6
Continuous
 62
     7
370
    13
100
AcDbLine
 10
1334.228680584882
 20
-710.1373703415329
 30
0.0
 11
1304.485424144848
 21
-706.2215114284206
 31
0.0
  0
LINE
  5
118
330
1F
100
AcDbEntity
  8
0-F
  6
Continuous
 62
     7
370
    13
100
AcDbLine
 10
1334.228680584882
 20
-710.1373703415329
 30
0.0
 11
1304.485424144848
 21
-714.0532292546452
 31
0.0
  0
LINE
  5
119
330
1F
100
AcDbEntity
  8
0-F
  6
Continuous
 62
     7
370
    13
100
AcDbLine
 10
85.23732778188361
 20
-807.7035110061233
 30
0.0
 11
285.1234229835305
 21
-807.7035110061233
 31
0.0
  0
LINE
  5
11A
330
1F
100
AcDbEntity
  8
0-F
  6
Continuous
 62
     7
370
    13
100
AcDbLine
 10
285.1234229835305
 20
-584.9423465213259
 30
0.0
 11
285.1234229835305
 21
-810.7034714157517
 31
0.0
  0
LINE
  5
11B
330
1F
100
AcDbEntity
  8
0-F
  6
Continuous
 62
     7
370
    13
100
AcDbLine
 10
85.23732778188361
 20
-807.7035110061233
 30
0.0
 11
114.9805842219175
 21
-803.7876520930109
 31
0.0
  0
LINE
  5
11C
330
1F
100
AcDbEntity
  8
0-F
  6
Continuous
 62
     7
370
    13
100
AcDbLine
 10
85.23732778188361
 20
-807.7035110061233
 30
0.0
 11
114.9805842219175
 21
-811.6192461993244
 31
0.0
  0
LINE
  5
11D
330
1F
100
AcDbEntity
  8
0-F
  6
Continuous
 62
     7
370
    13
100
AcDbLine
 10
285.1234229835305
 20
-807.7035110061233
 30
0.0
 11
255.3801665434966
 21
-803.7876520930109
 31
0.0
  0
LINE
  5
11E
330
1F
100
AcDbEntity
  8
0-F
  6
Continuous
 62
     7
370
    13
100
AcDbLine
 10
285.1234229835305
 20
-807.7035110061233
 30
0.0
 11
255.3801665434966
 21
-811.6192461993244
 31
0.0
  0
LINE
  5
11F
330
1F
100
AcDbEntity
  8
0-F
  6
Continuous
 62
     7
370
    13
100
AcDbLine
 10
85.23732778188361
 20
-730.7638302364865
 30
0.0
 11
85.23732778188361
 21
-810.7034714157517
 31
0.0
  0
LINE
  5
120
330
1F
100
AcDbEntity
  8
0-F
  6
Continuous
 62
     7
370
    13
100
AcDbLine
 10
85.23732778188361
 20
-584.9423465213259
 30
0.0
 11
85.23732778188361
 21
-687.3099332242398
 31
0.0
  0
LINE
  5
121
330
1F
100
AcDbEntity
  8
0-F
  6
Continuous
 62
     7
370
    13
100
AcDbLine
 10
1334.228680584882
 20
-474.3755938555742
 30
0.0
 11
1345.708898595861
 21
-446.6593644425676
 31
0.0
  0
LINE
  5
122
330
1F
100
AcDbEntity
  8
0-F
  6
Continuous
 62
     7
370
    13
100
AcDbLine
 10
1334.228680584882
 20
-474.3755938555742
 30
0.0
 11
1352.491224134291
 21
-450.5750996357685
 31
0.0
  0
LINE
  5
123
330
1F
100
AcDbEntity
  8
0-F
  6
Continuous
 62
     7
370
    13
100
AcDbLine
 10
1405.862014358108
 20
-350.3022147513724
 30
0.0
 11
1726.873119457348
 21
-350.3022147513724
 31
0.0
  0
LINE
  5
124
330
1F
100
AcDbEntity
  8
0-F
  6
Continuous
 62
     7
370
    13
100
AcDbLine
 10
1334.228680584882
 20
-474.3755938555742
 30
0.0
 11
1405.862014358108
 21
-350.3022147513724
 31
0.0
  0
LINE
  5
125
330
1F
100
AcDbEntity
  8
0-F
  6
Continuous
 62
     7
370
    13
100
AcDbLine
 10
1338.24462890625
 20
-226.1918433936866
 30
0.0
 11
1814.99485325169
 21
-226.1918433936866
 31
0.0
  0
LINE
  5
126
330
1F
100
AcDbEntity
  8
0-F
  6
Continuous
 62
     7
370
    13
100
AcDbLine
 10
1199.727816195102
 20
-466.1112274994721
 30
0.0
 11
1338.24462890625
 21
-226.1918433936866
 31
0.0
  0
LINE
  5
127
330
1F
100
AcDbEntity
  8
0-F
  6
Continuous
 62
     7
370
    13
100
AcDbLine
 10
1199.727816195102
 20
-466.1112274994721
 30
0.0
 11
1211.208034206081
 21
-438.3947506466427
 31
0.0
  0
LINE
  5
128
330
1F
100
AcDbEntity
  8
0-F
  6
Continuous
 62
     7
370
    13
100
AcDbLine
 10
1199.727816195102
 20
-466.1112274994721
 30
0.0
 11
1217.99035974451
 21
-442.3106095597551
 31
0.0
  0
LINE
  5
129
330
1F
100
AcDbEntity
  8
0-F
  6
Continuous
 62
     7
370
    13
100
AcDbLine
 10
1140.883657094595
 20
-259.3508828652871
 30
0.0
 11
1240.030319626267
 21
-87.62306831978464
 31
0.0
  0
LINE
  5
12A
330
1F
100
AcDbEntity
  8
0-F
  6
Continuous
 62
     7
370
    13
100
AcDbLine
 10
1140.883657094595
 20
-259.3508828652871
 30
0.0
 11
1152.36436998522
 21
-231.634529732369
 31
0.0
  0
LINE
  5
12B
330
1F
100
AcDbEntity
  8
0-F
  6
Continuous
 62
     7
370
    13
100
AcDbLine
 10
1140.883657094595
 20
-259.3508828652871
 30
0.0
 11
1159.146695523649
 21
-235.55026492557
 31
0.0
  0
LINE
  5
12C
330
1F
100
AcDbEntity
  8
0-F
  6
Continuous
 62
     7
370
    13
100
AcDbLine
 10
1334.228680584882
 20
-474.3755938555742
 30
0.0
 11
1345.709393475507
 21
-446.6593644425676
 31
0.0
  0
LINE
  5
12D
330
1F
100
AcDbEntity
  8
0-F
  6
Continuous
 62
     7
370
    13
100
AcDbLine
 10
1334.228680584882
 20
-474.3755938555742
 30
0.0
 11
1352.491719013936
 21
-450.5750996357685
 31
0.0
  0
LINE
  5
12E
330
1F
100
AcDbEntity
  8
0-F
  6
Continuous
 62
     7
370
    13
100
AcDbLine
 10
-1341.577395877323
 20
777.706282332137
 30
0.0
 11
-1313.860919024493
 21
766.2258168813346
 31
0.0
  0
LINE
  5
12F
330
1F
100
AcDbEntity
  8
0-F
  6
Continuous
 62
     7
370
    13
100
AcDbLine
 10
-1341.577395877323
 20
777.706282332137
 30
0.0
 11
-1317.776901657517
 21
759.4434913429054
 31
0.0
  0
LINE
  5
130
330
1F
100
AcDbEntity
  8
0-F
  6
Continuous
 62
     7
370
    13
100
AcDbLine
 10
-1431.06969884924
 20
445.5596428948482
 30
0.0
 11
-1431.06969884924
 21
432.284867570207
 31
0.0
  0
LINE
  5
131
330
1F
100
AcDbEntity
  8
0-F
  6
Continuous
 62
     7
370
    13
100
AcDbLine
 10
-1431.06969884924
 20
432.284867570207
 30
0.0
 11
-1431.06969884924
 21
419.0102159654774
 31
0.0
  0
LINE
  5
132
330
1F
100
AcDbEntity
  8
0-0
  6
Continuous
 62
     3
370
    13
100
AcDbLine
 10
-1431.06969884924
 20
631.8726740656675
 30
0.0
 11
-1431.06969884924
 21
-109.3756268475505
 31
0.0
  0
LINE
  5
133
330
1F
100
AcDbEntity
  8
0-F
  6
Continuous
 62
     7
370
    13
100
AcDbLine
 10
-1164.013341955236
 20
432.284867570207
 30
0.0
 11
-1481.840143976985
 21
432.284867570207
 31
0.0
  0
LINE
  5
134
330
1F
100
AcDbEntity
  8
0-F
  6
Continuous
 62
     7
370
    13
100
AcDbLine
 10
-1330.236486486486
 20
432.284867570207
 30
0.0
 11
-1300.493230046452
 21
436.2007264833193
 31
0.0
  0
LINE
  5
135
330
1F
100
AcDbEntity
  8
0-F
  6
Continuous
 62
     7
370
    13
100
AcDbLine
 10
-1330.236486486486
 20
432.284867570207
 30
0.0
 11
-1300.493230046452
 21
428.369132377006
 31
0.0
  0
LINE
  5
136
330
1F
100
AcDbEntity
  8
0-F
  6
Continuous
 62
     7
370
    13
100
AcDbLine
 10
-1431.06969884924
 20
432.284867570207
 30
0.0
 11
-1460.812955289274
 21
436.2007264833193
 31
0.0
  0
LINE
  5
137
330
1F
100
AcDbEntity
  8
0-F
  6
Continuous
 62
     7
370
    13
100
AcDbLine
 10
-1431.06969884924
 20
432.284867570207
 30
0.0
 11
-1460.812955289274
 21
428.369132377006
 31
0.0
  0
LINE
  5
138
330
1F
100
AcDbEntity
  8
0-F
  6
Continuous
 62
     7
370
    13
100
AcDbLine
 10
1240.030319626267
 20
-87.62306831978464
 30
0.0
 11
1673.588438291808
 21
-87.62306831978464
 31
0.0
  0
LINE
  5
139
330
1F
100
AcDbEntity
  8
0-0
  6
Continuous
 62
     3
370
    13
100
AcDbLine
 10
-1330.236486486486
 20
631.8721791860221
 30
0.0
 11
-1330.236486486486
 21
-109.3756268475505
 31
0.0
  0
LINE
  5
13A
330
1F
100
AcDbEntity
  8
0-F
  6
Continuous
 62
     7
370
    13
100
AcDbLine
 10
1117.978647592906
 20
588.3259871199325
 30
0.0
 11
1127.545908335093
 21
611.4225150443415
 31
0.0
  0
LINE
  5
13B
330
1F
100
AcDbEntity
  8
0-F
  6
Continuous
 62
     7
370
    13
100
AcDbLine
 10
1117.978647592906
 20
588.3259871199325
 30
0.0
 11
1133.197681323902
 21
608.1597735430745
 31
0.0
  0
LINE
  5
13C
330
1F
100
AcDbEntity
  8
0-F
  6
Continuous
 62
     7
370
    13
100
AcDbLine
 10
1117.978647592906
 20
588.3259871199325
 30
0.0
 11
1219.476978198902
 21
764.1265374260981
 31
0.0
  0
LINE
  5
13D
330
1F
100
AcDbEntity
  8
0-F
  6
Continuous
 62
     7
370
    13
100
AcDbLine
 10
1219.476978198902
 20
764.1265374260981
 30
0.0
 11
1559.690403293919
 21
764.1265374260981
 31
0.0
  0
LINE
  5
13E
330
1F
100
AcDbEntity
  8
0-0
  6
Continuous
 62
     3
370
    13
100
AcDbLine
 10
-597.7364205025335
 20
973.9542698215794
 30
0.0
 11
-597.7362967826224
 21
973.9542698215794
 31
0.0
  0
LINE
  5
13F
330
1F
100
AcDbEntity
  8
0-0
  6
JWW_CENTER1
 62
     3
370
    13
100
AcDbLine
 10
-597.7364205025335
 20
923.5374162003802
 30
0.0
 11
-597.7362967826224
 21
923.5374162003802
 31
0.0
  0
LINE
  5
140
330
1F
100
AcDbEntity
  8
0-0
  6
Continuous
 62
     3
370
    13
100
AcDbLine
 10
-597.7364205025335
 20
873.1205625791811
 30
0.0
 11
-597.7362967826224
 21
873.1205625791811
 31
0.0
  0
LINE
  5
141
330
1F
100
AcDbEntity
  8
0-F
  6
Continuous
 62
     7
370
    13
100
AcDbLine
 10
235.5971052839951
 20
432.2847438502959
 30
0.0
 11
235.5971052839951
 21
429.2847834406675
 31
0.0
  0
LINE
  5
142
330
1F
100
AcDbEntity
  8
0-F
  6
Continuous
 62
     7
370
    13
100
AcDbLine
 10
230.5970887880068
 20
432.2847438502959
 30
0.0
 11
230.5970887880068
 21
429.2847834406675
 31
0.0
  0
LINE
  5
143
330
1F
100
AcDbEntity
  8
0-F
  6
Continuous
 62
     7
370
    13
100
AcDbLine
 10
235.5971052839951
 20
432.2847438502959
 30
0.0
 11
260.3831523173565
 21
429.0220023490289
 31
0.0
  0
LINE
  5
144
330
1F
100
AcDbEntity
  8
0-F
  6
Continuous
 62
     7
370
    13
100
AcDbLine
 10
230.5970887880068
 20
432.2847438502959
 30
0.0
 11
205.8110417546453
 21
435.5479802312078
 31
0.0
  0
LINE
  5
145
330
1F
100
AcDbEntity
  8
0-F
  6
Continuous
 62
     7
370
    13
100
AcDbLine
 10
230.5970887880068
 20
432.2847438502959
 30
0.0
 11
205.8110417546453
 21
429.0220023490289
 31
0.0
  0
LINE
  5
146
330
1F
100
AcDbEntity
  8
0-F
  6
Continuous
 62
     7
370
    13
100
AcDbLine
 10
235.5971052839951
 20
432.2847438502959
 30
0.0
 11
260.3831523173565
 21
435.5479802312078
 31
0.0
  0
LINE
  5
147
330
1F
100
AcDbEntity
  8
0-F
  6
Continuous
 62
     7
370
    13
100
AcDbLine
 10
310.43701171875
 20
432.2847438502959
 30
0.0
 11
162.5630146748313
 21
432.2847438502959
 31
0.0
  0
LINE
  5
148
330
1F
100
AcDbEntity
  8
0-0
  6
Continuous
 62
     3
370
    13
100
AcDbLine
 10
134.7638929212417
 20
-526.042760900549
 30
0.0
 11
235.5968578441724
 21
-526.0422660209036
 31
0.0
  0
LINE
  5
149
330
1F
100
AcDbEntity
  8
0-0
  6
Continuous
 62
     3
370
    13
100
AcDbLine
 10
-597.7362967826224
 20
873.1205625791811
 30
0.0
 11
-106.4872123099661
 21
873.122542097762
 31
0.0
  0
LINE
  5
14A
330
1F
100
AcDbEntity
  8
0-0
  6
JWW_CENTER1
 62
     3
370
    13
100
AcDbLine
 10
-597.7362967826224
 20
923.5374162003802
 30
0.0
 11
-106.4874597497888
 21
923.5393957189613
 31
0.0
  0
LINE
  5
14B
330
1F
100
AcDbEntity
  8
0-0
  6
Continuous
 62
     3
370
    13
100
AcDbLine
 10
-597.7362967826224
 20
973.9542698215794
 30
0.0
 11
-106.4875834697
 21
973.9562493401606
 31
0.0
  0
LINE
  5
14C
330
1F
100
AcDbEntity
  8
0-0
  6
Continuous
 62
     3
370
    13
100
AcDbLine
 10
-597.7362967826224
 20
968.9545007654141
 30
0.0
 11
-106.4875834697
 21
968.956480283995
 31
0.0
  0
LINE
  5
14D
330
1F
100
AcDbEntity
  8
0-0
  6
Continuous
 62
     3
370
    13
100
AcDbLine
 10
-597.7362967826224
 20
878.1203316353464
 30
0.0
 11
-106.4872123099661
 21
878.1223111539276
 31
0.0
  0
LINE
  5
14E
330
1F
100
AcDbEntity
  8
0-0
  6
Continuous
 62
     3
370
    13
100
AcDbLine
 10
235.5968578441724
 20
631.8726740656675
 30
0.0
 11
235.5968578441724
 21
-109.3753794077278
 31
0.0
  0
LINE
  5
14F
330
1F
100
AcDbEntity
  8
0-0
  6
Continuous
 62
     3
370
    13
100
AcDbLine
 10
230.5968413481841
 20
631.8726740656675
 30
0.0
 11
230.5968413481841
 21
-109.3753794077278
 31
0.0
  0
LINE
  5
150
330
1F
100
AcDbEntity
  8
0-0
  6
Continuous
 62
     3
370
    13
100
AcDbLine
 10
139.76390941723
 20
631.8721791860221
 30
0.0
 11
139.76390941723
 21
-109.3753794077278
 31
0.0
  0
LINE
  5
151
330
1F
100
AcDbEntity
  8
0-0
  6
Continuous
 62
     3
370
    13
100
AcDbLine
 10
134.7638929212417
 20
631.8721791860221
 30
0.0
 11
134.7638929212417
 21
-109.3753794077278
 31
0.0
  0
LINE
  5
152
330
1F
100
AcDbEntity
  8
0-1
  6
Continuous
 62
     3
370
    13
100
AcDbLine
 10
203.6771207242401
 20
-276.0424309807854
 30
0.0
 11
165.2516957875847
 21
-276.0424309807854
 31
0.0
  0
LINE
  5
153
330
1F
100
AcDbEntity
  8
0-0
  6
JWW_CENTER1
 62
     3
370
    13
100
AcDbLine
 10
185.1804991026185
 20
631.8731689453125
 30
0.0
 11
185.1804991026185
 21
-595.8811662003801
 31
0.0
  0
LINE
  5
154
330
1F
100
AcDbEntity
  8
0-0
  6
JWW_CENTER1
 62
     3
370
    13
100
AcDbLine
 10
-1380.653092667863
 20
631.8729215054898
 30
0.0
 11
-1380.653092667863
 21
-595.8811662003801
 31
0.0
  0
LINE
  5
155
330
1F
100
AcDbEntity
  8
0-0
  6
Continuous
 62
     3
370
    13
100
AcDbLine
 10
134.7638929212417
 20
-109.3753794077278
 30
0.0
 11
134.7638929212417
 21
-195.5008924329601
 31
0.0
  0
LINE
  5
156
330
1F
100
AcDbEntity
  8
0-0
  6
Continuous
 62
     3
370
    13
100
AcDbLine
 10
139.76390941723
 20
-109.3753794077278
 30
0.0
 11
139.76390941723
 21
-195.1437130489865
 31
0.0
  0
LINE
  5
157
330
1F
100
AcDbEntity
  8
0-0
  6
Continuous
 62
     3
370
    13
100
AcDbLine
 10
230.5968413481841
 20
-109.3753794077278
 30
0.0
 11
230.5968413481841
 21
-195.143589329075
 31
0.0
  0
LINE
  5
158
330
1F
100
AcDbEntity
  8
0-0
  6
Continuous
 62
     3
370
    13
100
AcDbLine
 10
235.5968578441724
 20
-109.3753794077278
 30
0.0
 11
235.5968578441724
 21
-195.4116903769003
 31
0.0
  0
LINE
  5
159
330
1F
100
AcDbEntity
  8
0-F
  6
Continuous
 62
     7
370
    13
100
AcDbLine
 10
532.5751227301521
 20
-559.3756268475506
 30
0.0
 11
-1802.31653161951
 21
-559.3756268475506
 31
0.0
  0
LINE
  5
15A
330
1F
100
AcDbEntity
  8
0-F
  6
Continuous
 62
     7
370
    13
100
AcDbLine
 10
1563.255021378801
 20
-559.3756268475506
 30
0.0
 11
625.6077946843328
 21
-559.3756268475506
 31
0.0
  0
LINE
  5
15B
330
1F
100
AcDbEntity
  8
0-0
  6
Continuous
 62
     3
370
    13
100
AcDbLine
 10
-597.7364205025335
 20
368.9542533255914
 30
0.0
 11
-1330.236362766575
 21
368.957222603463
 31
0.0
  0
LINE
  5
15C
330
1F
100
AcDbEntity
  8
0-0
  6
JWW_CENTER1
 62
     3
370
    13
100
AcDbLine
 10
-597.7364205025335
 20
340.6209089949326
 30
0.0
 11
-1391.617274928737
 21
340.6241257126268
 31
0.0
  0
LINE
  5
15D
330
1F
100
AcDbEntity
  8
0-0
  6
Continuous
 62
     3
370
    13
100
AcDbLine
 10
-597.7364205025335
 20
312.2875646642737
 30
0.0
 11
-1330.236486486486
 21
312.2905339421453
 31
0.0
  0
LINE
  5
15E
330
1F
100
AcDbEntity
  8
0-0
  6
Continuous
 62
     3
370
    13
100
AcDbLine
 10
134.763645481419
 20
368.9512840477198
 30
0.0
 11
-597.7364205025335
 21
368.9542533255914
 31
0.0
  0
LINE
  5
15F
330
1F
100
AcDbEntity
  8
0-0
  6
Continuous
 62
     3
370
    13
100
AcDbLine
 10
134.763645481419
 20
365.6178984770904
 30
0.0
 11
-597.7364205025335
 21
365.620867754962
 31
0.0
  0
LINE
  5
160
330
1F
100
AcDbEntity
  8
0-0
  6
Continuous
 62
     3
370
    13
100
AcDbLine
 10
134.763645481419
 20
315.6179809570312
 30
0.0
 11
-597.7364205025335
 21
315.6209502349029
 31
0.0
  0
LINE
  5
161
330
1F
100
AcDbEntity
  8
0-0
  6
Continuous
 62
     3
370
    13
100
AcDbLine
 10
134.763645481419
 20
312.2845953864021
 30
0.0
 11
-597.7364205025335
 21
312.2875646642737
 31
0.0
  0
LINE
  5
162
330
1F
100
AcDbEntity
  8
0-0
  6
JWW_CENTER1
 62
     3
370
    13
100
AcDbLine
 10
195.7652323954815
 20
340.6176922772383
 30
0.0
 11
-597.7364205025335
 21
340.6209089949326
 31
0.0
  0
LINE
  5
163
330
1F
100
AcDbEntity
  8
0-F
  6
Continuous
 62
     7
370
    13
100
AcDbLine
 10
-697.7363792625633
 20
368.9546244853253
 30
0.0
 11
-694.7364188529349
 21
368.9546244853253
 31
0.0
  0
LINE
  5
164
330
1F
100
AcDbEntity
  8
0-F
  6
Continuous
 62
     7
370
    13
100
AcDbLine
 10
-697.7363792625633
 20
312.2879358240078
 30
0.0
 11
-694.7364188529349
 21
312.2879358240078
 31
0.0
  0
LINE
  5
165
330
1F
100
AcDbEntity
  8
0-F
  6
Continuous
 62
     7
370
    13
100
AcDbLine
 10
-697.7363792625633
 20
368.9546244853253
 30
0.0
 11
-700.999491923564
 21
393.7407952385982
 31
0.0
  0
LINE
  5
166
330
1F
100
AcDbEntity
  8
0-F
  6
Continuous
 62
     7
370
    13
100
AcDbLine
 10
-697.7363792625633
 20
312.2879358240078
 30
0.0
 11
-700.999491923564
 21
287.5017650707349
 31
0.0
  0
LINE
  5
167
330
1F
100
AcDbEntity
  8
0-F
  6
Continuous
 62
     7
370
    13
100
AcDbLine
 10
-697.7363792625633
 20
312.2879358240078
 30
0.0
 11
-694.4732666015625
 21
287.5017650707349
 31
0.0
  0
LINE
  5
168
330
1F
100
AcDbEntity
  8
0-F
  6
Continuous
 62
     7
370
    13
100
AcDbLine
 10
-497.7364617425042
 20
368.9538821658573
 30
0.0
 11
-494.7365013328758
 21
368.9538821658573
 31
0.0
  0
LINE
  5
169
330
1F
100
AcDbEntity
  8
0-F
  6
Continuous
 62
     7
370
    13
100
AcDbLine
 10
-497.7364617425042
 20
365.6204965952281
 30
0.0
 11
-494.7365013328758
 21
365.6204965952281
 31
0.0
  0
LINE
  5
16A
330
1F
100
AcDbEntity
  8
0-F
  6
Continuous
 62
     7
370
    13
100
AcDbLine
 10
-497.7364617425042
 20
368.9538821658573
 30
0.0
 11
-500.9995744035049
 21
393.7400529191302
 31
0.0
  0
LINE
  5
16B
330
1F
100
AcDbEntity
  8
0-F
  6
Continuous
 62
     7
370
    13
100
AcDbLine
 10
-497.7364617425042
 20
368.9538821658573
 30
0.0
 11
-494.4733490815034
 21
393.7400529191302
 31
0.0
  0
LINE
  5
16C
330
1F
100
AcDbEntity
  8
0-F
  6
Continuous
 62
     7
370
    13
100
AcDbLine
 10
-497.7364617425042
 20
365.6204965952281
 30
0.0
 11
-500.9995744035049
 21
340.8343258419552
 31
0.0
  0
LINE
  5
16D
330
1F
100
AcDbEntity
  8
0-F
  6
Continuous
 62
     7
370
    13
100
AcDbLine
 10
-497.7364617425042
 20
365.6204965952281
 30
0.0
 11
-494.4733490815034
 21
340.8343258419552
 31
0.0
  0
LINE
  5
16E
330
1F
100
AcDbEntity
  8
0-F
  6
Continuous
 62
     7
370
    13
100
AcDbLine
 10
-347.7364617425042
 20
340.6199192356419
 30
0.0
 11
-347.7364617425042
 21
973.95525958087
 31
0.0
  0
LINE
  5
16F
330
1F
100
AcDbEntity
  8
0-F
  6
Continuous
 62
     7
370
    13
100
AcDbLine
 10
-347.7364617425042
 20
340.6199192356419
 30
0.0
 11
-344.7365013328758
 21
340.6199192356419
 31
0.0
  0
LINE
  5
170
330
1F
100
AcDbEntity
  8
0-F
  6
Continuous
 62
     7
370
    13
100
AcDbLine
 10
-347.7364617425042
 20
973.95525958087
 30
0.0
 11
-344.7365013328758
 21
973.95525958087
 31
0.0
  0
LINE
  5
171
330
1F
100
AcDbEntity
  8
0-F
  6
Continuous
 62
     7
370
    13
100
AcDbLine
 10
-347.7364617425042
 20
340.6199192356419
 30
0.0
 11
-350.9995744035049
 21
365.4060899889149
 31
0.0
  0
LINE
  5
172
330
1F
100
AcDbEntity
  8
0-F
  6
Continuous
 62
     7
370
    13
100
AcDbLine
 10
-347.7364617425042
 20
340.6199192356419
 30
0.0
 11
-344.4733490815034
 21
365.4060899889149
 31
0.0
  0
LINE
  5
173
330
1F
100
AcDbEntity
  8
0-F
  6
Continuous
 62
     7
370
    13
100
AcDbLine
 10
-347.7364617425042
 20
973.95525958087
 30
0.0
 11
-350.9995744035049
 21
949.1692125475086
 31
0.0
  0
LINE
  5
174
330
1F
100
AcDbEntity
  8
0-F
  6
Continuous
 62
     7
370
    13
100
AcDbLine
 10
-347.7364617425042
 20
973.95525958087
 30
0.0
 11
-344.4733490815034
 21
949.1692125475086
 31
0.0
  0
LINE
  5
175
330
1F
100
AcDbEntity
  8
0-F
  6
Continuous
 62
     7
370
    13
100
AcDbLine
 10
-697.7363792625633
 20
368.9546244853253
 30
0.0
 11
-694.4732666015625
 21
393.7407952385982
 31
0.0
  0
LINE
  5
176
330
1F
100
AcDbEntity
  8
0-F
  6
Continuous
 62
     7
370
    13
100
AcDbLine
 10
-697.7363792625633
 20
494.7067590661953
 30
0.0
 11
-697.7363792625633
 21
270.566117570207
 31
0.0
  0
LINE
  5
177
330
1F
100
AcDbEntity
  8
0-F
  6
Continuous
 62
     7
370
    13
100
AcDbLine
 10
-497.7364617425042
 20
436.3986783414273
 30
0.0
 11
-497.7364617425042
 21
326.1112852354307
 31
0.0
  0
LINE
  5
178
330
1F
100
AcDbEntity
  8
0-F
  6
Continuous
 62
     7
370
    13
100
AcDbLine
 10
-1188.384679845861
 20
312.2899153425888
 30
0.0
 11
-1173.16570797482
 21
292.4560051995357
 31
0.0
  0
LINE
  5
179
330
1F
100
AcDbEntity
  8
0-F
  6
Continuous
 62
     7
370
    13
100
AcDbLine
 10
-1188.384679845861
 20
312.2899153425888
 30
0.0
 11
-1178.81748096363
 21
289.1930162584461
 31
0.0
  0
LINE
  5
17A
330
1F
100
AcDbEntity
  8
0-F
  6
Continuous
 62
     7
370
    13
100
AcDbLine
 10
-1188.384679845861
 20
312.2899153425888
 30
0.0
 11
-1058.695653966955
 21
87.66194111592057
 31
0.0
  0
LINE
  5
17B
330
1F
100
AcDbEntity
  8
0-F
  6
Continuous
 62
     7
370
    13
100
AcDbLine
 10
-1058.695653966955
 20
87.66194111592057
 30
0.0
 11
-715.7789488096495
 21
87.66194111592057
 31
0.0
  0
LINE
  5
17C
330
1F
100
AcDbEntity
  8
0-0
  6
JWW_CENTER1
 62
     3
370
    13
100
AcDbLine
 10
1127.291292757602
 20
340.6241257126268
 30
0.0
 11
999.2998277818839
 21
340.6241257126268
 31
0.0
  0
LINE
  5
17D
330
1F
100
AcDbEntity
  8
0-0
  6
JWW_CENTER1
 62
     3
370
    13
100
AcDbLine
 10
-597.7362967826224
 20
233.918918918919
 30
0.0
 11
-597.7362967826224
 21
1044.72972972973
 31
0.0
  0
LINE
  5
17E
330
1F
100
AcDbEntity
  8
0-0
  6
JWW_CENTER1
 62
     3
370
    13
100
AcDbLine
 10
1067.562288851352
 20
1005.684962917019
 30
0.0
 11
1067.562288851352
 21
-595.8811662003801
 31
0.0
  0
ARC
  5
17F
330
1F
100
AcDbEntity
  8
0-0
  6
JWW_CENTER1
 62
     3
370
    13
100
AcDbCircle
 10
-1088.986618454392
 20
631.8729215054898
 30
0.0
 40
291.6666597933383
100
AcDbArc
 50
89.99975585937501
 51
180.0
  0
ARC
  5
180
330
1F
100
AcDbEntity
  8
0-0
  6
Continuous
 62
     3
370
    13
100
AcDbCircle
 10
-1088.986618454392
 20
631.8726740656675
 30
0.0
 40
342.0833278346706
100
AcDbArc
 50
89.99977111816406
 51
180.0
  0
ARC
  5
181
330
1F
100
AcDbEntity
  8
0-0
  6
Continuous
 62
     3
370
    13
100
AcDbCircle
 10
-1088.986618454392
 20
631.8721791860221
 30
0.0
 40
241.2500072169948
100
AcDbArc
 50
89.99980163574219
 51
180.0
  0
ARC
  5
182
330
1F
100
AcDbEntity
  8
0-0
  6
Continuous
 62
     3
370
    13
100
AcDbCircle
 10
1067.561793971706
 20
923.5408803578971
 30
0.0
 40
50.41660618137669
100
AcDbArc
 50
0.0
 51
180.0
  0
ARC
  5
183
330
1F
100
AcDbEntity
  8
0-D
  6
Continuous
 62
     2
370
    13
100
AcDbCircle
 10
1137.078527502111
 20
-289.3880978146115
 30
0.0
 40
5.066666731963286
100
AcDbArc
 50
318.6724548339844
 51
41.32754516601564
  0
ARC
  5
184
330
1F
100
AcDbEntity
  8
0-D
  6
Continuous
 62
     2
370
    13
100
AcDbCircle
 10
1137.078527502111
 20
-262.6965167071367
 30
0.0
 40
5.066666731963286
100
AcDbArc
 50
318.6724548339844
 51
41.32754516601564
  0
ARC
  5
185
330
1F
100
AcDbEntity
  8
0-D
  6
Continuous
 62
     2
370
    13
100
AcDbCircle
 10
1101.889120565879
 20
-276.0421835409628
 30
0.0
 40
40.25578756590147
100
AcDbArc
 50
345.6165313720703
 51
14.38359069824219
  0
ARC
  5
186
330
1F
100
AcDbEntity
  8
0-D
  6
Continuous
 62
     2
370
    13
100
AcDbCircle
 10
995.3172838365714
 20
-289.7216466955235
 30
0.0
 40
6.505050369211146
100
AcDbArc
 50
135.3612976074219
 51
224.6389617919922
  0
ARC
  5
187
330
1F
100
AcDbEntity
  8
0-D
  6
Continuous
 62
     2
370
    13
100
AcDbCircle
 10
1011.85863597973
 20
-276.0421835409628
 30
0.0
 40
23.04650061839336
100
AcDbArc
 50
156.7198028564453
 51
203.2803039550781
  0
ARC
  5
188
330
1F
100
AcDbEntity
  8
0-D
  6
Continuous
 62
     2
370
    13
100
AcDbCircle
 10
995.3172838365714
 20
-262.3629678262246
 30
0.0
 40
6.505101113706022
100
AcDbArc
 50
135.3612976074219
 51
224.63818359375
  0
ARC
  5
189
330
1F
100
AcDbEntity
  8
0-0
  6
Continuous
 62
     2
370
    13
100
AcDbCircle
 10
1372.251273490288
 20
-486.5425810942779
 30
0.0
 40
3.333333376291636
100
AcDbArc
 50
186.2657318115234
 51
262.1466522216797
  0
ARC
  5
18A
330
1F
100
AcDbEntity
  8
0-0
  6
Continuous
 62
     2
370
    13
100
AcDbCircle
 10
1385.350242820946
 20
-500.1267799171241
 30
0.0
 40
8.333334407290899
100
AcDbArc
 50
9.462356567382812
 51
82.14665222167969
  0
ARC
  5
18B
330
1F
100
AcDbEntity
  8
0-0
  6
Continuous
 62
     2
370
    13
100
AcDbCircle
 10
1137.978713576858
 20
-451.0422660209036
 30
0.0
 40
8.333334407290899
100
AcDbArc
 50
180.0
 51
270.0
  0
ARC
  5
18C
330
1F
100
AcDbEntity
  8
0-0
  6
Continuous
 62
     2
370
    13
100
AcDbCircle
 10
1118.812024915541
 20
-525.2555311048353
 30
0.0
 40
0.833333344072909
100
AcDbArc
 50
273.2700347900391
 51
359.9999999999999
  0
ARC
  5
18D
330
1F
100
AcDbEntity
  8
0-0
  6
Continuous
 62
     2
370
    13
100
AcDbCircle
 10
1105.895171294341
 20
-527.6628731392525
 30
0.0
 40
0.833333344072909
100
AcDbArc
 50
93.27003479003906
 51
180.0
  0
ARC
  5
18E
330
1F
100
AcDbEntity
  8
0-0
  6
Continuous
 62
     2
370
    13
100
AcDbCircle
 10
1120.478779560811
 20
-263.5422660209036
 30
0.0
 40
0.833333344072909
100
AcDbArc
 50
180.0
 51
270.0
  0
ARC
  5
18F
330
1F
100
AcDbEntity
  8
0-0
  6
Continuous
 62
     2
370
    13
100
AcDbCircle
 10
1120.478779560811
 20
-288.5423485008445
 30
0.0
 40
0.833333344072909
100
AcDbArc
 50
90.0
 51
180.0
  0
ARC
  5
190
330
1F
100
AcDbEntity
  8
0-0
  6
Continuous
 62
     2
370
    13
100
AcDbCircle
 10
1259.816597603463
 20
-471.8755856075802
 30
0.0
 40
2.500000273859179
100
AcDbArc
 50
262.1459045410156
 51
270.0
  0
ARC
  5
191
330
1F
100
AcDbEntity
  8
0-0
  6
Continuous
 62
     2
370
    13
100
AcDbCircle
 10
1127.145798141892
 20
-195.209037162162
 30
0.0
 40
2.500000273859179
100
AcDbArc
 50
0.0
 51
90.0
  0
ARC
  5
192
330
1F
100
AcDbEntity
  8
0-0
  6
Continuous
 62
     2
370
    13
100
AcDbCircle
 10
1150.723843961149
 20
-461.8758000554265
 30
0.0
 40
2.500000273859179
100
AcDbArc
 50
82.1468505859375
 51
90.0
  0
ARC
  5
193
330
1F
100
AcDbEntity
  8
0-0
  6
Continuous
 62
     2
370
    13
100
AcDbCircle
 10
1365.321473817568
 20
-476.875849543391
 30
0.0
 40
2.500000273859179
100
AcDbArc
 50
6.265106201171875
 51
90.0
  0
ARC
  5
194
330
1F
100
AcDbEntity
  8
0-0
  6
Continuous
 62
     2
370
    13
100
AcDbCircle
 10
1299.285723711993
 20
-546.8758330474029
 30
0.0
 40
2.500000273859179
100
AcDbArc
 50
24.44400024414062
 51
90.0
  0
ARC
  5
195
330
1F
100
AcDbEntity
  8
0-0
  6
Continuous
 62
     2
370
    13
100
AcDbCircle
 10
1398.311140730575
 20
-542.4112763275971
 30
0.0
 40
2.500000273859179
100
AcDbArc
 50
337.3799133300781
 51
9.462326049804702
  0
ARC
  5
196
330
1F
100
AcDbEntity
  8
0-0
  6
Continuous
 62
     2
370
    13
100
AcDbCircle
 10
762.8728093327703
 20
-486.5425810942779
 30
0.0
 40
3.333333376291636
100
AcDbArc
 50
277.8533477783203
 51
353.7342681884766
  0
ARC
  5
197
330
1F
100
AcDbEntity
  8
0-0
  6
Continuous
 62
     2
370
    13
100
AcDbCircle
 10
749.7743348817568
 20
-500.1267799171241
 30
0.0
 40
8.333334407290899
100
AcDbArc
 50
97.85334777832031
 51
170.5376434326172
  0
ARC
  5
198
330
1F
100
AcDbEntity
  8
0-0
  6
Continuous
 62
     2
370
    13
100
AcDbCircle
 10
997.1458641258448
 20
-451.0422660209036
 30
0.0
 40
8.333334407290899
100
AcDbArc
 50
270.0
 51
0.0
  0
ARC
  5
199
330
1F
100
AcDbEntity
  8
0-0
  6
Continuous
 62
     2
370
    13
100
AcDbCircle
 10
1016.312057907517
 20
-525.2555311048353
 30
0.0
 40
0.833333344072909
100
AcDbArc
 50
180.0
 51
266.7299652099609
  0
ARC
  5
19A
330
1F
100
AcDbEntity
  8
0-0
  6
Continuous
 62
     2
370
    13
100
AcDbCircle
 10
1029.228911528716
 20
-527.6628731392525
 30
0.0
 40
0.833333344072909
100
AcDbArc
 50
0.0
 51
86.72996520996094
  0
ARC
  5
19B
330
1F
100
AcDbEntity
  8
0-0
  6
Continuous
 62
     2
370
    13
100
AcDbCircle
 10
1014.645798141892
 20
-263.5422660209036
 30
0.0
 40
0.833333344072909
100
AcDbArc
 50
270.0
 51
0.0
  0
ARC
  5
19C
330
1F
100
AcDbEntity
  8
0-0
  6
Continuous
 62
     2
370
    13
100
AcDbCircle
 10
1014.645798141892
 20
-288.5423485008445
 30
0.0
 40
0.833333344072909
100
AcDbArc
 50
0.0
 51
90.0
  0
ARC
  5
19D
330
1F
100
AcDbEntity
  8
0-0
  6
Continuous
 62
     2
370
    13
100
AcDbCircle
 10
875.3074852195948
 20
-471.8755856075802
 30
0.0
 40
2.500000273859179
100
AcDbArc
 50
270.0
 51
277.8540954589844
  0
ARC
  5
19E
330
1F
100
AcDbEntity
  8
0-0
  6
Continuous
 62
     2
370
    13
100
AcDbCircle
 10
1007.978779560811
 20
-195.209037162162
 30
0.0
 40
2.500000273859179
100
AcDbArc
 50
90.0
 51
180.0
  0
ARC
  5
19F
330
1F
100
AcDbEntity
  8
0-0
  6
Continuous
 62
     2
370
    13
100
AcDbCircle
 10
984.4007337415542
 20
-461.8758000554265
 30
0.0
 40
2.500000273859179
100
AcDbArc
 50
90.0
 51
97.8531494140625
  0
ARC
  5
1A0
330
1F
100
AcDbEntity
  8
0-0
  6
Continuous
 62
     2
370
    13
100
AcDbCircle
 10
769.8026090054901
 20
-476.875849543391
 30
0.0
 40
2.500000273859179
100
AcDbArc
 50
90.0
 51
173.7348937988281
  0
ARC
  5
1A1
330
1F
100
AcDbEntity
  8
0-0
  6
Continuous
 62
     2
370
    13
100
AcDbCircle
 10
835.8388539907094
 20
-546.8758330474029
 30
0.0
 40
2.500000273859179
100
AcDbArc
 50
90.0
 51
155.5559997558594
  0
ARC
  5
1A2
330
1F
100
AcDbEntity
  8
0-0
  6
Continuous
 62
     2
370
    13
100
AcDbCircle
 10
736.812447212838
 20
-542.4112763275971
 30
0.0
 40
2.500000273859179
100
AcDbArc
 50
170.5376739501953
 51
202.6200866699219
  0
CIRCLE
  5
1A3
330
1F
100
AcDbEntity
  8
0-1
  6
Continuous
 62
     2
370
    13
100
AcDbCircle
 10
-1380.653340107686
 20
-276.0423072608741
 30
0.0
 40
14.45539287618689
  0
ELLIPSE
  5
1A4
330
1F
100
AcDbEntity
  8
0-0
  6
Continuous
 62
     2
370
    13
100
AcDbEllipse
 10
-1380.652845228041
 20
-484.8262147645693
 30
0.0
 11
34.99996468827531
 21
0.0
 31
0.0
210
0.0
220
0.0
230
1.0
 40
0.1351
 41
3.141592653589792
 42
6.283185307179586
  0
ARC
  5
1A5
330
1F
100
AcDbEntity
  8
0-0
  6
Continuous
 62
     2
370
    13
100
AcDbCircle
 10
-1418.413151921452
 20
-481.4929529138513
 30
0.0
 40
3.333333376291636
100
AcDbArc
 50
270.0
 51
349.2559356689454
  0
CIRCLE
  5
1A6
330
1F
100
AcDbEntity
  8
0-0
  6
Continuous
 62
     2
370
    13
100
AcDbCircle
 10
-1380.653340107686
 20
-276.0425547006968
 30
0.0
 40
11.66665521827904
  0
ARC
  5
1A7
330
1F
100
AcDbEntity
  8
0-0
  6
Continuous
 62
     2
370
    13
100
AcDbCircle
 10
-1342.892785974451
 20
-481.4929529138513
 30
0.0
 40
3.333333376291636
100
AcDbArc
 50
190.7440643310547
 51
270.0
  0
ARC
  5
1A8
330
1F
100
AcDbEntity
  8
0-0
  6
Continuous
 62
     2
370
    13
100
AcDbCircle
 10
-1468.254460515202
 20
-504.116870777027
 30
0.0
 40
8.333334407290899
100
AcDbArc
 50
92.007080078125
 51
174.0531921386719
  0
ARC
  5
1A9
330
1F
100
AcDbEntity
  8
0-0
  6
Continuous
 62
     2
370
    13
100
AcDbCircle
 10
-1464.781395164696
 20
-470.7738597972973
 30
0.0
 40
8.333334407290899
100
AcDbArc
 50
92.08251953124999
 51
174.0531005859375
  0
ARC
  5
1AA
330
1F
100
AcDbEntity
  8
0-0
  6
Continuous
 62
     2
370
    13
100
AcDbCircle
 10
-1293.051477380701
 20
-504.116870777027
 30
0.0
 40
8.333334407290899
100
AcDbArc
 50
5.946807861328125
 51
87.992919921875
  0
ARC
  5
1AB
330
1F
100
AcDbEntity
  8
0-0
  6
Continuous
 62
     2
370
    13
100
AcDbCircle
 10
-1296.52479017103
 20
-470.7738597972973
 30
0.0
 40
8.333334407290899
100
AcDbArc
 50
5.946899414062499
 51
87.91748046875
  0
ARC
  5
1AC
330
1F
100
AcDbEntity
  8
0-0
  6
Continuous
 62
     2
370
    13
100
AcDbCircle
 10
-1411.896576752534
 20
-478.4410301414695
 30
0.0
 40
2.500000273859179
100
AcDbArc
 50
92.86273193359376
 51
169.2561798095703
  0
ARC
  5
1AD
330
1F
100
AcDbEntity
  8
0-0
  6
Continuous
 62
     2
370
    13
100
AcDbCircle
 10
-1349.40936114337
 20
-478.4410301414695
 30
0.0
 40
2.500000273859179
100
AcDbArc
 50
10.74382019042969
 51
87.13726806640625
  0
ARC
  5
1AE
330
1F
100
AcDbEntity
  8
0-0
  6
Continuous
 62
     2
370
    13
100
AcDbCircle
 10
-1440.236107078758
 20
-198.4065782701646
 30
0.0
 40
2.500000273859179
100
AcDbArc
 50
93.06739807128906
 51
180.0
  0
ARC
  5
1AF
330
1F
100
AcDbEntity
  8
0-0
  6
Continuous
 62
     2
370
    13
100
AcDbCircle
 10
-1321.069830817145
 20
-198.4065782701646
 30
0.0
 40
2.500000273859179
100
AcDbArc
 50
0.0
 51
86.93260192871094
  0
ARC
  5
1B0
330
1F
100
AcDbEntity
  8
0-0
  6
Continuous
 62
     2
370
    13
100
AcDbCircle
 10
-1478.096132020692
 20
-542.2928763724661
 30
0.0
 40
2.500000273859179
100
AcDbArc
 50
174.0530242919922
 51
204.4447784423828
  0
ARC
  5
1B1
330
1F
100
AcDbEntity
  8
0-0
  6
Continuous
 62
     2
370
    13
100
AcDbCircle
 10
-1283.209805875211
 20
-542.2928763724661
 30
0.0
 40
2.500000273859179
100
AcDbArc
 50
335.5550079345703
 51
5.946975708007843
  0
ARC
  5
1B2
330
1F
100
AcDbEntity
  8
0-0
  6
JWW_DASHED1
 62
     2
370
    13
100
AcDbCircle
 10
-1329.403109163851
 20
-525.255407384924
 30
0.0
 40
0.833333344072909
100
AcDbArc
 50
273.2700347900391
 51
359.9999999999999
  0
ARC
  5
1B3
330
1F
100
AcDbEntity
  8
0-0
  6
JWW_DASHED1
 62
     2
370
    13
100
AcDbCircle
 10
-1342.31996278505
 20
-527.6627494193411
 30
0.0
 40
0.833333344072909
100
AcDbArc
 50
93.27003479003906
 51
180.0
  0
ARC
  5
1B4
330
1F
100
AcDbEntity
  8
0-0
  6
JWW_DASHED1
 62
     2
370
    13
100
AcDbCircle
 10
-1431.903323611698
 20
-525.255407384924
 30
0.0
 40
0.833333344072909
100
AcDbArc
 50
180.0
 51
266.7299652099609
  0
ARC
  5
1B5
330
1F
100
AcDbEntity
  8
0-0
  6
JWW_DASHED1
 62
     2
370
    13
100
AcDbCircle
 10
-1418.986469990498
 20
-527.6627494193411
 30
0.0
 40
0.833333344072909
100
AcDbArc
 50
0.0
 51
86.72996520996094
  0
ARC
  5
1B6
330
1F
100
AcDbEntity
  8
0-0
  6
Continuous
 62
     3
370
    13
100
AcDbCircle
 10
1067.561793971706
 20
923.5408803578971
 30
0.0
 40
45.74993752144479
100
AcDbArc
 50
0.0
 51
180.0
  0
CIRCLE
  5
1B7
330
1F
100
AcDbEntity
  8
0-1
  6
Continuous
 62
     2
370
    13
100
AcDbCircle
 10
185.1802516627959
 20
-276.0423072608741
 30
0.0
 40
14.45539287618689
  0
ELLIPSE
  5
1B8
330
1F
100
AcDbEntity
  8
0-0
  6
Continuous
 62
     2
370
    13
100
AcDbEllipse
 10
185.1807465424409
 20
-484.8262147645693
 30
0.0
 11
34.99996468827531
 21
0.0
 31
0.0
210
0.0
220
0.0
230
1.0
 40
0.1351
 41
3.141592653589792
 42
6.283185307179586
  0
ARC
  5
1B9
330
1F
100
AcDbEntity
  8
0-0
  6
Continuous
 62
     2
370
    13
100
AcDbCircle
 10
147.4201924092063
 20
-481.4929529138513
 30
0.0
 40
3.333333376291636
100
AcDbArc
 50
270.0
 51
349.2559356689454
  0
ARC
  5
1BA
330
1F
100
AcDbEntity
  8
0-0
  6
Continuous
 62
     2
370
    13
100
AcDbCircle
 10
222.9408057960305
 20
-481.4929529138513
 30
0.0
 40
3.333333376291636
100
AcDbArc
 50
190.7440643310547
 51
270.0
  0
ARC
  5
1BB
330
1F
100
AcDbEntity
  8
0-0
  6
Continuous
 62
     2
370
    13
100
AcDbCircle
 10
97.57888381545627
 20
-504.116870777027
 30
0.0
 40
8.333334407290899
100
AcDbArc
 50
92.007080078125
 51
174.0531921386719
  0
ARC
  5
1BC
330
1F
100
AcDbEntity
  8
0-0
  6
Continuous
 62
     2
370
    13
100
AcDbCircle
 10
101.0521966057857
 20
-470.7738597972973
 30
0.0
 40
8.333334407290899
100
AcDbArc
 50
92.08251953124999
 51
174.0531005859375
  0
ARC
  5
1BD
330
1F
100
AcDbEntity
  8
0-0
  6
Continuous
 62
     2
370
    13
100
AcDbCircle
 10
272.7821143897805
 20
-504.116870777027
 30
0.0
 40
8.333334407290899
100
AcDbArc
 50
5.946807861328125
 51
87.992919921875
  0
ARC
  5
1BE
330
1F
100
AcDbEntity
  8
0-0
  6
Continuous
 62
     2
370
    13
100
AcDbCircle
 10
269.3090490392737
 20
-470.7738597972973
 30
0.0
 40
8.333334407290899
100
AcDbArc
 50
5.946899414062499
 51
87.91748046875
  0
ARC
  5
1BF
330
1F
100
AcDbEntity
  8
0-0
  6
Continuous
 62
     2
370
    13
100
AcDbCircle
 10
153.9370150179477
 20
-478.4410301414695
 30
0.0
 40
2.500000273859179
100
AcDbArc
 50
92.86273193359376
 51
169.2561798095703
  0
ARC
  5
1C0
330
1F
100
AcDbEntity
  8
0-0
  6
Continuous
 62
     2
370
    13
100
AcDbCircle
 10
216.4242306271117
 20
-478.4410301414695
 30
0.0
 40
2.500000273859179
100
AcDbArc
 50
10.74382019042969
 51
87.13726806640625
  0
ARC
  5
1C1
330
1F
100
AcDbEntity
  8
0-0
  6
Continuous
 62
     2
370
    13
100
AcDbCircle
 10
125.5974846917232
 20
-198.4065782701646
 30
0.0
 40
2.500000273859179
100
AcDbArc
 50
93.06739807128906
 51
180.0
  0
ARC
  5
1C2
330
1F
100
AcDbEntity
  8
0-0
  6
Continuous
 62
     2
370
    13
100
AcDbCircle
 10
244.7635135135135
 20
-198.4065782701646
 30
0.0
 40
2.500000273859179
100
AcDbArc
 50
0.0
 51
86.93260192871094
  0
ARC
  5
1C3
330
1F
100
AcDbEntity
  8
0-0
  6
Continuous
 62
     2
370
    13
100
AcDbCircle
 10
87.73721230996642
 20
-542.2928763724661
 30
0.0
 40
2.500000273859179
100
AcDbArc
 50
174.0530242919922
 51
204.4447784423828
  0
ARC
  5
1C4
330
1F
100
AcDbEntity
  8
0-0
  6
Continuous
 62
     2
370
    13
100
AcDbCircle
 10
282.6237858952703
 20
-542.2928763724661
 30
0.0
 40
2.500000273859179
100
AcDbArc
 50
335.5550079345703
 51
5.946975708007843
  0
ARC
  5
1C5
330
1F
100
AcDbEntity
  8
0-0
  6
JWW_DASHED1
 62
     2
370
    13
100
AcDbCircle
 10
236.4302351668076
 20
-525.255407384924
 30
0.0
 40
0.833333344072909
100
AcDbArc
 50
273.2700347900391
 51
359.9999999999999
  0
ARC
  5
1C6
330
1F
100
AcDbEntity
  8
0-0
  6
JWW_DASHED1
 62
     2
370
    13
100
AcDbCircle
 10
223.5133815456084
 20
-527.6627494193411
 30
0.0
 40
0.833333344072909
100
AcDbArc
 50
93.27003479003906
 51
180.0
  0
ARC
  5
1C7
330
1F
100
AcDbEntity
  8
0-0
  6
JWW_DASHED1
 62
     2
370
    13
100
AcDbCircle
 10
133.9302681587839
 20
-525.255407384924
 30
0.0
 40
0.833333344072909
100
AcDbArc
 50
180.0
 51
266.7299652099609
  0
ARC
  5
1C8
330
1F
100
AcDbEntity
  8
0-0
  6
JWW_DASHED1
 62
     2
370
    13
100
AcDbCircle
 10
146.8471217799834
 20
-527.6627494193411
 30
0.0
 40
0.833333344072909
100
AcDbArc
 50
0.0
 51
86.72996520996094
  0
ARC
  5
1C9
330
1F
100
AcDbEntity
  8
0-0
  6
JWW_CENTER1
 62
     3
370
    13
100
AcDbCircle
 10
-106.4862225506755
 20
631.8731689453125
 30
0.0
 40
291.6666597933383
100
AcDbArc
 50
0.0
 51
90.000244140625
  0
ARC
  5
1CA
330
1F
100
AcDbEntity
  8
0-0
  6
Continuous
 62
     3
370
    13
100
AcDbCircle
 10
-106.4862225506755
 20
631.8726740656675
 30
0.0
 40
342.0833278346706
100
AcDbArc
 50
0.0
 51
90.00022888183595
  0
ARC
  5
1CB
330
1F
100
AcDbEntity
  8
0-0
  6
Continuous
 62
     3
370
    13
100
AcDbCircle
 10
-106.4864699904982
 20
631.8721791860221
 30
0.0
 40
241.2500072169948
100
AcDbArc
 50
0.0
 51
90.00019836425781
  0
ARC
  5
1CC
330
1F
100
AcDbEntity
  8
0-0
  6
Continuous
 62
     3
370
    13
100
AcDbCircle
 10
-106.4862225506755
 20
631.8726740656675
 30
0.0
 40
337.0833422686603
100
AcDbArc
 50
0.0
 51
90.00022888183595
  0
ARC
  5
1CD
330
1F
100
AcDbEntity
  8
0-0
  6
Continuous
 62
     3
370
    13
100
AcDbCircle
 10
-106.4864699904982
 20
631.8721791860221
 30
0.0
 40
246.2500082479941
100
AcDbArc
 50
0.0
 51
90.00019836425781
  0
CIRCLE
  5
1CE
330
1F
100
AcDbEntity
  8
0-0
  6
Continuous
 62
     2
370
    13
100
AcDbCircle
 10
185.1802516627959
 20
-276.0425547006968
 30
0.0
 40
11.66665521827904
  0
ARC
  5
1CF
330
1F
100
AcDbEntity
  8
0-0
  6
Continuous
 62
     3
370
    13
100
AcDbCircle
 10
-1330.236486486486
 20
340.6238782728042
 30
0.0
 40
28.33334239753517
100
AcDbArc
 50
89.99975585937501
 51
270.0
  0
ARC
  5
1D0
330
1F
100
AcDbEntity
  8
0-0
  6
JWW_PHANTOM1
 62
     3
370
    13
100
AcDbCircle
 10
134.763645481419
 20
340.6238782728042
 30
0.0
 40
28.33334239753517
100
AcDbArc
 50
270.0
 51
90.000244140625
  0
ARC
  5
1D1
330
1F
100
AcDbEntity
  8
0-0
  6
JWW_PHANTOM1
 62
     3
370
    13
100
AcDbCircle
 10
134.763645481419
 20
340.6179397170609
 30
0.0
 40
24.99995876002956
100
AcDbArc
 50
270.0
 51
90.0
  0
CIRCLE
  5
1D2
330
1F
100
AcDbEntity
  8
0-0
  6
JWW_DASHED2
 62
     3
370
    13
100
AcDbCircle
 10
1067.562288851352
 20
340.6241257126268
 30
0.0
 40
28.3333327319171
  0
TEXT
  5
1D3
330
1F
100
AcDbEntity
  8
0-F
  6
Continuous
 62
     2
370
    13
100
AcDbText
 10
-1308.606779768661
 20
442.9248840661953
 30
0.0
 40
30.48
  1
φ60.5
 41
1.104166666666667
  7
ＭＳ ゴシック
100
AcDbText
  0
TEXT
  5
1D4
330
1F
100
AcDbEntity
  8
0-F
  6
Continuous
 62
     2
370
    13
100
AcDbText
 10
-1166.792888000926
 20
693.6038728199738
 30
0.0
 40
30.48
  1
R175
 50
329.9999479387552
 41
1.093749999999999
  7
ＭＳ ゴシック
100
AcDbText
  0
TEXT
  5
1D5
330
1F
100
AcDbEntity
  8
0-F
  6
Continuous
 62
     2
370
    13
100
AcDbText
 10
353.3281813597582
 20
-546.87189360754
 30
0.0
 40
30.48
  1
G.L.
 50
0.0000810129783828
 41
1.09375
  7
ＭＳ ゴシック
100
AcDbText
  0
TEXT
  5
1D6
330
1F
100
AcDbEntity
  8
0-F
  6
Continuous
 62
     2
370
    13
100
AcDbText
 10
-1719.148150896736
 20
174.7904347196841
 30
0.0
 40
30.48
  1
920
 50
90.00000250447816
 41
1.083333333333333
  7
ＭＳ ゴシック
100
AcDbText
  0
TEXT
  5
1D7
330
1F
100
AcDbEntity
  8
0-F
  6
Continuous
 62
     2
370
    13
100
AcDbText
 10
-1605.526011301086
 20
-408.5422662674359
 30
0.0
 40
30.48
  1
220
 50
90.00000250447816
 41
1.083333333333333
  7
ＭＳ ゴシック
100
AcDbText
  0
TEXT
  5
1D8
330
1F
100
AcDbEntity
  8
0-F
  6
Continuous
 62
     2
370
    13
100
AcDbText
 10
-1605.526011301086
 20
358.1235481065084
 30
0.0
 40
30.48
  1
700
 50
90.00000250447816
 41
1.083333333333333
  7
ＭＳ ゴシック
100
AcDbText
  0
TEXT
  5
1D9
330
1F
100
AcDbEntity
  8
0-F
  6
Continuous
 62
     2
370
    13
100
AcDbText
 10
1035.061541164355
 20
-780.1038453468306
 30
0.0
 40
30.48
  1
400
 50
0.0000545279424189
 41
1.083333333333333
  7
ＭＳ ゴシック
100
AcDbText
  0
TEXT
  5
1DA
330
1F
100
AcDbEntity
  8
0-F
  6
Continuous
 62
     2
370
    13
100
AcDbText
 10
1035.062036044
 20
-699.4973538455637
 30
0.0
 40
30.48
  1
320
 50
0.0000545279424189
 41
1.083333333333333
  7
ＭＳ ゴシック
100
AcDbText
  0
TEXT
  5
1DB
330
1F
100
AcDbEntity
  8
0-F
  6
Continuous
 62
     2
370
    13
100
AcDbText
 10
152.6804937350894
 20
-797.063494510154
 30
0.0
 40
30.48
  1
120
 50
0.0000545279424189
 41
1.083333333333333
  7
ＭＳ ゴシック
100
AcDbText
  0
TEXT
  5
1DC
330
1F
100
AcDbEntity
  8
0-F
  6
Continuous
 62
     7
370
    13
100
AcDbText
 10
1417.381839236698
 20
-337.4301315060177
 30
0.0
 40
22.86
  1
アンカー穴：φ１４
 41
1.148148148148148
  7
ＭＳ ゴシック
100
AcDbText
  0
TEXT
  5
1DD
330
1F
100
AcDbEntity
  8
0-F
  6
Continuous
 62
     7
370
    13
100
AcDbText
 10
1349.764387800887
 20
-213.3197601483319
 30
0.0
 40
22.86
  1
支持脚：ＦＣＤ５００
 41
1.15
  7
ＭＳ ゴシック
100
AcDbText
  0
TEXT
  5
1DE
330
1F
100
AcDbEntity
  8
0-F
  6
Continuous
 62
     7
370
    13
100
AcDbText
 10
1254.370018211571
 20
-74.75098507442995
 30
0.0
 40
22.86
  1
六角ボルト：Ｍ１２×９０
 41
1.152777777777778
  7
ＭＳ ゴシック
100
AcDbText
  0
TEXT
  5
1DF
330
1F
100
AcDbEntity
  8
0-F
  6
Continuous
 62
     7
370
    13
100
AcDbText
 10
1254.369968723606
 20
-38.82507350612316
 30
0.0
 40
22.86
  1
六角ナット：Ｍ１２
 41
1.148148148148148
  7
ＭＳ ゴシック
100
AcDbText
  0
TEXT
  5
1E0
330
1F
100
AcDbEntity
  8
0-F
  6
Continuous
 62
     2
370
    13
100
AcDbText
 10
239.8936668602197
 20
-992.255223256704
 30
0.0
 40
30.48
  1
注記
 41
1.0625
  7
ＭＳ ゴシック
100
AcDbText
  0
TEXT
  5
1E1
330
1F
100
AcDbEntity
  8
0-F
  6
Continuous
 62
     7
370
    13
100
AcDbText
 10
1254.3699769716
 20
-119.121770349451
 30
0.0
 40
22.86
  1
溶融亜鉛めっき
 41
1.142857142857143
  7
ＭＳ ゴシック
100
AcDbText
  0
TEXT
  5
1E2
330
1F
100
AcDbEntity
  8
0-F
  6
Continuous
 62
     7
370
    13
100
AcDbText
 10
1271.169408849768
 20
728.0584879117401
 30
0.0
 40
22.86
  1
ヘアライン仕上
 41
1.142857142857143
  7
ＭＳ ゴシック
100
AcDbText
  0
TEXT
  5
1E3
330
1F
100
AcDbEntity
  8
0-F
  6
Continuous
 62
     7
370
    13
100
AcDbText
 10
1243.38586755701
 20
772.9396178209461
 30
0.0
 40
22.86
  1
本体：ＳＵＳ３０４
 41
1.148148148148148
  7
ＭＳ ゴシック
100
AcDbText
  0
TEXT
  5
1E4
330
1F
100
AcDbEntity
  8
0-F
  6
Continuous
 62
     2
370
    13
100
AcDbText
 10
277.4951336834883
 20
442.9250077861065
 30
0.0
 40
30.48
  1
3
 41
0.9999999999999998
  7
ＭＳ ゴシック
100
AcDbText
  0
TEXT
  5
1E5
330
1F
100
AcDbEntity
  8
0-F
  6
Continuous
 62
     2
370
    13
100
AcDbText
 10
265.7345993454395
 20
-1060.671932125607
 30
0.0
 40
30.48
  1
一定の場所に固定したい場合には、
 41
1.1171875
  7
ＭＳ ゴシック
100
AcDbText
  0
TEXT
  5
1E6
330
1F
100
AcDbEntity
  8
0-F
  6
Continuous
 62
     2
370
    13
100
AcDbText
 10
-641.4864823624894
 20
1085.5945205606
 30
0.0
 40
30.48
  1
1000
 41
1.09375
  7
ＭＳ ゴシック
100
AcDbText
  0
TEXT
  5
1E7
330
1F
100
AcDbEntity
  8
0-F
  6
Continuous
 62
     2
370
    13
100
AcDbText
 10
-508.3764778013783
 20
401.8466472737908
 30
0.0
 40
30.48
  1
2
 50
90.00000250447816
 41
1.000000000000001
  7
ＭＳ ゴシック
100
AcDbText
  0
TEXT
  5
1E8
330
1F
100
AcDbEntity
  8
0-F
  6
Continuous
 62
     2
370
    13
100
AcDbText
 10
-358.3764768178719
 20
624.7874654418124
 30
0.0
 40
30.48
  1
380
 50
90.00000250447816
 41
1.083333333333334
  7
ＭＳ ゴシック
100
AcDbText
  0
TEXT
  5
1E9
330
1F
100
AcDbEntity
  8
0-F
  6
Continuous
 62
     2
370
    13
100
AcDbText
 10
-708.3763938461782
 20
401.8466967617555
 30
0.0
 40
30.48
  1
φ34
 50
90.00000250447816
 41
1.09375
  7
ＭＳ ゴシック
100
AcDbText
  0
TEXT
  5
1EA
330
1F
100
AcDbEntity
  8
0-F
  6
Continuous
 62
     7
370
    13
100
AcDbText
 10
-1042.967496304899
 20
100.7932175754857
 30
0.0
 40
22.86
  1
横柵：ＳＵＳ３０４
 41
1.148148148148148
  7
ＭＳ ゴシック
100
AcDbText
  0
TEXT
  5
1EB
330
1F
100
AcDbEntity
  8
0-F
  6
Continuous
 62
     7
370
    13
100
AcDbText
 10
-1015.205977156355
 20
51.21914399018179
 30
0.0
 40
22.86
  1
ヘアライン仕上
 41
1.142857142857143
  7
ＭＳ ゴシック
100
AcDbText
  0
TEXT
  5
1EC
330
1F
100
AcDbEntity
  8
0-5
  6
Continuous
 62
     7
370
    13
100
AcDbText
 10
-808.1051305822423
 20
-1347.630008239746
 30
0.0
 40
22.86
  1
アーチ型横バー付　据置式ステンレス製車止め　ＹＡＷ６Ｌ１０－Ｓ
 41
1.161290322580645
  7
ＭＳ ゴシック
100
AcDbText
  0
TEXT
  5
1ED
330
1F
100
AcDbEntity
  8
0-F
  6
Continuous
 62
     2
370
    13
100
AcDbText
 10
-652.736358642578
 20
-698.4973876623204
 30
0.0
 40
30.48
  1
939.5
 41
1.1
  7
ＭＳ ゴシック
100
AcDbText
  0
TEXT
  5
1EE
330
1F
100
AcDbEntity
  8
0-F
  6
Continuous
 62
     2
370
    13
100
AcDbText
 10
265.7345746014572
 20
-1118.222321183488
 30
0.0
 40
30.48
  1
Ｍ１２のアンカーボルトで固定できます。
 41
1.118421052631579
  7
ＭＳ ゴシック
100
AcDbText
  0
TEXT
  5
1EF
330
1F
100
AcDbEntity
  8
0-F
  6
Continuous
 62
     7
370
    13
100
AcDbText
 10
1349.764437288852
 20
-257.690545423353
 30
0.0
 40
22.86
  1
溶融亜鉛めっき＋樹脂系塗装
 41
1.153846153846154
  7
ＭＳ ゴシック
100
AcDbText
  0
ENDSEC
  0
SECTION
  2
OBJECTS
  0
DICTIONARY
  5
C
330
0
100
AcDbDictionary
281
     1
  3
ACAD_GROUP
350
D
  3
ACAD_LAYOUT
350
1A
  3
ACAD_MLEADERSTYLE
350
1F1
  3
ACAD_MLINESTYLE
350
17
  3
ACAD_PLOTSETTINGS
350
19
  3
ACAD_PLOTSTYLENAME
350
E
  3
ACAD_TABLESTYLE
350
1F0
  3
ACAD_VISUALSTYLE
350
2A
  0
DICTIONARY
  5
D
102
{ACAD_REACTORS
330
C
102
}
330
C
100
AcDbDictionary
281
     1
  0
DICTIONARY
  5
1A
102
{ACAD_REACTORS
330
C
102
}
330
C
100
AcDbDictionary
281
     1
  3
Layout1
350
1E
  3
Layout2
350
26
  3
Model
350
22
  0
DICTIONARY
  5
1F1
102
{ACAD_REACTORS
330
C
102
}
330
C
100
AcDbDictionary
281
     1
  0
DICTIONARY
  5
17
102
{ACAD_REACTORS
330
C
102
}
330
C
100
AcDbDictionary
281
     1
  3
Standard
350
18
  0
DICTIONARY
  5
19
102
{ACAD_REACTORS
330
C
102
}
330
C
100
AcDbDictionary
281
     1
  0
ACDBDICTIONARYWDFLT
  5
E
102
{ACAD_REACTORS
330
C
102
}
330
C
100
AcDbDictionary
281
     1
  3
Normal
350
F
100
AcDbDictionaryWithDefault
340
F
  0
DICTIONARY
  5
1F0
102
{ACAD_REACTORS
330
C
102
}
330
C
100
AcDbDictionary
281
     1
  0
DICTIONARY
  5
2A
102
{ACAD_REACTORS
330
C
102
}
330
C
100
AcDbDictionary
281
     1
  3
2dWireframe
350
2F
  3
3D Hidden
350
31
  3
3dWireframe
350
30
  3
Basic
350
32
  3
Brighten
350
36
  3
ColorChange
350
3A
  3
Conceptual
350
34
  3
Dim
350
35
  3
Facepattern
350
39
  3
Flat
350
2B
  3
FlatWithEdges
350
2C
  3
Gouraud
350
2D
  3
GouraudWithEdges
350
2E
  3
Linepattern
350
38
  3
Realistic
350
33
  3
Thicken
350
37
  0
LAYOUT
  5
1E
102
{ACAD_REACTORS
330
1A
102
}
330
1A
100
AcDbPlotSettings
  1

  2
none_device
  4

  6

 40
0.0
 41
0.0
 42
0.0
 43
0.0
 44
0.0
 45
0.0
 46
0.0
 47
0.0
 48
0.0
 49
0.0
140
0.0
141
0.0
142
1.0
143
1.0
 70
   688
 72
     0
 73
     0
 74
     5
  7

 75
    16
 76
     0
 77
     5
 78
   300
147
1.0
148
0.0
149
0.0
100
AcDbLayout
  1
Layout1
 70
     1
 71
     1
 10
0.0
 20
0.0
 11
420.0
 21
297.0
 12
0.0
 22
0.0
 32
0.0
 14
1.000000000000000E+20
 24
1.000000000000000E+20
 34
1.000000000000000E+20
 15
-1.000000000000000E+20
 25
-1.000000000000000E+20
 35
-1.000000000000000E+20
146
0.0
 13
0.0
 23
0.0
 33
0.0
 16
1.0
 26
0.0
 36
0.0
 17
0.0
 27
1.0
 37
0.0
 76
     0
330
1B
  0
LAYOUT
  5
26
102
{ACAD_REACTORS
330
1A
102
}
330
1A
100
AcDbPlotSettings
  1

  2
none_device
  4

  6

 40
0.0
 41
0.0
 42
0.0
 43
0.0
 44
0.0
 45
0.0
 46
0.0
 47
0.0
 48
0.0
 49
0.0
140
0.0
141
0.0
142
1.0
143
1.0
 70
   688
 72
     0
 73
     0
 74
     5
  7

 75
    16
 76
     0
 77
     5
 78
   300
147
1.0
148
0.0
149
0.0
100
AcDbLayout
  1
Layout2
 70
     1
 71
     2
 10
0.0
 20
0.0
 11
0.0
 21
0.0
 12
0.0
 22
0.0
 32
0.0
 14
0.0
 24
0.0
 34
0.0
 15
0.0
 25
0.0
 35
0.0
146
0.0
 13
0.0
 23
0.0
 33
0.0
 16
1.0
 26
0.0
 36
0.0
 17
0.0
 27
1.0
 37
0.0
 76
     0
330
23
  0
LAYOUT
  5
22
102
{ACAD_REACTORS
330
1A
102
}
330
1A
100
AcDbPlotSettings
  1

  2
none_device
  4

  6

 40
0.0
 41
0.0
 42
0.0
 43
0.0
 44
0.0
 45
0.0
 46
0.0
 47
0.0
 48
0.0
 49
0.0
140
0.0
141
0.0
142
1.0
143
1.0
 70
  1712
 72
     0
 73
     0
 74
     0
  7

 75
     0
 76
     0
 77
     5
 78
   300
147
1.0
148
0.0
149
0.0
100
AcDbLayout
  1
Model
 70
     1
 71
     0
 10
-2100.0
 20
-1485.0
 11
2100.0
 21
1485.0
 12
0.0
 22
0.0
 32
0.0
 14
-2100.0
 24
-1485.0
 34
0.0
 15
2100.0
 25
1485.0
 35
0.0
146
0.0
 13
0.0
 23
0.0
 33
0.0
 16
1.0
 26
0.0
 36
0.0
 17
0.0
 27
1.0
 37
0.0
 76
     0
330
1F
331
29
  0
MLINESTYLE
  5
18
102
{ACAD_REACTORS
330
17
102
}
330
17
100
AcDbMlineStyle
  2
Standard
 70
     0
  3

 62
   256
 51
90.0
 52
90.0
 71
     2
 49
0.5
 62
   256
  6
BYLAYER
 49
-0.5
 62
   256
  6
BYLAYER
  0
ACDBPLACEHOLDER
  5
F
102
{ACAD_REACTORS
330
E
102
}
330
E
  0
VISUALSTYLE
  5
2F
102
{ACAD_REACTORS
330
2A
102
}
330
2A
100
AcDbVisualStyle
  2
2dWireframe
 70
     4
 71
     0
 72
     2
 73
     0
 90
        0
 40
-0.6
 41
-30.0
 62
     5
 63
     7
421
 16777215
 74
     1
 91
        4
 64
     7
 65
   257
 75
     1
175
     1
 42
1.0
 92
        0
 66
   257
 43
1.0
 76
     1
 77
     6
 78
     2
 67
     7
 79
     5
170
     0
171
     0
290
     0
174
     0
 93
        1
 44
0.0
173
     0
291
     0
 45
0.0
1001
ACAD
1000
AcDbSavedByObjectVersion
1070
     0
  0
VISUALSTYLE
  5
31
102
{ACAD_REACTORS
330
2A
102
}
330
2A
100
AcDbVisualStyle
  2
3D Hidden
 70
     6
 71
     1
 72
     2
 73
     2
 90
        0
 40
-0.6
 41
-30.0
 62
     5
 63
     7
421
 16777215
 74
     2
 91
        2
 64
     7
 65
   257
 75
     2
175
     1
 42
40.0
 92
        0
 66
   257
 43
1.0
 76
     1
 77
     6
 78
     2
 67
     7
 79
     3
170
     0
171
     0
290
     0
174
     0
 93
        1
 44
0.0
173
     0
291
     0
 45
0.0
1001
ACAD
1000
AcDbSavedByObjectVersion
1070
     0
  0
VISUALSTYLE
  5
30
102
{ACAD_REACTORS
330
2A
102
}
330
2A
100
AcDbVisualStyle
  2
3dWireframe
 70
     5
 71
     0
 72
     2
 73
     0
 90
        0
 40
-0.6
 41
-30.0
 62
     5
 63
     7
421
 16777215
 74
     1
 91
        4
 64
     7
 65
   257
 75
     1
175
     1
 42
1.0
 92
        0
 66
   257
 43
1.0
 76
     1
 77
     6
 78
     2
 67
     7
 79
     5
170
     0
171
     0
290
     0
174
     0
 93
        1
 44
0.0
173
     0
291
     0
 45
0.0
1001
ACAD
1000
AcDbSavedByObjectVersion
1070
     0
  0
VISUALSTYLE
  5
32
102
{ACAD_REACTORS
330
2A
102
}
330
2A
100
AcDbVisualStyle
  2
Basic
 70
     7
 71
     1
 72
     0
 73
     1
 90
        0
 40
-0.6
 41
-30.0
 62
     5
 63
     7
421
 16777215
 74
     0
 91
        4
 64
     7
 65
   257
 75
     1
175
     1
 42
1.0
 92
        8
 66
     7
 43
1.0
 76
     1
 77
     6
 78
     2
 67
     7
 79
     5
170
     0
171
     0
290
     0
174
     0
 93
        1
 44
0.0
173
     0
291
     1
 45
0.0
1001
ACAD
1000
AcDbSavedByObjectVersion
1070
     0
  0
VISUALSTYLE
  5
36
102
{ACAD_REACTORS
330
2A
102
}
330
2A
100
AcDbVisualStyle
  2
Brighten
 70
    12
 71
     2
 72
     2
 73
     0
 90
        0
 40
-0.6
 41
-30.0
 62
     5
 63
     7
421
 16777215
 74
     1
 91
        4
 64
     7
 65
   257
 75
     1
175
     1
 42
1.0
 92
        8
 66
     7
 43
1.0
 76
     1
 77
     6
 78
     2
 67
     7
 79
     5
170
     0
171
     0
290
     0
174
     0
 93
        1
 44
50.0
173
     0
291
     1
 45
0.0
1001
ACAD
1000
AcDbSavedByObjectVersion
1070
     0
  0
VISUALSTYLE
  5
3A
102
{ACAD_REACTORS
330
2A
102
}
330
2A
100
AcDbVisualStyle
  2
ColorChange
 70
    16
 71
     2
 72
     2
 73
     3
 90
        0
 40
-0.6
 41
-30.0
 62
     5
 63
     8
421
  8421504
 74
     1
 91
        4
 64
     7
 65
   257
 75
     1
175
     1
 42
1.0
 92
        8
 66
     8
424
  8421504
 43
1.0
 76
     1
 77
     6
 78
     2
 67
     7
 79
     5
170
     0
171
     0
290
     0
174
     0
 93
        1
 44
0.0
173
     0
291
     1
 45
0.0
1001
ACAD
1000
AcDbSavedByObjectVersion
1070
     0
  0
VISUALSTYLE
  5
34
102
{ACAD_REACTORS
330
2A
102
}
330
2A
100
AcDbVisualStyle
  2
Conceptual
 70
     9
 71
     3
 72
     2
 73
     0
 90
        0
 40
-0.6
 41
-30.0
 62
     5
 63
     7
421
 16777215
 74
     2
 91
        2
 64
     7
 65
   257
 75
     1
175
     1
 42
40.0
 92
        8
 66
     7
 43
1.0
 76
     1
 77
     6
 78
     2
 67
     7
 79
     3
170
     0
171
     0
290
     0
174
     0
 93
        1
 44
0.0
173
     0
291
     0
 45
0.0
1001
ACAD
1000
AcDbSavedByObjectVersion
1070
     0
  0
VISUALSTYLE
  5
35
102
{ACAD_REACTORS
330
2A
102
}
330
2A
100
AcDbVisualStyle
  2
Dim
 70
    11
 71
     2
 72
     2
 73
     0
 90
        0
 40
-0.6
 41
-30.0
 62
     5
 63
     7
421
 16777215
 74
     1
 91
        4
 64
     7
 65
   257
 75
     1
175
     1
 42
1.0
 92
        8
 66
     7
 43
1.0
 76
     1
 77
     6
 78
     2
 67
     7
 79
     5
170
     0
171
     0
290
     0
174
     0
 93
        1
 44
-50.0
173
     0
291
     1
 45
0.0
1001
ACAD
1000
AcDbSavedByObjectVersion
1070
     0
  0
VISUALSTYLE
  5
39
102
{ACAD_REACTORS
330
2A
102
}
330
2A
100
AcDbVisualStyle
  2
Facepattern
 70
    15
 71
     2
 72
     2
 73
     0
 90
        0
 40
-0.6
 41
-30.0
 62
     5
 63
     7
421
 16777215
 74
     1
 91
        4
 64
     7
 65
   257
 75
     1
175
     1
 42
1.0
 92
        8
 66
     7
 43
1.0
 76
     1
 77
     6
 78
     2
 67
     7
 79
     5
170
     0
171
     0
290
     0
174
     0
 93
        1
 44
0.0
173
     0
291
     1
 45
0.0
1001
ACAD
1000
AcDbSavedByObjectVersion
1070
     0
  0
VISUALSTYLE
  5
2B
102
{ACAD_REACTORS
330
2A
102
}
330
2A
100
AcDbVisualStyle
  2
Flat
 70
     0
 71
     2
 72
     1
 73
     1
 90
        2
 40
-0.6
 41
30.0
 62
     5
 63
     7
421
 16777215
 74
     0
 91
        4
 64
     7
 65
   257
 75
     1
175
     1
 42
1.0
 92
        8
 66
     7
 43
1.0
 76
     1
 77
     6
 78
     2
 67
     7
 79
     5
170
     0
171
     0
290
     0
174
     0
 93
       13
 44
0.0
173
     0
291
     1
 45
0.0
1001
ACAD
1000
AcDbSavedByObjectVersion
1070
     0
  0
VISUALSTYLE
  5
2C
102
{ACAD_REACTORS
330
2A
102
}
330
2A
100
AcDbVisualStyle
  2
FlatWithEdges
 70
     1
 71
     2
 72
     1
 73
     1
 90
        2
 40
-0.6
 41
30.0
 62
     5
 63
     7
421
 16777215
 74
     1
 91
        4
 64
     7
 65
   257
 75
     1
175
     1
 42
1.0
 92
        0
 66
   257
 43
1.0
 76
     1
 77
     6
 78
     2
 67
     7
 79
     5
170
     0
171
     0
290
     0
174
     0
 93
       13
 44
0.0
173
     0
291
     1
 45
0.0
1001
ACAD
1000
AcDbSavedByObjectVersion
1070
     0
  0
VISUALSTYLE
  5
2D
102
{ACAD_REACTORS
330
2A
102
}
330
2A
100
AcDbVisualStyle
  2
Gouraud
 70
     2
 71
     2
 72
     2
 73
     1
 90
        2
 40
-0.6
 41
30.0
 62
     5
 63
     7
421
 16777215
 74
     0
 91
        4
 64
     7
 65
   257
 75
     1
175
     1
 42
1.0
 92
        0
 66
     7
 43
1.0
 76
     1
 77
     6
 78
     2
 67
     7
 79
     5
170
     0
171
     0
290
     0
174
     0
 93
       13
 44
0.0
173
     0
291
     1
 45
0.0
1001
ACAD
1000
AcDbSavedByObjectVersion
1070
     0
  0
VISUALSTYLE
  5
2E
102
{ACAD_REACTORS
330
2A
102
}
330
2A
100
AcDbVisualStyle
  2
GouraudWithEdges
 70
     3
 71
     2
 72
     2
 73
     1
 90
        2
 40
-0.6
 41
30.0
 62
     5
 63
     7
421
 16777215
 74
     1
 91
        4
 64
     7
 65
   257
 75
     1
175
     1
 42
1.0
 92
        0
 66
   257
 43
1.0
 76
     1
 77
     6
 78
     2
 67
     7
 79
     5
170
     0
171
     0
290
     0
174
     0
 93
       13
 44
0.0
173
     0
291
     1
 45
0.0
1001
ACAD
1000
AcDbSavedByObjectVersion
1070
     0
  0
VISUALSTYLE
  5
38
102
{ACAD_REACTORS
330
2A
102
}
330
2A
100
AcDbVisualStyle
  2
Linepattern
 70
    14
 71
     2
 72
     2
 73
     0
 90
        0
 40
-0.6
 41
-30.0
 62
     5
 63
     7
421
 16777215
 74
     1
 91
        4
 64
     7
 65
   257
 75
     7
175
     7
 42
1.0
 92
        8
 66
     7
 43
1.0
 76
     1
 77
     6
 78
     2
 67
     7
 79
     5
170
     0
171
     0
290
     0
174
     0
 93
        1
 44
0.0
173
     0
291
     1
 45
0.0
1001
ACAD
1000
AcDbSavedByObjectVersion
1070
     0
  0
VISUALSTYLE
  5
33
102
{ACAD_REACTORS
330
2A
102
}
330
2A
100
AcDbVisualStyle
  2
Realistic
 70
     8
 71
     2
 72
     2
 73
     0
 90
        0
 40
-0.6
 41
-30.0
 62
     5
 63
     7
421
 16777215
 74
     1
 91
        0
 64
     7
 65
   257
 75
     1
175
     1
 42
1.0
 92
        8
 66
     8
424
  7895160
 43
1.0
 76
     1
 77
     6
 78
     2
 67
     7
 79
     5
170
     0
171
     0
290
     0
174
     0
 93
       13
 44
0.0
173
     0
291
     0
 45
0.0
1001
ACAD
1000
AcDbSavedByObjectVersion
1070
     0
  0
VISUALSTYLE
  5
37
102
{ACAD_REACTORS
330
2A
102
}
330
2A
100
AcDbVisualStyle
  2
Thicken
 70
    13
 71
     2
 72
     2
 73
     0
 90
        0
 40
-0.6
 41
-30.0
 62
     5
 63
     7
421
 16777215
 74
     1
 91
        4
 64
     7
 65
   257
 75
     1
175
     1
 42
1.0
 92
       12
 66
     7
 43
1.0
 76
     1
 77
     6
 78
     2
 67
     7
 79
     5
170
     0
171
     0
290
     0
174
     0
 93
        1
 44
0.0
173
     0
291
     1
 45
0.0
1001
ACAD
1000
AcDbSavedByObjectVersion
1070
     0
  0
ENDSEC
  0
EOF
