  0
SECTION
  2
HEADER
  9
$ACADVER
  1
AC1015
  9
$ACADMAINTVER
 70
     6
  9
$DWGCODEPAGE
  3
ANSI_932
  9
$INSBASE
 10
0.0
 20
0.0
 30
0.0
  9
$EXTMIN
 10
-2100.0
 20
-1485.0
 30
0.0
  9
$EXTMAX
 10
2100.0
 20
1485.0
 30
0.0
  9
$LIMMIN
 10
-2100.0
 20
-1485.0
  9
$LIMMAX
 10
2100.0
 20
1485.0
  9
$ORTHOMODE
 70
     0
  9
$REGENMODE
 70
     1
  9
$FILLMODE
 70
     1
  9
$QTEXTMODE
 70
     0
  9
$MIRRTEXT
 70
     1
  9
$LTSCALE
 40
10.0
  9
$ATTMODE
 70
     1
  9
$TEXTSIZE
 40
2.5
  9
$TRACEWID
 40
1.0
  9
$TEXTSTYLE
  7
Standard
  9
$CLAYER
  8
0
  9
$CELTYPE
  6
ByLayer
  9
$CECOLOR
 62
   256
  9
$CELTSCALE
 40
1.0
  9
$DISPSILH
 70
     0
  9
$DIMSCALE
 40
1.0
  9
$DIMASZ
 40
2.5
  9
$DIMEXO
 40
0.625
  9
$DIMDLI
 40
3.75
  9
$DIMRND
 40
0.0
  9
$DIMDLE
 40
0.0
  9
$DIMEXE
 40
1.25
  9
$DIMTP
 40
0.0
  9
$DIMTM
 40
0.0
  9
$DIMTXT
 40
2.5
  9
$DIMCEN
 40
2.5
  9
$DIMTSZ
 40
0.0
  9
$DIMTOL
 70
     0
  9
$DIMLIM
 70
     0
  9
$DIMTIH
 70
     0
  9
$DIMTOH
 70
     0
  9
$DIMSE1
 70
     0
  9
$DIMSE2
 70
     0
  9
$DIMTAD
 70
     1
  9
$DIMZIN
 70
     8
  9
$DIMBLK
  1

  9
$DIMASO
 70
     1
  9
$DIMSHO
 70
     1
  9
$DIMPOST
  1

  9
$DIMAPOST
  1

  9
$DIMALT
 70
     0
  9
$DIMALTD
 70
     3
  9
$DIMALTF
 40
0.03937007874016
  9
$DIMLFAC
 40
1.0
  9
$DIMTOFL
 70
     1
  9
$DIMTVP
 40
0.0
  9
$DIMTIX
 70
     0
  9
$DIMSOXD
 70
     0
  9
$DIMSAH
 70
     0
  9
$DIMBLK1
  1

  9
$DIMBLK2
  1

  9
$DIMSTYLE
  2
ISO-25
  9
$DIMCLRD
 70
     0
  9
$DIMCLRE
 70
     0
  9
$DIMCLRT
 70
     0
  9
$DIMTFAC
 40
1.0
  9
$DIMGAP
 40
0.625
  9
$DIMJUST
 70
     0
  9
$DIMSD1
 70
     0
  9
$DIMSD2
 70
     0
  9
$DIMTOLJ
 70
     0
  9
$DIMTZIN
 70
     8
  9
$DIMALTZ
 70
     0
  9
$DIMALTTZ
 70
     0
  9
$DIMUPT
 70
     0
  9
$DIMDEC
 70
     2
  9
$DIMTDEC
 70
     2
  9
$DIMALTU
 70
     2
  9
$DIMALTTD
 70
     3
  9
$DIMTXSTY
  7
Standard
  9
$DIMAUNIT
 70
     0
  9
$DIMADEC
 70
     0
  9
$DIMALTRND
 40
0.0
  9
$DIMAZIN
 70
     0
  9
$DIMDSEP
 70
    44
  9
$DIMATFIT
 70
     3
  9
$DIMFRAC
 70
     0
  9
$DIMLDRBLK
  1

  9
$DIMLUNIT
 70
     2
  9
$DIMLWD
 70
    -2
  9
$DIMLWE
 70
    -2
  9
$DIMTMOVE
 70
     0
  9
$LUNITS
 70
     2
  9
$LUPREC
 70
     4
  9
$SKETCHINC
 40
1.0
  9
$FILLETRAD
 40
10.0
  9
$AUNITS
 70
     0
  9
$AUPREC
 70
     0
  9
$MENU
  1
.
  9
$ELEVATION
 40
0.0
  9
$PELEVATION
 40
0.0
  9
$THICKNESS
 40
0.0
  9
$LIMCHECK
 70
     0
  9
$CHAMFERA
 40
10.0
  9
$CHAMFERB
 40
10.0
  9
$CHAMFERC
 40
20.0
  9
$CHAMFERD
 40
0.0
  9
$SKPOLY
 70
     0
  9
$TDCREATE
 40
2456898.43558382
  9
$TDUCREATE
 40
2456898.06058382
  9
$TDUPDATE
 40
2456898.435583831
  9
$TDUUPDATE
 40
2456898.060583831
  9
$TDINDWG
 40
0.0000000116
  9
$TDUSRTIMER
 40
0.0000000116
  9
$USRTIMER
 70
     1
  9
$ANGBASE
 50
0.0
  9
$ANGDIR
 70
     0
  9
$PDMODE
 70
     0
  9
$PDSIZE
 40
0.0
  9
$PLINEWID
 40
0.0
  9
$SPLFRAME
 70
     0
  9
$SPLINETYPE
 70
     6
  9
$SPLINESEGS
 70
     8
  9
$HANDSEED
  5
282
  9
$SURFTAB1
 70
     6
  9
$SURFTAB2
 70
     6
  9
$SURFTYPE
 70
     6
  9
$SURFU
 70
     6
  9
$SURFV
 70
     6
  9
$UCSBASE
  2

  9
$UCSNAME
  2

  9
$UCSORG
 10
0.0
 20
0.0
 30
0.0
  9
$UCSXDIR
 10
1.0
 20
0.0
 30
0.0
  9
$UCSYDIR
 10
0.0
 20
1.0
 30
0.0
  9
$UCSORTHOREF
  2

  9
$UCSORTHOVIEW
 70
     0
  9
$UCSORGTOP
 10
0.0
 20
0.0
 30
0.0
  9
$UCSORGBOTTOM
 10
0.0
 20
0.0
 30
0.0
  9
$UCSORGLEFT
 10
0.0
 20
0.0
 30
0.0
  9
$UCSORGRIGHT
 10
0.0
 20
0.0
 30
0.0
  9
$UCSORGFRONT
 10
0.0
 20
0.0
 30
0.0
  9
$UCSORGBACK
 10
0.0
 20
0.0
 30
0.0
  9
$PUCSBASE
  2

  9
$PUCSNAME
  2

  9
$PUCSORG
 10
0.0
 20
0.0
 30
0.0
  9
$PUCSXDIR
 10
1.0
 20
0.0
 30
0.0
  9
$PUCSYDIR
 10
0.0
 20
1.0
 30
0.0
  9
$PUCSORTHOREF
  2

  9
$PUCSORTHOVIEW
 70
     0
  9
$PUCSORGTOP
 10
0.0
 20
0.0
 30
0.0
  9
$PUCSORGBOTTOM
 10
0.0
 20
0.0
 30
0.0
  9
$PUCSORGLEFT
 10
0.0
 20
0.0
 30
0.0
  9
$PUCSORGRIGHT
 10
0.0
 20
0.0
 30
0.0
  9
$PUCSORGFRONT
 10
0.0
 20
0.0
 30
0.0
  9
$PUCSORGBACK
 10
0.0
 20
0.0
 30
0.0
  9
$USERI1
 70
     0
  9
$USERI2
 70
     0
  9
$USERI3
 70
     0
  9
$USERI4
 70
     0
  9
$USERI5
 70
     0
  9
$USERR1
 40
0.0
  9
$USERR2
 40
0.0
  9
$USERR3
 40
0.0
  9
$USERR4
 40
0.0
  9
$USERR5
 40
0.0
  9
$WORLDVIEW
 70
     1
  9
$SHADEDGE
 70
     3
  9
$SHADEDIF
 70
    70
  9
$TILEMODE
 70
     1
  9
$MAXACTVP
 70
    64
  9
$PINSBASE
 10
0.0
 20
0.0
 30
0.0
  9
$PLIMCHECK
 70
     0
  9
$PEXTMIN
 10
1.000000000000000E+20
 20
1.000000000000000E+20
 30
1.000000000000000E+20
  9
$PEXTMAX
 10
-1.000000000000000E+20
 20
-1.000000000000000E+20
 30
-1.000000000000000E+20
  9
$PLIMMIN
 10
0.0
 20
0.0
  9
$PLIMMAX
 10
420.0
 20
297.0
  9
$UNITMODE
 70
     0
  9
$VISRETAIN
 70
     1
  9
$PLINEGEN
 70
     0
  9
$PSLTSCALE
 70
     1
  9
$TREEDEPTH
 70
  3020
  9
$CMLSTYLE
  2
Standard
  9
$CMLJUST
 70
     0
  9
$CMLSCALE
 40
20.0
  9
$PROXYGRAPHICS
 70
     1
  9
$MEASUREMENT
 70
     1
  9
$CELWEIGHT
370
    -1
  9
$ENDCAPS
280
     0
  9
$JOINSTYLE
280
     0
  9
$LWDISPLAY
290
     0
  9
$INSUNITS
 70
     4
  9
$HYPERLINKBASE
  1

  9
$STYLESHEET
  1

  9
$XEDIT
290
     1
  9
$CEPSNTYPE
380
     0
  9
$PSTYLEMODE
290
     1
  9
$FINGERPRINTGUID
  2
{396E1177-52C0-4D4C-A533-76BBBAE103CA}
  9
$VERSIONGUID
  2
{FAEB1C32-E019-11D5-929B-00C0DF256EC4}
  9
$EXTNAMES
290
     1
  9
$PSVPSCALE
 40
0.0
  9
$OLESTARTUP
290
     0
  0
ENDSEC
  0
SECTION
  2
CLASSES
  0
CLASS
  1
ACDBDICTIONARYWDFLT
  2
AcDbDictionaryWithDefault
  3
ObjectDBX Classes
 90
        0
280
     0
281
     0
  0
CLASS
  1
VISUALSTYLE
  2
AcDbVisualStyle
  3
ObjectDBX Classes
 90
     4095
280
     0
281
     0
  0
CLASS
  1
DICTIONARYVAR
  2
AcDbDictionaryVar
  3
ObjectDBX Classes
 90
        0
280
     0
281
     0
  0
CLASS
  1
ACDBPLACEHOLDER
  2
AcDbPlaceHolder
  3
ObjectDBX Classes
 90
        0
280
     0
281
     0
  0
CLASS
  1
LAYOUT
  2
AcDbLayout
  3
ObjectDBX Classes
 90
        0
280
     0
281
     0
  0
ENDSEC
  0
SECTION
  2
TABLES
  0
TABLE
  2
VPORT
  5
8
330
0
100
AcDbSymbolTable
 70
     1
  0
VPORT
  5
29
330
8
100
AcDbSymbolTableRecord
100
AcDbViewportTableRecord
  2
*Active
 70
     0
 10
0.0
 20
0.0
 11
1.0
 21
1.0
 12
0.0
 22
0.0
 13
0.0
 23
0.0
 14
10.0
 24
10.0
 15
10.0
 25
10.0
 16
0.0
 26
0.0
 36
1.0
 17
0.0
 27
0.0
 37
0.0
 40
3267.0
 41
1.414141414141414
 42
50.0
 43
0.0
 44
0.0
 50
0.0
 51
0.0
 71
     0
 72
 10000
 73
     1
 74
     3
 75
     0
 76
     0
 77
     0
 78
     0
281
     0
 65
     1
110
0.0
120
0.0
130
0.0
111
1.0
121
0.0
131
0.0
112
0.0
122
1.0
132
0.0
 79
     0
146
0.0
  0
ENDTAB
  0
TABLE
  2
LTYPE
  5
5
330
0
100
AcDbSymbolTable
 70
     4
  0
LTYPE
  5
14
330
5
100
AcDbSymbolTableRecord
100
AcDbLinetypeTableRecord
  2
ByBlock
 70
     0
  3

 72
    65
 73
     0
 40
0.0
  0
LTYPE
  5
15
330
5
100
AcDbSymbolTableRecord
100
AcDbLinetypeTableRecord
  2
ByLayer
 70
     0
  3

 72
    65
 73
     0
 40
0.0
  0
LTYPE
  5
16
330
5
100
AcDbSymbolTableRecord
100
AcDbLinetypeTableRecord
  2
Continuous
 70
     0
  3
Solid line
 72
    65
 73
     0
 40
0.0
  0
LTYPE
  5
3C
330
5
100
AcDbSymbolTableRecord
100
AcDbLinetypeTableRecord
  2
JWW_CENTER1
 70
     0
  3
-----  --  ----------  --  -----
 72
    65
 73
     4
 40
6.773333333333333
 49
4.233333333333333
 74
     0
 49
-0.8466666666666667
 74
     0
 49
0.8466666666666667
 74
     0
 49
-0.8466666666666667
 74
     0
  0
LTYPE
  5
3D
330
5
100
AcDbSymbolTableRecord
100
AcDbLinetypeTableRecord
  2
JWW_DASHED1
 70
     0
  3
-  --  --  --  --  --  --  --  -
 72
    65
 73
     2
 40
1.693333333333333
 49
0.8466666666666667
 74
     0
 49
-0.8466666666666667
 74
     0
  0
LTYPE
  5
3E
330
5
100
AcDbSymbolTableRecord
100
AcDbLinetypeTableRecord
  2
JWW_PHANTOM1
 70
     0
  3
----  -  -  --------  -  -  ----
 72
    65
 73
     6
 40
6.773333333333333
 49
3.386666666666667
 74
     0
 49
-0.8466666666666667
 74
     0
 49
0.4233333333333333
 74
     0
 49
-0.8466666666666667
 74
     0
 49
0.4233333333333333
 74
     0
 49
-0.8466666666666667
 74
     0
  0
ENDTAB
  0
TABLE
  2
LAYER
  5
2
330
0
100
AcDbSymbolTable
 70
    14
  0
LAYER
  5
10
330
2
100
AcDbSymbolTableRecord
100
AcDbLayerTableRecord
  2
0
 70
     0
 62
     7
  6
Continuous
370
    -3
390
F
  0
LAYER
  5
3F
330
2
100
AcDbSymbolTableRecord
100
AcDbLayerTableRecord
  2
0-5
 70
     0
 62
     7
  6
Continuous
370
    -3
390
F
  0
LAYER
  5
40
330
2
100
AcDbSymbolTableRecord
100
AcDbLayerTableRecord
  2
0-F
 70
     0
 62
     7
  6
Continuous
370
    -3
390
F
  0
LAYER
  5
41
330
2
100
AcDbSymbolTableRecord
100
AcDbLayerTableRecord
  2
0-1
 70
     0
 62
     7
  6
Continuous
370
    -3
390
F
  0
LAYER
  5
42
330
2
100
AcDbSymbolTableRecord
100
AcDbLayerTableRecord
  2
0-B
 70
     0
 62
     7
  6
Continuous
370
    -3
390
F
  0
LAYER
  5
43
330
2
100
AcDbSymbolTableRecord
100
AcDbLayerTableRecord
  2
0-4
 70
     0
 62
     7
  6
Continuous
370
    -3
390
F
  0
LAYER
  5
44
330
2
100
AcDbSymbolTableRecord
100
AcDbLayerTableRecord
  2
0-D
 70
     0
 62
     7
  6
Continuous
370
    -3
390
F
  0
LAYER
  5
45
330
2
100
AcDbSymbolTableRecord
100
AcDbLayerTableRecord
  2
0-A
 70
     0
 62
     7
  6
Continuous
370
    -3
390
F
  0
LAYER
  5
46
330
2
100
AcDbSymbolTableRecord
100
AcDbLayerTableRecord
  2
0-8
 70
     0
 62
     7
  6
Continuous
370
    -3
390
F
  0
LAYER
  5
47
330
2
100
AcDbSymbolTableRecord
100
AcDbLayerTableRecord
  2
0-0
 70
     0
 62
     7
  6
Continuous
370
    -3
390
F
  0
LAYER
  5
48
330
2
100
AcDbSymbolTableRecord
100
AcDbLayerTableRecord
  2
0-3
 70
     0
 62
     7
  6
Continuous
370
    -3
390
F
  0
LAYER
  5
49
330
2
100
AcDbSymbolTableRecord
100
AcDbLayerTableRecord
  2
0-9
 70
     0
 62
     7
  6
Continuous
370
    -3
390
F
  0
LAYER
  5
4A
330
2
100
AcDbSymbolTableRecord
100
AcDbLayerTableRecord
  2
0-C
 70
     0
 62
     7
  6
Continuous
370
    -3
390
F
  0
LAYER
  5
4B
330
2
100
AcDbSymbolTableRecord
100
AcDbLayerTableRecord
  2
F-4
 70
     0
 62
     7
  6
Continuous
370
    -3
390
F
  0
ENDTAB
  0
TABLE
  2
STYLE
  5
3
330
0
100
AcDbSymbolTable
 70
     2
  0
STYLE
  5
11
330
3
100
AcDbSymbolTableRecord
100
AcDbTextStyleTableRecord
  2
Standard
 70
     0
 40
0.0
 41
1.0
 50
0.0
 71
     0
 42
2.5
  3
txt
  4

1001
ACAD
1000

1071
        0
  0
STYLE
  5
3B
330
3
100
AcDbSymbolTableRecord
100
AcDbTextStyleTableRecord
  2
ＭＳ ゴシック
 70
     0
 40
1.0
 41
1.0
 50
0.0
 71
     0
 42
10.0
  3

  4

1001
ACAD
1000
MS Gothic
1071
    32817
  0
ENDTAB
  0
TABLE
  2
VIEW
  5
6
330
0
100
AcDbSymbolTable
 70
     0
  0
ENDTAB
  0
TABLE
  2
UCS
  5
7
330
0
100
AcDbSymbolTable
 70
     0
  0
ENDTAB
  0
TABLE
  2
APPID
  5
9
330
0
100
AcDbSymbolTable
 70
     1
  0
APPID
  5
12
330
9
100
AcDbSymbolTableRecord
100
AcDbRegAppTableRecord
  2
ACAD
 70
     0
  0
ENDTAB
  0
TABLE
  2
DIMSTYLE
  5
A
330
0
100
AcDbSymbolTable
 70
     1
100
AcDbDimStyleTable
  0
DIMSTYLE
105
27
330
A
100
AcDbSymbolTableRecord
100
AcDbDimStyleTableRecord
  2
ISO-25
 70
     0
 41
2.5
 42
0.625
 43
3.75
 44
1.25
 73
     0
 74
     0
 77
     1
 78
     8
140
2.5
141
2.5
143
0.03937007874016
147
0.625
171
     3
172
     1
271
     2
272
     2
274
     3
278
    44
283
     0
284
     8
340
11
  0
ENDTAB
  0
TABLE
  2
BLOCK_RECORD
  5
1
330
0
100
AcDbSymbolTable
 70
     1
  0
BLOCK_RECORD
  5
1F
330
1
100
AcDbSymbolTableRecord
100
AcDbBlockTableRecord
  2
*Model_Space
340
22
  0
BLOCK_RECORD
  5
1B
330
1
100
AcDbSymbolTableRecord
100
AcDbBlockTableRecord
  2
*Paper_Space
340
1E
  0
BLOCK_RECORD
  5
23
330
1
100
AcDbSymbolTableRecord
100
AcDbBlockTableRecord
  2
*Paper_Space0
340
26
  0
ENDTAB
  0
ENDSEC
  0
SECTION
  2
BLOCKS
  0
BLOCK
  5
20
330
1F
100
AcDbEntity
  8
0
100
AcDbBlockBegin
  2
*Model_Space
 70
     0
 10
0.0
 20
0.0
 30
0.0
  3
*Model_Space
  1

  0
ENDBLK
  5
21
330
1F
100
AcDbEntity
  8
0
100
AcDbBlockEnd
  0
BLOCK
  5
1C
330
1B
100
AcDbEntity
 67
     1
  8
0
100
AcDbBlockBegin
  2
*Paper_Space
 70
     0
 10
0.0
 20
0.0
 30
0.0
  3
*Paper_Space
  1

  0
ENDBLK
  5
1D
330
1B
100
AcDbEntity
 67
     1
  8
0
100
AcDbBlockEnd
  0
BLOCK
  5
24
330
23
100
AcDbEntity
  8
0
100
AcDbBlockBegin
  2
*Paper_Space0
 70
     0
 10
0.0
 20
0.0
 30
0.0
  3
*Paper_Space0
  1

  0
ENDBLK
  5
25
330
23
100
AcDbEntity
  8
0
100
AcDbBlockEnd
  0
ENDSEC
  0
SECTION
  2
ENTITIES
  0
LINE
  5
4C
330
1F
100
AcDbEntity
  8
0-5
  6
Continuous
 62
     7
370
     9
100
AcDbLine
 10
104.1564279487239
 20
-884.8736668314327
 30
0.0
 11
119.3754636739419
 21
-904.7075003387135
 31
0.0
  0
LINE
  5
4D
330
1F
100
AcDbEntity
  8
0-5
  6
Continuous
 62
     7
370
     9
100
AcDbLine
 10
104.1564279487239
 20
-884.8736668314327
 30
0.0
 11
113.7235137578511
 21
-907.9706551442149
 31
0.0
  0
LINE
  5
4E
330
1F
100
AcDbEntity
  8
0-5
  6
Continuous
 62
     7
370
     9
100
AcDbLine
 10
104.1564279487239
 20
-884.8736668314327
 30
0.0
 11
177.9273167383806
 21
-1012.648594334631
 31
0.0
  0
TEXT
  5
4F
330
1F
100
AcDbEntity
  8
0-5
  6
Continuous
 62
     6
370
     9
100
AcDbText
 10
341.9580166879174
 20
-1052.450243687854
 30
0.0
 40
19.05
  1
（別途）
 41
1.090000000000001
  7
ＭＳ ゴシック
100
AcDbText
  0
TEXT
  5
50
330
1F
100
AcDbEntity
  8
0-5
  6
Continuous
 62
     6
370
     9
100
AcDbText
 10
188.1186301451757
 20
-1002.151270492725
 30
0.0
 40
19.05
  1
位置決めプレート：ＳＧＨＣ
 41
1.110769230769231
  7
ＭＳ ゴシック
100
AcDbText
  0
TEXT
  5
51
330
1F
100
AcDbEntity
  8
0-5
  6
Continuous
 62
     6
370
     9
100
AcDbText
 10
447.0976145368175
 20
-925.4167809602213
 30
0.0
 40
19.05
  1
（別途）
 41
1.09
  7
ＭＳ ゴシック
100
AcDbText
  0
TEXT
  5
52
330
1F
100
AcDbEntity
  8
0-5
  6
Continuous
 62
     6
370
     9
100
AcDbText
 10
298.3484501200763
 20
-886.0380208355567
 30
0.0
 40
19.05
  1
引き上げプレート：ＳＧＨＣ
 41
1.110769230769231
  7
ＭＳ ゴシック
100
AcDbText
  0
LINE
  5
53
330
1F
100
AcDbEntity
  8
0-5
  6
Continuous
 62
     7
370
     9
100
AcDbLine
 10
287.3485560319036
 20
-893.3976309709899
 30
0.0
 11
658.4572324833874
 21
-893.3976309709899
 31
0.0
  0
LINE
  5
54
330
1F
100
AcDbEntity
  8
0-5
  6
Continuous
 62
     7
370
     9
100
AcDbLine
 10
551.5285180498928
 20
-1012.648594334631
 30
0.0
 11
177.9273167383806
 21
-1012.648594334631
 31
0.0
  0
LWPOLYLINE
  5
55
330
1F
100
AcDbEntity
  8
0-F
  6
Continuous
 62
     7
370
     9
100
AcDbPolyline
 90
        4
 70
     1
 43
1.0
 10
6.772945711604052
 20
756.6675345393706
 42
0.4142135623731
 10
6.272945711604052
 20
757.1675345393705
 42
0.4142135623731
 10
5.772945711604052
 20
756.6675345393706
 42
0.4142135623731
 10
6.272945711604052
 20
756.1675345393706
 42
0.4142135623731
  0
LWPOLYLINE
  5
56
330
1F
100
AcDbEntity
  8
0-F
  6
Continuous
 62
     7
370
     9
100
AcDbPolyline
 90
        4
 70
     1
 43
1.0
 10
20.10665295400231
 20
-638.2070726998599
 42
0.4142135623731
 10
19.60665295400231
 20
-637.7070726998599
 42
0.4142135623731
 10
19.10665295400231
 20
-638.2070726998599
 42
0.4142135623731
 10
19.60665295400231
 20
-638.7070726998597
 42
0.4142135623731
  0
LINE
  5
57
330
1F
100
AcDbEntity
  8
0-1
  6
Continuous
 62
     4
370
     9
100
AcDbLine
 10
489.6060512431953
 20
756.6675345393706
 30
0.0
 11
489.6060512431953
 21
106.6679775744815
 31
0.0
  0
LINE
  5
58
330
1F
100
AcDbEntity
  8
0-1
  6
Continuous
 62
     4
370
     9
100
AcDbLine
 10
489.6060512431953
 20
106.6679775744815
 30
0.0
 11
-477.0608204450381
 21
106.6679775744815
 31
0.0
  0
LINE
  5
59
330
1F
100
AcDbEntity
  8
0-1
  6
JWW_CENTER1
 62
     4
370
     9
100
AcDbLine
 10
6.272945711604052
 20
1299.182735199713
 30
0.0
 11
6.272945711604052
 21
28.03179596527755
 31
0.0
  0
LINE
  5
5A
330
1F
100
AcDbEntity
  8
0-1
  6
Continuous
 62
     4
370
     9
100
AcDbLine
 10
-477.0608204450381
 20
756.6675345393706
 30
0.0
 11
-477.0608204450381
 21
106.6679775744815
 31
0.0
  0
LINE
  5
5B
330
1F
100
AcDbEntity
  8
0-B
  6
Continuous
 62
     2
370
     9
100
AcDbLine
 10
-21.97273893788974
 20
768.3335123021495
 30
0.0
 11
-28.72696945188598
 21
768.3335123021495
 31
0.0
  0
LINE
  5
5C
330
1F
100
AcDbEntity
  8
0-B
  6
Continuous
 62
     2
370
     9
100
AcDbLine
 10
-28.72696945188598
 20
745.00023552649
 30
0.0
 11
-21.97273893788974
 21
745.00023552649
 31
0.0
  0
LINE
  5
5D
330
1F
100
AcDbEntity
  8
0-B
  6
Continuous
 62
     2
370
     9
100
AcDbLine
 10
34.51796973604701
 20
768.3335123021495
 30
0.0
 11
41.27286087509333
 21
768.3335123021495
 31
0.0
  0
LINE
  5
5E
330
1F
100
AcDbEntity
  8
0-B
  6
Continuous
 62
     2
370
     9
100
AcDbLine
 10
41.27286087509333
 20
745.00023552649
 30
0.0
 11
34.51796973604701
 21
745.00023552649
 31
0.0
  0
LINE
  5
5F
330
1F
100
AcDbEntity
  8
0-B
  6
Continuous
 62
     2
370
     9
100
AcDbLine
 10
34.51796973604701
 20
764.334088247794
 30
0.0
 11
41.27286087509333
 21
764.334088247794
 31
0.0
  0
LINE
  5
60
330
1F
100
AcDbEntity
  8
0-B
  6
Continuous
 62
     2
370
     9
100
AcDbLine
 10
41.27286087509333
 20
749.0003202058963
 30
0.0
 11
34.51796973604701
 21
749.0003202058963
 31
0.0
  0
LINE
  5
61
330
1F
100
AcDbEntity
  8
0-B
  6
Continuous
 62
     2
370
     9
100
AcDbLine
 10
-28.72696945188598
 20
749.0003202058963
 30
0.0
 11
-21.97273893788974
 21
749.0003202058963
 31
0.0
  0
LINE
  5
62
330
1F
100
AcDbEntity
  8
0-B
  6
Continuous
 62
     2
370
     9
100
AcDbLine
 10
-21.97273893788974
 20
764.334088247794
 30
0.0
 11
-28.72696945188598
 21
764.334088247794
 31
0.0
  0
LINE
  5
63
330
1F
100
AcDbEntity
  8
0-1
  6
JWW_CENTER1
 62
     4
370
     9
100
AcDbLine
 10
546.9489662319843
 20
756.6675345393706
 30
0.0
 11
-534.4034051213024
 21
756.6675345393706
 31
0.0
  0
LINE
  5
64
330
1F
100
AcDbEntity
  8
0-4
  6
Continuous
 62
     6
370
     9
100
AcDbLine
 10
267.980550315021
 20
804.3336137917529
 30
0.0
 11
-265.3529530840945
 21
804.3336137917529
 31
0.0
  0
LINE
  5
65
330
1F
100
AcDbEntity
  8
0-4
  6
Continuous
 62
     6
370
     9
100
AcDbLine
 10
-265.3529530840945
 20
709.0001340368866
 30
0.0
 11
-265.3529530840945
 21
804.3336137917529
 31
0.0
  0
LINE
  5
66
330
1F
100
AcDbEntity
  8
0-4
  6
Continuous
 62
     6
370
     9
100
AcDbLine
 10
267.980550315021
 20
709.0001340368866
 30
0.0
 11
-265.3529530840945
 21
709.0001340368866
 31
0.0
  0
LINE
  5
67
330
1F
100
AcDbEntity
  8
0-4
  6
Continuous
 62
     6
370
     9
100
AcDbLine
 10
267.980550315021
 20
709.0001340368866
 30
0.0
 11
267.980550315021
 21
804.3336137917529
 31
0.0
  0
LINE
  5
68
330
1F
100
AcDbEntity
  8
0-D
  6
Continuous
 62
     2
370
     9
100
AcDbLine
 10
34.64679162085038
 20
723.3337157526704
 30
0.0
 11
34.64679162085038
 21
745.00023552649
 31
0.0
  0
LINE
  5
69
330
1F
100
AcDbEntity
  8
0-D
  6
Continuous
 62
     2
370
     9
100
AcDbLine
 10
34.64679162085038
 20
768.3335123021495
 30
0.0
 11
34.64679162085038
 21
790.0000320759692
 31
0.0
  0
LINE
  5
6A
330
1F
100
AcDbEntity
  8
0-D
  6
Continuous
 62
     2
370
     9
100
AcDbLine
 10
267.980550315021
 20
790.0000320759692
 30
0.0
 11
34.64679162085038
 21
790.0000320759692
 31
0.0
  0
LINE
  5
6B
330
1F
100
AcDbEntity
  8
0-D
  6
Continuous
 62
     2
370
     9
100
AcDbLine
 10
267.980550315021
 20
723.3337157526704
 30
0.0
 11
34.64679162085038
 21
723.3337157526704
 31
0.0
  0
LINE
  5
6C
330
1F
100
AcDbEntity
  8
0-F
  6
Continuous
 62
     7
370
     9
100
AcDbLine
 10
-477.0604901325135
 20
-64.67569921475203
 30
0.0
 11
489.6060512431953
 21
-64.67569921475203
 31
0.0
  0
LINE
  5
6D
330
1F
100
AcDbEntity
  8
0-F
  6
Continuous
 62
     7
370
     9
100
AcDbLine
 10
-477.0604901325135
 20
66.66779140547177
 30
0.0
 11
-477.0604901325135
 21
-68.6757838941584
 31
0.0
  0
LINE
  5
6E
330
1F
100
AcDbEntity
  8
0-F
  6
Continuous
 62
     7
370
     9
100
AcDbLine
 10
489.6060512431953
 20
66.66779140547177
 30
0.0
 11
489.6060512431953
 21
-68.6757838941584
 31
0.0
  0
LINE
  5
6F
330
1F
100
AcDbEntity
  8
0-F
  6
Continuous
 62
     7
370
     9
100
AcDbLine
 10
-477.0604901325135
 20
-64.67569921475203
 30
0.0
 11
-437.4028380520708
 21
-59.45477944244104
 31
0.0
  0
LINE
  5
70
330
1F
100
AcDbEntity
  8
0-F
  6
Continuous
 62
     7
370
     9
100
AcDbLine
 10
-477.0604901325135
 20
-64.67569921475203
 30
0.0
 11
-437.4028380520708
 21
-69.89661898706316
 31
0.0
  0
LINE
  5
71
330
1F
100
AcDbEntity
  8
0-F
  6
Continuous
 62
     7
370
     9
100
AcDbLine
 10
489.6060512431953
 20
-64.67569921475203
 30
0.0
 11
449.9480688502281
 21
-59.45477944244104
 31
0.0
  0
LINE
  5
72
330
1F
100
AcDbEntity
  8
0-F
  6
Continuous
 62
     7
370
     9
100
AcDbLine
 10
489.6060512431953
 20
-64.67569921475203
 30
0.0
 11
449.9480688502281
 21
-69.89661898706316
 31
0.0
  0
LINE
  5
73
330
1F
100
AcDbEntity
  8
0-F
  6
Continuous
 62
     7
370
     9
100
AcDbLine
 10
701.1715539058055
 20
106.6679775744815
 30
0.0
 11
701.1715539058055
 21
1240.000640070962
 31
0.0
  0
LINE
  5
74
330
1F
100
AcDbEntity
  8
0-F
  6
Continuous
 62
     7
370
     9
100
AcDbLine
 10
529.606237412205
 20
106.6679775744815
 30
0.0
 11
705.171638585211
 21
106.6679775744815
 31
0.0
  0
LINE
  5
75
330
1F
100
AcDbEntity
  8
0-F
  6
Continuous
 62
     7
370
     9
100
AcDbLine
 10
46.27313188061294
 20
1240.000640070962
 30
0.0
 11
705.171638585211
 21
1240.000640070962
 31
0.0
  0
LINE
  5
76
330
1F
100
AcDbEntity
  8
0-F
  6
Continuous
 62
     7
370
     9
100
AcDbLine
 10
701.1715539058055
 20
106.6679775744815
 30
0.0
 11
695.9506341334936
 21
146.3259599674494
 31
0.0
  0
LINE
  5
77
330
1F
100
AcDbEntity
  8
0-F
  6
Continuous
 62
     7
370
     9
100
AcDbLine
 10
701.1715539058055
 20
106.6679775744815
 30
0.0
 11
706.3931343031666
 21
146.3259599674494
 31
0.0
  0
LINE
  5
78
330
1F
100
AcDbEntity
  8
0-F
  6
Continuous
 62
     7
370
     9
100
AcDbLine
 10
701.1715539058055
 20
1240.000640070962
 30
0.0
 11
695.9506341334936
 21
1200.342657677995
 31
0.0
  0
LINE
  5
79
330
1F
100
AcDbEntity
  8
0-F
  6
Continuous
 62
     7
370
     9
100
AcDbLine
 10
701.1715539058055
 20
1240.000640070962
 30
0.0
 11
706.3931343031666
 21
1200.342657677995
 31
0.0
  0
LINE
  5
7A
330
1F
100
AcDbEntity
  8
0-F
  6
Continuous
 62
     7
370
     9
100
AcDbLine
 10
-672.1242396643413
 20
106.6679775744815
 30
0.0
 11
-672.1242396643413
 21
756.6675345393706
 31
0.0
  0
LINE
  5
7B
330
1F
100
AcDbEntity
  8
0-F
  6
Continuous
 62
     7
370
     9
100
AcDbLine
 10
-517.0603459889976
 20
106.6679775744815
 30
0.0
 11
-676.1243243437475
 21
106.6679775744815
 31
0.0
  0
LINE
  5
7C
330
1F
100
AcDbEntity
  8
0-F
  6
Continuous
 62
     7
370
     9
100
AcDbLine
 10
-574.4032609777867
 20
756.6675345393706
 30
0.0
 11
-676.1243243437475
 21
756.6675345393706
 31
0.0
  0
LINE
  5
7D
330
1F
100
AcDbEntity
  8
0-F
  6
Continuous
 62
     7
370
     9
100
AcDbLine
 10
-672.1242396643413
 20
106.6679775744815
 30
0.0
 11
-677.3451594366522
 21
146.3259599674494
 31
0.0
  0
LINE
  5
7E
330
1F
100
AcDbEntity
  8
0-F
  6
Continuous
 62
     7
370
     9
100
AcDbLine
 10
-672.1242396643413
 20
106.6679775744815
 30
0.0
 11
-666.9029895795047
 21
146.3259599674494
 31
0.0
  0
LINE
  5
7F
330
1F
100
AcDbEntity
  8
0-F
  6
Continuous
 62
     7
370
     9
100
AcDbLine
 10
-672.1242396643413
 20
756.6675345393706
 30
0.0
 11
-677.3451594366522
 21
717.0095521464026
 31
0.0
  0
LINE
  5
80
330
1F
100
AcDbEntity
  8
0-F
  6
Continuous
 62
     7
370
     9
100
AcDbLine
 10
-672.1242396643413
 20
756.6675345393706
 30
0.0
 11
-666.9029895795047
 21
717.0095521464026
 31
0.0
  0
LINE
  5
81
330
1F
100
AcDbEntity
  8
0-F
  6
Continuous
 62
     7
370
     9
100
AcDbLine
 10
6.272945711604052
 20
756.6675345393706
 30
0.0
 11
348.0410395326153
 21
1098.435958672907
 31
0.0
  0
LINE
  5
82
330
1F
100
AcDbEntity
  8
0-F
  6
Continuous
 62
     7
370
     9
100
AcDbLine
 10
348.0410395326153
 20
1098.435958672907
 30
0.0
 11
323.6907304920596
 21
1066.701513132919
 31
0.0
  0
LINE
  5
83
330
1F
100
AcDbEntity
  8
0-F
  6
Continuous
 62
     7
370
     9
100
AcDbLine
 10
348.0410395326153
 20
1098.435958672907
 30
0.0
 11
316.306924305153
 21
1074.085319319826
 31
0.0
  0
ARC
  5
84
330
1F
100
AcDbEntity
  8
0-1
  6
Continuous
 62
     4
370
     9
100
AcDbCircle
 10
6.272945711604052
 20
756.6675345393706
 30
0.0
 40
483.3333532659856
100
AcDbArc
 50
0.0
 51
180.0
  0
ARC
  5
85
330
1F
100
AcDbEntity
  8
0-B
  6
Continuous
 62
     2
370
     9
100
AcDbCircle
 10
-28.72696945188598
 20
756.6675345393706
 30
0.0
 40
11.66666419349582
100
AcDbArc
 50
90.0
 51
270.0
  0
ARC
  5
86
330
1F
100
AcDbEntity
  8
0-B
  6
Continuous
 62
     2
370
     9
100
AcDbCircle
 10
-21.97273893788974
 20
772.3335969815558
 30
0.0
 40
4.000000165849732
100
AcDbArc
 50
270.0
 51
323.9680633544922
  0
ARC
  5
87
330
1F
100
AcDbEntity
  8
0-B
  6
Continuous
 62
     2
370
     9
100
AcDbCircle
 10
-21.97273893788974
 20
741.0008114721346
 30
0.0
 40
4.000000165849732
100
AcDbArc
 50
36.03193664550781
 51
90.0
  0
ARC
  5
88
330
1F
100
AcDbEntity
  8
0-B
  6
Continuous
 62
     2
370
     9
100
AcDbCircle
 10
41.27286087509333
 20
756.6675345393706
 30
0.0
 40
11.66666419349582
100
AcDbArc
 50
270.0
 51
90.0
  0
ARC
  5
89
330
1F
100
AcDbEntity
  8
0-B
  6
Continuous
 62
     2
370
     9
100
AcDbCircle
 10
34.51796973604701
 20
772.3335969815558
 30
0.0
 40
4.000000165849732
100
AcDbArc
 50
216.0319366455078
 51
270.0
  0
ARC
  5
8A
330
1F
100
AcDbEntity
  8
0-B
  6
Continuous
 62
     2
370
     9
100
AcDbCircle
 10
34.51796973604701
 20
741.0008114721346
 30
0.0
 40
4.000000165849732
100
AcDbArc
 50
90.0
 51
143.9680633544922
  0
ARC
  5
8B
330
1F
100
AcDbEntity
  8
0-B
  6
Continuous
 62
     2
370
     9
100
AcDbCircle
 10
6.272945711604052
 20
756.6675345393706
 30
0.0
 40
28.3333335941516
100
AcDbArc
 50
28.02755737304687
 51
151.9724426269531
  0
ARC
  5
8C
330
1F
100
AcDbEntity
  8
0-B
  6
Continuous
 62
     2
370
     9
100
AcDbCircle
 10
6.272945711604052
 20
756.6675345393706
 30
0.0
 40
28.3333335941516
100
AcDbArc
 50
208.0275573730469
 51
331.9724426269531
  0
ARC
  5
8D
330
1F
100
AcDbEntity
  8
0-B
  6
Continuous
 62
     2
370
     9
100
AcDbCircle
 10
41.27286087509333
 20
756.6675345393706
 30
0.0
 40
7.666664672787738
100
AcDbArc
 50
270.0
 51
90.0
  0
ARC
  5
8E
330
1F
100
AcDbEntity
  8
0-B
  6
Continuous
 62
     2
370
     9
100
AcDbCircle
 10
-28.72696945188598
 20
756.6675345393706
 30
0.0
 40
7.666664672787738
100
AcDbArc
 50
90.0
 51
270.0
  0
ARC
  5
8F
330
1F
100
AcDbEntity
  8
0-B
  6
Continuous
 62
     2
370
     9
100
AcDbCircle
 10
-21.97273893788974
 20
772.3335969815558
 30
0.0
 40
8.000000331699464
100
AcDbArc
 50
270.0
 51
323.9680633544922
  0
ARC
  5
90
330
1F
100
AcDbEntity
  8
0-B
  6
Continuous
 62
     2
370
     9
100
AcDbCircle
 10
6.272945711604052
 20
756.6675345393706
 30
0.0
 40
24.33333665401012
100
AcDbArc
 50
28.02755737304687
 51
153.5666198730469
  0
ARC
  5
91
330
1F
100
AcDbEntity
  8
0-B
  6
Continuous
 62
     2
370
     9
100
AcDbCircle
 10
-21.97273893788974
 20
741.0008114721346
 30
0.0
 40
8.000000331699464
100
AcDbArc
 50
32.02981567382812
 51
90.0
  0
ARC
  5
92
330
1F
100
AcDbEntity
  8
0-B
  6
Continuous
 62
     2
370
     9
100
AcDbCircle
 10
34.51796973604701
 20
772.3335969815558
 30
0.0
 40
8.000000331699464
100
AcDbArc
 50
212.0298156738282
 51
270.0
  0
ARC
  5
93
330
1F
100
AcDbEntity
  8
0-B
  6
Continuous
 62
     2
370
     9
100
AcDbCircle
 10
6.272945711604052
 20
756.6675345393706
 30
0.0
 40
24.33333665401012
100
AcDbArc
 50
208.0275573730469
 51
331.9724426269531
  0
ARC
  5
94
330
1F
100
AcDbEntity
  8
0-B
  6
Continuous
 62
     2
370
     9
100
AcDbCircle
 10
34.51796973604701
 20
741.0008114721346
 30
0.0
 40
8.000000331699464
100
AcDbArc
 50
90.0
 51
147.9701843261718
  0
CIRCLE
  5
95
330
1F
100
AcDbEntity
  8
0-B
  6
Continuous
 62
     2
370
     9
100
AcDbCircle
 10
6.272945711604052
 20
756.6675345393706
 30
0.0
 40
16.66666811037248
  0
CIRCLE
  5
96
330
1F
100
AcDbEntity
  8
0-B
  6
Continuous
 62
     2
370
     9
100
AcDbCircle
 10
6.272945711604052
 20
756.6675345393706
 30
0.0
 40
12.66666600909779
  0
TEXT
  5
97
330
1F
100
AcDbEntity
  8
0-D
  6
Continuous
 62
     6
370
     9
100
AcDbText
 10
95.3136709679358
 20
749.4868118579835
 30
0.0
 40
15.24
  1
複数回使用
 41
1.12
  7
ＭＳ ゴシック
100
AcDbText
  0
TEXT
  5
98
330
1F
100
AcDbEntity
  8
0-F
  6
Continuous
 62
     2
370
     9
100
AcDbText
 10
-26.22738460092137
 20
-45.70233485325055
 30
0.0
 40
30.48
  1
290
 41
1.083333333333333
  7
ＭＳ ゴシック
100
AcDbText
  0
TEXT
  5
99
330
1F
100
AcDbEntity
  8
0-F
  6
Continuous
 62
     2
370
     9
100
AcDbText
 10
682.198521277449
 20
640.8346385973051
 30
0.0
 40
30.48
  1
340
 50
90.00000250447822
 41
1.083333333333334
  7
ＭＳ ゴシック
100
AcDbText
  0
TEXT
  5
9A
330
1F
100
AcDbEntity
  8
0-F
  6
Continuous
 62
     2
370
     9
100
AcDbText
 10
132.8049775660672
 20
910.031683268125
 30
0.0
 40
30.48
  1
R145
 50
45.00023006357632
 41
1.09375
  7
ＭＳ ゴシック
100
AcDbText
  0
LINE
  5
9B
330
1F
100
AcDbEntity
  8
0-5
  6
Continuous
 62
     7
370
     9
100
AcDbLine
 10
19.60665295400231
 20
-373.7945388280975
 30
0.0
 11
112.0086175875218
 21
-213.7496413636593
 31
0.0
  0
LINE
  5
9C
330
1F
100
AcDbEntity
  8
0-5
  6
Continuous
 62
     7
370
     9
100
AcDbLine
 10
19.60665295400231
 20
-373.7945388280975
 30
0.0
 11
29.17373876312956
 21
-350.6975505153153
 31
0.0
  0
LINE
  5
9D
330
1F
100
AcDbEntity
  8
0-5
  6
Continuous
 62
     7
370
     9
100
AcDbLine
 10
19.60665295400231
 20
-373.7945388280975
 30
0.0
 11
34.82568867922033
 21
-353.9607053208166
 31
0.0
  0
TEXT
  5
9E
330
1F
100
AcDbEntity
  8
0-5
  6
Continuous
 62
     6
370
     9
100
AcDbText
 10
113.5972618276156
 20
-200.341555496179
 30
0.0
 40
19.05
  1
長ネジボルト：ＳＷＲＭ
 41
1.109090909090909
  7
ＭＳ ゴシック
100
AcDbText
  0
TEXT
  5
9F
330
1F
100
AcDbEntity
  8
0-5
  6
Continuous
 62
     6
370
     9
100
AcDbText
 10
207.6292274654514
 20
-248.9046729375179
 30
0.0
 40
19.05
  1
（別途）
 41
1.09
  7
ＭＳ ゴシック
100
AcDbText
  0
LINE
  5
A0
330
1F
100
AcDbEntity
  8
0-5
  6
Continuous
 62
     7
370
     9
100
AcDbLine
 10
112.0086175875218
 20
-213.7496413636593
 30
0.0
 11
421.6865076663634
 21
-213.7496413636593
 31
0.0
  0
LINE
  5
A1
330
1F
100
AcDbEntity
  8
0-5
  6
Continuous
 62
     7
370
     9
100
AcDbLine
 10
167.3418198274611
 20
-685.5398666143799
 30
0.0
 11
287.3485560319036
 21
-893.3976309709899
 31
0.0
  0
LINE
  5
A2
330
1F
100
AcDbEntity
  8
0-5
  6
Continuous
 62
     7
370
     9
100
AcDbLine
 10
167.3418198274611
 20
-685.5398666143799
 30
0.0
 11
182.5608555526791
 21
-705.3737001216608
 31
0.0
  0
LINE
  5
A3
330
1F
100
AcDbEntity
  8
0-5
  6
Continuous
 62
     7
370
     9
100
AcDbLine
 10
167.3418198274611
 20
-685.5398666143799
 30
0.0
 11
176.9089056365883
 21
-708.636854927162
 31
0.0
  0
LINE
  5
A4
330
1F
100
AcDbEntity
  8
0-5
  6
Continuous
 62
     6
370
     9
100
AcDbLine
 10
374.1680811860845
 20
-661.5403494755194
 30
0.0
 11
376.0184919519005
 21
-659.6899387097033
 31
0.0
  0
LINE
  5
A5
330
1F
100
AcDbEntity
  8
0-5
  6
Continuous
 62
     6
370
     9
100
AcDbLine
 10
364.7403010936318
 20
-661.5403494755194
 30
0.0
 11
380.3039666530253
 21
-645.9766839161259
 31
0.0
  0
LINE
  5
A6
330
1F
100
AcDbEntity
  8
0-5
  6
Continuous
 62
     6
370
     9
100
AcDbLine
 10
356.8828267456797
 20
-659.9700437310189
 30
0.0
 11
381.9793117805186
 21
-634.8735586961793
 31
0.0
  0
LINE
  5
A7
330
1F
100
AcDbEntity
  8
0-5
  6
Continuous
 62
     6
370
     9
100
AcDbLine
 10
355.7042716559916
 20
-651.7201581032036
 30
0.0
 11
372.5508710630152
 21
-634.8735586961793
 31
0.0
  0
LINE
  5
A8
330
1F
100
AcDbEntity
  8
0-5
  6
Continuous
 62
     6
370
     9
100
AcDbLine
 10
354.5257165663036
 20
-643.4706027879138
 30
0.0
 11
363.1224303455118
 21
-634.8735586961793
 31
0.0
  0
LINE
  5
A9
330
1F
100
AcDbEntity
  8
0-5
  6
Continuous
 62
     6
370
     9
100
AcDbLine
 10
350.3611362493796
 20
-638.2070726998599
 30
0.0
 11
353.6946502530593
 21
-634.8735586961793
 31
0.0
  0
LINE
  5
AA
330
1F
100
AcDbEntity
  8
0-5
  6
Continuous
 62
     6
370
     9
100
AcDbLine
 10
340.9333561569269
 20
-638.2070726998599
 30
0.0
 11
344.2668701606067
 21
-634.8735586961793
 31
0.0
  0
LINE
  5
AB
330
1F
100
AcDbEntity
  8
0-5
  6
Continuous
 62
     6
370
     9
100
AcDbLine
 10
331.5049154394236
 20
-638.2070726998599
 30
0.0
 11
334.8384294431033
 21
-634.8735586961793
 31
0.0
  0
LINE
  5
AC
330
1F
100
AcDbEntity
  8
0-5
  6
Continuous
 62
     6
370
     9
100
AcDbLine
 10
322.0771353469695
 20
-638.2070726998599
 30
0.0
 11
325.4106493506508
 21
-634.8735586961793
 31
0.0
  0
LINE
  5
AD
330
1F
100
AcDbEntity
  8
0-5
  6
Continuous
 62
     6
370
     9
100
AcDbLine
 10
312.6486946294676
 20
-638.2070726998599
 30
0.0
 11
315.9822086331474
 21
-634.8735586961793
 31
0.0
  0
LINE
  5
AE
330
1F
100
AcDbEntity
  8
0-5
  6
Continuous
 62
     6
370
     9
100
AcDbLine
 10
303.2209145370136
 20
-638.2070726998599
 30
0.0
 11
306.5544285406934
 21
-634.8735586961793
 31
0.0
  0
LINE
  5
AF
330
1F
100
AcDbEntity
  8
0-5
  6
Continuous
 62
     6
370
     9
100
AcDbLine
 10
293.7924738195102
 20
-638.2070726998599
 30
0.0
 11
297.1259878231915
 21
-634.8735586961793
 31
0.0
  0
LINE
  5
B0
330
1F
100
AcDbEntity
  8
0-5
  6
Continuous
 62
     6
370
     9
100
AcDbLine
 10
284.3646937270577
 20
-638.2070726998599
 30
0.0
 11
287.6982077307374
 21
-634.8735586961793
 31
0.0
  0
LINE
  5
B1
330
1F
100
AcDbEntity
  8
0-5
  6
Continuous
 62
     6
370
     9
100
AcDbLine
 10
246.6522521071458
 20
-638.2070726998599
 30
0.0
 11
249.9857661108256
 21
-634.8735586961793
 31
0.0
  0
LINE
  5
B2
330
1F
100
AcDbEntity
  8
0-5
  6
Continuous
 62
     6
370
     9
100
AcDbLine
 10
237.2238113896424
 20
-638.2070726998599
 30
0.0
 11
240.5573253933221
 21
-634.8735586961793
 31
0.0
  0
LINE
  5
B3
330
1F
100
AcDbEntity
  8
0-5
  6
Continuous
 62
     6
370
     9
100
AcDbLine
 10
227.7960312971899
 20
-638.2070726998599
 30
0.0
 11
231.1295453008696
 21
-634.8735586961793
 31
0.0
  0
LINE
  5
B4
330
1F
100
AcDbEntity
  8
0-5
  6
Continuous
 62
     6
370
     9
100
AcDbLine
 10
218.3675905796865
 20
-638.2070726998599
 30
0.0
 11
221.7011045833662
 21
-634.8735586961793
 31
0.0
  0
LINE
  5
B5
330
1F
100
AcDbEntity
  8
0-5
  6
Continuous
 62
     6
370
     9
100
AcDbLine
 10
208.9398104872339
 20
-638.2070726998599
 30
0.0
 11
212.2733244909136
 21
-634.8735586961793
 31
0.0
  0
LINE
  5
B6
330
1F
100
AcDbEntity
  8
0-5
  6
Continuous
 62
     6
370
     9
100
AcDbLine
 10
199.5120303947799
 20
-638.2070726998599
 30
0.0
 11
202.8448837734103
 21
-634.8735586961793
 31
0.0
  0
LINE
  5
B7
330
1F
100
AcDbEntity
  8
0-5
  6
Continuous
 62
     6
370
     9
100
AcDbLine
 10
190.0835896772764
 20
-638.2070726998599
 30
0.0
 11
193.4171036809578
 21
-634.8735586961793
 31
0.0
  0
LINE
  5
B8
330
1F
100
AcDbEntity
  8
0-5
  6
Continuous
 62
     6
370
     9
100
AcDbLine
 10
180.6558095848239
 20
-638.2070726998599
 30
0.0
 11
183.9886629634543
 21
-634.8735586961793
 31
0.0
  0
LINE
  5
B9
330
1F
100
AcDbEntity
  8
0-5
  6
Continuous
 62
     6
370
     9
100
AcDbLine
 10
171.2273688673206
 20
-638.2070726998599
 30
0.0
 11
174.5608828710003
 21
-634.8735586961793
 31
0.0
  0
LINE
  5
BA
330
1F
100
AcDbEntity
  8
0-5
  6
Continuous
 62
     6
370
     9
100
AcDbLine
 10
161.799588774868
 20
-638.2070726998599
 30
0.0
 11
165.1324421534984
 21
-634.8735586961793
 31
0.0
  0
LINE
  5
BB
330
1F
100
AcDbEntity
  8
0-5
  6
Continuous
 62
     6
370
     9
100
AcDbLine
 10
152.3711480573646
 20
-638.2070726998599
 30
0.0
 11
155.7046620610444
 21
-634.8735586961793
 31
0.0
  0
LINE
  5
BC
330
1F
100
AcDbEntity
  8
0-5
  6
Continuous
 62
     6
370
     9
100
AcDbLine
 10
142.9433679649121
 20
-638.2070726998599
 30
0.0
 11
146.276221343541
 21
-634.8735586961793
 31
0.0
  0
LINE
  5
BD
330
1F
100
AcDbEntity
  8
0-5
  6
Continuous
 62
     6
370
     9
100
AcDbLine
 10
133.5149272474087
 20
-638.2070726998599
 30
0.0
 11
136.8484412510884
 21
-634.8735586961793
 31
0.0
  0
LINE
  5
BE
330
1F
100
AcDbEntity
  8
0-5
  6
Continuous
 62
     6
370
     9
100
AcDbLine
 10
124.0871471549561
 20
-638.2070726998599
 30
0.0
 11
127.420000533585
 21
-634.8735586961793
 31
0.0
  0
LINE
  5
BF
330
1F
100
AcDbEntity
  8
0-5
  6
Continuous
 62
     6
370
     9
100
AcDbLine
 10
114.6587064374528
 20
-638.2070726998599
 30
0.0
 11
117.9922204411325
 21
-634.8735586961793
 31
0.0
  0
LINE
  5
C0
330
1F
100
AcDbEntity
  8
0-5
  6
Continuous
 62
     6
370
     9
100
AcDbLine
 10
105.2309263450002
 20
-638.2070726998599
 30
0.0
 11
108.5637797236291
 21
-634.8735586961793
 31
0.0
  0
LINE
  5
C1
330
1F
100
AcDbEntity
  8
0-5
  6
Continuous
 62
     6
370
     9
100
AcDbLine
 10
95.80248562749681
 20
-638.2070726998599
 30
0.0
 11
99.13599963117655
 21
-634.8735586961793
 31
0.0
  0
LINE
  5
C2
330
1F
100
AcDbEntity
  8
0-5
  6
Continuous
 62
     6
370
     9
100
AcDbLine
 10
86.37470553504275
 20
-638.2070726998599
 30
0.0
 11
89.70755891367317
 21
-634.8735586961793
 31
0.0
  0
LINE
  5
C3
330
1F
100
AcDbEntity
  8
0-5
  6
Continuous
 62
     6
370
     9
100
AcDbLine
 10
76.94626481753936
 20
-638.2070726998599
 30
0.0
 11
80.27977882122062
 21
-634.8735586961793
 31
0.0
  0
LINE
  5
C4
330
1F
100
AcDbEntity
  8
0-5
  6
Continuous
 62
     6
370
     9
100
AcDbLine
 10
67.51848472508682
 20
-638.2070726998599
 30
0.0
 11
70.85133810371723
 21
-634.8735586961793
 31
0.0
  0
LINE
  5
C5
330
1F
100
AcDbEntity
  8
0-5
  6
Continuous
 62
     6
370
     9
100
AcDbLine
 10
58.09004400758343
 20
-638.2070726998599
 30
0.0
 11
61.42355801126469
 21
-634.8735586961793
 31
0.0
  0
LINE
  5
C6
330
1F
100
AcDbEntity
  8
0-5
  6
Continuous
 62
     6
370
     9
100
AcDbLine
 10
48.66226391513088
 20
-638.2070726998599
 30
0.0
 11
51.9951172937613
 21
-634.8735586961793
 31
0.0
  0
LINE
  5
C7
330
1F
100
AcDbEntity
  8
0-5
  6
Continuous
 62
     6
370
     9
100
AcDbLine
 10
39.2338231976275
 20
-638.2070726998599
 30
0.0
 11
42.56733720130724
 21
-634.8735586961793
 31
0.0
  0
LINE
  5
C8
330
1F
100
AcDbEntity
  8
0-5
  6
Continuous
 62
     6
370
     9
100
AcDbLine
 10
29.80604310517495
 20
-638.2070726998599
 30
0.0
 11
33.13889648380385
 21
-634.8735586961793
 31
0.0
  0
LINE
  5
C9
330
1F
100
AcDbEntity
  8
0-5
  6
Continuous
 62
     6
370
     9
100
AcDbLine
 10
20.37760238767156
 20
-638.2070726998599
 30
0.0
 11
23.7111163913513
 21
-634.8735586961793
 31
0.0
  0
LINE
  5
CA
330
1F
100
AcDbEntity
  8
0-5
  6
Continuous
 62
     6
370
     9
100
AcDbLine
 10
-17.3348392322403
 20
-638.2070726998599
 30
0.0
 11
-14.00132522856056
 21
-634.8735586961793
 31
0.0
  0
LINE
  5
CB
330
1F
100
AcDbEntity
  8
0-5
  6
Continuous
 62
     6
370
     9
100
AcDbLine
 10
-26.76261932469436
 20
-638.2070726998599
 30
0.0
 11
-23.42976594606395
 21
-634.8735586961793
 31
0.0
  0
LINE
  5
CC
330
1F
100
AcDbEntity
  8
0-5
  6
Continuous
 62
     6
370
     9
100
AcDbLine
 10
-36.19106004219623
 20
-638.2070726998599
 30
0.0
 11
-32.8575460385165
 21
-634.8735586961793
 31
0.0
  0
LINE
  5
CD
330
1F
100
AcDbEntity
  8
0-5
  6
Continuous
 62
     6
370
     9
100
AcDbLine
 10
-45.61884013465029
 20
-638.2070726998599
 30
0.0
 11
-42.28532613096904
 21
-634.8735586961793
 31
0.0
  0
LINE
  5
CE
330
1F
100
AcDbEntity
  8
0-5
  6
Continuous
 62
     6
370
     9
100
AcDbLine
 10
-55.04728085215368
 20
-638.2070726998599
 30
0.0
 11
-51.71376684847242
 21
-634.8735586961793
 31
0.0
  0
LINE
  5
CF
330
1F
100
AcDbEntity
  8
0-5
  6
Continuous
 62
     6
370
     9
100
AcDbLine
 10
-64.47506094460623
 20
-638.2070726998599
 30
0.0
 11
-61.14220756597581
 21
-634.8735586961793
 31
0.0
  0
LINE
  5
D0
330
1F
100
AcDbEntity
  8
0-5
  6
Continuous
 62
     6
370
     9
100
AcDbLine
 10
-73.90350166210962
 20
-638.2070726998599
 30
0.0
 11
-70.56998765842988
 21
-634.8735586961793
 31
0.0
  0
LINE
  5
D1
330
1F
100
AcDbEntity
  8
0-5
  6
Continuous
 62
     6
370
     9
100
AcDbLine
 10
-83.33128175456216
 20
-638.2070726998599
 30
0.0
 11
-79.99776775088242
 21
-634.8735586961793
 31
0.0
  0
LINE
  5
D2
330
1F
100
AcDbEntity
  8
0-5
  6
Continuous
 62
     6
370
     9
100
AcDbLine
 10
-92.75972247206555
 20
-638.2070726998599
 30
0.0
 11
-89.42620846838581
 21
-634.8735586961793
 31
0.0
  0
LINE
  5
D3
330
1F
100
AcDbEntity
  8
0-5
  6
Continuous
 62
     6
370
     9
100
AcDbLine
 10
-102.1875025645181
 20
-638.2070726998599
 30
0.0
 11
-98.85398856083836
 21
-634.8735586961793
 31
0.0
  0
LINE
  5
D4
330
1F
100
AcDbEntity
  8
0-5
  6
Continuous
 62
     6
370
     9
100
AcDbLine
 10
-111.6152826569706
 20
-638.2070726998599
 30
0.0
 11
-108.2824292783417
 21
-634.8735586961793
 31
0.0
  0
LINE
  5
D5
330
1F
100
AcDbEntity
  8
0-5
  6
Continuous
 62
     6
370
     9
100
AcDbLine
 10
-121.043723374474
 20
-638.2070726998599
 30
0.0
 11
-117.7102093707943
 21
-634.8735586961793
 31
0.0
  0
LINE
  5
D6
330
1F
100
AcDbEntity
  8
0-5
  6
Continuous
 62
     6
370
     9
100
AcDbLine
 10
-130.4721640919774
 20
-638.2070726998599
 30
0.0
 11
-127.1386500882977
 21
-634.8735586961793
 31
0.0
  0
LINE
  5
D7
330
1F
100
AcDbEntity
  8
0-5
  6
Continuous
 62
     6
370
     9
100
AcDbLine
 10
-139.89994418443
 20
-638.2070726998599
 30
0.0
 11
-136.5664301807502
 21
-634.8735586961793
 31
0.0
  0
LINE
  5
D8
330
1F
100
AcDbEntity
  8
0-5
  6
Continuous
 62
     6
370
     9
100
AcDbLine
 10
-149.3283849019334
 20
-638.2070726998599
 30
0.0
 11
-145.9948708982536
 21
-634.8735586961793
 31
0.0
  0
LINE
  5
D9
330
1F
100
AcDbEntity
  8
0-5
  6
Continuous
 62
     6
370
     9
100
AcDbLine
 10
-158.7561649943874
 20
-638.2070726998599
 30
0.0
 11
-155.4226509907061
 21
-634.8735586961793
 31
0.0
  0
LINE
  5
DA
330
1F
100
AcDbEntity
  8
0-5
  6
Continuous
 62
     6
370
     9
100
AcDbLine
 10
-168.1846057118893
 20
-638.2070726998599
 30
0.0
 11
-164.8510917082095
 21
-634.8735586961793
 31
0.0
  0
LINE
  5
DB
330
1F
100
AcDbEntity
  8
0-5
  6
Continuous
 62
     6
370
     9
100
AcDbLine
 10
-177.6123858043433
 20
-638.2070726998599
 30
0.0
 11
-174.2788718006636
 21
-634.8735586961793
 31
0.0
  0
LINE
  5
DC
330
1F
100
AcDbEntity
  8
0-5
  6
Continuous
 62
     6
370
     9
100
AcDbLine
 10
-187.0401658967959
 20
-638.2070726998599
 30
0.0
 11
-183.7073125181655
 21
-634.8735586961793
 31
0.0
  0
LINE
  5
DD
330
1F
100
AcDbEntity
  8
0-5
  6
Continuous
 62
     6
370
     9
100
AcDbLine
 10
-196.4686066142993
 20
-638.2070726998599
 30
0.0
 11
-193.1350926106195
 21
-634.8735586961793
 31
0.0
  0
LINE
  5
DE
330
1F
100
AcDbEntity
  8
0-5
  6
Continuous
 62
     6
370
     9
100
AcDbLine
 10
-205.8970473318026
 20
-638.2070726998599
 30
0.0
 11
-202.5635333281229
 21
-634.8735586961793
 31
0.0
  0
LINE
  5
DF
330
1F
100
AcDbEntity
  8
0-5
  6
Continuous
 62
     6
370
     9
100
AcDbLine
 10
-215.3248274242552
 20
-638.2070726998599
 30
0.0
 11
-211.9913134205755
 21
-634.8735586961793
 31
0.0
  0
LINE
  5
E0
330
1F
100
AcDbEntity
  8
0-5
  6
Continuous
 62
     6
370
     9
100
AcDbLine
 10
-224.7526075167077
 20
-638.2070726998599
 30
0.0
 11
-221.4197541380788
 21
-634.8735586961793
 31
0.0
  0
LINE
  5
E1
330
1F
100
AcDbEntity
  8
0-5
  6
Continuous
 62
     6
370
     9
100
AcDbLine
 10
-234.1810482342111
 20
-638.2070726998599
 30
0.0
 11
-230.8475342305314
 21
-634.8735586961793
 31
0.0
  0
LINE
  5
E2
330
1F
100
AcDbEntity
  8
0-5
  6
Continuous
 62
     6
370
     9
100
AcDbLine
 10
-281.3219305716264
 20
-638.2070726998599
 30
0.0
 11
-277.9884165679466
 21
-634.8735586961793
 31
0.0
  0
LINE
  5
E3
330
1F
100
AcDbEntity
  8
0-5
  6
Continuous
 62
     6
370
     9
100
AcDbLine
 10
-290.7497106640805
 20
-638.2070726998599
 30
0.0
 11
-287.4161966603992
 21
-634.8735586961793
 31
0.0
  0
LINE
  5
E4
330
1F
100
AcDbEntity
  8
0-5
  6
Continuous
 62
     6
370
     9
100
AcDbLine
 10
-300.1781513815838
 20
-638.2070726998599
 30
0.0
 11
-296.8446373779026
 21
-634.8735586961793
 31
0.0
  0
LINE
  5
E5
330
1F
100
AcDbEntity
  8
0-5
  6
Continuous
 62
     6
370
     9
100
AcDbLine
 10
-309.6059314740364
 20
-638.2070726998599
 30
0.0
 11
-306.2724174703566
 21
-634.8735586961793
 31
0.0
  0
LINE
  5
E6
330
1F
100
AcDbEntity
  8
0-5
  6
Continuous
 62
     6
370
     9
100
AcDbLine
 10
-319.0337115664889
 20
-638.2070726998599
 30
0.0
 11
-315.7008581878585
 21
-634.8735586961793
 31
0.0
  0
LINE
  5
E7
330
1F
100
AcDbEntity
  8
0-5
  6
Continuous
 62
     6
370
     9
100
AcDbLine
 10
-351.7954290596518
 20
-661.5403494755194
 30
0.0
 11
-343.3539621672578
 21
-653.0985522705992
 31
0.0
  0
LINE
  5
E8
330
1F
100
AcDbEntity
  8
0-5
  6
Continuous
 62
     6
370
     9
100
AcDbLine
 10
-328.4621522839923
 20
-638.2070726998599
 30
0.0
 11
-325.1286382803125
 21
-634.8735586961793
 31
0.0
  0
LINE
  5
E9
330
1F
100
AcDbEntity
  8
0-5
  6
Continuous
 62
     6
370
     9
100
AcDbLine
 10
-361.2238697771552
 20
-661.5403494755194
 30
0.0
 11
-341.7823351726572
 21
-642.0988148710205
 31
0.0
  0
LINE
  5
EA
330
1F
100
AcDbEntity
  8
0-5
  6
Continuous
 62
     6
370
     9
100
AcDbLine
 10
-337.8899323764448
 20
-638.2070726998599
 30
0.0
 11
-334.5570789978159
 21
-634.8735586961793
 31
0.0
  0
LINE
  5
EB
330
1F
100
AcDbEntity
  8
0-5
  6
Continuous
 62
     6
370
     9
100
AcDbLine
 10
-364.7403769197603
 20
-655.6287462131472
 30
0.0
 11
-343.9848590902685
 21
-634.8735586961793
 31
0.0
  0
LINE
  5
EC
330
1F
100
AcDbEntity
  8
0-5
  6
Continuous
 62
     6
370
     9
100
AcDbLine
 10
-366.9851808405905
 20
-648.445439728998
 30
0.0
 11
-353.4132998077719
 21
-634.8735586961793
 31
0.0
  0
LINE
  5
ED
330
1F
100
AcDbEntity
  8
0-5
  6
Continuous
 62
     6
370
     9
100
AcDbLine
 10
-369.2299847614192
 20
-641.2621332448496
 30
0.0
 11
-362.8410799002244
 21
-634.8735586961793
 31
0.0
  0
LINE
  5
EE
330
1F
100
AcDbEntity
  8
0-5
  6
Continuous
 62
     6
370
     9
100
AcDbLine
 10
-271.893489854123
 20
-638.2070726998599
 30
0.0
 11
-271.2262585533479
 21
-637.5398413990832
 31
0.0
  0
LINE
  5
EF
330
1F
100
AcDbEntity
  8
0-5
  6
Continuous
 62
     6
370
     9
100
AcDbLine
 10
-7.906398514736912
 20
-638.2070726998599
 30
0.0
 11
-7.393092850674412
 21
-637.6934367232719
 31
0.0
  0
TEXT
  5
F0
330
1F
100
AcDbEntity
  8
0-5
  6
Continuous
 62
     6
370
     9
100
AcDbText
 10
-656.6747676820404
 20
-754.4796352064296
 30
0.0
 40
19.05
  1
ルーフドレイン本体
 41
1.106666666666667
  7
ＭＳ ゴシック
100
AcDbText
  0
TEXT
  5
F1
330
1F
100
AcDbEntity
  8
0-5
  6
Continuous
 62
     6
370
     9
100
AcDbText
 10
-573.3086783778535
 20
-804.1251097648379
 30
0.0
 40
19.05
  1
（別途）
 41
1.090000000000001
  7
ＭＳ ゴシック
100
AcDbText
  0
LINE
  5
F2
330
1F
100
AcDbEntity
  8
0-5
  6
Continuous
 62
     7
370
     9
100
AcDbLine
 10
-398.0428250174152
 20
-768.0579281188021
 30
0.0
 11
-665.8356607239089
 21
-768.0579281188021
 31
0.0
  0
LINE
  5
F3
330
1F
100
AcDbEntity
  8
0-5
  6
Continuous
 62
     7
370
     9
100
AcDbLine
 10
-340.393701316982
 20
-668.2067168578287
 30
0.0
 11
-355.6127370422
 21
-688.0405503651094
 31
0.0
  0
LINE
  5
F4
330
1F
100
AcDbEntity
  8
0-5
  6
Continuous
 62
     7
370
     9
100
AcDbLine
 10
-340.393701316982
 20
-668.2067168578287
 30
0.0
 11
-398.0428250174152
 21
-768.0579281188021
 31
0.0
  0
LINE
  5
F5
330
1F
100
AcDbEntity
  8
0-5
  6
Continuous
 62
     7
370
     9
100
AcDbLine
 10
-340.393701316982
 20
-668.2067168578287
 30
0.0
 11
-349.9607871261093
 21
-691.3037051706108
 31
0.0
  0
LINE
  5
F6
330
1F
100
AcDbEntity
  8
0-5
  6
Continuous
 62
     7
370
     9
100
AcDbLine
 10
-227.0601708173133
 20
-904.8729986181052
 30
0.0
 11
-275.1728648101345
 21
-988.2064006847226
 31
0.0
  0
TEXT
  5
F7
330
1F
100
AcDbEntity
  8
0-5
  6
Continuous
 62
     6
370
     9
100
AcDbText
 10
-721.6136798564314
 20
-977.1869622335408
 30
0.0
 40
19.05
  1
スペーサー：硬質ポリ塩化ビニル管
 41
1.1125
  7
ＭＳ ゴシック
100
AcDbText
  0
LINE
  5
F8
330
1F
100
AcDbEntity
  8
0-5
  6
Continuous
 62
     7
370
     9
100
AcDbLine
 10
-275.1728648101345
 20
-988.2064006847226
 30
0.0
 11
-722.660298766805
 21
-988.2064006847226
 31
0.0
  0
TEXT
  5
F9
330
1F
100
AcDbEntity
  8
0-5
  6
Continuous
 62
     6
370
     9
100
AcDbText
 10
-562.5276054796316
 20
-1022.191575379609
 30
0.0
 40
19.05
  1
（別途）
 41
1.09
  7
ＭＳ ゴシック
100
AcDbText
  0
LINE
  5
FA
330
1F
100
AcDbEntity
  8
0-5
  6
Continuous
 62
     7
370
     9
100
AcDbLine
 10
-227.0601708173133
 20
-904.8729986181052
 30
0.0
 11
-242.2792045483099
 21
-924.7066613213359
 31
0.0
  0
LINE
  5
FB
330
1F
100
AcDbEntity
  8
0-5
  6
Continuous
 62
     7
370
     9
100
AcDbLine
 10
-227.0601708173133
 20
-904.8729986181052
 30
0.0
 11
-236.6274315595008
 21
-927.9698977022479
 31
0.0
  0
LINE
  5
FC
330
1F
100
AcDbEntity
  8
0-A
  6
Continuous
 62
     4
370
     9
100
AcDbLine
 10
257.9390310910678
 20
-656.308199077353
 30
0.0
 11
261.2725450947476
 21
-656.308199077353
 31
0.0
  0
LINE
  5
FD
330
1F
100
AcDbEntity
  8
0-A
  6
Continuous
 62
     4
370
     9
100
AcDbLine
 10
257.9390310910678
 20
-646.7013895962764
 30
0.0
 11
257.9390310910678
 21
-656.308199077353
 31
0.0
  0
LINE
  5
FE
330
1F
100
AcDbEntity
  8
0-A
  6
Continuous
 62
     4
370
     9
100
AcDbLine
 10
251.2726637087576
 20
-699.6418992500423
 30
0.0
 11
267.9389124770577
 21
-699.6418992500423
 31
0.0
  0
LINE
  5
FF
330
1F
100
AcDbEntity
  8
0-A
  6
Continuous
 62
     4
370
     9
100
AcDbLine
 10
249.6059067069177
 20
-697.9751422482025
 30
0.0
 11
269.6056694788975
 21
-697.9751422482025
 31
0.0
  0
LINE
  5
100
330
1F
100
AcDbEntity
  8
0-A
  6
Continuous
 62
     4
370
     9
100
AcDbLine
 10
249.6059067069177
 20
-697.9751422482025
 30
0.0
 11
251.2726637087576
 21
-699.6418992500423
 31
0.0
  0
LINE
  5
101
330
1F
100
AcDbEntity
  8
0-A
  6
Continuous
 62
     4
370
     9
100
AcDbLine
 10
269.6056694788975
 20
-697.9751422482025
 30
0.0
 11
267.9389124770577
 21
-699.6418992500423
 31
0.0
  0
LINE
  5
102
330
1F
100
AcDbEntity
  8
0-A
  6
Continuous
 62
     4
370
     9
100
AcDbLine
 10
267.9389124770577
 20
-659.641382768508
 30
0.0
 11
267.9389124770577
 21
-699.6418992500423
 31
0.0
  0
LINE
  5
103
330
1F
100
AcDbEntity
  8
0-A
  6
Continuous
 62
     4
370
     9
100
AcDbLine
 10
251.2726637087576
 20
-659.641382768508
 30
0.0
 11
251.2726637087576
 21
-699.6418992500423
 31
0.0
  0
LINE
  5
104
330
1F
100
AcDbEntity
  8
0-A
  6
Continuous
 62
     4
370
     9
100
AcDbLine
 10
249.6059067069177
 20
-659.641382768508
 30
0.0
 11
249.6059067069177
 21
-697.9751422482025
 31
0.0
  0
LINE
  5
105
330
1F
100
AcDbEntity
  8
0-A
  6
Continuous
 62
     4
370
     9
100
AcDbLine
 10
261.2725450947476
 20
-646.7017199088011
 30
0.0
 11
261.2725450947476
 21
-656.308199077353
 31
0.0
  0
LINE
  5
106
330
1F
100
AcDbEntity
  8
0-A
  6
Continuous
 62
     4
370
     9
100
AcDbLine
 10
242.1064911362123
 20
-659.641382768508
 30
0.0
 11
277.1057456746523
 21
-659.641382768508
 31
0.0
  0
LINE
  5
107
330
1F
100
AcDbEntity
  8
0-A
  6
JWW_CENTER1
 62
     4
370
     9
100
AcDbLine
 10
259.6064487179569
 20
-642.6005595967033
 30
0.0
 11
259.6064487179569
 21
-715.8268826692176
 31
0.0
  0
LINE
  5
108
330
1F
100
AcDbEntity
  8
0-A
  6
Continuous
 62
     4
370
     9
100
AcDbLine
 10
269.6056694788975
 20
-659.641382768508
 30
0.0
 11
269.6056694788975
 21
-697.9751422482025
 31
0.0
  0
LINE
  5
109
330
1F
100
AcDbEntity
  8
0-4
  6
Continuous
 62
     6
370
     9
100
AcDbLine
 10
-260.3933289789642
 20
-501.5402654245316
 30
0.0
 11
-260.3933289789642
 21
-474.8734746451923
 31
0.0
  0
LINE
  5
10A
330
1F
100
AcDbEntity
  8
0-4
  6
Continuous
 62
     6
370
     9
100
AcDbLine
 10
272.9398441076281
 20
-501.5402654245316
 30
0.0
 11
272.9398441076281
 21
-474.8734746451923
 31
0.0
  0
LINE
  5
10B
330
1F
100
AcDbEntity
  8
0-4
  6
Continuous
 62
     6
370
     9
100
AcDbLine
 10
20.44036176744691
 20
-482.5400283536158
 30
0.0
 11
20.44036176744691
 21
-474.8734746451923
 31
0.0
  0
LINE
  5
10C
330
1F
100
AcDbEntity
  8
0-4
  6
Continuous
 62
     6
370
     9
100
AcDbLine
 10
-7.893186013732216
 20
-482.5400283536158
 30
0.0
 11
-7.893186013732216
 21
-474.8734746451923
 31
0.0
  0
LINE
  5
10D
330
1F
100
AcDbEntity
  8
0-B
  6
Continuous
 62
     2
370
     9
100
AcDbLine
 10
-30.35377709798086
 20
-438.2068024798632
 30
0.0
 11
-40.39329598698787
 21
-438.2068024798632
 31
0.0
  0
LINE
  5
10E
330
1F
100
AcDbEntity
  8
0-B
  6
Continuous
 62
     2
370
     9
100
AcDbLine
 10
-19.07360436456123
 20
-444.4318723285896
 30
0.0
 11
-10.39299120396736
 21
-458.2068955643676
 31
0.0
  0
LINE
  5
10F
330
1F
100
AcDbEntity
  8
0-B
  6
Continuous
 62
     2
370
     9
100
AcDbLine
 10
-10.39299120396736
 20
-464.5403079213395
 30
0.0
 11
-10.39299120396736
 21
-470.8733899657861
 31
0.0
  0
LINE
  5
110
330
1F
100
AcDbEntity
  8
0-B
  6
Continuous
 62
     2
370
     9
100
AcDbLine
 10
42.90095285169555
 20
-438.2068024798632
 30
0.0
 11
52.94047174070104
 21
-438.2068024798632
 31
0.0
  0
LINE
  5
111
330
1F
100
AcDbEntity
  8
0-B
  6
Continuous
 62
     2
370
     9
100
AcDbLine
 10
31.62011949322508
 20
-444.4318723285896
 30
0.0
 11
22.94016695768205
 21
-458.2068955643676
 31
0.0
  0
LINE
  5
112
330
1F
100
AcDbEntity
  8
0-B
  6
Continuous
 62
     2
370
     9
100
AcDbLine
 10
22.94016695768205
 20
-464.5403079213395
 30
0.0
 11
22.94016695768205
 21
-470.8733899657861
 31
0.0
  0
LINE
  5
113
330
1F
100
AcDbEntity
  8
0-8
  6
Continuous
 62
     6
370
     9
100
AcDbLine
 10
19.60665295400231
 20
-373.7945388280973
 30
0.0
 11
-7.05947720028762
 21
-373.7945388280973
 31
0.0
  0
LINE
  5
114
330
1F
100
AcDbEntity
  8
0-8
  6
Continuous
 62
     6
370
     9
100
AcDbLine
 10
-7.05947720028762
 20
-373.7945388280973
 30
0.0
 11
-4.804763903703861
 21
-371.5394952189889
 31
0.0
  0
LINE
  5
115
330
1F
100
AcDbEntity
  8
0-8
  6
Continuous
 62
     6
370
     9
100
AcDbLine
 10
-4.804763903703861
 20
-371.5394952189889
 30
0.0
 11
17.35193965741855
 21
-371.5394952189889
 31
0.0
  0
LINE
  5
116
330
1F
100
AcDbEntity
  8
0-8
  6
Continuous
 62
     6
370
     9
100
AcDbLine
 10
17.35193965741855
 20
-371.5394952189889
 30
0.0
 11
19.60665295400231
 21
-373.7945388280973
 31
0.0
  0
LINE
  5
117
330
1F
100
AcDbEntity
  8
0-B
  6
Continuous
 62
     2
370
     9
100
AcDbLine
 10
-10.39299120396736
 20
-464.5403079213395
 30
0.0
 11
-4.804763903703861
 21
-464.5403079213395
 31
0.0
  0
LINE
  5
118
330
1F
100
AcDbEntity
  8
0-B
  6
Continuous
 62
     2
370
     9
100
AcDbLine
 10
17.35193965741855
 20
-464.5403079213395
 30
0.0
 11
22.94016695768205
 21
-464.5403079213395
 31
0.0
  0
LINE
  5
119
330
1F
100
AcDbEntity
  8
0-B
  6
Continuous
 62
     2
370
     9
100
AcDbLine
 10
-10.39299120396736
 20
-458.2068955643676
 30
0.0
 11
-7.05947720028762
 21
-458.2068955643676
 31
0.0
  0
LINE
  5
11A
330
1F
100
AcDbEntity
  8
0-B
  6
Continuous
 62
     2
370
     9
100
AcDbLine
 10
19.60665295400231
 20
-458.2068955643676
 30
0.0
 11
22.94016695768205
 21
-458.2068955643676
 31
0.0
  0
LINE
  5
11B
330
1F
100
AcDbEntity
  8
0-B
  6
Continuous
 62
     2
370
     9
100
AcDbLine
 10
25.60711028563601
 20
-474.8734746451923
 30
0.0
 11
19.60665295400231
 21
-474.8734746451923
 31
0.0
  0
LINE
  5
11C
330
1F
100
AcDbEntity
  8
0-B
  6
Continuous
 62
     2
370
     9
100
AcDbLine
 10
-7.05947720028762
 20
-474.8734746451923
 30
0.0
 11
-13.05993453192132
 21
-474.8734746451923
 31
0.0
  0
LINE
  5
11D
330
1F
100
AcDbEntity
  8
0-4
  6
Continuous
 62
     6
370
     9
100
AcDbLine
 10
-260.3933289789642
 20
-501.5402654245316
 30
0.0
 11
-7.05947720028762
 21
-501.5402654245316
 31
0.0
  0
LINE
  5
11E
330
1F
100
AcDbEntity
  8
0-4
  6
Continuous
 62
     6
370
     9
100
AcDbLine
 10
19.60665295400231
 20
-501.5402654245316
 30
0.0
 11
272.9398441076281
 21
-501.5402654245316
 31
0.0
  0
LINE
  5
11F
330
1F
100
AcDbEntity
  8
0-1
  6
Continuous
 62
     4
370
     9
100
AcDbLine
 10
489.6070237209741
 20
-501.5402654245316
 30
0.0
 11
19.60665295400231
 21
-501.5402654245316
 31
0.0
  0
LINE
  5
120
330
1F
100
AcDbEntity
  8
0-1
  6
Continuous
 62
     4
370
     9
100
AcDbLine
 10
-7.05947720028762
 20
-501.5402654245316
 30
0.0
 11
-477.0598479672594
 21
-501.5402654245316
 31
0.0
  0
LINE
  5
121
330
1F
100
AcDbEntity
  8
0-4
  6
Continuous
 62
     6
370
     9
100
AcDbLine
 10
-260.3933289789642
 20
-482.5400283536158
 30
0.0
 11
-7.05947720028762
 21
-482.5400283536158
 31
0.0
  0
LINE
  5
122
330
1F
100
AcDbEntity
  8
0-4
  6
Continuous
 62
     6
370
     9
100
AcDbLine
 10
19.60665295400231
 20
-482.5400283536158
 30
0.0
 11
272.9398441076281
 21
-482.5400283536158
 31
0.0
  0
LINE
  5
123
330
1F
100
AcDbEntity
  8
0-4
  6
Continuous
 62
     6
370
     9
100
AcDbLine
 10
-260.3933289789642
 20
-474.8734746451923
 30
0.0
 11
-7.05947720028762
 21
-474.8734746451923
 31
0.0
  0
LINE
  5
124
330
1F
100
AcDbEntity
  8
0-4
  6
Continuous
 62
     6
370
     9
100
AcDbLine
 10
19.60665295400231
 20
-474.8734746451923
 30
0.0
 11
272.9398441076281
 21
-474.8734746451923
 31
0.0
  0
LINE
  5
125
330
1F
100
AcDbEntity
  8
0-0
  6
Continuous
 62
     3
370
     9
100
AcDbLine
 10
-282.0598487527839
 20
-638.2070726998599
 30
0.0
 11
-283.2007482146059
 21
-643.9531893871388
 31
0.0
  0
LINE
  5
126
330
1F
100
AcDbEntity
  8
0-0
  6
Continuous
 62
     3
370
     9
100
AcDbLine
 10
-205.3936510434952
 20
-721.540298416508
 30
0.0
 11
-202.0601370398139
 21
-724.8738124201884
 31
0.0
  0
LINE
  5
127
330
1F
100
AcDbEntity
  8
0-0
  6
Continuous
 62
     3
370
     9
100
AcDbLine
 10
-175.6741119068412
 20
-724.8738124201884
 30
0.0
 11
-202.0601370398139
 21
-724.8738124201884
 31
0.0
  0
LINE
  5
128
330
1F
100
AcDbEntity
  8
0-0
  6
Continuous
 62
     3
370
     9
100
AcDbLine
 10
-146.5359228144287
 20
-728.4081564391511
 30
0.0
 11
-137.0262252157416
 21
-861.5402893829905
 31
0.0
  0
LINE
  5
129
330
1F
100
AcDbEntity
  8
0-0
  6
Continuous
 62
     3
370
     9
100
AcDbLine
 10
294.6063638814462
 20
-638.2070726998599
 30
0.0
 11
295.7479239683191
 21
-643.9531893871388
 31
0.0
  0
LINE
  5
12A
330
1F
100
AcDbEntity
  8
0-0
  6
Continuous
 62
     3
370
     9
100
AcDbLine
 10
217.940166172159
 20
-721.540298416508
 30
0.0
 11
214.6066521684778
 21
-724.8738124201884
 31
0.0
  0
LINE
  5
12B
330
1F
100
AcDbEntity
  8
0-0
  6
Continuous
 62
     3
370
     9
100
AcDbLine
 10
188.220627035505
 20
-724.8738124201884
 30
0.0
 11
214.6066521684778
 21
-724.8738124201884
 31
0.0
  0
LINE
  5
12C
330
1F
100
AcDbEntity
  8
0-0
  6
JWW_DASHED1
 62
     3
370
     9
100
AcDbLine
 10
-287.6163660506328
 20
-668.2916071767891
 30
0.0
 11
-294.8132153483122
 21
-665.953324811346
 31
0.0
  0
LINE
  5
12D
330
1F
100
AcDbEntity
  8
0-0
  6
JWW_DASHED1
 62
     3
370
     9
100
AcDbLine
 10
232.866328558038
 20
-703.1481667043693
 30
0.0
 11
268.7884762917088
 21
-700.6364702632297
 31
0.0
  0
LINE
  5
12E
330
1F
100
AcDbEntity
  8
0-0
  6
Continuous
 62
     3
370
     9
100
AcDbLine
 10
180.7284783403528
 20
-706.7941563568286
 30
0.0
 11
232.866328558038
 21
-703.1481667043693
 31
0.0
  0
LINE
  5
12F
330
1F
100
AcDbEntity
  8
0-0
  6
JWW_DASHED1
 62
     3
370
     9
100
AcDbLine
 10
278.0167476189786
 20
-691.8795549093288
 30
0.0
 11
280.0045683952515
 21
-675.6859833645001
 31
0.0
  0
LINE
  5
130
330
1F
100
AcDbEntity
  8
0-0
  6
Continuous
 62
     3
370
     9
100
AcDbLine
 10
280.0045683952515
 20
-675.6859833645001
 30
0.0
 11
284.6064824954578
 21
-638.2070726998599
 31
0.0
  0
LINE
  5
131
330
1F
100
AcDbEntity
  8
0-0
  6
Continuous
 62
     3
370
     9
100
AcDbLine
 10
-159.0494825167092
 20
-740.3529179731463
 30
0.0
 11
-150.3933124829753
 21
-861.5402893829905
 31
0.0
  0
LINE
  5
132
330
1F
100
AcDbEntity
  8
0-0
  6
Continuous
 62
     3
370
     9
100
AcDbLine
 10
349.6067024419661
 20
-638.2070726998599
 30
0.0
 11
281.9058472899399
 21
-660.2042353113413
 31
0.0
  0
LINE
  5
133
330
1F
100
AcDbEntity
  8
0-0
  6
Continuous
 62
     3
370
     9
100
AcDbLine
 10
241.8448836163051
 20
-685.0510040771774
 30
0.0
 11
237.2905345197198
 21
-699.6494964381211
 31
0.0
  0
LINE
  5
134
330
1F
100
AcDbEntity
  8
0-0
  6
Continuous
 62
     3
370
     9
100
AcDbLine
 10
-229.2983684876412
 20
-685.0510040771774
 30
0.0
 11
-224.7440193910559
 21
-699.6494964381211
 31
0.0
  0
LINE
  5
135
330
1F
100
AcDbEntity
  8
0-0
  6
Continuous
 62
     3
370
     9
100
AcDbLine
 10
-280.91630679076
 20
-733.7955537241317
 30
0.0
 11
-287.9731035777808
 21
-674.2864491954958
 31
0.0
  0
LINE
  5
136
330
1F
100
AcDbEntity
  8
0-0
  6
Continuous
 62
     3
370
     9
100
AcDbLine
 10
-300.3928545229223
 20
-798.2064961257968
 30
0.0
 11
-300.3928545229223
 21
-818.2069195228266
 31
0.0
  0
LINE
  5
137
330
1F
100
AcDbEntity
  8
0-0
  6
Continuous
 62
     3
370
     9
100
AcDbLine
 10
-253.1429690522122
 20
-717.5395531120516
 30
0.0
 11
-274.3093956629741
 21
-717.5395531120516
 31
0.0
  0
LINE
  5
138
330
1F
100
AcDbEntity
  8
0-0
  6
Continuous
 62
     3
370
     9
100
AcDbLine
 10
-253.1429690522122
 20
-717.5395531120516
 30
0.0
 11
-255.8601198839877
 21
-714.8732704091478
 31
0.0
  0
LINE
  5
139
330
1F
100
AcDbEntity
  8
0-0
  6
Continuous
 62
     3
370
     9
100
AcDbLine
 10
-271.5929054562495
 20
-714.8732704091478
 30
0.0
 11
-274.3093956629741
 21
-717.5395531120516
 31
0.0
  0
LINE
  5
13A
330
1F
100
AcDbEntity
  8
0-0
  6
Continuous
 62
     3
370
     9
100
AcDbLine
 10
-255.8601198839877
 20
-714.8732704091478
 30
0.0
 11
-271.5929054562495
 21
-714.8732704091478
 31
0.0
  0
LINE
  5
13B
330
1F
100
AcDbEntity
  8
0-0
  6
Continuous
 62
     3
370
     9
100
AcDbLine
 10
-280.3930917509425
 20
-798.2064961257968
 30
0.0
 11
-300.3928545229223
 21
-798.2064961257968
 31
0.0
  0
LINE
  5
13C
330
1F
100
AcDbEntity
  8
0-0
  6
Continuous
 62
     3
370
     9
100
AcDbLine
 10
-253.7263009716033
 20
-791.5401287434872
 30
0.0
 11
-253.7263009716033
 21
-748.2067588833227
 31
0.0
  0
LINE
  5
13D
330
1F
100
AcDbEntity
  8
0-0
  6
Continuous
 62
     3
370
     9
100
AcDbLine
 10
-280.3930917509425
 20
-818.2069195228266
 30
0.0
 11
-300.3928545229223
 21
-818.2069195228266
 31
0.0
  0
LINE
  5
13E
330
1F
100
AcDbEntity
  8
0-0
  6
Continuous
 62
     3
370
     9
100
AcDbLine
 10
-273.726063743583
 20
-791.5401287434872
 30
0.0
 11
-273.726063743583
 21
-748.2067588833227
 31
0.0
  0
LINE
  5
13F
330
1F
100
AcDbEntity
  8
0-0
  6
Continuous
 62
     3
370
     9
100
AcDbLine
 10
-271.5929054562495
 20
-748.2067588833227
 30
0.0
 11
-271.5929054562495
 21
-711.5400867179935
 31
0.0
  0
LINE
  5
140
330
1F
100
AcDbEntity
  8
0-0
  6
Continuous
 62
     3
370
     9
100
AcDbLine
 10
-255.8601198839877
 20
-748.2067588833227
 30
0.0
 11
-255.8601198839877
 21
-711.5400867179935
 31
0.0
  0
LINE
  5
141
330
1F
100
AcDbEntity
  8
0-0
  6
Continuous
 62
     3
370
     9
100
AcDbLine
 10
-253.1429690522122
 20
-748.2067588833227
 30
0.0
 11
-253.1429690522122
 21
-717.5395531120516
 31
0.0
  0
LINE
  5
142
330
1F
100
AcDbEntity
  8
0-0
  6
Continuous
 62
     3
370
     9
100
AcDbLine
 10
-274.3093956629741
 20
-748.2067588833227
 30
0.0
 11
-274.3093956629741
 21
-717.5395531120516
 31
0.0
  0
LINE
  5
143
330
1F
100
AcDbEntity
  8
0-0
  6
Continuous
 62
     3
370
     9
100
AcDbLine
 10
-253.1429690522122
 20
-748.2067588833227
 30
0.0
 11
-274.3093956629741
 21
-748.2067588833227
 31
0.0
  0
LINE
  5
144
330
1F
100
AcDbEntity
  8
0-0
  6
Continuous
 62
     3
370
     9
100
AcDbLine
 10
171.5966582704225
 20
-740.3529179731463
 30
0.0
 11
162.9398276116392
 21
-861.5402893829905
 31
0.0
  0
LINE
  5
145
330
1F
100
AcDbEntity
  8
0-0
  6
Continuous
 62
     3
370
     9
100
AcDbLine
 10
159.0824379430925
 20
-728.4081564391511
 30
0.0
 11
149.5727403444054
 21
-861.5402893829905
 31
0.0
  0
LINE
  5
146
330
1F
100
AcDbEntity
  8
0-0
  6
JWW_PHANTOM1
 62
     3
370
     9
100
AcDbLine
 10
256.2729347142772
 20
-738.2068774973327
 30
0.0
 11
246.2730533282873
 21
-738.2068774973327
 31
0.0
  0
LINE
  5
147
330
1F
100
AcDbEntity
  8
0-0
  6
JWW_PHANTOM1
 62
     3
370
     9
100
AcDbLine
 10
246.2730533282873
 20
-738.2068774973327
 30
0.0
 11
242.9401999496584
 21
-721.540298416508
 31
0.0
  0
LINE
  5
148
330
1F
100
AcDbEntity
  8
0-0
  6
Continuous
 62
     3
370
     9
100
AcDbLine
 10
-340.393701316982
 20
-668.2067168578287
 30
0.0
 11
-343.7265546956124
 21
-664.8735331666744
 31
0.0
  0
LINE
  5
149
330
1F
100
AcDbEntity
  8
0-0
  6
Continuous
 62
     3
370
     9
100
AcDbLine
 10
-340.393701316982
 20
-668.2067168578287
 30
0.0
 11
-323.7267919236326
 21
-668.2067168578287
 31
0.0
  0
LINE
  5
14A
330
1F
100
AcDbEntity
  8
0-0
  6
Continuous
 62
     3
370
     9
100
AcDbLine
 10
-294.8132153483122
 20
-665.953324811346
 30
0.0
 11
-295.3278422624763
 21
-665.7861866736271
 31
0.0
  0
LINE
  5
14B
330
1F
100
AcDbEntity
  8
0-0
  6
Continuous
 62
     3
370
     9
100
AcDbLine
 10
352.9402164456459
 20
-668.2067168578287
 30
0.0
 11
356.2737304493256
 21
-664.8735331666744
 31
0.0
  0
LINE
  5
14C
330
1F
100
AcDbEntity
  8
0-0
  6
Continuous
 62
     3
370
     9
100
AcDbLine
 10
352.9402164456459
 20
-668.2067168578287
 30
0.0
 11
336.2733070522966
 21
-668.2067168578287
 31
0.0
  0
LINE
  5
14D
330
1F
100
AcDbEntity
  8
0-0
  6
Continuous
 62
     3
370
     9
100
AcDbLine
 10
-168.1819632116889
 20
-706.7938260443032
 30
0.0
 11
-220.3198134293741
 21
-703.1481667043693
 31
0.0
  0
LINE
  5
14E
330
1F
100
AcDbEntity
  8
0-0
  6
JWW_DASHED1
 62
     3
370
     9
100
AcDbLine
 10
-220.3198134293741
 20
-703.1481667043693
 30
0.0
 11
-256.2419611630449
 21
-700.6364702632297
 31
0.0
  0
LINE
  5
14F
330
1F
100
AcDbEntity
  8
0-0
  6
Continuous
 62
     3
370
     9
100
AcDbLine
 10
-267.458053266589
 20
-675.6863136770255
 30
0.0
 11
-272.0593067417432
 21
-638.2070726998599
 31
0.0
  0
LINE
  5
150
330
1F
100
AcDbEntity
  8
0-0
  6
JWW_DASHED1
 62
     3
370
     9
100
AcDbLine
 10
-265.4695718652654
 20
-691.8795549093288
 30
0.0
 11
-267.458053266589
 21
-675.6863136770255
 31
0.0
  0
LINE
  5
151
330
1F
100
AcDbEntity
  8
0-0
  6
Continuous
 62
     3
370
     9
100
AcDbLine
 10
353.3048814733964
 20
-641.1270354220685
 30
0.0
 11
356.2737304493256
 21
-664.8735331666744
 31
0.0
  0
LINE
  5
152
330
1F
100
AcDbEntity
  8
0-0
  6
Continuous
 62
     3
370
     9
100
AcDbLine
 10
-340.758366344734
 20
-641.1270354220685
 30
0.0
 11
-343.7265546956124
 21
-664.8735331666744
 31
0.0
  0
LINE
  5
153
330
1F
100
AcDbEntity
  8
0-0
  6
JWW_CENTER1
 62
     3
370
     9
100
AcDbLine
 10
-280.3930917509425
 20
-808.2067078243113
 30
0.0
 11
-303.5995285169496
 21
-808.2067078243113
 31
0.0
  0
LINE
  5
154
330
1F
100
AcDbEntity
  8
0-0
  6
JWW_PHANTOM1
 62
     3
370
     9
100
AcDbLine
 10
259.6064487179569
 20
-714.6443638292283
 30
0.0
 11
256.2729347142772
 21
-738.2068774973327
 31
0.0
  0
LINE
  5
155
330
1F
100
AcDbEntity
  8
0-0
  6
Continuous
 62
     3
370
     9
100
AcDbLine
 10
239.6066859459787
 20
-721.540298416508
 30
0.0
 11
217.940166172159
 21
-721.540298416508
 31
0.0
  0
LINE
  5
156
330
1F
100
AcDbEntity
  8
0-0
  6
JWW_PHANTOM1
 62
     3
370
     9
100
AcDbLine
 10
239.6066859459787
 20
-721.540298416508
 30
0.0
 11
242.9401999496584
 21
-721.540298416508
 31
0.0
  0
LINE
  5
157
330
1F
100
AcDbEntity
  8
0-0
  6
JWW_DASHED1
 62
     3
370
     9
100
AcDbLine
 10
-278.7038734973937
 20
-693.5040319079519
 30
0.0
 11
-280.7815392805036
 21
-676.583442495297
 31
0.0
  0
LINE
  5
158
330
1F
100
AcDbEntity
  8
0-0
  6
JWW_DASHED1
 62
     3
370
     9
100
AcDbLine
 10
-233.2224812862652
 20
-715.6118492153539
 30
0.0
 11
-257.1714606087796
 21
-713.9371647129108
 31
0.0
  0
LINE
  5
159
330
1F
100
AcDbEntity
  8
0-0
  6
Continuous
 62
     3
370
     9
100
AcDbLine
 10
-275.9510489129047
 20
-738.2068774973327
 30
0.0
 11
-271.5929054562495
 21
-738.2068774973327
 31
0.0
  0
LINE
  5
15A
330
1F
100
AcDbEntity
  8
0-0
  6
Continuous
 62
     3
370
     9
100
AcDbLine
 10
-255.8601198839877
 20
-711.5400867179935
 30
0.0
 11
-271.5929054562495
 21
-711.5400867179935
 31
0.0
  0
LINE
  5
15B
330
1F
100
AcDbEntity
  8
0-0
  6
Continuous
 62
     3
370
     9
100
AcDbLine
 10
-255.8601198839877
 20
-711.5400867179935
 30
0.0
 11
-263.726842982644
 21
-706.9982894973627
 31
0.0
  0
LINE
  5
15C
330
1F
100
AcDbEntity
  8
0-0
  6
Continuous
 62
     3
370
     9
100
AcDbLine
 10
-271.5929054562495
 20
-711.5400867179935
 30
0.0
 11
-263.726842982644
 21
-706.9982894973627
 31
0.0
  0
LINE
  5
15D
330
1F
100
AcDbEntity
  8
0-0
  6
JWW_CENTER1
 62
     3
370
     9
100
AcDbLine
 10
-263.726842982644
 20
-791.5401287434872
 30
0.0
 11
-263.726842982644
 21
-706.1034728667676
 31
0.0
  0
LINE
  5
15E
330
1F
100
AcDbEntity
  8
0-0
  6
Continuous
 62
     3
370
     9
100
AcDbLine
 10
-226.2945063840478
 20
-721.540298416508
 30
0.0
 11
-205.3936510434952
 21
-721.540298416508
 31
0.0
  0
LINE
  5
15F
330
1F
100
AcDbEntity
  8
0-0
  6
Continuous
 62
     3
370
     9
100
AcDbLine
 10
-232.9225575134409
 20
-734.187304378944
 30
0.0
 11
-231.1970048821262
 21
-725.5598715348974
 31
0.0
  0
LINE
  5
160
330
1F
100
AcDbEntity
  8
0-0
  6
Continuous
 62
     3
370
     9
100
AcDbLine
 10
-255.8601198839877
 20
-738.2068774973327
 30
0.0
 11
-237.8257166365703
 21
-738.2068774973327
 31
0.0
  0
LINE
  5
161
330
1F
100
AcDbEntity
  8
0-0
  6
Continuous
 62
     3
370
     9
100
AcDbLine
 10
249.6065673319671
 20
-704.8733890231586
 30
0.0
 11
269.6063301039469
 21
-704.8733890231586
 31
0.0
  0
LINE
  5
162
330
1F
100
AcDbEntity
  8
0-0
  6
Continuous
 62
     3
370
     9
100
AcDbLine
 10
251.2733243338084
 20
-706.5401460249984
 30
0.0
 11
267.939573102107
 21
-706.5401460249984
 31
0.0
  0
LINE
  5
163
330
1F
100
AcDbEntity
  8
0-0
  6
Continuous
 62
     3
370
     9
100
AcDbLine
 10
267.939573102107
 20
-706.5401460249984
 30
0.0
 11
259.6064487179569
 21
-711.3514782661405
 31
0.0
  0
LINE
  5
164
330
1F
100
AcDbEntity
  8
0-0
  6
Continuous
 62
     3
370
     9
100
AcDbLine
 10
251.2733243338084
 20
-706.5401460249984
 30
0.0
 11
259.6064487179569
 21
-711.3514782661405
 31
0.0
  0
LINE
  5
165
330
1F
100
AcDbEntity
  8
0-0
  6
Continuous
 62
     3
370
     9
100
AcDbLine
 10
246.6178996045309
 20
-681.5401122474991
 30
0.0
 11
251.2733243338084
 21
-681.5401122474991
 31
0.0
  0
LINE
  5
166
330
1F
100
AcDbEntity
  8
0-0
  6
Continuous
 62
     3
370
     9
100
AcDbLine
 10
300.1635418043475
 20
-668.2916071767891
 30
0.0
 11
307.8743573911402
 21
-665.7861866736271
 31
0.0
  0
LINE
  5
167
330
1F
100
AcDbEntity
  8
0-0
  6
Continuous
 62
     3
370
     9
100
AcDbLine
 10
291.2503886260577
 20
-693.5046925330021
 30
0.0
 11
293.3280544091675
 21
-676.583442495297
 31
0.0
  0
LINE
  5
168
330
1F
100
AcDbEntity
  8
0-0
  6
Continuous
 62
     3
370
     9
100
AcDbLine
 10
245.768996414929
 20
-715.6118492153539
 30
0.0
 11
269.7186363624944
 21
-713.9371647129108
 31
0.0
  0
LINE
  5
169
330
1F
100
AcDbEntity
  8
0-0
  6
Continuous
 62
     3
370
     9
100
AcDbLine
 10
-234.071384475867
 20
-681.5401122474991
 30
0.0
 11
-260.8412327630496
 21
-681.5401122474991
 31
0.0
  0
LINE
  5
16A
330
1F
100
AcDbEntity
  8
0-0
  6
Continuous
 62
     3
370
     9
100
AcDbLine
 10
-337.0595266882514
 20
-638.2070726998599
 30
0.0
 11
-296.0994523211949
 21
-651.515694650144
 31
0.0
  0
LINE
  5
16B
330
1F
100
AcDbEntity
  8
0-0
  6
JWW_DASHED1
 62
     3
370
     9
100
AcDbLine
 10
-296.0994523211949
 20
-651.515694650144
 30
0.0
 11
-269.3593321612759
 21
-660.2042353113413
 31
0.0
  0
LINE
  5
16C
330
1F
100
AcDbEntity
  8
0-0
  6
Continuous
 62
     3
370
     9
100
AcDbLine
 10
249.6065673319671
 20
-697.9754725607279
 30
0.0
 11
249.6065673319671
 21
-704.8733890231586
 31
0.0
  0
LINE
  5
16D
330
1F
100
AcDbEntity
  8
0-0
  6
Continuous
 62
     3
370
     9
100
AcDbLine
 10
251.2733243338084
 20
-699.6418992500423
 30
0.0
 11
251.2733243338084
 21
-706.5401460249984
 31
0.0
  0
LINE
  5
16E
330
1F
100
AcDbEntity
  8
0-0
  6
Continuous
 62
     3
370
     9
100
AcDbLine
 10
267.939573102107
 20
-699.6415689375178
 30
0.0
 11
267.939573102107
 21
-706.5401460249984
 31
0.0
  0
LINE
  5
16F
330
1F
100
AcDbEntity
  8
0-0
  6
Continuous
 62
     3
370
     9
100
AcDbLine
 10
269.6063301039469
 20
-697.974811935677
 30
0.0
 11
269.6063301039469
 21
-704.8733890231586
 31
0.0
  0
LINE
  5
170
330
1F
100
AcDbEntity
  8
0-3
  6
Continuous
 62
     4
370
     9
100
AcDbLine
 10
-212.0600184258038
 20
-721.540298416508
 30
0.0
 11
-212.0600184258038
 21
-904.8729986181052
 31
0.0
  0
LINE
  5
171
330
1F
100
AcDbEntity
  8
0-3
  6
Continuous
 62
     4
370
     9
100
AcDbLine
 10
-227.0601708173148
 20
-721.540298416508
 30
0.0
 11
-227.0601708173148
 21
-904.8729986181052
 31
0.0
  0
LINE
  5
172
330
1F
100
AcDbEntity
  8
0-3
  6
Continuous
 62
     4
370
     9
100
AcDbLine
 10
224.6065335544677
 20
-721.540298416508
 30
0.0
 11
224.6065335544677
 21
-904.8729986181052
 31
0.0
  0
LINE
  5
173
330
1F
100
AcDbEntity
  8
0-3
  6
Continuous
 62
     4
370
     9
100
AcDbLine
 10
239.6066859459787
 20
-721.540298416508
 30
0.0
 11
239.6066859459787
 21
-904.8729986181052
 31
0.0
  0
LINE
  5
174
330
1F
100
AcDbEntity
  8
0-3
  6
Continuous
 62
     4
370
     9
100
AcDbLine
 10
-227.0601708173148
 20
-904.8729986181052
 30
0.0
 11
239.6066859459787
 21
-904.8729986181052
 31
0.0
  0
LINE
  5
175
330
1F
100
AcDbEntity
  8
0-9
  6
Continuous
 62
     3
370
     9
100
AcDbLine
 10
221.2736801758388
 20
-904.8729986181052
 30
0.0
 11
221.2736801758388
 21
-879.8732951531304
 31
0.0
  0
LINE
  5
176
330
1F
100
AcDbEntity
  8
0-9
  6
Continuous
 62
     3
370
     9
100
AcDbLine
 10
221.2736801758388
 20
-904.8729986181052
 30
0.0
 11
219.2733075236106
 21
-904.8729986181052
 31
0.0
  0
LINE
  5
177
330
1F
100
AcDbEntity
  8
0-9
  6
Continuous
 62
     3
370
     9
100
AcDbLine
 10
219.2733075236106
 20
-904.8729986181052
 30
0.0
 11
219.2733075236106
 21
-881.8733374928331
 31
0.0
  0
LINE
  5
178
330
1F
100
AcDbEntity
  8
0-9
  6
Continuous
 62
     3
370
     9
100
AcDbLine
 10
-206.7267923949468
 20
-904.8729986181052
 30
0.0
 11
-208.7265044221241
 21
-904.8729986181052
 31
0.0
  0
LINE
  5
179
330
1F
100
AcDbEntity
  8
0-9
  6
Continuous
 62
     3
370
     9
100
AcDbLine
 10
-208.7265044221241
 20
-904.8729986181052
 30
0.0
 11
-208.7265044221241
 21
-879.8732951531304
 31
0.0
  0
LINE
  5
17A
330
1F
100
AcDbEntity
  8
0-9
  6
Continuous
 62
     3
370
     9
100
AcDbLine
 10
-206.7267923949468
 20
-904.8729986181052
 30
0.0
 11
-206.7267923949468
 21
-881.8733374928331
 31
0.0
  0
LINE
  5
17B
330
1F
100
AcDbEntity
  8
0-9
  6
Continuous
 62
     3
370
     9
100
AcDbLine
 10
142.9400648396594
 20
-884.8732358461255
 30
0.0
 11
144.6722237214764
 21
-881.8733374928331
 31
0.0
  0
LINE
  5
17C
330
1F
100
AcDbEntity
  8
0-9
  6
Continuous
 62
     3
370
     9
100
AcDbLine
 10
141.7852922517818
 20
-882.8731935064227
 30
0.0
 11
143.5174511335989
 21
-879.8732951531304
 31
0.0
  0
LINE
  5
17D
330
1F
100
AcDbEntity
  8
0-9
  6
Continuous
 62
     3
370
     9
100
AcDbLine
 10
-129.238777123118
 20
-882.8731935064227
 30
0.0
 11
-130.9702753798842
 21
-879.8732951531304
 31
0.0
  0
LINE
  5
17E
330
1F
100
AcDbEntity
  8
0-9
  6
Continuous
 62
     3
370
     9
100
AcDbLine
 10
142.9400648396594
 20
-884.8732358461255
 30
0.0
 11
-130.3935497109955
 21
-884.8732358461255
 31
0.0
  0
LINE
  5
17F
330
1F
100
AcDbEntity
  8
0-9
  6
Continuous
 62
     3
370
     9
100
AcDbLine
 10
-130.3935497109955
 20
-884.8732358461255
 30
0.0
 11
-132.1250479677633
 21
-881.8733374928331
 31
0.0
  0
LINE
  5
180
330
1F
100
AcDbEntity
  8
0-9
  6
Continuous
 62
     2
370
     9
100
AcDbLine
 10
26.27302033631095
 20
-904.8729986181052
 30
0.0
 11
-13.7265052076471
 21
-904.8729986181052
 31
0.0
  0
LINE
  5
181
330
1F
100
AcDbEntity
  8
0-9
  6
Continuous
 62
     2
370
     9
100
AcDbLine
 10
-13.7265052076471
 20
-904.8729986181052
 30
0.0
 11
-13.7265052076471
 21
-889.5673071408439
 31
0.0
  0
LINE
  5
182
330
1F
100
AcDbEntity
  8
0-9
  6
Continuous
 62
     2
370
     9
100
AcDbLine
 10
-10.22585306624854
 20
-892.4258317333772
 30
0.0
 11
-15.39326220948697
 21
-888.2064195372805
 31
0.0
  0
LINE
  5
183
330
1F
100
AcDbEntity
  8
0-9
  6
Continuous
 62
     2
370
     9
100
AcDbLine
 10
-10.22585306624854
 20
-892.4258317333772
 30
0.0
 11
-5.744833350242939
 21
-892.4258317333772
 31
0.0
  0
LINE
  5
184
330
1F
100
AcDbEntity
  8
0-9
  6
Continuous
 62
     2
370
     9
100
AcDbLine
 10
-5.744833350242939
 20
-892.4258317333772
 30
0.0
 11
-5.744833350242939
 21
-884.8732358461255
 31
0.0
  0
LINE
  5
185
330
1F
100
AcDbEntity
  8
0-9
  6
Continuous
 62
     2
370
     9
100
AcDbLine
 10
-15.39326220948697
 20
-888.2064195372805
 30
0.0
 11
-15.39326220948697
 21
-884.8732358461255
 31
0.0
  0
LINE
  5
186
330
1F
100
AcDbEntity
  8
0-9
  6
Continuous
 62
     2
370
     9
100
AcDbLine
 10
26.27302033631095
 20
-904.8729986181052
 30
0.0
 11
26.27302033631095
 21
-889.5673071408439
 31
0.0
  0
LINE
  5
187
330
1F
100
AcDbEntity
  8
0-9
  6
Continuous
 62
     2
370
     9
100
AcDbLine
 10
22.77236819491239
 20
-892.4258317333772
 30
0.0
 11
27.94043796320166
 21
-888.2064195372805
 31
0.0
  0
LINE
  5
188
330
1F
100
AcDbEntity
  8
0-9
  6
Continuous
 62
     2
370
     9
100
AcDbLine
 10
22.77236819491239
 20
-892.4258317333772
 30
0.0
 11
18.29200910395763
 21
-892.4258317333772
 31
0.0
  0
LINE
  5
189
330
1F
100
AcDbEntity
  8
0-9
  6
Continuous
 62
     2
370
     9
100
AcDbLine
 10
18.29200910395763
 20
-892.4258317333772
 30
0.0
 11
18.29200910395763
 21
-884.8732358461255
 31
0.0
  0
LINE
  5
18A
330
1F
100
AcDbEntity
  8
0-9
  6
Continuous
 62
     2
370
     9
100
AcDbLine
 10
27.94043796320166
 20
-888.2064195372805
 30
0.0
 11
27.94043796320166
 21
-884.8732358461255
 31
0.0
  0
LINE
  5
18B
330
1F
100
AcDbEntity
  8
0-9
  6
Continuous
 62
     2
370
     9
100
AcDbLine
 10
27.94043796320166
 20
-884.8732358461255
 30
0.0
 11
-15.39326220948697
 21
-884.8732358461255
 31
0.0
  0
LINE
  5
18C
330
1F
100
AcDbEntity
  8
0-9
  6
Continuous
 62
     3
370
     9
100
AcDbLine
 10
-8.72623420212749
 20
-884.8732358461255
 30
0.0
 11
-8.72623420212749
 21
-882.8731935064227
 31
0.0
  0
LINE
  5
18D
330
1F
100
AcDbEntity
  8
0-9
  6
Continuous
 62
     3
370
     9
100
AcDbLine
 10
21.27340995584218
 20
-884.8732358461255
 30
0.0
 11
21.27340995584218
 21
-882.8731935064227
 31
0.0
  0
LINE
  5
18E
330
1F
100
AcDbEntity
  8
0-9
  6
Continuous
 62
     3
370
     9
100
AcDbLine
 10
-175.3933462604747
 20
-881.8733374928331
 30
0.0
 11
-175.3933462604747
 21
-879.8732951531304
 31
0.0
  0
LINE
  5
18F
330
1F
100
AcDbEntity
  8
0-9
  6
Continuous
 62
     3
370
     9
100
AcDbLine
 10
141.7852922517818
 20
-882.8731935064227
 30
0.0
 11
19.60665295400231
 21
-882.8731935064227
 31
0.0
  0
LINE
  5
190
330
1F
100
AcDbEntity
  8
0-9
  6
Continuous
 62
     3
370
     9
100
AcDbLine
 10
-7.060137825338462
 20
-882.8731935064227
 30
0.0
 11
-129.238777123118
 21
-882.8731935064227
 31
0.0
  0
LINE
  5
191
330
1F
100
AcDbEntity
  8
0-9
  6
Continuous
 62
     3
370
     9
100
AcDbLine
 10
-132.1250479677633
 20
-881.8733374928331
 30
0.0
 11
-206.7267923949468
 21
-881.8733374928331
 31
0.0
  0
LINE
  5
192
330
1F
100
AcDbEntity
  8
0-9
  6
Continuous
 62
     3
370
     9
100
AcDbLine
 10
-7.060137825338462
 20
-879.8732951531304
 30
0.0
 11
-208.7265044221241
 21
-879.8732951531304
 31
0.0
  0
LINE
  5
193
330
1F
100
AcDbEntity
  8
0-9
  6
Continuous
 62
     3
370
     9
100
AcDbLine
 10
-162.059950870805
 20
-881.8733374928331
 30
0.0
 11
-162.059950870805
 21
-879.8732951531304
 31
0.0
  0
LINE
  5
194
330
1F
100
AcDbEntity
  8
0-9
  6
Continuous
 62
     3
370
     9
100
AcDbLine
 10
219.2733075236106
 20
-881.8733374928331
 30
0.0
 11
144.6722237214764
 21
-881.8733374928331
 31
0.0
  0
LINE
  5
195
330
1F
100
AcDbEntity
  8
0-9
  6
Continuous
 62
     3
370
     9
100
AcDbLine
 10
221.2736801758388
 20
-879.8732951531304
 30
0.0
 11
19.60665295400231
 21
-879.8732951531304
 31
0.0
  0
LINE
  5
196
330
1F
100
AcDbEntity
  8
0-9
  6
Continuous
 62
     3
370
     9
100
AcDbLine
 10
187.9398613891385
 20
-881.8733374928331
 30
0.0
 11
187.9398613891385
 21
-879.8732951531304
 31
0.0
  0
LINE
  5
197
330
1F
100
AcDbEntity
  8
0-9
  6
Continuous
 62
     3
370
     9
100
AcDbLine
 10
174.6064659994689
 20
-881.8733374928331
 30
0.0
 11
174.6064659994689
 21
-879.8732951531304
 31
0.0
  0
LINE
  5
198
330
1F
100
AcDbEntity
  8
0-C
  6
Continuous
 62
     2
370
     9
100
AcDbLine
 10
172.9397089976291
 20
-685.5398666143799
 30
0.0
 11
172.9397089976291
 21
-681.5397819349737
 31
0.0
  0
LINE
  5
199
330
1F
100
AcDbEntity
  8
0-C
  6
Continuous
 62
     2
370
     9
100
AcDbLine
 10
-160.3931938689652
 20
-681.5397819349737
 30
0.0
 11
-160.3931938689652
 21
-685.5398666143799
 31
0.0
  0
LINE
  5
19A
330
1F
100
AcDbEntity
  8
0-C
  6
Continuous
 62
     2
370
     9
100
AcDbLine
 10
22.94016695768205
 20
-681.5397819349737
 30
0.0
 11
172.9397089976291
 21
-681.5397819349737
 31
0.0
  0
LINE
  5
19B
330
1F
100
AcDbEntity
  8
0-C
  6
Continuous
 62
     2
370
     9
100
AcDbLine
 10
21.27340995584218
 20
-679.8730249331338
 30
0.0
 11
21.27340995584218
 21
-671.5399005489837
 31
0.0
  0
LINE
  5
19C
330
1F
100
AcDbEntity
  8
0-C
  6
Continuous
 62
     2
370
     9
100
AcDbLine
 10
-8.72689482717833
 20
-679.8730249331338
 30
0.0
 11
-8.72689482717833
 21
-671.5399005489837
 31
0.0
  0
LINE
  5
19D
330
1F
100
AcDbEntity
  8
0-C
  6
Continuous
 62
     2
370
     9
100
AcDbLine
 10
-10.3936518290182
 20
-681.5397819349737
 30
0.0
 11
-160.3931938689652
 21
-681.5397819349737
 31
0.0
  0
LINE
  5
19E
330
1F
100
AcDbEntity
  8
0-C
  6
Continuous
 62
     2
370
     9
100
AcDbLine
 10
-60.39371938401697
 20
-718.873355088554
 30
0.0
 11
-60.39371938401697
 21
-685.5398666143799
 31
0.0
  0
LINE
  5
19F
330
1F
100
AcDbEntity
  8
0-C
  6
Continuous
 62
     2
370
     9
100
AcDbLine
 10
-98.0790753768686
 20
-725.5400527833888
 30
0.0
 11
-67.06008676632712
 21
-725.5400527833888
 31
0.0
  0
LINE
  5
1A0
330
1F
100
AcDbEntity
  8
0-C
  6
Continuous
 62
     2
370
     9
100
AcDbLine
 10
-104.6549371272908
 20
-719.9693320469576
 30
0.0
 11
-110.3931263139664
 21
-685.5398666143799
 31
0.0
  0
LINE
  5
1A1
330
1F
100
AcDbEntity
  8
0-C
  6
Continuous
 62
     2
370
     9
100
AcDbLine
 10
72.93957388762998
 20
-718.873355088554
 30
0.0
 11
72.93957388762998
 21
-685.5398666143799
 31
0.0
  0
LINE
  5
1A2
330
1F
100
AcDbEntity
  8
0-C
  6
Continuous
 62
     2
370
     9
100
AcDbLine
 10
110.6255905055325
 20
-725.5400527833888
 30
0.0
 11
79.60660189499097
 21
-725.5400527833888
 31
0.0
  0
LINE
  5
1A3
330
1F
100
AcDbEntity
  8
0-C
  6
Continuous
 62
     2
370
     9
100
AcDbLine
 10
117.2014522559547
 20
-719.9693320469576
 30
0.0
 11
122.9396414426303
 21
-685.5398666143799
 31
0.0
  0
LINE
  5
1A4
330
1F
100
AcDbEntity
  8
0-C
  6
Continuous
 62
     2
370
     9
100
AcDbLine
 10
19.60599232895147
 20
-671.5399005489837
 30
0.0
 11
19.60599232895147
 21
-684.4554505943556
 31
0.0
  0
LINE
  5
1A5
330
1F
100
AcDbEntity
  8
0-C
  6
Continuous
 62
     2
370
     9
100
AcDbLine
 10
-7.060137825338462
 20
-671.5399005489837
 30
0.0
 11
-7.060137825338462
 21
-684.4554505943556
 31
0.0
  0
LINE
  5
1A6
330
1F
100
AcDbEntity
  8
0-C
  6
Continuous
 62
     2
370
     9
100
AcDbLine
 10
172.9397089976291
 20
-685.5398666143799
 30
0.0
 11
19.60665295400231
 21
-685.5398666143799
 31
0.0
  0
LINE
  5
1A7
330
1F
100
AcDbEntity
  8
0-C
  6
Continuous
 62
     2
370
     9
100
AcDbLine
 10
-7.060137825338462
 20
-685.5398666143799
 30
0.0
 11
-160.3931938689652
 21
-685.5398666143799
 31
0.0
  0
LINE
  5
1A8
330
1F
100
AcDbEntity
  8
0-C
  6
Continuous
 62
     2
370
     9
100
AcDbLine
 10
-4.804763903703861
 20
-671.5399005489837
 30
0.0
 11
-8.72689482717833
 21
-671.5399005489837
 31
0.0
  0
LINE
  5
1A9
330
1F
100
AcDbEntity
  8
0-C
  6
Continuous
 62
     2
370
     9
100
AcDbLine
 10
21.27340995584218
 20
-671.5399005489837
 30
0.0
 11
17.35127903236771
 21
-671.5399005489837
 31
0.0
  0
LINE
  5
1AA
330
1F
100
AcDbEntity
  8
0-0
  6
Continuous
 62
     3
370
     9
100
AcDbLine
 10
349.9971318466783
 20
-638.2070726998599
 30
0.0
 11
19.60665295400231
 21
-638.2070726998599
 31
0.0
  0
LINE
  5
1AB
330
1F
100
AcDbEntity
  8
0-0
  6
Continuous
 62
     3
370
     9
100
AcDbLine
 10
-7.05947720028762
 20
-638.2070726998599
 30
0.0
 11
-337.4506167180144
 21
-638.2070726998599
 31
0.0
  0
LINE
  5
1AC
330
1F
100
AcDbEntity
  8
0-0
  6
Continuous
 62
     3
370
     9
100
AcDbLine
 10
-7.05947720028762
 20
-706.7373426025049
 30
0.0
 11
-60.39371938401697
 21
-706.7373426025049
 31
0.0
  0
LINE
  5
1AD
330
1F
100
AcDbEntity
  8
0-0
  6
Continuous
 62
     3
370
     9
100
AcDbLine
 10
-106.8607641701533
 20
-706.7373426025049
 30
0.0
 11
-169.809743335564
 21
-706.7373426025049
 31
0.0
  0
LINE
  5
1AE
330
1F
100
AcDbEntity
  8
0-0
  6
Continuous
 62
     3
370
     9
100
AcDbLine
 10
182.3562584642279
 20
-706.7373426025049
 30
0.0
 11
119.4066186737678
 21
-706.7373426025049
 31
0.0
  0
LINE
  5
1AF
330
1F
100
AcDbEntity
  8
0-0
  6
Continuous
 62
     3
370
     9
100
AcDbLine
 10
72.93957388762998
 20
-706.7373426025049
 30
0.0
 11
19.60665295400231
 21
-706.7373426025049
 31
0.0
  0
LINE
  5
1B0
330
1F
100
AcDbEntity
  8
0-0
  6
Continuous
 62
     3
370
     9
100
AcDbLine
 10
162.9398276116392
 20
-861.5402893829905
 30
0.0
 11
19.60665295400231
 21
-861.5402893829905
 31
0.0
  0
LINE
  5
1B1
330
1F
100
AcDbEntity
  8
0-0
  6
Continuous
 62
     3
370
     9
100
AcDbLine
 10
-7.05947720028762
 20
-861.5402893829905
 30
0.0
 11
-150.3933124829753
 21
-861.5402893829905
 31
0.0
  0
LINE
  5
1B2
330
1F
100
AcDbEntity
  8
0-1
  6
JWW_CENTER1
 62
     4
370
     9
100
AcDbLine
 10
6.273257564331168
 20
-354.8930652021974
 30
0.0
 11
6.273257564331168
 21
-931.4023793869876
 31
0.0
  0
LINE
  5
1B3
330
1F
100
AcDbEntity
  8
0-8
  6
Continuous
 62
     6
370
     9
100
AcDbLine
 10
-4.804763903703861
 20
-371.5394952189889
 30
0.0
 11
-4.804763903703861
 21
-884.8732358461255
 31
0.0
  0
LINE
  5
1B4
330
1F
100
AcDbEntity
  8
0-8
  6
Continuous
 62
     6
370
     9
100
AcDbLine
 10
19.60665295400231
 20
-373.7945388280973
 30
0.0
 11
19.60665295400231
 21
-884.8732358461255
 31
0.0
  0
LINE
  5
1B5
330
1F
100
AcDbEntity
  8
0-8
  6
Continuous
 62
     6
370
     9
100
AcDbLine
 10
17.35193965741855
 20
-371.5394952189889
 30
0.0
 11
17.35193965741855
 21
-884.8732358461255
 31
0.0
  0
LINE
  5
1B6
330
1F
100
AcDbEntity
  8
0-8
  6
Continuous
 62
     6
370
     9
100
AcDbLine
 10
-7.05947720028762
 20
-373.7945388280973
 30
0.0
 11
-7.05947720028762
 21
-884.8732358461255
 31
0.0
  0
LINE
  5
1B7
330
1F
100
AcDbEntity
  8
0-0
  6
Continuous
 62
     3
370
     9
100
AcDbLine
 10
267.939573102107
 20
-681.5401122474991
 30
0.0
 11
273.3877478917134
 21
-681.5401122474991
 31
0.0
  0
LINE
  5
1B8
330
1F
100
AcDbEntity
  8
0-3
  6
Continuous
 62
     6
370
     9
100
AcDbLine
 10
-344.5596028840077
 20
-661.5403494755194
 30
0.0
 11
-341.2260888803264
 21
-638.2070726998599
 31
0.0
  0
LINE
  5
1B9
330
1F
100
AcDbEntity
  8
0-3
  6
Continuous
 62
     6
370
     9
100
AcDbLine
 10
-362.892608654146
 20
-661.5403494755194
 30
0.0
 11
-344.5596028840077
 21
-661.5403494755194
 31
0.0
  0
LINE
  5
1BA
330
1F
100
AcDbEntity
  8
0-3
  6
Continuous
 62
     6
370
     9
100
AcDbLine
 10
375.4404450329116
 20
-661.5403494755194
 30
0.0
 11
357.1067786377209
 21
-661.5403494755194
 31
0.0
  0
LINE
  5
1BB
330
1F
100
AcDbEntity
  8
0-3
  6
Continuous
 62
     6
370
     9
100
AcDbLine
 10
357.1067786377209
 20
-661.5403494755194
 30
0.0
 11
353.7732646340412
 21
-638.2070726998599
 31
0.0
  0
LINE
  5
1BC
330
1F
100
AcDbEntity
  8
0-3
  6
Continuous
 62
     6
370
     9
100
AcDbLine
 10
-371.2257330382961
 20
-634.8735586961793
 30
0.0
 11
-362.892608654146
 21
-661.5403494755194
 31
0.0
  0
LINE
  5
1BD
330
1F
100
AcDbEntity
  8
0-3
  6
Continuous
 62
     6
370
     9
100
AcDbLine
 10
383.7735694170601
 20
-634.8735586961793
 30
0.0
 11
375.4404450329116
 21
-661.5403494755194
 31
0.0
  0
LINE
  5
1BE
330
1F
100
AcDbEntity
  8
0-3
  6
Continuous
 62
     6
370
     9
100
AcDbLine
 10
-7.393092850675931
 20
-634.8735586961793
 30
0.0
 11
-7.393092850675931
 21
-638.2070726998599
 31
0.0
  0
LINE
  5
1BF
330
1F
100
AcDbEntity
  8
0-3
  6
Continuous
 62
     6
370
     9
100
AcDbLine
 10
19.9402686043891
 20
-634.8735586961793
 30
0.0
 11
19.9402686043891
 21
-638.2070726998599
 31
0.0
  0
LINE
  5
1C0
330
1F
100
AcDbEntity
  8
0-3
  6
Continuous
 62
     6
370
     9
100
AcDbLine
 10
-271.2262585533479
 20
-634.8735586961793
 30
0.0
 11
-271.2262585533479
 21
-638.2070726998599
 31
0.0
  0
LINE
  5
1C1
330
1F
100
AcDbEntity
  8
0-3
  6
Continuous
 62
     6
370
     9
100
AcDbLine
 10
-237.8924397666491
 20
-634.8735586961793
 30
0.0
 11
-237.8924397666491
 21
-638.2070726998599
 31
0.0
  0
LINE
  5
1C2
330
1F
100
AcDbEntity
  8
0-3
  6
Continuous
 62
     6
370
     9
100
AcDbLine
 10
283.7734343070626
 20
-634.8735586961793
 30
0.0
 11
283.7734343070626
 21
-638.2070726998599
 31
0.0
  0
LINE
  5
1C3
330
1F
100
AcDbEntity
  8
0-3
  6
Continuous
 62
     6
370
     9
100
AcDbLine
 10
250.4402761454132
 20
-634.8735586961793
 30
0.0
 11
250.4402761454132
 21
-638.2070726998599
 31
0.0
  0
LINE
  5
1C4
330
1F
100
AcDbEntity
  8
0-3
  6
Continuous
 62
     6
370
     9
100
AcDbLine
 10
-7.05947720028762
 20
-634.8735586961793
 30
0.0
 11
-371.2257330382961
 21
-634.8735586961793
 31
0.0
  0
LINE
  5
1C5
330
1F
100
AcDbEntity
  8
0-3
  6
Continuous
 62
     6
370
     9
100
AcDbLine
 10
-7.05947720028762
 20
-638.2070726998599
 30
0.0
 11
-341.2260888803264
 21
-638.2070726998599
 31
0.0
  0
LINE
  5
1C6
330
1F
100
AcDbEntity
  8
0-3
  6
Continuous
 62
     6
370
     9
100
AcDbLine
 10
353.7732646340412
 20
-638.2070726998599
 30
0.0
 11
19.60665295400231
 21
-638.2070726998599
 31
0.0
  0
LINE
  5
1C7
330
1F
100
AcDbEntity
  8
0-3
  6
Continuous
 62
     6
370
     9
100
AcDbLine
 10
383.7735694170601
 20
-634.8735586961793
 30
0.0
 11
19.60665295400231
 21
-634.8735586961793
 31
0.0
  0
LINE
  5
1C8
330
1F
100
AcDbEntity
  8
0-5
  6
Continuous
 62
     6
370
     9
100
AcDbLine
 10
374.1680811860845
 20
-661.5403494755194
 30
0.0
 11
376.0184919519005
 21
-659.6899387097033
 31
0.0
  0
LINE
  5
1C9
330
1F
100
AcDbEntity
  8
0-5
  6
Continuous
 62
     6
370
     9
100
AcDbLine
 10
364.7403010936318
 20
-661.5403494755194
 30
0.0
 11
380.3039666530238
 21
-645.9766839161259
 31
0.0
  0
LINE
  5
1CA
330
1F
100
AcDbEntity
  8
0-5
  6
Continuous
 62
     6
370
     9
100
AcDbLine
 10
356.8828267456782
 20
-659.9700437310189
 30
0.0
 11
381.9793117805186
 21
-634.8735586961793
 31
0.0
  0
LINE
  5
1CB
330
1F
100
AcDbEntity
  8
0-5
  6
Continuous
 62
     6
370
     9
100
AcDbLine
 10
355.7042716559902
 20
-651.7201581032036
 30
0.0
 11
372.5508710630152
 21
-634.8735586961793
 31
0.0
  0
LINE
  5
1CC
330
1F
100
AcDbEntity
  8
0-5
  6
Continuous
 62
     6
370
     9
100
AcDbLine
 10
354.525716566302
 20
-643.4706027879138
 30
0.0
 11
363.1224303455118
 21
-634.8735586961793
 31
0.0
  0
LINE
  5
1CD
330
1F
100
AcDbEntity
  8
0-5
  6
Continuous
 62
     6
370
     9
100
AcDbLine
 10
350.361136249378
 20
-638.2070726998599
 30
0.0
 11
353.6946502530593
 21
-634.8735586961793
 31
0.0
  0
LINE
  5
1CE
330
1F
100
AcDbEntity
  8
0-5
  6
Continuous
 62
     6
370
     9
100
AcDbLine
 10
340.9333561569255
 20
-638.2070726998599
 30
0.0
 11
344.2668701606052
 21
-634.8735586961793
 31
0.0
  0
LINE
  5
1CF
330
1F
100
AcDbEntity
  8
0-5
  6
Continuous
 62
     6
370
     9
100
AcDbLine
 10
331.5049154394221
 20
-638.2070726998599
 30
0.0
 11
334.8384294431019
 21
-634.8735586961793
 31
0.0
  0
LINE
  5
1D0
330
1F
100
AcDbEntity
  8
0-5
  6
Continuous
 62
     6
370
     9
100
AcDbLine
 10
322.0771353469695
 20
-638.2070726998599
 30
0.0
 11
325.4106493506492
 21
-634.8735586961793
 31
0.0
  0
LINE
  5
1D1
330
1F
100
AcDbEntity
  8
0-5
  6
Continuous
 62
     6
370
     9
100
AcDbLine
 10
312.6486946294661
 20
-638.2070726998599
 30
0.0
 11
315.9822086331459
 21
-634.8735586961793
 31
0.0
  0
LINE
  5
1D2
330
1F
100
AcDbEntity
  8
0-5
  6
Continuous
 62
     6
370
     9
100
AcDbLine
 10
303.2209145370136
 20
-638.2070726998599
 30
0.0
 11
306.5544285406934
 21
-634.8735586961793
 31
0.0
  0
LINE
  5
1D3
330
1F
100
AcDbEntity
  8
0-5
  6
Continuous
 62
     6
370
     9
100
AcDbLine
 10
293.7924738195102
 20
-638.2070726998599
 30
0.0
 11
297.1259878231899
 21
-634.8735586961793
 31
0.0
  0
LINE
  5
1D4
330
1F
100
AcDbEntity
  8
0-5
  6
Continuous
 62
     6
370
     9
100
AcDbLine
 10
284.3646937270577
 20
-638.2070726998599
 30
0.0
 11
287.6982077307374
 21
-634.8735586961793
 31
0.0
  0
LINE
  5
1D5
330
1F
100
AcDbEntity
  8
0-5
  6
Continuous
 62
     6
370
     9
100
AcDbLine
 10
246.6522521071442
 20
-638.2070726998599
 30
0.0
 11
249.9857661108256
 21
-634.8735586961793
 31
0.0
  0
LINE
  5
1D6
330
1F
100
AcDbEntity
  8
0-5
  6
Continuous
 62
     6
370
     9
100
AcDbLine
 10
237.2238113896409
 20
-638.2070726998599
 30
0.0
 11
240.5573253933221
 21
-634.8735586961793
 31
0.0
  0
LINE
  5
1D7
330
1F
100
AcDbEntity
  8
0-5
  6
Continuous
 62
     6
370
     9
100
AcDbLine
 10
227.7960312971884
 20
-638.2070726998599
 30
0.0
 11
231.1295453008681
 21
-634.8735586961793
 31
0.0
  0
LINE
  5
1D8
330
1F
100
AcDbEntity
  8
0-5
  6
Continuous
 62
     6
370
     9
100
AcDbLine
 10
218.3675905796849
 20
-638.2070726998599
 30
0.0
 11
221.7011045833647
 21
-634.8735586961793
 31
0.0
  0
LINE
  5
1D9
330
1F
100
AcDbEntity
  8
0-5
  6
Continuous
 62
     6
370
     9
100
AcDbLine
 10
208.9398104872324
 20
-638.2070726998599
 30
0.0
 11
212.2733244909122
 21
-634.8735586961793
 31
0.0
  0
LINE
  5
1DA
330
1F
100
AcDbEntity
  8
0-5
  6
Continuous
 62
     6
370
     9
100
AcDbLine
 10
199.5120303947799
 20
-638.2070726998599
 30
0.0
 11
202.8448837734088
 21
-634.8735586961793
 31
0.0
  0
LINE
  5
1DB
330
1F
100
AcDbEntity
  8
0-5
  6
Continuous
 62
     6
370
     9
100
AcDbLine
 10
190.0835896772764
 20
-638.2070726998599
 30
0.0
 11
193.4171036809562
 21
-634.8735586961793
 31
0.0
  0
LINE
  5
1DC
330
1F
100
AcDbEntity
  8
0-5
  6
Continuous
 62
     6
370
     9
100
AcDbLine
 10
180.6558095848239
 20
-638.2070726998599
 30
0.0
 11
183.9886629634528
 21
-634.8735586961793
 31
0.0
  0
LINE
  5
1DD
330
1F
100
AcDbEntity
  8
0-5
  6
Continuous
 62
     6
370
     9
100
AcDbLine
 10
171.2273688673206
 20
-638.2070726998599
 30
0.0
 11
174.5608828710003
 21
-634.8735586961793
 31
0.0
  0
LINE
  5
1DE
330
1F
100
AcDbEntity
  8
0-5
  6
Continuous
 62
     6
370
     9
100
AcDbLine
 10
161.7995887748665
 20
-638.2070726998599
 30
0.0
 11
165.1324421534969
 21
-634.8735586961793
 31
0.0
  0
LINE
  5
1DF
330
1F
100
AcDbEntity
  8
0-5
  6
Continuous
 62
     6
370
     9
100
AcDbLine
 10
152.3711480573646
 20
-638.2070726998599
 30
0.0
 11
155.7046620610444
 21
-634.8735586961793
 31
0.0
  0
LINE
  5
1E0
330
1F
100
AcDbEntity
  8
0-5
  6
Continuous
 62
     6
370
     9
100
AcDbLine
 10
142.9433679649105
 20
-638.2070726998599
 30
0.0
 11
146.276221343541
 21
-634.8735586961793
 31
0.0
  0
LINE
  5
1E1
330
1F
100
AcDbEntity
  8
0-5
  6
Continuous
 62
     6
370
     9
100
AcDbLine
 10
133.5149272474072
 20
-638.2070726998599
 30
0.0
 11
136.8484412510884
 21
-634.8735586961793
 31
0.0
  0
LINE
  5
1E2
330
1F
100
AcDbEntity
  8
0-5
  6
Continuous
 62
     6
370
     9
100
AcDbLine
 10
124.0871471549546
 20
-638.2070726998599
 30
0.0
 11
127.420000533585
 21
-634.8735586961793
 31
0.0
  0
LINE
  5
1E3
330
1F
100
AcDbEntity
  8
0-5
  6
Continuous
 62
     6
370
     9
100
AcDbLine
 10
114.6587064374512
 20
-638.2070726998599
 30
0.0
 11
117.992220441131
 21
-634.8735586961793
 31
0.0
  0
LINE
  5
1E4
330
1F
100
AcDbEntity
  8
0-5
  6
Continuous
 62
     6
370
     9
100
AcDbLine
 10
105.2309263449987
 20
-638.2070726998599
 30
0.0
 11
108.5637797236291
 21
-634.8735586961793
 31
0.0
  0
LINE
  5
1E5
330
1F
100
AcDbEntity
  8
0-5
  6
Continuous
 62
     6
370
     9
100
AcDbLine
 10
95.8024856274953
 20
-638.2070726998599
 30
0.0
 11
99.13599963117504
 21
-634.8735586961793
 31
0.0
  0
LINE
  5
1E6
330
1F
100
AcDbEntity
  8
0-5
  6
Continuous
 62
     6
370
     9
100
AcDbLine
 10
86.37470553504275
 20
-638.2070726998599
 30
0.0
 11
89.70755891367165
 21
-634.8735586961793
 31
0.0
  0
LINE
  5
1E7
330
1F
100
AcDbEntity
  8
0-5
  6
Continuous
 62
     6
370
     9
100
AcDbLine
 10
76.94626481753936
 20
-638.2070726998599
 30
0.0
 11
80.2797788212191
 21
-634.8735586961793
 31
0.0
  0
LINE
  5
1E8
330
1F
100
AcDbEntity
  8
0-5
  6
Continuous
 62
     6
370
     9
100
AcDbLine
 10
67.51848472508682
 20
-638.2070726998599
 30
0.0
 11
70.85133810371572
 21
-634.8735586961793
 31
0.0
  0
LINE
  5
1E9
330
1F
100
AcDbEntity
  8
0-5
  6
Continuous
 62
     6
370
     9
100
AcDbLine
 10
58.09004400758343
 20
-638.2070726998599
 30
0.0
 11
61.42355801126317
 21
-634.8735586961793
 31
0.0
  0
LINE
  5
1EA
330
1F
100
AcDbEntity
  8
0-5
  6
Continuous
 62
     6
370
     9
100
AcDbLine
 10
48.66226391513088
 20
-638.2070726998599
 30
0.0
 11
51.99511729375978
 21
-634.8735586961793
 31
0.0
  0
LINE
  5
1EB
330
1F
100
AcDbEntity
  8
0-5
  6
Continuous
 62
     6
370
     9
100
AcDbLine
 10
39.2338231976275
 20
-638.2070726998599
 30
0.0
 11
42.56733720130724
 21
-634.8735586961793
 31
0.0
  0
LINE
  5
1EC
330
1F
100
AcDbEntity
  8
0-5
  6
Continuous
 62
     6
370
     9
100
AcDbLine
 10
29.80604310517343
 20
-638.2070726998599
 30
0.0
 11
33.13889648380385
 21
-634.8735586961793
 31
0.0
  0
LINE
  5
1ED
330
1F
100
AcDbEntity
  8
0-5
  6
Continuous
 62
     6
370
     9
100
AcDbLine
 10
20.37760238767156
 20
-638.2070726998599
 30
0.0
 11
23.7111163913513
 21
-634.8735586961793
 31
0.0
  0
LINE
  5
1EE
330
1F
100
AcDbEntity
  8
0-5
  6
Continuous
 62
     6
370
     9
100
AcDbLine
 10
-17.33483923224182
 20
-638.2070726998599
 30
0.0
 11
-14.00132522856208
 21
-634.8735586961793
 31
0.0
  0
LINE
  5
1EF
330
1F
100
AcDbEntity
  8
0-5
  6
Continuous
 62
     6
370
     9
100
AcDbLine
 10
-26.76261932469436
 20
-638.2070726998599
 30
0.0
 11
-23.42976594606395
 21
-634.8735586961793
 31
0.0
  0
LINE
  5
1F0
330
1F
100
AcDbEntity
  8
0-5
  6
Continuous
 62
     6
370
     9
100
AcDbLine
 10
-36.19106004219775
 20
-638.2070726998599
 30
0.0
 11
-32.85754603851801
 21
-634.8735586961793
 31
0.0
  0
LINE
  5
1F1
330
1F
100
AcDbEntity
  8
0-5
  6
Continuous
 62
     6
370
     9
100
AcDbLine
 10
-45.61884013465029
 20
-638.2070726998599
 30
0.0
 11
-42.28532613097055
 21
-634.8735586961793
 31
0.0
  0
LINE
  5
1F2
330
1F
100
AcDbEntity
  8
0-5
  6
Continuous
 62
     6
370
     9
100
AcDbLine
 10
-55.04728085215368
 20
-638.2070726998599
 30
0.0
 11
-51.71376684847395
 21
-634.8735586961793
 31
0.0
  0
LINE
  5
1F3
330
1F
100
AcDbEntity
  8
0-5
  6
Continuous
 62
     6
370
     9
100
AcDbLine
 10
-64.47506094460623
 20
-638.2070726998599
 30
0.0
 11
-61.14220756597733
 21
-634.8735586961793
 31
0.0
  0
LINE
  5
1F4
330
1F
100
AcDbEntity
  8
0-5
  6
Continuous
 62
     6
370
     9
100
AcDbLine
 10
-73.90350166210962
 20
-638.2070726998599
 30
0.0
 11
-70.56998765842988
 21
-634.8735586961793
 31
0.0
  0
LINE
  5
1F5
330
1F
100
AcDbEntity
  8
0-5
  6
Continuous
 62
     6
370
     9
100
AcDbLine
 10
-83.33128175456216
 20
-638.2070726998599
 30
0.0
 11
-79.99776775088242
 21
-634.8735586961793
 31
0.0
  0
LINE
  5
1F6
330
1F
100
AcDbEntity
  8
0-5
  6
Continuous
 62
     6
370
     9
100
AcDbLine
 10
-92.75972247206555
 20
-638.2070726998599
 30
0.0
 11
-89.42620846838581
 21
-634.8735586961793
 31
0.0
  0
LINE
  5
1F7
330
1F
100
AcDbEntity
  8
0-5
  6
Continuous
 62
     6
370
     9
100
AcDbLine
 10
-102.1875025645196
 20
-638.2070726998599
 30
0.0
 11
-98.85398856083836
 21
-634.8735586961793
 31
0.0
  0
LINE
  5
1F8
330
1F
100
AcDbEntity
  8
0-5
  6
Continuous
 62
     6
370
     9
100
AcDbLine
 10
-111.6152826569722
 20
-638.2070726998599
 30
0.0
 11
-108.2824292783417
 21
-634.8735586961793
 31
0.0
  0
LINE
  5
1F9
330
1F
100
AcDbEntity
  8
0-5
  6
Continuous
 62
     6
370
     9
100
AcDbLine
 10
-121.0437233744755
 20
-638.2070726998599
 30
0.0
 11
-117.7102093707958
 21
-634.8735586961793
 31
0.0
  0
LINE
  5
1FA
330
1F
100
AcDbEntity
  8
0-5
  6
Continuous
 62
     6
370
     9
100
AcDbLine
 10
-130.4721640919789
 20
-638.2070726998599
 30
0.0
 11
-127.1386500882977
 21
-634.8735586961793
 31
0.0
  0
LINE
  5
1FB
330
1F
100
AcDbEntity
  8
0-5
  6
Continuous
 62
     6
370
     9
100
AcDbLine
 10
-139.8999441844315
 20
-638.2070726998599
 30
0.0
 11
-136.5664301807518
 21
-634.8735586961793
 31
0.0
  0
LINE
  5
1FC
330
1F
100
AcDbEntity
  8
0-5
  6
Continuous
 62
     6
370
     9
100
AcDbLine
 10
-149.3283849019348
 20
-638.2070726998599
 30
0.0
 11
-145.9948708982551
 21
-634.8735586961793
 31
0.0
  0
LINE
  5
1FD
330
1F
100
AcDbEntity
  8
0-5
  6
Continuous
 62
     6
370
     9
100
AcDbLine
 10
-158.7561649943874
 20
-638.2070726998599
 30
0.0
 11
-155.4226509907077
 21
-634.8735586961793
 31
0.0
  0
LINE
  5
1FE
330
1F
100
AcDbEntity
  8
0-5
  6
Continuous
 62
     6
370
     9
100
AcDbLine
 10
-168.1846057118908
 20
-638.2070726998599
 30
0.0
 11
-164.851091708211
 21
-634.8735586961793
 31
0.0
  0
LINE
  5
1FF
330
1F
100
AcDbEntity
  8
0-5
  6
Continuous
 62
     6
370
     9
100
AcDbLine
 10
-177.6123858043433
 20
-638.2070726998599
 30
0.0
 11
-174.2788718006636
 21
-634.8735586961793
 31
0.0
  0
LINE
  5
200
330
1F
100
AcDbEntity
  8
0-5
  6
Continuous
 62
     6
370
     9
100
AcDbLine
 10
-187.0401658967974
 20
-638.2070726998599
 30
0.0
 11
-183.707312518167
 21
-634.8735586961793
 31
0.0
  0
LINE
  5
201
330
1F
100
AcDbEntity
  8
0-5
  6
Continuous
 62
     6
370
     9
100
AcDbLine
 10
-196.4686066142993
 20
-638.2070726998599
 30
0.0
 11
-193.1350926106195
 21
-634.8735586961793
 31
0.0
  0
LINE
  5
202
330
1F
100
AcDbEntity
  8
0-5
  6
Continuous
 62
     6
370
     9
100
AcDbLine
 10
-205.8970473318026
 20
-638.2070726998599
 30
0.0
 11
-202.5635333281229
 21
-634.8735586961793
 31
0.0
  0
LINE
  5
203
330
1F
100
AcDbEntity
  8
0-5
  6
Continuous
 62
     6
370
     9
100
AcDbLine
 10
-215.3248274242567
 20
-638.2070726998599
 30
0.0
 11
-211.9913134205755
 21
-634.8735586961793
 31
0.0
  0
LINE
  5
204
330
1F
100
AcDbEntity
  8
0-5
  6
Continuous
 62
     6
370
     9
100
AcDbLine
 10
-224.7526075167092
 20
-638.2070726998599
 30
0.0
 11
-221.4197541380788
 21
-634.8735586961793
 31
0.0
  0
LINE
  5
205
330
1F
100
AcDbEntity
  8
0-5
  6
Continuous
 62
     6
370
     9
100
AcDbLine
 10
-234.1810482342127
 20
-638.2070726998599
 30
0.0
 11
-230.8475342305329
 21
-634.8735586961793
 31
0.0
  0
LINE
  5
206
330
1F
100
AcDbEntity
  8
0-5
  6
Continuous
 62
     6
370
     9
100
AcDbLine
 10
-281.3219305716279
 20
-638.2070726998599
 30
0.0
 11
-277.9884165679481
 21
-634.8735586961793
 31
0.0
  0
LINE
  5
207
330
1F
100
AcDbEntity
  8
0-5
  6
Continuous
 62
     6
370
     9
100
AcDbLine
 10
-290.7497106640805
 20
-638.2070726998599
 30
0.0
 11
-287.4161966604007
 21
-634.8735586961793
 31
0.0
  0
LINE
  5
208
330
1F
100
AcDbEntity
  8
0-5
  6
Continuous
 62
     6
370
     9
100
AcDbLine
 10
-300.1781513815838
 20
-638.2070726998599
 30
0.0
 11
-296.8446373779041
 21
-634.8735586961793
 31
0.0
  0
LINE
  5
209
330
1F
100
AcDbEntity
  8
0-5
  6
Continuous
 62
     6
370
     9
100
AcDbLine
 10
-309.6059314740364
 20
-638.2070726998599
 30
0.0
 11
-306.2724174703566
 21
-634.8735586961793
 31
0.0
  0
LINE
  5
20A
330
1F
100
AcDbEntity
  8
0-5
  6
Continuous
 62
     6
370
     9
100
AcDbLine
 10
-319.0337115664904
 20
-638.2070726998599
 30
0.0
 11
-315.70085818786
 21
-634.8735586961793
 31
0.0
  0
LINE
  5
20B
330
1F
100
AcDbEntity
  8
0-5
  6
Continuous
 62
     6
370
     9
100
AcDbLine
 10
-351.7954290596518
 20
-661.5403494755194
 30
0.0
 11
-343.3539621672578
 21
-653.0985522705992
 31
0.0
  0
LINE
  5
20C
330
1F
100
AcDbEntity
  8
0-5
  6
Continuous
 62
     6
370
     9
100
AcDbLine
 10
-328.4621522839923
 20
-638.2070726998599
 30
0.0
 11
-325.1286382803125
 21
-634.8735586961793
 31
0.0
  0
LINE
  5
20D
330
1F
100
AcDbEntity
  8
0-5
  6
Continuous
 62
     6
370
     9
100
AcDbLine
 10
-361.2238697771552
 20
-661.5403494755194
 30
0.0
 11
-341.7823351726572
 21
-642.0988148710205
 31
0.0
  0
LINE
  5
20E
330
1F
100
AcDbEntity
  8
0-5
  6
Continuous
 62
     6
370
     9
100
AcDbLine
 10
-337.8899323764463
 20
-638.2070726998599
 30
0.0
 11
-334.5570789978159
 21
-634.8735586961793
 31
0.0
  0
LINE
  5
20F
330
1F
100
AcDbEntity
  8
0-5
  6
Continuous
 62
     6
370
     9
100
AcDbLine
 10
-364.7403769197618
 20
-655.6287462131472
 30
0.0
 11
-343.9848590902685
 21
-634.8735586961793
 31
0.0
  0
LINE
  5
210
330
1F
100
AcDbEntity
  8
0-5
  6
Continuous
 62
     6
370
     9
100
AcDbLine
 10
-366.9851808405905
 20
-648.445439728998
 30
0.0
 11
-353.4132998077719
 21
-634.8735586961793
 31
0.0
  0
LINE
  5
211
330
1F
100
AcDbEntity
  8
0-5
  6
Continuous
 62
     6
370
     9
100
AcDbLine
 10
-369.2299847614208
 20
-641.2621332448496
 30
0.0
 11
-362.8410799002259
 21
-634.8735586961793
 31
0.0
  0
LINE
  5
212
330
1F
100
AcDbEntity
  8
0-5
  6
Continuous
 62
     6
370
     9
100
AcDbLine
 10
-271.8934898541245
 20
-638.2070726998599
 30
0.0
 11
-271.2262585533479
 21
-637.5398413990832
 31
0.0
  0
LINE
  5
213
330
1F
100
AcDbEntity
  8
0-5
  6
Continuous
 62
     6
370
     9
100
AcDbLine
 10
-7.906398514738431
 20
-638.2070726998599
 30
0.0
 11
-7.393092850675931
 21
-637.6934367232719
 31
0.0
  0
LINE
  5
214
330
1F
100
AcDbEntity
  8
0-1
  6
Continuous
 62
     4
370
     9
100
AcDbLine
 10
-477.0598479672594
 20
-501.5402654245316
 30
0.0
 11
-443.7260291805606
 21
-634.8735586961793
 31
0.0
  0
LINE
  5
215
330
1F
100
AcDbEntity
  8
0-1
  6
Continuous
 62
     4
370
     9
100
AcDbLine
 10
-10.39299120396736
 20
-634.8735586961793
 30
0.0
 11
-443.7260291805606
 21
-634.8735586961793
 31
0.0
  0
LINE
  5
216
330
1F
100
AcDbEntity
  8
0-1
  6
Continuous
 62
     4
370
     9
100
AcDbLine
 10
456.2732049342738
 20
-634.8732283836547
 30
0.0
 11
489.6070237209741
 21
-501.5402654245316
 31
0.0
  0
LINE
  5
217
330
1F
100
AcDbEntity
  8
0-1
  6
Continuous
 62
     4
370
     9
100
AcDbLine
 10
456.2732049342738
 20
-634.8732283836547
 30
0.0
 11
22.94016695768205
 21
-634.8732283836547
 31
0.0
  0
LINE
  5
218
330
1F
100
AcDbEntity
  8
0-1
  6
Continuous
 62
     4
370
     9
100
AcDbLine
 10
22.94016695768205
 20
-501.5402654245316
 30
0.0
 11
22.94016695768205
 21
-634.8732283836547
 31
0.0
  0
LINE
  5
219
330
1F
100
AcDbEntity
  8
0-1
  6
Continuous
 62
     4
370
     9
100
AcDbLine
 10
-10.39299120396736
 20
-501.5402654245316
 30
0.0
 11
-10.39299120396736
 21
-634.8732283836547
 31
0.0
  0
LINE
  5
21A
330
1F
100
AcDbEntity
  8
0-F
  6
Continuous
 62
     7
370
     9
100
AcDbLine
 10
701.172856696108
 20
-634.8732283836547
 30
0.0
 11
701.172856696108
 21
-501.539935112007
 31
0.0
  0
LINE
  5
21B
330
1F
100
AcDbEntity
  8
0-F
  6
Continuous
 62
     7
370
     9
100
AcDbLine
 10
487.9402667191342
 20
-634.8732283836547
 30
0.0
 11
705.1722807504643
 21
-634.8732283836547
 31
0.0
  0
LINE
  5
21C
330
1F
100
AcDbEntity
  8
0-F
  6
Continuous
 62
     7
370
     9
100
AcDbLine
 10
529.6065492649336
 20
-501.539935112007
 30
0.0
 11
705.1722807504643
 21
-501.539935112007
 31
0.0
  0
LINE
  5
21D
330
1F
100
AcDbEntity
  8
0-F
  6
Continuous
 62
     7
370
     9
100
AcDbLine
 10
701.172856696108
 20
-634.8732283836547
 30
0.0
 11
695.9512762987476
 21
-595.2155763032122
 31
0.0
  0
LINE
  5
21E
330
1F
100
AcDbEntity
  8
0-F
  6
Continuous
 62
     7
370
     9
100
AcDbLine
 10
701.172856696108
 20
-634.8732283836547
 30
0.0
 11
706.3937764684208
 21
-595.2155763032122
 31
0.0
  0
LINE
  5
21F
330
1F
100
AcDbEntity
  8
0-F
  6
Continuous
 62
     7
370
     9
100
AcDbLine
 10
701.172856696108
 20
-501.539935112007
 30
0.0
 11
695.9512762987476
 21
-541.1975871924495
 31
0.0
  0
LINE
  5
220
330
1F
100
AcDbEntity
  8
0-F
  6
Continuous
 62
     7
370
     9
100
AcDbLine
 10
701.172856696108
 20
-501.539935112007
 30
0.0
 11
706.3937764684208
 21
-541.1975871924495
 31
0.0
  0
ELLIPSE
  5
221
330
1F
100
AcDbEntity
  8
0-A
  6
Continuous
 62
     4
370
     9
100
AcDbEllipse
 10
259.6064487179569
 20
-659.641382768508
 30
0.0
 11
17.49993306636197
 21
0.0
 31
0.0
210
0.0
220
0.0
230
1.0
 40
0.7428
 41
1.666184365454919
 42
3.141592653589793
  0
ELLIPSE
  5
222
330
1F
100
AcDbEntity
  8
0-A
  6
Continuous
 62
     4
370
     9
100
AcDbEllipse
 10
259.6064487179569
 20
-659.641382768508
 30
0.0
 11
17.49993306636197
 21
0.0
 31
0.0
210
0.0
220
0.0
230
1.0
 40
0.7428
 41
0.0
 42
1.475408021818766
  0
ARC
  5
223
330
1F
100
AcDbEntity
  8
0-B
  6
Continuous
 62
     2
370
     9
100
AcDbCircle
 10
-30.35377709798086
 20
-451.5401978695328
 30
0.0
 40
13.33333345607134
100
AcDbArc
 50
32.21649169921875
 51
90.0
  0
ARC
  5
224
330
1F
100
AcDbEntity
  8
0-B
  6
Continuous
 62
     2
370
     9
100
AcDbCircle
 10
-1.976628063484105
 20
-438.0902021584898
 30
0.0
 40
38.4165156700743
100
AcDbArc
 50
180.1736297607422
 51
253.2320861816407
  0
ARC
  5
225
330
1F
100
AcDbEntity
  8
0-B
  6
Continuous
 62
     2
370
     9
100
AcDbCircle
 10
-1.976628063484105
 20
-438.0902021584898
 30
0.0
 40
34.41652131049943
100
AcDbArc
 50
180.1736297607422
 51
255.4090576171875
  0
ARC
  5
226
330
1F
100
AcDbEntity
  8
0-B
  6
Continuous
 62
     2
370
     9
100
AcDbCircle
 10
-11.05956187969314
 20
-470.8733899657861
 30
0.0
 40
0.6666666808678376
100
AcDbArc
 50
308.2657165527344
 51
0.0
  0
ARC
  5
227
330
1F
100
AcDbEntity
  8
0-B
  6
Continuous
 62
     2
370
     9
100
AcDbCircle
 10
42.90095285169555
 20
-451.5401978695328
 30
0.0
 40
13.33333345607134
100
AcDbArc
 50
90.0
 51
147.7835083007812
  0
ARC
  5
228
330
1F
100
AcDbEntity
  8
0-B
  6
Continuous
 62
     2
370
     9
100
AcDbCircle
 10
14.52380381719728
 20
-438.0902021584898
 30
0.0
 40
38.4165156700743
100
AcDbArc
 50
286.7679138183594
 51
359.8263702392579
  0
ARC
  5
229
330
1F
100
AcDbEntity
  8
0-B
  6
Continuous
 62
     2
370
     9
100
AcDbCircle
 10
14.52380381719728
 20
-438.0902021584898
 30
0.0
 40
34.41652131049943
100
AcDbArc
 50
284.5909423828125
 51
359.8263702392578
  0
ARC
  5
22A
330
1F
100
AcDbEntity
  8
0-B
  6
Continuous
 62
     2
370
     9
100
AcDbCircle
 10
23.60673763340783
 20
-470.8733899657861
 30
0.0
 40
0.6666666808678376
100
AcDbArc
 50
180.0
 51
231.7342834472656
  0
ARC
  5
22B
330
1F
100
AcDbEntity
  8
0-B
  6
Continuous
 62
     2
370
     9
100
AcDbCircle
 10
22.94016695768205
 20
-470.8733899657861
 30
0.0
 40
4.000000165849732
100
AcDbArc
 50
213.5567016601563
 51
270.0
  0
ARC
  5
22C
330
1F
100
AcDbEntity
  8
0-B
  6
Continuous
 62
     2
370
     9
100
AcDbCircle
 10
-10.39299120396736
 20
-470.8733899657861
 30
0.0
 40
4.000000165849732
100
AcDbArc
 50
270.0
 51
326.4436187744141
  0
ARC
  5
22D
330
1F
100
AcDbEntity
  8
0-0
  6
Continuous
 62
     3
370
     9
100
AcDbCircle
 10
-293.0097089610664
 20
-642.0050061138822
 30
0.0
 40
10.0000000920535
100
AcDbArc
 50
251.9999389648437
 51
348.7693023681641
  0
ARC
  5
22E
330
1F
100
AcDbEntity
  8
0-0
  6
JWW_DASHED1
 62
     3
370
     9
100
AcDbCircle
 10
-255.5443411099569
 20
-690.6607016915743
 30
0.0
 40
10.0000000920535
100
AcDbArc
 50
186.9997253417969
 51
266.0001831054688
  0
ARC
  5
22F
330
1F
100
AcDbEntity
  8
0-0
  6
JWW_DASHED1
 62
     3
370
     9
100
AcDbCircle
 10
-290.7067700358122
 20
-677.8022957130518
 30
0.0
 40
10.0000000920535
100
AcDbArc
 50
7.000427246093758
 51
72.00015258789064
  0
ARC
  5
230
330
1F
100
AcDbEntity
  8
0-0
  6
Continuous
 62
     3
370
     9
100
AcDbCircle
 10
-175.6741119068412
 20
-741.5400611884877
 30
0.0
 40
16.66666682008918
100
AcDbArc
 50
4.085678100585942
 51
90.00000000000001
  0
ARC
  5
231
330
1F
100
AcDbEntity
  8
0-0
  6
Continuous
 62
     3
370
     9
100
AcDbCircle
 10
-169.809743335564
 20
-730.0709496906898
 30
0.0
 40
23.33333096755824
100
AcDbArc
 50
4.085601806640622
 51
85.99998474121094
  0
ARC
  5
232
330
1F
100
AcDbEntity
  8
0-0
  6
Continuous
 62
     3
370
     9
100
AcDbCircle
 10
305.5562240897302
 20
-642.0050061138822
 30
0.0
 40
10.0000000920535
100
AcDbArc
 50
191.2306976318359
 51
288.0000610351562
  0
ARC
  5
233
330
1F
100
AcDbEntity
  8
0-0
  6
JWW_DASHED1
 62
     3
370
     9
100
AcDbCircle
 10
268.0908562386193
 20
-690.6607016915743
 30
0.0
 40
10.0000000920535
100
AcDbArc
 50
273.9998168945312
 51
353.0002746582031
  0
ARC
  5
234
330
1F
100
AcDbEntity
  8
0-0
  6
Continuous
 62
     3
370
     9
100
AcDbCircle
 10
303.253285164476
 20
-677.8022957130518
 30
0.0
 40
10.0000000920535
100
AcDbArc
 50
107.9998474121093
 51
172.9995727539062
  0
ARC
  5
235
330
1F
100
AcDbEntity
  8
0-0
  6
Continuous
 62
     3
370
     9
100
AcDbCircle
 10
188.220627035505
 20
-741.5400611884877
 30
0.0
 40
16.66666682008918
100
AcDbArc
 50
90.0
 51
175.9143218994141
  0
ARC
  5
236
330
1F
100
AcDbEntity
  8
0-0
  6
Continuous
 62
     3
370
     9
100
AcDbCircle
 10
182.3562584642279
 20
-730.0709496906898
 30
0.0
 40
23.33333096755824
100
AcDbArc
 50
94.00001525878906
 51
175.9143981933594
  0
ARC
  5
237
330
1F
100
AcDbEntity
  8
0-0
  6
Continuous
 62
     3
370
     9
100
AcDbCircle
 10
-226.2945063840478
 20
-726.5402391095029
 30
0.0
 40
5.000000046026752
100
AcDbArc
 50
90.0
 51
168.6897888183594
  0
ARC
  5
238
330
1F
100
AcDbEntity
  8
0-0
  6
Continuous
 62
     3
370
     9
100
AcDbCircle
 10
-237.8257166365703
 20
-733.2069368043378
 30
0.0
 40
5.000000046026752
100
AcDbArc
 50
270.0
 51
348.6897888183594
  0
ARC
  5
239
330
1F
100
AcDbEntity
  8
0-0
  6
Continuous
 62
     3
370
     9
100
AcDbCircle
 10
-297.903619333493
 20
-675.463683035083
 30
0.0
 40
10.0000000920535
100
AcDbArc
 50
6.762680053710941
 51
72.00015258789062
  0
ARC
  5
23A
330
1F
100
AcDbEntity
  8
0-0
  6
Continuous
 62
     3
370
     9
100
AcDbCircle
 10
232.5175185314924
 20
-698.1604475748043
 30
0.0
 40
5.000000046026752
100
AcDbArc
 50
274.0011749267578
 51
342.6733703613281
  0
ARC
  5
23B
330
1F
100
AcDbEntity
  8
0-0
  6
Continuous
 62
     3
370
     9
100
AcDbCircle
 10
246.6178996045309
 20
-686.5403832530187
 30
0.0
 40
5.000000046026752
100
AcDbArc
 50
90.0
 51
162.673095703125
  0
ARC
  5
23C
330
1F
100
AcDbEntity
  8
0-0
  6
Continuous
 62
     3
370
     9
100
AcDbCircle
 10
-260.8412327630496
 20
-674.8737448651889
 30
0.0
 40
6.666666728035669
100
AcDbArc
 50
186.9999847412109
 51
270.0
  0
ARC
  5
23D
330
1F
100
AcDbEntity
  8
0-0
  6
Continuous
 62
     3
370
     9
100
AcDbCircle
 10
-219.9710034028301
 20
-698.1604475748043
 30
0.0
 40
5.000000046026752
100
AcDbArc
 50
197.3266296386719
 51
265.9988250732422
  0
ARC
  5
23E
330
1F
100
AcDbEntity
  8
0-0
  6
Continuous
 62
     3
370
     9
100
AcDbCircle
 10
-234.071384475867
 20
-686.5403832530187
 30
0.0
 40
5.000000046026752
100
AcDbArc
 50
17.326904296875
 51
90.0
  0
ARC
  5
23F
330
1F
100
AcDbEntity
  8
0-0
  6
Continuous
 62
     3
370
     9
100
AcDbCircle
 10
-275.9510489129047
 20
-733.2069368043378
 30
0.0
 40
5.000000046026752
100
AcDbArc
 50
186.7625885009766
 51
270.0
  0
ARC
  5
240
330
1F
100
AcDbEntity
  8
0-0
  6
Continuous
 62
     3
370
     9
100
AcDbCircle
 10
-280.3930917509425
 20
-791.5401287434872
 30
0.0
 40
6.666666728035669
100
AcDbArc
 50
270.0
 51
0.0
  0
ARC
  5
241
330
1F
100
AcDbEntity
  8
0-0
  6
Continuous
 62
     3
370
     9
100
AcDbCircle
 10
-280.3930917509425
 20
-791.5401287434872
 30
0.0
 40
26.66666691214268
100
AcDbArc
 50
270.0
 51
0.0
  0
ARC
  5
242
330
1F
100
AcDbEntity
  8
0-0
  6
JWW_CENTER1
 62
     3
370
     9
100
AcDbCircle
 10
-280.3930917509425
 20
-791.5401287434872
 30
0.0
 40
16.66666682008918
100
AcDbArc
 50
270.0
 51
0.0
  0
ARC
  5
243
330
1F
100
AcDbEntity
  8
0-0
  6
Continuous
 62
     3
370
     9
100
AcDbCircle
 10
-306.6582224997159
 20
-700.657940577363
 30
0.0
 40
36.66666700419619
100
AcDbArc
 50
72.00042724609375
 51
117.7434387207031
  0
ARC
  5
244
330
1F
100
AcDbEntity
  8
0-0
  6
Continuous
 62
     3
370
     9
100
AcDbCircle
 10
319.2047376283798
 20
-700.657940577363
 30
0.0
 40
36.66666700419619
100
AcDbArc
 50
62.25656127929688
 51
107.9995727539062
  0
ARC
  5
245
330
1F
100
AcDbEntity
  8
0-0
  6
Continuous
 62
     3
370
     9
100
AcDbCircle
 10
349.9971318466783
 20
-641.540256391014
 30
0.0
 40
3.333333364017835
100
AcDbArc
 50
7.124267578125002
 51
90.0
  0
ARC
  5
246
330
1F
100
AcDbEntity
  8
0-0
  6
Continuous
 62
     3
370
     9
100
AcDbCircle
 10
-337.4506167180144
 20
-641.540256391014
 30
0.0
 40
3.333333364017835
100
AcDbArc
 50
90.0
 51
172.8756713867188
  0
ARC
  5
247
330
1F
100
AcDbEntity
  8
0-0
  6
Continuous
 62
     3
370
     9
100
AcDbCircle
 10
246.234076450321
 20
-722.2623615964574
 30
0.0
 40
6.666666728035669
100
AcDbArc
 50
93.99940490722656
 51
173.7851409912109
  0
ARC
  5
248
330
1F
100
AcDbEntity
  8
0-0
  6
Continuous
 62
     3
370
     9
100
AcDbCircle
 10
268.0908562386193
 20
-690.6607016915743
 30
0.0
 40
23.33333096755824
100
AcDbArc
 50
273.9998168945312
 51
353.0002746582031
  0
ARC
  5
249
330
1F
100
AcDbEntity
  8
0-0
  6
JWW_DASHED1
 62
     3
370
     9
100
AcDbCircle
 10
-255.5443411099569
 20
-690.6607016915743
 30
0.0
 40
23.33333096755824
100
AcDbArc
 50
186.9997253417969
 51
266.0001831054688
  0
ARC
  5
24A
330
1F
100
AcDbEntity
  8
0-0
  6
JWW_DASHED1
 62
     3
370
     9
100
AcDbCircle
 10
-233.6875613216572
 20
-722.2623615964574
 30
0.0
 40
6.666666728035669
100
AcDbArc
 50
6.214859008789066
 51
86.00059509277344
  0
ARC
  5
24B
330
1F
100
AcDbEntity
  8
0-C
  6
Continuous
 62
     2
370
     9
100
AcDbCircle
 10
22.94016695768205
 20
-679.8730249331338
 30
0.0
 40
1.666666682008917
100
AcDbArc
 50
180.0
 51
270.0
  0
ARC
  5
24C
330
1F
100
AcDbEntity
  8
0-C
  6
Continuous
 62
     2
370
     9
100
AcDbCircle
 10
-10.3936518290182
 20
-679.8730249331338
 30
0.0
 40
1.666666682008917
100
AcDbArc
 50
270.0
 51
0.0
  0
ARC
  5
24D
330
1F
100
AcDbEntity
  8
0-C
  6
Continuous
 62
     2
370
     9
100
AcDbCircle
 10
-67.06008676632712
 20
-718.873355088554
 30
0.0
 40
6.666666728035669
100
AcDbArc
 50
270.0
 51
0.0
  0
ARC
  5
24E
330
1F
100
AcDbEntity
  8
0-C
  6
Continuous
 62
     2
370
     9
100
AcDbCircle
 10
-98.0790753768686
 20
-718.873355088554
 30
0.0
 40
6.666666728035669
100
AcDbArc
 50
189.4628143310547
 51
270.0
  0
ARC
  5
24F
330
1F
100
AcDbEntity
  8
0-C
  6
Continuous
 62
     2
370
     9
100
AcDbCircle
 10
79.60660189499097
 20
-718.873355088554
 30
0.0
 40
6.666666728035669
100
AcDbArc
 50
180.0
 51
270.0
  0
ARC
  5
250
330
1F
100
AcDbEntity
  8
0-C
  6
Continuous
 62
     2
370
     9
100
AcDbCircle
 10
110.6255905055325
 20
-718.873355088554
 30
0.0
 40
6.666666728035669
100
AcDbArc
 50
270.0
 51
350.5371856689453
  0
ARC
  5
251
330
1F
100
AcDbEntity
  8
0-C
  6
Continuous
 62
     2
370
     9
100
AcDbCircle
 10
-10.3936518290182
 20
-679.8730249331338
 30
0.0
 40
5.66666684785865
100
AcDbArc
 50
270.0
 51
350.4709777832031
  0
ARC
  5
252
330
1F
100
AcDbEntity
  8
0-C
  6
Continuous
 62
     2
370
     9
100
AcDbCircle
 10
22.94016695768205
 20
-679.8730249331338
 30
0.0
 40
5.66666684785865
100
AcDbArc
 50
189.5361938476562
 51
270.0
  0
ARC
  5
253
330
1F
100
AcDbEntity
  8
0-0
  6
Continuous
 62
     3
370
     9
100
AcDbCircle
 10
273.3877478917134
 20
-674.8737448651889
 30
0.0
 40
6.666666728035669
100
AcDbArc
 50
270.0
 51
353.0000152587891
  0
TEXT
  5
254
330
1F
100
AcDbEntity
  8
0-F
  6
Continuous
 62
     2
370
     9
100
AcDbText
 10
682.199162950949
 20
-589.4564171295095
 30
0.0
 40
30.48
  1
40
 50
90.00000250447867
 41
1.062500000000001
  7
ＭＳ ゴシック
100
AcDbText
  0
LINE
  5
255
330
1F
100
AcDbEntity
  8
0-5
  6
Continuous
 62
     7
370
     9
100
AcDbLine
 10
380.3039365164097
 20
-645.9767140527414
 30
0.0
 11
395.5229722416278
 21
-665.8105475600224
 31
0.0
  0
LINE
  5
256
330
1F
100
AcDbEntity
  8
0-5
  6
Continuous
 62
     7
370
     9
100
AcDbLine
 10
380.3039365164097
 20
-645.9767140527414
 30
0.0
 11
389.871022325537
 21
-669.0737023655236
 31
0.0
  0
LINE
  5
257
330
1F
100
AcDbEntity
  8
0-5
  6
Continuous
 62
     7
370
     9
100
AcDbLine
 10
380.3039365164097
 20
-645.9767140527414
 30
0.0
 11
456.6601968828799
 21
-778.2296364834253
 31
0.0
  0
LINE
  5
258
330
1F
100
AcDbEntity
  8
0-5
  6
Continuous
 62
     7
370
     9
100
AcDbLine
 10
456.6601968828799
 20
-778.2296364834253
 30
0.0
 11
665.9985169158728
 21
-778.2296364834253
 31
0.0
  0
TEXT
  5
259
330
1F
100
AcDbEntity
  8
0-5
  6
Continuous
 62
     7
370
     9
100
AcDbText
 10
460.3886851407171
 20
-811.780489690566
 30
0.0
 40
22.86
  1
クロロプレン
 41
1.138888888888889
  7
ＭＳ ゴシック
100
AcDbText
  0
TEXT
  5
25A
330
1F
100
AcDbEntity
  8
0-5
  6
Continuous
 62
     7
370
     9
100
AcDbText
 10
509.069802482378
 20
-769.7727804488362
 30
0.0
 40
22.86
  1
リング
 41
1.111111111111111
  7
ＭＳ ゴシック
100
AcDbText
  0
TEXT
  5
25B
330
1F
100
AcDbEntity
  8
0-5
  6
Continuous
 62
     7
370
     9
100
AcDbText
 10
-559.6142786635621
 20
-327.9355443228232
 30
0.0
 40
22.86
  1
固定プレート
 41
1.138888888888889
  7
ＭＳ ゴシック
100
AcDbText
  0
TEXT
  5
25C
330
1F
100
AcDbEntity
  8
0-5
  6
Continuous
 62
     7
370
     9
100
AcDbText
 10
-522.2223836041379
 20
-369.7937078627446
 30
0.0
 40
22.86
  1
ＳＰＨＣ
 41
1.125
  7
ＭＳ ゴシック
100
AcDbText
  0
LINE
  5
25D
330
1F
100
AcDbEntity
  8
0-5
  6
Continuous
 62
     7
370
     9
100
AcDbLine
 10
-340.2902061437913
 20
-336.4880240296224
 30
0.0
 11
-564.7495563376457
 21
-336.4880240296224
 31
0.0
  0
LINE
  5
25E
330
1F
100
AcDbEntity
  8
0-5
  6
Continuous
 62
     7
370
     9
100
AcDbLine
 10
-260.3933289789642
 20
-474.8734746451923
 30
0.0
 11
-340.2902061437913
 21
-336.4880240296224
 31
0.0
  0
LINE
  5
25F
330
1F
100
AcDbEntity
  8
0-5
  6
Continuous
 62
     7
370
     9
100
AcDbLine
 10
-260.3933289789642
 20
-474.8734746451923
 30
0.0
 11
-275.6123647041823
 21
-455.0396411379114
 31
0.0
  0
LINE
  5
260
330
1F
100
AcDbEntity
  8
0-5
  6
Continuous
 62
     7
370
     9
100
AcDbLine
 10
-260.3933289789642
 20
-474.8734746451923
 30
0.0
 11
-269.9604147880915
 21
-451.7764863324101
 31
0.0
  0
TEXT
  5
261
330
1F
100
AcDbEntity
  8
0-5
  6
Continuous
 62
     7
370
     9
100
AcDbText
 10
486.3341003820904
 20
-359.1699375077736
 30
0.0
 40
22.86
  1
特殊発砲樹脂
 41
1.138888888888889
  7
ＭＳ ゴシック
100
AcDbText
  0
LINE
  5
262
330
1F
100
AcDbEntity
  8
0-5
  6
Continuous
 62
     7
370
     9
100
AcDbLine
 10
485.9822051690483
 20
-323.5125699274704
 30
0.0
 11
690.3816619788346
 21
-323.5125699274704
 31
0.0
  0
TEXT
  5
263
330
1F
100
AcDbEntity
  8
0-5
  6
Continuous
 62
     7
370
     9
100
AcDbText
 10
528.670643670905
 20
-315.1149395681906
 30
0.0
 40
22.86
  1
抜型本体
 41
1.125
  7
ＭＳ ゴシック
100
AcDbText
  0
LINE
  5
264
330
1F
100
AcDbEntity
  8
0-5
  6
Continuous
 62
     7
370
     9
100
AcDbLine
 10
383.1978672506113
 20
-501.5402654245316
 30
0.0
 11
485.9822051690483
 21
-323.5125699274704
 31
0.0
  0
LINE
  5
265
330
1F
100
AcDbEntity
  8
0-5
  6
Continuous
 62
     7
370
     9
100
AcDbLine
 10
383.1978672506113
 20
-501.5402654245316
 30
0.0
 11
392.7649530597386
 21
-478.4432771117494
 31
0.0
  0
LINE
  5
266
330
1F
100
AcDbEntity
  8
0-5
  6
Continuous
 62
     7
370
     9
100
AcDbLine
 10
383.1978672506113
 20
-501.5402654245316
 30
0.0
 11
398.4169029758293
 21
-481.7064319172507
 31
0.0
  0
LINE
  5
267
330
1F
100
AcDbEntity
  8
0-5
  6
Continuous
 62
     7
370
     9
100
AcDbLine
 10
-36.39299134392093
 20
-438.1944982037703
 30
0.0
 11
-168.9928088336106
 21
-208.5248772372676
 31
0.0
  0
TEXT
  5
268
330
1F
100
AcDbEntity
  8
0-5
  6
Continuous
 62
     6
370
     9
100
AcDbText
 10
-331.487100374273
 20
-242.2149122519824
 30
0.0
 40
19.05
  1
（別途）
 41
1.089999999999999
  7
ＭＳ ゴシック
100
AcDbText
  0
LINE
  5
269
330
1F
100
AcDbEntity
  8
0-5
  6
Continuous
 62
     7
370
     9
100
AcDbLine
 10
-168.9928088336106
 20
-208.5248772372676
 30
0.0
 11
-433.561289366176
 21
-208.5248772372676
 31
0.0
  0
TEXT
  5
26A
330
1F
100
AcDbEntity
  8
0-5
  6
Continuous
 62
     6
370
     9
100
AcDbText
 10
-422.4909549951381
 20
-200.2072030102524
 30
0.0
 40
19.05
  1
蝶ナット：ＳＰＨＣ
 41
1.106666666666666
  7
ＭＳ ゴシック
100
AcDbText
  0
LINE
  5
26B
330
1F
100
AcDbEntity
  8
0-5
  6
Continuous
 62
     7
370
     9
100
AcDbLine
 10
-36.39299134392093
 20
-438.1944982037703
 30
0.0
 11
-51.61202706913892
 21
-418.3606646964893
 31
0.0
  0
LINE
  5
26C
330
1F
100
AcDbEntity
  8
0-5
  6
Continuous
 62
     7
370
     9
100
AcDbLine
 10
-36.39299134392093
 20
-438.1944982037703
 30
0.0
 11
-45.96007715304816
 21
-415.097509890988
 31
0.0
  0
LINE
  5
26D
330
1F
100
AcDbEntity
  8
0-4
  6
Continuous
 62
     7
370
     9
100
AcDbLine
 10
-343.7265546956124
 20
-307.4409745239797
 30
0.0
 11
356.2737304493256
 21
-307.4409745239797
 31
0.0
  0
LINE
  5
26E
330
1F
100
AcDbEntity
  8
0-4
  6
Continuous
 62
     7
370
     9
100
AcDbLine
 10
-343.7265546956124
 20
-307.4409745239797
 30
0.0
 11
-318.9404331612672
 21
-304.1778197184784
 31
0.0
  0
LINE
  5
26F
330
1F
100
AcDbEntity
  8
0-4
  6
Continuous
 62
     7
370
     9
100
AcDbLine
 10
-343.7265546956124
 20
-307.4409745239797
 30
0.0
 11
-318.9404331612672
 21
-310.704129329481
 31
0.0
  0
LINE
  5
270
330
1F
100
AcDbEntity
  8
0-4
  6
Continuous
 62
     7
370
     9
100
AcDbLine
 10
356.2737304493256
 20
-307.4409745239797
 30
0.0
 11
331.4876089149803
 21
-304.1778197184784
 31
0.0
  0
LINE
  5
271
330
1F
100
AcDbEntity
  8
0-4
  6
Continuous
 62
     7
370
     9
100
AcDbLine
 10
356.2737304493256
 20
-307.4409745239797
 30
0.0
 11
331.4876089149803
 21
-310.704129329481
 31
0.0
  0
LINE
  5
272
330
1F
100
AcDbEntity
  8
0-4
  6
Continuous
 62
     7
370
     9
100
AcDbLine
 10
-343.7265546956124
 20
-304.4409745239797
 30
0.0
 11
-343.7265546956124
 21
-644.8735331666744
 31
0.0
  0
LINE
  5
273
330
1F
100
AcDbEntity
  8
0-4
  6
Continuous
 62
     7
370
     9
100
AcDbLine
 10
356.2737304493256
 20
-304.4409745239797
 30
0.0
 11
356.2737304493256
 21
-644.8735331666744
 31
0.0
  0
TEXT
  5
274
330
1F
100
AcDbEntity
  8
0-4
  6
Continuous
 62
     2
370
   211
100
AcDbText
 10
-62.92673069567068
 20
-291.8009745239797
 30
0.0
 40
30.48
  1
φ210
 41
1.1
  7
ＭＳ ゴシック
100
AcDbText
  0
TEXT
  5
275
330
1F
100
AcDbEntity
  8
0-F
  6
Continuous
 62
     2
370
     9
100
AcDbText
 10
-691.097272295238
 20
399.1680858303868
 30
0.0
 40
30.48
  1
195
 50
90.0000025
 41
1.083333333333333
  7
ＭＳ ゴシック
100
AcDbText
  0
TEXT
  5
276
330
1F
100
AcDbEntity
  8
F-4
  6
Continuous
 62
     2
370
     0
100
AcDbText
 10
-628.8910823449612
 20
-1348.094557508731
 30
0.0
 40
30.48
  1
複数回使用抜型　ＡＷ１００Ｅ－４０
 41
1.117647058823529
  7
ＭＳ ゴシック
100
AcDbText
  0
ENDSEC
  0
SECTION
  2
OBJECTS
  0
DICTIONARY
  5
C
330
0
100
AcDbDictionary
281
     1
  3
ACAD_GROUP
350
D
  3
ACAD_LAYOUT
350
1A
  3
ACAD_MLEADERSTYLE
350
278
  3
ACAD_MLINESTYLE
350
17
  3
ACAD_PLOTSETTINGS
350
19
  3
ACAD_PLOTSTYLENAME
350
E
  3
ACAD_TABLESTYLE
350
277
  3
ACAD_VISUALSTYLE
350
2A
  3
AcDbVariableDictionary
350
279
  0
DICTIONARY
  5
D
102
{ACAD_REACTORS
330
C
102
}
330
C
100
AcDbDictionary
281
     1
  0
DICTIONARY
  5
1A
102
{ACAD_REACTORS
330
C
102
}
330
C
100
AcDbDictionary
281
     1
  3
Layout1
350
1E
  3
Layout2
350
26
  3
Model
350
22
  0
DICTIONARY
  5
278
102
{ACAD_REACTORS
330
C
102
}
330
C
100
AcDbDictionary
281
     1
  0
DICTIONARY
  5
17
102
{ACAD_REACTORS
330
C
102
}
330
C
100
AcDbDictionary
281
     1
  3
Standard
350
18
  0
DICTIONARY
  5
19
102
{ACAD_REACTORS
330
C
102
}
330
C
100
AcDbDictionary
281
     1
  0
ACDBDICTIONARYWDFLT
  5
E
102
{ACAD_REACTORS
330
C
102
}
330
C
100
AcDbDictionary
281
     1
  3
Normal
350
F
100
AcDbDictionaryWithDefault
340
F
  0
DICTIONARY
  5
277
102
{ACAD_REACTORS
330
C
102
}
330
C
100
AcDbDictionary
281
     1
  0
DICTIONARY
  5
2A
102
{ACAD_REACTORS
330
C
102
}
330
C
100
AcDbDictionary
281
     1
  3
2dWireframe
350
2F
  3
3D Hidden
350
31
  3
3dWireframe
350
30
  3
Basic
350
32
  3
Brighten
350
36
  3
ColorChange
350
3A
  3
Conceptual
350
34
  3
Dim
350
35
  3
Facepattern
350
39
  3
Flat
350
2B
  3
FlatWithEdges
350
2C
  3
Gouraud
350
2D
  3
GouraudWithEdges
350
2E
  3
Linepattern
350
38
  3
Realistic
350
33
  3
Thicken
350
37
  0
DICTIONARY
  5
279
102
{ACAD_REACTORS
330
C
102
}
330
C
100
AcDbDictionary
281
     1
  3
PSOLHEIGHT
350
27B
  3
PSOLWIDTH
350
27A
  0
LAYOUT
  5
1E
102
{ACAD_REACTORS
330
1A
102
}
102
{ACAD_XDICTIONARY
360
27C
102
}
330
1A
100
AcDbPlotSettings
  1

  2
none_device
  4

  6

 40
0.0
 41
0.0
 42
0.0
 43
0.0
 44
0.0
 45
0.0
 46
0.0
 47
0.0
 48
0.0
 49
0.0
140
0.0
141
0.0
142
1.0
143
1.0
 70
   688
 72
     0
 73
     0
 74
     5
  7

 75
    16
147
1.0
148
0.0
149
0.0
100
AcDbLayout
  1
Layout1
 70
     1
 71
     1
 10
0.0
 20
0.0
 11
420.0
 21
297.0
 12
0.0
 22
0.0
 32
0.0
 14
1.000000000000000E+20
 24
1.000000000000000E+20
 34
1.000000000000000E+20
 15
-1.000000000000000E+20
 25
-1.000000000000000E+20
 35
-1.000000000000000E+20
146
0.0
 13
0.0
 23
0.0
 33
0.0
 16
1.0
 26
0.0
 36
0.0
 17
0.0
 27
1.0
 37
0.0
 76
     0
330
1B
  0
LAYOUT
  5
26
102
{ACAD_REACTORS
330
1A
102
}
102
{ACAD_XDICTIONARY
360
280
102
}
330
1A
100
AcDbPlotSettings
  1

  2
none_device
  4

  6

 40
0.0
 41
0.0
 42
0.0
 43
0.0
 44
0.0
 45
0.0
 46
0.0
 47
0.0
 48
0.0
 49
0.0
140
0.0
141
0.0
142
1.0
143
1.0
 70
   688
 72
     0
 73
     0
 74
     5
  7

 75
    16
147
1.0
148
0.0
149
0.0
100
AcDbLayout
  1
Layout2
 70
     1
 71
     2
 10
0.0
 20
0.0
 11
0.0
 21
0.0
 12
0.0
 22
0.0
 32
0.0
 14
0.0
 24
0.0
 34
0.0
 15
0.0
 25
0.0
 35
0.0
146
0.0
 13
0.0
 23
0.0
 33
0.0
 16
1.0
 26
0.0
 36
0.0
 17
0.0
 27
1.0
 37
0.0
 76
     0
330
23
  0
LAYOUT
  5
22
102
{ACAD_REACTORS
330
1A
102
}
102
{ACAD_XDICTIONARY
360
27E
102
}
330
1A
100
AcDbPlotSettings
  1

  2
none_device
  4

  6

 40
0.0
 41
0.0
 42
0.0
 43
0.0
 44
0.0
 45
0.0
 46
0.0
 47
0.0
 48
0.0
 49
0.0
140
0.0
141
0.0
142
1.0
143
1.0
 70
  1712
 72
     0
 73
     0
 74
     0
  7

 75
     0
147
1.0
148
0.0
149
0.0
100
AcDbLayout
  1
Model
 70
     1
 71
     0
 10
-2100.0
 20
-1485.0
 11
2100.0
 21
1485.0
 12
0.0
 22
0.0
 32
0.0
 14
-2100.0
 24
-1485.0
 34
0.0
 15
2100.0
 25
1485.0
 35
0.0
146
0.0
 13
0.0
 23
0.0
 33
0.0
 16
1.0
 26
0.0
 36
0.0
 17
0.0
 27
1.0
 37
0.0
 76
     0
330
1F
331
29
  0
MLINESTYLE
  5
18
102
{ACAD_REACTORS
330
17
102
}
330
17
100
AcDbMlineStyle
  2
Standard
 70
     0
  3

 62
   256
 51
90.0
 52
90.0
 71
     2
 49
0.5
 62
   256
  6
BYLAYER
 49
-0.5
 62
   256
  6
BYLAYER
  0
ACDBPLACEHOLDER
  5
F
102
{ACAD_REACTORS
330
E
102
}
330
E
  0
VISUALSTYLE
  5
2F
102
{ACAD_REACTORS
330
2A
102
}
330
2A
100
AcDbVisualStyle
  2
2dWireframe
 70
     4
 71
     0
 72
     2
 73
     0
 90
        0
 40
-0.6
 41
-30.0
 62
     5
 63
     7
 74
     1
 91
        4
 64
     7
 65
   257
 75
     1
175
     1
 42
1.0
 92
        0
 66
   257
 43
1.0
 76
     1
 77
     6
 78
     2
 67
     7
 79
     5
170
     0
171
     0
290
     0
174
     0
 93
        1
 44
0.0
173
     0
291
     0
 45
0.0
1001
ACAD
1000
AcDbSavedByObjectVersion
1070
     0
  0
VISUALSTYLE
  5
31
102
{ACAD_REACTORS
330
2A
102
}
330
2A
100
AcDbVisualStyle
  2
3D Hidden
 70
     6
 71
     1
 72
     2
 73
     2
 90
        0
 40
-0.6
 41
-30.0
 62
     5
 63
     7
 74
     2
 91
        2
 64
     7
 65
   257
 75
     2
175
     1
 42
40.0
 92
        0
 66
   257
 43
1.0
 76
     1
 77
     6
 78
     2
 67
     7
 79
     3
170
     0
171
     0
290
     0
174
     0
 93
        1
 44
0.0
173
     0
291
     0
 45
0.0
1001
ACAD
1000
AcDbSavedByObjectVersion
1070
     0
  0
VISUALSTYLE
  5
30
102
{ACAD_REACTORS
330
2A
102
}
330
2A
100
AcDbVisualStyle
  2
3dWireframe
 70
     5
 71
     0
 72
     2
 73
     0
 90
        0
 40
-0.6
 41
-30.0
 62
     5
 63
     7
 74
     1
 91
        4
 64
     7
 65
   257
 75
     1
175
     1
 42
1.0
 92
        0
 66
   257
 43
1.0
 76
     1
 77
     6
 78
     2
 67
     7
 79
     5
170
     0
171
     0
290
     0
174
     0
 93
        1
 44
0.0
173
     0
291
     0
 45
0.0
1001
ACAD
1000
AcDbSavedByObjectVersion
1070
     0
  0
VISUALSTYLE
  5
32
102
{ACAD_REACTORS
330
2A
102
}
330
2A
100
AcDbVisualStyle
  2
Basic
 70
     7
 71
     1
 72
     0
 73
     1
 90
        0
 40
-0.6
 41
-30.0
 62
     5
 63
     7
 74
     0
 91
        4
 64
     7
 65
   257
 75
     1
175
     1
 42
1.0
 92
        8
 66
     7
 43
1.0
 76
     1
 77
     6
 78
     2
 67
     7
 79
     5
170
     0
171
     0
290
     0
174
     0
 93
        1
 44
0.0
173
     0
291
     1
 45
0.0
1001
ACAD
1000
AcDbSavedByObjectVersion
1070
     0
  0
VISUALSTYLE
  5
36
102
{ACAD_REACTORS
330
2A
102
}
330
2A
100
AcDbVisualStyle
  2
Brighten
 70
    12
 71
     2
 72
     2
 73
     0
 90
        0
 40
-0.6
 41
-30.0
 62
     5
 63
     7
 74
     1
 91
        4
 64
     7
 65
   257
 75
     1
175
     1
 42
1.0
 92
        8
 66
     7
 43
1.0
 76
     1
 77
     6
 78
     2
 67
     7
 79
     5
170
     0
171
     0
290
     0
174
     0
 93
        1
 44
50.0
173
     0
291
     1
 45
0.0
1001
ACAD
1000
AcDbSavedByObjectVersion
1070
     0
  0
VISUALSTYLE
  5
3A
102
{ACAD_REACTORS
330
2A
102
}
330
2A
100
AcDbVisualStyle
  2
ColorChange
 70
    16
 71
     2
 72
     2
 73
     3
 90
        0
 40
-0.6
 41
-30.0
 62
     5
 63
     8
 74
     1
 91
        4
 64
     7
 65
   257
 75
     1
175
     1
 42
1.0
 92
        8
 66
     8
 43
1.0
 76
     1
 77
     6
 78
     2
 67
     7
 79
     5
170
     0
171
     0
290
     0
174
     0
 93
        1
 44
0.0
173
     0
291
     1
 45
0.0
1001
ACAD
1000
AcDbSavedByObjectVersion
1070
     0
  0
VISUALSTYLE
  5
34
102
{ACAD_REACTORS
330
2A
102
}
330
2A
100
AcDbVisualStyle
  2
Conceptual
 70
     9
 71
     3
 72
     2
 73
     0
 90
        0
 40
-0.6
 41
-30.0
 62
     5
 63
     7
 74
     2
 91
        2
 64
     7
 65
   257
 75
     1
175
     1
 42
40.0
 92
        8
 66
     7
 43
1.0
 76
     1
 77
     6
 78
     2
 67
     7
 79
     3
170
     0
171
     0
290
     0
174
     0
 93
        1
 44
0.0
173
     0
291
     0
 45
0.0
1001
ACAD
1000
AcDbSavedByObjectVersion
1070
     0
  0
VISUALSTYLE
  5
35
102
{ACAD_REACTORS
330
2A
102
}
330
2A
100
AcDbVisualStyle
  2
Dim
 70
    11
 71
     2
 72
     2
 73
     0
 90
        0
 40
-0.6
 41
-30.0
 62
     5
 63
     7
 74
     1
 91
        4
 64
     7
 65
   257
 75
     1
175
     1
 42
1.0
 92
        8
 66
     7
 43
1.0
 76
     1
 77
     6
 78
     2
 67
     7
 79
     5
170
     0
171
     0
290
     0
174
     0
 93
        1
 44
-50.0
173
     0
291
     1
 45
0.0
1001
ACAD
1000
AcDbSavedByObjectVersion
1070
     0
  0
VISUALSTYLE
  5
39
102
{ACAD_REACTORS
330
2A
102
}
330
2A
100
AcDbVisualStyle
  2
Facepattern
 70
    15
 71
     2
 72
     2
 73
     0
 90
        0
 40
-0.6
 41
-30.0
 62
     5
 63
     7
 74
     1
 91
        4
 64
     7
 65
   257
 75
     1
175
     1
 42
1.0
 92
        8
 66
     7
 43
1.0
 76
     1
 77
     6
 78
     2
 67
     7
 79
     5
170
     0
171
     0
290
     0
174
     0
 93
        1
 44
0.0
173
     0
291
     1
 45
0.0
1001
ACAD
1000
AcDbSavedByObjectVersion
1070
     0
  0
VISUALSTYLE
  5
2B
102
{ACAD_REACTORS
330
2A
102
}
330
2A
100
AcDbVisualStyle
  2
Flat
 70
     0
 71
     2
 72
     1
 73
     1
 90
        2
 40
-0.6
 41
30.0
 62
     5
 63
     7
 74
     0
 91
        4
 64
     7
 65
   257
 75
     1
175
     1
 42
1.0
 92
        8
 66
     7
 43
1.0
 76
     1
 77
     6
 78
     2
 67
     7
 79
     5
170
     0
171
     0
290
     0
174
     0
 93
       13
 44
0.0
173
     0
291
     1
 45
0.0
1001
ACAD
1000
AcDbSavedByObjectVersion
1070
     0
  0
VISUALSTYLE
  5
2C
102
{ACAD_REACTORS
330
2A
102
}
330
2A
100
AcDbVisualStyle
  2
FlatWithEdges
 70
     1
 71
     2
 72
     1
 73
     1
 90
        2
 40
-0.6
 41
30.0
 62
     5
 63
     7
 74
     1
 91
        4
 64
     7
 65
   257
 75
     1
175
     1
 42
1.0
 92
        0
 66
   257
 43
1.0
 76
     1
 77
     6
 78
     2
 67
     7
 79
     5
170
     0
171
     0
290
     0
174
     0
 93
       13
 44
0.0
173
     0
291
     1
 45
0.0
1001
ACAD
1000
AcDbSavedByObjectVersion
1070
     0
  0
VISUALSTYLE
  5
2D
102
{ACAD_REACTORS
330
2A
102
}
330
2A
100
AcDbVisualStyle
  2
Gouraud
 70
     2
 71
     2
 72
     2
 73
     1
 90
        2
 40
-0.6
 41
30.0
 62
     5
 63
     7
 74
     0
 91
        4
 64
     7
 65
   257
 75
     1
175
     1
 42
1.0
 92
        0
 66
     7
 43
1.0
 76
     1
 77
     6
 78
     2
 67
     7
 79
     5
170
     0
171
     0
290
     0
174
     0
 93
       13
 44
0.0
173
     0
291
     1
 45
0.0
1001
ACAD
1000
AcDbSavedByObjectVersion
1070
     0
  0
VISUALSTYLE
  5
2E
102
{ACAD_REACTORS
330
2A
102
}
330
2A
100
AcDbVisualStyle
  2
GouraudWithEdges
 70
     3
 71
     2
 72
     2
 73
     1
 90
        2
 40
-0.6
 41
30.0
 62
     5
 63
     7
 74
     1
 91
        4
 64
     7
 65
   257
 75
     1
175
     1
 42
1.0
 92
        0
 66
   257
 43
1.0
 76
     1
 77
     6
 78
     2
 67
     7
 79
     5
170
     0
171
     0
290
     0
174
     0
 93
       13
 44
0.0
173
     0
291
     1
 45
0.0
1001
ACAD
1000
AcDbSavedByObjectVersion
1070
     0
  0
VISUALSTYLE
  5
38
102
{ACAD_REACTORS
330
2A
102
}
330
2A
100
AcDbVisualStyle
  2
Linepattern
 70
    14
 71
     2
 72
     2
 73
     0
 90
        0
 40
-0.6
 41
-30.0
 62
     5
 63
     7
 74
     1
 91
        4
 64
     7
 65
   257
 75
     7
175
     7
 42
1.0
 92
        8
 66
     7
 43
1.0
 76
     1
 77
     6
 78
     2
 67
     7
 79
     5
170
     0
171
     0
290
     0
174
     0
 93
        1
 44
0.0
173
     0
291
     1
 45
0.0
1001
ACAD
1000
AcDbSavedByObjectVersion
1070
     0
  0
VISUALSTYLE
  5
33
102
{ACAD_REACTORS
330
2A
102
}
330
2A
100
AcDbVisualStyle
  2
Realistic
 70
     8
 71
     2
 72
     2
 73
     0
 90
        0
 40
-0.6
 41
-30.0
 62
     5
 63
     7
 74
     1
 91
        0
 64
     7
 65
   257
 75
     1
175
     1
 42
1.0
 92
        8
 66
     8
 43
1.0
 76
     1
 77
     6
 78
     2
 67
     7
 79
     5
170
     0
171
     0
290
     0
174
     0
 93
       13
 44
0.0
173
     0
291
     0
 45
0.0
1001
ACAD
1000
AcDbSavedByObjectVersion
1070
     0
  0
VISUALSTYLE
  5
37
102
{ACAD_REACTORS
330
2A
102
}
330
2A
100
AcDbVisualStyle
  2
Thicken
 70
    13
 71
     2
 72
     2
 73
     0
 90
        0
 40
-0.6
 41
-30.0
 62
     5
 63
     7
 74
     1
 91
        4
 64
     7
 65
   257
 75
     1
175
     1
 42
1.0
 92
       12
 66
     7
 43
1.0
 76
     1
 77
     6
 78
     2
 67
     7
 79
     5
170
     0
171
     0
290
     0
174
     0
 93
        1
 44
0.0
173
     0
291
     1
 45
0.0
1001
ACAD
1000
AcDbSavedByObjectVersion
1070
     0
  0
DICTIONARYVAR
  5
27B
102
{ACAD_REACTORS
330
279
102
}
330
279
100
DictionaryVariables
280
     0
  1
80.000000
  0
DICTIONARYVAR
  5
27A
102
{ACAD_REACTORS
330
279
102
}
330
279
100
DictionaryVariables
280
     0
  1
5.000000
  0
DICTIONARY
  5
27C
330
1E
100
AcDbDictionary
280
     1
281
     1
  3
ACAD_XREC_ROUNDTRIP
360
27D
  0
DICTIONARY
  5
280
330
26
100
AcDbDictionary
280
     1
281
     1
  3
ACAD_XREC_ROUNDTRIP
360
281
  0
DICTIONARY
  5
27E
330
22
100
AcDbDictionary
280
     1
281
     1
  3
ACAD_XREC_ROUNDTRIP
360
27F
  0
XRECORD
  5
27D
102
{ACAD_REACTORS
330
27C
102
}
330
27C
100
AcDbXrecord
280
     1
102
SHADEPLOT
 70
     0
102
SHADEPLOTRESLEVEL
 70
     5
102
SHADEPLOTCUSTOMDPI
 70
   300
  0
XRECORD
  5
281
102
{ACAD_REACTORS
330
280
102
}
330
280
100
AcDbXrecord
280
     1
102
SHADEPLOT
 70
     0
102
SHADEPLOTRESLEVEL
 70
     5
102
SHADEPLOTCUSTOMDPI
 70
   300
  0
XRECORD
  5
27F
102
{ACAD_REACTORS
330
27E
102
}
330
27E
100
AcDbXrecord
280
     1
102
SHADEPLOT
 70
     0
102
SHADEPLOTRESLEVEL
 70
     5
102
SHADEPLOTCUSTOMDPI
 70
   300
  0
ENDSEC
  0
EOF
