  0
SECTION
  2
HEADER
  9
$ACADVER
  1
AC1015
  9
$ACADMAINTVER
 70
     6
  9
$DWGCODEPAGE
  3
ANSI_932
  9
$INSBASE
 10
0.0
 20
0.0
 30
0.0
  9
$EXTMIN
 10
-2100.0
 20
-1485.0
 30
0.0
  9
$EXTMAX
 10
2100.0
 20
1485.0
 30
0.0
  9
$LIMMIN
 10
-2100.0
 20
-1485.0
  9
$LIMMAX
 10
2100.0
 20
1485.0
  9
$ORTHOMODE
 70
     0
  9
$REGENMODE
 70
     1
  9
$FILLMODE
 70
     1
  9
$QTEXTMODE
 70
     0
  9
$MIRRTEXT
 70
     1
  9
$LTSCALE
 40
10.0
  9
$ATTMODE
 70
     1
  9
$TEXTSIZE
 40
2.5
  9
$TRACEWID
 40
1.0
  9
$TEXTSTYLE
  7
Standard
  9
$CLAYER
  8
0
  9
$CELTYPE
  6
ByLayer
  9
$CECOLOR
 62
   256
  9
$CELTSCALE
 40
1.0
  9
$DISPSILH
 70
     0
  9
$DIMSCALE
 40
1.0
  9
$DIMASZ
 40
2.5
  9
$DIMEXO
 40
0.625
  9
$DIMDLI
 40
3.75
  9
$DIMRND
 40
0.0
  9
$DIMDLE
 40
0.0
  9
$DIMEXE
 40
1.25
  9
$DIMTP
 40
0.0
  9
$DIMTM
 40
0.0
  9
$DIMTXT
 40
2.5
  9
$DIMCEN
 40
2.5
  9
$DIMTSZ
 40
0.0
  9
$DIMTOL
 70
     0
  9
$DIMLIM
 70
     0
  9
$DIMTIH
 70
     0
  9
$DIMTOH
 70
     0
  9
$DIMSE1
 70
     0
  9
$DIMSE2
 70
     0
  9
$DIMTAD
 70
     1
  9
$DIMZIN
 70
     8
  9
$DIMBLK
  1

  9
$DIMASO
 70
     1
  9
$DIMSHO
 70
     1
  9
$DIMPOST
  1

  9
$DIMAPOST
  1

  9
$DIMALT
 70
     0
  9
$DIMALTD
 70
     3
  9
$DIMALTF
 40
0.03937007874016
  9
$DIMLFAC
 40
1.0
  9
$DIMTOFL
 70
     1
  9
$DIMTVP
 40
0.0
  9
$DIMTIX
 70
     0
  9
$DIMSOXD
 70
     0
  9
$DIMSAH
 70
     0
  9
$DIMBLK1
  1

  9
$DIMBLK2
  1

  9
$DIMSTYLE
  2
ISO-25
  9
$DIMCLRD
 70
     0
  9
$DIMCLRE
 70
     0
  9
$DIMCLRT
 70
     0
  9
$DIMTFAC
 40
1.0
  9
$DIMGAP
 40
0.625
  9
$DIMJUST
 70
     0
  9
$DIMSD1
 70
     0
  9
$DIMSD2
 70
     0
  9
$DIMTOLJ
 70
     0
  9
$DIMTZIN
 70
     8
  9
$DIMALTZ
 70
     0
  9
$DIMALTTZ
 70
     0
  9
$DIMUPT
 70
     0
  9
$DIMDEC
 70
     2
  9
$DIMTDEC
 70
     2
  9
$DIMALTU
 70
     2
  9
$DIMALTTD
 70
     3
  9
$DIMTXSTY
  7
Standard
  9
$DIMAUNIT
 70
     0
  9
$DIMADEC
 70
     0
  9
$DIMALTRND
 40
0.0
  9
$DIMAZIN
 70
     0
  9
$DIMDSEP
 70
    44
  9
$DIMATFIT
 70
     3
  9
$DIMFRAC
 70
     0
  9
$DIMLDRBLK
  1

  9
$DIMLUNIT
 70
     2
  9
$DIMLWD
 70
    -2
  9
$DIMLWE
 70
    -2
  9
$DIMTMOVE
 70
     0
  9
$LUNITS
 70
     2
  9
$LUPREC
 70
     4
  9
$SKETCHINC
 40
1.0
  9
$FILLETRAD
 40
10.0
  9
$AUNITS
 70
     0
  9
$AUPREC
 70
     0
  9
$MENU
  1
.
  9
$ELEVATION
 40
0.0
  9
$PELEVATION
 40
0.0
  9
$THICKNESS
 40
0.0
  9
$LIMCHECK
 70
     0
  9
$CHAMFERA
 40
10.0
  9
$CHAMFERB
 40
10.0
  9
$CHAMFERC
 40
20.0
  9
$CHAMFERD
 40
0.0
  9
$SKPOLY
 70
     0
  9
$TDCREATE
 40
2456898.435587072
  9
$TDUCREATE
 40
2456898.060587072
  9
$TDUPDATE
 40
2456898.435587083
  9
$TDUUPDATE
 40
2456898.060587083
  9
$TDINDWG
 40
0.0000000116
  9
$TDUSRTIMER
 40
0.0000000116
  9
$USRTIMER
 70
     1
  9
$ANGBASE
 50
0.0
  9
$ANGDIR
 70
     0
  9
$PDMODE
 70
     0
  9
$PDSIZE
 40
0.0
  9
$PLINEWID
 40
0.0
  9
$SPLFRAME
 70
     0
  9
$SPLINETYPE
 70
     6
  9
$SPLINESEGS
 70
     8
  9
$HANDSEED
  5
21F
  9
$SURFTAB1
 70
     6
  9
$SURFTAB2
 70
     6
  9
$SURFTYPE
 70
     6
  9
$SURFU
 70
     6
  9
$SURFV
 70
     6
  9
$UCSBASE
  2

  9
$UCSNAME
  2

  9
$UCSORG
 10
0.0
 20
0.0
 30
0.0
  9
$UCSXDIR
 10
1.0
 20
0.0
 30
0.0
  9
$UCSYDIR
 10
0.0
 20
1.0
 30
0.0
  9
$UCSORTHOREF
  2

  9
$UCSORTHOVIEW
 70
     0
  9
$UCSORGTOP
 10
0.0
 20
0.0
 30
0.0
  9
$UCSORGBOTTOM
 10
0.0
 20
0.0
 30
0.0
  9
$UCSORGLEFT
 10
0.0
 20
0.0
 30
0.0
  9
$UCSORGRIGHT
 10
0.0
 20
0.0
 30
0.0
  9
$UCSORGFRONT
 10
0.0
 20
0.0
 30
0.0
  9
$UCSORGBACK
 10
0.0
 20
0.0
 30
0.0
  9
$PUCSBASE
  2

  9
$PUCSNAME
  2

  9
$PUCSORG
 10
0.0
 20
0.0
 30
0.0
  9
$PUCSXDIR
 10
1.0
 20
0.0
 30
0.0
  9
$PUCSYDIR
 10
0.0
 20
1.0
 30
0.0
  9
$PUCSORTHOREF
  2

  9
$PUCSORTHOVIEW
 70
     0
  9
$PUCSORGTOP
 10
0.0
 20
0.0
 30
0.0
  9
$PUCSORGBOTTOM
 10
0.0
 20
0.0
 30
0.0
  9
$PUCSORGLEFT
 10
0.0
 20
0.0
 30
0.0
  9
$PUCSORGRIGHT
 10
0.0
 20
0.0
 30
0.0
  9
$PUCSORGFRONT
 10
0.0
 20
0.0
 30
0.0
  9
$PUCSORGBACK
 10
0.0
 20
0.0
 30
0.0
  9
$USERI1
 70
     0
  9
$USERI2
 70
     0
  9
$USERI3
 70
     0
  9
$USERI4
 70
     0
  9
$USERI5
 70
     0
  9
$USERR1
 40
0.0
  9
$USERR2
 40
0.0
  9
$USERR3
 40
0.0
  9
$USERR4
 40
0.0
  9
$USERR5
 40
0.0
  9
$WORLDVIEW
 70
     1
  9
$SHADEDGE
 70
     3
  9
$SHADEDIF
 70
    70
  9
$TILEMODE
 70
     1
  9
$MAXACTVP
 70
    64
  9
$PINSBASE
 10
0.0
 20
0.0
 30
0.0
  9
$PLIMCHECK
 70
     0
  9
$PEXTMIN
 10
1.000000000000000E+20
 20
1.000000000000000E+20
 30
1.000000000000000E+20
  9
$PEXTMAX
 10
-1.000000000000000E+20
 20
-1.000000000000000E+20
 30
-1.000000000000000E+20
  9
$PLIMMIN
 10
0.0
 20
0.0
  9
$PLIMMAX
 10
420.0
 20
297.0
  9
$UNITMODE
 70
     0
  9
$VISRETAIN
 70
     1
  9
$PLINEGEN
 70
     0
  9
$PSLTSCALE
 70
     1
  9
$TREEDEPTH
 70
  3020
  9
$CMLSTYLE
  2
Standard
  9
$CMLJUST
 70
     0
  9
$CMLSCALE
 40
20.0
  9
$PROXYGRAPHICS
 70
     1
  9
$MEASUREMENT
 70
     1
  9
$CELWEIGHT
370
    -1
  9
$ENDCAPS
280
     0
  9
$JOINSTYLE
280
     0
  9
$LWDISPLAY
290
     0
  9
$INSUNITS
 70
     4
  9
$HYPERLINKBASE
  1

  9
$STYLESHEET
  1

  9
$XEDIT
290
     1
  9
$CEPSNTYPE
380
     0
  9
$PSTYLEMODE
290
     1
  9
$FINGERPRINTGUID
  2
{99DEAE8E-3F48-4C79-9E1D-E1108EE35A13}
  9
$VERSIONGUID
  2
{FAEB1C32-E019-11D5-929B-00C0DF256EC4}
  9
$EXTNAMES
290
     1
  9
$PSVPSCALE
 40
0.0
  9
$OLESTARTUP
290
     0
  0
ENDSEC
  0
SECTION
  2
CLASSES
  0
CLASS
  1
ACDBDICTIONARYWDFLT
  2
AcDbDictionaryWithDefault
  3
ObjectDBX Classes
 90
        0
280
     0
281
     0
  0
CLASS
  1
VISUALSTYLE
  2
AcDbVisualStyle
  3
ObjectDBX Classes
 90
     4095
280
     0
281
     0
  0
CLASS
  1
DICTIONARYVAR
  2
AcDbDictionaryVar
  3
ObjectDBX Classes
 90
        0
280
     0
281
     0
  0
CLASS
  1
ACDBPLACEHOLDER
  2
AcDbPlaceHolder
  3
ObjectDBX Classes
 90
        0
280
     0
281
     0
  0
CLASS
  1
LAYOUT
  2
AcDbLayout
  3
ObjectDBX Classes
 90
        0
280
     0
281
     0
  0
ENDSEC
  0
SECTION
  2
TABLES
  0
TABLE
  2
VPORT
  5
8
330
0
100
AcDbSymbolTable
 70
     1
  0
VPORT
  5
29
330
8
100
AcDbSymbolTableRecord
100
AcDbViewportTableRecord
  2
*Active
 70
     0
 10
0.0
 20
0.0
 11
1.0
 21
1.0
 12
0.0
 22
0.0
 13
0.0
 23
0.0
 14
10.0
 24
10.0
 15
10.0
 25
10.0
 16
0.0
 26
0.0
 36
1.0
 17
0.0
 27
0.0
 37
0.0
 40
3267.0
 41
1.414141414141414
 42
50.0
 43
0.0
 44
0.0
 50
0.0
 51
0.0
 71
     0
 72
 10000
 73
     1
 74
     3
 75
     0
 76
     0
 77
     0
 78
     0
281
     0
 65
     1
110
0.0
120
0.0
130
0.0
111
1.0
121
0.0
131
0.0
112
0.0
122
1.0
132
0.0
 79
     0
146
0.0
  0
ENDTAB
  0
TABLE
  2
LTYPE
  5
5
330
0
100
AcDbSymbolTable
 70
     6
  0
LTYPE
  5
14
330
5
100
AcDbSymbolTableRecord
100
AcDbLinetypeTableRecord
  2
ByBlock
 70
     0
  3

 72
    65
 73
     0
 40
0.0
  0
LTYPE
  5
15
330
5
100
AcDbSymbolTableRecord
100
AcDbLinetypeTableRecord
  2
ByLayer
 70
     0
  3

 72
    65
 73
     0
 40
0.0
  0
LTYPE
  5
16
330
5
100
AcDbSymbolTableRecord
100
AcDbLinetypeTableRecord
  2
Continuous
 70
     0
  3
Solid line
 72
    65
 73
     0
 40
0.0
  0
LTYPE
  5
3C
330
5
100
AcDbSymbolTableRecord
100
AcDbLinetypeTableRecord
  2
JWW_CENTER1
 70
     0
  3
-----  --  ----------  --  -----
 72
    65
 73
     4
 40
6.773333333333333
 49
4.233333333333333
 74
     0
 49
-0.8466666666666667
 74
     0
 49
0.8466666666666667
 74
     0
 49
-0.8466666666666667
 74
     0
  0
LTYPE
  5
3D
330
5
100
AcDbSymbolTableRecord
100
AcDbLinetypeTableRecord
  2
JWW_HOJO
 70
     0
  3
  -   -   -   -   -   -   -   - 
 72
    65
 73
     2
 40
1.693333333333333
 49
-1.27
 74
     0
 49
0.4233333333333333
 74
     0
  0
LTYPE
  5
3E
330
5
100
AcDbSymbolTableRecord
100
AcDbLinetypeTableRecord
  2
JWW_PHANTOM2
 70
     0
  3
------------  -  -  ------------
 72
    65
 73
     6
 40
13.54666666666667
 49
10.16
 74
     0
 49
-0.8466666666666667
 74
     0
 49
0.4233333333333333
 74
     0
 49
-0.8466666666666667
 74
     0
 49
0.4233333333333333
 74
     0
 49
-0.8466666666666667
 74
     0
  0
LTYPE
  5
3F
330
5
100
AcDbSymbolTableRecord
100
AcDbLinetypeTableRecord
  2
JWW_CENTER2
 70
     0
  3
-------------  --  -------------
 72
    65
 73
     4
 40
13.54666666666667
 49
11.00666666666667
 74
     0
 49
-0.8466666666666667
 74
     0
 49
0.8466666666666667
 74
     0
 49
-0.8466666666666667
 74
     0
  0
LTYPE
  5
40
330
5
100
AcDbSymbolTableRecord
100
AcDbLinetypeTableRecord
  2
JWW_DASHED1
 70
     0
  3
-  --  --  --  --  --  --  --  -
 72
    65
 73
     2
 40
1.693333333333333
 49
0.8466666666666667
 74
     0
 49
-0.8466666666666667
 74
     0
  0
ENDTAB
  0
TABLE
  2
LAYER
  5
2
330
0
100
AcDbSymbolTable
 70
    14
  0
LAYER
  5
10
330
2
100
AcDbSymbolTableRecord
100
AcDbLayerTableRecord
  2
0
 70
     0
 62
     7
  6
Continuous
370
    -3
390
F
  0
LAYER
  5
41
330
2
100
AcDbSymbolTableRecord
100
AcDbLayerTableRecord
  2
0-F
 70
     0
 62
     7
  6
Continuous
370
    -3
390
F
  0
LAYER
  5
42
330
2
100
AcDbSymbolTableRecord
100
AcDbLayerTableRecord
  2
0-1
 70
     0
 62
     7
  6
Continuous
370
    -3
390
F
  0
LAYER
  5
43
330
2
100
AcDbSymbolTableRecord
100
AcDbLayerTableRecord
  2
0-B
 70
     0
 62
     7
  6
Continuous
370
    -3
390
F
  0
LAYER
  5
44
330
2
100
AcDbSymbolTableRecord
100
AcDbLayerTableRecord
  2
0-4
 70
     0
 62
     7
  6
Continuous
370
    -3
390
F
  0
LAYER
  5
45
330
2
100
AcDbSymbolTableRecord
100
AcDbLayerTableRecord
  2
0-D
 70
     0
 62
     7
  6
Continuous
370
    -3
390
F
  0
LAYER
  5
46
330
2
100
AcDbSymbolTableRecord
100
AcDbLayerTableRecord
  2
0-8
 70
     0
 62
     7
  6
Continuous
370
    -3
390
F
  0
LAYER
  5
47
330
2
100
AcDbSymbolTableRecord
100
AcDbLayerTableRecord
  2
0-0
 70
     0
 62
     7
  6
Continuous
370
    -3
390
F
  0
LAYER
  5
48
330
2
100
AcDbSymbolTableRecord
100
AcDbLayerTableRecord
  2
0-2
 70
     0
 62
     7
  6
Continuous
370
    -3
390
F
  0
LAYER
  5
49
330
2
100
AcDbSymbolTableRecord
100
AcDbLayerTableRecord
  2
0-3
 70
     0
 62
     7
  6
Continuous
370
    -3
390
F
  0
LAYER
  5
4A
330
2
100
AcDbSymbolTableRecord
100
AcDbLayerTableRecord
  2
0-C
 70
     0
 62
     7
  6
Continuous
370
    -3
390
F
  0
LAYER
  5
4B
330
2
100
AcDbSymbolTableRecord
100
AcDbLayerTableRecord
  2
0-9
 70
     0
 62
     7
  6
Continuous
370
    -3
390
F
  0
LAYER
  5
4C
330
2
100
AcDbSymbolTableRecord
100
AcDbLayerTableRecord
  2
0-5
 70
     0
 62
     7
  6
Continuous
370
    -3
390
F
  0
LAYER
  5
4D
330
2
100
AcDbSymbolTableRecord
100
AcDbLayerTableRecord
  2
F-4
 70
     0
 62
     7
  6
Continuous
370
    -3
390
F
  0
ENDTAB
  0
TABLE
  2
STYLE
  5
3
330
0
100
AcDbSymbolTable
 70
     2
  0
STYLE
  5
11
330
3
100
AcDbSymbolTableRecord
100
AcDbTextStyleTableRecord
  2
Standard
 70
     0
 40
0.0
 41
1.0
 50
0.0
 71
     0
 42
2.5
  3
txt
  4

1001
ACAD
1000

1071
        0
  0
STYLE
  5
3B
330
3
100
AcDbSymbolTableRecord
100
AcDbTextStyleTableRecord
  2
ＭＳ ゴシック
 70
     0
 40
1.0
 41
1.0
 50
0.0
 71
     0
 42
10.0
  3

  4

1001
ACAD
1000
MS Gothic
1071
    32817
  0
ENDTAB
  0
TABLE
  2
VIEW
  5
6
330
0
100
AcDbSymbolTable
 70
     0
  0
ENDTAB
  0
TABLE
  2
UCS
  5
7
330
0
100
AcDbSymbolTable
 70
     0
  0
ENDTAB
  0
TABLE
  2
APPID
  5
9
330
0
100
AcDbSymbolTable
 70
     1
  0
APPID
  5
12
330
9
100
AcDbSymbolTableRecord
100
AcDbRegAppTableRecord
  2
ACAD
 70
     0
  0
ENDTAB
  0
TABLE
  2
DIMSTYLE
  5
A
330
0
100
AcDbSymbolTable
 70
     1
100
AcDbDimStyleTable
  0
DIMSTYLE
105
27
330
A
100
AcDbSymbolTableRecord
100
AcDbDimStyleTableRecord
  2
ISO-25
 70
     0
 41
2.5
 42
0.625
 43
3.75
 44
1.25
 73
     0
 74
     0
 77
     1
 78
     8
140
2.5
141
2.5
143
0.03937007874016
147
0.625
171
     3
172
     1
271
     2
272
     2
274
     3
278
    44
283
     0
284
     8
340
11
  0
ENDTAB
  0
TABLE
  2
BLOCK_RECORD
  5
1
330
0
100
AcDbSymbolTable
 70
     1
  0
BLOCK_RECORD
  5
1F
330
1
100
AcDbSymbolTableRecord
100
AcDbBlockTableRecord
  2
*Model_Space
340
22
  0
BLOCK_RECORD
  5
1B
330
1
100
AcDbSymbolTableRecord
100
AcDbBlockTableRecord
  2
*Paper_Space
340
1E
  0
BLOCK_RECORD
  5
23
330
1
100
AcDbSymbolTableRecord
100
AcDbBlockTableRecord
  2
*Paper_Space0
340
26
  0
ENDTAB
  0
ENDSEC
  0
SECTION
  2
BLOCKS
  0
BLOCK
  5
20
330
1F
100
AcDbEntity
  8
0
100
AcDbBlockBegin
  2
*Model_Space
 70
     0
 10
0.0
 20
0.0
 30
0.0
  3
*Model_Space
  1

  0
ENDBLK
  5
21
330
1F
100
AcDbEntity
  8
0
100
AcDbBlockEnd
  0
BLOCK
  5
1C
330
1B
100
AcDbEntity
 67
     1
  8
0
100
AcDbBlockBegin
  2
*Paper_Space
 70
     0
 10
0.0
 20
0.0
 30
0.0
  3
*Paper_Space
  1

  0
ENDBLK
  5
1D
330
1B
100
AcDbEntity
 67
     1
  8
0
100
AcDbBlockEnd
  0
BLOCK
  5
24
330
23
100
AcDbEntity
  8
0
100
AcDbBlockBegin
  2
*Paper_Space0
 70
     0
 10
0.0
 20
0.0
 30
0.0
  3
*Paper_Space0
  1

  0
ENDBLK
  5
25
330
23
100
AcDbEntity
  8
0
100
AcDbBlockEnd
  0
ENDSEC
  0
SECTION
  2
ENTITIES
  0
LWPOLYLINE
  5
4E
330
1F
100
AcDbEntity
  8
0-F
  6
Continuous
 62
     7
370
     9
100
AcDbPolyline
 90
        4
 70
     1
 43
1.0
 10
13.49083812816747
 20
-622.1485735919023
 42
0.4142135623731
 10
12.99083812816747
 20
-621.6485735919024
 42
0.4142135623731
 10
12.49083812816747
 20
-622.1485735919023
 42
0.4142135623731
 10
12.99083812816747
 20
-622.6485735919023
 42
0.4142135623731
  0
LWPOLYLINE
  5
4F
330
1F
100
AcDbEntity
  8
0-F
  6
Continuous
 62
     7
370
     9
100
AcDbPolyline
 90
        4
 70
     1
 43
1.0
 10
0.1575432854731958
 20
678.4675721864443
 42
0.4142135623731
 10
-0.3424567145268043
 20
678.9675721864443
 42
0.4142135623731
 10
-0.8424567145268043
 20
678.4675721864443
 42
0.4142135623731
 10
-0.3424567145268043
 20
677.9675721864443
 42
0.4142135623731
  0
LINE
  5
50
330
1F
100
AcDbEntity
  8
0-1
  6
Continuous
 62
     4
370
     9
100
AcDbLine
 10
482.9906488170653
 20
678.4675721864443
 30
0.0
 11
482.9906488170653
 21
28.46801522155552
 31
0.0
  0
LINE
  5
51
330
1F
100
AcDbEntity
  8
0-1
  6
Continuous
 62
     4
370
     9
100
AcDbLine
 10
482.9906488170653
 20
28.46801522155552
 30
0.0
 11
-483.6762228711689
 21
28.46801522155552
 31
0.0
  0
LINE
  5
52
330
1F
100
AcDbEntity
  8
0-1
  6
JWW_CENTER1
 62
     4
370
     9
100
AcDbLine
 10
-0.342456714526822
 20
1220.982772846787
 30
0.0
 11
-0.342456714526822
 21
-50.1681663876488
 31
0.0
  0
LINE
  5
53
330
1F
100
AcDbEntity
  8
0-1
  6
Continuous
 62
     4
370
     9
100
AcDbLine
 10
-483.6762228711689
 20
678.4675721864443
 30
0.0
 11
-483.6762228711689
 21
28.46801522155552
 31
0.0
  0
LINE
  5
54
330
1F
100
AcDbEntity
  8
0-B
  6
Continuous
 62
     2
370
     9
100
AcDbLine
 10
-28.58748073896978
 20
690.133549949224
 30
0.0
 11
-35.3423718780161
 21
690.133549949224
 31
0.0
  0
LINE
  5
55
330
1F
100
AcDbEntity
  8
0-B
  6
Continuous
 62
     2
370
     9
100
AcDbLine
 10
-35.3423718780161
 20
666.800273173564
 30
0.0
 11
-28.58748073896978
 21
666.800273173564
 31
0.0
  0
LINE
  5
56
330
1F
100
AcDbEntity
  8
0-B
  6
Continuous
 62
     2
370
     9
100
AcDbLine
 10
27.90256730991613
 20
690.133549949224
 30
0.0
 11
34.65745844896246
 21
690.133549949224
 31
0.0
  0
LINE
  5
57
330
1F
100
AcDbEntity
  8
0-B
  6
Continuous
 62
     2
370
     9
100
AcDbLine
 10
34.65745844896246
 20
666.800273173564
 30
0.0
 11
27.90256730991613
 21
666.800273173564
 31
0.0
  0
LINE
  5
58
330
1F
100
AcDbEntity
  8
0-B
  6
Continuous
 62
     2
370
     9
100
AcDbLine
 10
27.90256730991613
 20
686.1341258948681
 30
0.0
 11
34.65745844896246
 21
686.1341258948681
 31
0.0
  0
LINE
  5
59
330
1F
100
AcDbEntity
  8
0-B
  6
Continuous
 62
     2
370
     9
100
AcDbLine
 10
34.65745844896246
 20
670.8003578529704
 30
0.0
 11
27.90256730991613
 21
670.8003578529704
 31
0.0
  0
LINE
  5
5A
330
1F
100
AcDbEntity
  8
0-B
  6
Continuous
 62
     2
370
     9
100
AcDbLine
 10
-35.3423718780161
 20
670.8003578529704
 30
0.0
 11
-28.58748073896978
 21
670.8003578529704
 31
0.0
  0
LINE
  5
5B
330
1F
100
AcDbEntity
  8
0-B
  6
Continuous
 62
     2
370
     9
100
AcDbLine
 10
-28.58748073896978
 20
686.1341258948681
 30
0.0
 11
-35.3423718780161
 21
686.1341258948681
 31
0.0
  0
LINE
  5
5C
330
1F
100
AcDbEntity
  8
0-1
  6
JWW_CENTER1
 62
     4
370
     9
100
AcDbLine
 10
540.3335638058543
 20
678.4675721864443
 30
0.0
 11
-541.0184772349071
 21
678.4675721864443
 31
0.0
  0
LINE
  5
5D
330
1F
100
AcDbEntity
  8
0-4
  6
Continuous
 62
     6
370
     9
100
AcDbLine
 10
261.3648175763655
 20
726.1336514388273
 30
0.0
 11
-271.9683555102253
 21
726.1336514388273
 31
0.0
  0
LINE
  5
5E
330
1F
100
AcDbEntity
  8
0-4
  6
Continuous
 62
     6
370
     9
100
AcDbLine
 10
-271.9683555102253
 20
630.8001716839607
 30
0.0
 11
-271.9683555102253
 21
726.1336514388273
 31
0.0
  0
LINE
  5
5F
330
1F
100
AcDbEntity
  8
0-4
  6
Continuous
 62
     6
370
     9
100
AcDbLine
 10
261.3648175763655
 20
630.8001716839607
 30
0.0
 11
-271.9683555102253
 21
630.8001716839607
 31
0.0
  0
LINE
  5
60
330
1F
100
AcDbEntity
  8
0-4
  6
Continuous
 62
     6
370
     9
100
AcDbLine
 10
261.3648175763655
 20
630.8001716839607
 30
0.0
 11
261.3648175763655
 21
726.1336514388273
 31
0.0
  0
LINE
  5
61
330
1F
100
AcDbEntity
  8
0-D
  6
Continuous
 62
     2
370
     9
100
AcDbLine
 10
28.03138919471951
 20
645.1337533997448
 30
0.0
 11
28.03138919471951
 21
666.800273173564
 31
0.0
  0
LINE
  5
62
330
1F
100
AcDbEntity
  8
0-D
  6
Continuous
 62
     2
370
     9
100
AcDbLine
 10
28.03138919471951
 20
690.133549949224
 30
0.0
 11
28.03138919471951
 21
711.8000697230433
 31
0.0
  0
LINE
  5
63
330
1F
100
AcDbEntity
  8
0-D
  6
Continuous
 62
     2
370
     9
100
AcDbLine
 10
261.3648175763655
 20
711.8000697230433
 30
0.0
 11
28.03138919471951
 21
711.8000697230433
 31
0.0
  0
LINE
  5
64
330
1F
100
AcDbEntity
  8
0-D
  6
Continuous
 62
     2
370
     9
100
AcDbLine
 10
261.3648175763655
 20
645.1337533997448
 30
0.0
 11
28.03138919471951
 21
645.1337533997448
 31
0.0
  0
LINE
  5
65
330
1F
100
AcDbEntity
  8
0-F
  6
Continuous
 62
     7
370
     9
100
AcDbLine
 10
-483.6762228711689
 20
-142.875661567678
 30
0.0
 11
482.9906488170653
 21
-142.875661567678
 31
0.0
  0
LINE
  5
66
330
1F
100
AcDbEntity
  8
0-F
  6
Continuous
 62
     7
370
     9
100
AcDbLine
 10
-483.6762228711689
 20
-11.53217094745415
 30
0.0
 11
-483.6762228711689
 21
-146.8757462470839
 31
0.0
  0
LINE
  5
67
330
1F
100
AcDbEntity
  8
0-F
  6
Continuous
 62
     7
370
     9
100
AcDbLine
 10
482.9906488170653
 20
-11.53217094745415
 30
0.0
 11
482.9906488170653
 21
-146.8757462470839
 31
0.0
  0
LINE
  5
68
330
1F
100
AcDbEntity
  8
0-F
  6
Continuous
 62
     7
370
     9
100
AcDbLine
 10
-483.6762228711689
 20
-142.875661567678
 30
0.0
 11
-444.018240478201
 21
-137.6547417953665
 31
0.0
  0
LINE
  5
69
330
1F
100
AcDbEntity
  8
0-F
  6
Continuous
 62
     7
370
     9
100
AcDbLine
 10
-483.6762228711689
 20
-142.875661567678
 30
0.0
 11
-444.018240478201
 21
-148.0965813399895
 31
0.0
  0
LINE
  5
6A
330
1F
100
AcDbEntity
  8
0-F
  6
Continuous
 62
     7
370
     9
100
AcDbLine
 10
482.9906488170653
 20
-142.875661567678
 30
0.0
 11
443.3326664240973
 21
-137.6547417953665
 31
0.0
  0
LINE
  5
6B
330
1F
100
AcDbEntity
  8
0-F
  6
Continuous
 62
     7
370
     9
100
AcDbLine
 10
482.9906488170653
 20
-142.875661567678
 30
0.0
 11
443.3326664240973
 21
-148.0965813399895
 31
0.0
  0
LINE
  5
6C
330
1F
100
AcDbEntity
  8
0-F
  6
Continuous
 62
     7
370
     9
100
AcDbLine
 10
694.5564817922
 20
28.46801522155552
 30
0.0
 11
694.5564817922
 21
1161.800677718036
 31
0.0
  0
LINE
  5
6D
330
1F
100
AcDbEntity
  8
0-F
  6
Continuous
 62
     7
370
     9
100
AcDbLine
 10
522.9908349860749
 20
28.46801522155552
 30
0.0
 11
698.5565664716063
 21
28.46801522155552
 31
0.0
  0
LINE
  5
6E
330
1F
100
AcDbEntity
  8
0-F
  6
Continuous
 62
     7
370
     9
100
AcDbLine
 10
39.65772945448282
 20
1161.800677718036
 30
0.0
 11
698.5565664716063
 21
1161.800677718036
 31
0.0
  0
LINE
  5
6F
330
1F
100
AcDbEntity
  8
0-F
  6
Continuous
 62
     7
370
     9
100
AcDbLine
 10
694.5564817922
 20
28.46801522155552
 30
0.0
 11
689.3355620198889
 21
68.12599761452311
 31
0.0
  0
LINE
  5
70
330
1F
100
AcDbEntity
  8
0-F
  6
Continuous
 62
     7
370
     9
100
AcDbLine
 10
694.5564817922
 20
28.46801522155552
 30
0.0
 11
699.778062189562
 21
68.12599761452311
 31
0.0
  0
LINE
  5
71
330
1F
100
AcDbEntity
  8
0-F
  6
Continuous
 62
     7
370
     9
100
AcDbLine
 10
694.5564817922
 20
1161.800677718036
 30
0.0
 11
689.3355620198889
 21
1122.142695325068
 31
0.0
  0
LINE
  5
72
330
1F
100
AcDbEntity
  8
0-F
  6
Continuous
 62
     7
370
     9
100
AcDbLine
 10
694.5564817922
 20
1161.800677718036
 30
0.0
 11
699.778062189562
 21
1122.142695325068
 31
0.0
  0
LINE
  5
73
330
1F
100
AcDbEntity
  8
0-F
  6
Continuous
 62
     7
370
     9
100
AcDbLine
 10
-678.7396420904713
 20
28.46801522155552
 30
0.0
 11
-678.7396420904713
 21
678.4675721864443
 31
0.0
  0
LINE
  5
74
330
1F
100
AcDbEntity
  8
0-F
  6
Continuous
 62
     7
370
     9
100
AcDbLine
 10
-523.6757484151278
 20
28.46801522155552
 30
0.0
 11
-682.7397267698777
 21
28.46801522155552
 31
0.0
  0
LINE
  5
75
330
1F
100
AcDbEntity
  8
0-F
  6
Continuous
 62
     7
370
     9
100
AcDbLine
 10
-581.0186634039168
 20
678.4675721864443
 30
0.0
 11
-682.7397267698777
 21
678.4675721864443
 31
0.0
  0
LINE
  5
76
330
1F
100
AcDbEntity
  8
0-F
  6
Continuous
 62
     7
370
     9
100
AcDbLine
 10
-678.7396420904713
 20
28.46801522155552
 30
0.0
 11
-683.9605618627832
 21
68.12599761452311
 31
0.0
  0
LINE
  5
77
330
1F
100
AcDbEntity
  8
0-F
  6
Continuous
 62
     7
370
     9
100
AcDbLine
 10
-678.7396420904713
 20
28.46801522155552
 30
0.0
 11
-673.5187223181604
 21
68.12599761452311
 31
0.0
  0
LINE
  5
78
330
1F
100
AcDbEntity
  8
0-F
  6
Continuous
 62
     7
370
     9
100
AcDbLine
 10
-678.7396420904713
 20
678.4675721864443
 30
0.0
 11
-683.9605618627832
 21
638.8095897934767
 31
0.0
  0
LINE
  5
79
330
1F
100
AcDbEntity
  8
0-F
  6
Continuous
 62
     7
370
     9
100
AcDbLine
 10
-678.7396420904713
 20
678.4675721864443
 30
0.0
 11
-673.5187223181604
 21
638.8095897934767
 31
0.0
  0
LINE
  5
7A
330
1F
100
AcDbEntity
  8
0-F
  6
Continuous
 62
     7
370
     9
100
AcDbLine
 10
-0.342456714526822
 20
678.4675721864443
 30
0.0
 11
341.4259674190099
 21
1020.235996319981
 31
0.0
  0
LINE
  5
7B
330
1F
100
AcDbEntity
  8
0-F
  6
Continuous
 62
     7
370
     9
100
AcDbLine
 10
341.4259674190099
 20
1020.235996319981
 30
0.0
 11
317.0753280659288
 21
988.5015507799932
 31
0.0
  0
LINE
  5
7C
330
1F
100
AcDbEntity
  8
0-F
  6
Continuous
 62
     7
370
     9
100
AcDbLine
 10
341.4259674190099
 20
1020.235996319981
 30
0.0
 11
309.6915218790221
 21
995.8853569669
 31
0.0
  0
ARC
  5
7D
330
1F
100
AcDbEntity
  8
0-1
  6
Continuous
 62
     4
370
     9
100
AcDbCircle
 10
-0.342456714526822
 20
678.4675721864443
 30
0.0
 40
483.3333532659856
100
AcDbArc
 50
0.0
 51
180.0
  0
ARC
  5
7E
330
1F
100
AcDbEntity
  8
0-B
  6
Continuous
 62
     2
370
     9
100
AcDbCircle
 10
-35.3423718780161
 20
678.4675721864443
 30
0.0
 40
11.66666419349582
100
AcDbArc
 50
90.0
 51
270.0
  0
ARC
  5
7F
330
1F
100
AcDbEntity
  8
0-B
  6
Continuous
 62
     2
370
     9
100
AcDbCircle
 10
-28.58748073896978
 20
694.1336346286299
 30
0.0
 40
4.000000165849732
100
AcDbArc
 50
270.0
 51
323.9680633544922
  0
ARC
  5
80
330
1F
100
AcDbEntity
  8
0-B
  6
Continuous
 62
     2
370
     9
100
AcDbCircle
 10
-28.58748073896978
 20
662.8008491192087
 30
0.0
 40
4.000000165849732
100
AcDbArc
 50
36.03193664550781
 51
90.0
  0
ARC
  5
81
330
1F
100
AcDbEntity
  8
0-B
  6
Continuous
 62
     2
370
     9
100
AcDbCircle
 10
34.65745844896246
 20
678.4675721864443
 30
0.0
 40
11.66666419349582
100
AcDbArc
 50
270.0
 51
90.0
  0
ARC
  5
82
330
1F
100
AcDbEntity
  8
0-B
  6
Continuous
 62
     2
370
     9
100
AcDbCircle
 10
27.90256730991613
 20
694.1336346286299
 30
0.0
 40
4.000000165849732
100
AcDbArc
 50
216.0319366455078
 51
270.0
  0
ARC
  5
83
330
1F
100
AcDbEntity
  8
0-B
  6
Continuous
 62
     2
370
     9
100
AcDbCircle
 10
27.90256730991613
 20
662.8008491192087
 30
0.0
 40
4.000000165849732
100
AcDbArc
 50
90.0
 51
143.9680633544922
  0
ARC
  5
84
330
1F
100
AcDbEntity
  8
0-B
  6
Continuous
 62
     2
370
     9
100
AcDbCircle
 10
-0.342456714526822
 20
678.4675721864443
 30
0.0
 40
28.3333335941516
100
AcDbArc
 50
28.02752685546875
 51
151.9724273681641
  0
ARC
  5
85
330
1F
100
AcDbEntity
  8
0-B
  6
Continuous
 62
     2
370
     9
100
AcDbCircle
 10
-0.342456714526822
 20
678.4675721864443
 30
0.0
 40
28.3333335941516
100
AcDbArc
 50
208.0275573730469
 51
331.9724426269531
  0
ARC
  5
86
330
1F
100
AcDbEntity
  8
0-B
  6
Continuous
 62
     2
370
     9
100
AcDbCircle
 10
34.65745844896246
 20
678.4675721864443
 30
0.0
 40
7.666664027646087
100
AcDbArc
 50
270.0
 51
90.0
  0
ARC
  5
87
330
1F
100
AcDbEntity
  8
0-B
  6
Continuous
 62
     2
370
     9
100
AcDbCircle
 10
-35.3423718780161
 20
678.4675721864443
 30
0.0
 40
7.666664027646087
100
AcDbArc
 50
90.0
 51
270.0
  0
ARC
  5
88
330
1F
100
AcDbEntity
  8
0-B
  6
Continuous
 62
     2
370
     9
100
AcDbCircle
 10
-28.58748073896978
 20
694.1336346286299
 30
0.0
 40
8.000000331699464
100
AcDbArc
 50
270.0
 51
323.9680633544922
  0
ARC
  5
89
330
1F
100
AcDbEntity
  8
0-B
  6
Continuous
 62
     2
370
     9
100
AcDbCircle
 10
-0.342456714526822
 20
678.4675721864443
 30
0.0
 40
24.33333665401012
100
AcDbArc
 50
28.02752685546875
 51
153.5666046142578
  0
ARC
  5
8A
330
1F
100
AcDbEntity
  8
0-B
  6
Continuous
 62
     2
370
     9
100
AcDbCircle
 10
-28.58748073896978
 20
662.8008491192087
 30
0.0
 40
8.000000331699464
100
AcDbArc
 50
32.02981567382812
 51
90.0
  0
ARC
  5
8B
330
1F
100
AcDbEntity
  8
0-B
  6
Continuous
 62
     2
370
     9
100
AcDbCircle
 10
27.90256730991613
 20
694.1336346286299
 30
0.0
 40
8.000000331699464
100
AcDbArc
 50
212.02978515625
 51
270.0
  0
ARC
  5
8C
330
1F
100
AcDbEntity
  8
0-B
  6
Continuous
 62
     2
370
     9
100
AcDbCircle
 10
-0.342456714526822
 20
678.4675721864443
 30
0.0
 40
24.33333665401012
100
AcDbArc
 50
208.0275573730469
 51
331.9724426269531
  0
ARC
  5
8D
330
1F
100
AcDbEntity
  8
0-B
  6
Continuous
 62
     2
370
     9
100
AcDbCircle
 10
27.90256730991613
 20
662.8008491192087
 30
0.0
 40
8.000000331699464
100
AcDbArc
 50
90.0
 51
147.9701843261718
  0
CIRCLE
  5
8E
330
1F
100
AcDbEntity
  8
0-B
  6
Continuous
 62
     2
370
     9
100
AcDbCircle
 10
-0.342456714526822
 20
678.4675721864443
 30
0.0
 40
16.66666811037248
  0
CIRCLE
  5
8F
330
1F
100
AcDbEntity
  8
0-B
  6
Continuous
 62
     2
370
     9
100
AcDbCircle
 10
-0.342456714526822
 20
678.4675721864443
 30
0.0
 40
12.66666600909779
  0
TEXT
  5
90
330
1F
100
AcDbEntity
  8
0-D
  6
Continuous
 62
     6
370
     9
100
AcDbText
 10
88.69859885433073
 20
671.2868495050576
 30
0.0
 40
15.24
  1
複数回使用
 41
1.12
  7
ＭＳ ゴシック
100
AcDbText
  0
TEXT
  5
91
330
1F
100
AcDbEntity
  8
0-F
  6
Continuous
 62
     2
370
     9
100
AcDbText
 10
-32.84278702705186
 20
-123.9019668936515
 30
0.0
 40
30.48
  1
290
 41
1.083333333333333
  7
ＭＳ ゴシック
100
AcDbText
  0
TEXT
  5
92
330
1F
100
AcDbEntity
  8
0-F
  6
Continuous
 62
     2
370
     9
100
AcDbText
 10
675.5834491638433
 20
562.6346762443793
 30
0.0
 40
30.48
  1
340
 50
90.00000250447796
 41
1.083333333333334
  7
ＭＳ ゴシック
100
AcDbText
  0
TEXT
  5
93
330
1F
100
AcDbEntity
  8
0-F
  6
Continuous
 62
     2
370
     9
100
AcDbText
 10
-697.712674718828
 20
320.9681234785834
 30
0.0
 40
30.48
  1
195
 50
90.00000250447822
 41
1.083333333333334
  7
ＭＳ ゴシック
100
AcDbText
  0
TEXT
  5
94
330
1F
100
AcDbEntity
  8
0-F
  6
Continuous
 62
     2
370
     9
100
AcDbText
 10
126.1895751399367
 20
831.8317209151991
 30
0.0
 40
30.48
  1
R145
 50
45.00023006357632
 41
1.09375
  7
ＭＳ ゴシック
100
AcDbText
  0
LINE
  5
95
330
1F
100
AcDbEntity
  8
0-4
  6
Continuous
 62
     6
370
     9
100
AcDbLine
 10
-267.0090432578223
 20
-526.941902191425
 30
0.0
 11
-267.0090432578223
 21
-500.2751114120854
 31
0.0
  0
LINE
  5
96
330
1F
100
AcDbEntity
  8
0-4
  6
Continuous
 62
     6
370
     9
100
AcDbLine
 10
266.3241298287686
 20
-526.941902191425
 30
0.0
 11
266.3241298287686
 21
-500.2751114120854
 31
0.0
  0
LINE
  5
97
330
1F
100
AcDbEntity
  8
0-4
  6
Continuous
 62
     6
370
     9
100
AcDbLine
 10
13.82464748858816
 20
-507.9419954330347
 30
0.0
 11
13.82464748858816
 21
-500.2751114120854
 31
0.0
  0
LINE
  5
98
330
1F
100
AcDbEntity
  8
0-4
  6
Continuous
 62
     6
370
     9
100
AcDbLine
 10
-14.5095609176418
 20
-507.9419954330347
 30
0.0
 11
-14.5095609176418
 21
-500.2751114120854
 31
0.0
  0
LINE
  5
99
330
1F
100
AcDbEntity
  8
0-B
  6
Continuous
 62
     2
370
     9
100
AcDbLine
 10
-36.9694913768396
 20
-463.6084392467558
 30
0.0
 11
-47.00967089089593
 21
-463.6084392467558
 31
0.0
  0
LINE
  5
9A
330
1F
100
AcDbEntity
  8
0-B
  6
Continuous
 62
     2
370
     9
100
AcDbLine
 10
-25.68931864341997
 20
-469.833509095483
 30
0.0
 11
-17.00936610787618
 21
-483.6085323312607
 31
0.0
  0
LINE
  5
9B
330
1F
100
AcDbEntity
  8
0-B
  6
Continuous
 62
     2
370
     9
100
AcDbLine
 10
-17.00936610787618
 20
-489.9419446882326
 30
0.0
 11
-17.00936610787618
 21
-496.2753570452045
 31
0.0
  0
LINE
  5
9C
330
1F
100
AcDbEntity
  8
0-B
  6
Continuous
 62
     2
370
     9
100
AcDbLine
 10
36.28457794778672
 20
-463.6084392467558
 30
0.0
 11
46.32409683679298
 21
-463.6084392467558
 31
0.0
  0
LINE
  5
9D
330
1F
100
AcDbEntity
  8
0-B
  6
Continuous
 62
     2
370
     9
100
AcDbLine
 10
25.00440521436633
 20
-469.833509095483
 30
0.0
 11
16.3244526788233
 21
-483.6085323312607
 31
0.0
  0
LINE
  5
9E
330
1F
100
AcDbEntity
  8
0-B
  6
Continuous
 62
     2
370
     9
100
AcDbLine
 10
16.3244526788233
 20
-489.9419446882326
 30
0.0
 11
16.3244526788233
 21
-496.2753570452045
 31
0.0
  0
LINE
  5
9F
330
1F
100
AcDbEntity
  8
0-8
  6
Continuous
 62
     6
370
     9
100
AcDbLine
 10
12.99093867514356
 20
-432.5299943816902
 30
0.0
 11
-13.67585210419644
 21
-432.5299943816902
 31
0.0
  0
LINE
  5
A0
330
1F
100
AcDbEntity
  8
0-8
  6
Continuous
 62
     6
370
     9
100
AcDbLine
 10
-13.67585210419644
 20
-432.5299943816902
 30
0.0
 11
-11.42047818256261
 21
-430.2749507725818
 31
0.0
  0
LINE
  5
A1
330
1F
100
AcDbEntity
  8
0-8
  6
Continuous
 62
     6
370
     9
100
AcDbLine
 10
-11.42047818256261
 20
-430.2749507725818
 30
0.0
 11
10.73556475350972
 21
-430.2749507725818
 31
0.0
  0
LINE
  5
A2
330
1F
100
AcDbEntity
  8
0-8
  6
Continuous
 62
     6
370
     9
100
AcDbLine
 10
10.73556475350972
 20
-430.2749507725818
 30
0.0
 11
12.99093867514356
 21
-432.5299943816902
 31
0.0
  0
LINE
  5
A3
330
1F
100
AcDbEntity
  8
0-B
  6
Continuous
 62
     2
370
     9
100
AcDbLine
 10
-17.00936610787618
 20
-489.9419446882326
 30
0.0
 11
-11.42047818256261
 21
-489.9419446882326
 31
0.0
  0
LINE
  5
A4
330
1F
100
AcDbEntity
  8
0-B
  6
Continuous
 62
     2
370
     9
100
AcDbLine
 10
10.73556475350972
 20
-489.9419446882326
 30
0.0
 11
16.3244526788233
 21
-489.9419446882326
 31
0.0
  0
LINE
  5
A5
330
1F
100
AcDbEntity
  8
0-B
  6
Continuous
 62
     2
370
     9
100
AcDbLine
 10
-17.00936610787618
 20
-483.6085323312607
 30
0.0
 11
-13.67585210419644
 21
-483.6085323312607
 31
0.0
  0
LINE
  5
A6
330
1F
100
AcDbEntity
  8
0-B
  6
Continuous
 62
     2
370
     9
100
AcDbLine
 10
12.99093867514356
 20
-483.6085323312607
 30
0.0
 11
16.3244526788233
 21
-483.6085323312607
 31
0.0
  0
LINE
  5
A7
330
1F
100
AcDbEntity
  8
0-B
  6
Continuous
 62
     2
370
     9
100
AcDbLine
 10
18.99073538172718
 20
-500.2751114120854
 30
0.0
 11
12.99093867514356
 21
-500.2751114120854
 31
0.0
  0
LINE
  5
A8
330
1F
100
AcDbEntity
  8
0-B
  6
Continuous
 62
     2
370
     9
100
AcDbLine
 10
-13.67585210419644
 20
-500.2751114120854
 30
0.0
 11
-19.67564881078006
 21
-500.2751114120854
 31
0.0
  0
LINE
  5
A9
330
1F
100
AcDbEntity
  8
0-4
  6
Continuous
 62
     6
370
     9
100
AcDbLine
 10
-267.0090432578223
 20
-526.941902191425
 30
0.0
 11
-13.67585210419644
 21
-526.941902191425
 31
0.0
  0
LINE
  5
AA
330
1F
100
AcDbEntity
  8
0-4
  6
Continuous
 62
     6
370
     9
100
AcDbLine
 10
12.99093867514356
 20
-526.941902191425
 30
0.0
 11
266.3241298287686
 21
-526.941902191425
 31
0.0
  0
LINE
  5
AB
330
1F
100
AcDbEntity
  8
0-4
  6
Continuous
 62
     6
370
     9
100
AcDbLine
 10
-267.0090432578223
 20
-507.9419954330347
 30
0.0
 11
-13.67585210419644
 21
-507.9419954330347
 31
0.0
  0
LINE
  5
AC
330
1F
100
AcDbEntity
  8
0-4
  6
Continuous
 62
     6
370
     9
100
AcDbLine
 10
12.99093867514356
 20
-507.9419954330347
 30
0.0
 11
266.3241298287686
 21
-507.9419954330347
 31
0.0
  0
LINE
  5
AD
330
1F
100
AcDbEntity
  8
0-4
  6
Continuous
 62
     6
370
     9
100
AcDbLine
 10
-267.0090432578223
 20
-500.2751114120854
 30
0.0
 11
-13.67585210419644
 21
-500.2751114120854
 31
0.0
  0
LINE
  5
AE
330
1F
100
AcDbEntity
  8
0-4
  6
Continuous
 62
     6
370
     9
100
AcDbLine
 10
12.99093867514356
 20
-500.2751114120854
 30
0.0
 11
266.3241298287686
 21
-500.2751114120854
 31
0.0
  0
LINE
  5
AF
330
1F
100
AcDbEntity
  8
0-0
  6
JWW_CENTER1
 62
     3
370
     9
100
AcDbLine
 10
-0.342456714526822
 20
-400.2459087998751
 30
0.0
 11
-0.342456714526822
 21
-1041.657340111208
 31
0.0
  0
LINE
  5
B0
330
1F
100
AcDbEntity
  8
0-1
  6
Continuous
 62
     4
370
     9
100
AcDbLine
 10
441.3243662712658
 20
-693.6083536247222
 30
0.0
 11
482.9906488170653
 21
-526.941902191425
 31
0.0
  0
LINE
  5
B1
330
1F
100
AcDbEntity
  8
0-1
  6
Continuous
 62
     4
370
     9
100
AcDbLine
 10
16.3244526788233
 20
-526.941902191425
 30
0.0
 11
16.3244526788233
 21
-693.6083536247222
 31
0.0
  0
LINE
  5
B2
330
1F
100
AcDbEntity
  8
0-1
  6
Continuous
 62
     4
370
     9
100
AcDbLine
 10
-17.00936610787618
 20
-526.941902191425
 30
0.0
 11
-17.00936610787618
 21
-693.6083536247222
 31
0.0
  0
LINE
  5
B3
330
1F
100
AcDbEntity
  8
0-1
  6
Continuous
 62
     4
370
     9
100
AcDbLine
 10
-483.6762228711689
 20
-526.941902191425
 30
0.0
 11
-442.0092797003194
 21
-693.6086839372476
 31
0.0
  0
LINE
  5
B4
330
1F
100
AcDbEntity
  8
0-1
  6
Continuous
 62
     4
370
     9
100
AcDbLine
 10
482.9906488170653
 20
-526.941902191425
 30
0.0
 11
12.99093867514356
 21
-526.941902191425
 31
0.0
  0
LINE
  5
B5
330
1F
100
AcDbEntity
  8
0-1
  6
Continuous
 62
     4
370
     9
100
AcDbLine
 10
-13.67585210419644
 20
-526.941902191425
 30
0.0
 11
-483.6762228711689
 21
-526.941902191425
 31
0.0
  0
LINE
  5
B6
330
1F
100
AcDbEntity
  8
0-1
  6
Continuous
 62
     4
370
     9
100
AcDbLine
 10
441.3243662712658
 20
-693.6083536247222
 30
0.0
 11
12.99093867514356
 21
-693.6086839372476
 31
0.0
  0
LINE
  5
B7
330
1F
100
AcDbEntity
  8
0-1
  6
Continuous
 62
     4
370
     9
100
AcDbLine
 10
-13.67585210419644
 20
-693.6086839372476
 30
0.0
 11
-442.0092797003194
 21
-693.6086839372476
 31
0.0
  0
LINE
  5
B8
330
1F
100
AcDbEntity
  8
0-8
  6
Continuous
 62
     6
370
     9
100
AcDbLine
 10
-11.42047818256261
 20
-430.2749507725818
 30
0.0
 11
-11.42047818256261
 21
-1010.275668348067
 31
0.0
  0
LINE
  5
B9
330
1F
100
AcDbEntity
  8
0-8
  6
Continuous
 62
     6
370
     9
100
AcDbLine
 10
-13.67585210419644
 20
-432.5299943816902
 30
0.0
 11
-13.67585210419644
 21
-1010.275668348067
 31
0.0
  0
LINE
  5
BA
330
1F
100
AcDbEntity
  8
0-8
  6
Continuous
 62
     6
370
     9
100
AcDbLine
 10
10.73556475350972
 20
-430.2749507725818
 30
0.0
 11
10.73556475350972
 21
-1010.275668348067
 31
0.0
  0
LINE
  5
BB
330
1F
100
AcDbEntity
  8
0-8
  6
Continuous
 62
     6
370
     9
100
AcDbLine
 10
12.99093867514356
 20
-432.5299943816902
 30
0.0
 11
12.99093867514356
 21
-1010.275668348067
 31
0.0
  0
LINE
  5
BC
330
1F
100
AcDbEntity
  8
0-8
  6
Continuous
 62
     4
370
     9
100
AcDbLine
 10
269.0518506613484
 20
-716.6950521003669
 30
0.0
 11
269.6566528948736
 21
-723.609319032792
 31
0.0
  0
LINE
  5
BD
330
1F
100
AcDbEntity
  8
0-8
  6
Continuous
 62
     4
370
     9
100
AcDbLine
 10
243.5692302846241
 20
-710.6093741372474
 30
0.0
 11
262.410587030949
 21
-710.6093741372474
 31
0.0
  0
LINE
  5
BE
330
1F
100
AcDbEntity
  8
0-8
  6
Continuous
 62
     4
370
     9
100
AcDbLine
 10
236.3234947332242
 20
-723.609319032792
 30
0.0
 11
269.6566528948736
 21
-723.609319032792
 31
0.0
  0
LINE
  5
BF
330
1F
100
AcDbEntity
  8
0-8
  6
Continuous
 62
     4
370
     9
100
AcDbLine
 10
236.9282969667493
 20
-716.6950521003669
 30
0.0
 11
236.3234947332242
 21
-723.609319032792
 31
0.0
  0
LINE
  5
C0
330
1F
100
AcDbEntity
  8
0-8
  6
Continuous
 62
     4
370
     9
100
AcDbLine
 10
244.6569494298988
 20
-763.6093400455388
 30
0.0
 11
242.990192428059
 21
-761.9427481999617
 31
0.0
  0
LINE
  5
C1
330
1F
100
AcDbEntity
  8
0-8
  6
Continuous
 62
     4
370
     9
100
AcDbLine
 10
242.990192428059
 20
-761.9427481999617
 30
0.0
 11
262.9902855125634
 21
-761.9427481999617
 31
0.0
  0
LINE
  5
C2
330
1F
100
AcDbEntity
  8
0-8
  6
Continuous
 62
     4
370
     9
100
AcDbLine
 10
244.6569494298988
 20
-763.6093400455388
 30
0.0
 11
261.3235285107236
 21
-763.6093400455388
 31
0.0
  0
LINE
  5
C3
330
1F
100
AcDbEntity
  8
0-8
  6
Continuous
 62
     4
370
     9
100
AcDbLine
 10
262.9902855125634
 20
-761.9427481999617
 30
0.0
 11
261.3235285107236
 21
-763.6093400455388
 31
0.0
  0
LINE
  5
C4
330
1F
100
AcDbEntity
  8
0-8
  6
Continuous
 62
     4
370
     9
100
AcDbLine
 10
242.9898621155336
 20
-723.609319032792
 30
0.0
 11
242.9898621155336
 21
-761.9427481999617
 31
0.0
  0
LINE
  5
C5
330
1F
100
AcDbEntity
  8
0-8
  6
Continuous
 62
     4
370
     9
100
AcDbLine
 10
261.3235285107236
 20
-723.609319032792
 30
0.0
 11
261.3235285107236
 21
-763.6093400455388
 31
0.0
  0
LINE
  5
C6
330
1F
100
AcDbEntity
  8
0-8
  6
Continuous
 62
     4
370
     9
100
AcDbLine
 10
244.6569494298988
 20
-723.609319032792
 30
0.0
 11
244.6569494298988
 21
-763.6093400455388
 31
0.0
  0
LINE
  5
C7
330
1F
100
AcDbEntity
  8
0-8
  6
Continuous
 62
     4
370
     9
100
AcDbLine
 10
262.9899552000388
 20
-723.609319032792
 30
0.0
 11
262.9899552000388
 21
-761.9427481999617
 31
0.0
  0
LINE
  5
C8
330
1F
100
AcDbEntity
  8
0-0
  6
Continuous
 62
     3
370
     9
100
AcDbLine
 10
-259.7590136435957
 20
-776.2756692906949
 30
0.0
 11
-280.9257705668836
 21
-776.2756692906949
 31
0.0
  0
LINE
  5
C9
330
1F
100
AcDbEntity
  8
0-0
  6
Continuous
 62
     3
370
     9
100
AcDbLine
 10
-259.7590136435957
 20
-776.2756692906949
 30
0.0
 11
-262.4761644753704
 21
-773.6090562752661
 31
0.0
  0
LINE
  5
CA
330
1F
100
AcDbEntity
  8
0-0
  6
Continuous
 62
     3
370
     9
100
AcDbLine
 10
-278.2092803601591
 20
-773.6090562752661
 30
0.0
 11
-280.9257705668836
 21
-776.2756692906949
 31
0.0
  0
LINE
  5
CB
330
1F
100
AcDbEntity
  8
0-0
  6
Continuous
 62
     3
370
     9
100
AcDbLine
 10
-262.4761644753704
 20
-773.6090562752661
 30
0.0
 11
-278.2092803601591
 21
-773.6090562752661
 31
0.0
  0
LINE
  5
CC
330
1F
100
AcDbEntity
  8
0-0
  6
Continuous
 62
     3
370
     9
100
AcDbLine
 10
-287.0091363423267
 20
-856.9424471481773
 30
0.0
 11
-307.0088991143064
 21
-856.9424471481773
 31
0.0
  0
LINE
  5
CD
330
1F
100
AcDbEntity
  8
0-0
  6
Continuous
 62
     3
370
     9
100
AcDbLine
 10
-260.342015250462
 20
-850.2757494533425
 30
0.0
 11
-260.342015250462
 21
-806.9427099057032
 31
0.0
  0
LINE
  5
CE
330
1F
100
AcDbEntity
  8
0-0
  6
Continuous
 62
     3
370
     9
100
AcDbLine
 10
-287.0091363423267
 20
-876.9425402326817
 30
0.0
 11
-307.0088991143064
 21
-876.9425402326817
 31
0.0
  0
LINE
  5
CF
330
1F
100
AcDbEntity
  8
0-0
  6
Continuous
 62
     3
370
     9
100
AcDbLine
 10
-280.3421083349664
 20
-850.2757494533425
 30
0.0
 11
-280.3421083349664
 21
-806.9427099057032
 31
0.0
  0
LINE
  5
D0
330
1F
100
AcDbEntity
  8
0-0
  6
Continuous
 62
     3
370
     9
100
AcDbLine
 10
-278.2092803601591
 20
-806.9427099057032
 30
0.0
 11
-278.2092803601591
 21
-770.2758725841109
 31
0.0
  0
LINE
  5
D1
330
1F
100
AcDbEntity
  8
0-0
  6
Continuous
 62
     3
370
     9
100
AcDbLine
 10
-262.4761644753704
 20
-806.9427099057032
 30
0.0
 11
-262.4761644753704
 21
-770.2758725841109
 31
0.0
  0
LINE
  5
D2
330
1F
100
AcDbEntity
  8
0-0
  6
Continuous
 62
     3
370
     9
100
AcDbLine
 10
-259.7590136435957
 20
-806.9427099057032
 30
0.0
 11
-259.7590136435957
 21
-776.2756692906949
 31
0.0
  0
LINE
  5
D3
330
1F
100
AcDbEntity
  8
0-0
  6
Continuous
 62
     3
370
     9
100
AcDbLine
 10
-280.9257705668836
 20
-806.9427099057032
 30
0.0
 11
-280.9257705668836
 21
-776.2756692906949
 31
0.0
  0
LINE
  5
D4
330
1F
100
AcDbEntity
  8
0-0
  6
Continuous
 62
     3
370
     9
100
AcDbLine
 10
-259.7590136435957
 20
-806.9427099057032
 30
0.0
 11
-280.9257705668836
 21
-806.9427099057032
 31
0.0
  0
LINE
  5
D5
330
1F
100
AcDbEntity
  8
0-0
  6
JWW_CENTER1
 62
     3
370
     9
100
AcDbLine
 10
-287.0091363423267
 20
-866.9426588466922
 30
0.0
 11
-309.3983799211458
 21
-866.9426588466922
 31
0.0
  0
LINE
  5
D6
330
1F
100
AcDbEntity
  8
0-0
  6
Continuous
 62
     3
370
     9
100
AcDbLine
 10
-262.4761644753704
 20
-770.2758725841109
 30
0.0
 11
-278.2092803601591
 21
-770.2758725841109
 31
0.0
  0
LINE
  5
D7
330
1F
100
AcDbEntity
  8
0-0
  6
Continuous
 62
     3
370
     9
100
AcDbLine
 10
-262.4761644753704
 20
-770.2758725841109
 30
0.0
 11
-270.342557261502
 21
-765.734075363481
 31
0.0
  0
LINE
  5
D8
330
1F
100
AcDbEntity
  8
0-0
  6
Continuous
 62
     3
370
     9
100
AcDbLine
 10
-278.2092803601591
 20
-770.2758725841109
 30
0.0
 11
-270.342557261502
 21
-765.734075363481
 31
0.0
  0
LINE
  5
D9
330
1F
100
AcDbEntity
  8
0-0
  6
Continuous
 62
     3
370
     9
100
AcDbLine
 10
-307.0088991143064
 20
-856.9424471481773
 30
0.0
 11
-307.0088991143064
 21
-876.9425402326817
 31
0.0
  0
LINE
  5
DA
330
1F
100
AcDbEntity
  8
0-2
  6
Continuous
 62
     4
370
     9
100
AcDbLine
 10
-233.6762154086975
 20
-1030.275926588835
 30
0.0
 11
232.9906413545945
 21
-1030.275926588835
 31
0.0
  0
LINE
  5
DB
330
1F
100
AcDbEntity
  8
0-8
  6
JWW_HOJO
 62
     4
370
     9
100
AcDbLine
 10
236.3234947332242
 20
-723.609319032792
 30
0.0
 11
236.3234947332242
 21
-723.3909824536768
 31
0.0
  0
LINE
  5
DC
330
1F
100
AcDbEntity
  8
0-8
  6
Continuous
 62
     3
370
     9
100
AcDbLine
 10
244.6569494298988
 20
-766.9425237366936
 30
0.0
 11
261.3235285107236
 21
-766.9425237366936
 31
0.0
  0
LINE
  5
DD
330
1F
100
AcDbEntity
  8
0-8
  6
Continuous
 62
     3
370
     9
100
AcDbLine
 10
261.3235285107236
 20
-766.9425237366936
 30
0.0
 11
252.9900738140489
 21
-771.7536908215732
 31
0.0
  0
LINE
  5
DE
330
1F
100
AcDbEntity
  8
0-8
  6
Continuous
 62
     3
370
     9
100
AcDbLine
 10
244.6569494298988
 20
-766.9425237366936
 30
0.0
 11
252.9900738140489
 21
-771.7536908215732
 31
0.0
  0
LINE
  5
DF
330
1F
100
AcDbEntity
  8
0-0
  6
Continuous
 62
     3
370
     9
100
AcDbLine
 10
214.1215383561578
 20
-782.9555794865355
 30
0.0
 11
211.8598884965471
 21
-794.2631681595417
 31
0.0
  0
LINE
  5
E0
330
1F
100
AcDbEntity
  8
0-0
  6
Continuous
 62
     3
370
     9
100
AcDbLine
 10
208.5914460603183
 20
-796.9428285197132
 30
0.0
 11
204.0565854027162
 21
-796.9428285197132
 31
0.0
  0
LINE
  5
E1
330
1F
100
AcDbEntity
  8
0-0
  6
Continuous
 62
     3
370
     9
100
AcDbLine
 10
156.5021517838298
 20
-953.7978418626112
 30
0.0
 11
165.7902096781499
 21
-789.7109660943697
 31
0.0
  0
LINE
  5
E2
330
1F
100
AcDbEntity
  8
0-0
  6
Continuous
 62
     3
370
     9
100
AcDbLine
 10
-383.6757574486452
 20
-723.609319032792
 30
0.0
 11
-380.3425737574901
 21
-726.9428330364719
 31
0.0
  0
LINE
  5
E3
330
1F
100
AcDbEntity
  8
0-0
  6
Continuous
 62
     3
370
     9
100
AcDbLine
 10
-380.7075690977661
 20
-699.8626561319236
 30
0.0
 11
-383.6757574486452
 21
-723.609319032792
 31
0.0
  0
LINE
  5
E4
330
1F
100
AcDbEntity
  8
0-0
  6
Continuous
 62
     3
370
     9
100
AcDbLine
 10
-278.6760119581766
 20
-703.6092259482875
 30
0.0
 11
-288.6758933441665
 21
-703.6093911045498
 31
0.0
  0
LINE
  5
E5
330
1F
100
AcDbEntity
  8
0-0
  6
Continuous
 62
     3
370
     9
100
AcDbLine
 10
-288.6758933441665
 20
-703.6093911045498
 30
0.0
 11
-290.7832872545393
 21
-716.8575658627344
 31
0.0
  0
LINE
  5
E6
330
1F
100
AcDbEntity
  8
0-0
  6
Continuous
 62
     3
370
     9
100
AcDbLine
 10
-209.2766898018966
 20
-796.9428285197132
 30
0.0
 11
-204.741498831769
 21
-796.9428285197132
 31
0.0
  0
LINE
  5
E7
330
1F
100
AcDbEntity
  8
0-0
  6
Continuous
 62
     3
370
     9
100
AcDbLine
 10
-299.427566037368
 20
-722.1503286092632
 30
0.0
 11
-377.0090597538104
 21
-696.942693409715
 31
0.0
  0
LINE
  5
E8
330
1F
100
AcDbEntity
  8
0-0
  6
Continuous
 62
     3
370
     9
100
AcDbLine
 10
-275.4422523370883
 20
-729.9433920148142
 30
0.0
 11
-299.427566037368
 21
-722.1503286092632
 31
0.0
  0
LINE
  5
E9
330
1F
100
AcDbEntity
  8
0-0
  6
Continuous
 62
     3
370
     9
100
AcDbLine
 10
-157.1870652128826
 20
-953.7978418626112
 30
0.0
 11
-166.4751231072028
 21
-789.7109660943697
 31
0.0
  0
LINE
  5
EA
330
1F
100
AcDbEntity
  8
0-0
  6
Continuous
 62
     3
370
     9
100
AcDbLine
 10
-218.0752245339641
 20
-780.2762494388885
 30
0.0
 11
-229.1387122508942
 21
-780.2762494388885
 31
0.0
  0
LINE
  5
EB
330
1F
100
AcDbEntity
  8
0-0
  6
Continuous
 62
     3
370
     9
100
AcDbLine
 10
-292.9329611681295
 20
-746.1612415302409
 30
0.0
 11
-287.3529916809939
 21
-793.9956150141807
 31
0.0
  0
LINE
  5
EC
330
1F
100
AcDbEntity
  8
0-0
  6
Continuous
 62
     3
370
     9
100
AcDbLine
 10
-363.6756643641408
 20
-726.9428330364719
 30
0.0
 11
-380.3425737574901
 21
-726.9428330364719
 31
0.0
  0
LINE
  5
ED
330
1F
100
AcDbEntity
  8
0-0
  6
Continuous
 62
     3
370
     9
100
AcDbLine
 10
-151.4951197797265
 20
-788.9325846288848
 30
0.0
 11
-141.985091868514
 21
-956.9427474144379
 31
0.0
  0
LINE
  5
EE
330
1F
100
AcDbEntity
  8
0-0
  6
Continuous
 62
     3
370
     9
100
AcDbLine
 10
150.8102063506729
 20
-788.9325846288848
 30
0.0
 11
141.3001784394611
 21
-956.9427474144379
 31
0.0
  0
LINE
  5
EF
330
1F
100
AcDbEntity
  8
0-0
  6
Continuous
 62
     3
370
     9
100
AcDbLine
 10
239.6570087369039
 20
-784.9209390110987
 30
0.0
 11
266.3237995162439
 21
-784.9209390110987
 31
0.0
  0
LINE
  5
F0
330
1F
100
AcDbEntity
  8
0-0
  6
Continuous
 62
     3
370
     9
100
AcDbLine
 10
-176.4591494919861
 20
-780.2762494388885
 30
0.0
 11
-194.576791495736
 21
-780.2762494388885
 31
0.0
  0
LINE
  5
F1
330
1F
100
AcDbEntity
  8
0-0
  6
Continuous
 62
     3
370
     9
100
AcDbLine
 10
-201.4730563955411
 20
-794.2631681595417
 30
0.0
 11
-199.4796203063407
 21
-784.2954922447525
 31
0.0
  0
LINE
  5
F2
330
1F
100
AcDbEntity
  8
0-0
  6
Continuous
 62
     3
370
     9
100
AcDbLine
 10
175.7742360629325
 20
-780.2762494388885
 30
0.0
 11
193.8915477541585
 21
-780.2762494388885
 31
0.0
  0
LINE
  5
F3
330
1F
100
AcDbEntity
  8
0-0
  6
Continuous
 62
     3
370
     9
100
AcDbLine
 10
200.7881429664882
 20
-794.2631681595417
 30
0.0
 11
198.7947068772878
 21
-784.2954922447525
 31
0.0
  0
LINE
  5
F4
330
1F
100
AcDbEntity
  8
0-0
  6
JWW_HOJO
 62
     4
370
     9
100
AcDbLine
 10
-270.9777482473401
 20
-730.2761818838894
 30
0.0
 11
-275.4019542090219
 21
-730.2761818838894
 31
0.0
  0
LINE
  5
F5
330
1F
100
AcDbEntity
  8
0-0
  6
Continuous
 62
     3
370
     9
100
AcDbLine
 10
-222.7204095749619
 20
-753.7998838302901
 30
0.0
 11
-221.2987444667735
 21
-758.8321951507487
 31
0.0
  0
LINE
  5
F6
330
1F
100
AcDbEntity
  8
0-0
  6
Continuous
 62
     3
370
     9
100
AcDbLine
 10
-230.9197573864319
 20
-780.2762494388885
 30
0.0
 11
-218.4983548786648
 21
-780.2762494388885
 31
0.0
  0
LINE
  5
F7
330
1F
100
AcDbEntity
  8
0-0
  6
JWW_HOJO
 62
     4
370
     9
100
AcDbLine
 10
-234.1938151355874
 20
-777.5691731391305
 30
0.0
 11
-233.6758850961729
 21
-780.2762494388885
 31
0.0
  0
LINE
  5
F8
330
1F
100
AcDbEntity
  8
0-0
  6
JWW_HOJO
 62
     4
370
     9
100
AcDbLine
 10
-232.0682540363325
 20
-780.2762494388885
 30
0.0
 11
-233.6758850961729
 21
-780.2762494388885
 31
0.0
  0
LINE
  5
F9
330
1F
100
AcDbEntity
  8
0-0
  6
JWW_PHANTOM2
 62
     3
370
     9
100
AcDbLine
 10
-237.9002519801464
 20
-730.2761818838894
 30
0.0
 11
-270.9777482473401
 21
-730.2761818838894
 31
0.0
  0
LINE
  5
FA
330
1F
100
AcDbEntity
  8
0-0
  6
JWW_PHANTOM2
 62
     3
370
     9
100
AcDbLine
 10
-232.9703375424808
 20
-734.4409273570761
 30
0.0
 11
-230.7810261258742
 21
-747.3647352155763
 31
0.0
  0
LINE
  5
FB
330
1F
100
AcDbEntity
  8
0-0
  6
Continuous
 62
     3
370
     9
100
AcDbLine
 10
-174.7114659214872
 20
-765.4062401822825
 30
0.0
 11
-216.8355616271262
 21
-762.460678239376
 31
0.0
  0
LINE
  5
FC
330
1F
100
AcDbEntity
  8
0-0
  6
Continuous
 62
     3
370
     9
100
AcDbLine
 10
382.9908440195924
 20
-723.609319032792
 30
0.0
 11
379.6576603284373
 21
-726.9428330364719
 31
0.0
  0
LINE
  5
FD
330
1F
100
AcDbEntity
  8
0-0
  6
Continuous
 62
     3
370
     9
100
AcDbLine
 10
380.0226556687133
 20
-699.8626561319236
 30
0.0
 11
382.9908440195924
 21
-723.609319032792
 31
0.0
  0
LINE
  5
FE
330
1F
100
AcDbEntity
  8
0-0
  6
Continuous
 62
     3
370
     9
100
AcDbLine
 10
277.9907682165991
 20
-703.6092259482875
 30
0.0
 11
287.9909799151137
 21
-703.6093911045498
 31
0.0
  0
LINE
  5
FF
330
1F
100
AcDbEntity
  8
0-0
  6
Continuous
 62
     3
370
     9
100
AcDbLine
 10
287.9909799151137
 20
-703.6093911045498
 30
0.0
 11
290.0983738254864
 21
-716.8575658627344
 31
0.0
  0
LINE
  5
100
330
1F
100
AcDbEntity
  8
0-0
  6
Continuous
 62
     3
370
     9
100
AcDbLine
 10
275.2554501959415
 20
-725.885502643509
 30
0.0
 11
277.9907682165991
 21
-703.6092259482875
 31
0.0
  0
LINE
  5
101
330
1F
100
AcDbEntity
  8
0-0
  6
Continuous
 62
     3
370
     9
100
AcDbLine
 10
362.9904206225625
 20
-726.9428330364719
 30
0.0
 11
379.6576603284373
 21
-726.9428330364719
 31
0.0
  0
LINE
  5
102
330
1F
100
AcDbEntity
  8
0-0
  6
Continuous
 62
     3
370
     9
100
AcDbLine
 10
299.0901413847582
 20
-737.8092893321577
 30
0.0
 11
336.7553483135766
 21
-725.5712102758416
 31
0.0
  0
LINE
  5
103
330
1F
100
AcDbEntity
  8
0-0
  6
Continuous
 62
     3
370
     9
100
AcDbLine
 10
222.0351658333844
 20
-753.7998838302901
 30
0.0
 11
220.6135007251952
 21
-758.8321951507487
 31
0.0
  0
LINE
  5
104
330
1F
100
AcDbEntity
  8
0-0
  6
Continuous
 62
     3
370
     9
100
AcDbLine
 10
230.2345136448535
 20
-780.2762494388885
 30
0.0
 11
217.8131111370865
 21
-780.2762494388885
 31
0.0
  0
LINE
  5
105
330
1F
100
AcDbEntity
  8
0-0
  6
Continuous
 62
     3
370
     9
100
AcDbLine
 10
292.5198949472636
 20
-739.944099182117
 30
0.0
 11
299.0901413847582
 21
-737.8092893321577
 31
0.0
  0
LINE
  5
106
330
1F
100
AcDbEntity
  8
0-0
  6
Continuous
 62
     3
370
     9
100
AcDbLine
 10
232.2854241134272
 20
-734.4409273570761
 30
0.0
 11
230.0961126968213
 21
-747.3647352155763
 31
0.0
  0
LINE
  5
107
330
1F
100
AcDbEntity
  8
0-0
  6
Continuous
 62
     3
370
     9
100
AcDbLine
 10
230.2345136448535
 20
-780.2762494388885
 30
0.0
 11
217.8131111370865
 21
-780.2762494388885
 31
0.0
  0
LINE
  5
108
330
1F
100
AcDbEntity
  8
0-0
  6
Continuous
 62
     3
370
     9
100
AcDbLine
 10
174.0262221799089
 20
-765.4062401822825
 30
0.0
 11
216.1506481980733
 21
-762.460678239376
 31
0.0
  0
LINE
  5
109
330
1F
100
AcDbEntity
  8
0-0
  6
JWW_CENTER2
 62
     3
370
     9
100
AcDbLine
 10
252.9904041265743
 20
-733.1627830410598
 30
0.0
 11
252.9904041265743
 21
-722.8342406925588
 31
0.0
  0
LINE
  5
10A
330
1F
100
AcDbEntity
  8
0-0
  6
Continuous
 62
     3
370
     9
100
AcDbLine
 10
298.7426526083144
 20
-722.1503286092632
 30
0.0
 11
376.3241463247568
 21
-696.942693409715
 31
0.0
  0
LINE
  5
10B
330
1F
100
AcDbEntity
  8
0-0
  6
JWW_DASHED1
 62
     3
370
     9
100
AcDbLine
 10
274.7573389080354
 20
-729.9433920148142
 30
0.0
 11
298.7426526083144
 21
-722.1503286092632
 31
0.0
  0
LINE
  5
10C
330
1F
100
AcDbEntity
  8
0-0
  6
Continuous
 62
     3
370
     9
100
AcDbLine
 10
226.4983486730317
 20
-750.1714007416631
 30
0.0
 11
227.0420430894072
 21
-750.1334148012727
 31
0.0
  0
LINE
  5
10D
330
1F
100
AcDbEntity
  8
0-0
  6
Continuous
 62
     3
370
     9
100
AcDbLine
 10
-299.7753851263365
 20
-737.8092893321577
 30
0.0
 11
-337.4402617426294
 21
-725.5712102758416
 31
0.0
  0
LINE
  5
10E
330
1F
100
AcDbEntity
  8
0-0
  6
JWW_DASHED1
 62
     3
370
     9
100
AcDbLine
 10
-293.2048083763164
 20
-739.944099182117
 30
0.0
 11
-299.7750548138118
 21
-737.8092893321577
 31
0.0
  0
LINE
  5
10F
330
1F
100
AcDbEntity
  8
0-0
  6
Continuous
 62
     3
370
     9
100
AcDbLine
 10
-275.9406939375197
 20
-725.885502643509
 30
0.0
 11
-278.6760119581766
 21
-703.6092259482875
 31
0.0
  0
LINE
  5
110
330
1F
100
AcDbEntity
  8
0-0
  6
Continuous
 62
     3
370
     9
100
AcDbLine
 10
-227.1832621020846
 20
-750.1714007416631
 30
0.0
 11
-227.7272868309854
 21
-750.1334148012727
 31
0.0
  0
LINE
  5
111
330
1F
100
AcDbEntity
  8
0-0
  6
Continuous
 62
     3
370
     9
100
AcDbLine
 10
-214.8067820977361
 20
-782.9555794865355
 30
0.0
 11
-212.5451322381246
 21
-794.2631681595417
 31
0.0
  0
LINE
  5
112
330
1F
100
AcDbEntity
  8
0-0
  6
Continuous
 62
     3
370
     9
100
AcDbLine
 10
-227.72695651846
 20
-750.1334148012727
 30
0.0
 11
-265.1318771774698
 21
-747.5178350709773
 31
0.0
  0
LINE
  5
113
330
1F
100
AcDbEntity
  8
0-0
  6
Continuous
 62
     3
370
     9
100
AcDbLine
 10
-274.359818192215
 20
-738.7609197170768
 30
0.0
 11
-275.9406939375197
 21
-725.885502643509
 31
0.0
  0
LINE
  5
114
330
1F
100
AcDbEntity
  8
0-0
  6
JWW_DASHED1
 62
     3
370
     9
100
AcDbLine
 10
273.6745744506367
 20
-738.7609197170768
 30
0.0
 11
275.2554501959415
 21
-725.885502643509
 31
0.0
  0
LINE
  5
115
330
1F
100
AcDbEntity
  8
0-0
  6
JWW_DASHED1
 62
     3
370
     9
100
AcDbLine
 10
-288.4103220739565
 20
-747.408171312632
 30
0.0
 11
-288.6481470920555
 21
-745.47187929028
 31
0.0
  0
LINE
  5
116
330
1F
100
AcDbEntity
  8
0-0
  6
Continuous
 62
     3
370
     9
100
AcDbLine
 10
-236.2285402904297
 20
-768.2105935206937
 30
0.0
 11
-233.6758850961729
 21
-780.2762494388885
 31
0.0
  0
LINE
  5
117
330
1F
100
AcDbEntity
  8
0-0
  6
Continuous
 62
     3
370
     9
100
AcDbLine
 10
-242.6257029647525
 20
-764.1280958662662
 30
0.0
 11
-240.7716587611599
 21
-764.2577435323819
 31
0.0
  0
LINE
  5
118
330
1F
100
AcDbEntity
  8
0-0
  6
Continuous
 62
     3
370
     9
100
AcDbLine
 10
-253.1372384521794
 20
-794.2671319098433
 30
0.0
 11
-247.8763508643265
 21
-768.1291714832473
 31
0.0
  0
LINE
  5
119
330
1F
100
AcDbEntity
  8
0-0
  6
JWW_DASHED1
 62
     3
370
     9
100
AcDbLine
 10
-242.6257029647525
 20
-764.1280958662662
 30
0.0
 11
-273.0306405910647
 21
-762.0028650795364
 31
0.0
  0
LINE
  5
11A
330
1F
100
AcDbEntity
  8
0-0
  6
Continuous
 62
     3
370
     9
100
AcDbLine
 10
287.7257389574291
 20
-747.406850062531
 30
0.0
 11
287.9632336630019
 21
-745.47187929028
 31
0.0
  0
LINE
  5
11B
330
1F
100
AcDbEntity
  8
0-0
  6
Continuous
 62
     3
370
     9
100
AcDbLine
 10
266.3237995162439
 20
-784.9209390110987
 30
0.0
 11
272.4081562292625
 21
-763.9520392903682
 31
0.0
  0
LINE
  5
11C
330
1F
100
AcDbEntity
  8
0-0
  6
Continuous
 62
     3
370
     9
100
AcDbLine
 10
230.289015211501
 20
-780.2762494388885
 30
0.0
 11
217.3903111049112
 21
-780.2762494388885
 31
0.0
  0
LINE
  5
11D
330
1F
100
AcDbEntity
  8
0-0
  6
JWW_DASHED1
 62
     3
370
     9
100
AcDbLine
 10
233.5501907721758
 20
-777.6327583002194
 30
0.0
 11
235.5436268613761
 21
-768.2105935206937
 31
0.0
  0
LINE
  5
11E
330
1F
100
AcDbEntity
  8
0-0
  6
Continuous
 62
     3
370
     9
100
AcDbLine
 10
235.0167783837836
 20
-780.6734502503655
 30
0.0
 11
239.6570087369039
 21
-784.9209390110987
 31
0.0
  0
LINE
  5
11F
330
1F
100
AcDbEntity
  8
0-0
  6
Continuous
 62
     3
370
     9
100
AcDbLine
 10
237.0422547879217
 20
-730.2761818838894
 30
0.0
 11
242.9898621155336
 21
-730.2761818838894
 31
0.0
  0
LINE
  5
120
330
1F
100
AcDbEntity
  8
0-0
  6
Continuous
 62
     3
370
     9
100
AcDbLine
 10
237.2153385510936
 20
-730.2761818838894
 30
0.0
 11
242.9898621155336
 21
-730.2761818838894
 31
0.0
  0
LINE
  5
121
330
1F
100
AcDbEntity
  8
0-0
  6
Continuous
 62
     3
370
     9
100
AcDbLine
 10
-256.4050202633572
 20
-796.9428285197132
 30
0.0
 11
-259.7590136435957
 21
-796.9428285197132
 31
0.0
  0
LINE
  5
122
330
1F
100
AcDbEntity
  8
0-0
  6
Continuous
 62
     3
370
     9
100
AcDbLine
 10
-280.9257705668836
 20
-796.9428285197132
 30
0.0
 11
-284.041938929023
 21
-796.9428285197132
 31
0.0
  0
LINE
  5
123
330
1F
100
AcDbEntity
  8
0-0
  6
JWW_CENTER1
 62
     3
370
     9
100
AcDbLine
 10
-270.342557261502
 20
-850.2757494533425
 30
0.0
 11
-270.342557261502
 21
-761.8794933513977
 31
0.0
  0
LINE
  5
124
330
1F
100
AcDbEntity
  8
0-0
  6
Continuous
 62
     3
370
     9
100
AcDbLine
 10
376.7149060419936
 20
-696.942693409715
 30
0.0
 11
267.8990599486211
 21
-696.942693409715
 31
0.0
  0
LINE
  5
125
330
1F
100
AcDbEntity
  8
0-0
  6
Continuous
 62
     3
370
     9
100
AcDbLine
 10
262.9899552000388
 20
-730.2761818838894
 30
0.0
 11
270.2928348182872
 21
-730.2761818838894
 31
0.0
  0
LINE
  5
126
330
1F
100
AcDbEntity
  8
0-0
  6
Continuous
 62
     3
370
     9
100
AcDbLine
 10
262.9899552000388
 20
-730.2761818838894
 30
0.0
 11
270.2928348182872
 21
-730.2761818838894
 31
0.0
  0
LINE
  5
127
330
1F
100
AcDbEntity
  8
0-0
  6
JWW_DASHED1
 62
     3
370
     9
100
AcDbLine
 10
227.0420430894072
 20
-750.1334148012727
 30
0.0
 11
242.990192428059
 21
-749.0181145601484
 31
0.0
  0
LINE
  5
128
330
1F
100
AcDbEntity
  8
0-0
  6
JWW_DASHED1
 62
     3
370
     9
100
AcDbLine
 10
262.9902855125634
 20
-747.6195713287193
 30
0.0
 11
264.446963748417
 21
-747.5178350709773
 31
0.0
  0
LINE
  5
129
330
1F
100
AcDbEntity
  8
0-0
  6
JWW_DASHED1
 62
     3
370
     9
100
AcDbLine
 10
272.3453968494863
 20
-762.0028650795364
 30
0.0
 11
262.9902855125634
 21
-762.6568838793071
 31
0.0
  0
LINE
  5
12A
330
1F
100
AcDbEntity
  8
0-0
  6
JWW_DASHED1
 62
     3
370
     9
100
AcDbLine
 10
244.6569494298988
 20
-763.9381661643124
 30
0.0
 11
240.086745332107
 21
-764.2577435323819
 31
0.0
  0
LINE
  5
12B
330
1F
100
AcDbEntity
  8
0-0
  6
JWW_HOJO
 62
     4
370
     9
100
AcDbLine
 10
231.3836709198043
 20
-780.2762494388885
 30
0.0
 11
232.9909716671199
 21
-780.2762494388885
 31
0.0
  0
LINE
  5
12C
330
1F
100
AcDbEntity
  8
0-2
  6
Continuous
 62
     4
370
     9
100
AcDbLine
 10
232.9906413545945
 20
-780.2760842826262
 30
0.0
 11
230.289015211501
 21
-780.2760842826262
 31
0.0
  0
LINE
  5
12D
330
1F
100
AcDbEntity
  8
0-2
  6
Continuous
 62
     4
370
     9
100
AcDbLine
 10
-233.6758850961729
 20
-780.2760842826262
 30
0.0
 11
-230.9197573864319
 21
-780.2760842826262
 31
0.0
  0
LINE
  5
12E
330
1F
100
AcDbEntity
  8
0-2
  6
Continuous
 62
     4
370
     9
100
AcDbLine
 10
-218.6763933297134
 20
-780.2760842826262
 30
0.0
 11
-218.6763933297134
 21
-1030.275926588835
 31
0.0
  0
LINE
  5
12F
330
1F
100
AcDbEntity
  8
0-2
  6
Continuous
 62
     4
370
     9
100
AcDbLine
 10
-233.6762154086975
 20
-780.2760842826262
 30
0.0
 11
-233.6762154086975
 21
-1030.275926588835
 31
0.0
  0
LINE
  5
130
330
1F
100
AcDbEntity
  8
0-2
  6
Continuous
 62
     4
370
     9
100
AcDbLine
 10
217.9908192756097
 20
-780.2760842826262
 30
0.0
 11
217.9908192756097
 21
-1030.275926588835
 31
0.0
  0
LINE
  5
131
330
1F
100
AcDbEntity
  8
0-2
  6
Continuous
 62
     4
370
     9
100
AcDbLine
 10
232.9906413545945
 20
-780.2760842826262
 30
0.0
 11
232.9906413545945
 21
-1030.275926588835
 31
0.0
  0
LINE
  5
132
330
1F
100
AcDbEntity
  8
0-3
  6
Continuous
 62
     6
370
     9
100
AcDbLine
 10
-384.5097965746152
 20
-720.2761353416372
 30
0.0
 11
-381.1762825709355
 21
-696.942693409715
 31
0.0
  0
LINE
  5
133
330
1F
100
AcDbEntity
  8
0-3
  6
Continuous
 62
     6
370
     9
100
AcDbLine
 10
-402.8431326572798
 20
-720.2761353416372
 30
0.0
 11
-384.5097965746152
 21
-720.2761353416372
 31
0.0
  0
LINE
  5
134
330
1F
100
AcDbEntity
  8
0-3
  6
Continuous
 62
     6
370
     9
100
AcDbLine
 10
402.1575586031769
 20
-720.2761353416372
 30
0.0
 11
383.8242225205123
 21
-720.2761353416372
 31
0.0
  0
LINE
  5
135
330
1F
100
AcDbEntity
  8
0-3
  6
Continuous
 62
     6
370
     9
100
AcDbLine
 10
383.8242225205123
 20
-720.2761353416372
 30
0.0
 11
380.4907085168318
 21
-696.942693409715
 31
0.0
  0
LINE
  5
136
330
1F
100
AcDbEntity
  8
0-3
  6
Continuous
 62
     6
370
     9
100
AcDbLine
 10
-411.1759267289044
 20
-693.6091794060353
 30
0.0
 11
-402.8431326572798
 21
-720.2761353416372
 31
0.0
  0
LINE
  5
137
330
1F
100
AcDbEntity
  8
0-3
  6
Continuous
 62
     6
370
     9
100
AcDbLine
 10
410.4910132998515
 20
-693.6091794060353
 30
0.0
 11
402.1575586031769
 21
-720.2761353416372
 31
0.0
  0
LINE
  5
138
330
1F
100
AcDbEntity
  8
0-3
  6
Continuous
 62
     6
370
     9
100
AcDbLine
 10
-14.00913744205933
 20
-693.6091794060353
 30
0.0
 11
-14.00913744205933
 21
-696.942693409715
 31
0.0
  0
LINE
  5
139
330
1F
100
AcDbEntity
  8
0-3
  6
Continuous
 62
     6
370
     9
100
AcDbLine
 10
13.32422401300645
 20
-693.6091794060353
 30
0.0
 11
13.32422401300645
 21
-696.942693409715
 31
0.0
  0
LINE
  5
13A
330
1F
100
AcDbEntity
  8
0-8
  6
JWW_CENTER1
 62
     4
370
     9
100
AcDbLine
 10
252.9900738140489
 20
-705.8619573697199
 30
0.0
 11
252.9900738140489
 21
-774.067860372681
 31
0.0
  0
LINE
  5
13B
330
1F
100
AcDbEntity
  8
0-C
  6
Continuous
 62
     2
370
     9
100
AcDbLine
 10
166.3239947187703
 20
-744.2749918554473
 30
0.0
 11
166.3239947187703
 21
-740.2749071760411
 31
0.0
  0
LINE
  5
13C
330
1F
100
AcDbEntity
  8
0-C
  6
Continuous
 62
     2
370
     9
100
AcDbLine
 10
-167.0089081478239
 20
-740.2749071760411
 30
0.0
 11
-167.0089081478239
 21
-744.2749918554473
 31
0.0
  0
LINE
  5
13D
330
1F
100
AcDbEntity
  8
0-C
  6
Continuous
 62
     2
370
     9
100
AcDbLine
 10
16.3244526788233
 20
-740.2749071760411
 30
0.0
 11
166.3239947187703
 21
-740.2749071760411
 31
0.0
  0
LINE
  5
13E
330
1F
100
AcDbEntity
  8
0-C
  6
Continuous
 62
     2
370
     9
100
AcDbLine
 10
14.65769567698343
 20
-738.6081501742012
 30
0.0
 11
14.65769567698343
 21
-730.2750257900516
 31
0.0
  0
LINE
  5
13F
330
1F
100
AcDbEntity
  8
0-C
  6
Continuous
 62
     2
370
     9
100
AcDbLine
 10
-15.34260910603631
 20
-738.6081501742012
 30
0.0
 11
-15.34260910603631
 21
-730.2750257900516
 31
0.0
  0
LINE
  5
140
330
1F
100
AcDbEntity
  8
0-C
  6
Continuous
 62
     2
370
     9
100
AcDbLine
 10
-17.00936610787618
 20
-740.2749071760411
 30
0.0
 11
-167.0089081478239
 21
-740.2749071760411
 31
0.0
  0
LINE
  5
141
330
1F
100
AcDbEntity
  8
0-C
  6
Continuous
 62
     2
370
     9
100
AcDbLine
 10
-67.00877303782563
 20
-777.6084803296219
 30
0.0
 11
-67.00877303782563
 21
-744.2749918554473
 31
0.0
  0
LINE
  5
142
330
1F
100
AcDbEntity
  8
0-C
  6
Continuous
 62
     2
370
     9
100
AcDbLine
 10
-104.6947896557266
 20
-784.2751780244566
 30
0.0
 11
-73.67580104518511
 21
-784.2751780244566
 31
0.0
  0
LINE
  5
143
330
1F
100
AcDbEntity
  8
0-C
  6
Continuous
 62
     2
370
     9
100
AcDbLine
 10
-111.2706514061488
 20
-778.7044572880257
 30
0.0
 11
-117.0095012178745
 21
-744.2749918554473
 31
0.0
  0
LINE
  5
144
330
1F
100
AcDbEntity
  8
0-C
  6
Continuous
 62
     2
370
     9
100
AcDbLine
 10
66.32452023382207
 20
-777.6084803296219
 30
0.0
 11
66.32452023382207
 21
-744.2749918554473
 31
0.0
  0
LINE
  5
145
330
1F
100
AcDbEntity
  8
0-C
  6
Continuous
 62
     2
370
     9
100
AcDbLine
 10
104.0098762266737
 20
-784.2751780244566
 30
0.0
 11
72.99088761613223
 21
-784.2751780244566
 31
0.0
  0
LINE
  5
146
330
1F
100
AcDbEntity
  8
0-C
  6
Continuous
 62
     2
370
     9
100
AcDbLine
 10
110.5857379770959
 20
-778.7044572880257
 30
0.0
 11
116.3239271637715
 21
-744.2749918554473
 31
0.0
  0
LINE
  5
147
330
1F
100
AcDbEntity
  8
0-C
  6
Continuous
 62
     2
370
     9
100
AcDbLine
 10
12.99093867514356
 20
-730.2750257900516
 30
0.0
 11
12.99093867514356
 21
-743.1905758354235
 31
0.0
  0
LINE
  5
148
330
1F
100
AcDbEntity
  8
0-C
  6
Continuous
 62
     2
370
     9
100
AcDbLine
 10
-13.67585210419644
 20
-730.2750257900516
 30
0.0
 11
-13.67585210419644
 21
-743.1909061479485
 31
0.0
  0
LINE
  5
149
330
1F
100
AcDbEntity
  8
0-C
  6
Continuous
 62
     2
370
     9
100
AcDbLine
 10
166.3239947187703
 20
-744.2749918554473
 30
0.0
 11
12.99093867514356
 21
-744.2749918554473
 31
0.0
  0
LINE
  5
14A
330
1F
100
AcDbEntity
  8
0-C
  6
Continuous
 62
     2
370
     9
100
AcDbLine
 10
-13.67585210419644
 20
-744.2749918554473
 30
0.0
 11
-167.0089081478239
 21
-744.2749918554473
 31
0.0
  0
LINE
  5
14B
330
1F
100
AcDbEntity
  8
0-C
  6
Continuous
 62
     2
370
     9
100
AcDbLine
 10
-11.42047818256261
 20
-730.2750257900516
 30
0.0
 11
-15.34260910603631
 21
-730.2750257900516
 31
0.0
  0
LINE
  5
14C
330
1F
100
AcDbEntity
  8
0-C
  6
Continuous
 62
     2
370
     9
100
AcDbLine
 10
14.65769567698343
 20
-730.2750257900516
 30
0.0
 11
10.73556475350972
 21
-730.2750257900516
 31
0.0
  0
LINE
  5
14D
330
1F
100
AcDbEntity
  8
0-9
  6
Continuous
 62
     3
370
     9
100
AcDbLine
 10
174.6571191029203
 20
-1030.275761432571
 30
0.0
 11
174.6571191029203
 21
-1005.276057967598
 31
0.0
  0
LINE
  5
14E
330
1F
100
AcDbEntity
  8
0-9
  6
Continuous
 62
     3
370
     9
100
AcDbLine
 10
174.6571191029203
 20
-1030.275761432571
 30
0.0
 11
172.6567464506921
 21
-1030.275761432571
 31
0.0
  0
LINE
  5
14F
330
1F
100
AcDbEntity
  8
0-9
  6
Continuous
 62
     3
370
     9
100
AcDbLine
 10
172.6567464506921
 20
-1030.275761432571
 30
0.0
 11
172.6567464506921
 21
-1007.275769994775
 31
0.0
  0
LINE
  5
150
330
1F
100
AcDbEntity
  8
0-9
  6
Continuous
 62
     3
370
     9
100
AcDbLine
 10
-173.3429811298459
 20
-1030.275761432571
 30
0.0
 11
-175.3433537820741
 21
-1030.275761432571
 31
0.0
  0
LINE
  5
151
330
1F
100
AcDbEntity
  8
0-9
  6
Continuous
 62
     3
370
     9
100
AcDbLine
 10
-175.3433537820741
 20
-1030.275761432571
 30
0.0
 11
-175.3433537820741
 21
-1005.276057967598
 31
0.0
  0
LINE
  5
152
330
1F
100
AcDbEntity
  8
0-9
  6
Continuous
 62
     3
370
     9
100
AcDbLine
 10
-173.3429811298459
 20
-1030.275761432571
 30
0.0
 11
-173.3429811298459
 21
-1007.275769994775
 31
0.0
  0
LINE
  5
153
330
1F
100
AcDbEntity
  8
0-9
  6
Continuous
 62
     3
370
     9
100
AcDbLine
 10
98.50224518254386
 20
-1008.275956320889
 30
0.0
 11
100.2344040643609
 21
-1005.276057967598
 31
0.0
  0
LINE
  5
154
330
1F
100
AcDbEntity
  8
0-9
  6
Continuous
 62
     3
370
     9
100
AcDbLine
 10
99.6570177704214
 20
-1010.275668348067
 30
0.0
 11
101.3891766522385
 21
-1007.275769994775
 31
0.0
  0
LINE
  5
155
330
1F
100
AcDbEntity
  8
0-9
  6
Continuous
 62
     3
370
     9
100
AcDbLine
 10
-100.3432524495752
 20
-1010.275668348067
 30
0.0
 11
-102.0754113313923
 21
-1007.275769994775
 31
0.0
  0
LINE
  5
156
330
1F
100
AcDbEntity
  8
0-9
  6
Continuous
 62
     3
370
     9
100
AcDbLine
 10
-99.18847986169692
 20
-1008.275956320889
 30
0.0
 11
-100.920638743514
 21
-1005.276057967598
 31
0.0
  0
LINE
  5
157
330
1F
100
AcDbEntity
  8
0-9
  6
Continuous
 62
     2
370
     9
100
AcDbLine
 10
19.65664543240288
 20
-1030.275761432571
 30
0.0
 11
-20.34288011155668
 21
-1030.275761432571
 31
0.0
  0
LINE
  5
158
330
1F
100
AcDbEntity
  8
0-9
  6
Continuous
 62
     2
370
     9
100
AcDbLine
 10
-20.34288011155668
 20
-1030.275761432571
 30
0.0
 11
-20.34354073660676
 21
-1014.97006995531
 31
0.0
  0
LINE
  5
159
330
1F
100
AcDbEntity
  8
0-9
  6
Continuous
 62
     2
370
     9
100
AcDbLine
 10
-16.84222797015737
 20
-1017.828594547844
 30
0.0
 11
-22.00963711339655
 21
-1013.609182351747
 31
0.0
  0
LINE
  5
15A
330
1F
100
AcDbEntity
  8
0-9
  6
Continuous
 62
     2
370
     9
100
AcDbLine
 10
-16.84222797015737
 20
-1017.828594547844
 30
0.0
 11
-12.36186887920261
 21
-1017.828594547844
 31
0.0
  0
LINE
  5
15B
330
1F
100
AcDbEntity
  8
0-9
  6
Continuous
 62
     2
370
     9
100
AcDbLine
 10
-12.36186887920261
 20
-1017.828594547844
 30
0.0
 11
-12.36186887920261
 21
-1010.275668348067
 31
0.0
  0
LINE
  5
15C
330
1F
100
AcDbEntity
  8
0-9
  6
Continuous
 62
     2
370
     9
100
AcDbLine
 10
-22.00963711339655
 20
-1013.609182351747
 30
0.0
 11
-22.00963711339655
 21
-1010.275668348067
 31
0.0
  0
LINE
  5
15D
330
1F
100
AcDbEntity
  8
0-9
  6
Continuous
 62
     2
370
     9
100
AcDbLine
 10
19.65664543240288
 20
-1030.275761432571
 30
0.0
 11
19.65664543240288
 21
-1014.97006995531
 31
0.0
  0
LINE
  5
15E
330
1F
100
AcDbEntity
  8
0-9
  6
Continuous
 62
     2
370
     9
100
AcDbLine
 10
16.15599329100356
 20
-1017.828594547844
 30
0.0
 11
21.32340243424274
 21
-1013.609182351747
 31
0.0
  0
LINE
  5
15F
330
1F
100
AcDbEntity
  8
0-9
  6
Continuous
 62
     2
370
     9
100
AcDbLine
 10
16.15599329100356
 20
-1017.828594547844
 30
0.0
 11
11.67497357499872
 21
-1017.828594547844
 31
0.0
  0
LINE
  5
160
330
1F
100
AcDbEntity
  8
0-9
  6
Continuous
 62
     2
370
     9
100
AcDbLine
 10
11.67497357499872
 20
-1017.828594547844
 30
0.0
 11
11.67497357499872
 21
-1010.275668348067
 31
0.0
  0
LINE
  5
161
330
1F
100
AcDbEntity
  8
0-9
  6
Continuous
 62
     2
370
     9
100
AcDbLine
 10
21.32340243424274
 20
-1013.609182351747
 30
0.0
 11
21.32340243424274
 21
-1010.275668348067
 31
0.0
  0
LINE
  5
162
330
1F
100
AcDbEntity
  8
0-9
  6
Continuous
 62
     3
370
     9
100
AcDbLine
 10
-15.3432697310864
 20
-1010.275668348067
 30
0.0
 11
-15.3432697310864
 21
-1008.275956320889
 31
0.0
  0
LINE
  5
163
330
1F
100
AcDbEntity
  8
0-9
  6
Continuous
 62
     3
370
     9
100
AcDbLine
 10
14.65703505193335
 20
-1010.275668348067
 30
0.0
 11
14.65703505193335
 21
-1008.275956320889
 31
0.0
  0
LINE
  5
164
330
1F
100
AcDbEntity
  8
0-9
  6
Continuous
 62
     3
370
     9
100
AcDbLine
 10
-13.67651272924653
 20
-1008.275956320889
 30
0.0
 11
-99.18847986169692
 21
-1008.275956320889
 31
0.0
  0
LINE
  5
165
330
1F
100
AcDbEntity
  8
0-9
  6
Continuous
 62
     3
370
     9
100
AcDbLine
 10
98.50224518254386
 20
-1008.275956320889
 30
0.0
 11
12.99027805009272
 21
-1008.275956320889
 31
0.0
  0
LINE
  5
166
330
1F
100
AcDbEntity
  8
0-9
  6
Continuous
 62
     3
370
     9
100
AcDbLine
 10
-137.0099246149043
 20
-1007.275769994775
 30
0.0
 11
-137.0099246149043
 21
-1005.276057967598
 31
0.0
  0
LINE
  5
167
330
1F
100
AcDbEntity
  8
0-9
  6
Continuous
 62
     3
370
     9
100
AcDbLine
 10
-123.6765292252347
 20
-1007.275769994775
 30
0.0
 11
-123.6765292252347
 21
-1005.276057967598
 31
0.0
  0
LINE
  5
168
330
1F
100
AcDbEntity
  8
0-9
  6
Continuous
 62
     3
370
     9
100
AcDbLine
 10
136.3236899357513
 20
-1007.275769994775
 30
0.0
 11
136.3236899357513
 21
-1005.276057967598
 31
0.0
  0
LINE
  5
169
330
1F
100
AcDbEntity
  8
0-9
  6
Continuous
 62
     3
370
     9
100
AcDbLine
 10
122.9902945460809
 20
-1007.275769994775
 30
0.0
 11
122.9902945460809
 21
-1005.276057967598
 31
0.0
  0
LINE
  5
16A
330
1F
100
AcDbEntity
  8
0-9
  6
Continuous
 62
     3
370
     9
100
AcDbLine
 10
172.6567464506921
 20
-1007.275769994775
 30
0.0
 11
101.3891766522385
 21
-1007.275769994775
 31
0.0
  0
LINE
  5
16B
330
1F
100
AcDbEntity
  8
0-9
  6
Continuous
 62
     3
370
     9
100
AcDbLine
 10
174.6571191029203
 20
-1005.276057967598
 30
0.0
 11
12.99027805009272
 21
-1005.276057967598
 31
0.0
  0
LINE
  5
16C
330
1F
100
AcDbEntity
  8
0-9
  6
Continuous
 62
     3
370
     9
100
AcDbLine
 10
-102.0754113313923
 20
-1007.275769994775
 30
0.0
 11
-173.3429811298459
 21
-1007.275769994775
 31
0.0
  0
LINE
  5
16D
330
1F
100
AcDbEntity
  8
0-9
  6
Continuous
 62
     3
370
     9
100
AcDbLine
 10
-13.67651272924653
 20
-1005.276057967598
 30
0.0
 11
-175.3433537820741
 21
-1005.276057967598
 31
0.0
  0
LINE
  5
16E
330
1F
100
AcDbEntity
  8
0-9
  6
Continuous
 62
     3
370
     9
100
AcDbLine
 10
99.6570177704214
 20
-1010.275668348067
 30
0.0
 11
-100.3432524495752
 21
-1010.275668348067
 31
0.0
  0
LINE
  5
16F
330
1F
100
AcDbEntity
  8
0-9
  6
Continuous
 62
     2
370
     9
100
AcDbLine
 10
-22.00963711339655
 20
-1010.275668348067
 30
0.0
 11
21.32340243424274
 21
-1010.275668348067
 31
0.0
  0
LINE
  5
170
330
1F
100
AcDbEntity
  8
0-3
  6
Continuous
 62
     6
370
     9
100
AcDbLine
 10
-14.00880712953391
 20
-693.6086839372476
 30
0.0
 11
-14.00880712953391
 21
-696.9421979409274
 31
0.0
  0
LINE
  5
171
330
1F
100
AcDbEntity
  8
0-3
  6
Continuous
 62
     6
370
     9
100
AcDbLine
 10
13.32389370048103
 20
-693.6086839372476
 30
0.0
 11
13.32389370048103
 21
-696.9421979409274
 31
0.0
  0
LINE
  5
172
330
1F
100
AcDbEntity
  8
0-0
  6
Continuous
 62
     3
370
     9
100
AcDbLine
 10
-153.8591665221298
 20
-956.9427474144379
 30
0.0
 11
-13.67585210419644
 21
-956.9427474144379
 31
0.0
  0
LINE
  5
173
330
1F
100
AcDbEntity
  8
0-0
  6
Continuous
 62
     3
370
     9
100
AcDbLine
 10
153.1739227805514
 20
-956.9427474144379
 30
0.0
 11
12.99093867514356
 21
-956.9427474144379
 31
0.0
  0
LINE
  5
174
330
1F
100
AcDbEntity
  8
0-0
  6
Continuous
 62
     3
370
     9
100
AcDbLine
 10
277.9907682165991
 20
-703.6092259482875
 30
0.0
 11
12.99093867514356
 21
-703.6092259482875
 31
0.0
  0
LINE
  5
175
330
1F
100
AcDbEntity
  8
0-0
  6
Continuous
 62
     3
370
     9
100
AcDbLine
 10
-13.67585210419644
 20
-703.6092259482875
 30
0.0
 11
-278.6760119581766
 21
-703.6092259482875
 31
0.0
  0
LINE
  5
176
330
1F
100
AcDbEntity
  8
0-0
  6
Continuous
 62
     3
370
     9
100
AcDbLine
 10
-377.3998194710472
 20
-696.942693409715
 30
0.0
 11
-13.67585210419644
 21
-696.942693409715
 31
0.0
  0
LINE
  5
177
330
1F
100
AcDbEntity
  8
0-0
  6
Continuous
 62
     3
370
     9
100
AcDbLine
 10
12.99093867514356
 20
-696.942693409715
 30
0.0
 11
238.0804270544266
 21
-696.942693409715
 31
0.0
  0
LINE
  5
178
330
1F
100
AcDbEntity
  8
0-3
  6
Continuous
 62
     6
370
     9
100
AcDbLine
 10
380.4907085168318
 20
-696.942693409715
 30
0.0
 11
12.99093867514356
 21
-696.942693409715
 31
0.0
  0
LINE
  5
179
330
1F
100
AcDbEntity
  8
0-3
  6
Continuous
 62
     6
370
     9
100
AcDbLine
 10
-13.67585210419644
 20
-696.942693409715
 30
0.0
 11
-381.1762825709355
 21
-696.942693409715
 31
0.0
  0
LINE
  5
17A
330
1F
100
AcDbEntity
  8
0-3
  6
Continuous
 62
     6
370
     9
100
AcDbLine
 10
410.4910132998515
 20
-693.6091794060353
 30
0.0
 11
12.99093867514356
 21
-693.6091794060353
 31
0.0
  0
LINE
  5
17B
330
1F
100
AcDbEntity
  8
0-3
  6
Continuous
 62
     6
370
     9
100
AcDbLine
 10
-13.67585210419644
 20
-693.6091794060353
 30
0.0
 11
-411.1759267289044
 21
-693.6091794060353
 31
0.0
  0
LINE
  5
17C
330
1F
100
AcDbEntity
  8
0-0
  6
Continuous
 62
     3
370
     9
100
AcDbLine
 10
-13.67585210419644
 20
-766.942854049219
 30
0.0
 11
-67.00877303782563
 21
-766.942854049219
 31
0.0
  0
LINE
  5
17D
330
1F
100
AcDbEntity
  8
0-0
  6
Continuous
 62
     3
370
     9
100
AcDbLine
 10
-113.2310562428352
 20
-766.942854049219
 30
0.0
 11
-152.7400676869666
 21
-766.942854049219
 31
0.0
  0
LINE
  5
17E
330
1F
100
AcDbEntity
  8
0-0
  6
Continuous
 62
     3
370
     9
100
AcDbLine
 10
12.99093867514356
 20
-766.942854049219
 30
0.0
 11
66.32452023382207
 21
-766.942854049219
 31
0.0
  0
LINE
  5
17F
330
1F
100
AcDbEntity
  8
0-0
  6
Continuous
 62
     3
370
     9
100
AcDbLine
 10
112.5461428137823
 20
-766.942854049219
 30
0.0
 11
152.0548239453883
 21
-766.942854049219
 31
0.0
  0
LINE
  5
180
330
1F
100
AcDbEntity
  8
0-8
  6
Continuous
 62
     3
370
     9
100
AcDbLine
 10
242.990192428059
 20
-763.6093400455388
 30
0.0
 11
244.6569494298988
 21
-763.6093400455388
 31
0.0
  0
LINE
  5
181
330
1F
100
AcDbEntity
  8
0-8
  6
Continuous
 62
     3
370
     9
100
AcDbLine
 10
242.990192428059
 20
-761.9427481999617
 30
0.0
 11
242.990192428059
 21
-763.6093400455388
 31
0.0
  0
LINE
  5
182
330
1F
100
AcDbEntity
  8
0-8
  6
Continuous
 62
     3
370
     9
100
AcDbLine
 10
244.6569494298988
 20
-763.6093400455388
 30
0.0
 11
244.6569494298988
 21
-766.9425237366936
 31
0.0
  0
LINE
  5
183
330
1F
100
AcDbEntity
  8
0-8
  6
Continuous
 62
     3
370
     9
100
AcDbLine
 10
262.9902855125634
 20
-745.3934300655606
 30
0.0
 11
262.9902855125634
 21
-761.9427481999617
 31
0.0
  0
LINE
  5
184
330
1F
100
AcDbEntity
  8
0-8
  6
Continuous
 62
     3
370
     9
100
AcDbLine
 10
261.3235285107236
 20
-763.6093400455388
 30
0.0
 11
261.3235285107236
 21
-766.9425237366936
 31
0.0
  0
ARC
  5
185
330
1F
100
AcDbEntity
  8
0-B
  6
Continuous
 62
     2
370
     9
100
AcDbCircle
 10
-36.9694913768396
 20
-476.9418346364258
 30
0.0
 40
13.33333345607134
100
AcDbArc
 50
32.21649169921875
 51
90.0
  0
ARC
  5
186
330
1F
100
AcDbEntity
  8
0-B
  6
Continuous
 62
     2
370
     9
100
AcDbCircle
 10
-8.593002967392174
 20
-463.4921692379078
 30
0.0
 40
38.4165156700743
100
AcDbArc
 50
180.1736145019531
 51
253.2320709228515
  0
ARC
  5
187
330
1F
100
AcDbEntity
  8
0-B
  6
Continuous
 62
     2
370
     9
100
AcDbCircle
 10
-8.593002967392174
 20
-463.4921692379078
 30
0.0
 40
34.41652131049943
100
AcDbArc
 50
180.1736145019531
 51
255.4090423583985
  0
ARC
  5
188
330
1F
100
AcDbEntity
  8
0-B
  6
Continuous
 62
     2
370
     9
100
AcDbCircle
 10
-17.67593678360196
 20
-496.2753570452045
 30
0.0
 40
0.6666666808678376
100
AcDbArc
 50
308.2657165527344
 51
0.0
  0
ARC
  5
189
330
1F
100
AcDbEntity
  8
0-B
  6
Continuous
 62
     2
370
     9
100
AcDbCircle
 10
36.28457794778672
 20
-476.9418346364258
 30
0.0
 40
13.33333345607134
100
AcDbArc
 50
90.0
 51
147.7835083007812
  0
ARC
  5
18A
330
1F
100
AcDbEntity
  8
0-B
  6
Continuous
 62
     2
370
     9
100
AcDbCircle
 10
7.908089538339294
 20
-463.4921692379078
 30
0.0
 40
38.4165156700743
100
AcDbArc
 50
286.7679138183594
 51
359.8263702392579
  0
ARC
  5
18B
330
1F
100
AcDbEntity
  8
0-B
  6
Continuous
 62
     2
370
     9
100
AcDbCircle
 10
7.908089538339294
 20
-463.4921692379078
 30
0.0
 40
34.41652131049943
100
AcDbArc
 50
284.5909423828125
 51
359.8263702392578
  0
ARC
  5
18C
330
1F
100
AcDbEntity
  8
0-B
  6
Continuous
 62
     2
370
     9
100
AcDbCircle
 10
16.99102335454908
 20
-496.2753570452045
 30
0.0
 40
0.6666666808678376
100
AcDbArc
 50
180.0
 51
231.7342834472656
  0
ARC
  5
18D
330
1F
100
AcDbEntity
  8
0-B
  6
Continuous
 62
     2
370
     9
100
AcDbCircle
 10
16.3244526788233
 20
-496.2753570452045
 30
0.0
 40
4.000000165849732
100
AcDbArc
 50
213.5567016601563
 51
270.0
  0
ARC
  5
18E
330
1F
100
AcDbEntity
  8
0-B
  6
Continuous
 62
     2
370
     9
100
AcDbCircle
 10
-17.00936610787618
 20
-496.2753570452045
 30
0.0
 40
4.000000165849732
100
AcDbArc
 50
270.0
 51
326.4436187744141
  0
ARC
  5
18F
330
1F
100
AcDbEntity
  8
0-8
  6
Continuous
 62
     4
370
     9
100
AcDbCircle
 10
262.410587030949
 20
-717.2759066758199
 30
0.0
 40
6.666666728035669
100
AcDbArc
 50
5.000015258789053
 51
89.99999999999999
  0
ARC
  5
190
330
1F
100
AcDbEntity
  8
0-8
  6
Continuous
 62
     4
370
     9
100
AcDbCircle
 10
243.5692302846241
 20
-717.2759066758199
 30
0.0
 40
6.666666728035669
100
AcDbArc
 50
90.0
 51
174.9999847412109
  0
ARC
  5
191
330
1F
100
AcDbEntity
  8
0-0
  6
Continuous
 62
     3
370
     9
100
AcDbCircle
 10
-287.0091363423267
 20
-850.2757494533425
 30
0.0
 40
6.666666728035669
100
AcDbArc
 50
270.0
 51
0.0
  0
ARC
  5
192
330
1F
100
AcDbEntity
  8
0-0
  6
Continuous
 62
     3
370
     9
100
AcDbCircle
 10
-287.0091363423267
 20
-850.2757494533425
 30
0.0
 40
26.66666691214268
100
AcDbArc
 50
270.0
 51
0.0
  0
ARC
  5
193
330
1F
100
AcDbEntity
  8
0-0
  6
JWW_CENTER1
 62
     3
370
     9
100
AcDbCircle
 10
-287.0091363423267
 20
-850.2757494533425
 30
0.0
 40
16.66666682008918
100
AcDbArc
 50
270.0
 51
0.0
  0
ARC
  5
194
330
1F
100
AcDbEntity
  8
0-0
  6
Continuous
 62
     3
370
     9
100
AcDbCircle
 10
217.3903111049112
 20
-783.609267973781
 30
0.0
 40
3.333333364017835
100
AcDbArc
 50
90.0
 51
168.6906585693359
  0
ARC
  5
195
330
1F
100
AcDbEntity
  8
0-0
  6
Continuous
 62
     3
370
     9
100
AcDbCircle
 10
208.5914460603183
 20
-793.609479672296
 30
0.0
 40
3.333333364017835
100
AcDbArc
 50
270.0
 51
348.6908569335938
  0
ARC
  5
196
330
1F
100
AcDbEntity
  8
0-0
  6
Continuous
 62
     3
370
     9
100
AcDbCircle
 10
204.0565854027162
 20
-793.609479672296
 30
0.0
 40
3.333333364017835
100
AcDbArc
 50
191.3091430664063
 51
270.0
  0
ARC
  5
197
330
1F
100
AcDbEntity
  8
0-0
  6
Continuous
 62
     3
370
     9
100
AcDbCircle
 10
153.1739227805514
 20
-953.6093985670204
 30
0.0
 40
3.333333364017835
100
AcDbArc
 50
270.0
 51
356.7600402832032
  0
ARC
  5
198
330
1F
100
AcDbEntity
  8
0-0
  6
Continuous
 62
     3
370
     9
100
AcDbCircle
 10
175.7742360629325
 20
-790.2759656686162
 30
0.0
 40
10.0000000920535
100
AcDbArc
 50
90.0
 51
176.7600860595703
  0
ARC
  5
199
330
1F
100
AcDbEntity
  8
0-0
  6
Continuous
 62
     3
370
     9
100
AcDbCircle
 10
-377.3998194710472
 20
-700.2760422571323
 30
0.0
 40
3.333333364017835
100
AcDbArc
 50
90.0
 51
172.875732421875
  0
ARC
  5
19A
330
1F
100
AcDbEntity
  8
0-0
  6
Continuous
 62
     3
370
     9
100
AcDbCircle
 10
-297.3674068180902
 20
-715.8101448455257
 30
0.0
 40
6.666666728035669
100
AcDbArc
 50
252.0001831054688
 51
350.9597778320312
  0
ARC
  5
19B
330
1F
100
AcDbEntity
  8
0-0
  6
Continuous
 62
     3
370
     9
100
AcDbCircle
 10
-218.0752245339641
 20
-783.609267973781
 30
0.0
 40
3.333333364017835
100
AcDbArc
 50
11.30934143066407
 51
90.00000000000001
  0
ARC
  5
19C
330
1F
100
AcDbEntity
  8
0-0
  6
Continuous
 62
     3
370
     9
100
AcDbCircle
 10
-209.2766898018966
 20
-793.609479672296
 30
0.0
 40
3.333333364017835
100
AcDbArc
 50
191.3091430664063
 51
270.0
  0
ARC
  5
19D
330
1F
100
AcDbEntity
  8
0-0
  6
Continuous
 62
     3
370
     9
100
AcDbCircle
 10
-204.741498831769
 20
-793.609479672296
 30
0.0
 40
3.333333364017835
100
AcDbArc
 50
270.0
 51
348.6908569335938
  0
ARC
  5
19E
330
1F
100
AcDbEntity
  8
0-0
  6
JWW_PHANTOM2
 62
     3
370
     9
100
AcDbCircle
 10
-270.9777482473401
 20
-725.2760760346318
 30
0.0
 40
5.000000046026752
100
AcDbArc
 50
187.0003204345703
 51
269.9999847412109
  0
ARC
  5
19F
330
1F
100
AcDbEntity
  8
0-0
  6
Continuous
 62
     3
370
     9
100
AcDbCircle
 10
-153.8591665221298
 20
-953.6093985670204
 30
0.0
 40
3.333333364017835
100
AcDbArc
 50
183.2399444580078
 51
270.0
  0
ARC
  5
1A0
330
1F
100
AcDbEntity
  8
0-0
  6
Continuous
 62
     3
370
     9
100
AcDbCircle
 10
-176.4591494919861
 20
-790.2759656686162
 30
0.0
 40
10.0000000920535
100
AcDbArc
 50
3.239913940429692
 51
90.00000000000001
  0
ARC
  5
1A1
330
1F
100
AcDbEntity
  8
0-0
  6
Continuous
 62
     3
370
     9
100
AcDbCircle
 10
-348.7709722923952
 20
-760.443294492103
 30
0.0
 40
36.66666442362958
100
AcDbArc
 50
72.00007629394531
 51
113.9847106933594
  0
ARC
  5
1A2
330
1F
100
AcDbEntity
  8
0-0
  6
Continuous
 62
     3
370
     9
100
AcDbCircle
 10
-284.041938929023
 20
-793.609479672296
 30
0.0
 40
3.333333364017835
100
AcDbArc
 50
186.6537322998047
 51
270.1769561767578
  0
ARC
  5
1A3
330
1F
100
AcDbEntity
  8
0-0
  6
Continuous
 62
     3
370
     9
100
AcDbCircle
 10
-302.8654587989911
 20
-747.319647555895
 30
0.0
 40
10.0000000920535
100
AcDbArc
 50
6.6537322998047
 51
72.00012207031251
  0
ARC
  5
1A4
330
1F
100
AcDbEntity
  8
0-0
  6
Continuous
 62
     3
370
     9
100
AcDbCircle
 10
-176.4551857416841
 20
-790.3453312988945
 30
0.0
 40
24.99999764956716
100
AcDbArc
 50
3.239776611328125
 51
85.99998474121094
  0
ARC
  5
1A5
330
1F
100
AcDbEntity
  8
0-0
  6
Continuous
 62
     3
370
     9
100
AcDbCircle
 10
175.7702723126312
 20
-790.3453312988945
 30
0.0
 40
24.99999764956716
100
AcDbArc
 50
94.00015258789062
 51
176.7602233886719
  0
ARC
  5
1A6
330
1F
100
AcDbEntity
  8
0-0
  6
Continuous
 62
     3
370
     9
100
AcDbCircle
 10
-194.576791495736
 20
-785.2760249756211
 30
0.0
 40
5.000000046026752
100
AcDbArc
 50
90.0
 51
168.6902008056641
  0
ARC
  5
1A7
330
1F
100
AcDbEntity
  8
0-0
  6
Continuous
 62
     3
370
     9
100
AcDbCircle
 10
193.8915477541585
 20
-785.2760249756211
 30
0.0
 40
5.000000046026752
100
AcDbArc
 50
11.30979919433594
 51
90.0
  0
ARC
  5
1A8
330
1F
100
AcDbEntity
  8
0-0
  6
Continuous
 62
     3
370
     9
100
AcDbCircle
 10
-227.5320721286294
 20
-755.1591198712281
 30
0.0
 40
5.000000046026752
100
AcDbArc
 50
15.7751922607422
 51
86.0
  0
ARC
  5
1A9
330
1F
100
AcDbEntity
  8
0-0
  6
Continuous
 62
     3
370
     9
100
AcDbCircle
 10
-216.4867516005814
 20
-757.4729591098112
 30
0.0
 40
5.000000046026752
100
AcDbArc
 50
195.7753753662109
 51
266.0
  0
ARC
  5
1AA
330
1F
100
AcDbEntity
  8
0-0
  6
Continuous
 62
     3
370
     9
100
AcDbCircle
 10
-230.9197573864319
 20
-776.9429005914712
 30
0.0
 40
3.333333364017835
100
AcDbArc
 50
190.8296051025391
 51
270.0
  0
ARC
  5
1AB
330
1F
100
AcDbEntity
  8
0-0
  6
JWW_DASHED1
 62
     3
370
     9
100
AcDbCircle
 10
-295.2652979081196
 20
-746.2842829458543
 30
0.0
 40
6.666666728035669
100
AcDbArc
 50
7.000045776367187
 51
71.99740600585936
  0
ARC
  5
1AC
330
1F
100
AcDbEntity
  8
0-0
  6
JWW_PHANTOM2
 62
     3
370
     9
100
AcDbCircle
 10
-237.9002519801464
 20
-735.2761225768843
 30
0.0
 40
5.000000046026752
100
AcDbArc
 50
9.61460876464845
 51
90.00000000000001
  0
ARC
  5
1AD
330
1F
100
AcDbEntity
  8
0-0
  6
JWW_PHANTOM2
 62
     3
370
     9
100
AcDbCircle
 10
-227.4947468132887
 20
-746.8081586107212
 30
0.0
 40
3.333333364017835
100
AcDbArc
 50
189.6150970458984
 51
266.0006713867188
  0
ARC
  5
1AE
330
1F
100
AcDbEntity
  8
0-0
  6
Continuous
 62
     3
370
     9
100
AcDbCircle
 10
376.7149060419936
 20
-700.2760422571323
 30
0.0
 40
3.333333364017835
100
AcDbArc
 50
7.124267578125002
 51
90.0
  0
ARC
  5
1AF
330
1F
100
AcDbEntity
  8
0-0
  6
Continuous
 62
     3
370
     9
100
AcDbCircle
 10
296.6824933890366
 20
-715.8101448455257
 30
0.0
 40
6.666666728035669
100
AcDbArc
 50
189.0402221679687
 51
287.9998168945312
  0
ARC
  5
1B0
330
1F
100
AcDbEntity
  8
0-0
  6
Continuous
 62
     3
370
     9
100
AcDbCircle
 10
270.2928348182872
 20
-725.2760760346318
 30
0.0
 40
5.000000046026752
100
AcDbArc
 50
270.0
 51
352.9996643066406
  0
ARC
  5
1B1
330
1F
100
AcDbEntity
  8
0-0
  6
Continuous
 62
     3
370
     9
100
AcDbCircle
 10
348.085728550817
 20
-760.443294492103
 30
0.0
 40
36.66666442362958
100
AcDbArc
 50
66.01528930664062
 51
107.9999237060547
  0
ARC
  5
1B2
330
1F
100
AcDbEntity
  8
0-0
  6
Continuous
 62
     3
370
     9
100
AcDbCircle
 10
226.8468283870511
 20
-755.1591198712281
 30
0.0
 40
5.000000046026752
100
AcDbArc
 50
93.99998474121094
 51
164.2247924804688
  0
ARC
  5
1B3
330
1F
100
AcDbEntity
  8
0-0
  6
Continuous
 62
     3
370
     9
100
AcDbCircle
 10
215.8018381715286
 20
-757.4729591098112
 30
0.0
 40
5.000000046026752
100
AcDbArc
 50
274.0
 51
344.2246246337891
  0
ARC
  5
1B4
330
1F
100
AcDbEntity
  8
0-0
  6
Continuous
 62
     3
370
     9
100
AcDbCircle
 10
294.5803844790668
 20
-746.2842829458543
 30
0.0
 40
6.666666728035669
100
AcDbArc
 50
108.0025939941406
 51
172.9999542236328
  0
ARC
  5
1B5
330
1F
100
AcDbEntity
  8
0-0
  6
Continuous
 62
     3
370
     9
100
AcDbCircle
 10
237.2153385510936
 20
-735.2761225768843
 30
0.0
 40
5.000000046026752
100
AcDbArc
 50
90.0
 51
170.3853912353516
  0
ARC
  5
1B6
330
1F
100
AcDbEntity
  8
0-0
  6
Continuous
 62
     3
370
     9
100
AcDbCircle
 10
226.8095030717104
 20
-746.8081586107212
 30
0.0
 40
3.333333364017835
100
AcDbArc
 50
273.9993286132812
 51
350.3849029541016
  0
ARC
  5
1B7
330
1F
100
AcDbEntity
  8
0-0
  6
Continuous
 62
     3
370
     9
100
AcDbCircle
 10
-264.4342571243811
 20
-737.5420664993221
 30
0.0
 40
10.0000000920535
100
AcDbArc
 50
187.0003814697266
 51
266.0003356933594
  0
ARC
  5
1B8
330
1F
100
AcDbEntity
  8
0-0
  6
JWW_DASHED1
 62
     3
370
     9
100
AcDbCircle
 10
263.7493436953282
 20
-737.5420664993221
 30
0.0
 40
10.0000000920535
100
AcDbArc
 50
274.0
 51
352.9994964599609
  0
ARC
  5
1B9
330
1F
100
AcDbEntity
  8
0-0
  6
JWW_DASHED1
 62
     3
370
     9
100
AcDbCircle
 10
-271.8682708151085
 20
-745.3760886579907
 30
0.0
 40
16.66666682008918
100
AcDbArc
 50
187.0034790039062
 51
266.0002746582031
  0
ARC
  5
1BA
330
1F
100
AcDbEntity
  8
0-0
  6
Continuous
 62
     3
370
     9
100
AcDbCircle
 10
-241.1204687877046
 20
-769.2454626619469
 30
0.0
 40
5.000000046026752
100
AcDbArc
 50
11.94580078125001
 51
86.00067138671875
  0
ARC
  5
1BB
330
1F
100
AcDbEntity
  8
0-0
  6
Continuous
 62
     3
370
     9
100
AcDbCircle
 10
-242.9745129912973
 20
-769.1158149958312
 30
0.0
 40
5.000000046026752
100
AcDbArc
 50
86.00057983398438
 51
168.6194152832031
  0
ARC
  5
1BC
330
1F
100
AcDbEntity
  8
0-0
  6
Continuous
 62
     3
370
     9
100
AcDbCircle
 10
-256.4050202633572
 20
-793.609479672296
 30
0.0
 40
3.333333364017835
100
AcDbArc
 50
270.0
 51
348.6208648681641
  0
ARC
  5
1BD
330
1F
100
AcDbEntity
  8
0-0
  6
JWW_DASHED1
 62
     3
370
     9
100
AcDbCircle
 10
240.4352250461264
 20
-769.2454626619469
 30
0.0
 40
5.000000046026752
100
AcDbArc
 50
93.9993286132812
 51
168.05419921875
  0
ARC
  5
1BE
330
1F
100
AcDbEntity
  8
0-0
  6
Continuous
 62
     3
370
     9
100
AcDbCircle
 10
271.1833573860557
 20
-745.3760886579907
 30
0.0
 40
16.66666682008918
100
AcDbArc
 50
273.9997253417969
 51
273.999755859375
  0
ARC
  5
1BF
330
1F
100
AcDbEntity
  8
0-0
  6
Continuous
 62
     3
370
     9
100
AcDbCircle
 10
275.6095452228877
 20
-764.8808781110524
 30
0.0
 40
3.333333364017835
100
AcDbArc
 50
102.7858734130859
 51
163.8196716308594
  0
ARC
  5
1C0
330
1F
100
AcDbEntity
  8
0-0
  6
Continuous
 62
     3
370
     9
100
AcDbCircle
 10
271.1833573860557
 20
-745.3767492830407
 30
0.0
 40
16.66666682008918
100
AcDbArc
 50
282.7859649658203
 51
353.0033569335938
  0
ARC
  5
1C1
330
1F
100
AcDbEntity
  8
0-0
  6
JWW_DASHED1
 62
     3
370
     9
100
AcDbCircle
 10
271.1833573860557
 20
-745.3767492830407
 30
0.0
 40
16.66666682008918
100
AcDbArc
 50
273.9981079101562
 51
282.7859649658203
  0
ARC
  5
1C2
330
1F
100
AcDbEntity
  8
0-0
  6
Continuous
 62
     3
370
     9
100
AcDbCircle
 10
232.7660288375018
 20
-783.1322966874832
 30
0.0
 40
3.333333364017835
100
AcDbArc
 50
47.52871704101563
 51
111.8125762939453
  0
ARC
  5
1C3
330
1F
100
AcDbEntity
  8
0-0
  6
JWW_DASHED1
 62
     3
370
     9
100
AcDbCircle
 10
230.289015211501
 20
-776.9429005914712
 30
0.0
 40
3.333333364017835
100
AcDbArc
 50
291.8125610351562
 51
348.0553741455078
  0
ARC
  5
1C4
330
1F
100
AcDbEntity
  8
0-0
  6
Continuous
 62
     3
370
     9
100
AcDbCircle
 10
230.289015211501
 20
-776.9429005914712
 30
0.0
 40
3.333333364017835
100
AcDbArc
 50
270.0
 51
291.8125610351562
  0
ARC
  5
1C5
330
1F
100
AcDbEntity
  8
0-C
  6
Continuous
 62
     2
370
     9
100
AcDbCircle
 10
16.3244526788233
 20
-738.6081501742012
 30
0.0
 40
1.666666682008917
100
AcDbArc
 50
180.0
 51
270.0
  0
ARC
  5
1C6
330
1F
100
AcDbEntity
  8
0-C
  6
Continuous
 62
     2
370
     9
100
AcDbCircle
 10
-17.00936610787618
 20
-738.6081501742012
 30
0.0
 40
1.666666682008917
100
AcDbArc
 50
270.0
 51
0.0
  0
ARC
  5
1C7
330
1F
100
AcDbEntity
  8
0-C
  6
Continuous
 62
     2
370
     9
100
AcDbCircle
 10
-73.67580104518511
 20
-777.6084803296219
 30
0.0
 40
6.666666728035669
100
AcDbArc
 50
270.0
 51
0.0
  0
ARC
  5
1C8
330
1F
100
AcDbEntity
  8
0-C
  6
Continuous
 62
     2
370
     9
100
AcDbCircle
 10
-104.6947896557266
 20
-777.6084803296219
 30
0.0
 40
6.666666728035669
100
AcDbArc
 50
189.4628143310547
 51
270.0
  0
ARC
  5
1C9
330
1F
100
AcDbEntity
  8
0-C
  6
Continuous
 62
     2
370
     9
100
AcDbCircle
 10
72.99088761613223
 20
-777.6084803296219
 30
0.0
 40
6.666666728035669
100
AcDbArc
 50
180.0
 51
270.0
  0
ARC
  5
1CA
330
1F
100
AcDbEntity
  8
0-C
  6
Continuous
 62
     2
370
     9
100
AcDbCircle
 10
104.0098762266737
 20
-777.6084803296219
 30
0.0
 40
6.666666728035669
100
AcDbArc
 50
270.0
 51
350.5371856689453
  0
ARC
  5
1CB
330
1F
100
AcDbEntity
  8
0-C
  6
Continuous
 62
     2
370
     9
100
AcDbCircle
 10
-17.00936610787618
 20
-738.6081501742012
 30
0.0
 40
5.66666684785865
100
AcDbArc
 50
270.0
 51
350.4709777832031
  0
ARC
  5
1CC
330
1F
100
AcDbEntity
  8
0-C
  6
Continuous
 62
     2
370
     9
100
AcDbCircle
 10
16.3244526788233
 20
-738.6081501742012
 30
0.0
 40
5.66666684785865
100
AcDbArc
 50
189.5361938476562
 51
270.0
  0
LINE
  5
1CD
330
1F
100
AcDbEntity
  8
0-4
  6
Continuous
 62
     7
370
     9
100
AcDbLine
 10
694.5564817922
 20
-693.6083536247222
 30
0.0
 11
694.5564817922
 21
-526.941902191425
 31
0.0
  0
LINE
  5
1CE
330
1F
100
AcDbEntity
  8
0-4
  6
Continuous
 62
     7
370
     9
100
AcDbLine
 10
694.5564817922
 20
-693.6083536247222
 30
0.0
 11
691.2933269866985
 21
-668.8222320903767
 31
0.0
  0
LINE
  5
1CF
330
1F
100
AcDbEntity
  8
0-4
  6
Continuous
 62
     7
370
     9
100
AcDbLine
 10
694.5564817922
 20
-693.6083536247222
 30
0.0
 11
697.8196365977012
 21
-668.8222320903767
 31
0.0
  0
LINE
  5
1D0
330
1F
100
AcDbEntity
  8
0-4
  6
Continuous
 62
     7
370
     9
100
AcDbLine
 10
694.5564817922
 20
-526.941902191425
 30
0.0
 11
691.2933269866985
 21
-551.7280237257703
 31
0.0
  0
LINE
  5
1D1
330
1F
100
AcDbEntity
  8
0-4
  6
Continuous
 62
     7
370
     9
100
AcDbLine
 10
694.5564817922
 20
-526.941902191425
 30
0.0
 11
697.8196365977012
 21
-551.7280237257703
 31
0.0
  0
LINE
  5
1D2
330
1F
100
AcDbEntity
  8
0-4
  6
Continuous
 62
     7
370
     9
100
AcDbLine
 10
697.5564817921999
 20
-693.6083536247222
 30
0.0
 11
461.3243662712658
 21
-693.6083536247222
 31
0.0
  0
LINE
  5
1D3
330
1F
100
AcDbEntity
  8
0-4
  6
Continuous
 62
     7
370
     9
100
AcDbLine
 10
697.5564817921999
 20
-526.941902191425
 30
0.0
 11
502.9906488170653
 21
-526.941902191425
 31
0.0
  0
TEXT
  5
1D4
330
1F
100
AcDbEntity
  8
0-4
  6
Continuous
 62
     2
370
   211
100
AcDbText
 10
678.9164817922
 20
-631.5251279080735
 30
0.0
 40
30.48
  1
50
 50
90.0
 41
1.0625
  7
ＭＳ ゴシック
100
AcDbText
  0
LINE
  5
1D5
330
1F
100
AcDbEntity
  8
0-5
  6
Continuous
 62
     7
370
     9
100
AcDbLine
 10
97.54056324216235
 20
-1010.27625218822
 30
0.0
 11
112.7595969731592
 21
-1030.110038611362
 31
0.0
  0
LINE
  5
1D6
330
1F
100
AcDbEntity
  8
0-5
  6
Continuous
 62
     7
370
     9
100
AcDbLine
 10
97.54056324216235
 20
-1010.27625218822
 30
0.0
 11
107.107576544528
 21
-1033.373213132319
 31
0.0
  0
LINE
  5
1D7
330
1F
100
AcDbEntity
  8
0-5
  6
Continuous
 62
     7
370
     9
100
AcDbLine
 10
529.9057745227801
 20
-1113.609813028724
 30
0.0
 11
157.2000365582519
 21
-1113.609813028724
 31
0.0
  0
LINE
  5
1D8
330
1F
100
AcDbEntity
  8
0-5
  6
Continuous
 62
     7
370
     9
100
AcDbLine
 10
283.7558556830416
 20
-957.3700920913562
 30
0.0
 11
649.628048065854
 21
-957.3700920913562
 31
0.0
  0
LINE
  5
1D9
330
1F
100
AcDbEntity
  8
0-5
  6
Continuous
 62
     7
370
     9
100
AcDbLine
 10
160.7258065909801
 20
-744.275782877357
 30
0.0
 11
283.7558556830416
 21
-957.3700920913562
 31
0.0
  0
LINE
  5
1DA
330
1F
100
AcDbEntity
  8
0-5
  6
Continuous
 62
     7
370
     9
100
AcDbLine
 10
160.7258065909801
 20
-744.275782877357
 30
0.0
 11
175.944840321977
 21
-764.109569300499
 31
0.0
  0
LINE
  5
1DB
330
1F
100
AcDbEntity
  8
0-5
  6
Continuous
 62
     7
370
     9
100
AcDbLine
 10
160.7258065909801
 20
-744.275782877357
 30
0.0
 11
170.2928198933458
 21
-767.3727438214554
 31
0.0
  0
LINE
  5
1DC
330
1F
100
AcDbEntity
  8
0-5
  6
Continuous
 62
     7
370
     9
100
AcDbLine
 10
12.99062328756035
 20
-432.5308042561577
 30
0.0
 11
22.55788402974785
 21
-409.4337814521035
 31
0.0
  0
LINE
  5
1DD
330
1F
100
AcDbEntity
  8
0-5
  6
Continuous
 62
     7
370
     9
100
AcDbLine
 10
12.99062328756035
 20
-432.5308042561577
 30
0.0
 11
28.20965701855611
 21
-412.6968941131046
 31
0.0
  0
LINE
  5
1DE
330
1F
100
AcDbEntity
  8
0-5
  6
Continuous
 62
     7
370
     9
100
AcDbLine
 10
12.99062328756035
 20
-432.5308042561577
 30
0.0
 11
106.694104600904
 21
-270.2315604322556
 31
0.0
  0
LINE
  5
1DF
330
1F
100
AcDbEntity
  8
0-5
  6
Continuous
 62
     7
370
     9
100
AcDbLine
 10
106.694104600904
 20
-270.2315604322556
 30
0.0
 11
416.911389757154
 21
-270.2315604322556
 31
0.0
  0
LINE
  5
1E0
330
1F
100
AcDbEntity
  8
0-5
  6
Continuous
 62
     7
370
     9
100
AcDbLine
 10
97.54056324216235
 20
-1010.27625218822
 30
0.0
 11
157.2000365582519
 21
-1113.609813028724
 31
0.0
  0
TEXT
  5
1E1
330
1F
100
AcDbEntity
  8
0-5
  6
Continuous
 62
     6
370
     9
100
AcDbText
 10
201.0131980473787
 20
-305.3866009464025
 30
0.0
 40
19.05
  1
（別途）
 41
1.089999999999998
  7
ＭＳ ゴシック
100
AcDbText
  0
TEXT
  5
1E2
330
1F
100
AcDbEntity
  8
0-5
  6
Continuous
 62
     6
370
     9
100
AcDbText
 10
106.981390482978
 20
-256.8234427564744
 30
0.0
 40
19.05
  1
長ネジボルト：ＳＷＲＭ
 41
1.109090909090909
  7
ＭＳ ゴシック
100
AcDbText
  0
TEXT
  5
1E3
330
1F
100
AcDbEntity
  8
0-5
  6
Continuous
 62
     6
370
     9
100
AcDbText
 10
167.3913916706888
 20
-1103.112484636489
 30
0.0
 40
19.05
  1
位置決めプレート：ＳＧＨＣ
 41
1.110769230769232
  7
ＭＳ ゴシック
100
AcDbText
  0
TEXT
  5
1E4
330
1F
100
AcDbEntity
  8
0-5
  6
Continuous
 62
     6
370
     9
100
AcDbText
 10
289.0530292604276
 20
-1142.966596179062
 30
0.0
 40
19.05
  1
（別途）
 41
1.089999999999998
  7
ＭＳ ゴシック
100
AcDbText
  0
TEXT
  5
1E5
330
1F
100
AcDbEntity
  8
0-5
  6
Continuous
 62
     6
370
     9
100
AcDbText
 10
290.3207327549372
 20
-950.010455300024
 30
0.0
 40
19.05
  1
引き上げプレート：ＳＧＨＣ
 41
1.11076923076923
  7
ＭＳ ゴシック
100
AcDbText
  0
TEXT
  5
1E6
330
1F
100
AcDbEntity
  8
0-5
  6
Continuous
 62
     6
370
     9
100
AcDbText
 10
412.1917044346256
 20
-989.3892040133367
 30
0.0
 40
19.05
  1
（別途）
 41
1.089999999999998
  7
ＭＳ ゴシック
100
AcDbText
  0
LINE
  5
1E7
330
1F
100
AcDbEntity
  8
0-5
  6
Continuous
 62
     7
370
     9
100
AcDbLine
 10
-267.0090632886647
 20
-500.2751114120857
 30
0.0
 11
-282.2280970196616
 21
-480.4412012690326
 31
0.0
  0
LINE
  5
1E8
330
1F
100
AcDbEntity
  8
0-5
  6
Continuous
 62
     7
370
     9
100
AcDbLine
 10
-267.0090632886647
 20
-500.2751114120857
 30
0.0
 11
-276.5760765910292
 21
-477.1780886080318
 31
0.0
  0
LINE
  5
1E9
330
1F
100
AcDbEntity
  8
0-5
  6
Continuous
 62
     7
370
     9
100
AcDbLine
 10
-47.00934227166529
 20
-463.6085766606703
 30
0.0
 11
-62.22837600266162
 21
-443.774790237528
 31
0.0
  0
LINE
  5
1EA
330
1F
100
AcDbEntity
  8
0-5
  6
Continuous
 62
     7
370
     9
100
AcDbLine
 10
-47.00934227166529
 20
-463.6085766606703
 30
0.0
 11
-56.57635557403042
 21
-440.5116775765275
 31
0.0
  0
LINE
  5
1EB
330
1F
100
AcDbEntity
  8
0-5
  6
Continuous
 62
     7
370
     9
100
AcDbLine
 10
-380.3425737574901
 20
-726.9428330364719
 30
0.0
 11
-437.9918459544911
 21
-826.7940186031423
 31
0.0
  0
LINE
  5
1EC
330
1F
100
AcDbEntity
  8
0-5
  6
Continuous
 62
     7
370
     9
100
AcDbLine
 10
-380.3425737574901
 20
-726.9428330364719
 30
0.0
 11
-389.9095870598547
 21
-750.0397939805704
 31
0.0
  0
LINE
  5
1ED
330
1F
100
AcDbEntity
  8
0-5
  6
Continuous
 62
     7
370
     9
100
AcDbLine
 10
-380.3425737574901
 20
-726.9428330364719
 30
0.0
 11
-395.5616074884859
 21
-746.7766813195693
 31
0.0
  0
TEXT
  5
1EE
330
1F
100
AcDbEntity
  8
0-5
  6
Continuous
 62
     6
370
     9
100
AcDbText
 10
-690.2008583726717
 20
-815.5957859833152
 30
0.0
 40
19.05
  1
ルーフドレイン本体
 41
1.10666666666667
  7
ＭＳ ゴシック
100
AcDbText
  0
TEXT
  5
1EF
330
1F
100
AcDbEntity
  8
0-5
  6
Continuous
 62
     6
370
     9
100
AcDbText
 10
-606.2989468175614
 20
-861.2743525809188
 30
0.0
 40
19.05
  1
（別途）
 41
1.089999999999998
  7
ＭＳ ゴシック
100
AcDbText
  0
LINE
  5
1F0
330
1F
100
AcDbEntity
  8
0-5
  6
Continuous
 62
     7
370
     9
100
AcDbLine
 10
-437.9918459544911
 20
-826.7940186031423
 30
0.0
 11
-698.7647159924984
 21
-826.7940186031423
 31
0.0
  0
LINE
  5
1F1
330
1F
100
AcDbEntity
  8
0-5
  6
Continuous
 62
     7
370
     9
100
AcDbLine
 10
-233.6762154086975
 20
-1030.275926588835
 30
0.0
 11
-281.7889094015194
 21
-1113.609297725474
 31
0.0
  0
LINE
  5
1F2
330
1F
100
AcDbEntity
  8
0-5
  6
Continuous
 62
     7
370
     9
100
AcDbLine
 10
-233.6762154086975
 20
-1030.275926588835
 30
0.0
 11
-248.8952491396944
 21
-1050.109589292065
 31
0.0
  0
LINE
  5
1F3
330
1F
100
AcDbEntity
  8
0-5
  6
Continuous
 62
     7
370
     9
100
AcDbLine
 10
-233.6762154086975
 20
-1030.275926588835
 30
0.0
 11
-243.2437235907079
 21
-1053.372825672977
 31
0.0
  0
TEXT
  5
1F4
330
1F
100
AcDbEntity
  8
0-5
  6
Continuous
 62
     6
370
     9
100
AcDbText
 10
-559.6019884107043
 20
-1145.254528075453
 30
0.0
 40
19.05
  1
（別途）
 41
1.090000000000009
  7
ＭＳ ゴシック
100
AcDbText
  0
LINE
  5
1F5
330
1F
100
AcDbEntity
  8
0-5
  6
Continuous
 62
     7
370
     9
100
AcDbLine
 10
379.6576603284373
 20
-726.9428330364719
 30
0.0
 11
389.2249210706248
 21
-750.0398558405259
 31
0.0
  0
LINE
  5
1F6
330
1F
100
AcDbEntity
  8
0-5
  6
Continuous
 62
     7
370
     9
100
AcDbLine
 10
379.6576603284373
 20
-726.9428330364719
 30
0.0
 11
394.8766940594331
 21
-746.7766813195697
 31
0.0
  0
LINE
  5
1F7
330
1F
100
AcDbEntity
  8
0-5
  6
Continuous
 62
     7
370
     9
100
AcDbLine
 10
379.6576603284373
 20
-726.9428330364719
 30
0.0
 11
456.0141254361227
 21
-859.1957684975678
 31
0.0
  0
LINE
  5
1F8
330
1F
100
AcDbEntity
  8
0-5
  6
Continuous
 62
     7
370
     9
100
AcDbLine
 10
456.0141254361227
 20
-859.1957684975678
 30
0.0
 11
667.7496188641217
 21
-859.1957684975678
 31
0.0
  0
TEXT
  5
1F9
330
1F
100
AcDbEntity
  8
0-5
  6
Continuous
 62
     7
370
     9
100
AcDbText
 10
502.5603191518113
 20
-847.3908313472826
 30
0.0
 40
22.86
  1
リング
 41
1.111111111111111
  7
ＭＳ ゴシック
100
AcDbText
  0
TEXT
  5
1FA
330
1F
100
AcDbEntity
  8
0-5
  6
Continuous
 62
     7
370
     9
100
AcDbText
 10
459.990450393893
 20
-899.0274395741618
 30
0.0
 40
22.86
  1
クロロプレン
 41
1.138888888888892
  7
ＭＳ ゴシック
100
AcDbText
  0
LINE
  5
1FB
330
1F
100
AcDbEntity
  8
0-4
  6
Continuous
 62
     7
370
     9
100
AcDbLine
 10
-383.6757574486452
 20
-377.6345602961787
 30
0.0
 11
382.9908440195924
 21
-377.6345602961787
 31
0.0
  0
LINE
  5
1FC
330
1F
100
AcDbEntity
  8
0-4
  6
Continuous
 62
     7
370
     9
100
AcDbLine
 10
-383.6757574486452
 20
-377.6345602961787
 30
0.0
 11
-358.8896359143
 21
-374.3714054906774
 31
0.0
  0
LINE
  5
1FD
330
1F
100
AcDbEntity
  8
0-4
  6
Continuous
 62
     7
370
     9
100
AcDbLine
 10
-383.6757574486452
 20
-377.6345602961787
 30
0.0
 11
-358.8896359143
 21
-380.89771510168
 31
0.0
  0
LINE
  5
1FE
330
1F
100
AcDbEntity
  8
0-4
  6
Continuous
 62
     7
370
     9
100
AcDbLine
 10
382.9908440195924
 20
-377.6345602961787
 30
0.0
 11
358.2047224852471
 21
-374.3714054906774
 31
0.0
  0
LINE
  5
1FF
330
1F
100
AcDbEntity
  8
0-4
  6
Continuous
 62
     7
370
     9
100
AcDbLine
 10
382.9908440195924
 20
-377.6345602961787
 30
0.0
 11
358.2047224852471
 21
-380.89771510168
 31
0.0
  0
LINE
  5
200
330
1F
100
AcDbEntity
  8
0-4
  6
Continuous
 62
     7
370
     9
100
AcDbLine
 10
-383.6757574486452
 20
-374.6345602961787
 30
0.0
 11
-383.6757574486452
 21
-703.609319032792
 31
0.0
  0
LINE
  5
201
330
1F
100
AcDbEntity
  8
0-4
  6
Continuous
 62
     7
370
     9
100
AcDbLine
 10
382.9908440195924
 20
-374.6345602961787
 30
0.0
 11
382.9908440195924
 21
-703.609319032792
 31
0.0
  0
TEXT
  5
202
330
1F
100
AcDbEntity
  8
0-5
  6
Continuous
 62
     6
370
     9
100
AcDbText
 10
-734.8566765705434
 20
-1104.834614448447
 30
0.0
 40
19.05
  1
スペーサー：硬質ポリ塩化ビニル管
 41
1.1125
  7
ＭＳ ゴシック
100
AcDbText
  0
LINE
  5
203
330
1F
100
AcDbEntity
  8
0-5
  6
Continuous
 62
     7
370
     9
100
AcDbLine
 10
-281.7889094015194
 20
-1113.609297725474
 30
0.0
 11
-738.2936074589518
 21
-1113.609297725474
 31
0.0
  0
LINE
  5
204
330
1F
100
AcDbEntity
  8
0-5
  6
Continuous
 62
     7
370
     9
100
AcDbLine
 10
-47.00934227166529
 20
-463.6085766606703
 30
0.0
 11
-171.5318539520143
 21
-247.9293839892165
 31
0.0
  0
TEXT
  5
205
330
1F
100
AcDbEntity
  8
0-5
  6
Continuous
 62
     6
370
     9
100
AcDbText
 10
-344.3525347964361
 20
-279.818095124668
 30
0.0
 40
19.05
  1
（別途）
 41
1.090000000000003
  7
ＭＳ ゴシック
100
AcDbText
  0
TEXT
  5
206
330
1F
100
AcDbEntity
  8
0-5
  6
Continuous
 62
     6
370
     9
100
AcDbText
 10
-432.2268452641304
 20
-236.1255424034899
 30
0.0
 40
19.05
  1
蝶ナット：ＳＰＨＣ
 41
1.106666666666668
  7
ＭＳ ゴシック
100
AcDbText
  0
LINE
  5
207
330
1F
100
AcDbEntity
  8
0-5
  6
Continuous
 62
     7
370
     9
100
AcDbLine
 10
-171.5318539520143
 20
-247.9293839892165
 30
0.0
 11
-444.7626069168967
 21
-247.9293839892165
 31
0.0
  0
LINE
  5
208
330
1F
100
AcDbEntity
  8
0-5
  6
Continuous
 62
     7
370
     9
100
AcDbLine
 10
-267.0090632886647
 20
-500.2751114120857
 30
0.0
 11
-358.524397187933
 21
-341.7659932494552
 31
0.0
  0
LINE
  5
209
330
1F
100
AcDbEntity
  8
0-5
  6
Continuous
 62
     7
370
     9
100
AcDbLine
 10
-358.524397187933
 20
-341.7659932494552
 30
0.0
 11
-580.6650484437014
 21
-341.7659932494552
 31
0.0
  0
TEXT
  5
20A
330
1F
100
AcDbEntity
  8
0-5
  6
Continuous
 62
     7
370
     9
100
AcDbText
 10
-538.1380857510285
 20
-375.0717483038254
 30
0.0
 40
22.86
  1
ＳＰＨＣ
 41
1.125
  7
ＭＳ ゴシック
100
AcDbText
  0
TEXT
  5
20B
330
1F
100
AcDbEntity
  8
0-5
  6
Continuous
 62
     7
370
     9
100
AcDbText
 10
-575.5299627965311
 20
-333.2134669878421
 30
0.0
 40
22.86
  1
固定プレート
 41
1.138888888888889
  7
ＭＳ ゴシック
100
AcDbText
  0
LINE
  5
20C
330
1F
100
AcDbEntity
  8
0-5
  6
Continuous
 62
     7
370
     9
100
AcDbLine
 10
419.1802437831932
 20
-526.941902191425
 30
0.0
 11
523.8896009675266
 21
-345.5801418715346
 31
0.0
  0
LINE
  5
20D
330
1F
100
AcDbEntity
  8
0-5
  6
Continuous
 62
     7
370
     9
100
AcDbLine
 10
523.8896009675266
 20
-345.5801418715346
 30
0.0
 11
728.288998534038
 21
-345.5801418715346
 31
0.0
  0
TEXT
  5
20E
330
1F
100
AcDbEntity
  8
0-5
  6
Continuous
 62
     7
370
     9
100
AcDbText
 10
524.241427403337
 20
-381.2375650002299
 30
0.0
 40
22.86
  1
特殊発砲樹脂
 41
1.138888888888889
  7
ＭＳ ゴシック
100
AcDbText
  0
TEXT
  5
20F
330
1F
100
AcDbEntity
  8
0-5
  6
Continuous
 62
     7
370
     9
100
AcDbText
 10
566.5778944245578
 20
-337.1825129388908
 30
0.0
 40
22.86
  1
抜型本体
 41
1.125
  7
ＭＳ ゴシック
100
AcDbText
  0
LINE
  5
210
330
1F
100
AcDbEntity
  8
0-5
  6
Continuous
 62
     7
370
     9
100
AcDbLine
 10
419.1802437831932
 20
-526.941902191425
 30
0.0
 11
428.7472570855589
 21
-503.8449412473266
 31
0.0
  0
LINE
  5
211
330
1F
100
AcDbEntity
  8
0-5
  6
Continuous
 62
     7
370
     9
100
AcDbLine
 10
419.1802437831932
 20
-526.941902191425
 30
0.0
 11
434.3992775141901
 21
-507.1080539083274
 31
0.0
  0
TEXT
  5
212
330
1F
100
AcDbEntity
  8
0-4
  6
Continuous
 62
     2
370
   211
100
AcDbText
 10
-82.20894005978269
 20
-361.9945602961787
 30
0.0
 40
30.48
  1
φ230
 41
1.1
  7
ＭＳ ゴシック
100
AcDbText
  0
TEXT
  5
213
330
1F
100
AcDbEntity
  8
F-4
  6
Continuous
 62
     2
370
     9
100
AcDbText
 10
-628.8913046347126
 20
-1348.094550476074
 30
0.0
 40
30.48
  1
複数回使用抜型　ＡＷ１００Ｗ－５０
 41
1.117647058823529
  7
ＭＳ ゴシック
100
AcDbText
  0
ENDSEC
  0
SECTION
  2
OBJECTS
  0
DICTIONARY
  5
C
330
0
100
AcDbDictionary
281
     1
  3
ACAD_GROUP
350
D
  3
ACAD_LAYOUT
350
1A
  3
ACAD_MLEADERSTYLE
350
215
  3
ACAD_MLINESTYLE
350
17
  3
ACAD_PLOTSETTINGS
350
19
  3
ACAD_PLOTSTYLENAME
350
E
  3
ACAD_TABLESTYLE
350
214
  3
ACAD_VISUALSTYLE
350
2A
  3
AcDbVariableDictionary
350
216
  0
DICTIONARY
  5
D
102
{ACAD_REACTORS
330
C
102
}
330
C
100
AcDbDictionary
281
     1
  0
DICTIONARY
  5
1A
102
{ACAD_REACTORS
330
C
102
}
330
C
100
AcDbDictionary
281
     1
  3
Layout1
350
1E
  3
Layout2
350
26
  3
Model
350
22
  0
DICTIONARY
  5
215
102
{ACAD_REACTORS
330
C
102
}
330
C
100
AcDbDictionary
281
     1
  0
DICTIONARY
  5
17
102
{ACAD_REACTORS
330
C
102
}
330
C
100
AcDbDictionary
281
     1
  3
Standard
350
18
  0
DICTIONARY
  5
19
102
{ACAD_REACTORS
330
C
102
}
330
C
100
AcDbDictionary
281
     1
  0
ACDBDICTIONARYWDFLT
  5
E
102
{ACAD_REACTORS
330
C
102
}
330
C
100
AcDbDictionary
281
     1
  3
Normal
350
F
100
AcDbDictionaryWithDefault
340
F
  0
DICTIONARY
  5
214
102
{ACAD_REACTORS
330
C
102
}
330
C
100
AcDbDictionary
281
     1
  0
DICTIONARY
  5
2A
102
{ACAD_REACTORS
330
C
102
}
330
C
100
AcDbDictionary
281
     1
  3
2dWireframe
350
2F
  3
3D Hidden
350
31
  3
3dWireframe
350
30
  3
Basic
350
32
  3
Brighten
350
36
  3
ColorChange
350
3A
  3
Conceptual
350
34
  3
Dim
350
35
  3
Facepattern
350
39
  3
Flat
350
2B
  3
FlatWithEdges
350
2C
  3
Gouraud
350
2D
  3
GouraudWithEdges
350
2E
  3
Linepattern
350
38
  3
Realistic
350
33
  3
Thicken
350
37
  0
DICTIONARY
  5
216
102
{ACAD_REACTORS
330
C
102
}
330
C
100
AcDbDictionary
281
     1
  3
PSOLHEIGHT
350
218
  3
PSOLWIDTH
350
217
  0
LAYOUT
  5
1E
102
{ACAD_REACTORS
330
1A
102
}
102
{ACAD_XDICTIONARY
360
219
102
}
330
1A
100
AcDbPlotSettings
  1

  2
none_device
  4

  6

 40
0.0
 41
0.0
 42
0.0
 43
0.0
 44
0.0
 45
0.0
 46
0.0
 47
0.0
 48
0.0
 49
0.0
140
0.0
141
0.0
142
1.0
143
1.0
 70
   688
 72
     0
 73
     0
 74
     5
  7

 75
    16
147
1.0
148
0.0
149
0.0
100
AcDbLayout
  1
Layout1
 70
     1
 71
     1
 10
0.0
 20
0.0
 11
420.0
 21
297.0
 12
0.0
 22
0.0
 32
0.0
 14
1.000000000000000E+20
 24
1.000000000000000E+20
 34
1.000000000000000E+20
 15
-1.000000000000000E+20
 25
-1.000000000000000E+20
 35
-1.000000000000000E+20
146
0.0
 13
0.0
 23
0.0
 33
0.0
 16
1.0
 26
0.0
 36
0.0
 17
0.0
 27
1.0
 37
0.0
 76
     0
330
1B
  0
LAYOUT
  5
26
102
{ACAD_REACTORS
330
1A
102
}
102
{ACAD_XDICTIONARY
360
21D
102
}
330
1A
100
AcDbPlotSettings
  1

  2
none_device
  4

  6

 40
0.0
 41
0.0
 42
0.0
 43
0.0
 44
0.0
 45
0.0
 46
0.0
 47
0.0
 48
0.0
 49
0.0
140
0.0
141
0.0
142
1.0
143
1.0
 70
   688
 72
     0
 73
     0
 74
     5
  7

 75
    16
147
1.0
148
0.0
149
0.0
100
AcDbLayout
  1
Layout2
 70
     1
 71
     2
 10
0.0
 20
0.0
 11
0.0
 21
0.0
 12
0.0
 22
0.0
 32
0.0
 14
0.0
 24
0.0
 34
0.0
 15
0.0
 25
0.0
 35
0.0
146
0.0
 13
0.0
 23
0.0
 33
0.0
 16
1.0
 26
0.0
 36
0.0
 17
0.0
 27
1.0
 37
0.0
 76
     0
330
23
  0
LAYOUT
  5
22
102
{ACAD_REACTORS
330
1A
102
}
102
{ACAD_XDICTIONARY
360
21B
102
}
330
1A
100
AcDbPlotSettings
  1

  2
none_device
  4

  6

 40
0.0
 41
0.0
 42
0.0
 43
0.0
 44
0.0
 45
0.0
 46
0.0
 47
0.0
 48
0.0
 49
0.0
140
0.0
141
0.0
142
1.0
143
1.0
 70
  1712
 72
     0
 73
     0
 74
     0
  7

 75
     0
147
1.0
148
0.0
149
0.0
100
AcDbLayout
  1
Model
 70
     1
 71
     0
 10
-2100.0
 20
-1485.0
 11
2100.0
 21
1485.0
 12
0.0
 22
0.0
 32
0.0
 14
-2100.0
 24
-1485.0
 34
0.0
 15
2100.0
 25
1485.0
 35
0.0
146
0.0
 13
0.0
 23
0.0
 33
0.0
 16
1.0
 26
0.0
 36
0.0
 17
0.0
 27
1.0
 37
0.0
 76
     0
330
1F
331
29
  0
MLINESTYLE
  5
18
102
{ACAD_REACTORS
330
17
102
}
330
17
100
AcDbMlineStyle
  2
Standard
 70
     0
  3

 62
   256
 51
90.0
 52
90.0
 71
     2
 49
0.5
 62
   256
  6
BYLAYER
 49
-0.5
 62
   256
  6
BYLAYER
  0
ACDBPLACEHOLDER
  5
F
102
{ACAD_REACTORS
330
E
102
}
330
E
  0
VISUALSTYLE
  5
2F
102
{ACAD_REACTORS
330
2A
102
}
330
2A
100
AcDbVisualStyle
  2
2dWireframe
 70
     4
 71
     0
 72
     2
 73
     0
 90
        0
 40
-0.6
 41
-30.0
 62
     5
 63
     7
 74
     1
 91
        4
 64
     7
 65
   257
 75
     1
175
     1
 42
1.0
 92
        0
 66
   257
 43
1.0
 76
     1
 77
     6
 78
     2
 67
     7
 79
     5
170
     0
171
     0
290
     0
174
     0
 93
        1
 44
0.0
173
     0
291
     0
 45
0.0
1001
ACAD
1000
AcDbSavedByObjectVersion
1070
     0
  0
VISUALSTYLE
  5
31
102
{ACAD_REACTORS
330
2A
102
}
330
2A
100
AcDbVisualStyle
  2
3D Hidden
 70
     6
 71
     1
 72
     2
 73
     2
 90
        0
 40
-0.6
 41
-30.0
 62
     5
 63
     7
 74
     2
 91
        2
 64
     7
 65
   257
 75
     2
175
     1
 42
40.0
 92
        0
 66
   257
 43
1.0
 76
     1
 77
     6
 78
     2
 67
     7
 79
     3
170
     0
171
     0
290
     0
174
     0
 93
        1
 44
0.0
173
     0
291
     0
 45
0.0
1001
ACAD
1000
AcDbSavedByObjectVersion
1070
     0
  0
VISUALSTYLE
  5
30
102
{ACAD_REACTORS
330
2A
102
}
330
2A
100
AcDbVisualStyle
  2
3dWireframe
 70
     5
 71
     0
 72
     2
 73
     0
 90
        0
 40
-0.6
 41
-30.0
 62
     5
 63
     7
 74
     1
 91
        4
 64
     7
 65
   257
 75
     1
175
     1
 42
1.0
 92
        0
 66
   257
 43
1.0
 76
     1
 77
     6
 78
     2
 67
     7
 79
     5
170
     0
171
     0
290
     0
174
     0
 93
        1
 44
0.0
173
     0
291
     0
 45
0.0
1001
ACAD
1000
AcDbSavedByObjectVersion
1070
     0
  0
VISUALSTYLE
  5
32
102
{ACAD_REACTORS
330
2A
102
}
330
2A
100
AcDbVisualStyle
  2
Basic
 70
     7
 71
     1
 72
     0
 73
     1
 90
        0
 40
-0.6
 41
-30.0
 62
     5
 63
     7
 74
     0
 91
        4
 64
     7
 65
   257
 75
     1
175
     1
 42
1.0
 92
        8
 66
     7
 43
1.0
 76
     1
 77
     6
 78
     2
 67
     7
 79
     5
170
     0
171
     0
290
     0
174
     0
 93
        1
 44
0.0
173
     0
291
     1
 45
0.0
1001
ACAD
1000
AcDbSavedByObjectVersion
1070
     0
  0
VISUALSTYLE
  5
36
102
{ACAD_REACTORS
330
2A
102
}
330
2A
100
AcDbVisualStyle
  2
Brighten
 70
    12
 71
     2
 72
     2
 73
     0
 90
        0
 40
-0.6
 41
-30.0
 62
     5
 63
     7
 74
     1
 91
        4
 64
     7
 65
   257
 75
     1
175
     1
 42
1.0
 92
        8
 66
     7
 43
1.0
 76
     1
 77
     6
 78
     2
 67
     7
 79
     5
170
     0
171
     0
290
     0
174
     0
 93
        1
 44
50.0
173
     0
291
     1
 45
0.0
1001
ACAD
1000
AcDbSavedByObjectVersion
1070
     0
  0
VISUALSTYLE
  5
3A
102
{ACAD_REACTORS
330
2A
102
}
330
2A
100
AcDbVisualStyle
  2
ColorChange
 70
    16
 71
     2
 72
     2
 73
     3
 90
        0
 40
-0.6
 41
-30.0
 62
     5
 63
     8
 74
     1
 91
        4
 64
     7
 65
   257
 75
     1
175
     1
 42
1.0
 92
        8
 66
     8
 43
1.0
 76
     1
 77
     6
 78
     2
 67
     7
 79
     5
170
     0
171
     0
290
     0
174
     0
 93
        1
 44
0.0
173
     0
291
     1
 45
0.0
1001
ACAD
1000
AcDbSavedByObjectVersion
1070
     0
  0
VISUALSTYLE
  5
34
102
{ACAD_REACTORS
330
2A
102
}
330
2A
100
AcDbVisualStyle
  2
Conceptual
 70
     9
 71
     3
 72
     2
 73
     0
 90
        0
 40
-0.6
 41
-30.0
 62
     5
 63
     7
 74
     2
 91
        2
 64
     7
 65
   257
 75
     1
175
     1
 42
40.0
 92
        8
 66
     7
 43
1.0
 76
     1
 77
     6
 78
     2
 67
     7
 79
     3
170
     0
171
     0
290
     0
174
     0
 93
        1
 44
0.0
173
     0
291
     0
 45
0.0
1001
ACAD
1000
AcDbSavedByObjectVersion
1070
     0
  0
VISUALSTYLE
  5
35
102
{ACAD_REACTORS
330
2A
102
}
330
2A
100
AcDbVisualStyle
  2
Dim
 70
    11
 71
     2
 72
     2
 73
     0
 90
        0
 40
-0.6
 41
-30.0
 62
     5
 63
     7
 74
     1
 91
        4
 64
     7
 65
   257
 75
     1
175
     1
 42
1.0
 92
        8
 66
     7
 43
1.0
 76
     1
 77
     6
 78
     2
 67
     7
 79
     5
170
     0
171
     0
290
     0
174
     0
 93
        1
 44
-50.0
173
     0
291
     1
 45
0.0
1001
ACAD
1000
AcDbSavedByObjectVersion
1070
     0
  0
VISUALSTYLE
  5
39
102
{ACAD_REACTORS
330
2A
102
}
330
2A
100
AcDbVisualStyle
  2
Facepattern
 70
    15
 71
     2
 72
     2
 73
     0
 90
        0
 40
-0.6
 41
-30.0
 62
     5
 63
     7
 74
     1
 91
        4
 64
     7
 65
   257
 75
     1
175
     1
 42
1.0
 92
        8
 66
     7
 43
1.0
 76
     1
 77
     6
 78
     2
 67
     7
 79
     5
170
     0
171
     0
290
     0
174
     0
 93
        1
 44
0.0
173
     0
291
     1
 45
0.0
1001
ACAD
1000
AcDbSavedByObjectVersion
1070
     0
  0
VISUALSTYLE
  5
2B
102
{ACAD_REACTORS
330
2A
102
}
330
2A
100
AcDbVisualStyle
  2
Flat
 70
     0
 71
     2
 72
     1
 73
     1
 90
        2
 40
-0.6
 41
30.0
 62
     5
 63
     7
 74
     0
 91
        4
 64
     7
 65
   257
 75
     1
175
     1
 42
1.0
 92
        8
 66
     7
 43
1.0
 76
     1
 77
     6
 78
     2
 67
     7
 79
     5
170
     0
171
     0
290
     0
174
     0
 93
       13
 44
0.0
173
     0
291
     1
 45
0.0
1001
ACAD
1000
AcDbSavedByObjectVersion
1070
     0
  0
VISUALSTYLE
  5
2C
102
{ACAD_REACTORS
330
2A
102
}
330
2A
100
AcDbVisualStyle
  2
FlatWithEdges
 70
     1
 71
     2
 72
     1
 73
     1
 90
        2
 40
-0.6
 41
30.0
 62
     5
 63
     7
 74
     1
 91
        4
 64
     7
 65
   257
 75
     1
175
     1
 42
1.0
 92
        0
 66
   257
 43
1.0
 76
     1
 77
     6
 78
     2
 67
     7
 79
     5
170
     0
171
     0
290
     0
174
     0
 93
       13
 44
0.0
173
     0
291
     1
 45
0.0
1001
ACAD
1000
AcDbSavedByObjectVersion
1070
     0
  0
VISUALSTYLE
  5
2D
102
{ACAD_REACTORS
330
2A
102
}
330
2A
100
AcDbVisualStyle
  2
Gouraud
 70
     2
 71
     2
 72
     2
 73
     1
 90
        2
 40
-0.6
 41
30.0
 62
     5
 63
     7
 74
     0
 91
        4
 64
     7
 65
   257
 75
     1
175
     1
 42
1.0
 92
        0
 66
     7
 43
1.0
 76
     1
 77
     6
 78
     2
 67
     7
 79
     5
170
     0
171
     0
290
     0
174
     0
 93
       13
 44
0.0
173
     0
291
     1
 45
0.0
1001
ACAD
1000
AcDbSavedByObjectVersion
1070
     0
  0
VISUALSTYLE
  5
2E
102
{ACAD_REACTORS
330
2A
102
}
330
2A
100
AcDbVisualStyle
  2
GouraudWithEdges
 70
     3
 71
     2
 72
     2
 73
     1
 90
        2
 40
-0.6
 41
30.0
 62
     5
 63
     7
 74
     1
 91
        4
 64
     7
 65
   257
 75
     1
175
     1
 42
1.0
 92
        0
 66
   257
 43
1.0
 76
     1
 77
     6
 78
     2
 67
     7
 79
     5
170
     0
171
     0
290
     0
174
     0
 93
       13
 44
0.0
173
     0
291
     1
 45
0.0
1001
ACAD
1000
AcDbSavedByObjectVersion
1070
     0
  0
VISUALSTYLE
  5
38
102
{ACAD_REACTORS
330
2A
102
}
330
2A
100
AcDbVisualStyle
  2
Linepattern
 70
    14
 71
     2
 72
     2
 73
     0
 90
        0
 40
-0.6
 41
-30.0
 62
     5
 63
     7
 74
     1
 91
        4
 64
     7
 65
   257
 75
     7
175
     7
 42
1.0
 92
        8
 66
     7
 43
1.0
 76
     1
 77
     6
 78
     2
 67
     7
 79
     5
170
     0
171
     0
290
     0
174
     0
 93
        1
 44
0.0
173
     0
291
     1
 45
0.0
1001
ACAD
1000
AcDbSavedByObjectVersion
1070
     0
  0
VISUALSTYLE
  5
33
102
{ACAD_REACTORS
330
2A
102
}
330
2A
100
AcDbVisualStyle
  2
Realistic
 70
     8
 71
     2
 72
     2
 73
     0
 90
        0
 40
-0.6
 41
-30.0
 62
     5
 63
     7
 74
     1
 91
        0
 64
     7
 65
   257
 75
     1
175
     1
 42
1.0
 92
        8
 66
     8
 43
1.0
 76
     1
 77
     6
 78
     2
 67
     7
 79
     5
170
     0
171
     0
290
     0
174
     0
 93
       13
 44
0.0
173
     0
291
     0
 45
0.0
1001
ACAD
1000
AcDbSavedByObjectVersion
1070
     0
  0
VISUALSTYLE
  5
37
102
{ACAD_REACTORS
330
2A
102
}
330
2A
100
AcDbVisualStyle
  2
Thicken
 70
    13
 71
     2
 72
     2
 73
     0
 90
        0
 40
-0.6
 41
-30.0
 62
     5
 63
     7
 74
     1
 91
        4
 64
     7
 65
   257
 75
     1
175
     1
 42
1.0
 92
       12
 66
     7
 43
1.0
 76
     1
 77
     6
 78
     2
 67
     7
 79
     5
170
     0
171
     0
290
     0
174
     0
 93
        1
 44
0.0
173
     0
291
     1
 45
0.0
1001
ACAD
1000
AcDbSavedByObjectVersion
1070
     0
  0
DICTIONARYVAR
  5
218
102
{ACAD_REACTORS
330
216
102
}
330
216
100
DictionaryVariables
280
     0
  1
80.000000
  0
DICTIONARYVAR
  5
217
102
{ACAD_REACTORS
330
216
102
}
330
216
100
DictionaryVariables
280
     0
  1
5.000000
  0
DICTIONARY
  5
219
330
1E
100
AcDbDictionary
280
     1
281
     1
  3
ACAD_XREC_ROUNDTRIP
360
21A
  0
DICTIONARY
  5
21D
330
26
100
AcDbDictionary
280
     1
281
     1
  3
ACAD_XREC_ROUNDTRIP
360
21E
  0
DICTIONARY
  5
21B
330
22
100
AcDbDictionary
280
     1
281
     1
  3
ACAD_XREC_ROUNDTRIP
360
21C
  0
XRECORD
  5
21A
102
{ACAD_REACTORS
330
219
102
}
330
219
100
AcDbXrecord
280
     1
102
SHADEPLOT
 70
     0
102
SHADEPLOTRESLEVEL
 70
     5
102
SHADEPLOTCUSTOMDPI
 70
   300
  0
XRECORD
  5
21E
102
{ACAD_REACTORS
330
21D
102
}
330
21D
100
AcDbXrecord
280
     1
102
SHADEPLOT
 70
     0
102
SHADEPLOTRESLEVEL
 70
     5
102
SHADEPLOTCUSTOMDPI
 70
   300
  0
XRECORD
  5
21C
102
{ACAD_REACTORS
330
21B
102
}
330
21B
100
AcDbXrecord
280
     1
102
SHADEPLOT
 70
     0
102
SHADEPLOTRESLEVEL
 70
     5
102
SHADEPLOTCUSTOMDPI
 70
   300
  0
ENDSEC
  0
EOF
