  0
SECTION
  2
HEADER
  9
$ACADVER
  1
AC1015
  9
$ACADMAINTVER
 70
     6
  9
$DWGCODEPAGE
  3
ANSI_932
  9
$INSBASE
 10
0.0
 20
0.0
 30
0.0
  9
$EXTMIN
 10
-2100.0
 20
-1485.0
 30
0.0
  9
$EXTMAX
 10
2100.0
 20
1485.0
 30
0.0
  9
$LIMMIN
 10
-2100.0
 20
-1485.0
  9
$LIMMAX
 10
2100.0
 20
1485.0
  9
$ORTHOMODE
 70
     0
  9
$REGENMODE
 70
     1
  9
$FILLMODE
 70
     1
  9
$QTEXTMODE
 70
     0
  9
$MIRRTEXT
 70
     1
  9
$LTSCALE
 40
10.0
  9
$ATTMODE
 70
     1
  9
$TEXTSIZE
 40
2.5
  9
$TRACEWID
 40
1.0
  9
$TEXTSTYLE
  7
Standard
  9
$CLAYER
  8
0
  9
$CELTYPE
  6
ByLayer
  9
$CECOLOR
 62
   256
  9
$CELTSCALE
 40
1.0
  9
$DISPSILH
 70
     0
  9
$DIMSCALE
 40
1.0
  9
$DIMASZ
 40
2.5
  9
$DIMEXO
 40
0.625
  9
$DIMDLI
 40
3.75
  9
$DIMRND
 40
0.0
  9
$DIMDLE
 40
0.0
  9
$DIMEXE
 40
1.25
  9
$DIMTP
 40
0.0
  9
$DIMTM
 40
0.0
  9
$DIMTXT
 40
2.5
  9
$DIMCEN
 40
2.5
  9
$DIMTSZ
 40
0.0
  9
$DIMTOL
 70
     0
  9
$DIMLIM
 70
     0
  9
$DIMTIH
 70
     0
  9
$DIMTOH
 70
     0
  9
$DIMSE1
 70
     0
  9
$DIMSE2
 70
     0
  9
$DIMTAD
 70
     1
  9
$DIMZIN
 70
     8
  9
$DIMBLK
  1

  9
$DIMASO
 70
     1
  9
$DIMSHO
 70
     1
  9
$DIMPOST
  1

  9
$DIMAPOST
  1

  9
$DIMALT
 70
     0
  9
$DIMALTD
 70
     3
  9
$DIMALTF
 40
0.03937007874016
  9
$DIMLFAC
 40
1.0
  9
$DIMTOFL
 70
     1
  9
$DIMTVP
 40
0.0
  9
$DIMTIX
 70
     0
  9
$DIMSOXD
 70
     0
  9
$DIMSAH
 70
     0
  9
$DIMBLK1
  1

  9
$DIMBLK2
  1

  9
$DIMSTYLE
  2
ISO-25
  9
$DIMCLRD
 70
     0
  9
$DIMCLRE
 70
     0
  9
$DIMCLRT
 70
     0
  9
$DIMTFAC
 40
1.0
  9
$DIMGAP
 40
0.625
  9
$DIMJUST
 70
     0
  9
$DIMSD1
 70
     0
  9
$DIMSD2
 70
     0
  9
$DIMTOLJ
 70
     0
  9
$DIMTZIN
 70
     8
  9
$DIMALTZ
 70
     0
  9
$DIMALTTZ
 70
     0
  9
$DIMUPT
 70
     0
  9
$DIMDEC
 70
     2
  9
$DIMTDEC
 70
     2
  9
$DIMALTU
 70
     2
  9
$DIMALTTD
 70
     3
  9
$DIMTXSTY
  7
Standard
  9
$DIMAUNIT
 70
     0
  9
$DIMADEC
 70
     0
  9
$DIMALTRND
 40
0.0
  9
$DIMAZIN
 70
     0
  9
$DIMDSEP
 70
    44
  9
$DIMATFIT
 70
     3
  9
$DIMFRAC
 70
     0
  9
$DIMLDRBLK
  1

  9
$DIMLUNIT
 70
     2
  9
$DIMLWD
 70
    -2
  9
$DIMLWE
 70
    -2
  9
$DIMTMOVE
 70
     0
  9
$LUNITS
 70
     2
  9
$LUPREC
 70
     4
  9
$SKETCHINC
 40
1.0
  9
$FILLETRAD
 40
10.0
  9
$AUNITS
 70
     0
  9
$AUPREC
 70
     0
  9
$MENU
  1
.
  9
$ELEVATION
 40
0.0
  9
$PELEVATION
 40
0.0
  9
$THICKNESS
 40
0.0
  9
$LIMCHECK
 70
     0
  9
$CHAMFERA
 40
10.0
  9
$CHAMFERB
 40
10.0
  9
$CHAMFERC
 40
20.0
  9
$CHAMFERD
 40
0.0
  9
$SKPOLY
 70
     0
  9
$TDCREATE
 40
2456898.435587975
  9
$TDUCREATE
 40
2456898.060587975
  9
$TDUPDATE
 40
2456898.435587986
  9
$TDUUPDATE
 40
2456898.060587986
  9
$TDINDWG
 40
0.0000000116
  9
$TDUSRTIMER
 40
0.0000000116
  9
$USRTIMER
 70
     1
  9
$ANGBASE
 50
0.0
  9
$ANGDIR
 70
     0
  9
$PDMODE
 70
     0
  9
$PDSIZE
 40
0.0
  9
$PLINEWID
 40
0.0
  9
$SPLFRAME
 70
     0
  9
$SPLINETYPE
 70
     6
  9
$SPLINESEGS
 70
     8
  9
$HANDSEED
  5
1E1
  9
$SURFTAB1
 70
     6
  9
$SURFTAB2
 70
     6
  9
$SURFTYPE
 70
     6
  9
$SURFU
 70
     6
  9
$SURFV
 70
     6
  9
$UCSBASE
  2

  9
$UCSNAME
  2

  9
$UCSORG
 10
0.0
 20
0.0
 30
0.0
  9
$UCSXDIR
 10
1.0
 20
0.0
 30
0.0
  9
$UCSYDIR
 10
0.0
 20
1.0
 30
0.0
  9
$UCSORTHOREF
  2

  9
$UCSORTHOVIEW
 70
     0
  9
$UCSORGTOP
 10
0.0
 20
0.0
 30
0.0
  9
$UCSORGBOTTOM
 10
0.0
 20
0.0
 30
0.0
  9
$UCSORGLEFT
 10
0.0
 20
0.0
 30
0.0
  9
$UCSORGRIGHT
 10
0.0
 20
0.0
 30
0.0
  9
$UCSORGFRONT
 10
0.0
 20
0.0
 30
0.0
  9
$UCSORGBACK
 10
0.0
 20
0.0
 30
0.0
  9
$PUCSBASE
  2

  9
$PUCSNAME
  2

  9
$PUCSORG
 10
0.0
 20
0.0
 30
0.0
  9
$PUCSXDIR
 10
1.0
 20
0.0
 30
0.0
  9
$PUCSYDIR
 10
0.0
 20
1.0
 30
0.0
  9
$PUCSORTHOREF
  2

  9
$PUCSORTHOVIEW
 70
     0
  9
$PUCSORGTOP
 10
0.0
 20
0.0
 30
0.0
  9
$PUCSORGBOTTOM
 10
0.0
 20
0.0
 30
0.0
  9
$PUCSORGLEFT
 10
0.0
 20
0.0
 30
0.0
  9
$PUCSORGRIGHT
 10
0.0
 20
0.0
 30
0.0
  9
$PUCSORGFRONT
 10
0.0
 20
0.0
 30
0.0
  9
$PUCSORGBACK
 10
0.0
 20
0.0
 30
0.0
  9
$USERI1
 70
     0
  9
$USERI2
 70
     0
  9
$USERI3
 70
     0
  9
$USERI4
 70
     0
  9
$USERI5
 70
     0
  9
$USERR1
 40
0.0
  9
$USERR2
 40
0.0
  9
$USERR3
 40
0.0
  9
$USERR4
 40
0.0
  9
$USERR5
 40
0.0
  9
$WORLDVIEW
 70
     1
  9
$SHADEDGE
 70
     3
  9
$SHADEDIF
 70
    70
  9
$TILEMODE
 70
     1
  9
$MAXACTVP
 70
    64
  9
$PINSBASE
 10
0.0
 20
0.0
 30
0.0
  9
$PLIMCHECK
 70
     0
  9
$PEXTMIN
 10
1.000000000000000E+20
 20
1.000000000000000E+20
 30
1.000000000000000E+20
  9
$PEXTMAX
 10
-1.000000000000000E+20
 20
-1.000000000000000E+20
 30
-1.000000000000000E+20
  9
$PLIMMIN
 10
0.0
 20
0.0
  9
$PLIMMAX
 10
420.0
 20
297.0
  9
$UNITMODE
 70
     0
  9
$VISRETAIN
 70
     1
  9
$PLINEGEN
 70
     0
  9
$PSLTSCALE
 70
     1
  9
$TREEDEPTH
 70
  3020
  9
$CMLSTYLE
  2
Standard
  9
$CMLJUST
 70
     0
  9
$CMLSCALE
 40
20.0
  9
$PROXYGRAPHICS
 70
     1
  9
$MEASUREMENT
 70
     1
  9
$CELWEIGHT
370
    -1
  9
$ENDCAPS
280
     0
  9
$JOINSTYLE
280
     0
  9
$LWDISPLAY
290
     0
  9
$INSUNITS
 70
     4
  9
$HYPERLINKBASE
  1

  9
$STYLESHEET
  1

  9
$XEDIT
290
     1
  9
$CEPSNTYPE
380
     0
  9
$PSTYLEMODE
290
     1
  9
$FINGERPRINTGUID
  2
{BD70D644-C9FF-42A7-986D-EB96C42FF4AA}
  9
$VERSIONGUID
  2
{FAEB1C32-E019-11D5-929B-00C0DF256EC4}
  9
$EXTNAMES
290
     1
  9
$PSVPSCALE
 40
0.0
  9
$OLESTARTUP
290
     0
  0
ENDSEC
  0
SECTION
  2
CLASSES
  0
CLASS
  1
ACDBDICTIONARYWDFLT
  2
AcDbDictionaryWithDefault
  3
ObjectDBX Classes
 90
        0
280
     0
281
     0
  0
CLASS
  1
VISUALSTYLE
  2
AcDbVisualStyle
  3
ObjectDBX Classes
 90
     4095
280
     0
281
     0
  0
CLASS
  1
DICTIONARYVAR
  2
AcDbDictionaryVar
  3
ObjectDBX Classes
 90
        0
280
     0
281
     0
  0
CLASS
  1
ACDBPLACEHOLDER
  2
AcDbPlaceHolder
  3
ObjectDBX Classes
 90
        0
280
     0
281
     0
  0
CLASS
  1
LAYOUT
  2
AcDbLayout
  3
ObjectDBX Classes
 90
        0
280
     0
281
     0
  0
ENDSEC
  0
SECTION
  2
TABLES
  0
TABLE
  2
VPORT
  5
8
330
0
100
AcDbSymbolTable
 70
     1
  0
VPORT
  5
29
330
8
100
AcDbSymbolTableRecord
100
AcDbViewportTableRecord
  2
*Active
 70
     0
 10
0.0
 20
0.0
 11
1.0
 21
1.0
 12
0.0
 22
0.0
 13
0.0
 23
0.0
 14
10.0
 24
10.0
 15
10.0
 25
10.0
 16
0.0
 26
0.0
 36
1.0
 17
0.0
 27
0.0
 37
0.0
 40
3267.0
 41
1.414141414141414
 42
50.0
 43
0.0
 44
0.0
 50
0.0
 51
0.0
 71
     0
 72
 10000
 73
     1
 74
     3
 75
     0
 76
     0
 77
     0
 78
     0
281
     0
 65
     1
110
0.0
120
0.0
130
0.0
111
1.0
121
0.0
131
0.0
112
0.0
122
1.0
132
0.0
 79
     0
146
0.0
  0
ENDTAB
  0
TABLE
  2
LTYPE
  5
5
330
0
100
AcDbSymbolTable
 70
     3
  0
LTYPE
  5
14
330
5
100
AcDbSymbolTableRecord
100
AcDbLinetypeTableRecord
  2
ByBlock
 70
     0
  3

 72
    65
 73
     0
 40
0.0
  0
LTYPE
  5
15
330
5
100
AcDbSymbolTableRecord
100
AcDbLinetypeTableRecord
  2
ByLayer
 70
     0
  3

 72
    65
 73
     0
 40
0.0
  0
LTYPE
  5
16
330
5
100
AcDbSymbolTableRecord
100
AcDbLinetypeTableRecord
  2
Continuous
 70
     0
  3
Solid line
 72
    65
 73
     0
 40
0.0
  0
LTYPE
  5
3C
330
5
100
AcDbSymbolTableRecord
100
AcDbLinetypeTableRecord
  2
JWW_CENTER1
 70
     0
  3
-----  --  ----------  --  -----
 72
    65
 73
     4
 40
6.773333333333333
 49
4.233333333333333
 74
     0
 49
-0.8466666666666667
 74
     0
 49
0.8466666666666667
 74
     0
 49
-0.8466666666666667
 74
     0
  0
LTYPE
  5
3D
330
5
100
AcDbSymbolTableRecord
100
AcDbLinetypeTableRecord
  2
JWW_DASHED1
 70
     0
  3
-  --  --  --  --  --  --  --  -
 72
    65
 73
     2
 40
1.693333333333333
 49
0.8466666666666667
 74
     0
 49
-0.8466666666666667
 74
     0
  0
ENDTAB
  0
TABLE
  2
LAYER
  5
2
330
0
100
AcDbSymbolTable
 70
    14
  0
LAYER
  5
10
330
2
100
AcDbSymbolTableRecord
100
AcDbLayerTableRecord
  2
0
 70
     0
 62
     7
  6
Continuous
370
    -3
390
F
  0
LAYER
  5
3E
330
2
100
AcDbSymbolTableRecord
100
AcDbLayerTableRecord
  2
0-F
 70
     0
 62
     7
  6
Continuous
370
    -3
390
F
  0
LAYER
  5
3F
330
2
100
AcDbSymbolTableRecord
100
AcDbLayerTableRecord
  2
0-1
 70
     0
 62
     7
  6
Continuous
370
    -3
390
F
  0
LAYER
  5
40
330
2
100
AcDbSymbolTableRecord
100
AcDbLayerTableRecord
  2
0-B
 70
     0
 62
     7
  6
Continuous
370
    -3
390
F
  0
LAYER
  5
41
330
2
100
AcDbSymbolTableRecord
100
AcDbLayerTableRecord
  2
0-4
 70
     0
 62
     7
  6
Continuous
370
    -3
390
F
  0
LAYER
  5
42
330
2
100
AcDbSymbolTableRecord
100
AcDbLayerTableRecord
  2
0-D
 70
     0
 62
     7
  6
Continuous
370
    -3
390
F
  0
LAYER
  5
43
330
2
100
AcDbSymbolTableRecord
100
AcDbLayerTableRecord
  2
0-5
 70
     0
 62
     7
  6
Continuous
370
    -3
390
F
  0
LAYER
  5
44
330
2
100
AcDbSymbolTableRecord
100
AcDbLayerTableRecord
  2
0-7
 70
     0
 62
     7
  6
Continuous
370
    -3
390
F
  0
LAYER
  5
45
330
2
100
AcDbSymbolTableRecord
100
AcDbLayerTableRecord
  2
0-C
 70
     0
 62
     7
  6
Continuous
370
    -3
390
F
  0
LAYER
  5
46
330
2
100
AcDbSymbolTableRecord
100
AcDbLayerTableRecord
  2
0-8
 70
     0
 62
     7
  6
Continuous
370
    -3
390
F
  0
LAYER
  5
47
330
2
100
AcDbSymbolTableRecord
100
AcDbLayerTableRecord
  2
0-0
 70
     0
 62
     7
  6
Continuous
370
    -3
390
F
  0
LAYER
  5
48
330
2
100
AcDbSymbolTableRecord
100
AcDbLayerTableRecord
  2
0-3
 70
     0
 62
     7
  6
Continuous
370
    -3
390
F
  0
LAYER
  5
49
330
2
100
AcDbSymbolTableRecord
100
AcDbLayerTableRecord
  2
0-9
 70
     0
 62
     7
  6
Continuous
370
    -3
390
F
  0
LAYER
  5
4A
330
2
100
AcDbSymbolTableRecord
100
AcDbLayerTableRecord
  2
F-4
 70
     0
 62
     7
  6
Continuous
370
    -3
390
F
  0
ENDTAB
  0
TABLE
  2
STYLE
  5
3
330
0
100
AcDbSymbolTable
 70
     2
  0
STYLE
  5
11
330
3
100
AcDbSymbolTableRecord
100
AcDbTextStyleTableRecord
  2
Standard
 70
     0
 40
0.0
 41
1.0
 50
0.0
 71
     0
 42
2.5
  3
txt
  4

1001
ACAD
1000

1071
        0
  0
STYLE
  5
3B
330
3
100
AcDbSymbolTableRecord
100
AcDbTextStyleTableRecord
  2
ＭＳ ゴシック
 70
     0
 40
1.0
 41
1.0
 50
0.0
 71
     0
 42
10.0
  3

  4

1001
ACAD
1000
MS Gothic
1071
    32817
  0
ENDTAB
  0
TABLE
  2
VIEW
  5
6
330
0
100
AcDbSymbolTable
 70
     0
  0
ENDTAB
  0
TABLE
  2
UCS
  5
7
330
0
100
AcDbSymbolTable
 70
     0
  0
ENDTAB
  0
TABLE
  2
APPID
  5
9
330
0
100
AcDbSymbolTable
 70
     1
  0
APPID
  5
12
330
9
100
AcDbSymbolTableRecord
100
AcDbRegAppTableRecord
  2
ACAD
 70
     0
  0
ENDTAB
  0
TABLE
  2
DIMSTYLE
  5
A
330
0
100
AcDbSymbolTable
 70
     1
100
AcDbDimStyleTable
  0
DIMSTYLE
105
27
330
A
100
AcDbSymbolTableRecord
100
AcDbDimStyleTableRecord
  2
ISO-25
 70
     0
 41
2.5
 42
0.625
 43
3.75
 44
1.25
 73
     0
 74
     0
 77
     1
 78
     8
140
2.5
141
2.5
143
0.03937007874016
147
0.625
171
     3
172
     1
271
     2
272
     2
274
     3
278
    44
283
     0
284
     8
340
11
  0
ENDTAB
  0
TABLE
  2
BLOCK_RECORD
  5
1
330
0
100
AcDbSymbolTable
 70
     1
  0
BLOCK_RECORD
  5
1F
330
1
100
AcDbSymbolTableRecord
100
AcDbBlockTableRecord
  2
*Model_Space
340
22
  0
BLOCK_RECORD
  5
1B
330
1
100
AcDbSymbolTableRecord
100
AcDbBlockTableRecord
  2
*Paper_Space
340
1E
  0
BLOCK_RECORD
  5
23
330
1
100
AcDbSymbolTableRecord
100
AcDbBlockTableRecord
  2
*Paper_Space0
340
26
  0
ENDTAB
  0
ENDSEC
  0
SECTION
  2
BLOCKS
  0
BLOCK
  5
20
330
1F
100
AcDbEntity
  8
0
100
AcDbBlockBegin
  2
*Model_Space
 70
     0
 10
0.0
 20
0.0
 30
0.0
  3
*Model_Space
  1

  0
ENDBLK
  5
21
330
1F
100
AcDbEntity
  8
0
100
AcDbBlockEnd
  0
BLOCK
  5
1C
330
1B
100
AcDbEntity
 67
     1
  8
0
100
AcDbBlockBegin
  2
*Paper_Space
 70
     0
 10
0.0
 20
0.0
 30
0.0
  3
*Paper_Space
  1

  0
ENDBLK
  5
1D
330
1B
100
AcDbEntity
 67
     1
  8
0
100
AcDbBlockEnd
  0
BLOCK
  5
24
330
23
100
AcDbEntity
  8
0
100
AcDbBlockBegin
  2
*Paper_Space0
 70
     0
 10
0.0
 20
0.0
 30
0.0
  3
*Paper_Space0
  1

  0
ENDBLK
  5
25
330
23
100
AcDbEntity
  8
0
100
AcDbBlockEnd
  0
ENDSEC
  0
SECTION
  2
ENTITIES
  0
LWPOLYLINE
  5
4B
330
1F
100
AcDbEntity
  8
0-F
  6
Continuous
 62
     7
370
     9
100
AcDbPolyline
 90
        4
 70
     1
 43
1.0
 10
6.772945711604052
 20
756.6675345393706
 42
0.4142135623731
 10
6.272945711604052
 20
757.1675345393705
 42
0.4142135623731
 10
5.772945711604052
 20
756.6675345393706
 42
0.4142135623731
 10
6.272945711604052
 20
756.1675345393706
 42
0.4142135623731
  0
LWPOLYLINE
  5
4C
330
1F
100
AcDbEntity
  8
0-F
  6
Continuous
 62
     7
370
     9
100
AcDbPolyline
 90
        4
 70
     1
 43
1.0
 10
20.10665295400231
 20
-638.2070726998599
 42
0.4142135623731
 10
19.60665295400231
 20
-637.7070726998599
 42
0.4142135623731
 10
19.10665295400231
 20
-638.2070726998599
 42
0.4142135623731
 10
19.60665295400231
 20
-638.7070726998597
 42
0.4142135623731
  0
LINE
  5
4D
330
1F
100
AcDbEntity
  8
0-1
  6
Continuous
 62
     4
370
     9
100
AcDbLine
 10
489.6060512431945
 20
756.6675345393702
 30
0.0
 11
489.6060512431945
 21
106.6679775744815
 31
0.0
  0
LINE
  5
4E
330
1F
100
AcDbEntity
  8
0-1
  6
Continuous
 62
     4
370
     9
100
AcDbLine
 10
489.6060512431945
 20
106.6679775744815
 30
0.0
 11
-477.0608204450389
 21
106.6679775744815
 31
0.0
  0
LINE
  5
4F
330
1F
100
AcDbEntity
  8
0-1
  6
JWW_CENTER1
 62
     4
370
     9
100
AcDbLine
 10
6.272945711604052
 20
1299.182735199713
 30
0.0
 11
6.272945711604052
 21
28.0317959652772
 31
0.0
  0
LINE
  5
50
330
1F
100
AcDbEntity
  8
0-1
  6
Continuous
 62
     4
370
     9
100
AcDbLine
 10
-477.0608204450389
 20
756.6675345393702
 30
0.0
 11
-477.0608204450389
 21
106.6679775744815
 31
0.0
  0
LINE
  5
51
330
1F
100
AcDbEntity
  8
0-B
  6
Continuous
 62
     2
370
     9
100
AcDbLine
 10
-21.97207831283976
 20
768.3335123021499
 30
0.0
 11
-28.72696945188679
 21
768.3335123021499
 31
0.0
  0
LINE
  5
52
330
1F
100
AcDbEntity
  8
0-B
  6
Continuous
 62
     2
370
     9
100
AcDbLine
 10
-28.72696945188679
 20
745.00023552649
 30
0.0
 11
-21.97207831283976
 21
745.00023552649
 31
0.0
  0
LINE
  5
53
330
1F
100
AcDbEntity
  8
0-B
  6
Continuous
 62
     2
370
     9
100
AcDbLine
 10
34.51796973604615
 20
768.3335123021499
 30
0.0
 11
41.27286087509333
 21
768.3335123021499
 31
0.0
  0
LINE
  5
54
330
1F
100
AcDbEntity
  8
0-B
  6
Continuous
 62
     2
370
     9
100
AcDbLine
 10
41.27286087509333
 20
745.00023552649
 30
0.0
 11
34.51796973604615
 21
745.00023552649
 31
0.0
  0
LINE
  5
55
330
1F
100
AcDbEntity
  8
0-B
  6
Continuous
 62
     2
370
     9
100
AcDbLine
 10
34.51796973604615
 20
764.334088247794
 30
0.0
 11
41.27286087509333
 21
764.334088247794
 31
0.0
  0
LINE
  5
56
330
1F
100
AcDbEntity
  8
0-B
  6
Continuous
 62
     2
370
     9
100
AcDbLine
 10
41.27286087509333
 20
749.0003202058963
 30
0.0
 11
34.51796973604615
 21
749.0003202058963
 31
0.0
  0
LINE
  5
57
330
1F
100
AcDbEntity
  8
0-B
  6
Continuous
 62
     2
370
     9
100
AcDbLine
 10
-28.72696945188679
 20
749.0003202058963
 30
0.0
 11
-21.97207831283976
 21
749.0003202058963
 31
0.0
  0
LINE
  5
58
330
1F
100
AcDbEntity
  8
0-B
  6
Continuous
 62
     2
370
     9
100
AcDbLine
 10
-21.97207831283976
 20
764.334088247794
 30
0.0
 11
-28.72696945188679
 21
764.334088247794
 31
0.0
  0
LINE
  5
59
330
1F
100
AcDbEntity
  8
0-1
  6
JWW_CENTER1
 62
     4
370
     9
100
AcDbLine
 10
546.9489662319843
 20
756.6675345393702
 30
0.0
 11
-534.4030748087778
 21
756.6675345393702
 31
0.0
  0
LINE
  5
5A
330
1F
100
AcDbEntity
  8
0-4
  6
Continuous
 62
     6
370
     9
100
AcDbLine
 10
267.9802200024956
 20
804.3336137917532
 30
0.0
 11
-265.3529530840952
 21
804.3336137917532
 31
0.0
  0
LINE
  5
5B
330
1F
100
AcDbEntity
  8
0-4
  6
Continuous
 62
     6
370
     9
100
AcDbLine
 10
-265.3529530840952
 20
709.0001340368866
 30
0.0
 11
-265.3529530840952
 21
804.3336137917532
 31
0.0
  0
LINE
  5
5C
330
1F
100
AcDbEntity
  8
0-4
  6
Continuous
 62
     6
370
     9
100
AcDbLine
 10
267.9802200024956
 20
709.0001340368866
 30
0.0
 11
-265.3529530840952
 21
709.0001340368866
 31
0.0
  0
LINE
  5
5D
330
1F
100
AcDbEntity
  8
0-4
  6
Continuous
 62
     6
370
     9
100
AcDbLine
 10
267.9802200024956
 20
709.0001340368866
 30
0.0
 11
267.9802200024956
 21
804.3336137917532
 31
0.0
  0
LINE
  5
5E
330
1F
100
AcDbEntity
  8
0-D
  6
Continuous
 62
     2
370
     9
100
AcDbLine
 10
34.64679162084963
 20
723.3337157526707
 30
0.0
 11
34.64679162084963
 21
745.00023552649
 31
0.0
  0
LINE
  5
5F
330
1F
100
AcDbEntity
  8
0-D
  6
Continuous
 62
     2
370
     9
100
AcDbLine
 10
34.64679162084963
 20
768.3335123021499
 30
0.0
 11
34.64679162084963
 21
790.0000320759693
 31
0.0
  0
LINE
  5
60
330
1F
100
AcDbEntity
  8
0-D
  6
Continuous
 62
     2
370
     9
100
AcDbLine
 10
267.9802200024956
 20
790.0000320759693
 30
0.0
 11
34.64679162084963
 21
790.0000320759693
 31
0.0
  0
LINE
  5
61
330
1F
100
AcDbEntity
  8
0-D
  6
Continuous
 62
     2
370
     9
100
AcDbLine
 10
267.9802200024956
 20
723.3337157526707
 30
0.0
 11
34.64679162084963
 21
723.3337157526707
 31
0.0
  0
LINE
  5
62
330
1F
100
AcDbEntity
  8
0-F
  6
Continuous
 62
     7
370
     9
100
AcDbLine
 10
-477.0608204450389
 20
-64.675699214752
 30
0.0
 11
489.6060512431945
 21
-64.675699214752
 31
0.0
  0
LINE
  5
63
330
1F
100
AcDbEntity
  8
0-F
  6
Continuous
 62
     7
370
     9
100
AcDbLine
 10
-477.0608204450389
 20
66.66779140547192
 30
0.0
 11
-477.0608204450389
 21
-68.6757838941579
 31
0.0
  0
LINE
  5
64
330
1F
100
AcDbEntity
  8
0-F
  6
Continuous
 62
     7
370
     9
100
AcDbLine
 10
489.6060512431945
 20
66.66779140547192
 30
0.0
 11
489.6060512431945
 21
-68.6757838941579
 31
0.0
  0
LINE
  5
65
330
1F
100
AcDbEntity
  8
0-F
  6
Continuous
 62
     7
370
     9
100
AcDbLine
 10
-477.0608204450389
 20
-64.675699214752
 30
0.0
 11
-437.4028380520717
 21
-59.45477944244054
 31
0.0
  0
LINE
  5
66
330
1F
100
AcDbEntity
  8
0-F
  6
Continuous
 62
     7
370
     9
100
AcDbLine
 10
-477.0608204450389
 20
-64.675699214752
 30
0.0
 11
-437.4028380520717
 21
-69.89661898706345
 31
0.0
  0
LINE
  5
67
330
1F
100
AcDbEntity
  8
0-F
  6
Continuous
 62
     7
370
     9
100
AcDbLine
 10
489.6060512431945
 20
-64.675699214752
 30
0.0
 11
449.9480688502273
 21
-59.45477944244054
 31
0.0
  0
LINE
  5
68
330
1F
100
AcDbEntity
  8
0-F
  6
Continuous
 62
     7
370
     9
100
AcDbLine
 10
489.6060512431945
 20
-64.675699214752
 30
0.0
 11
449.9480688502273
 21
-69.89661898706345
 31
0.0
  0
LINE
  5
69
330
1F
100
AcDbEntity
  8
0-F
  6
Continuous
 62
     7
370
     9
100
AcDbLine
 10
701.1718842183301
 20
106.6679775744815
 30
0.0
 11
701.1718842183301
 21
1240.000640070962
 31
0.0
  0
LINE
  5
6A
330
1F
100
AcDbEntity
  8
0-F
  6
Continuous
 62
     7
370
     9
100
AcDbLine
 10
529.6062374122049
 20
106.6679775744815
 30
0.0
 11
705.1719688977356
 21
106.6679775744815
 31
0.0
  0
LINE
  5
6B
330
1F
100
AcDbEntity
  8
0-F
  6
Continuous
 62
     7
370
     9
100
AcDbLine
 10
46.27313188061294
 20
1240.000640070962
 30
0.0
 11
705.1719688977356
 21
1240.000640070962
 31
0.0
  0
LINE
  5
6C
330
1F
100
AcDbEntity
  8
0-F
  6
Continuous
 62
     7
370
     9
100
AcDbLine
 10
701.1718842183301
 20
106.6679775744815
 30
0.0
 11
695.950964446019
 21
146.3259599674491
 31
0.0
  0
LINE
  5
6D
330
1F
100
AcDbEntity
  8
0-F
  6
Continuous
 62
     7
370
     9
100
AcDbLine
 10
701.1718842183301
 20
106.6679775744815
 30
0.0
 11
706.3934646156919
 21
146.3259599674491
 31
0.0
  0
LINE
  5
6E
330
1F
100
AcDbEntity
  8
0-F
  6
Continuous
 62
     7
370
     9
100
AcDbLine
 10
701.1718842183301
 20
1240.000640070962
 30
0.0
 11
695.950964446019
 21
1200.342657677994
 31
0.0
  0
LINE
  5
6F
330
1F
100
AcDbEntity
  8
0-F
  6
Continuous
 62
     7
370
     9
100
AcDbLine
 10
701.1718842183301
 20
1240.000640070962
 30
0.0
 11
706.3934646156919
 21
1200.342657677994
 31
0.0
  0
LINE
  5
70
330
1F
100
AcDbEntity
  8
0-F
  6
Continuous
 62
     7
370
     9
100
AcDbLine
 10
-672.124239664342
 20
106.6679775744815
 30
0.0
 11
-672.124239664342
 21
756.6675345393702
 31
0.0
  0
LINE
  5
71
330
1F
100
AcDbEntity
  8
0-F
  6
Continuous
 62
     7
370
     9
100
AcDbLine
 10
-517.0603459889985
 20
106.6679775744815
 30
0.0
 11
-676.1243243437475
 21
106.6679775744815
 31
0.0
  0
LINE
  5
72
330
1F
100
AcDbEntity
  8
0-F
  6
Continuous
 62
     7
370
     9
100
AcDbLine
 10
-574.4032609777867
 20
756.6675345393702
 30
0.0
 11
-676.1243243437475
 21
756.6675345393702
 31
0.0
  0
LINE
  5
73
330
1F
100
AcDbEntity
  8
0-F
  6
Continuous
 62
     7
370
     9
100
AcDbLine
 10
-672.124239664342
 20
106.6679775744815
 30
0.0
 11
-677.3451594366531
 21
146.3259599674491
 31
0.0
  0
LINE
  5
74
330
1F
100
AcDbEntity
  8
0-F
  6
Continuous
 62
     7
370
     9
100
AcDbLine
 10
-672.124239664342
 20
106.6679775744815
 30
0.0
 11
-666.903319892031
 21
146.3259599674491
 31
0.0
  0
LINE
  5
75
330
1F
100
AcDbEntity
  8
0-F
  6
Continuous
 62
     7
370
     9
100
AcDbLine
 10
-672.124239664342
 20
756.6675345393702
 30
0.0
 11
-677.3451594366531
 21
717.0095521464026
 31
0.0
  0
LINE
  5
76
330
1F
100
AcDbEntity
  8
0-F
  6
Continuous
 62
     7
370
     9
100
AcDbLine
 10
-672.124239664342
 20
756.6675345393702
 30
0.0
 11
-666.903319892031
 21
717.0095521464026
 31
0.0
  0
LINE
  5
77
330
1F
100
AcDbEntity
  8
0-F
  6
Continuous
 62
     7
370
     9
100
AcDbLine
 10
6.272945711604052
 20
756.6675345393702
 30
0.0
 11
348.0413698451392
 21
1098.435958672907
 31
0.0
  0
LINE
  5
78
330
1F
100
AcDbEntity
  8
0-F
  6
Continuous
 62
     7
370
     9
100
AcDbLine
 10
348.0413698451392
 20
1098.435958672907
 30
0.0
 11
323.6907304920588
 21
1066.701513132919
 31
0.0
  0
LINE
  5
79
330
1F
100
AcDbEntity
  8
0-F
  6
Continuous
 62
     7
370
     9
100
AcDbLine
 10
348.0413698451392
 20
1098.435958672907
 30
0.0
 11
316.3069243051521
 21
1074.085319319826
 31
0.0
  0
ARC
  5
7A
330
1F
100
AcDbEntity
  8
0-1
  6
Continuous
 62
     4
370
     9
100
AcDbCircle
 10
6.272945711604052
 20
756.6675345393702
 30
0.0
 40
483.3333532659856
100
AcDbArc
 50
0.0
 51
180.0
  0
ARC
  5
7B
330
1F
100
AcDbEntity
  8
0-B
  6
Continuous
 62
     2
370
     9
100
AcDbCircle
 10
-28.72696945188679
 20
756.6675345393702
 30
0.0
 40
11.66666419349582
100
AcDbArc
 50
90.0
 51
270.0
  0
ARC
  5
7C
330
1F
100
AcDbEntity
  8
0-B
  6
Continuous
 62
     2
370
     9
100
AcDbCircle
 10
-21.97207831283976
 20
772.333596981556
 30
0.0
 40
4.000000165849732
100
AcDbArc
 50
270.0
 51
323.9680633544922
  0
ARC
  5
7D
330
1F
100
AcDbEntity
  8
0-B
  6
Continuous
 62
     2
370
     9
100
AcDbCircle
 10
-21.97207831283976
 20
741.0008114721347
 30
0.0
 40
4.000000165849732
100
AcDbArc
 50
36.03193664550781
 51
90.0
  0
ARC
  5
7E
330
1F
100
AcDbEntity
  8
0-B
  6
Continuous
 62
     2
370
     9
100
AcDbCircle
 10
41.27286087509333
 20
756.6675345393702
 30
0.0
 40
11.66666419349582
100
AcDbArc
 50
270.0
 51
90.0
  0
ARC
  5
7F
330
1F
100
AcDbEntity
  8
0-B
  6
Continuous
 62
     2
370
     9
100
AcDbCircle
 10
34.51796973604615
 20
772.333596981556
 30
0.0
 40
4.000000165849732
100
AcDbArc
 50
216.0319366455078
 51
270.0
  0
ARC
  5
80
330
1F
100
AcDbEntity
  8
0-B
  6
Continuous
 62
     2
370
     9
100
AcDbCircle
 10
34.51796973604615
 20
741.0008114721347
 30
0.0
 40
4.000000165849732
100
AcDbArc
 50
90.0
 51
143.9680633544922
  0
ARC
  5
81
330
1F
100
AcDbEntity
  8
0-B
  6
Continuous
 62
     2
370
     9
100
AcDbCircle
 10
6.272945711604052
 20
756.6675345393702
 30
0.0
 40
28.3333335941516
100
AcDbArc
 50
28.02754211425781
 51
151.9724426269531
  0
ARC
  5
82
330
1F
100
AcDbEntity
  8
0-B
  6
Continuous
 62
     2
370
     9
100
AcDbCircle
 10
6.272945711604052
 20
756.6675345393702
 30
0.0
 40
28.3333335941516
100
AcDbArc
 50
208.0275573730469
 51
331.9724426269531
  0
ARC
  5
83
330
1F
100
AcDbEntity
  8
0-B
  6
Continuous
 62
     2
370
     9
100
AcDbCircle
 10
41.27286087509333
 20
756.6675345393702
 30
0.0
 40
7.666664027646087
100
AcDbArc
 50
270.0
 51
90.0
  0
ARC
  5
84
330
1F
100
AcDbEntity
  8
0-B
  6
Continuous
 62
     2
370
     9
100
AcDbCircle
 10
-28.72696945188679
 20
756.6675345393702
 30
0.0
 40
7.666664027646087
100
AcDbArc
 50
90.0
 51
270.0
  0
ARC
  5
85
330
1F
100
AcDbEntity
  8
0-B
  6
Continuous
 62
     2
370
     9
100
AcDbCircle
 10
-21.97207831283976
 20
772.333596981556
 30
0.0
 40
8.000000331699464
100
AcDbArc
 50
270.0
 51
323.9680633544922
  0
ARC
  5
86
330
1F
100
AcDbEntity
  8
0-B
  6
Continuous
 62
     2
370
     9
100
AcDbCircle
 10
6.272945711604052
 20
756.6675345393702
 30
0.0
 40
24.33333665401012
100
AcDbArc
 50
28.02754211425781
 51
153.5666198730468
  0
ARC
  5
87
330
1F
100
AcDbEntity
  8
0-B
  6
Continuous
 62
     2
370
     9
100
AcDbCircle
 10
-21.97207831283976
 20
741.0008114721347
 30
0.0
 40
8.000000331699464
100
AcDbArc
 50
32.02981567382812
 51
90.0
  0
ARC
  5
88
330
1F
100
AcDbEntity
  8
0-B
  6
Continuous
 62
     2
370
     9
100
AcDbCircle
 10
34.51796973604615
 20
772.333596981556
 30
0.0
 40
8.000000331699464
100
AcDbArc
 50
212.029800415039
 51
270.0
  0
ARC
  5
89
330
1F
100
AcDbEntity
  8
0-B
  6
Continuous
 62
     2
370
     9
100
AcDbCircle
 10
6.272945711604052
 20
756.6675345393702
 30
0.0
 40
24.33333665401012
100
AcDbArc
 50
208.0275573730469
 51
331.9724426269531
  0
ARC
  5
8A
330
1F
100
AcDbEntity
  8
0-B
  6
Continuous
 62
     2
370
     9
100
AcDbCircle
 10
34.51796973604615
 20
741.0008114721347
 30
0.0
 40
8.000000331699464
100
AcDbArc
 50
90.0
 51
147.9701843261718
  0
CIRCLE
  5
8B
330
1F
100
AcDbEntity
  8
0-B
  6
Continuous
 62
     2
370
     9
100
AcDbCircle
 10
6.272945711604052
 20
756.6675345393702
 30
0.0
 40
16.66666811037248
  0
CIRCLE
  5
8C
330
1F
100
AcDbEntity
  8
0-B
  6
Continuous
 62
     2
370
     9
100
AcDbCircle
 10
6.272945711604052
 20
756.6675345393702
 30
0.0
 40
12.66666600909779
  0
TEXT
  5
8D
330
1F
100
AcDbEntity
  8
0-D
  6
Continuous
 62
     6
370
     9
100
AcDbText
 10
95.31383612419688
 20
749.4868118579835
 30
0.0
 40
15.24
  1
複数回使用
 41
1.119999999999999
  7
ＭＳ ゴシック
100
AcDbText
  0
TEXT
  5
8E
330
1F
100
AcDbEntity
  8
0-F
  6
Continuous
 62
     2
370
     9
100
AcDbText
 10
-26.22738460092222
 20
-45.70200454072548
 30
0.0
 40
30.48
  1
290
 41
1.083333333333333
  7
ＭＳ ゴシック
100
AcDbText
  0
TEXT
  5
8F
330
1F
100
AcDbEntity
  8
0-F
  6
Continuous
 62
     2
370
     9
100
AcDbText
 10
682.1988515899731
 20
640.8346385973051
 30
0.0
 40
30.48
  1
340
 50
90.00000250447822
 41
1.083333333333334
  7
ＭＳ ゴシック
100
AcDbText
  0
TEXT
  5
90
330
1F
100
AcDbEntity
  8
0-F
  6
Continuous
 62
     2
370
     9
100
AcDbText
 10
-691.0972722926987
 20
399.1680858315095
 30
0.0
 40
30.48
  1
195
 50
90.00000250447822
 41
1.083333333333334
  7
ＭＳ ゴシック
100
AcDbText
  0
TEXT
  5
91
330
1F
100
AcDbEntity
  8
0-F
  6
Continuous
 62
     2
370
     9
100
AcDbText
 10
132.8049775660668
 20
910.031683268125
 30
0.0
 40
30.48
  1
R145
 50
45.00023006357624
 41
1.093750000000001
  7
ＭＳ ゴシック
100
AcDbText
  0
TEXT
  5
92
330
1F
100
AcDbEntity
  8
0-5
  6
Continuous
 62
     6
370
     9
100
AcDbText
 10
-422.4915651779237
 20
-213.6813681675831
 30
0.0
 40
19.05
  1
蝶ナット：ＳＰＨＣ
 41
1.106666666666667
  7
ＭＳ ゴシック
100
AcDbText
  0
TEXT
  5
93
330
1F
100
AcDbEntity
  8
0-5
  6
Continuous
 62
     6
370
     9
100
AcDbText
 10
-331.4877105570587
 20
-255.6890774093132
 30
0.0
 40
19.05
  1
（別途）
 41
1.089999999999998
  7
ＭＳ ゴシック
100
AcDbText
  0
LINE
  5
94
330
1F
100
AcDbEntity
  8
0-5
  6
Continuous
 62
     7
370
     9
100
AcDbLine
 10
469.528823328729
 20
-329.3198510560327
 30
0.0
 11
673.9282801385151
 21
-329.3198510560327
 31
0.0
  0
TEXT
  5
95
330
1F
100
AcDbEntity
  8
0-5
  6
Continuous
 62
     7
370
     9
100
AcDbText
 10
512.2172618305855
 20
-320.922220696753
 30
0.0
 40
22.86
  1
抜型本体
 41
1.125
  7
ＭＳ ゴシック
100
AcDbText
  0
TEXT
  5
96
330
1F
100
AcDbEntity
  8
0-5
  6
Continuous
 62
     7
370
     9
100
AcDbText
 10
469.8807185417713
 20
-364.9772186363359
 30
0.0
 40
22.86
  1
特殊発砲樹脂
 41
1.138888888888886
  7
ＭＳ ゴシック
100
AcDbText
  0
LINE
  5
97
330
1F
100
AcDbEntity
  8
0-5
  6
Continuous
 62
     7
370
     9
100
AcDbLine
 10
366.7444854102919
 20
-507.3475465530939
 30
0.0
 11
469.528823328729
 21
-329.3198510560327
 31
0.0
  0
LINE
  5
98
330
1F
100
AcDbEntity
  8
0-5
  6
Continuous
 62
     7
370
     9
100
AcDbLine
 10
366.7444854102919
 20
-507.3475465530939
 30
0.0
 11
376.3115712194192
 21
-484.2505582403118
 31
0.0
  0
LINE
  5
99
330
1F
100
AcDbEntity
  8
0-5
  6
Continuous
 62
     7
370
     9
100
AcDbLine
 10
366.7444854102919
 20
-507.3475465530939
 30
0.0
 11
381.96352113551
 21
-487.5137130458131
 31
0.0
  0
LINE
  5
9A
330
1F
100
AcDbEntity
  8
0-5
  6
Continuous
 62
     7
370
     9
100
AcDbLine
 10
-40.39426846476587
 20
-444.0140836084248
 30
0.0
 11
-55.61330418998395
 21
-424.1802501011438
 31
0.0
  0
LINE
  5
9B
330
1F
100
AcDbEntity
  8
0-5
  6
Continuous
 62
     7
370
     9
100
AcDbLine
 10
-40.39426846476587
 20
-444.0140836084248
 30
0.0
 11
-49.96135427389319
 21
-420.9170952956425
 31
0.0
  0
LINE
  5
9C
330
1F
100
AcDbEntity
  8
0-7
  6
Continuous
 62
     6
370
     9
100
AcDbLine
 10
-260.3936408316929
 20
-507.3475465530939
 30
0.0
 11
-260.3936408316929
 21
-480.6807557737543
 31
0.0
  0
LINE
  5
9D
330
1F
100
AcDbEntity
  8
0-7
  6
Continuous
 62
     6
370
     9
100
AcDbLine
 10
272.9395322548994
 20
-507.3475465530939
 30
0.0
 11
272.9395322548994
 21
-480.6807557737543
 31
0.0
  0
LINE
  5
9E
330
1F
100
AcDbEntity
  8
0-7
  6
Continuous
 62
     6
370
     9
100
AcDbLine
 10
20.44004991471823
 20
-488.3476397947036
 30
0.0
 11
20.44004991471823
 21
-480.6807557737543
 31
0.0
  0
LINE
  5
9F
330
1F
100
AcDbEntity
  8
0-7
  6
Continuous
 62
     6
370
     9
100
AcDbLine
 10
-7.894158491511689
 20
-488.3476397947036
 30
0.0
 11
-7.894158491511689
 21
-480.6807557737543
 31
0.0
  0
LINE
  5
A0
330
1F
100
AcDbEntity
  8
0-7
  6
Continuous
 62
     2
370
     9
100
AcDbLine
 10
-30.35408895070958
 20
-444.0140836084248
 30
0.0
 11
-40.39426846476587
 21
-444.0140836084248
 31
0.0
  0
LINE
  5
A1
330
1F
100
AcDbEntity
  8
0-7
  6
Continuous
 62
     2
370
     9
100
AcDbLine
 10
-19.07391621728991
 20
-450.2391534571519
 30
0.0
 11
-10.39396368174692
 21
-464.0141766929296
 31
0.0
  0
LINE
  5
A2
330
1F
100
AcDbEntity
  8
0-7
  6
Continuous
 62
     2
370
     9
100
AcDbLine
 10
-10.39396368174692
 20
-470.3475890499015
 30
0.0
 11
-10.39396368174692
 21
-476.6810014068734
 31
0.0
  0
LINE
  5
A3
330
1F
100
AcDbEntity
  8
0-7
  6
Continuous
 62
     2
370
     9
100
AcDbLine
 10
42.89998037391598
 20
-444.0140836084248
 30
0.0
 11
52.93949926292299
 21
-444.0140836084248
 31
0.0
  0
LINE
  5
A4
330
1F
100
AcDbEntity
  8
0-7
  6
Continuous
 62
     2
370
     9
100
AcDbLine
 10
31.61980764049645
 20
-450.2391534571519
 30
0.0
 11
22.93985510495332
 21
-464.0141766929296
 31
0.0
  0
LINE
  5
A5
330
1F
100
AcDbEntity
  8
0-7
  6
Continuous
 62
     2
370
     9
100
AcDbLine
 10
22.93985510495332
 20
-470.3475890499015
 30
0.0
 11
22.93985510495332
 21
-476.6810014068734
 31
0.0
  0
LINE
  5
A6
330
1F
100
AcDbEntity
  8
0-7
  6
Continuous
 62
     2
370
     9
100
AcDbLine
 10
-10.39396368174692
 20
-470.3475890499015
 30
0.0
 11
-4.805075756432586
 21
-470.3475890499015
 31
0.0
  0
LINE
  5
A7
330
1F
100
AcDbEntity
  8
0-7
  6
Continuous
 62
     2
370
     9
100
AcDbLine
 10
17.35096717963899
 20
-470.3475890499015
 30
0.0
 11
22.93985510495332
 21
-470.3475890499015
 31
0.0
  0
LINE
  5
A8
330
1F
100
AcDbEntity
  8
0-7
  6
Continuous
 62
     2
370
     9
100
AcDbLine
 10
-10.39396368174692
 20
-464.0141766929296
 30
0.0
 11
-7.060449678067187
 21
-464.0141766929296
 31
0.0
  0
LINE
  5
A9
330
1F
100
AcDbEntity
  8
0-7
  6
Continuous
 62
     2
370
     9
100
AcDbLine
 10
19.60634110127359
 20
-464.0141766929296
 30
0.0
 11
22.93985510495332
 21
-464.0141766929296
 31
0.0
  0
LINE
  5
AA
330
1F
100
AcDbEntity
  8
0-7
  6
Continuous
 62
     2
370
     9
100
AcDbLine
 10
25.60613780785644
 20
-480.6807557737543
 30
0.0
 11
19.60634110127359
 21
-480.6807557737543
 31
0.0
  0
LINE
  5
AB
330
1F
100
AcDbEntity
  8
0-7
  6
Continuous
 62
     2
370
     9
100
AcDbLine
 10
-7.060449678067187
 20
-480.6807557737543
 30
0.0
 11
-13.06024638465004
 21
-480.6807557737543
 31
0.0
  0
LINE
  5
AC
330
1F
100
AcDbEntity
  8
0-7
  6
Continuous
 62
     6
370
     9
100
AcDbLine
 10
-260.3936408316929
 20
-507.3475465530939
 30
0.0
 11
-7.060449678067187
 21
-507.3475465530939
 31
0.0
  0
LINE
  5
AD
330
1F
100
AcDbEntity
  8
0-7
  6
Continuous
 62
     6
370
     9
100
AcDbLine
 10
19.60634110127359
 20
-507.3475465530939
 30
0.0
 11
272.9395322548994
 21
-507.3475465530939
 31
0.0
  0
LINE
  5
AE
330
1F
100
AcDbEntity
  8
0-7
  6
Continuous
 62
     6
370
     9
100
AcDbLine
 10
-260.3936408316929
 20
-488.3476397947036
 30
0.0
 11
-7.060449678067187
 21
-488.3476397947036
 31
0.0
  0
LINE
  5
AF
330
1F
100
AcDbEntity
  8
0-7
  6
Continuous
 62
     6
370
     9
100
AcDbLine
 10
19.60634110127359
 20
-488.3476397947036
 30
0.0
 11
272.9395322548994
 21
-488.3476397947036
 31
0.0
  0
LINE
  5
B0
330
1F
100
AcDbEntity
  8
0-7
  6
Continuous
 62
     6
370
     9
100
AcDbLine
 10
-260.3936408316929
 20
-480.6807557737543
 30
0.0
 11
-7.060449678067187
 21
-480.6807557737543
 31
0.0
  0
LINE
  5
B1
330
1F
100
AcDbEntity
  8
0-7
  6
Continuous
 62
     6
370
     9
100
AcDbLine
 10
19.60634110127359
 20
-480.6807557737543
 30
0.0
 11
272.9395322548994
 21
-480.6807557737543
 31
0.0
  0
ARC
  5
B2
330
1F
100
AcDbEntity
  8
0-7
  6
Continuous
 62
     2
370
     9
100
AcDbCircle
 10
-30.35408895070958
 20
-457.3474789980947
 30
0.0
 40
13.33333345607134
100
AcDbArc
 50
32.21649169921875
 51
90.0
  0
ARC
  5
B3
330
1F
100
AcDbEntity
  8
0-7
  6
Continuous
 62
     2
370
     9
100
AcDbCircle
 10
-1.977600541262063
 20
-443.8978135995768
 30
0.0
 40
38.4165156700743
100
AcDbArc
 50
180.1736145019531
 51
253.2320709228515
  0
ARC
  5
B4
330
1F
100
AcDbEntity
  8
0-7
  6
Continuous
 62
     2
370
     9
100
AcDbCircle
 10
-1.977600541262063
 20
-443.8978135995768
 30
0.0
 40
34.41652131049943
100
AcDbArc
 50
180.1736145019531
 51
255.4090423583985
  0
ARC
  5
B5
330
1F
100
AcDbEntity
  8
0-7
  6
Continuous
 62
     2
370
     9
100
AcDbCircle
 10
-11.0605343574727
 20
-476.6810014068734
 30
0.0
 40
0.6666666808678376
100
AcDbArc
 50
308.2657165527344
 51
0.0
  0
ARC
  5
B6
330
1F
100
AcDbEntity
  8
0-7
  6
Continuous
 62
     2
370
     9
100
AcDbCircle
 10
42.89998037391598
 20
-457.3474789980947
 30
0.0
 40
13.33333345607134
100
AcDbArc
 50
90.0
 51
147.7835083007812
  0
ARC
  5
B7
330
1F
100
AcDbEntity
  8
0-7
  6
Continuous
 62
     2
370
     9
100
AcDbCircle
 10
14.5234919644686
 20
-443.8978135995768
 30
0.0
 40
38.4165156700743
100
AcDbArc
 50
286.7679138183594
 51
359.8263702392579
  0
ARC
  5
B8
330
1F
100
AcDbEntity
  8
0-7
  6
Continuous
 62
     2
370
     9
100
AcDbCircle
 10
14.5234919644686
 20
-443.8978135995768
 30
0.0
 40
34.41652131049943
100
AcDbArc
 50
284.5909423828125
 51
359.8263702392578
  0
ARC
  5
B9
330
1F
100
AcDbEntity
  8
0-7
  6
Continuous
 62
     2
370
     9
100
AcDbCircle
 10
23.6064257806791
 20
-476.6810014068734
 30
0.0
 40
0.6666666808678376
100
AcDbArc
 50
180.0
 51
231.7342834472656
  0
ARC
  5
BA
330
1F
100
AcDbEntity
  8
0-7
  6
Continuous
 62
     2
370
     9
100
AcDbCircle
 10
22.93985510495332
 20
-476.6810014068734
 30
0.0
 40
4.000000165849732
100
AcDbArc
 50
213.5567016601563
 51
270.0
  0
ARC
  5
BB
330
1F
100
AcDbEntity
  8
0-7
  6
Continuous
 62
     2
370
     9
100
AcDbCircle
 10
-10.39396368174692
 20
-476.6810014068734
 30
0.0
 40
4.000000165849732
100
AcDbArc
 50
270.0
 51
326.4436187744141
  0
LINE
  5
BC
330
1F
100
AcDbEntity
  8
0-7
  6
Continuous
 62
     4
370
     9
100
AcDbLine
 10
489.6060512431945
 20
-507.3475465530939
 30
0.0
 11
19.60634110127359
 21
-507.3475465530939
 31
0.0
  0
LINE
  5
BD
330
1F
100
AcDbEntity
  8
0-7
  6
Continuous
 62
     4
370
     9
100
AcDbLine
 10
-7.060449678067187
 20
-507.3475465530939
 30
0.0
 11
-477.0608204450389
 21
-507.3475465530939
 31
0.0
  0
LINE
  5
BE
330
1F
100
AcDbEntity
  8
0-5
  6
Continuous
 62
     7
370
     9
100
AcDbLine
 10
-168.5747122737145
 20
-221.9990423945984
 30
0.0
 11
-433.5618995489618
 21
-221.9990423945984
 31
0.0
  0
LINE
  5
BF
330
1F
100
AcDbEntity
  8
0-5
  6
Continuous
 62
     7
370
     9
100
AcDbLine
 10
-40.39426846476587
 20
-444.0140836084248
 30
0.0
 11
-168.5747122737145
 21
-221.9990423945984
 31
0.0
  0
LINE
  5
C0
330
1F
100
AcDbEntity
  8
0-7
  6
Continuous
 62
     4
370
     9
100
AcDbLine
 10
-7.060449678067187
 20
-607.3475465530939
 30
0.0
 11
-452.0606718045048
 21
-607.3475465530939
 31
0.0
  0
LINE
  5
C1
330
1F
100
AcDbEntity
  8
0-7
  6
Continuous
 62
     4
370
     9
100
AcDbLine
 10
464.6062494309663
 20
-607.3475465530939
 30
0.0
 11
19.60634110127359
 21
-607.3475465530939
 31
0.0
  0
LINE
  5
C2
330
1F
100
AcDbEntity
  8
0-7
  6
Continuous
 62
     4
370
     9
100
AcDbLine
 10
-477.0608204450389
 20
-507.3475465530939
 30
0.0
 11
-452.0606718045048
 21
-607.3475465530939
 31
0.0
  0
LINE
  5
C3
330
1F
100
AcDbEntity
  8
0-7
  6
Continuous
 62
     4
370
     9
100
AcDbLine
 10
464.6062494309663
 20
-607.3475465530939
 30
0.0
 11
489.6060512431945
 21
-507.3475465530939
 31
0.0
  0
LINE
  5
C4
330
1F
100
AcDbEntity
  8
0-7
  6
Continuous
 62
     4
370
     9
100
AcDbLine
 10
-10.39396368174692
 20
-507.3475465530939
 30
0.0
 11
-10.39396368174692
 21
-607.3475465530939
 31
0.0
  0
LINE
  5
C5
330
1F
100
AcDbEntity
  8
0-7
  6
Continuous
 62
     4
370
     9
100
AcDbLine
 10
22.93985510495332
 20
-507.3475465530939
 30
0.0
 11
22.93985510495332
 21
-607.3475465530939
 31
0.0
  0
ARC
  5
C6
330
1F
100
AcDbEntity
  8
0-C
  6
Continuous
 62
     2
370
     9
100
AcDbCircle
 10
22.93985510495332
 20
-618.6815602281107
 30
0.0
 40
5.66666684785865
100
AcDbArc
 50
189.5361938476562
 51
270.0
  0
ARC
  5
C7
330
1F
100
AcDbEntity
  8
0-C
  6
Continuous
 62
     2
370
     9
100
AcDbCircle
 10
-10.39396368174692
 20
-618.6815602281107
 30
0.0
 40
5.66666684785865
100
AcDbArc
 50
270.0
 51
350.4709777832031
  0
ARC
  5
C8
330
1F
100
AcDbEntity
  8
0-C
  6
Continuous
 62
     2
370
     9
100
AcDbCircle
 10
110.6252786528037
 20
-657.6815600710063
 30
0.0
 40
6.666666728035669
100
AcDbArc
 50
270.0
 51
350.5371856689453
  0
ARC
  5
C9
330
1F
100
AcDbEntity
  8
0-C
  6
Continuous
 62
     2
370
     9
100
AcDbCircle
 10
79.60629004226234
 20
-657.6815600710063
 30
0.0
 40
6.666666728035669
100
AcDbArc
 50
180.0
 51
270.0
  0
ARC
  5
CA
330
1F
100
AcDbEntity
  8
0-C
  6
Continuous
 62
     2
370
     9
100
AcDbCircle
 10
-98.07938722959733
 20
-657.6815600710063
 30
0.0
 40
6.666666728035669
100
AcDbArc
 50
189.4628143310547
 51
270.0
  0
ARC
  5
CB
330
1F
100
AcDbEntity
  8
0-C
  6
Continuous
 62
     2
370
     9
100
AcDbCircle
 10
-67.0603986190558
 20
-657.6815600710063
 30
0.0
 40
6.666666728035669
100
AcDbArc
 50
270.0
 51
0.0
  0
ARC
  5
CC
330
1F
100
AcDbEntity
  8
0-C
  6
Continuous
 62
     2
370
     9
100
AcDbCircle
 10
-10.39396368174692
 20
-618.6815602281107
 30
0.0
 40
1.666666682008917
100
AcDbArc
 50
270.0
 51
0.0
  0
ARC
  5
CD
330
1F
100
AcDbEntity
  8
0-C
  6
Continuous
 62
     2
370
     9
100
AcDbCircle
 10
22.93985510495332
 20
-618.6815602281107
 30
0.0
 40
1.666666682008917
100
AcDbArc
 50
180.0
 51
270.0
  0
ARC
  5
CE
330
1F
100
AcDbEntity
  8
0-8
  6
Continuous
 62
     4
370
     9
100
AcDbCircle
 10
153.5196631670604
 20
-631.0142738228789
 30
0.0
 40
6.666666728035669
100
AcDbArc
 50
90.0
 51
174.9999847412109
  0
ARC
  5
CF
330
1F
100
AcDbEntity
  8
0-8
  6
Continuous
 62
     4
370
     9
100
AcDbCircle
 10
172.3606896008607
 20
-631.0142738228789
 30
0.0
 40
6.666666728035669
100
AcDbArc
 50
5.000015258789053
 51
89.99999999999999
  0
ARC
  5
D0
330
1F
100
AcDbEntity
  8
0-0
  6
JWW_DASHED1
 62
     3
370
     9
100
AcDbCircle
 10
-133.4109361683238
 20
-696.0402581463484
 30
0.0
 40
6.666666728035669
100
AcDbArc
 50
17.68864440917968
 51
86.00016784667967
  0
ARC
  5
D1
330
1F
100
AcDbEntity
  8
0-0
  6
JWW_DASHED1
 62
     3
370
     9
100
AcDbCircle
 10
-155.3846465905208
 20
-664.4303404283378
 30
0.0
 40
23.33333096755824
100
AcDbArc
 50
187.0001678466797
 51
265.9997406005859
  0
ARC
  5
D2
330
1F
100
AcDbEntity
  8
0-0
  6
JWW_DASHED1
 62
     3
370
     9
100
AcDbCircle
 10
145.9588094666813
 20
-696.0402581463484
 30
0.0
 40
6.666666728035669
100
AcDbArc
 50
93.99983215332037
 51
162.3113555908203
  0
ARC
  5
D3
330
1F
100
AcDbEntity
  8
0-0
  6
JWW_DASHED1
 62
     3
370
     9
100
AcDbCircle
 10
167.9325198888785
 20
-664.4303404283378
 30
0.0
 40
23.33333096755824
100
AcDbArc
 50
274.0002593994141
 51
352.9998321533203
  0
ARC
  5
D4
330
1F
100
AcDbEntity
  8
0-0
  6
Continuous
 62
     3
370
     9
100
AcDbCircle
 10
249.9973455090013
 20
-614.0144094041913
 30
0.0
 40
3.333333364017835
100
AcDbArc
 50
7.124267578125002
 51
90.0
  0
ARC
  5
D5
330
1F
100
AcDbEntity
  8
0-0
  6
Continuous
 62
     3
370
     9
100
AcDbCircle
 10
-237.4501328356932
 20
-614.0144094041913
 30
0.0
 40
3.333333364017835
100
AcDbArc
 50
90.0
 51
172.875732421875
  0
ARC
  5
D6
330
1F
100
AcDbEntity
  8
0-0
  6
Continuous
 62
     3
370
     9
100
AcDbCircle
 10
219.2049512907029
 20
-673.1325064811966
 30
0.0
 40
36.66666700419619
100
AcDbArc
 50
62.25660705566405
 51
108.0005493164062
  0
ARC
  5
D7
330
1F
100
AcDbEntity
  8
0-0
  6
Continuous
 62
     3
370
     9
100
AcDbCircle
 10
-206.6570779923469
 20
-673.1325064811966
 30
0.0
 40
36.66666700419619
100
AcDbArc
 50
72.00022888183592
 51
117.7433776855469
  0
ARC
  5
D8
330
1F
100
AcDbEntity
  8
0-0
  6
Continuous
 62
     3
370
     9
100
AcDbCircle
 10
-175.9505650305834
 20
-705.6807595049895
 30
0.0
 40
5.000000046026752
100
AcDbArc
 50
186.7625885009766
 51
270.0
  0
ARC
  5
D9
330
1F
100
AcDbEntity
  8
0-0
  6
JWW_CENTER1
 62
     3
370
     9
100
AcDbCircle
 10
-180.3932684936736
 20
-767.3475480259501
 30
0.0
 40
16.66666682008918
100
AcDbArc
 50
270.0
 51
0.0
  0
ARC
  5
DA
330
1F
100
AcDbEntity
  8
0-0
  6
Continuous
 62
     3
370
     9
100
AcDbCircle
 10
-180.3926078686228
 20
-767.3475480259501
 30
0.0
 40
26.66666691214268
100
AcDbArc
 50
270.0
 51
0.0
  0
ARC
  5
DB
330
1F
100
AcDbEntity
  8
0-0
  6
Continuous
 62
     3
370
     9
100
AcDbCircle
 10
-180.3926078686228
 20
-767.3475480259501
 30
0.0
 40
6.666666728035669
100
AcDbArc
 50
270.0
 51
0.0
  0
ARC
  5
DC
330
1F
100
AcDbEntity
  8
0-0
  6
Continuous
 62
     3
370
     9
100
AcDbCircle
 10
167.1648735804604
 20
-670.6811746540254
 30
0.0
 40
23.33333096755824
100
AcDbArc
 50
270.0
 51
352.9994812011719
  0
ARC
  5
DD
330
1F
100
AcDbEntity
  8
0-0
  6
Continuous
 62
     3
370
     9
100
AcDbCircle
 10
-162.3152639929386
 20
-649.0143245676808
 30
0.0
 40
5.000000046026752
100
AcDbArc
 50
187.0002746582031
 51
270.0
  0
ARC
  5
DE
330
1F
100
AcDbEntity
  8
0-0
  6
Continuous
 62
     3
370
     9
100
AcDbCircle
 10
-123.2544866454195
 20
-671.6893710588744
 30
0.0
 40
5.000000046026752
100
AcDbArc
 50
196.5590972900391
 51
266.0006408691406
  0
ARC
  5
DF
330
1F
100
AcDbEntity
  8
0-0
  6
Continuous
 62
     3
370
     9
100
AcDbCircle
 10
-137.4559433511486
 20
-659.0142885318016
 30
0.0
 40
5.000000046026752
100
AcDbArc
 50
16.55908203125
 51
90.0
  0
ARC
  5
E0
330
1F
100
AcDbEntity
  8
0-0
  6
JWW_DASHED1
 62
     3
370
     9
100
AcDbCircle
 10
-190.7069467785433
 20
-650.2763661480969
 30
0.0
 40
10.0000000920535
100
AcDbArc
 50
7.000167846679695
 51
71.99978637695314
  0
ARC
  5
E1
330
1F
100
AcDbEntity
  8
0-0
  6
Continuous
 62
     3
370
     9
100
AcDbCircle
 10
-88.17661772599763
 20
-702.544772391341
 30
0.0
 40
23.33333096755824
100
AcDbArc
 50
4.085601806640622
 51
86.00007629394531
  0
ARC
  5
E2
330
1F
100
AcDbEntity
  8
0-0
  6
Continuous
 62
     3
370
     9
100
AcDbCircle
 10
100.7238303993043
 20
-702.544772391341
 30
0.0
 40
23.33333096755824
100
AcDbArc
 50
94.00021362304693
 51
175.9143981933594
  0
ARC
  5
E3
330
1F
100
AcDbEntity
  8
0-0
  6
JWW_DASHED1
 62
     3
370
     9
100
AcDbCircle
 10
-155.3846465905208
 20
-664.4303404283378
 30
0.0
 40
10.0000000920535
100
AcDbArc
 50
187.0001678466797
 51
265.9997406005859
  0
ARC
  5
E4
330
1F
100
AcDbEntity
  8
0-0
  6
Continuous
 62
     3
370
     9
100
AcDbCircle
 10
174.8624766662468
 20
-649.0143245676808
 30
0.0
 40
5.000000046026752
100
AcDbArc
 50
270.0
 51
352.9997253417969
  0
ARC
  5
E5
330
1F
100
AcDbEntity
  8
0-0
  6
Continuous
 62
     3
370
     9
100
AcDbCircle
 10
135.8016993187262
 20
-671.6893710588744
 30
0.0
 40
5.000000046026752
100
AcDbArc
 50
273.9993591308594
 51
343.4409027099609
  0
ARC
  5
E6
330
1F
100
AcDbEntity
  8
0-0
  6
Continuous
 62
     3
370
     9
100
AcDbCircle
 10
150.0031560244554
 20
-659.0142885318016
 30
0.0
 40
5.000000046026752
100
AcDbArc
 50
90.0
 51
163.4409027099609
  0
ARC
  5
E7
330
1F
100
AcDbEntity
  8
0-0
  6
Continuous
 62
     3
370
     9
100
AcDbCircle
 10
-126.2940225017265
 20
-699.0145572789424
 30
0.0
 40
5.000000046026752
100
AcDbArc
 50
90.0
 51
168.6898803710938
  0
ARC
  5
E8
330
1F
100
AcDbEntity
  8
0-0
  6
Continuous
 62
     3
370
     9
100
AcDbCircle
 10
-137.8252327542505
 20
-705.6807595049895
 30
0.0
 40
5.000000046026752
100
AcDbArc
 50
270.0
 51
348.689697265625
  0
ARC
  5
E9
330
1F
100
AcDbEntity
  8
0-0
  6
Continuous
 62
     3
370
     9
100
AcDbCircle
 10
-194.8437808433562
 20
-645.426965388433
 30
0.0
 40
6.666666728035669
100
AcDbArc
 50
6.762680053710941
 51
71.99925231933594
  0
ARC
  5
EA
330
1F
100
AcDbEntity
  8
0-0
  6
Continuous
 62
     3
370
     9
100
AcDbCircle
 10
106.5545070930189
 20
-714.014379357927
 30
0.0
 40
16.66666682008918
100
AcDbArc
 50
90.0
 51
175.9143371582031
  0
ARC
  5
EB
330
1F
100
AcDbEntity
  8
0-0
  6
JWW_DASHED1
 62
     3
370
     9
100
AcDbCircle
 10
167.9325198888785
 20
-664.4303404283378
 30
0.0
 40
10.0000000920535
100
AcDbArc
 50
274.0002593994141
 51
352.9998321533203
  0
ARC
  5
EC
330
1F
100
AcDbEntity
  8
0-0
  6
Continuous
 62
     3
370
     9
100
AcDbCircle
 10
203.2541594518499
 20
-650.2763661480969
 30
0.0
 40
10.0000000920535
100
AcDbArc
 50
108.0002136230468
 51
172.9998321533203
  0
ARC
  5
ED
330
1F
100
AcDbEntity
  8
0-0
  6
Continuous
 62
     3
370
     9
100
AcDbCircle
 10
205.5564377520533
 20
-614.4792417051898
 30
0.0
 40
10.0000000920535
100
AcDbArc
 50
191.2307891845703
 51
288.0005187988281
  0
ARC
  5
EE
330
1F
100
AcDbEntity
  8
0-0
  6
Continuous
 62
     3
370
     9
100
AcDbCircle
 10
-94.00663379466138
 20
-714.014379357927
 30
0.0
 40
16.66666682008918
100
AcDbArc
 50
4.085662841796871
 51
90.0
  0
ARC
  5
EF
330
1F
100
AcDbEntity
  8
0-0
  6
Continuous
 62
     3
370
     9
100
AcDbCircle
 10
-193.0092250787467
 20
-614.4792417051898
 30
0.0
 40
10.0000000920535
100
AcDbArc
 50
251.9994812011719
 51
348.7692108154297
  0
LINE
  5
F0
330
1F
100
AcDbEntity
  8
0-0
  6
Continuous
 62
     3
370
     9
100
AcDbLine
 10
19.60634110127359
 20
-834.0143598180364
 30
0.0
 11
81.27370766915305
 21
-834.0143598180364
 31
0.0
  0
LINE
  5
F1
330
1F
100
AcDbEntity
  8
0-0
  6
Continuous
 62
     3
370
     9
100
AcDbLine
 10
-68.72649499584483
 20
-834.0143598180364
 30
0.0
 11
-7.060449678067187
 21
-834.0143598180364
 31
0.0
  0
LINE
  5
F2
330
1F
100
AcDbEntity
  8
0-0
  6
Continuous
 62
     3
370
     9
100
AcDbLine
 10
-7.060449678067187
 20
-679.2114956156818
 30
0.0
 11
-88.17661772599763
 21
-679.2114956156818
 31
0.0
  0
LINE
  5
F3
330
1F
100
AcDbEntity
  8
0-0
  6
Continuous
 62
     3
370
     9
100
AcDbLine
 10
100.7238303993043
 20
-679.2114956156818
 30
0.0
 11
19.60634110127359
 21
-679.2114956156818
 31
0.0
  0
LINE
  5
F4
330
1F
100
AcDbEntity
  8
0-3
  6
Continuous
 62
     6
370
     9
100
AcDbLine
 10
-7.060449678067187
 20
-607.3475465530939
 30
0.0
 11
-271.2259097810272
 21
-607.3475465530939
 31
0.0
  0
LINE
  5
F5
330
1F
100
AcDbEntity
  8
0-3
  6
Continuous
 62
     6
370
     9
100
AcDbLine
 10
283.7737830793847
 20
-607.3475465530939
 30
0.0
 11
19.60634110127359
 21
-607.3475465530939
 31
0.0
  0
LINE
  5
F6
330
1F
100
AcDbEntity
  8
0-3
  6
Continuous
 62
     6
370
     9
100
AcDbLine
 10
-7.060449678067187
 20
-610.6810605567737
 30
0.0
 11
-241.2262656230575
 21
-610.6810605567737
 31
0.0
  0
LINE
  5
F7
330
1F
100
AcDbEntity
  8
0-3
  6
Continuous
 62
     6
370
     9
100
AcDbLine
 10
253.7734782963642
 20
-610.6810605567737
 30
0.0
 11
19.60634110127359
 21
-610.6810605567737
 31
0.0
  0
LINE
  5
F8
330
1F
100
AcDbEntity
  8
0-0
  6
Continuous
 62
     3
370
     9
100
AcDbLine
 10
19.60634110127359
 20
-610.6810605567737
 30
0.0
 11
249.9973455090013
 21
-610.6810605567737
 31
0.0
  0
LINE
  5
F9
330
1F
100
AcDbEntity
  8
0-0
  6
Continuous
 62
     3
370
     9
100
AcDbLine
 10
-237.4501328356932
 20
-610.6810605567737
 30
0.0
 11
-7.060449678067187
 21
-610.6810605567737
 31
0.0
  0
LINE
  5
FA
330
1F
100
AcDbEntity
  8
0-0
  6
Continuous
 62
     3
370
     9
100
AcDbLine
 10
171.2733007681113
 20
-677.3477071925979
 30
0.0
 11
171.2733007681113
 21
-679.6514718991637
 31
0.0
  0
LINE
  5
FB
330
1F
100
AcDbEntity
  8
0-0
  6
Continuous
 62
     3
370
     9
100
AcDbLine
 10
172.9400577699512
 20
-675.6817759720705
 30
0.0
 11
172.9400577699512
 21
-677.3477071925979
 31
0.0
  0
LINE
  5
FC
330
1F
100
AcDbEntity
  8
0-0
  6
Continuous
 62
     3
370
     9
100
AcDbLine
 10
154.6070519998113
 20
-677.3477071925979
 30
0.0
 11
154.6070519998113
 21
-679.6514718991637
 31
0.0
  0
LINE
  5
FD
330
1F
100
AcDbEntity
  8
0-0
  6
Continuous
 62
     3
370
     9
100
AcDbLine
 10
154.6070519998113
 20
-679.6514718991637
 30
0.0
 11
162.9401763839613
 21
-684.4628041403058
 31
0.0
  0
LINE
  5
FE
330
1F
100
AcDbEntity
  8
0-0
  6
Continuous
 62
     3
370
     9
100
AcDbLine
 10
152.9402949979715
 20
-675.6811153470204
 30
0.0
 11
152.9402949979715
 21
-677.3477071925979
 31
0.0
  0
LINE
  5
FF
330
1F
100
AcDbEntity
  8
0-C
  6
Continuous
 62
     2
370
     9
100
AcDbLine
 10
21.27309810311345
 20
-612.014532220751
 30
0.0
 11
17.35096717963899
 21
-612.014532220751
 31
0.0
  0
LINE
  5
100
330
1F
100
AcDbEntity
  8
0-C
  6
Continuous
 62
     2
370
     9
100
AcDbLine
 10
-4.805075756432586
 20
-612.014532220751
 30
0.0
 11
-8.727206679907056
 21
-612.014532220751
 31
0.0
  0
LINE
  5
101
330
1F
100
AcDbEntity
  8
0-C
  6
Continuous
 62
     2
370
     9
100
AcDbLine
 10
-7.060449678067187
 20
-624.347741284307
 30
0.0
 11
-160.3935057216938
 21
-624.347741284307
 31
0.0
  0
LINE
  5
102
330
1F
100
AcDbEntity
  8
0-C
  6
Continuous
 62
     2
370
     9
100
AcDbLine
 10
172.9393971449004
 20
-624.347741284307
 30
0.0
 11
19.60634110127359
 21
-624.347741284307
 31
0.0
  0
LINE
  5
103
330
1F
100
AcDbEntity
  8
0-C
  6
Continuous
 62
     2
370
     9
100
AcDbLine
 10
-7.060449678067187
 20
-612.014532220751
 30
0.0
 11
-7.060449678067187
 21
-623.263655576808
 31
0.0
  0
LINE
  5
104
330
1F
100
AcDbEntity
  8
0-C
  6
Continuous
 62
     2
370
     9
100
AcDbLine
 10
19.60634110127359
 20
-612.014532220751
 30
0.0
 11
19.60634110127359
 21
-623.263655576808
 31
0.0
  0
LINE
  5
105
330
1F
100
AcDbEntity
  8
0-C
  6
Continuous
 62
     2
370
     9
100
AcDbLine
 10
117.201140403226
 20
-658.7775370294099
 30
0.0
 11
122.939990214951
 21
-624.347741284307
 31
0.0
  0
LINE
  5
106
330
1F
100
AcDbEntity
  8
0-C
  6
Continuous
 62
     2
370
     9
100
AcDbLine
 10
110.6252786528037
 20
-664.3482577658413
 30
0.0
 11
79.60629004226234
 21
-664.3482577658413
 31
0.0
  0
LINE
  5
107
330
1F
100
AcDbEntity
  8
0-C
  6
Continuous
 62
     2
370
     9
100
AcDbLine
 10
72.93992265995215
 20
-657.6815600710063
 30
0.0
 11
72.93992265995215
 21
-624.347741284307
 31
0.0
  0
LINE
  5
108
330
1F
100
AcDbEntity
  8
0-C
  6
Continuous
 62
     2
370
     9
100
AcDbLine
 10
-104.6552489800195
 20
-658.7775370294099
 30
0.0
 11
-110.3940987917444
 21
-624.347741284307
 31
0.0
  0
LINE
  5
109
330
1F
100
AcDbEntity
  8
0-C
  6
Continuous
 62
     2
370
     9
100
AcDbLine
 10
-98.07938722959733
 20
-664.3482577658413
 30
0.0
 11
-67.0603986190558
 21
-664.3482577658413
 31
0.0
  0
LINE
  5
10A
330
1F
100
AcDbEntity
  8
0-C
  6
Continuous
 62
     2
370
     9
100
AcDbLine
 10
-60.3940312367456
 20
-657.6815600710063
 30
0.0
 11
-60.3940312367456
 21
-624.347741284307
 31
0.0
  0
LINE
  5
10B
330
1F
100
AcDbEntity
  8
0-C
  6
Continuous
 62
     2
370
     9
100
AcDbLine
 10
-10.39396368174692
 20
-620.3483172299506
 30
0.0
 11
-160.3935057216938
 21
-620.3483172299506
 31
0.0
  0
LINE
  5
10C
330
1F
100
AcDbEntity
  8
0-C
  6
Continuous
 62
     2
370
     9
100
AcDbLine
 10
-8.727206679907056
 20
-618.6815602281107
 30
0.0
 11
-8.727206679907056
 21
-612.014532220751
 31
0.0
  0
LINE
  5
10D
330
1F
100
AcDbEntity
  8
0-C
  6
Continuous
 62
     2
370
     9
100
AcDbLine
 10
21.27309810311345
 20
-618.6815602281107
 30
0.0
 11
21.27309810311345
 21
-612.014532220751
 31
0.0
  0
LINE
  5
10E
330
1F
100
AcDbEntity
  8
0-C
  6
Continuous
 62
     2
370
     9
100
AcDbLine
 10
22.93985510495332
 20
-620.3483172299506
 30
0.0
 11
172.9393971449004
 21
-620.3483172299506
 31
0.0
  0
LINE
  5
10F
330
1F
100
AcDbEntity
  8
0-C
  6
Continuous
 62
     2
370
     9
100
AcDbLine
 10
-160.3935057216938
 20
-620.3483172299506
 30
0.0
 11
-160.3935057216938
 21
-624.347741284307
 31
0.0
  0
LINE
  5
110
330
1F
100
AcDbEntity
  8
0-C
  6
Continuous
 62
     2
370
     9
100
AcDbLine
 10
172.9393971449004
 20
-624.347741284307
 30
0.0
 11
172.9393971449004
 21
-620.3483172299506
 31
0.0
  0
LINE
  5
111
330
1F
100
AcDbEntity
  8
0-3
  6
Continuous
 62
     6
370
     9
100
AcDbLine
 10
19.94061737671132
 20
-604.0146931744642
 30
0.0
 11
19.94061737671132
 21
-607.348207178144
 31
0.0
  0
LINE
  5
112
330
1F
100
AcDbEntity
  8
0-3
  6
Continuous
 62
     6
370
     9
100
AcDbLine
 10
-7.392744078353815
 20
-604.0146931744642
 30
0.0
 11
-7.392744078353815
 21
-607.348207178144
 31
0.0
  0
LINE
  5
113
330
1F
100
AcDbEntity
  8
0-3
  6
Continuous
 62
     6
370
     9
100
AcDbLine
 10
283.7737830793847
 20
-607.3475465530939
 30
0.0
 11
275.4406586952347
 21
-634.0145024886963
 31
0.0
  0
LINE
  5
114
330
1F
100
AcDbEntity
  8
0-3
  6
Continuous
 62
     6
370
     9
100
AcDbLine
 10
-271.2259097810272
 20
-607.3475465530939
 30
0.0
 11
-262.8934460219266
 21
-634.0145024886963
 31
0.0
  0
LINE
  5
115
330
1F
100
AcDbEntity
  8
0-3
  6
Continuous
 62
     6
370
     9
100
AcDbLine
 10
257.1069923000439
 20
-634.0145024886963
 30
0.0
 11
253.7734782963642
 21
-610.6810605567737
 31
0.0
  0
LINE
  5
116
330
1F
100
AcDbEntity
  8
0-3
  6
Continuous
 62
     6
370
     9
100
AcDbLine
 10
275.4406586952347
 20
-634.0145024886963
 30
0.0
 11
257.1069923000439
 21
-634.0145024886963
 31
0.0
  0
LINE
  5
117
330
1F
100
AcDbEntity
  8
0-3
  6
Continuous
 62
     6
370
     9
100
AcDbLine
 10
-262.8934460219266
 20
-634.0145024886963
 30
0.0
 11
-244.5597796267373
 21
-634.0145024886963
 31
0.0
  0
LINE
  5
118
330
1F
100
AcDbEntity
  8
0-3
  6
Continuous
 62
     6
370
     9
100
AcDbLine
 10
-244.5597796267373
 20
-634.0145024886963
 30
0.0
 11
-241.2262656230575
 21
-610.6810605567737
 31
0.0
  0
LINE
  5
119
330
1F
100
AcDbEntity
  8
0-9
  6
Continuous
 62
     3
370
     9
100
AcDbLine
 10
-7.059128427965504
 20
-919.014342536525
 30
0.0
 11
-115.3930485471639
 21
-919.014342536525
 31
0.0
  0
LINE
  5
11A
330
1F
100
AcDbEntity
  8
0-9
  6
Continuous
 62
     3
370
     9
100
AcDbLine
 10
127.940261220472
 20
-919.014342536525
 30
0.0
 11
19.60700172632301
 21
-919.014342536525
 31
0.0
  0
LINE
  5
11B
330
1F
100
AcDbEntity
  8
0-9
  6
Continuous
 62
     3
370
     9
100
AcDbLine
 10
19.60700172632301
 20
-922.0142408898166
 30
0.0
 11
80.118935081274
 21
-922.0142408898166
 31
0.0
  0
LINE
  5
11C
330
1F
100
AcDbEntity
  8
0-9
  6
Continuous
 62
     3
370
     9
100
AcDbLine
 10
-67.57172240796734
 20
-922.0142408898166
 30
0.0
 11
-7.059128427965504
 21
-922.0142408898166
 31
0.0
  0
LINE
  5
11D
330
1F
100
AcDbEntity
  8
0-9
  6
Continuous
 62
     3
370
     9
100
AcDbLine
 10
66.27355527764195
 20
-924.0142832295194
 30
0.0
 11
66.27355527764195
 21
-922.0142408898166
 31
0.0
  0
LINE
  5
11E
330
1F
100
AcDbEntity
  8
0-9
  6
Continuous
 62
     3
370
     9
100
AcDbLine
 10
52.94015988797241
 20
-924.0142832295194
 30
0.0
 11
52.94015988797241
 21
-922.0142408898166
 31
0.0
  0
LINE
  5
11F
330
1F
100
AcDbEntity
  8
0-9
  6
Continuous
 62
     3
370
     9
100
AcDbLine
 10
-53.72634260433529
 20
-924.0142832295194
 30
0.0
 11
-53.72634260433529
 21
-922.0142408898166
 31
0.0
  0
LINE
  5
120
330
1F
100
AcDbEntity
  8
0-9
  6
Continuous
 62
     3
370
     9
100
AcDbLine
 10
-40.39294721466575
 20
-924.0142832295194
 30
0.0
 11
-40.39294721466575
 21
-922.0142408898166
 31
0.0
  0
LINE
  5
121
330
1F
100
AcDbEntity
  8
0-9
  6
Continuous
 62
     2
370
     9
100
AcDbLine
 10
-15.39291343716627
 20
-924.0142832295194
 30
0.0
 11
27.94078673552377
 21
-924.0142832295194
 31
0.0
  0
LINE
  5
122
330
1F
100
AcDbEntity
  8
0-9
  6
Continuous
 62
     3
370
     9
100
AcDbLine
 10
21.27375872816287
 20
-924.0142832295194
 30
0.0
 11
21.27375872816287
 21
-922.0142408898166
 31
0.0
  0
LINE
  5
123
330
1F
100
AcDbEntity
  8
0-9
  6
Continuous
 62
     3
370
     9
100
AcDbLine
 10
-8.726546054856215
 20
-924.0142832295194
 30
0.0
 11
-8.726546054856215
 21
-922.0142408898166
 31
0.0
  0
LINE
  5
124
330
1F
100
AcDbEntity
  8
0-9
  6
Continuous
 62
     2
370
     9
100
AcDbLine
 10
27.94078673552377
 20
-927.3477972332
 30
0.0
 11
27.94078673552377
 21
-924.0142832295194
 31
0.0
  0
LINE
  5
125
330
1F
100
AcDbEntity
  8
0-9
  6
Continuous
 62
     2
370
     9
100
AcDbLine
 10
18.29169725122895
 20
-931.5668791167716
 30
0.0
 11
18.29169725122895
 21
-924.0142832295194
 31
0.0
  0
LINE
  5
126
330
1F
100
AcDbEntity
  8
0-9
  6
Continuous
 62
     2
370
     9
100
AcDbLine
 10
22.7727169672346
 20
-931.5668791167716
 30
0.0
 11
18.29169725122895
 21
-931.5668791167716
 31
0.0
  0
LINE
  5
127
330
1F
100
AcDbEntity
  8
0-9
  6
Continuous
 62
     2
370
     9
100
AcDbLine
 10
22.7727169672346
 20
-931.5668791167716
 30
0.0
 11
27.94078673552377
 21
-927.3477972332
 31
0.0
  0
LINE
  5
128
330
1F
100
AcDbEntity
  8
0-9
  6
Continuous
 62
     2
370
     9
100
AcDbLine
 10
26.27336910863306
 20
-944.0143763140247
 30
0.0
 11
26.27336910863306
 21
-928.7083545242378
 31
0.0
  0
LINE
  5
129
330
1F
100
AcDbEntity
  8
0-9
  6
Continuous
 62
     2
370
     9
100
AcDbLine
 10
-15.39291343716627
 20
-927.3477972332
 30
0.0
 11
-15.39291343716627
 21
-924.0142832295194
 31
0.0
  0
LINE
  5
12A
330
1F
100
AcDbEntity
  8
0-9
  6
Continuous
 62
     2
370
     9
100
AcDbLine
 10
-5.744484577922293
 20
-931.5668791167716
 30
0.0
 11
-5.744484577922293
 21
-924.0142832295194
 31
0.0
  0
LINE
  5
12B
330
1F
100
AcDbEntity
  8
0-9
  6
Continuous
 62
     2
370
     9
100
AcDbLine
 10
-10.22550429392638
 20
-931.5668791167716
 30
0.0
 11
-5.744484577922293
 21
-931.5668791167716
 31
0.0
  0
LINE
  5
12C
330
1F
100
AcDbEntity
  8
0-9
  6
Continuous
 62
     2
370
     9
100
AcDbLine
 10
-10.22550429392638
 20
-931.5668791167716
 30
0.0
 11
-15.39291343716627
 21
-927.3477972332
 31
0.0
  0
LINE
  5
12D
330
1F
100
AcDbEntity
  8
0-9
  6
Continuous
 62
     2
370
     9
100
AcDbLine
 10
-13.7261564353264
 20
-944.0140460014993
 30
0.0
 11
-13.7261564353264
 21
-928.7083545242378
 31
0.0
  0
LINE
  5
12E
330
1F
100
AcDbEntity
  8
0-9
  6
Continuous
 62
     2
370
     9
100
AcDbLine
 10
26.27336910863306
 20
-944.0143763140247
 30
0.0
 11
-13.7261564353264
 21
-944.0140460014993
 31
0.0
  0
LINE
  5
12F
330
1F
100
AcDbEntity
  8
0-9
  6
Continuous
 62
     3
370
     9
100
AcDbLine
 10
-113.3933365199866
 20
-921.014384876228
 30
0.0
 11
-70.45865387766185
 21
-921.014384876228
 31
0.0
  0
LINE
  5
130
330
1F
100
AcDbEntity
  8
0-9
  6
Continuous
 62
     3
370
     9
100
AcDbLine
 10
-67.57172240796734
 20
-922.0142408898166
 30
0.0
 11
-69.30388128978436
 21
-919.014342536525
 31
0.0
  0
LINE
  5
131
330
1F
100
AcDbEntity
  8
0-9
  6
Continuous
 62
     3
370
     9
100
AcDbLine
 10
-68.72649499584483
 20
-924.0142832295194
 30
0.0
 11
81.27370766915305
 21
-924.0142832295194
 31
0.0
  0
LINE
  5
132
330
1F
100
AcDbEntity
  8
0-9
  6
Continuous
 62
     3
370
     9
100
AcDbLine
 10
-68.72649499584483
 20
-924.0142832295194
 30
0.0
 11
-70.45865387766185
 21
-921.014384876228
 31
0.0
  0
LINE
  5
133
330
1F
100
AcDbEntity
  8
0-9
  6
Continuous
 62
     3
370
     9
100
AcDbLine
 10
80.118935081274
 20
-922.0142408898166
 30
0.0
 11
81.85109396309102
 21
-919.014342536525
 31
0.0
  0
LINE
  5
134
330
1F
100
AcDbEntity
  8
0-9
  6
Continuous
 62
     3
370
     9
100
AcDbLine
 10
83.00586655097007
 20
-921.014384876228
 30
0.0
 11
125.9405491932932
 21
-921.014384876228
 31
0.0
  0
LINE
  5
135
330
1F
100
AcDbEntity
  8
0-9
  6
Continuous
 62
     3
370
     9
100
AcDbLine
 10
81.27370766915305
 20
-924.0142832295194
 30
0.0
 11
83.00586655097007
 21
-921.014384876228
 31
0.0
  0
LINE
  5
136
330
1F
100
AcDbEntity
  8
0-9
  6
Continuous
 62
     3
370
     9
100
AcDbLine
 10
127.940261220472
 20
-919.014342536525
 30
0.0
 11
127.940261220472
 21
-944.0143763140247
 31
0.0
  0
LINE
  5
137
330
1F
100
AcDbEntity
  8
0-9
  6
Continuous
 62
     3
370
     9
100
AcDbLine
 10
125.9405491932932
 20
-921.014384876228
 30
0.0
 11
125.9405491932932
 21
-944.0143763140247
 31
0.0
  0
LINE
  5
138
330
1F
100
AcDbEntity
  8
0-9
  6
Continuous
 62
     3
370
     9
100
AcDbLine
 10
127.940261220472
 20
-944.0143763140247
 30
0.0
 11
125.9405491932932
 21
-944.0143763140247
 31
0.0
  0
LINE
  5
139
330
1F
100
AcDbEntity
  8
0-9
  6
Continuous
 62
     3
370
     9
100
AcDbLine
 10
-115.3930485471639
 20
-919.014342536525
 30
0.0
 11
-115.3930485471639
 21
-944.0143763140247
 31
0.0
  0
LINE
  5
13A
330
1F
100
AcDbEntity
  8
0-9
  6
Continuous
 62
     3
370
     9
100
AcDbLine
 10
-113.3933365199866
 20
-921.014384876228
 30
0.0
 11
-113.3933365199866
 21
-944.0143763140247
 31
0.0
  0
LINE
  5
13B
330
1F
100
AcDbEntity
  8
0-9
  6
Continuous
 62
     3
370
     9
100
AcDbLine
 10
-115.3930485471639
 20
-944.0143763140247
 30
0.0
 11
-113.3933365199866
 21
-944.0143763140247
 31
0.0
  0
LINE
  5
13C
330
1F
100
AcDbEntity
  8
0-0
  6
Continuous
 62
     3
370
     9
100
AcDbLine
 10
171.2733007681113
 20
-654.0143478388069
 30
0.0
 11
174.8624766662468
 21
-654.0143478388069
 31
0.0
  0
LINE
  5
13D
330
1F
100
AcDbEntity
  8
0-0
  6
Continuous
 62
     3
370
     9
100
AcDbLine
 10
150.0031560244554
 20
-654.0143478388069
 30
0.0
 11
154.6070519998113
 21
-654.0143478388069
 31
0.0
  0
LINE
  5
13E
330
1F
100
AcDbEntity
  8
0-8
  6
JWW_CENTER1
 62
     4
370
     9
100
AcDbLine
 10
162.9401763839613
 20
-607.6620040770241
 30
0.0
 11
162.9401763839613
 21
-683.093989036139
 31
0.0
  0
LINE
  5
13F
330
1F
100
AcDbEntity
  8
0-0
  6
Continuous
 62
     3
370
     9
100
AcDbLine
 10
171.2733007681113
 20
-679.6514718991637
 30
0.0
 11
162.9401763839613
 21
-684.4628041403058
 31
0.0
  0
LINE
  5
140
330
1F
100
AcDbEntity
  8
0-8
  6
Continuous
 62
     4
370
     9
100
AcDbLine
 10
152.9402949979715
 20
-675.6811153470204
 30
0.0
 11
172.9407183950005
 21
-675.6811153470204
 31
0.0
  0
LINE
  5
141
330
1F
100
AcDbEntity
  8
0-8
  6
Continuous
 62
     4
370
     9
100
AcDbLine
 10
172.9400577699512
 20
-637.3476861798509
 30
0.0
 11
172.9400577699512
 21
-675.6811153470204
 31
0.0
  0
LINE
  5
142
330
1F
100
AcDbEntity
  8
0-8
  6
Continuous
 62
     4
370
     9
100
AcDbLine
 10
154.6070519998113
 20
-637.3476861798509
 30
0.0
 11
154.6070519998113
 21
-677.3477071925979
 31
0.0
  0
LINE
  5
143
330
1F
100
AcDbEntity
  8
0-8
  6
Continuous
 62
     4
370
     9
100
AcDbLine
 10
171.2733007681113
 20
-637.3476861798509
 30
0.0
 11
171.2733007681113
 21
-677.3477071925979
 31
0.0
  0
LINE
  5
144
330
1F
100
AcDbEntity
  8
0-8
  6
Continuous
 62
     4
370
     9
100
AcDbLine
 10
152.9396343729206
 20
-637.3476861798509
 30
0.0
 11
152.9396343729206
 21
-675.6811153470204
 31
0.0
  0
LINE
  5
145
330
1F
100
AcDbEntity
  8
0-8
  6
Continuous
 62
     4
370
     9
100
AcDbLine
 10
172.9407183950005
 20
-675.6811153470204
 30
0.0
 11
171.2733007681113
 21
-677.3477071925979
 31
0.0
  0
LINE
  5
146
330
1F
100
AcDbEntity
  8
0-8
  6
Continuous
 62
     4
370
     9
100
AcDbLine
 10
154.6070519998113
 20
-677.3477071925979
 30
0.0
 11
171.2733007681113
 21
-677.3477071925979
 31
0.0
  0
LINE
  5
147
330
1F
100
AcDbEntity
  8
0-8
  6
Continuous
 62
     4
370
     9
100
AcDbLine
 10
154.6070519998113
 20
-677.3477071925979
 30
0.0
 11
152.9402949979715
 21
-675.6811153470204
 31
0.0
  0
LINE
  5
148
330
1F
100
AcDbEntity
  8
0-8
  6
Continuous
 62
     4
370
     9
100
AcDbLine
 10
146.878399536661
 20
-630.4334192474258
 30
0.0
 11
146.2739276156613
 21
-637.3476861798509
 31
0.0
  0
LINE
  5
149
330
1F
100
AcDbEntity
  8
0-8
  6
Continuous
 62
     4
370
     9
100
AcDbLine
 10
146.2739276156613
 20
-637.3476861798509
 30
0.0
 11
179.6064251522598
 21
-637.3476861798509
 31
0.0
  0
LINE
  5
14A
330
1F
100
AcDbEntity
  8
0-8
  6
Continuous
 62
     4
370
     9
100
AcDbLine
 10
153.5196631670604
 20
-624.347741284307
 30
0.0
 11
172.3606896008607
 21
-624.347741284307
 31
0.0
  0
LINE
  5
14B
330
1F
100
AcDbEntity
  8
0-8
  6
Continuous
 62
     4
370
     9
100
AcDbLine
 10
179.0019532312601
 20
-630.4334192474258
 30
0.0
 11
179.6064251522598
 21
-637.3476861798509
 31
0.0
  0
LINE
  5
14C
330
1F
100
AcDbEntity
  8
0-3
  6
Continuous
 62
     4
370
     9
100
AcDbLine
 10
131.2737752241517
 20
-694.0142862734226
 30
0.0
 11
131.2737752241517
 21
-944.0143763140247
 31
0.0
  0
LINE
  5
14D
330
1F
100
AcDbEntity
  8
0-3
  6
Continuous
 62
     4
370
     9
100
AcDbLine
 10
139.6068996083018
 20
-694.0142862734226
 30
0.0
 11
139.6068996083018
 21
-944.0143763140247
 31
0.0
  0
LINE
  5
14E
330
1F
100
AcDbEntity
  8
0-3
  6
Continuous
 62
     4
370
     9
100
AcDbLine
 10
-127.0596869349936
 20
-694.0142862734226
 30
0.0
 11
-127.0596869349936
 21
-944.0143763140247
 31
0.0
  0
LINE
  5
14F
330
1F
100
AcDbEntity
  8
0-3
  6
Continuous
 62
     4
370
     9
100
AcDbLine
 10
-118.7259019257942
 20
-694.0142862734226
 30
0.0
 11
-118.7259019257942
 21
-944.0143763140247
 31
0.0
  0
LINE
  5
150
330
1F
100
AcDbEntity
  8
0-0
  6
Continuous
 62
     3
370
     9
100
AcDbLine
 10
77.45000987816894
 20
-700.882309452328
 30
0.0
 11
67.94031227948182
 21
-834.0143598180364
 31
0.0
  0
LINE
  5
151
330
1F
100
AcDbEntity
  8
0-0
  6
Continuous
 62
     3
370
     9
100
AcDbLine
 10
99.09671090048008
 20
-679.2683919481368
 30
0.0
 11
136.1505093452702
 21
-676.6772553447015
 31
0.0
  0
LINE
  5
152
330
1F
100
AcDbEntity
  8
0-0
  6
Continuous
 62
     3
370
     9
100
AcDbLine
 10
190.3237453428478
 20
-673.5250829173217
 30
0.0
 11
193.3289286965415
 21
-649.0575129303426
 31
0.0
  0
LINE
  5
153
330
1F
100
AcDbEntity
  8
0-0
  6
Continuous
 62
     3
370
     9
100
AcDbLine
 10
200.1637554666706
 20
-640.7659253462282
 30
0.0
 11
207.8739104284124
 21
-638.2605874211978
 31
0.0
  0
LINE
  5
154
330
1F
100
AcDbEntity
  8
0-0
  6
Continuous
 62
     3
370
     9
100
AcDbLine
 10
167.1648735804604
 20
-694.0146165859474
 30
0.0
 11
124.6074078418417
 21
-694.0146165859474
 31
0.0
  0
LINE
  5
155
330
1F
100
AcDbEntity
  8
0-0
  6
JWW_DASHED1
 62
     3
370
     9
100
AcDbLine
 10
145.4937294312879
 20
-689.3897457652457
 30
0.0
 11
169.560300012752
 21
-687.7068860278052
 31
0.0
  0
LINE
  5
156
330
1F
100
AcDbEntity
  8
0-0
  6
JWW_DASHED1
 62
     3
370
     9
100
AcDbLine
 10
-132.9458561329302
 20
-689.3897457652457
 30
0.0
 11
-157.0124267143945
 21
-687.7068860278052
 31
0.0
  0
LINE
  5
157
330
1F
100
AcDbEntity
  8
0-0
  6
JWW_DASHED1
 62
     3
370
     9
100
AcDbLine
 10
-178.5441789779577
 20
-667.2741661135024
 30
0.0
 11
-180.781055398184
 21
-649.0575129303426
 31
0.0
  0
LINE
  5
158
330
1F
100
AcDbEntity
  8
0-0
  6
JWW_DASHED1
 62
     3
370
     9
100
AcDbLine
 10
146.2739276156613
 20
-710.6812782449035
 30
0.0
 11
142.9404136119815
 21
-694.0146165859474
 31
0.0
  0
LINE
  5
159
330
1F
100
AcDbEntity
  8
0-0
  6
JWW_DASHED1
 62
     3
370
     9
100
AcDbLine
 10
162.9401763839613
 20
-688.169736453653
 30
0.0
 11
156.2738090016512
 21
-710.6812782449035
 31
0.0
  0
LINE
  5
15A
330
1F
100
AcDbEntity
  8
0-0
  6
JWW_DASHED1
 62
     3
370
     9
100
AcDbLine
 10
146.2739276156613
 20
-710.6812782449035
 30
0.0
 11
156.2738090016512
 21
-710.6812782449035
 31
0.0
  0
LINE
  5
15B
330
1F
100
AcDbEntity
  8
0-0
  6
Continuous
 62
     3
370
     9
100
AcDbLine
 10
-137.4559433511486
 20
-654.0143478388069
 30
0.0
 11
-162.3152639929386
 21
-654.0143478388069
 31
0.0
  0
LINE
  5
15C
330
1F
100
AcDbEntity
  8
0-0
  6
Continuous
 62
     3
370
     9
100
AcDbLine
 10
-171.5930821989805
 20
-687.347671156719
 30
0.0
 11
-163.7263591003243
 21
-682.80595651422
 31
0.0
  0
LINE
  5
15D
330
1F
100
AcDbEntity
  8
0-0
  6
Continuous
 62
     3
370
     9
100
AcDbLine
 10
-155.8596360016664
 20
-687.347671156719
 30
0.0
 11
-163.7263591003243
 21
-682.80595651422
 31
0.0
  0
LINE
  5
15E
330
1F
100
AcDbEntity
  8
0-0
  6
Continuous
 62
     3
370
     9
100
AcDbLine
 10
-155.8596360016664
 20
-687.347671156719
 30
0.0
 11
-171.5930821989805
 21
-687.347671156719
 31
0.0
  0
LINE
  5
15F
330
1F
100
AcDbEntity
  8
0-0
  6
Continuous
 62
     3
370
     9
100
AcDbLine
 10
172.9400577699512
 20
-677.3477071925979
 30
0.0
 11
152.9402949979715
 21
-677.3477071925979
 31
0.0
  0
LINE
  5
160
330
1F
100
AcDbEntity
  8
0-0
  6
Continuous
 62
     3
370
     9
100
AcDbLine
 10
-175.9505650305834
 20
-710.681113088641
 30
0.0
 11
-171.5930821989805
 21
-710.681113088641
 31
0.0
  0
LINE
  5
161
330
1F
100
AcDbEntity
  8
0-0
  6
Continuous
 62
     3
370
     9
100
AcDbLine
 10
-155.8596360016664
 20
-710.681113088641
 30
0.0
 11
-137.8252327542505
 21
-710.681113088641
 31
0.0
  0
LINE
  5
162
330
1F
100
AcDbEntity
  8
0-0
  6
Continuous
 62
     3
370
     9
100
AcDbLine
 10
253.305095135721
 20
-613.601023278983
 30
0.0
 11
256.2739441116502
 21
-637.3476861798509
 31
0.0
  0
LINE
  5
163
330
1F
100
AcDbEntity
  8
0-0
  6
Continuous
 62
     3
370
     9
100
AcDbLine
 10
-240.7578824624129
 20
-613.601023278983
 30
0.0
 11
-243.7260708132927
 21
-637.3476861798509
 31
0.0
  0
LINE
  5
164
330
1F
100
AcDbEntity
  8
0-0
  6
JWW_DASHED1
 62
     3
370
     9
100
AcDbLine
 10
-165.3105379708786
 20
-665.6490284898297
 30
0.0
 11
-167.2778793705936
 21
-649.623751176558
 31
0.0
  0
LINE
  5
165
330
1F
100
AcDbEntity
  8
0-0
  6
Continuous
 62
     3
370
     9
100
AcDbLine
 10
-167.2778793705936
 20
-649.623751176558
 30
0.0
 11
-172.0594834844728
 21
-610.6810605567737
 31
0.0
  0
LINE
  5
166
330
1F
100
AcDbEntity
  8
0-0
  6
JWW_DASHED1
 62
     3
370
     9
100
AcDbLine
 10
-156.0822666436088
 20
-674.4061915781236
 30
0.0
 11
-123.6032966719635
 21
-676.6773379228329
 31
0.0
  0
LINE
  5
167
330
1F
100
AcDbEntity
  8
0-0
  6
Continuous
 62
     3
370
     9
100
AcDbLine
 10
-123.6032966719635
 20
-676.6773379228329
 30
0.0
 11
-86.54883760212414
 21
-679.2683919481368
 31
0.0
  0
LINE
  5
168
330
1F
100
AcDbEntity
  8
0-0
  6
JWW_CENTER1
 62
     3
370
     9
100
AcDbLine
 10
-180.3932684936736
 20
-784.0142922630369
 30
0.0
 11
-205.1349978765154
 21
-784.0142922630369
 31
0.0
  0
LINE
  5
169
330
1F
100
AcDbEntity
  8
0-0
  6
Continuous
 62
     3
370
     9
100
AcDbLine
 10
252.940430107969
 20
-640.6809524491371
 30
0.0
 11
236.2735207146196
 21
-640.6809524491371
 31
0.0
  0
LINE
  5
16A
330
1F
100
AcDbEntity
  8
0-0
  6
Continuous
 62
     3
370
     9
100
AcDbLine
 10
252.940430107969
 20
-640.6809524491371
 30
0.0
 11
256.2739441116502
 21
-637.3476861798509
 31
0.0
  0
LINE
  5
16B
330
1F
100
AcDbEntity
  8
0-0
  6
Continuous
 62
     3
370
     9
100
AcDbLine
 10
-192.7839519366023
 20
-639.086616468433
 30
0.0
 11
-195.3266977551058
 21
-638.260339686804
 31
0.0
  0
LINE
  5
16C
330
1F
100
AcDbEntity
  8
0-0
  6
Continuous
 62
     3
370
     9
100
AcDbLine
 10
-240.3925568096115
 20
-640.6809524491371
 30
0.0
 11
-223.7263080413129
 21
-640.6809524491371
 31
0.0
  0
LINE
  5
16D
330
1F
100
AcDbEntity
  8
0-0
  6
Continuous
 62
     3
370
     9
100
AcDbLine
 10
-240.3925568096115
 20
-640.6809524491371
 30
0.0
 11
-243.7260708132927
 21
-637.3476861798509
 31
0.0
  0
LINE
  5
16E
330
1F
100
AcDbEntity
  8
0-0
  6
Continuous
 62
     3
370
     9
100
AcDbLine
 10
89.9298777028855
 20
-712.8269058300602
 30
0.0
 11
81.27370766915305
 21
-834.0143598180364
 31
0.0
  0
LINE
  5
16F
330
1F
100
AcDbEntity
  8
0-0
  6
JWW_CENTER1
 62
     3
370
     9
100
AcDbLine
 10
-163.7263591003243
 20
-767.3475480259501
 30
0.0
 11
-163.7263591003243
 21
-680.680890883753
 31
0.0
  0
LINE
  5
170
330
1F
100
AcDbEntity
  8
0-0
  6
Continuous
 62
     3
370
     9
100
AcDbLine
 10
-153.1424851698925
 20
-724.0143433220485
 30
0.0
 11
-174.3095724057052
 21
-724.0143433220485
 31
0.0
  0
LINE
  5
171
330
1F
100
AcDbEntity
  8
0-0
  6
Continuous
 62
     3
370
     9
100
AcDbLine
 10
-174.3095724057052
 20
-724.0143433220485
 30
0.0
 11
-174.3095724057052
 21
-693.3474678633027
 31
0.0
  0
LINE
  5
172
330
1F
100
AcDbEntity
  8
0-0
  6
Continuous
 62
     3
370
     9
100
AcDbLine
 10
-153.1424851698925
 20
-724.0143433220485
 30
0.0
 11
-153.1424851698925
 21
-693.3474678633027
 31
0.0
  0
LINE
  5
173
330
1F
100
AcDbEntity
  8
0-0
  6
Continuous
 62
     3
370
     9
100
AcDbLine
 10
-155.8596360016664
 20
-724.0143433220485
 30
0.0
 11
-155.8596360016664
 21
-687.347671156719
 31
0.0
  0
LINE
  5
174
330
1F
100
AcDbEntity
  8
0-0
  6
Continuous
 62
     3
370
     9
100
AcDbLine
 10
-171.5930821989805
 20
-724.0143433220485
 30
0.0
 11
-171.5930821989805
 21
-687.347671156719
 31
0.0
  0
LINE
  5
175
330
1F
100
AcDbEntity
  8
0-0
  6
Continuous
 62
     3
370
     9
100
AcDbLine
 10
-173.7255798612632
 20
-767.3475480259501
 30
0.0
 11
-173.7255798612632
 21
-724.0143433220485
 31
0.0
  0
LINE
  5
176
330
1F
100
AcDbEntity
  8
0-0
  6
Continuous
 62
     3
370
     9
100
AcDbLine
 10
-180.9158229084403
 20
-706.2697893154395
 30
0.0
 11
-188.2236572145655
 21
-644.6419776724457
 31
0.0
  0
LINE
  5
177
330
1F
100
AcDbEntity
  8
0-0
  6
Continuous
 62
     3
370
     9
100
AcDbLine
 10
-180.3926078686228
 20
-794.0144213834208
 30
0.0
 11
-200.3923706406026
 21
-794.0144213834208
 31
0.0
  0
LINE
  5
178
330
1F
100
AcDbEntity
  8
0-0
  6
Continuous
 62
     3
370
     9
100
AcDbLine
 10
-153.7258170892835
 20
-767.3475480259501
 30
0.0
 11
-153.7258170892835
 21
-724.0143433220485
 31
0.0
  0
LINE
  5
179
330
1F
100
AcDbEntity
  8
0-0
  6
Continuous
 62
     3
370
     9
100
AcDbLine
 10
-180.3926078686228
 20
-774.0142457207846
 30
0.0
 11
-200.3923706406026
 21
-774.0142457207846
 31
0.0
  0
LINE
  5
17A
330
1F
100
AcDbEntity
  8
0-0
  6
Continuous
 62
     3
370
     9
100
AcDbLine
 10
-155.8596360016664
 20
-690.6809374260052
 30
0.0
 11
-171.5930821989805
 21
-690.6809374260052
 31
0.0
  0
LINE
  5
17B
330
1F
100
AcDbEntity
  8
0-0
  6
Continuous
 62
     3
370
     9
100
AcDbLine
 10
-171.5930821989805
 20
-690.6809374260052
 30
0.0
 11
-174.3095724057052
 21
-693.3474678633027
 31
0.0
  0
LINE
  5
17C
330
1F
100
AcDbEntity
  8
0-0
  6
Continuous
 62
     3
370
     9
100
AcDbLine
 10
-153.1424851698925
 20
-693.3474678633027
 30
0.0
 11
-155.8596360016664
 21
-690.6809374260052
 31
0.0
  0
LINE
  5
17D
330
1F
100
AcDbEntity
  8
0-0
  6
Continuous
 62
     3
370
     9
100
AcDbLine
 10
-153.1424851698925
 20
-693.3474678633027
 30
0.0
 11
-174.3095724057052
 21
-693.3474678633027
 31
0.0
  0
LINE
  5
17E
330
1F
100
AcDbEntity
  8
0-0
  6
Continuous
 62
     3
370
     9
100
AcDbLine
 10
-200.3923706406026
 20
-774.0142457207846
 30
0.0
 11
-200.3923706406026
 21
-794.0144213834208
 31
0.0
  0
LINE
  5
17F
330
1F
100
AcDbEntity
  8
0-0
  6
Continuous
 62
     3
370
     9
100
AcDbLine
 10
-126.2940225017265
 20
-694.0146165859474
 30
0.0
 11
-112.0595345434842
 21
-694.0146165859474
 31
0.0
  0
LINE
  5
180
330
1F
100
AcDbEntity
  8
0-3
  6
Continuous
 62
     4
370
     9
100
AcDbLine
 10
-127.0596869349936
 20
-944.0143763140247
 30
0.0
 11
139.6068996083018
 21
-944.0143763140247
 31
0.0
  0
LINE
  5
181
330
1F
100
AcDbEntity
  8
0-0
  6
Continuous
 62
     3
370
     9
100
AcDbLine
 10
-132.6631086114143
 20
-657.5893202983622
 30
0.0
 11
-128.0466607601029
 21
-673.1145044485763
 31
0.0
  0
LINE
  5
182
330
1F
100
AcDbEntity
  8
0-0
  6
JWW_DASHED1
 62
     3
370
     9
100
AcDbLine
 10
-187.6165427933639
 20
-640.765760189966
 30
0.0
 11
-192.7839519366023
 21
-639.086616468433
 31
0.0
  0
LINE
  5
183
330
1F
100
AcDbEntity
  8
0-0
  6
Continuous
 62
     3
370
     9
100
AcDbLine
 10
-64.90213657981144
 20
-700.8823920304596
 30
0.0
 11
-55.39309960617516
 21
-834.0143598180364
 31
0.0
  0
LINE
  5
184
330
1F
100
AcDbEntity
  8
0-0
  6
Continuous
 62
     3
370
     9
100
AcDbLine
 10
-77.38266502957885
 20
-712.8269058300602
 30
0.0
 11
-68.72649499584483
 21
-834.0143598180364
 31
0.0
  0
LINE
  5
185
330
1F
100
AcDbEntity
  8
0-0
  6
Continuous
 62
     3
370
     9
100
AcDbLine
 10
208.6468417372326
 20
-623.989847663321
 30
0.0
 11
249.6069161042892
 21
-610.6810605567737
 31
0.0
  0
LINE
  5
186
330
1F
100
AcDbEntity
  8
0-0
  6
JWW_DASHED1
 62
     3
370
     9
100
AcDbLine
 10
168.6301399419665
 20
-674.4061915781236
 30
0.0
 11
136.1505093452702
 21
-676.6772553447015
 31
0.0
  0
LINE
  5
187
330
1F
100
AcDbEntity
  8
0-0
  6
Continuous
 62
     3
370
     9
100
AcDbLine
 10
179.8257526689511
 20
-649.6235860202953
 30
0.0
 11
184.6073567828303
 21
-610.6810605567737
 31
0.0
  0
LINE
  5
188
330
1F
100
AcDbEntity
  8
0-0
  6
JWW_DASHED1
 62
     3
370
     9
100
AcDbLine
 10
177.8577506441869
 20
-665.6490284898297
 30
0.0
 11
179.8257526689511
 21
-649.6235860202953
 31
0.0
  0
LINE
  5
189
330
1F
100
AcDbEntity
  8
0-0
  6
Continuous
 62
     3
370
     9
100
AcDbLine
 10
145.2109819097718
 20
-657.5893202983622
 30
0.0
 11
140.5945340584606
 21
-673.1145044485763
 31
0.0
  0
LINE
  5
18A
330
1F
100
AcDbEntity
  8
0-0
  6
Continuous
 62
     3
370
     9
100
AcDbLine
 10
-131.1965209998066
 20
-698.0337768136803
 30
0.0
 11
-132.9220736311213
 21
-706.6616225483833
 31
0.0
  0
LINE
  5
18B
330
1F
100
AcDbEntity
  8
0-0
  6
Continuous
 62
     3
370
     9
100
AcDbLine
 10
106.5545070930189
 20
-697.3478002771024
 30
0.0
 11
121.2738938381619
 21
-697.3478002771024
 31
0.0
  0
LINE
  5
18C
330
1F
100
AcDbEntity
  8
0-0
  6
Continuous
 62
     3
370
     9
100
AcDbLine
 10
121.2738938381619
 20
-697.3478002771024
 30
0.0
 11
124.6074078418417
 21
-694.0146165859474
 31
0.0
  0
LINE
  5
18D
330
1F
100
AcDbEntity
  8
0-0
  6
Continuous
 62
     3
370
     9
100
AcDbLine
 10
195.7481376306421
 20
-616.4268469315278
 30
0.0
 11
194.6072381688202
 21
-610.6810605567737
 31
0.0
  0
LINE
  5
18E
330
1F
100
AcDbEntity
  8
0-0
  6
Continuous
 62
     3
370
     9
100
AcDbLine
 10
-169.3588482789546
 20
-632.6785534807804
 30
0.0
 11
-237.0597034309826
 21
-610.6810605567737
 31
0.0
  0
LINE
  5
18F
330
1F
100
AcDbEntity
  8
0-0
  6
Continuous
 62
     3
370
     9
100
AcDbLine
 10
-94.00663379466138
 20
-697.3478002771024
 30
0.0
 11
-108.7260205398044
 21
-697.3478002771024
 31
0.0
  0
LINE
  5
190
330
1F
100
AcDbEntity
  8
0-0
  6
Continuous
 62
     3
370
     9
100
AcDbLine
 10
-108.7260205398044
 20
-697.3478002771024
 30
0.0
 11
-112.0595345434842
 21
-694.0146165859474
 31
0.0
  0
LINE
  5
191
330
1F
100
AcDbEntity
  8
0-0
  6
Continuous
 62
     3
370
     9
100
AcDbLine
 10
-183.2002643322846
 20
-616.4268469315278
 30
0.0
 11
-182.0593648704627
 21
-610.6810605567737
 31
0.0
  0
LINE
  5
192
330
1F
100
AcDbEntity
  8
0-8
  6
Continuous
 62
     6
370
     9
100
AcDbLine
 10
19.60634110127359
 20
-346.2686918412742
 30
0.0
 11
19.60634110127359
 21
-924.0143658076511
 31
0.0
  0
LINE
  5
193
330
1F
100
AcDbEntity
  8
0-8
  6
Continuous
 62
     6
370
     9
100
AcDbLine
 10
17.35096717963899
 20
-344.0136482321657
 30
0.0
 11
17.35096717963899
 21
-924.0143658076511
 31
0.0
  0
LINE
  5
194
330
1F
100
AcDbEntity
  8
0-8
  6
Continuous
 62
     6
370
     9
100
AcDbLine
 10
-7.060449678067187
 20
-346.2686918412742
 30
0.0
 11
-7.060449678067187
 21
-924.0143658076511
 31
0.0
  0
LINE
  5
195
330
1F
100
AcDbEntity
  8
0-8
  6
Continuous
 62
     6
370
     9
100
AcDbLine
 10
-4.805075756432586
 20
-344.0136482321657
 30
0.0
 11
-4.805075756432586
 21
-924.0143658076511
 31
0.0
  0
LINE
  5
196
330
1F
100
AcDbEntity
  8
0-0
  6
JWW_CENTER1
 62
     3
370
     9
100
AcDbLine
 10
6.272945711604052
 20
-313.9846062594591
 30
0.0
 11
6.272945711604052
 21
-955.3960375707925
 31
0.0
  0
LINE
  5
197
330
1F
100
AcDbEntity
  8
0-8
  6
Continuous
 62
     6
370
     9
100
AcDbLine
 10
17.35096717963899
 20
-344.0136482321657
 30
0.0
 11
19.60634110127359
 21
-346.2686918412742
 31
0.0
  0
LINE
  5
198
330
1F
100
AcDbEntity
  8
0-8
  6
Continuous
 62
     6
370
     9
100
AcDbLine
 10
-4.805075756432586
 20
-344.0136482321657
 30
0.0
 11
17.35096717963899
 21
-344.0136482321657
 31
0.0
  0
LINE
  5
199
330
1F
100
AcDbEntity
  8
0-8
  6
Continuous
 62
     6
370
     9
100
AcDbLine
 10
-7.060449678067187
 20
-346.2686918412742
 30
0.0
 11
-4.805075756432586
 21
-344.0136482321657
 31
0.0
  0
LINE
  5
19A
330
1F
100
AcDbEntity
  8
0-8
  6
Continuous
 62
     6
370
     9
100
AcDbLine
 10
19.60634110127359
 20
-346.2686918412742
 30
0.0
 11
-7.060449678067187
 21
-346.2686918412742
 31
0.0
  0
LINE
  5
19B
330
1F
100
AcDbEntity
  8
0-5
  6
Continuous
 62
     7
370
     9
100
AcDbLine
 10
-127.0596869349936
 20
-879.6343167749772
 30
0.0
 11
-136.6269476771811
 21
-902.7312158591199
 31
0.0
  0
LINE
  5
19C
330
1F
100
AcDbEntity
  8
0-5
  6
Continuous
 62
     7
370
     9
100
AcDbLine
 10
-127.0596869349936
 20
-879.6343167749772
 30
0.0
 11
-175.1723809278147
 21
-962.9677188415945
 31
0.0
  0
LINE
  5
19D
330
1F
100
AcDbEntity
  8
0-5
  6
Continuous
 62
     7
370
     9
100
AcDbLine
 10
-127.0596869349936
 20
-879.6343167749772
 30
0.0
 11
-142.2787206659902
 21
-899.4679794782078
 31
0.0
  0
TEXT
  5
19E
330
1F
100
AcDbEntity
  8
0-5
  6
Continuous
 62
     6
370
     9
100
AcDbText
 10
-621.6131959741117
 20
-951.9482803904128
 30
0.0
 40
19.05
  1
スペーサー：硬質ポリ塩化ビニル管
 41
1.1125
  7
ＭＳ ゴシック
100
AcDbText
  0
TEXT
  5
19F
330
1F
100
AcDbEntity
  8
0-5
  6
Continuous
 62
     6
370
     9
100
AcDbText
 10
-462.527121597312
 20
-996.9528935364812
 30
0.0
 40
19.05
  1
（別途）
 41
1.090000000000001
  7
ＭＳ ゴシック
100
AcDbText
  0
LINE
  5
1A0
330
1F
100
AcDbEntity
  8
0-5
  6
Continuous
 62
     7
370
     9
100
AcDbLine
 10
-175.1723809278147
 20
-962.9677188415945
 30
0.0
 11
-622.6598148844855
 21
-962.9677188415945
 31
0.0
  0
LINE
  5
1A1
330
1F
100
AcDbEntity
  8
0-4
  6
Continuous
 62
     7
370
     9
100
AcDbLine
 10
-243.7260708132927
 20
-318.3036340734532
 30
0.0
 11
256.2739441116502
 21
-318.3036340734532
 31
0.0
  0
LINE
  5
1A2
330
1F
100
AcDbEntity
  8
0-4
  6
Continuous
 62
     7
370
     9
100
AcDbLine
 10
-243.7260708132927
 20
-318.3036340734532
 30
0.0
 11
-218.9399492789474
 21
-315.0404792679519
 31
0.0
  0
LINE
  5
1A3
330
1F
100
AcDbEntity
  8
0-4
  6
Continuous
 62
     7
370
     9
100
AcDbLine
 10
-243.7260708132927
 20
-318.3036340734532
 30
0.0
 11
-218.9399492789474
 21
-321.5667888789545
 31
0.0
  0
LINE
  5
1A4
330
1F
100
AcDbEntity
  8
0-4
  6
Continuous
 62
     7
370
     9
100
AcDbLine
 10
256.2739441116502
 20
-318.3036340734532
 30
0.0
 11
231.4878225773049
 21
-315.0404792679519
 31
0.0
  0
LINE
  5
1A5
330
1F
100
AcDbEntity
  8
0-4
  6
Continuous
 62
     7
370
     9
100
AcDbLine
 10
256.2739441116502
 20
-318.3036340734532
 30
0.0
 11
231.4878225773049
 21
-321.5667888789545
 31
0.0
  0
TEXT
  5
1A6
330
1F
100
AcDbEntity
  8
0-4
  6
Continuous
 62
     2
370
   211
100
AcDbText
 10
-83.59318504031606
 20
-302.699358311414
 30
0.0
 40
30.48
  1
φ150
 41
1.1
  7
ＭＳ ゴシック
100
AcDbText
  0
TEXT
  5
1A7
330
1F
100
AcDbEntity
  8
0-5
  6
Continuous
 62
     7
370
     9
100
AcDbText
 10
404.2065246612027
 20
-757.810568884791
 30
0.0
 40
22.86
  1
リング
 41
1.111111111111111
  7
ＭＳ ゴシック
100
AcDbText
  0
TEXT
  5
1A8
330
1F
100
AcDbEntity
  8
0-5
  6
Continuous
 62
     7
370
     9
100
AcDbText
 10
355.5254073195418
 20
-799.8182781265209
 30
0.0
 40
22.86
  1
クロロプレン
 41
1.138888888888889
  7
ＭＳ ゴシック
100
AcDbText
  0
LINE
  5
1A9
330
1F
100
AcDbEntity
  8
0-5
  6
Continuous
 62
     7
370
     9
100
AcDbLine
 10
275.4406586952347
 20
-634.0145024886963
 30
0.0
 11
290.6596944204526
 21
-653.8483359959773
 31
0.0
  0
LINE
  5
1AA
330
1F
100
AcDbEntity
  8
0-5
  6
Continuous
 62
     7
370
     9
100
AcDbLine
 10
275.4406586952347
 20
-634.0145024886963
 30
0.0
 11
285.0077445043618
 21
-657.1114908014783
 31
0.0
  0
LINE
  5
1AB
330
1F
100
AcDbEntity
  8
0-5
  6
Continuous
 62
     7
370
     9
100
AcDbLine
 10
275.4406586952347
 20
-634.0145024886963
 30
0.0
 11
351.7969190617048
 21
-766.2674249193801
 31
0.0
  0
LINE
  5
1AC
330
1F
100
AcDbEntity
  8
0-5
  6
Continuous
 62
     7
370
     9
100
AcDbLine
 10
351.7969190617048
 20
-766.2674249193801
 30
0.0
 11
561.1352390946975
 21
-766.2674249193801
 31
0.0
  0
LINE
  5
1AD
330
1F
100
AcDbEntity
  8
0-5
  6
Continuous
 62
     7
370
     9
100
AcDbLine
 10
-240.3925568096115
 20
-640.6809524491371
 30
0.0
 11
-298.0416805100448
 21
-740.5321637101105
 31
0.0
  0
LINE
  5
1AE
330
1F
100
AcDbEntity
  8
0-5
  6
Continuous
 62
     7
370
     9
100
AcDbLine
 10
-240.3925568096115
 20
-640.6809524491371
 30
0.0
 11
-249.9596426187388
 21
-663.7779407619191
 31
0.0
  0
LINE
  5
1AF
330
1F
100
AcDbEntity
  8
0-5
  6
Continuous
 62
     7
370
     9
100
AcDbLine
 10
-240.3925568096115
 20
-640.6809524491371
 30
0.0
 11
-255.6115925348296
 21
-660.5147859564179
 31
0.0
  0
LINE
  5
1B0
330
1F
100
AcDbEntity
  8
0-5
  6
Continuous
 62
     7
370
     9
100
AcDbLine
 10
-298.0416805100448
 20
-740.5321637101105
 30
0.0
 11
-565.8345162165382
 21
-740.5321637101105
 31
0.0
  0
TEXT
  5
1B1
330
1F
100
AcDbEntity
  8
0-5
  6
Continuous
 62
     6
370
     9
100
AcDbText
 10
-556.6736231746698
 20
-726.953870797738
 30
0.0
 40
19.05
  1
ルーフドレイン本体
 41
1.106666666666667
  7
ＭＳ ゴシック
100
AcDbText
  0
TEXT
  5
1B2
330
1F
100
AcDbEntity
  8
0-5
  6
Continuous
 62
     6
370
     9
100
AcDbText
 10
-473.3075338704829
 20
-776.5993453561463
 30
0.0
 40
19.05
  1
（別途）
 41
1.089999999999998
  7
ＭＳ ゴシック
100
AcDbText
  0
LINE
  5
1B3
330
1F
100
AcDbEntity
  8
0-5
  6
Continuous
 62
     7
370
     9
100
AcDbLine
 10
81.27370766915305
 20
-924.0142832295194
 30
0.0
 11
96.49274339437113
 21
-943.8481167368002
 31
0.0
  0
LINE
  5
1B4
330
1F
100
AcDbEntity
  8
0-5
  6
Continuous
 62
     7
370
     9
100
AcDbLine
 10
81.27370766915305
 20
-924.0142832295194
 30
0.0
 11
90.84079347828037
 21
-947.1112715423016
 31
0.0
  0
LINE
  5
1B5
330
1F
100
AcDbEntity
  8
0-5
  6
Continuous
 62
     7
370
     9
100
AcDbLine
 10
81.27370766915305
 20
-924.0142832295194
 30
0.0
 11
155.0445964588097
 21
-1051.789210732718
 31
0.0
  0
LINE
  5
1B6
330
1F
100
AcDbEntity
  8
0-5
  6
Continuous
 62
     7
370
     9
100
AcDbLine
 10
528.645797770322
 20
-1051.789210732718
 30
0.0
 11
155.0445964588097
 21
-1051.789210732718
 31
0.0
  0
TEXT
  5
1B7
330
1F
100
AcDbEntity
  8
0-5
  6
Continuous
 62
     6
370
     9
100
AcDbText
 10
165.2359098656049
 20
-1041.291886890812
 30
0.0
 40
19.05
  1
位置決めプレート：ＳＧＨＣ
 41
1.11076923076923
  7
ＭＳ ゴシック
100
AcDbText
  0
TEXT
  5
1B8
330
1F
100
AcDbEntity
  8
0-5
  6
Continuous
 62
     6
370
     9
100
AcDbText
 10
319.0752964083467
 20
-1091.590860085941
 30
0.0
 40
19.05
  1
（別途）
 41
1.090000000000001
  7
ＭＳ ゴシック
100
AcDbText
  0
LINE
  5
1B9
330
1F
100
AcDbEntity
  8
0-5
  6
Continuous
 62
     7
370
     9
100
AcDbLine
 10
230.6320148572462
 20
-872.206022122451
 30
0.0
 11
601.7406913087298
 21
-872.206022122451
 31
0.0
  0
TEXT
  5
1BA
330
1F
100
AcDbEntity
  8
0-5
  6
Continuous
 62
     6
370
     9
100
AcDbText
 10
241.631908945419
 20
-864.8464119870177
 30
0.0
 40
19.05
  1
引き上げプレート：ＳＧＨＣ
 41
1.110769230769231
  7
ＭＳ ゴシック
100
AcDbText
  0
TEXT
  5
1BB
330
1F
100
AcDbEntity
  8
0-5
  6
Continuous
 62
     6
370
     9
100
AcDbText
 10
390.3810733621601
 20
-904.2251721116824
 30
0.0
 40
19.05
  1
（別途）
 41
1.089999999999998
  7
ＭＳ ゴシック
100
AcDbText
  0
LINE
  5
1BC
330
1F
100
AcDbEntity
  8
0-5
  6
Continuous
 62
     7
370
     9
100
AcDbLine
 10
110.6252786528037
 20
-664.3482577658413
 30
0.0
 11
230.6320148572462
 21
-872.206022122451
 31
0.0
  0
LINE
  5
1BD
330
1F
100
AcDbEntity
  8
0-5
  6
Continuous
 62
     7
370
     9
100
AcDbLine
 10
110.6252786528037
 20
-664.3482577658413
 30
0.0
 11
120.192364461931
 21
-687.4452460786233
 31
0.0
  0
LINE
  5
1BE
330
1F
100
AcDbEntity
  8
0-5
  6
Continuous
 62
     7
370
     9
100
AcDbLine
 10
110.6252786528037
 20
-664.3482577658413
 30
0.0
 11
125.8443143780218
 21
-684.182091273122
 31
0.0
  0
TEXT
  5
1BF
330
1F
100
AcDbEntity
  8
0-5
  6
Continuous
 62
     6
370
     9
100
AcDbText
 10
111.3415760532521
 20
-170.5606649002472
 30
0.0
 40
19.05
  1
長ネジボルト：ＳＷＲＭ
 41
1.109090909090909
  7
ＭＳ ゴシック
100
AcDbText
  0
TEXT
  5
1C0
330
1F
100
AcDbEntity
  8
0-5
  6
Continuous
 62
     6
370
     9
100
AcDbText
 10
205.3735416910881
 20
-219.1237823415861
 30
0.0
 40
19.05
  1
（別途）
 41
1.089999999999999
  7
ＭＳ ゴシック
100
AcDbText
  0
LINE
  5
1C1
330
1F
100
AcDbEntity
  8
0-5
  6
Continuous
 62
     7
370
     9
100
AcDbLine
 10
109.7529318131585
 20
-183.9687507677276
 30
0.0
 11
419.430821892
 21
-183.9687507677276
 31
0.0
  0
LINE
  5
1C2
330
1F
100
AcDbEntity
  8
0-5
  6
Continuous
 62
     7
370
     9
100
AcDbLine
 10
17.35096717963899
 20
-344.0136482321657
 30
0.0
 11
109.7529318131585
 21
-183.9687507677276
 31
0.0
  0
LINE
  5
1C3
330
1F
100
AcDbEntity
  8
0-5
  6
Continuous
 62
     7
370
     9
100
AcDbLine
 10
17.35096717963899
 20
-344.0136482321657
 30
0.0
 11
26.91805298876616
 21
-320.9166599193836
 31
0.0
  0
LINE
  5
1C4
330
1F
100
AcDbEntity
  8
0-5
  6
Continuous
 62
     7
370
     9
100
AcDbLine
 10
17.35096717963899
 20
-344.0136482321657
 30
0.0
 11
32.57000290485706
 21
-324.1798147248849
 31
0.0
  0
LINE
  5
1C5
330
1F
100
AcDbEntity
  8
0-4
  6
Continuous
 62
     7
370
     9
100
AcDbLine
 10
-243.7260708132927
 20
-315.3036340734531
 30
0.0
 11
-243.7260708132927
 21
-600.2337616193881
 31
0.0
  0
LINE
  5
1C6
330
1F
100
AcDbEntity
  8
0-4
  6
Continuous
 62
     7
370
     9
100
AcDbLine
 10
256.2739441116502
 20
-315.3036340734531
 30
0.0
 11
256.2739441116502
 21
-600.2337616193881
 31
0.0
  0
LINE
  5
1C7
330
1F
100
AcDbEntity
  8
0-4
  6
Continuous
 62
     7
370
     9
100
AcDbLine
 10
634.8294071537844
 20
-607.3475465530939
 30
0.0
 11
634.8294071537844
 21
-507.3475465530939
 31
0.0
  0
LINE
  5
1C8
330
1F
100
AcDbEntity
  8
0-4
  6
Continuous
 62
     7
370
     9
100
AcDbLine
 10
634.8294071537844
 20
-607.3475465530939
 30
0.0
 11
631.566252348283
 21
-582.5614250187487
 31
0.0
  0
LINE
  5
1C9
330
1F
100
AcDbEntity
  8
0-4
  6
Continuous
 62
     7
370
     9
100
AcDbLine
 10
634.8294071537844
 20
-607.3475465530939
 30
0.0
 11
638.0925619592856
 21
-582.5614250187487
 31
0.0
  0
LINE
  5
1CA
330
1F
100
AcDbEntity
  8
0-4
  6
Continuous
 62
     7
370
     9
100
AcDbLine
 10
634.8294071537844
 20
-507.3475465530939
 30
0.0
 11
631.566252348283
 21
-532.1336680874392
 31
0.0
  0
LINE
  5
1CB
330
1F
100
AcDbEntity
  8
0-4
  6
Continuous
 62
     7
370
     9
100
AcDbLine
 10
634.8294071537844
 20
-507.3475465530939
 30
0.0
 11
638.0925619592856
 21
-532.1336680874392
 31
0.0
  0
LINE
  5
1CC
330
1F
100
AcDbEntity
  8
0-4
  6
Continuous
 62
     7
370
     9
100
AcDbLine
 10
637.8294071537844
 20
-607.3475465530939
 30
0.0
 11
484.6062494309663
 21
-607.3475465530939
 31
0.0
  0
LINE
  5
1CD
330
1F
100
AcDbEntity
  8
0-4
  6
Continuous
 62
     7
370
     9
100
AcDbLine
 10
637.8294071537844
 20
-507.3475465530939
 30
0.0
 11
509.6060512431945
 21
-507.3475465530939
 31
0.0
  0
TEXT
  5
1CE
330
1F
100
AcDbEntity
  8
0-4
  6
Continuous
 62
     2
370
   211
100
AcDbText
 10
619.1894071537844
 20
-578.5975465530939
 30
0.0
 40
30.48
  1
30
 50
90.0
 41
1.0625
  7
ＭＳ ゴシック
100
AcDbText
  0
TEXT
  5
1CF
330
1F
100
AcDbEntity
  8
0-5
  6
Continuous
 62
     7
370
     9
100
AcDbText
 10
-559.6145905162907
 20
-333.7428254513852
 30
0.0
 40
22.86
  1
固定プレート
 41
1.138888888888889
  7
ＭＳ ゴシック
100
AcDbText
  0
TEXT
  5
1D0
330
1F
100
AcDbEntity
  8
0-5
  6
Continuous
 62
     7
370
     9
100
AcDbText
 10
-522.2226954568666
 20
-375.6009889913066
 30
0.0
 40
22.86
  1
ＳＰＨＣ
 41
1.125
  7
ＭＳ ゴシック
100
AcDbText
  0
LINE
  5
1D1
330
1F
100
AcDbEntity
  8
0-5
  6
Continuous
 62
     7
370
     9
100
AcDbLine
 10
-260.3936408316929
 20
-480.6807557737543
 30
0.0
 11
-275.612676556911
 21
-460.8469222664734
 31
0.0
  0
LINE
  5
1D2
330
1F
100
AcDbEntity
  8
0-5
  6
Continuous
 62
     7
370
     9
100
AcDbLine
 10
-260.3936408316929
 20
-480.6807557737543
 30
0.0
 11
-269.9607266408202
 21
-457.5837674609721
 31
0.0
  0
LINE
  5
1D3
330
1F
100
AcDbEntity
  8
0-5
  6
Continuous
 62
     7
370
     9
100
AcDbLine
 10
-340.29051799652
 20
-342.2953051581844
 30
0.0
 11
-564.7498681903744
 21
-342.2953051581844
 31
0.0
  0
LINE
  5
1D4
330
1F
100
AcDbEntity
  8
0-5
  6
Continuous
 62
     7
370
     9
100
AcDbLine
 10
-260.3936408316929
 20
-480.6807557737543
 30
0.0
 11
-340.29051799652
 21
-342.2953051581844
 31
0.0
  0
TEXT
  5
1D5
330
1F
100
AcDbEntity
  8
F-4
  6
Continuous
 62
     2
370
     0
100
AcDbText
 10
-606.3910823449612
 20
-1348.094557508731
 30
0.0
 40
30.48
  1
複数回使用抜型　ＡＷ５０Ｅ－３０
 41
1.1171875
  7
ＭＳ ゴシック
100
AcDbText
  0
ENDSEC
  0
SECTION
  2
OBJECTS
  0
DICTIONARY
  5
C
330
0
100
AcDbDictionary
281
     1
  3
ACAD_GROUP
350
D
  3
ACAD_LAYOUT
350
1A
  3
ACAD_MLEADERSTYLE
350
1D7
  3
ACAD_MLINESTYLE
350
17
  3
ACAD_PLOTSETTINGS
350
19
  3
ACAD_PLOTSTYLENAME
350
E
  3
ACAD_TABLESTYLE
350
1D6
  3
ACAD_VISUALSTYLE
350
2A
  3
AcDbVariableDictionary
350
1D8
  0
DICTIONARY
  5
D
102
{ACAD_REACTORS
330
C
102
}
330
C
100
AcDbDictionary
281
     1
  0
DICTIONARY
  5
1A
102
{ACAD_REACTORS
330
C
102
}
330
C
100
AcDbDictionary
281
     1
  3
Layout1
350
1E
  3
Layout2
350
26
  3
Model
350
22
  0
DICTIONARY
  5
1D7
102
{ACAD_REACTORS
330
C
102
}
330
C
100
AcDbDictionary
281
     1
  0
DICTIONARY
  5
17
102
{ACAD_REACTORS
330
C
102
}
330
C
100
AcDbDictionary
281
     1
  3
Standard
350
18
  0
DICTIONARY
  5
19
102
{ACAD_REACTORS
330
C
102
}
330
C
100
AcDbDictionary
281
     1
  0
ACDBDICTIONARYWDFLT
  5
E
102
{ACAD_REACTORS
330
C
102
}
330
C
100
AcDbDictionary
281
     1
  3
Normal
350
F
100
AcDbDictionaryWithDefault
340
F
  0
DICTIONARY
  5
1D6
102
{ACAD_REACTORS
330
C
102
}
330
C
100
AcDbDictionary
281
     1
  0
DICTIONARY
  5
2A
102
{ACAD_REACTORS
330
C
102
}
330
C
100
AcDbDictionary
281
     1
  3
2dWireframe
350
2F
  3
3D Hidden
350
31
  3
3dWireframe
350
30
  3
Basic
350
32
  3
Brighten
350
36
  3
ColorChange
350
3A
  3
Conceptual
350
34
  3
Dim
350
35
  3
Facepattern
350
39
  3
Flat
350
2B
  3
FlatWithEdges
350
2C
  3
Gouraud
350
2D
  3
GouraudWithEdges
350
2E
  3
Linepattern
350
38
  3
Realistic
350
33
  3
Thicken
350
37
  0
DICTIONARY
  5
1D8
102
{ACAD_REACTORS
330
C
102
}
330
C
100
AcDbDictionary
281
     1
  3
PSOLHEIGHT
350
1DA
  3
PSOLWIDTH
350
1D9
  0
LAYOUT
  5
1E
102
{ACAD_REACTORS
330
1A
102
}
102
{ACAD_XDICTIONARY
360
1DB
102
}
330
1A
100
AcDbPlotSettings
  1

  2
none_device
  4

  6

 40
0.0
 41
0.0
 42
0.0
 43
0.0
 44
0.0
 45
0.0
 46
0.0
 47
0.0
 48
0.0
 49
0.0
140
0.0
141
0.0
142
1.0
143
1.0
 70
   688
 72
     0
 73
     0
 74
     5
  7

 75
    16
147
1.0
148
0.0
149
0.0
100
AcDbLayout
  1
Layout1
 70
     1
 71
     1
 10
0.0
 20
0.0
 11
420.0
 21
297.0
 12
0.0
 22
0.0
 32
0.0
 14
1.000000000000000E+20
 24
1.000000000000000E+20
 34
1.000000000000000E+20
 15
-1.000000000000000E+20
 25
-1.000000000000000E+20
 35
-1.000000000000000E+20
146
0.0
 13
0.0
 23
0.0
 33
0.0
 16
1.0
 26
0.0
 36
0.0
 17
0.0
 27
1.0
 37
0.0
 76
     0
330
1B
  0
LAYOUT
  5
26
102
{ACAD_REACTORS
330
1A
102
}
102
{ACAD_XDICTIONARY
360
1DF
102
}
330
1A
100
AcDbPlotSettings
  1

  2
none_device
  4

  6

 40
0.0
 41
0.0
 42
0.0
 43
0.0
 44
0.0
 45
0.0
 46
0.0
 47
0.0
 48
0.0
 49
0.0
140
0.0
141
0.0
142
1.0
143
1.0
 70
   688
 72
     0
 73
     0
 74
     5
  7

 75
    16
147
1.0
148
0.0
149
0.0
100
AcDbLayout
  1
Layout2
 70
     1
 71
     2
 10
0.0
 20
0.0
 11
0.0
 21
0.0
 12
0.0
 22
0.0
 32
0.0
 14
0.0
 24
0.0
 34
0.0
 15
0.0
 25
0.0
 35
0.0
146
0.0
 13
0.0
 23
0.0
 33
0.0
 16
1.0
 26
0.0
 36
0.0
 17
0.0
 27
1.0
 37
0.0
 76
     0
330
23
  0
LAYOUT
  5
22
102
{ACAD_REACTORS
330
1A
102
}
102
{ACAD_XDICTIONARY
360
1DD
102
}
330
1A
100
AcDbPlotSettings
  1

  2
none_device
  4

  6

 40
0.0
 41
0.0
 42
0.0
 43
0.0
 44
0.0
 45
0.0
 46
0.0
 47
0.0
 48
0.0
 49
0.0
140
0.0
141
0.0
142
1.0
143
1.0
 70
  1712
 72
     0
 73
     0
 74
     0
  7

 75
     0
147
1.0
148
0.0
149
0.0
100
AcDbLayout
  1
Model
 70
     1
 71
     0
 10
-2100.0
 20
-1485.0
 11
2100.0
 21
1485.0
 12
0.0
 22
0.0
 32
0.0
 14
-2100.0
 24
-1485.0
 34
0.0
 15
2100.0
 25
1485.0
 35
0.0
146
0.0
 13
0.0
 23
0.0
 33
0.0
 16
1.0
 26
0.0
 36
0.0
 17
0.0
 27
1.0
 37
0.0
 76
     0
330
1F
331
29
  0
MLINESTYLE
  5
18
102
{ACAD_REACTORS
330
17
102
}
330
17
100
AcDbMlineStyle
  2
Standard
 70
     0
  3

 62
   256
 51
90.0
 52
90.0
 71
     2
 49
0.5
 62
   256
  6
BYLAYER
 49
-0.5
 62
   256
  6
BYLAYER
  0
ACDBPLACEHOLDER
  5
F
102
{ACAD_REACTORS
330
E
102
}
330
E
  0
VISUALSTYLE
  5
2F
102
{ACAD_REACTORS
330
2A
102
}
330
2A
100
AcDbVisualStyle
  2
2dWireframe
 70
     4
 71
     0
 72
     2
 73
     0
 90
        0
 40
-0.6
 41
-30.0
 62
     5
 63
     7
 74
     1
 91
        4
 64
     7
 65
   257
 75
     1
175
     1
 42
1.0
 92
        0
 66
   257
 43
1.0
 76
     1
 77
     6
 78
     2
 67
     7
 79
     5
170
     0
171
     0
290
     0
174
     0
 93
        1
 44
0.0
173
     0
291
     0
 45
0.0
1001
ACAD
1000
AcDbSavedByObjectVersion
1070
     0
  0
VISUALSTYLE
  5
31
102
{ACAD_REACTORS
330
2A
102
}
330
2A
100
AcDbVisualStyle
  2
3D Hidden
 70
     6
 71
     1
 72
     2
 73
     2
 90
        0
 40
-0.6
 41
-30.0
 62
     5
 63
     7
 74
     2
 91
        2
 64
     7
 65
   257
 75
     2
175
     1
 42
40.0
 92
        0
 66
   257
 43
1.0
 76
     1
 77
     6
 78
     2
 67
     7
 79
     3
170
     0
171
     0
290
     0
174
     0
 93
        1
 44
0.0
173
     0
291
     0
 45
0.0
1001
ACAD
1000
AcDbSavedByObjectVersion
1070
     0
  0
VISUALSTYLE
  5
30
102
{ACAD_REACTORS
330
2A
102
}
330
2A
100
AcDbVisualStyle
  2
3dWireframe
 70
     5
 71
     0
 72
     2
 73
     0
 90
        0
 40
-0.6
 41
-30.0
 62
     5
 63
     7
 74
     1
 91
        4
 64
     7
 65
   257
 75
     1
175
     1
 42
1.0
 92
        0
 66
   257
 43
1.0
 76
     1
 77
     6
 78
     2
 67
     7
 79
     5
170
     0
171
     0
290
     0
174
     0
 93
        1
 44
0.0
173
     0
291
     0
 45
0.0
1001
ACAD
1000
AcDbSavedByObjectVersion
1070
     0
  0
VISUALSTYLE
  5
32
102
{ACAD_REACTORS
330
2A
102
}
330
2A
100
AcDbVisualStyle
  2
Basic
 70
     7
 71
     1
 72
     0
 73
     1
 90
        0
 40
-0.6
 41
-30.0
 62
     5
 63
     7
 74
     0
 91
        4
 64
     7
 65
   257
 75
     1
175
     1
 42
1.0
 92
        8
 66
     7
 43
1.0
 76
     1
 77
     6
 78
     2
 67
     7
 79
     5
170
     0
171
     0
290
     0
174
     0
 93
        1
 44
0.0
173
     0
291
     1
 45
0.0
1001
ACAD
1000
AcDbSavedByObjectVersion
1070
     0
  0
VISUALSTYLE
  5
36
102
{ACAD_REACTORS
330
2A
102
}
330
2A
100
AcDbVisualStyle
  2
Brighten
 70
    12
 71
     2
 72
     2
 73
     0
 90
        0
 40
-0.6
 41
-30.0
 62
     5
 63
     7
 74
     1
 91
        4
 64
     7
 65
   257
 75
     1
175
     1
 42
1.0
 92
        8
 66
     7
 43
1.0
 76
     1
 77
     6
 78
     2
 67
     7
 79
     5
170
     0
171
     0
290
     0
174
     0
 93
        1
 44
50.0
173
     0
291
     1
 45
0.0
1001
ACAD
1000
AcDbSavedByObjectVersion
1070
     0
  0
VISUALSTYLE
  5
3A
102
{ACAD_REACTORS
330
2A
102
}
330
2A
100
AcDbVisualStyle
  2
ColorChange
 70
    16
 71
     2
 72
     2
 73
     3
 90
        0
 40
-0.6
 41
-30.0
 62
     5
 63
     8
 74
     1
 91
        4
 64
     7
 65
   257
 75
     1
175
     1
 42
1.0
 92
        8
 66
     8
 43
1.0
 76
     1
 77
     6
 78
     2
 67
     7
 79
     5
170
     0
171
     0
290
     0
174
     0
 93
        1
 44
0.0
173
     0
291
     1
 45
0.0
1001
ACAD
1000
AcDbSavedByObjectVersion
1070
     0
  0
VISUALSTYLE
  5
34
102
{ACAD_REACTORS
330
2A
102
}
330
2A
100
AcDbVisualStyle
  2
Conceptual
 70
     9
 71
     3
 72
     2
 73
     0
 90
        0
 40
-0.6
 41
-30.0
 62
     5
 63
     7
 74
     2
 91
        2
 64
     7
 65
   257
 75
     1
175
     1
 42
40.0
 92
        8
 66
     7
 43
1.0
 76
     1
 77
     6
 78
     2
 67
     7
 79
     3
170
     0
171
     0
290
     0
174
     0
 93
        1
 44
0.0
173
     0
291
     0
 45
0.0
1001
ACAD
1000
AcDbSavedByObjectVersion
1070
     0
  0
VISUALSTYLE
  5
35
102
{ACAD_REACTORS
330
2A
102
}
330
2A
100
AcDbVisualStyle
  2
Dim
 70
    11
 71
     2
 72
     2
 73
     0
 90
        0
 40
-0.6
 41
-30.0
 62
     5
 63
     7
 74
     1
 91
        4
 64
     7
 65
   257
 75
     1
175
     1
 42
1.0
 92
        8
 66
     7
 43
1.0
 76
     1
 77
     6
 78
     2
 67
     7
 79
     5
170
     0
171
     0
290
     0
174
     0
 93
        1
 44
-50.0
173
     0
291
     1
 45
0.0
1001
ACAD
1000
AcDbSavedByObjectVersion
1070
     0
  0
VISUALSTYLE
  5
39
102
{ACAD_REACTORS
330
2A
102
}
330
2A
100
AcDbVisualStyle
  2
Facepattern
 70
    15
 71
     2
 72
     2
 73
     0
 90
        0
 40
-0.6
 41
-30.0
 62
     5
 63
     7
 74
     1
 91
        4
 64
     7
 65
   257
 75
     1
175
     1
 42
1.0
 92
        8
 66
     7
 43
1.0
 76
     1
 77
     6
 78
     2
 67
     7
 79
     5
170
     0
171
     0
290
     0
174
     0
 93
        1
 44
0.0
173
     0
291
     1
 45
0.0
1001
ACAD
1000
AcDbSavedByObjectVersion
1070
     0
  0
VISUALSTYLE
  5
2B
102
{ACAD_REACTORS
330
2A
102
}
330
2A
100
AcDbVisualStyle
  2
Flat
 70
     0
 71
     2
 72
     1
 73
     1
 90
        2
 40
-0.6
 41
30.0
 62
     5
 63
     7
 74
     0
 91
        4
 64
     7
 65
   257
 75
     1
175
     1
 42
1.0
 92
        8
 66
     7
 43
1.0
 76
     1
 77
     6
 78
     2
 67
     7
 79
     5
170
     0
171
     0
290
     0
174
     0
 93
       13
 44
0.0
173
     0
291
     1
 45
0.0
1001
ACAD
1000
AcDbSavedByObjectVersion
1070
     0
  0
VISUALSTYLE
  5
2C
102
{ACAD_REACTORS
330
2A
102
}
330
2A
100
AcDbVisualStyle
  2
FlatWithEdges
 70
     1
 71
     2
 72
     1
 73
     1
 90
        2
 40
-0.6
 41
30.0
 62
     5
 63
     7
 74
     1
 91
        4
 64
     7
 65
   257
 75
     1
175
     1
 42
1.0
 92
        0
 66
   257
 43
1.0
 76
     1
 77
     6
 78
     2
 67
     7
 79
     5
170
     0
171
     0
290
     0
174
     0
 93
       13
 44
0.0
173
     0
291
     1
 45
0.0
1001
ACAD
1000
AcDbSavedByObjectVersion
1070
     0
  0
VISUALSTYLE
  5
2D
102
{ACAD_REACTORS
330
2A
102
}
330
2A
100
AcDbVisualStyle
  2
Gouraud
 70
     2
 71
     2
 72
     2
 73
     1
 90
        2
 40
-0.6
 41
30.0
 62
     5
 63
     7
 74
     0
 91
        4
 64
     7
 65
   257
 75
     1
175
     1
 42
1.0
 92
        0
 66
     7
 43
1.0
 76
     1
 77
     6
 78
     2
 67
     7
 79
     5
170
     0
171
     0
290
     0
174
     0
 93
       13
 44
0.0
173
     0
291
     1
 45
0.0
1001
ACAD
1000
AcDbSavedByObjectVersion
1070
     0
  0
VISUALSTYLE
  5
2E
102
{ACAD_REACTORS
330
2A
102
}
330
2A
100
AcDbVisualStyle
  2
GouraudWithEdges
 70
     3
 71
     2
 72
     2
 73
     1
 90
        2
 40
-0.6
 41
30.0
 62
     5
 63
     7
 74
     1
 91
        4
 64
     7
 65
   257
 75
     1
175
     1
 42
1.0
 92
        0
 66
   257
 43
1.0
 76
     1
 77
     6
 78
     2
 67
     7
 79
     5
170
     0
171
     0
290
     0
174
     0
 93
       13
 44
0.0
173
     0
291
     1
 45
0.0
1001
ACAD
1000
AcDbSavedByObjectVersion
1070
     0
  0
VISUALSTYLE
  5
38
102
{ACAD_REACTORS
330
2A
102
}
330
2A
100
AcDbVisualStyle
  2
Linepattern
 70
    14
 71
     2
 72
     2
 73
     0
 90
        0
 40
-0.6
 41
-30.0
 62
     5
 63
     7
 74
     1
 91
        4
 64
     7
 65
   257
 75
     7
175
     7
 42
1.0
 92
        8
 66
     7
 43
1.0
 76
     1
 77
     6
 78
     2
 67
     7
 79
     5
170
     0
171
     0
290
     0
174
     0
 93
        1
 44
0.0
173
     0
291
     1
 45
0.0
1001
ACAD
1000
AcDbSavedByObjectVersion
1070
     0
  0
VISUALSTYLE
  5
33
102
{ACAD_REACTORS
330
2A
102
}
330
2A
100
AcDbVisualStyle
  2
Realistic
 70
     8
 71
     2
 72
     2
 73
     0
 90
        0
 40
-0.6
 41
-30.0
 62
     5
 63
     7
 74
     1
 91
        0
 64
     7
 65
   257
 75
     1
175
     1
 42
1.0
 92
        8
 66
     8
 43
1.0
 76
     1
 77
     6
 78
     2
 67
     7
 79
     5
170
     0
171
     0
290
     0
174
     0
 93
       13
 44
0.0
173
     0
291
     0
 45
0.0
1001
ACAD
1000
AcDbSavedByObjectVersion
1070
     0
  0
VISUALSTYLE
  5
37
102
{ACAD_REACTORS
330
2A
102
}
330
2A
100
AcDbVisualStyle
  2
Thicken
 70
    13
 71
     2
 72
     2
 73
     0
 90
        0
 40
-0.6
 41
-30.0
 62
     5
 63
     7
 74
     1
 91
        4
 64
     7
 65
   257
 75
     1
175
     1
 42
1.0
 92
       12
 66
     7
 43
1.0
 76
     1
 77
     6
 78
     2
 67
     7
 79
     5
170
     0
171
     0
290
     0
174
     0
 93
        1
 44
0.0
173
     0
291
     1
 45
0.0
1001
ACAD
1000
AcDbSavedByObjectVersion
1070
     0
  0
DICTIONARYVAR
  5
1DA
102
{ACAD_REACTORS
330
1D8
102
}
330
1D8
100
DictionaryVariables
280
     0
  1
80.000000
  0
DICTIONARYVAR
  5
1D9
102
{ACAD_REACTORS
330
1D8
102
}
330
1D8
100
DictionaryVariables
280
     0
  1
5.000000
  0
DICTIONARY
  5
1DB
330
1E
100
AcDbDictionary
280
     1
281
     1
  3
ACAD_XREC_ROUNDTRIP
360
1DC
  0
DICTIONARY
  5
1DF
330
26
100
AcDbDictionary
280
     1
281
     1
  3
ACAD_XREC_ROUNDTRIP
360
1E0
  0
DICTIONARY
  5
1DD
330
22
100
AcDbDictionary
280
     1
281
     1
  3
ACAD_XREC_ROUNDTRIP
360
1DE
  0
XRECORD
  5
1DC
102
{ACAD_REACTORS
330
1DB
102
}
330
1DB
100
AcDbXrecord
280
     1
102
SHADEPLOT
 70
     0
102
SHADEPLOTRESLEVEL
 70
     5
102
SHADEPLOTCUSTOMDPI
 70
   300
  0
XRECORD
  5
1E0
102
{ACAD_REACTORS
330
1DF
102
}
330
1DF
100
AcDbXrecord
280
     1
102
SHADEPLOT
 70
     0
102
SHADEPLOTRESLEVEL
 70
     5
102
SHADEPLOTCUSTOMDPI
 70
   300
  0
XRECORD
  5
1DE
102
{ACAD_REACTORS
330
1DD
102
}
330
1DD
100
AcDbXrecord
280
     1
102
SHADEPLOT
 70
     0
102
SHADEPLOTRESLEVEL
 70
     5
102
SHADEPLOTCUSTOMDPI
 70
   300
  0
ENDSEC
  0
EOF
