  0
SECTION
  2
HEADER
  9
$ACADVER
  1
AC1015
  9
$ACADMAINTVER
 70
     6
  9
$DWGCODEPAGE
  3
ANSI_932
  9
$INSBASE
 10
0.0
 20
0.0
 30
0.0
  9
$EXTMIN
 10
-2100.0
 20
-1485.0
 30
0.0
  9
$EXTMAX
 10
2100.0
 20
1485.0
 30
0.0
  9
$LIMMIN
 10
-2100.0
 20
-1485.0
  9
$LIMMAX
 10
2100.0
 20
1485.0
  9
$ORTHOMODE
 70
     0
  9
$REGENMODE
 70
     1
  9
$FILLMODE
 70
     1
  9
$QTEXTMODE
 70
     0
  9
$MIRRTEXT
 70
     1
  9
$LTSCALE
 40
10.0
  9
$ATTMODE
 70
     1
  9
$TEXTSIZE
 40
2.5
  9
$TRACEWID
 40
1.0
  9
$TEXTSTYLE
  7
Standard
  9
$CLAYER
  8
0
  9
$CELTYPE
  6
ByLayer
  9
$CECOLOR
 62
   256
  9
$CELTSCALE
 40
1.0
  9
$DISPSILH
 70
     0
  9
$DIMSCALE
 40
1.0
  9
$DIMASZ
 40
2.5
  9
$DIMEXO
 40
0.625
  9
$DIMDLI
 40
3.75
  9
$DIMRND
 40
0.0
  9
$DIMDLE
 40
0.0
  9
$DIMEXE
 40
1.25
  9
$DIMTP
 40
0.0
  9
$DIMTM
 40
0.0
  9
$DIMTXT
 40
2.5
  9
$DIMCEN
 40
2.5
  9
$DIMTSZ
 40
0.0
  9
$DIMTOL
 70
     0
  9
$DIMLIM
 70
     0
  9
$DIMTIH
 70
     0
  9
$DIMTOH
 70
     0
  9
$DIMSE1
 70
     0
  9
$DIMSE2
 70
     0
  9
$DIMTAD
 70
     1
  9
$DIMZIN
 70
     8
  9
$DIMBLK
  1

  9
$DIMASO
 70
     1
  9
$DIMSHO
 70
     1
  9
$DIMPOST
  1

  9
$DIMAPOST
  1

  9
$DIMALT
 70
     0
  9
$DIMALTD
 70
     3
  9
$DIMALTF
 40
0.03937007874016
  9
$DIMLFAC
 40
1.0
  9
$DIMTOFL
 70
     1
  9
$DIMTVP
 40
0.0
  9
$DIMTIX
 70
     0
  9
$DIMSOXD
 70
     0
  9
$DIMSAH
 70
     0
  9
$DIMBLK1
  1

  9
$DIMBLK2
  1

  9
$DIMSTYLE
  2
ISO-25
  9
$DIMCLRD
 70
     0
  9
$DIMCLRE
 70
     0
  9
$DIMCLRT
 70
     0
  9
$DIMTFAC
 40
1.0
  9
$DIMGAP
 40
0.625
  9
$DIMJUST
 70
     0
  9
$DIMSD1
 70
     0
  9
$DIMSD2
 70
     0
  9
$DIMTOLJ
 70
     0
  9
$DIMTZIN
 70
     8
  9
$DIMALTZ
 70
     0
  9
$DIMALTTZ
 70
     0
  9
$DIMUPT
 70
     0
  9
$DIMDEC
 70
     2
  9
$DIMTDEC
 70
     2
  9
$DIMALTU
 70
     2
  9
$DIMALTTD
 70
     3
  9
$DIMTXSTY
  7
Standard
  9
$DIMAUNIT
 70
     0
  9
$DIMADEC
 70
     0
  9
$DIMALTRND
 40
0.0
  9
$DIMAZIN
 70
     0
  9
$DIMDSEP
 70
    44
  9
$DIMATFIT
 70
     3
  9
$DIMFRAC
 70
     0
  9
$DIMLDRBLK
  1

  9
$DIMLUNIT
 70
     2
  9
$DIMLWD
 70
    -2
  9
$DIMLWE
 70
    -2
  9
$DIMTMOVE
 70
     0
  9
$LUNITS
 70
     2
  9
$LUPREC
 70
     4
  9
$SKETCHINC
 40
1.0
  9
$FILLETRAD
 40
10.0
  9
$AUNITS
 70
     0
  9
$AUPREC
 70
     0
  9
$MENU
  1
.
  9
$ELEVATION
 40
0.0
  9
$PELEVATION
 40
0.0
  9
$THICKNESS
 40
0.0
  9
$LIMCHECK
 70
     0
  9
$CHAMFERA
 40
10.0
  9
$CHAMFERB
 40
10.0
  9
$CHAMFERC
 40
20.0
  9
$CHAMFERD
 40
0.0
  9
$SKPOLY
 70
     0
  9
$TDCREATE
 40
2456898.435594653
  9
$TDUCREATE
 40
2456898.060594653
  9
$TDUPDATE
 40
2456898.435594664
  9
$TDUUPDATE
 40
2456898.060594664
  9
$TDINDWG
 40
0.0000000116
  9
$TDUSRTIMER
 40
0.0000000116
  9
$USRTIMER
 70
     1
  9
$ANGBASE
 50
0.0
  9
$ANGDIR
 70
     0
  9
$PDMODE
 70
     0
  9
$PDSIZE
 40
0.0
  9
$PLINEWID
 40
0.0
  9
$SPLFRAME
 70
     0
  9
$SPLINETYPE
 70
     6
  9
$SPLINESEGS
 70
     8
  9
$HANDSEED
  5
22E
  9
$SURFTAB1
 70
     6
  9
$SURFTAB2
 70
     6
  9
$SURFTYPE
 70
     6
  9
$SURFU
 70
     6
  9
$SURFV
 70
     6
  9
$UCSBASE
  2

  9
$UCSNAME
  2

  9
$UCSORG
 10
0.0
 20
0.0
 30
0.0
  9
$UCSXDIR
 10
1.0
 20
0.0
 30
0.0
  9
$UCSYDIR
 10
0.0
 20
1.0
 30
0.0
  9
$UCSORTHOREF
  2

  9
$UCSORTHOVIEW
 70
     0
  9
$UCSORGTOP
 10
0.0
 20
0.0
 30
0.0
  9
$UCSORGBOTTOM
 10
0.0
 20
0.0
 30
0.0
  9
$UCSORGLEFT
 10
0.0
 20
0.0
 30
0.0
  9
$UCSORGRIGHT
 10
0.0
 20
0.0
 30
0.0
  9
$UCSORGFRONT
 10
0.0
 20
0.0
 30
0.0
  9
$UCSORGBACK
 10
0.0
 20
0.0
 30
0.0
  9
$PUCSBASE
  2

  9
$PUCSNAME
  2

  9
$PUCSORG
 10
0.0
 20
0.0
 30
0.0
  9
$PUCSXDIR
 10
1.0
 20
0.0
 30
0.0
  9
$PUCSYDIR
 10
0.0
 20
1.0
 30
0.0
  9
$PUCSORTHOREF
  2

  9
$PUCSORTHOVIEW
 70
     0
  9
$PUCSORGTOP
 10
0.0
 20
0.0
 30
0.0
  9
$PUCSORGBOTTOM
 10
0.0
 20
0.0
 30
0.0
  9
$PUCSORGLEFT
 10
0.0
 20
0.0
 30
0.0
  9
$PUCSORGRIGHT
 10
0.0
 20
0.0
 30
0.0
  9
$PUCSORGFRONT
 10
0.0
 20
0.0
 30
0.0
  9
$PUCSORGBACK
 10
0.0
 20
0.0
 30
0.0
  9
$USERI1
 70
     0
  9
$USERI2
 70
     0
  9
$USERI3
 70
     0
  9
$USERI4
 70
     0
  9
$USERI5
 70
     0
  9
$USERR1
 40
0.0
  9
$USERR2
 40
0.0
  9
$USERR3
 40
0.0
  9
$USERR4
 40
0.0
  9
$USERR5
 40
0.0
  9
$WORLDVIEW
 70
     1
  9
$SHADEDGE
 70
     3
  9
$SHADEDIF
 70
    70
  9
$TILEMODE
 70
     1
  9
$MAXACTVP
 70
    64
  9
$PINSBASE
 10
0.0
 20
0.0
 30
0.0
  9
$PLIMCHECK
 70
     0
  9
$PEXTMIN
 10
1.000000000000000E+20
 20
1.000000000000000E+20
 30
1.000000000000000E+20
  9
$PEXTMAX
 10
-1.000000000000000E+20
 20
-1.000000000000000E+20
 30
-1.000000000000000E+20
  9
$PLIMMIN
 10
0.0
 20
0.0
  9
$PLIMMAX
 10
420.0
 20
297.0
  9
$UNITMODE
 70
     0
  9
$VISRETAIN
 70
     1
  9
$PLINEGEN
 70
     0
  9
$PSLTSCALE
 70
     1
  9
$TREEDEPTH
 70
  3020
  9
$CMLSTYLE
  2
Standard
  9
$CMLJUST
 70
     0
  9
$CMLSCALE
 40
20.0
  9
$PROXYGRAPHICS
 70
     1
  9
$MEASUREMENT
 70
     1
  9
$CELWEIGHT
370
    -1
  9
$ENDCAPS
280
     0
  9
$JOINSTYLE
280
     0
  9
$LWDISPLAY
290
     0
  9
$INSUNITS
 70
     4
  9
$HYPERLINKBASE
  1

  9
$STYLESHEET
  1

  9
$XEDIT
290
     1
  9
$CEPSNTYPE
380
     0
  9
$PSTYLEMODE
290
     1
  9
$FINGERPRINTGUID
  2
{30BD848D-5203-4482-A7FA-16D6706406A1}
  9
$VERSIONGUID
  2
{FAEB1C32-E019-11D5-929B-00C0DF256EC4}
  9
$EXTNAMES
290
     1
  9
$PSVPSCALE
 40
0.0
  9
$OLESTARTUP
290
     0
  0
ENDSEC
  0
SECTION
  2
CLASSES
  0
CLASS
  1
ACDBDICTIONARYWDFLT
  2
AcDbDictionaryWithDefault
  3
ObjectDBX Classes
 90
        0
280
     0
281
     0
  0
CLASS
  1
VISUALSTYLE
  2
AcDbVisualStyle
  3
ObjectDBX Classes
 90
     4095
280
     0
281
     0
  0
CLASS
  1
DICTIONARYVAR
  2
AcDbDictionaryVar
  3
ObjectDBX Classes
 90
        0
280
     0
281
     0
  0
CLASS
  1
ACDBPLACEHOLDER
  2
AcDbPlaceHolder
  3
ObjectDBX Classes
 90
        0
280
     0
281
     0
  0
CLASS
  1
LAYOUT
  2
AcDbLayout
  3
ObjectDBX Classes
 90
        0
280
     0
281
     0
  0
ENDSEC
  0
SECTION
  2
TABLES
  0
TABLE
  2
VPORT
  5
8
330
0
100
AcDbSymbolTable
 70
     1
  0
VPORT
  5
29
330
8
100
AcDbSymbolTableRecord
100
AcDbViewportTableRecord
  2
*Active
 70
     0
 10
0.0
 20
0.0
 11
1.0
 21
1.0
 12
0.0
 22
0.0
 13
0.0
 23
0.0
 14
10.0
 24
10.0
 15
10.0
 25
10.0
 16
0.0
 26
0.0
 36
1.0
 17
0.0
 27
0.0
 37
0.0
 40
3267.0
 41
1.414141414141414
 42
50.0
 43
0.0
 44
0.0
 50
0.0
 51
0.0
 71
     0
 72
 10000
 73
     1
 74
     3
 75
     0
 76
     0
 77
     0
 78
     0
281
     0
 65
     1
110
0.0
120
0.0
130
0.0
111
1.0
121
0.0
131
0.0
112
0.0
122
1.0
132
0.0
 79
     0
146
0.0
  0
ENDTAB
  0
TABLE
  2
LTYPE
  5
5
330
0
100
AcDbSymbolTable
 70
     4
  0
LTYPE
  5
14
330
5
100
AcDbSymbolTableRecord
100
AcDbLinetypeTableRecord
  2
ByBlock
 70
     0
  3

 72
    65
 73
     0
 40
0.0
  0
LTYPE
  5
15
330
5
100
AcDbSymbolTableRecord
100
AcDbLinetypeTableRecord
  2
ByLayer
 70
     0
  3

 72
    65
 73
     0
 40
0.0
  0
LTYPE
  5
16
330
5
100
AcDbSymbolTableRecord
100
AcDbLinetypeTableRecord
  2
Continuous
 70
     0
  3
Solid line
 72
    65
 73
     0
 40
0.0
  0
LTYPE
  5
3C
330
5
100
AcDbSymbolTableRecord
100
AcDbLinetypeTableRecord
  2
JWW_CENTER1
 70
     0
  3
-----  --  ----------  --  -----
 72
    65
 73
     4
 40
6.773333333333333
 49
4.233333333333333
 74
     0
 49
-0.8466666666666667
 74
     0
 49
0.8466666666666667
 74
     0
 49
-0.8466666666666667
 74
     0
  0
LTYPE
  5
3D
330
5
100
AcDbSymbolTableRecord
100
AcDbLinetypeTableRecord
  2
JWW_DASHED1
 70
     0
  3
-  --  --  --  --  --  --  --  -
 72
    65
 73
     2
 40
1.693333333333333
 49
0.8466666666666667
 74
     0
 49
-0.8466666666666667
 74
     0
  0
LTYPE
  5
3E
330
5
100
AcDbSymbolTableRecord
100
AcDbLinetypeTableRecord
  2
JWW_PHANTOM1
 70
     0
  3
----  -  -  --------  -  -  ----
 72
    65
 73
     6
 40
6.773333333333333
 49
3.386666666666667
 74
     0
 49
-0.8466666666666667
 74
     0
 49
0.4233333333333333
 74
     0
 49
-0.8466666666666667
 74
     0
 49
0.4233333333333333
 74
     0
 49
-0.8466666666666667
 74
     0
  0
ENDTAB
  0
TABLE
  2
LAYER
  5
2
330
0
100
AcDbSymbolTable
 70
    14
  0
LAYER
  5
10
330
2
100
AcDbSymbolTableRecord
100
AcDbLayerTableRecord
  2
0
 70
     0
 62
     7
  6
Continuous
370
    -3
390
F
  0
LAYER
  5
3F
330
2
100
AcDbSymbolTableRecord
100
AcDbLayerTableRecord
  2
0-5
 70
     0
 62
     7
  6
Continuous
370
    -3
390
F
  0
LAYER
  5
40
330
2
100
AcDbSymbolTableRecord
100
AcDbLayerTableRecord
  2
0-F
 70
     0
 62
     7
  6
Continuous
370
    -3
390
F
  0
LAYER
  5
41
330
2
100
AcDbSymbolTableRecord
100
AcDbLayerTableRecord
  2
0-1
 70
     0
 62
     7
  6
Continuous
370
    -3
390
F
  0
LAYER
  5
42
330
2
100
AcDbSymbolTableRecord
100
AcDbLayerTableRecord
  2
0-B
 70
     0
 62
     7
  6
Continuous
370
    -3
390
F
  0
LAYER
  5
43
330
2
100
AcDbSymbolTableRecord
100
AcDbLayerTableRecord
  2
0-4
 70
     0
 62
     7
  6
Continuous
370
    -3
390
F
  0
LAYER
  5
44
330
2
100
AcDbSymbolTableRecord
100
AcDbLayerTableRecord
  2
0-D
 70
     0
 62
     7
  6
Continuous
370
    -3
390
F
  0
LAYER
  5
45
330
2
100
AcDbSymbolTableRecord
100
AcDbLayerTableRecord
  2
0-0
 70
     0
 62
     7
  6
Continuous
370
    -3
390
F
  0
LAYER
  5
46
330
2
100
AcDbSymbolTableRecord
100
AcDbLayerTableRecord
  2
0-A
 70
     0
 62
     7
  6
Continuous
370
    -3
390
F
  0
LAYER
  5
47
330
2
100
AcDbSymbolTableRecord
100
AcDbLayerTableRecord
  2
0-3
 70
     0
 62
     7
  6
Continuous
370
    -3
390
F
  0
LAYER
  5
48
330
2
100
AcDbSymbolTableRecord
100
AcDbLayerTableRecord
  2
0-9
 70
     0
 62
     7
  6
Continuous
370
    -3
390
F
  0
LAYER
  5
49
330
2
100
AcDbSymbolTableRecord
100
AcDbLayerTableRecord
  2
0-8
 70
     0
 62
     7
  6
Continuous
370
    -3
390
F
  0
LAYER
  5
4A
330
2
100
AcDbSymbolTableRecord
100
AcDbLayerTableRecord
  2
0-C
 70
     0
 62
     7
  6
Continuous
370
    -3
390
F
  0
LAYER
  5
4B
330
2
100
AcDbSymbolTableRecord
100
AcDbLayerTableRecord
  2
F-4
 70
     0
 62
     7
  6
Continuous
370
    -3
390
F
  0
ENDTAB
  0
TABLE
  2
STYLE
  5
3
330
0
100
AcDbSymbolTable
 70
     2
  0
STYLE
  5
11
330
3
100
AcDbSymbolTableRecord
100
AcDbTextStyleTableRecord
  2
Standard
 70
     0
 40
0.0
 41
1.0
 50
0.0
 71
     0
 42
2.5
  3
txt
  4

1001
ACAD
1000

1071
        0
  0
STYLE
  5
3B
330
3
100
AcDbSymbolTableRecord
100
AcDbTextStyleTableRecord
  2
ＭＳ ゴシック
 70
     0
 40
1.0
 41
1.0
 50
0.0
 71
     0
 42
10.0
  3

  4

1001
ACAD
1000
MS Gothic
1071
    32817
  0
ENDTAB
  0
TABLE
  2
VIEW
  5
6
330
0
100
AcDbSymbolTable
 70
     0
  0
ENDTAB
  0
TABLE
  2
UCS
  5
7
330
0
100
AcDbSymbolTable
 70
     0
  0
ENDTAB
  0
TABLE
  2
APPID
  5
9
330
0
100
AcDbSymbolTable
 70
     1
  0
APPID
  5
12
330
9
100
AcDbSymbolTableRecord
100
AcDbRegAppTableRecord
  2
ACAD
 70
     0
  0
ENDTAB
  0
TABLE
  2
DIMSTYLE
  5
A
330
0
100
AcDbSymbolTable
 70
     1
100
AcDbDimStyleTable
  0
DIMSTYLE
105
27
330
A
100
AcDbSymbolTableRecord
100
AcDbDimStyleTableRecord
  2
ISO-25
 70
     0
 41
2.5
 42
0.625
 43
3.75
 44
1.25
 73
     0
 74
     0
 77
     1
 78
     8
140
2.5
141
2.5
143
0.03937007874016
147
0.625
171
     3
172
     1
271
     2
272
     2
274
     3
278
    44
283
     0
284
     8
340
11
  0
ENDTAB
  0
TABLE
  2
BLOCK_RECORD
  5
1
330
0
100
AcDbSymbolTable
 70
     1
  0
BLOCK_RECORD
  5
1F
330
1
100
AcDbSymbolTableRecord
100
AcDbBlockTableRecord
  2
*Model_Space
340
22
  0
BLOCK_RECORD
  5
1B
330
1
100
AcDbSymbolTableRecord
100
AcDbBlockTableRecord
  2
*Paper_Space
340
1E
  0
BLOCK_RECORD
  5
23
330
1
100
AcDbSymbolTableRecord
100
AcDbBlockTableRecord
  2
*Paper_Space0
340
26
  0
ENDTAB
  0
ENDSEC
  0
SECTION
  2
BLOCKS
  0
BLOCK
  5
20
330
1F
100
AcDbEntity
  8
0
100
AcDbBlockBegin
  2
*Model_Space
 70
     0
 10
0.0
 20
0.0
 30
0.0
  3
*Model_Space
  1

  0
ENDBLK
  5
21
330
1F
100
AcDbEntity
  8
0
100
AcDbBlockEnd
  0
BLOCK
  5
1C
330
1B
100
AcDbEntity
 67
     1
  8
0
100
AcDbBlockBegin
  2
*Paper_Space
 70
     0
 10
0.0
 20
0.0
 30
0.0
  3
*Paper_Space
  1

  0
ENDBLK
  5
1D
330
1B
100
AcDbEntity
 67
     1
  8
0
100
AcDbBlockEnd
  0
BLOCK
  5
24
330
23
100
AcDbEntity
  8
0
100
AcDbBlockBegin
  2
*Paper_Space0
 70
     0
 10
0.0
 20
0.0
 30
0.0
  3
*Paper_Space0
  1

  0
ENDBLK
  5
25
330
23
100
AcDbEntity
  8
0
100
AcDbBlockEnd
  0
ENDSEC
  0
SECTION
  2
ENTITIES
  0
LINE
  5
4C
330
1F
100
AcDbEntity
  8
0-5
  6
Continuous
 62
     7
370
     9
100
AcDbLine
 10
104.1564279487239
 20
-884.8736668314327
 30
0.0
 11
119.3754636739419
 21
-904.7075003387135
 31
0.0
  0
LINE
  5
4D
330
1F
100
AcDbEntity
  8
0-5
  6
Continuous
 62
     7
370
     9
100
AcDbLine
 10
104.1564279487239
 20
-884.8736668314327
 30
0.0
 11
113.7235137578511
 21
-907.9706551442149
 31
0.0
  0
LINE
  5
4E
330
1F
100
AcDbEntity
  8
0-5
  6
Continuous
 62
     7
370
     9
100
AcDbLine
 10
-282.0604093490964
 20
-668.2068967598448
 30
0.0
 11
-339.7095330495296
 21
-768.0581080208183
 31
0.0
  0
LINE
  5
4F
330
1F
100
AcDbEntity
  8
0-5
  6
Continuous
 62
     7
370
     9
100
AcDbLine
 10
-282.0604093490964
 20
-668.2068967598448
 30
0.0
 11
-291.6274951582236
 21
-691.3038850726269
 31
0.0
  0
LINE
  5
50
330
1F
100
AcDbEntity
  8
0-5
  6
Continuous
 62
     7
370
     9
100
AcDbLine
 10
-282.0604093490964
 20
-668.2068967598448
 30
0.0
 11
-297.2794450743144
 21
-688.0407302671256
 31
0.0
  0
LINE
  5
51
330
1F
100
AcDbEntity
  8
0-5
  6
Continuous
 62
     7
370
     9
100
AcDbLine
 10
104.1564279487239
 20
-884.8736668314327
 30
0.0
 11
177.9273167383806
 21
-1012.648594334631
 31
0.0
  0
TEXT
  5
52
330
1F
100
AcDbEntity
  8
0-5
  6
Continuous
 62
     6
370
     9
100
AcDbText
 10
341.9580166879174
 20
-1052.450243687854
 30
0.0
 40
19.05
  1
（別途）
 41
1.090000000000001
  7
ＭＳ ゴシック
100
AcDbText
  0
TEXT
  5
53
330
1F
100
AcDbEntity
  8
0-5
  6
Continuous
 62
     6
370
     9
100
AcDbText
 10
188.1186301451757
 20
-1002.151270492725
 30
0.0
 40
19.05
  1
位置決めプレート：ＳＧＨＣ
 41
1.110769230769231
  7
ＭＳ ゴシック
100
AcDbText
  0
TEXT
  5
54
330
1F
100
AcDbEntity
  8
0-5
  6
Continuous
 62
     6
370
     9
100
AcDbText
 10
447.0976145368175
 20
-925.4167809602213
 30
0.0
 40
19.05
  1
（別途）
 41
1.09
  7
ＭＳ ゴシック
100
AcDbText
  0
TEXT
  5
55
330
1F
100
AcDbEntity
  8
0-5
  6
Continuous
 62
     6
370
     9
100
AcDbText
 10
298.3484501200763
 20
-886.0380208355567
 30
0.0
 40
19.05
  1
引き上げプレート：ＳＧＨＣ
 41
1.110769230769231
  7
ＭＳ ゴシック
100
AcDbText
  0
TEXT
  5
56
330
1F
100
AcDbEntity
  8
0-5
  6
Continuous
 62
     6
370
     9
100
AcDbText
 10
-598.3414757141547
 20
-754.4798151084458
 30
0.0
 40
19.05
  1
ルーフドレイン本体
 41
1.106666666666667
  7
ＭＳ ゴシック
100
AcDbText
  0
TEXT
  5
57
330
1F
100
AcDbEntity
  8
0-5
  6
Continuous
 62
     6
370
     9
100
AcDbText
 10
-514.975386409968
 20
-804.1252896668541
 30
0.0
 40
19.05
  1
（別途）
 41
1.090000000000001
  7
ＭＳ ゴシック
100
AcDbText
  0
LINE
  5
58
330
1F
100
AcDbEntity
  8
0-5
  6
Continuous
 62
     7
370
     9
100
AcDbLine
 10
287.3485560319036
 20
-893.3976309709899
 30
0.0
 11
658.4572324833874
 21
-893.3976309709899
 31
0.0
  0
LINE
  5
59
330
1F
100
AcDbEntity
  8
0-5
  6
Continuous
 62
     7
370
     9
100
AcDbLine
 10
551.5285180498928
 20
-1012.648594334631
 30
0.0
 11
177.9273167383806
 21
-1012.648594334631
 31
0.0
  0
LINE
  5
5A
330
1F
100
AcDbEntity
  8
0-5
  6
Continuous
 62
     7
370
     9
100
AcDbLine
 10
-339.7095330495296
 20
-768.0581080208183
 30
0.0
 11
-607.5023687560231
 21
-768.0581080208183
 31
0.0
  0
LINE
  5
5B
330
1F
100
AcDbEntity
  8
0-5
  6
Continuous
 62
     7
370
     9
100
AcDbLine
 10
-183.7270212964198
 20
-904.8735881533016
 30
0.0
 11
-193.2942820386073
 21
-927.9704872374443
 31
0.0
  0
LINE
  5
5C
330
1F
100
AcDbEntity
  8
0-5
  6
Continuous
 62
     7
370
     9
100
AcDbLine
 10
-183.7270212964198
 20
-904.8735881533016
 30
0.0
 11
-231.8397152892409
 21
-988.2069902199191
 31
0.0
  0
LINE
  5
5D
330
1F
100
AcDbEntity
  8
0-5
  6
Continuous
 62
     7
370
     9
100
AcDbLine
 10
-183.7270212964198
 20
-904.8735881533016
 30
0.0
 11
-198.9460550274164
 21
-924.7072508565325
 31
0.0
  0
TEXT
  5
5E
330
1F
100
AcDbEntity
  8
0-5
  6
Continuous
 62
     6
370
     9
100
AcDbText
 10
-678.2805303355378
 20
-977.1875517687373
 30
0.0
 40
19.05
  1
スペーサー：硬質ポリ塩化ビニル管
 41
1.1125
  7
ＭＳ ゴシック
100
AcDbText
  0
LINE
  5
5F
330
1F
100
AcDbEntity
  8
0-5
  6
Continuous
 62
     7
370
     9
100
AcDbLine
 10
-231.8397152892409
 20
-988.2069902199191
 30
0.0
 11
-679.3271492459115
 21
-988.2069902199191
 31
0.0
  0
TEXT
  5
60
330
1F
100
AcDbEntity
  8
0-5
  6
Continuous
 62
     6
370
     9
100
AcDbText
 10
-519.1944559587381
 20
-1022.192164914806
 30
0.0
 40
19.05
  1
（別途）
 41
1.09
  7
ＭＳ ゴシック
100
AcDbText
  0
LWPOLYLINE
  5
61
330
1F
100
AcDbEntity
  8
0-F
  6
Continuous
 62
     7
370
     9
100
AcDbPolyline
 90
        4
 70
     1
 43
1.0
 10
6.772945711604052
 20
756.6675345393706
 42
0.4142135623731
 10
6.272945711604052
 20
757.1675345393705
 42
0.4142135623731
 10
5.772945711604052
 20
756.6675345393706
 42
0.4142135623731
 10
6.272945711604052
 20
756.1675345393706
 42
0.4142135623731
  0
LWPOLYLINE
  5
62
330
1F
100
AcDbEntity
  8
0-F
  6
Continuous
 62
     7
370
     9
100
AcDbPolyline
 90
        4
 70
     1
 43
1.0
 10
20.10665295400231
 20
-638.2070726998599
 42
0.4142135623731
 10
19.60665295400231
 20
-637.7070726998599
 42
0.4142135623731
 10
19.10665295400231
 20
-638.2070726998599
 42
0.4142135623731
 10
19.60665295400231
 20
-638.7070726998597
 42
0.4142135623731
  0
LINE
  5
63
330
1F
100
AcDbEntity
  8
0-1
  6
Continuous
 62
     4
370
     9
100
AcDbLine
 10
489.6060512431953
 20
756.6675345393706
 30
0.0
 11
489.6060512431953
 21
106.6679775744815
 31
0.0
  0
LINE
  5
64
330
1F
100
AcDbEntity
  8
0-1
  6
Continuous
 62
     4
370
     9
100
AcDbLine
 10
489.6060512431953
 20
106.6679775744815
 30
0.0
 11
-477.0608204450381
 21
106.6679775744815
 31
0.0
  0
LINE
  5
65
330
1F
100
AcDbEntity
  8
0-1
  6
JWW_CENTER1
 62
     4
370
     9
100
AcDbLine
 10
6.272945711604052
 20
1299.182735199713
 30
0.0
 11
6.272945711604052
 21
28.03179596527755
 31
0.0
  0
LINE
  5
66
330
1F
100
AcDbEntity
  8
0-1
  6
Continuous
 62
     4
370
     9
100
AcDbLine
 10
-477.0608204450381
 20
756.6675345393706
 30
0.0
 11
-477.0608204450381
 21
106.6679775744815
 31
0.0
  0
LINE
  5
67
330
1F
100
AcDbEntity
  8
0-B
  6
Continuous
 62
     2
370
     9
100
AcDbLine
 10
-21.97273893788974
 20
768.3335123021495
 30
0.0
 11
-28.72696945188598
 21
768.3335123021495
 31
0.0
  0
LINE
  5
68
330
1F
100
AcDbEntity
  8
0-B
  6
Continuous
 62
     2
370
     9
100
AcDbLine
 10
-28.72696945188598
 20
745.00023552649
 30
0.0
 11
-21.97273893788974
 21
745.00023552649
 31
0.0
  0
LINE
  5
69
330
1F
100
AcDbEntity
  8
0-B
  6
Continuous
 62
     2
370
     9
100
AcDbLine
 10
34.51796973604701
 20
768.3335123021495
 30
0.0
 11
41.27286087509333
 21
768.3335123021495
 31
0.0
  0
LINE
  5
6A
330
1F
100
AcDbEntity
  8
0-B
  6
Continuous
 62
     2
370
     9
100
AcDbLine
 10
41.27286087509333
 20
745.00023552649
 30
0.0
 11
34.51796973604701
 21
745.00023552649
 31
0.0
  0
LINE
  5
6B
330
1F
100
AcDbEntity
  8
0-B
  6
Continuous
 62
     2
370
     9
100
AcDbLine
 10
34.51796973604701
 20
764.334088247794
 30
0.0
 11
41.27286087509333
 21
764.334088247794
 31
0.0
  0
LINE
  5
6C
330
1F
100
AcDbEntity
  8
0-B
  6
Continuous
 62
     2
370
     9
100
AcDbLine
 10
41.27286087509333
 20
749.0003202058963
 30
0.0
 11
34.51796973604701
 21
749.0003202058963
 31
0.0
  0
LINE
  5
6D
330
1F
100
AcDbEntity
  8
0-B
  6
Continuous
 62
     2
370
     9
100
AcDbLine
 10
-28.72696945188598
 20
749.0003202058963
 30
0.0
 11
-21.97273893788974
 21
749.0003202058963
 31
0.0
  0
LINE
  5
6E
330
1F
100
AcDbEntity
  8
0-B
  6
Continuous
 62
     2
370
     9
100
AcDbLine
 10
-21.97273893788974
 20
764.334088247794
 30
0.0
 11
-28.72696945188598
 21
764.334088247794
 31
0.0
  0
LINE
  5
6F
330
1F
100
AcDbEntity
  8
0-1
  6
JWW_CENTER1
 62
     4
370
     9
100
AcDbLine
 10
546.9489662319843
 20
756.6675345393706
 30
0.0
 11
-534.4034051213024
 21
756.6675345393706
 31
0.0
  0
LINE
  5
70
330
1F
100
AcDbEntity
  8
0-4
  6
Continuous
 62
     6
370
     9
100
AcDbLine
 10
267.980550315021
 20
804.3336137917529
 30
0.0
 11
-265.3529530840945
 21
804.3336137917529
 31
0.0
  0
LINE
  5
71
330
1F
100
AcDbEntity
  8
0-4
  6
Continuous
 62
     6
370
     9
100
AcDbLine
 10
-265.3529530840945
 20
709.0001340368866
 30
0.0
 11
-265.3529530840945
 21
804.3336137917529
 31
0.0
  0
LINE
  5
72
330
1F
100
AcDbEntity
  8
0-4
  6
Continuous
 62
     6
370
     9
100
AcDbLine
 10
267.980550315021
 20
709.0001340368866
 30
0.0
 11
-265.3529530840945
 21
709.0001340368866
 31
0.0
  0
LINE
  5
73
330
1F
100
AcDbEntity
  8
0-4
  6
Continuous
 62
     6
370
     9
100
AcDbLine
 10
267.980550315021
 20
709.0001340368866
 30
0.0
 11
267.980550315021
 21
804.3336137917529
 31
0.0
  0
LINE
  5
74
330
1F
100
AcDbEntity
  8
0-D
  6
Continuous
 62
     2
370
     9
100
AcDbLine
 10
34.64679162085038
 20
723.3337157526704
 30
0.0
 11
34.64679162085038
 21
745.00023552649
 31
0.0
  0
LINE
  5
75
330
1F
100
AcDbEntity
  8
0-D
  6
Continuous
 62
     2
370
     9
100
AcDbLine
 10
34.64679162085038
 20
768.3335123021495
 30
0.0
 11
34.64679162085038
 21
790.0000320759692
 31
0.0
  0
LINE
  5
76
330
1F
100
AcDbEntity
  8
0-D
  6
Continuous
 62
     2
370
     9
100
AcDbLine
 10
267.980550315021
 20
790.0000320759692
 30
0.0
 11
34.64679162085038
 21
790.0000320759692
 31
0.0
  0
LINE
  5
77
330
1F
100
AcDbEntity
  8
0-D
  6
Continuous
 62
     2
370
     9
100
AcDbLine
 10
267.980550315021
 20
723.3337157526704
 30
0.0
 11
34.64679162085038
 21
723.3337157526704
 31
0.0
  0
LINE
  5
78
330
1F
100
AcDbEntity
  8
0-F
  6
Continuous
 62
     7
370
     9
100
AcDbLine
 10
-477.0604901325135
 20
-64.67569921475203
 30
0.0
 11
489.6060512431953
 21
-64.67569921475203
 31
0.0
  0
LINE
  5
79
330
1F
100
AcDbEntity
  8
0-F
  6
Continuous
 62
     7
370
     9
100
AcDbLine
 10
-477.0604901325135
 20
66.66779140547177
 30
0.0
 11
-477.0604901325135
 21
-68.6757838941584
 31
0.0
  0
LINE
  5
7A
330
1F
100
AcDbEntity
  8
0-F
  6
Continuous
 62
     7
370
     9
100
AcDbLine
 10
489.6060512431953
 20
66.66779140547177
 30
0.0
 11
489.6060512431953
 21
-68.6757838941584
 31
0.0
  0
LINE
  5
7B
330
1F
100
AcDbEntity
  8
0-F
  6
Continuous
 62
     7
370
     9
100
AcDbLine
 10
-477.0604901325135
 20
-64.67569921475203
 30
0.0
 11
-437.4028380520708
 21
-59.45477944244104
 31
0.0
  0
LINE
  5
7C
330
1F
100
AcDbEntity
  8
0-F
  6
Continuous
 62
     7
370
     9
100
AcDbLine
 10
-477.0604901325135
 20
-64.67569921475203
 30
0.0
 11
-437.4028380520708
 21
-69.89661898706316
 31
0.0
  0
LINE
  5
7D
330
1F
100
AcDbEntity
  8
0-F
  6
Continuous
 62
     7
370
     9
100
AcDbLine
 10
489.6060512431953
 20
-64.67569921475203
 30
0.0
 11
449.9480688502281
 21
-59.45477944244104
 31
0.0
  0
LINE
  5
7E
330
1F
100
AcDbEntity
  8
0-F
  6
Continuous
 62
     7
370
     9
100
AcDbLine
 10
489.6060512431953
 20
-64.67569921475203
 30
0.0
 11
449.9480688502281
 21
-69.89661898706316
 31
0.0
  0
LINE
  5
7F
330
1F
100
AcDbEntity
  8
0-F
  6
Continuous
 62
     7
370
     9
100
AcDbLine
 10
701.1715539058055
 20
106.6679775744815
 30
0.0
 11
701.1715539058055
 21
1240.000640070962
 31
0.0
  0
LINE
  5
80
330
1F
100
AcDbEntity
  8
0-F
  6
Continuous
 62
     7
370
     9
100
AcDbLine
 10
529.606237412205
 20
106.6679775744815
 30
0.0
 11
705.171638585211
 21
106.6679775744815
 31
0.0
  0
LINE
  5
81
330
1F
100
AcDbEntity
  8
0-F
  6
Continuous
 62
     7
370
     9
100
AcDbLine
 10
46.27313188061294
 20
1240.000640070962
 30
0.0
 11
705.171638585211
 21
1240.000640070962
 31
0.0
  0
LINE
  5
82
330
1F
100
AcDbEntity
  8
0-F
  6
Continuous
 62
     7
370
     9
100
AcDbLine
 10
701.1715539058055
 20
106.6679775744815
 30
0.0
 11
695.9506341334936
 21
146.3259599674494
 31
0.0
  0
LINE
  5
83
330
1F
100
AcDbEntity
  8
0-F
  6
Continuous
 62
     7
370
     9
100
AcDbLine
 10
701.1715539058055
 20
106.6679775744815
 30
0.0
 11
706.3931343031666
 21
146.3259599674494
 31
0.0
  0
LINE
  5
84
330
1F
100
AcDbEntity
  8
0-F
  6
Continuous
 62
     7
370
     9
100
AcDbLine
 10
701.1715539058055
 20
1240.000640070962
 30
0.0
 11
695.9506341334936
 21
1200.342657677995
 31
0.0
  0
LINE
  5
85
330
1F
100
AcDbEntity
  8
0-F
  6
Continuous
 62
     7
370
     9
100
AcDbLine
 10
701.1715539058055
 20
1240.000640070962
 30
0.0
 11
706.3931343031666
 21
1200.342657677995
 31
0.0
  0
LINE
  5
86
330
1F
100
AcDbEntity
  8
0-F
  6
Continuous
 62
     7
370
     9
100
AcDbLine
 10
-672.1242396643413
 20
106.6679775744815
 30
0.0
 11
-672.1242396643413
 21
756.6675345393706
 31
0.0
  0
LINE
  5
87
330
1F
100
AcDbEntity
  8
0-F
  6
Continuous
 62
     7
370
     9
100
AcDbLine
 10
-517.0603459889976
 20
106.6679775744815
 30
0.0
 11
-676.1243243437475
 21
106.6679775744815
 31
0.0
  0
LINE
  5
88
330
1F
100
AcDbEntity
  8
0-F
  6
Continuous
 62
     7
370
     9
100
AcDbLine
 10
-574.4032609777867
 20
756.6675345393706
 30
0.0
 11
-676.1243243437475
 21
756.6675345393706
 31
0.0
  0
LINE
  5
89
330
1F
100
AcDbEntity
  8
0-F
  6
Continuous
 62
     7
370
     9
100
AcDbLine
 10
-672.1242396643413
 20
106.6679775744815
 30
0.0
 11
-677.3451594366522
 21
146.3259599674494
 31
0.0
  0
LINE
  5
8A
330
1F
100
AcDbEntity
  8
0-F
  6
Continuous
 62
     7
370
     9
100
AcDbLine
 10
-672.1242396643413
 20
106.6679775744815
 30
0.0
 11
-666.9029895795047
 21
146.3259599674494
 31
0.0
  0
LINE
  5
8B
330
1F
100
AcDbEntity
  8
0-F
  6
Continuous
 62
     7
370
     9
100
AcDbLine
 10
-672.1242396643413
 20
756.6675345393706
 30
0.0
 11
-677.3451594366522
 21
717.0095521464026
 31
0.0
  0
LINE
  5
8C
330
1F
100
AcDbEntity
  8
0-F
  6
Continuous
 62
     7
370
     9
100
AcDbLine
 10
-672.1242396643413
 20
756.6675345393706
 30
0.0
 11
-666.9029895795047
 21
717.0095521464026
 31
0.0
  0
LINE
  5
8D
330
1F
100
AcDbEntity
  8
0-F
  6
Continuous
 62
     7
370
     9
100
AcDbLine
 10
6.272945711604052
 20
756.6675345393706
 30
0.0
 11
348.0410395326153
 21
1098.435958672907
 31
0.0
  0
LINE
  5
8E
330
1F
100
AcDbEntity
  8
0-F
  6
Continuous
 62
     7
370
     9
100
AcDbLine
 10
348.0410395326153
 20
1098.435958672907
 30
0.0
 11
323.6907304920596
 21
1066.701513132919
 31
0.0
  0
LINE
  5
8F
330
1F
100
AcDbEntity
  8
0-F
  6
Continuous
 62
     7
370
     9
100
AcDbLine
 10
348.0410395326153
 20
1098.435958672907
 30
0.0
 11
316.306924305153
 21
1074.085319319826
 31
0.0
  0
ARC
  5
90
330
1F
100
AcDbEntity
  8
0-1
  6
Continuous
 62
     4
370
     9
100
AcDbCircle
 10
6.272945711604052
 20
756.6675345393706
 30
0.0
 40
483.3333532659856
100
AcDbArc
 50
0.0
 51
180.0
  0
ARC
  5
91
330
1F
100
AcDbEntity
  8
0-B
  6
Continuous
 62
     2
370
     9
100
AcDbCircle
 10
-28.72696945188598
 20
756.6675345393706
 30
0.0
 40
11.66666419349582
100
AcDbArc
 50
90.0
 51
270.0
  0
ARC
  5
92
330
1F
100
AcDbEntity
  8
0-B
  6
Continuous
 62
     2
370
     9
100
AcDbCircle
 10
-21.97273893788974
 20
772.3335969815558
 30
0.0
 40
4.000000165849732
100
AcDbArc
 50
270.0
 51
323.9680633544922
  0
ARC
  5
93
330
1F
100
AcDbEntity
  8
0-B
  6
Continuous
 62
     2
370
     9
100
AcDbCircle
 10
-21.97273893788974
 20
741.0008114721346
 30
0.0
 40
4.000000165849732
100
AcDbArc
 50
36.03193664550781
 51
90.0
  0
ARC
  5
94
330
1F
100
AcDbEntity
  8
0-B
  6
Continuous
 62
     2
370
     9
100
AcDbCircle
 10
41.27286087509333
 20
756.6675345393706
 30
0.0
 40
11.66666419349582
100
AcDbArc
 50
270.0
 51
90.0
  0
ARC
  5
95
330
1F
100
AcDbEntity
  8
0-B
  6
Continuous
 62
     2
370
     9
100
AcDbCircle
 10
34.51796973604701
 20
772.3335969815558
 30
0.0
 40
4.000000165849732
100
AcDbArc
 50
216.0319366455078
 51
270.0
  0
ARC
  5
96
330
1F
100
AcDbEntity
  8
0-B
  6
Continuous
 62
     2
370
     9
100
AcDbCircle
 10
34.51796973604701
 20
741.0008114721346
 30
0.0
 40
4.000000165849732
100
AcDbArc
 50
90.0
 51
143.9680633544922
  0
ARC
  5
97
330
1F
100
AcDbEntity
  8
0-B
  6
Continuous
 62
     2
370
     9
100
AcDbCircle
 10
6.272945711604052
 20
756.6675345393706
 30
0.0
 40
28.3333335941516
100
AcDbArc
 50
28.02755737304687
 51
151.9724426269531
  0
ARC
  5
98
330
1F
100
AcDbEntity
  8
0-B
  6
Continuous
 62
     2
370
     9
100
AcDbCircle
 10
6.272945711604052
 20
756.6675345393706
 30
0.0
 40
28.3333335941516
100
AcDbArc
 50
208.0275573730469
 51
331.9724426269531
  0
ARC
  5
99
330
1F
100
AcDbEntity
  8
0-B
  6
Continuous
 62
     2
370
     9
100
AcDbCircle
 10
41.27286087509333
 20
756.6675345393706
 30
0.0
 40
7.666664672787738
100
AcDbArc
 50
270.0
 51
90.0
  0
ARC
  5
9A
330
1F
100
AcDbEntity
  8
0-B
  6
Continuous
 62
     2
370
     9
100
AcDbCircle
 10
-28.72696945188598
 20
756.6675345393706
 30
0.0
 40
7.666664672787738
100
AcDbArc
 50
90.0
 51
270.0
  0
ARC
  5
9B
330
1F
100
AcDbEntity
  8
0-B
  6
Continuous
 62
     2
370
     9
100
AcDbCircle
 10
-21.97273893788974
 20
772.3335969815558
 30
0.0
 40
8.000000331699464
100
AcDbArc
 50
270.0
 51
323.9680633544922
  0
ARC
  5
9C
330
1F
100
AcDbEntity
  8
0-B
  6
Continuous
 62
     2
370
     9
100
AcDbCircle
 10
6.272945711604052
 20
756.6675345393706
 30
0.0
 40
24.33333665401012
100
AcDbArc
 50
28.02755737304687
 51
153.5666198730469
  0
ARC
  5
9D
330
1F
100
AcDbEntity
  8
0-B
  6
Continuous
 62
     2
370
     9
100
AcDbCircle
 10
-21.97273893788974
 20
741.0008114721346
 30
0.0
 40
8.000000331699464
100
AcDbArc
 50
32.02981567382812
 51
90.0
  0
ARC
  5
9E
330
1F
100
AcDbEntity
  8
0-B
  6
Continuous
 62
     2
370
     9
100
AcDbCircle
 10
34.51796973604701
 20
772.3335969815558
 30
0.0
 40
8.000000331699464
100
AcDbArc
 50
212.0298156738282
 51
270.0
  0
ARC
  5
9F
330
1F
100
AcDbEntity
  8
0-B
  6
Continuous
 62
     2
370
     9
100
AcDbCircle
 10
6.272945711604052
 20
756.6675345393706
 30
0.0
 40
24.33333665401012
100
AcDbArc
 50
208.0275573730469
 51
331.9724426269531
  0
ARC
  5
A0
330
1F
100
AcDbEntity
  8
0-B
  6
Continuous
 62
     2
370
     9
100
AcDbCircle
 10
34.51796973604701
 20
741.0008114721346
 30
0.0
 40
8.000000331699464
100
AcDbArc
 50
90.0
 51
147.9701843261718
  0
CIRCLE
  5
A1
330
1F
100
AcDbEntity
  8
0-B
  6
Continuous
 62
     2
370
     9
100
AcDbCircle
 10
6.272945711604052
 20
756.6675345393706
 30
0.0
 40
16.66666811037248
  0
CIRCLE
  5
A2
330
1F
100
AcDbEntity
  8
0-B
  6
Continuous
 62
     2
370
     9
100
AcDbCircle
 10
6.272945711604052
 20
756.6675345393706
 30
0.0
 40
12.66666600909779
  0
TEXT
  5
A3
330
1F
100
AcDbEntity
  8
0-D
  6
Continuous
 62
     6
370
     9
100
AcDbText
 10
95.3136709679358
 20
749.4868118579835
 30
0.0
 40
15.24
  1
複数回使用
 41
1.12
  7
ＭＳ ゴシック
100
AcDbText
  0
TEXT
  5
A4
330
1F
100
AcDbEntity
  8
0-F
  6
Continuous
 62
     2
370
     9
100
AcDbText
 10
-26.22738460092137
 20
-45.70233485325055
 30
0.0
 40
30.48
  1
290
 41
1.083333333333333
  7
ＭＳ ゴシック
100
AcDbText
  0
TEXT
  5
A5
330
1F
100
AcDbEntity
  8
0-F
  6
Continuous
 62
     2
370
     9
100
AcDbText
 10
682.198521277449
 20
640.8346385973051
 30
0.0
 40
30.48
  1
340
 50
90.00000250447822
 41
1.083333333333334
  7
ＭＳ ゴシック
100
AcDbText
  0
TEXT
  5
A6
330
1F
100
AcDbEntity
  8
0-F
  6
Continuous
 62
     2
370
     9
100
AcDbText
 10
132.8049775660672
 20
910.031683268125
 30
0.0
 40
30.48
  1
R145
 50
45.00023006357632
 41
1.09375
  7
ＭＳ ゴシック
100
AcDbText
  0
LINE
  5
A7
330
1F
100
AcDbEntity
  8
0-5
  6
Continuous
 62
     7
370
     9
100
AcDbLine
 10
19.60665295400231
 20
-373.7945388280975
 30
0.0
 11
112.0086175875218
 21
-213.7496413636593
 31
0.0
  0
LINE
  5
A8
330
1F
100
AcDbEntity
  8
0-5
  6
Continuous
 62
     7
370
     9
100
AcDbLine
 10
19.60665295400231
 20
-373.7945388280975
 30
0.0
 11
29.17373876312956
 21
-350.6975505153153
 31
0.0
  0
LINE
  5
A9
330
1F
100
AcDbEntity
  8
0-5
  6
Continuous
 62
     7
370
     9
100
AcDbLine
 10
19.60665295400231
 20
-373.7945388280975
 30
0.0
 11
34.82568867922033
 21
-353.9607053208166
 31
0.0
  0
TEXT
  5
AA
330
1F
100
AcDbEntity
  8
0-5
  6
Continuous
 62
     6
370
     9
100
AcDbText
 10
113.5972618276156
 20
-200.341555496179
 30
0.0
 40
19.05
  1
長ネジボルト：ＳＷＲＭ
 41
1.109090909090909
  7
ＭＳ ゴシック
100
AcDbText
  0
TEXT
  5
AB
330
1F
100
AcDbEntity
  8
0-5
  6
Continuous
 62
     6
370
     9
100
AcDbText
 10
207.6292274654514
 20
-248.9046729375179
 30
0.0
 40
19.05
  1
（別途）
 41
1.09
  7
ＭＳ ゴシック
100
AcDbText
  0
LINE
  5
AC
330
1F
100
AcDbEntity
  8
0-5
  6
Continuous
 62
     7
370
     9
100
AcDbLine
 10
112.0086175875218
 20
-213.7496413636593
 30
0.0
 11
421.6865076663634
 21
-213.7496413636593
 31
0.0
  0
LINE
  5
AD
330
1F
100
AcDbEntity
  8
0-5
  6
Continuous
 62
     7
370
     9
100
AcDbLine
 10
337.2236161871152
 20
-650.5009745729245
 30
0.0
 11
352.4426519123332
 21
-670.3348080802056
 31
0.0
  0
LINE
  5
AE
330
1F
100
AcDbEntity
  8
0-5
  6
Continuous
 62
     7
370
     9
100
AcDbLine
 10
337.2236161871152
 20
-650.5009745729245
 30
0.0
 11
346.7907019962425
 21
-673.5979628857067
 31
0.0
  0
LINE
  5
AF
330
1F
100
AcDbEntity
  8
0-5
  6
Continuous
 62
     7
370
     9
100
AcDbLine
 10
337.2236161871152
 20
-650.5009745729245
 30
0.0
 11
413.5798765535853
 21
-782.7538970036085
 31
0.0
  0
TEXT
  5
B0
330
1F
100
AcDbEntity
  8
0-5
  6
Continuous
 62
     7
370
     9
100
AcDbText
 10
465.9894821530835
 20
-774.2970409690192
 30
0.0
 40
22.86
  1
リング
 41
1.111111111111111
  7
ＭＳ ゴシック
100
AcDbText
  0
LINE
  5
B1
330
1F
100
AcDbEntity
  8
0-5
  6
Continuous
 62
     7
370
     9
100
AcDbLine
 10
413.5798765535853
 20
-782.7538970036085
 30
0.0
 11
622.9181965865781
 21
-782.7538970036085
 31
0.0
  0
LINE
  5
B2
330
1F
100
AcDbEntity
  8
0-5
  6
Continuous
 62
     7
370
     9
100
AcDbLine
 10
167.3418198274611
 20
-685.5398666143799
 30
0.0
 11
287.3485560319036
 21
-893.3976309709899
 31
0.0
  0
LINE
  5
B3
330
1F
100
AcDbEntity
  8
0-5
  6
Continuous
 62
     7
370
     9
100
AcDbLine
 10
167.3418198274611
 20
-685.5398666143799
 30
0.0
 11
182.5608555526791
 21
-705.3737001216608
 31
0.0
  0
LINE
  5
B4
330
1F
100
AcDbEntity
  8
0-5
  6
Continuous
 62
     7
370
     9
100
AcDbLine
 10
167.3418198274611
 20
-685.5398666143799
 30
0.0
 11
176.9089056365883
 21
-708.636854927162
 31
0.0
  0
TEXT
  5
B5
330
1F
100
AcDbEntity
  8
0-5
  6
Continuous
 62
     7
370
     9
100
AcDbText
 10
417.3083648114226
 20
-816.3047502107491
 30
0.0
 40
22.86
  1
クロロプレン
 41
1.138888888888889
  7
ＭＳ ゴシック
100
AcDbText
  0
LINE
  5
B6
330
1F
100
AcDbEntity
  8
0-0
  6
Continuous
 62
     3
370
     9
100
AcDbLine
 10
-241.5344656688057
 20
-643.9525287620879
 30
0.0
 11
-240.3935662069837
 21
-638.2067423873344
 31
0.0
  0
LINE
  5
B7
330
1F
100
AcDbEntity
  8
0-0
  6
Continuous
 62
     3
370
     9
100
AcDbLine
 10
-227.6923889904249
 20
-660.2042353113413
 30
0.0
 11
-295.3932441424528
 21
-638.2067423873344
 31
0.0
  0
LINE
  5
B8
330
1F
100
AcDbEntity
  8
0-0
  6
Continuous
 62
     3
370
     9
100
AcDbLine
 10
-108.6147236786291
 20
-722.6366056874369
 30
0.0
 11
-98.69279604857181
 21
-861.5402893829905
 31
0.0
  0
LINE
  5
B9
330
1F
100
AcDbEntity
  8
0-0
  6
Continuous
 62
     3
370
     9
100
AcDbLine
 10
-162.0599508708043
 20
-724.873482107663
 30
0.0
 11
-165.3934648744848
 21
-721.540298416508
 31
0.0
  0
LINE
  5
BA
330
1F
100
AcDbEntity
  8
0-0
  6
Continuous
 62
     3
370
     9
100
AcDbLine
 10
-137.340352427146
 20
-724.873482107663
 30
0.0
 11
-162.0599508708043
 21
-724.873482107663
 31
0.0
  0
LINE
  5
BB
330
1F
100
AcDbEntity
  8
0-0
  6
Continuous
 62
     3
370
     9
100
AcDbLine
 10
254.0806504849456
 20
-643.9525287620879
 30
0.0
 11
252.9400813356483
 21
-638.2067423873344
 31
0.0
  0
LINE
  5
BC
330
1F
100
AcDbEntity
  8
0-0
  6
Continuous
 62
     3
370
     9
100
AcDbLine
 10
174.6064659994697
 20
-724.873482107663
 30
0.0
 11
177.9399800031494
 21
-721.540298416508
 31
0.0
  0
LINE
  5
BD
330
1F
100
AcDbEntity
  8
0-0
  6
Continuous
 62
     3
370
     9
100
AcDbLine
 10
200.1852073210088
 20
-685.0658681408083
 30
0.0
 11
195.6169850983679
 21
-699.8688239548117
 31
0.0
  0
LINE
  5
BE
330
1F
100
AcDbEntity
  8
0-0
  6
Continuous
 62
     3
370
     9
100
AcDbLine
 10
266.9793545915354
 20
-651.515694650144
 30
0.0
 11
307.939428958592
 21
-638.2067423873344
 31
0.0
  0
LINE
  5
BF
330
1F
100
AcDbEntity
  8
0-0
  6
Continuous
 62
     3
370
     9
100
AcDbLine
 10
-120.7163836620642
 20
-740.3525876606209
 30
0.0
 11
-112.0602136283302
 21
-861.5402893829905
 31
0.0
  0
LINE
  5
C0
330
1F
100
AcDbEntity
  8
0-0
  6
JWW_DASHED1
 62
     3
370
     9
100
AcDbLine
 10
236.3207369459186
 20
-692.1144071147012
 30
0.0
 11
238.1585958357793
 21
-677.149267850856
 31
0.0
  0
LINE
  5
C1
330
1F
100
AcDbEntity
  8
0-0
  6
Continuous
 62
     3
370
     9
100
AcDbLine
 10
238.1585958357793
 20
-677.149267850856
 30
0.0
 11
242.9398696371338
 21
-638.2067423873344
 31
0.0
  0
LINE
  5
C2
330
1F
100
AcDbEntity
  8
0-0
  6
JWW_DASHED1
 62
     3
370
     9
100
AcDbLine
 10
191.1881547613341
 20
-703.3820279721663
 30
0.0
 11
227.0931262436982
 21
-700.8716527811268
 31
0.0
  0
LINE
  5
C3
330
1F
100
AcDbEntity
  8
0-0
  6
JWW_DASHED1
 62
     3
370
     9
100
AcDbLine
 10
-245.9500835048341
 20
-668.2916071767891
 30
0.0
 11
-249.4471022084568
 21
-667.1553320903183
 31
0.0
  0
LINE
  5
C4
330
1F
100
AcDbEntity
  8
0-0
  6
Continuous
 62
     3
370
     9
100
AcDbLine
 10
-187.6386921923434
 20
-685.0658681408083
 30
0.0
 11
-183.0704699697025
 21
-699.8688239548117
 31
0.0
  0
LINE
  5
C5
330
1F
100
AcDbEntity
  8
0-0
  6
Continuous
 62
     3
370
     9
100
AcDbLine
 10
-187.8639653344869
 20
-725.559541222372
 30
0.0
 11
-189.5895179658009
 21
-734.187304378944
 31
0.0
  0
LINE
  5
C6
330
1F
100
AcDbEntity
  8
0-0
  6
Continuous
 62
     3
370
     9
100
AcDbLine
 10
-182.9611365238823
 20
-721.540298416508
 30
0.0
 11
-165.3934648744848
 21
-721.540298416508
 31
0.0
  0
LINE
  5
C7
330
1F
100
AcDbEntity
  8
0-0
  6
Continuous
 62
     3
370
     9
100
AcDbLine
 10
-237.587230993422
 20
-733.8001780994839
 30
0.0
 11
-244.887798423994
 21
-672.7045825126163
 31
0.0
  0
LINE
  5
C8
330
1F
100
AcDbEntity
  8
0-0
  6
Continuous
 62
     3
370
     9
100
AcDbLine
 10
-257.059814975283
 20
-798.2061658132714
 30
0.0
 11
-257.059814975283
 21
-818.2065892103012
 31
0.0
  0
LINE
  5
C9
330
1F
100
AcDbEntity
  8
0-0
  6
Continuous
 62
     3
370
     9
100
AcDbLine
 10
-209.8099295045722
 20
-717.539883424577
 30
0.0
 11
-230.9766864278602
 21
-717.539883424577
 31
0.0
  0
LINE
  5
CA
330
1F
100
AcDbEntity
  8
0-0
  6
Continuous
 62
     3
370
     9
100
AcDbLine
 10
-209.8099295045722
 20
-717.539883424577
 30
0.0
 11
-212.5270803363476
 21
-714.8732704091478
 31
0.0
  0
LINE
  5
CB
330
1F
100
AcDbEntity
  8
0-0
  6
Continuous
 62
     3
370
     9
100
AcDbLine
 10
-228.2598659086102
 20
-714.8732704091478
 30
0.0
 11
-230.9766864278602
 21
-717.539883424577
 31
0.0
  0
LINE
  5
CC
330
1F
100
AcDbEntity
  8
0-0
  6
Continuous
 62
     3
370
     9
100
AcDbLine
 10
-212.5270803363476
 20
-714.8732704091478
 30
0.0
 11
-228.2598659086102
 21
-714.8732704091478
 31
0.0
  0
LINE
  5
CD
330
1F
100
AcDbEntity
  8
0-0
  6
Continuous
 62
     3
370
     9
100
AcDbLine
 10
-237.0597218907778
 20
-798.2061658132714
 30
0.0
 11
-257.059814975283
 21
-798.2061658132714
 31
0.0
  0
LINE
  5
CE
330
1F
100
AcDbEntity
  8
0-0
  6
Continuous
 62
     3
370
     9
100
AcDbLine
 10
-210.393261423964
 20
-791.5397984309618
 30
0.0
 11
-210.393261423964
 21
-748.2067588833227
 31
0.0
  0
LINE
  5
CF
330
1F
100
AcDbEntity
  8
0-0
  6
Continuous
 62
     3
370
     9
100
AcDbLine
 10
-237.0597218907778
 20
-818.2065892103012
 30
0.0
 11
-257.059814975283
 21
-818.2065892103012
 31
0.0
  0
LINE
  5
D0
330
1F
100
AcDbEntity
  8
0-0
  6
Continuous
 62
     3
370
     9
100
AcDbLine
 10
-230.393024195943
 20
-791.5397984309618
 30
0.0
 11
-230.393024195943
 21
-748.2067588833227
 31
0.0
  0
LINE
  5
D1
330
1F
100
AcDbEntity
  8
0-0
  6
Continuous
 62
     3
370
     9
100
AcDbLine
 10
-228.2598659086102
 20
-748.2067588833227
 30
0.0
 11
-228.2598659086102
 21
-711.5400867179935
 31
0.0
  0
LINE
  5
D2
330
1F
100
AcDbEntity
  8
0-0
  6
Continuous
 62
     3
370
     9
100
AcDbLine
 10
-212.5270803363476
 20
-748.2067588833227
 30
0.0
 11
-212.5270803363476
 21
-711.5400867179935
 31
0.0
  0
LINE
  5
D3
330
1F
100
AcDbEntity
  8
0-0
  6
Continuous
 62
     3
370
     9
100
AcDbLine
 10
-209.8099295045722
 20
-748.2067588833227
 30
0.0
 11
-209.8099295045722
 21
-717.539883424577
 31
0.0
  0
LINE
  5
D4
330
1F
100
AcDbEntity
  8
0-0
  6
Continuous
 62
     3
370
     9
100
AcDbLine
 10
-230.9766864278602
 20
-748.2067588833227
 30
0.0
 11
-230.9766864278602
 21
-717.539883424577
 31
0.0
  0
LINE
  5
D5
330
1F
100
AcDbEntity
  8
0-0
  6
Continuous
 62
     3
370
     9
100
AcDbLine
 10
-209.8099295045722
 20
-748.2067588833227
 30
0.0
 11
-230.9766864278602
 21
-748.2067588833227
 31
0.0
  0
LINE
  5
D6
330
1F
100
AcDbEntity
  8
0-0
  6
JWW_PHANTOM1
 62
     3
370
     9
100
AcDbLine
 10
219.6062625489488
 20
-721.540298416508
 30
0.0
 11
212.939564854114
 21
-738.2068774973327
 31
0.0
  0
LINE
  5
D7
330
1F
100
AcDbEntity
  8
0-0
  6
JWW_PHANTOM1
 62
     3
370
     9
100
AcDbLine
 10
212.939564854114
 20
-738.2068774973327
 30
0.0
 11
202.9400137806496
 21
-738.2068774973327
 31
0.0
  0
LINE
  5
D8
330
1F
100
AcDbEntity
  8
0-0
  6
JWW_PHANTOM1
 62
     3
370
     9
100
AcDbLine
 10
202.9400137806496
 20
-738.2068774973327
 30
0.0
 11
199.606499776969
 21
-721.540298416508
 31
0.0
  0
LINE
  5
D9
330
1F
100
AcDbEntity
  8
0-0
  6
Continuous
 62
     3
370
     9
100
AcDbLine
 10
-298.7267581461325
 20
-668.2067168578287
 30
0.0
 11
-302.0602721498122
 21
-664.8735331666744
 31
0.0
  0
LINE
  5
DA
330
1F
100
AcDbEntity
  8
0-0
  6
Continuous
 62
     3
370
     9
100
AcDbLine
 10
-298.7267581461325
 20
-668.2067168578287
 30
0.0
 11
-282.0605093778324
 21
-668.2067168578287
 31
0.0
  0
LINE
  5
DB
330
1F
100
AcDbEntity
  8
0-0
  6
Continuous
 62
     3
370
     9
100
AcDbLine
 10
-249.4471022084568
 20
-667.1553320903183
 30
0.0
 11
-253.6605687791006
 21
-665.7861866736271
 31
0.0
  0
LINE
  5
DC
330
1F
100
AcDbEntity
  8
0-0
  6
Continuous
 62
     3
370
     9
100
AcDbLine
 10
311.2732732747979
 20
-668.2067168578287
 30
0.0
 11
314.6067872784777
 21
-664.8735331666744
 31
0.0
  0
LINE
  5
DD
330
1F
100
AcDbEntity
  8
0-0
  6
Continuous
 62
     3
370
     9
100
AcDbLine
 10
311.2732732747979
 20
-668.2067168578287
 30
0.0
 11
294.6063638814478
 21
-668.2067168578287
 31
0.0
  0
LINE
  5
DE
330
1F
100
AcDbEntity
  8
0-0
  6
Continuous
 62
     3
370
     9
100
AcDbLine
 10
-124.0763226677548
 20
-707.1977982625456
 30
0.0
 11
-178.6416396326694
 21
-703.3820279721663
 31
0.0
  0
LINE
  5
DF
330
1F
100
AcDbEntity
  8
0-0
  6
JWW_DASHED1
 62
     3
370
     9
100
AcDbLine
 10
-178.6416396326694
 20
-703.382358284691
 30
0.0
 11
-214.5466111150335
 21
-700.8716527811268
 31
0.0
  0
LINE
  5
E0
330
1F
100
AcDbEntity
  8
0-0
  6
Continuous
 62
     3
370
     9
100
AcDbLine
 10
-225.6120807071139
 20
-677.149267850856
 30
0.0
 11
-230.3936848209938
 21
-638.2067423873344
 31
0.0
  0
LINE
  5
E1
330
1F
100
AcDbEntity
  8
0-0
  6
JWW_DASHED1
 62
     3
370
     9
100
AcDbLine
 10
-223.7745521297786
 20
-692.1144071147012
 30
0.0
 11
-225.6120807071139
 21
-677.149267850856
 31
0.0
  0
LINE
  5
E2
330
1F
100
AcDbEntity
  8
0-0
  6
JWW_DASHED1
 62
     3
370
     9
100
AcDbLine
 10
-237.0081931368569
 20
-693.7395447383738
 30
0.0
 11
-239.1152567347042
 21
-676.5831121827716
 31
0.0
  0
LINE
  5
E3
330
1F
100
AcDbEntity
  8
0-0
  6
Continuous
 62
     3
370
     9
100
AcDbLine
 10
225.497386434763
 20
-721.540298416508
 30
0.0
 11
177.9399800031494
 21
-721.540298416508
 31
0.0
  0
LINE
  5
E4
330
1F
100
AcDbEntity
  8
0-0
  6
Continuous
 62
     3
370
     9
100
AcDbLine
 10
258.4965986334987
 20
-668.2916071767891
 30
0.0
 11
266.2074142202907
 21
-665.7861866736271
 31
0.0
  0
LINE
  5
E5
330
1F
100
AcDbEntity
  8
0-0
  6
Continuous
 62
     3
370
     9
100
AcDbLine
 10
248.6569188221999
 20
-701.0506821697509
 30
0.0
 11
251.6614415508442
 21
-676.583442495297
 31
0.0
  0
LINE
  5
E6
330
1F
100
AcDbEntity
  8
0-0
  6
Continuous
 62
     3
370
     9
100
AcDbLine
 10
204.9631779971121
 20
-681.5404425600238
 30
0.0
 11
209.6067114754844
 21
-681.5404425600238
 31
0.0
  0
LINE
  5
E7
330
1F
100
AcDbEntity
  8
0-0
  6
Continuous
 62
     3
370
     9
100
AcDbLine
 10
-192.4166628684467
 20
-681.5404425600238
 30
0.0
 11
-220.6494653294597
 21
-681.5404425600238
 31
0.0
  0
LINE
  5
E8
330
1F
100
AcDbEntity
  8
0-0
  6
JWW_CENTER1
 62
     3
370
     9
100
AcDbLine
 10
-237.0600522033032
 20
-808.2067078243113
 30
0.0
 11
-259.4489654695969
 21
-808.2067078243113
 31
0.0
  0
LINE
  5
E9
330
1F
100
AcDbEntity
  8
0-0
  6
Continuous
 62
     3
370
     9
100
AcDbLine
 10
-212.5270803363476
 20
-738.2068774973327
 30
0.0
 11
-194.492677088931
 21
-738.2068774973327
 31
0.0
  0
LINE
  5
EA
330
1F
100
AcDbEntity
  8
0-0
  6
Continuous
 62
     3
370
     9
100
AcDbLine
 10
-232.6219731155659
 20
-738.2068774973327
 30
0.0
 11
-228.2598659086102
 21
-738.2068774973327
 31
0.0
  0
LINE
  5
EB
330
1F
100
AcDbEntity
  8
0-0
  6
Continuous
 62
     3
370
     9
100
AcDbLine
 10
-212.5270803363476
 20
-711.5400867179935
 30
0.0
 11
-228.2598659086102
 21
-711.5400867179935
 31
0.0
  0
LINE
  5
EC
330
1F
100
AcDbEntity
  8
0-0
  6
Continuous
 62
     3
370
     9
100
AcDbLine
 10
-212.5270803363476
 20
-711.5400867179935
 30
0.0
 11
-220.3934731224785
 21
-706.997959184838
 31
0.0
  0
LINE
  5
ED
330
1F
100
AcDbEntity
  8
0-0
  6
Continuous
 62
     3
370
     9
100
AcDbLine
 10
-228.2598659086102
 20
-711.5400867179935
 30
0.0
 11
-220.3934731224785
 21
-706.997959184838
 31
0.0
  0
LINE
  5
EE
330
1F
100
AcDbEntity
  8
0-0
  6
JWW_CENTER1
 62
     3
370
     9
100
AcDbLine
 10
-220.3934731224785
 20
-791.5397984309618
 30
0.0
 11
-220.3934731224785
 21
-706.3558316359722
 31
0.0
  0
LINE
  5
EF
330
1F
100
AcDbEntity
  8
0-0
  6
Continuous
 62
     3
370
     9
100
AcDbLine
 10
207.9399544736438
 20
-704.8733890231586
 30
0.0
 11
227.940047558149
 21
-704.8733890231586
 31
0.0
  0
LINE
  5
F0
330
1F
100
AcDbEntity
  8
0-0
  6
Continuous
 62
     3
370
     9
100
AcDbLine
 10
209.6067114754844
 20
-708.2069030268383
 30
0.0
 11
226.2732905563091
 21
-708.2069030268383
 31
0.0
  0
LINE
  5
F1
330
1F
100
AcDbEntity
  8
0-0
  6
Continuous
 62
     3
370
     9
100
AcDbLine
 10
226.2732905563091
 20
-708.2069030268383
 30
0.0
 11
217.9398358596336
 21
-713.0179049554549
 31
0.0
  0
LINE
  5
F2
330
1F
100
AcDbEntity
  8
0-0
  6
Continuous
 62
     3
370
     9
100
AcDbLine
 10
209.6067114754844
 20
-708.2069030268383
 30
0.0
 11
217.9398358596336
 21
-713.0179049554549
 31
0.0
  0
LINE
  5
F3
330
1F
100
AcDbEntity
  8
0-0
  6
Continuous
 62
     3
370
     9
100
AcDbLine
 10
149.8868675558114
 20
-724.873482107663
 30
0.0
 11
174.6064659994697
 21
-724.873482107663
 31
0.0
  0
LINE
  5
F4
330
1F
100
AcDbEntity
  8
0-0
  6
Continuous
 62
     3
370
     9
100
AcDbLine
 10
133.2625684782041
 20
-740.3529179731463
 30
0.0
 11
124.6067287569956
 21
-861.5402893829905
 31
0.0
  0
LINE
  5
F5
330
1F
100
AcDbEntity
  8
0-0
  6
Continuous
 62
     3
370
     9
100
AcDbLine
 10
136.6225074838948
 20
-707.1977982625456
 30
0.0
 11
191.1881547613341
 21
-703.3820279721663
 31
0.0
  0
LINE
  5
F6
330
1F
100
AcDbEntity
  8
0-0
  6
Continuous
 62
     3
370
     9
100
AcDbLine
 10
227.940047558149
 20
-696.3080549338372
 30
0.0
 11
227.940047558149
 21
-704.8733890231586
 31
0.0
  0
LINE
  5
F7
330
1F
100
AcDbEntity
  8
0-0
  6
Continuous
 62
     3
370
     9
100
AcDbLine
 10
226.2732905563091
 20
-697.9744816231525
 30
0.0
 11
226.2732905563091
 21
-708.2069030268383
 31
0.0
  0
LINE
  5
F8
330
1F
100
AcDbEntity
  8
0-0
  6
Continuous
 62
     3
370
     9
100
AcDbLine
 10
209.6067114754844
 20
-697.9744816231525
 30
0.0
 11
209.6067114754844
 21
-708.2069030268383
 31
0.0
  0
LINE
  5
F9
330
1F
100
AcDbEntity
  8
0-0
  6
Continuous
 62
     3
370
     9
100
AcDbLine
 10
207.9399544736438
 20
-696.3080549338372
 30
0.0
 11
207.9399544736438
 21
-704.8733890231586
 31
0.0
  0
LINE
  5
FA
330
1F
100
AcDbEntity
  8
0-A
  6
Continuous
 62
     4
370
     9
100
AcDbLine
 10
216.2727485452691
 20
-654.6411117629877
 30
0.0
 11
219.6062625489488
 21
-654.6411117629877
 31
0.0
  0
LINE
  5
FB
330
1F
100
AcDbEntity
  8
0-A
  6
Continuous
 62
     4
370
     9
100
AcDbLine
 10
216.2727485452691
 20
-645.0346325944358
 30
0.0
 11
216.2727485452691
 21
-654.6411117629877
 31
0.0
  0
LINE
  5
FC
330
1F
100
AcDbEntity
  8
0-A
  6
Continuous
 62
     4
370
     9
100
AcDbLine
 10
209.6067114754844
 20
-697.974811935677
 30
0.0
 11
226.2729602437837
 21
-697.974811935677
 31
0.0
  0
LINE
  5
FD
330
1F
100
AcDbEntity
  8
0-A
  6
Continuous
 62
     4
370
     9
100
AcDbLine
 10
207.9399544736438
 20
-696.3080549338372
 30
0.0
 11
227.9393869330988
 21
-696.3080549338372
 31
0.0
  0
LINE
  5
FE
330
1F
100
AcDbEntity
  8
0-A
  6
Continuous
 62
     4
370
     9
100
AcDbLine
 10
207.9399544736438
 20
-696.3080549338372
 30
0.0
 11
209.6067114754844
 21
-697.974811935677
 31
0.0
  0
LINE
  5
FF
330
1F
100
AcDbEntity
  8
0-A
  6
Continuous
 62
     4
370
     9
100
AcDbLine
 10
227.9393869330988
 20
-696.3080549338372
 30
0.0
 11
226.2729602437837
 21
-697.974811935677
 31
0.0
  0
LINE
  5
100
330
1F
100
AcDbEntity
  8
0-A
  6
Continuous
 62
     4
370
     9
100
AcDbLine
 10
226.2729602437837
 20
-657.9746257666682
 30
0.0
 11
226.2729602437837
 21
-697.974811935677
 31
0.0
  0
LINE
  5
101
330
1F
100
AcDbEntity
  8
0-A
  6
Continuous
 62
     4
370
     9
100
AcDbLine
 10
209.6067114754844
 20
-657.9746257666682
 30
0.0
 11
209.6067114754844
 21
-697.974811935677
 31
0.0
  0
LINE
  5
102
330
1F
100
AcDbEntity
  8
0-A
  6
Continuous
 62
     4
370
     9
100
AcDbLine
 10
207.9399544736438
 20
-657.9746257666682
 30
0.0
 11
207.9399544736438
 21
-696.3080549338372
 31
0.0
  0
LINE
  5
103
330
1F
100
AcDbEntity
  8
0-A
  6
Continuous
 62
     4
370
     9
100
AcDbLine
 10
219.6062625489488
 20
-645.0346325944358
 30
0.0
 11
219.6062625489488
 21
-654.6411117629877
 31
0.0
  0
LINE
  5
104
330
1F
100
AcDbEntity
  8
0-A
  6
Continuous
 62
     4
370
     9
100
AcDbLine
 10
200.439878277889
 20
-657.9746257666682
 30
0.0
 11
235.4397934413782
 21
-657.9746257666682
 31
0.0
  0
LINE
  5
105
330
1F
100
AcDbEntity
  8
0-A
  6
JWW_CENTER1
 62
     4
370
     9
100
AcDbLine
 10
217.9398358596336
 20
-640.9338025948634
 30
0.0
 11
217.9398358596336
 21
-714.1597953548523
 31
0.0
  0
LINE
  5
106
330
1F
100
AcDbEntity
  8
0-3
  6
Continuous
 62
     4
370
     9
100
AcDbLine
 10
-183.7264706446239
 20
-721.540298416508
 30
0.0
 11
-183.7264706446239
 21
-904.8726683055797
 31
0.0
  0
LINE
  5
107
330
1F
100
AcDbEntity
  8
0-3
  6
Continuous
 62
     4
370
     9
100
AcDbLine
 10
-172.0598322567942
 20
-721.540298416508
 30
0.0
 11
-172.0598322567942
 21
-904.8726683055797
 31
0.0
  0
LINE
  5
108
330
1F
100
AcDbEntity
  8
0-3
  6
Continuous
 62
     4
370
     9
100
AcDbLine
 10
184.6063473854596
 20
-721.540298416508
 30
0.0
 11
184.6063473854596
 21
-904.8726683055797
 31
0.0
  0
LINE
  5
109
330
1F
100
AcDbEntity
  8
0-A
  6
Continuous
 62
     4
370
     9
100
AcDbLine
 10
227.9393869330988
 20
-657.9746257666682
 30
0.0
 11
227.9393869330988
 21
-696.3080549338372
 31
0.0
  0
LINE
  5
10A
330
1F
100
AcDbEntity
  8
0-3
  6
Continuous
 62
     4
370
     9
100
AcDbLine
 10
196.2736463983394
 20
-721.5399681039833
 30
0.0
 11
196.2736463983394
 21
-904.8726683055797
 31
0.0
  0
LINE
  5
10B
330
1F
100
AcDbEntity
  8
0-0
  6
Continuous
 62
     3
370
     9
100
AcDbLine
 10
121.1605781822436
 20
-722.6366056874369
 30
0.0
 11
111.2393111772372
 21
-861.5402893829905
 31
0.0
  0
LINE
  5
10C
330
1F
100
AcDbEntity
  8
0-0
  6
Continuous
 62
     3
370
     9
100
AcDbLine
 10
226.2732905563091
 20
-681.5404425600238
 30
0.0
 11
233.1953198330742
 21
-681.5404425600238
 31
0.0
  0
LINE
  5
10D
330
1F
100
AcDbEntity
  8
0-0
  6
JWW_DASHED1
 62
     3
370
     9
100
AcDbLine
 10
-189.84088579743
 20
-715.9649533047252
 30
0.0
 11
-215.4767711858183
 21
-714.1723472308079
 31
0.0
  0
LINE
  5
10E
330
1F
100
AcDbEntity
  8
0-0
  6
JWW_DASHED1
 62
     3
370
     9
100
AcDbLine
 10
202.3870706135707
 20
-715.9649533047252
 30
0.0
 11
228.0226256894329
 21
-714.1723472308079
 31
0.0
  0
LINE
  5
10F
330
1F
100
AcDbEntity
  8
0-3
  6
Continuous
 62
     4
370
     9
100
AcDbLine
 10
-183.7264706446239
 20
-904.8726683055797
 30
0.0
 11
196.2736463983394
 21
-904.8726683055797
 31
0.0
  0
LINE
  5
110
330
1F
100
AcDbEntity
  8
0-9
  6
Continuous
 62
     3
370
     9
100
AcDbLine
 10
181.2731636943045
 20
-904.8729986181052
 30
0.0
 11
181.2731636943045
 21
-879.8729648406049
 31
0.0
  0
LINE
  5
111
330
1F
100
AcDbEntity
  8
0-9
  6
Continuous
 62
     3
370
     9
100
AcDbLine
 10
181.2731636943045
 20
-904.8729986181052
 30
0.0
 11
179.2731213546017
 21
-904.8729986181052
 31
0.0
  0
LINE
  5
112
330
1F
100
AcDbEntity
  8
0-9
  6
Continuous
 62
     3
370
     9
100
AcDbLine
 10
179.2731213546017
 20
-904.8729986181052
 30
0.0
 11
179.2731213546017
 21
-881.8730071803086
 31
0.0
  0
LINE
  5
113
330
1F
100
AcDbEntity
  8
0-9
  6
Continuous
 62
     3
370
     9
100
AcDbLine
 10
-166.7266062259363
 20
-904.8729986181052
 30
0.0
 11
-168.7269788781645
 21
-904.8729986181052
 31
0.0
  0
LINE
  5
114
330
1F
100
AcDbEntity
  8
0-9
  6
Continuous
 62
     3
370
     9
100
AcDbLine
 10
-168.7269788781645
 20
-904.8729986181052
 30
0.0
 11
-168.7269788781645
 21
-879.8729648406049
 31
0.0
  0
LINE
  5
115
330
1F
100
AcDbEntity
  8
0-9
  6
Continuous
 62
     3
370
     9
100
AcDbLine
 10
-166.7266062259363
 20
-904.8729986181052
 30
0.0
 11
-166.7266062259363
 21
-881.8730071803086
 31
0.0
  0
LINE
  5
116
330
1F
100
AcDbEntity
  8
0-9
  6
Continuous
 62
     3
370
     9
100
AcDbLine
 10
105.1186200864527
 20
-882.8731935064227
 30
0.0
 11
106.8504486557451
 21
-879.8729648406049
 31
0.0
  0
LINE
  5
117
330
1F
100
AcDbEntity
  8
0-9
  6
Continuous
 62
     3
370
     9
100
AcDbLine
 10
106.2730623618056
 20
-884.8732358461255
 30
0.0
 11
108.0052212436226
 21
-881.8730071803086
 31
0.0
  0
LINE
  5
118
330
1F
100
AcDbEntity
  8
0-9
  6
Continuous
 62
     3
370
     9
100
AcDbLine
 10
106.2730623618056
 20
-884.8732358461255
 30
0.0
 11
-93.72687754566562
 21
-884.8732358461255
 31
0.0
  0
LINE
  5
119
330
1F
100
AcDbEntity
  8
0-9
  6
Continuous
 62
     3
370
     9
100
AcDbLine
 10
-93.72687754566562
 20
-884.8732358461255
 30
0.0
 11
-95.45903642748269
 21
-881.8730071803086
 31
0.0
  0
LINE
  5
11A
330
1F
100
AcDbEntity
  8
0-9
  6
Continuous
 62
     3
370
     9
100
AcDbLine
 10
-92.57210495778808
 20
-882.8731935064227
 30
0.0
 11
-94.30426383960514
 21
-879.8729648406049
 31
0.0
  0
LINE
  5
11B
330
1F
100
AcDbEntity
  8
0-9
  6
Continuous
 62
     2
370
     9
100
AcDbLine
 10
26.27335064883712
 20
-904.8729986181052
 30
0.0
 11
-13.7265052076471
 21
-904.8726683055797
 31
0.0
  0
LINE
  5
11C
330
1F
100
AcDbEntity
  8
0-9
  6
Continuous
 62
     2
370
     9
100
AcDbLine
 10
-13.7265052076471
 20
-904.8726683055797
 30
0.0
 11
-13.72683552017252
 21
-889.5673071408439
 31
0.0
  0
LINE
  5
11D
330
1F
100
AcDbEntity
  8
0-9
  6
Continuous
 62
     2
370
     9
100
AcDbLine
 10
-10.22585306624778
 20
-892.4258317333772
 30
0.0
 11
-15.39359252201239
 21
-888.2064195372805
 31
0.0
  0
LINE
  5
11E
330
1F
100
AcDbEntity
  8
0-9
  6
Continuous
 62
     2
370
     9
100
AcDbLine
 10
-10.22585306624778
 20
-892.4258317333772
 30
0.0
 11
-5.745493975293021
 21
-892.4258317333772
 31
0.0
  0
LINE
  5
11F
330
1F
100
AcDbEntity
  8
0-9
  6
Continuous
 62
     2
370
     9
100
AcDbLine
 10
-5.745493975293021
 20
-892.4258317333772
 30
0.0
 11
-5.745493975293021
 21
-884.8732358461255
 31
0.0
  0
LINE
  5
120
330
1F
100
AcDbEntity
  8
0-9
  6
Continuous
 62
     2
370
     9
100
AcDbLine
 10
-15.39359252201239
 20
-888.2064195372805
 30
0.0
 11
-15.39359252201239
 21
-884.8732358461255
 31
0.0
  0
LINE
  5
121
330
1F
100
AcDbEntity
  8
0-9
  6
Continuous
 62
     2
370
     9
100
AcDbLine
 10
26.27335064883712
 20
-904.8729986181052
 30
0.0
 11
26.27335064883712
 21
-889.5673071408439
 31
0.0
  0
LINE
  5
122
330
1F
100
AcDbEntity
  8
0-9
  6
Continuous
 62
     2
370
     9
100
AcDbLine
 10
22.77236819491315
 20
-892.4258317333772
 30
0.0
 11
27.93977733815233
 21
-888.2064195372805
 31
0.0
  0
LINE
  5
123
330
1F
100
AcDbEntity
  8
0-9
  6
Continuous
 62
     2
370
     9
100
AcDbLine
 10
22.77236819491315
 20
-892.4258317333772
 30
0.0
 11
18.29134847890755
 21
-892.4258317333772
 31
0.0
  0
LINE
  5
124
330
1F
100
AcDbEntity
  8
0-9
  6
Continuous
 62
     2
370
     9
100
AcDbLine
 10
18.29134847890755
 20
-892.4258317333772
 30
0.0
 11
18.29134847890755
 21
-884.8732358461255
 31
0.0
  0
LINE
  5
125
330
1F
100
AcDbEntity
  8
0-9
  6
Continuous
 62
     2
370
     9
100
AcDbLine
 10
27.93977733815233
 20
-888.2064195372805
 30
0.0
 11
27.93977733815233
 21
-884.8732358461255
 31
0.0
  0
LINE
  5
126
330
1F
100
AcDbEntity
  8
0-9
  6
Continuous
 62
     2
370
     9
100
AcDbLine
 10
27.93977733815233
 20
-884.8732358461255
 30
0.0
 11
-15.39359252201239
 21
-884.8732358461255
 31
0.0
  0
LINE
  5
127
330
1F
100
AcDbEntity
  8
0-9
  6
Continuous
 62
     3
370
     9
100
AcDbLine
 10
-8.72689482717757
 20
-884.8732358461255
 30
0.0
 11
-8.72689482717757
 21
-882.8731935064227
 31
0.0
  0
LINE
  5
128
330
1F
100
AcDbEntity
  8
0-9
  6
Continuous
 62
     3
370
     9
100
AcDbLine
 10
21.27307964331676
 20
-884.8732358461255
 30
0.0
 11
21.27307964331676
 21
-882.8731935064227
 31
0.0
  0
LINE
  5
129
330
1F
100
AcDbEntity
  8
0-9
  6
Continuous
 62
     3
370
     9
100
AcDbLine
 10
-7.059807512812282
 20
-882.8731935064227
 30
0.0
 11
-92.57210495778808
 21
-882.8731935064227
 31
0.0
  0
LINE
  5
12A
330
1F
100
AcDbEntity
  8
0-9
  6
Continuous
 62
     3
370
     9
100
AcDbLine
 10
105.1186200864527
 20
-882.8731935064227
 30
0.0
 11
19.60665295400231
 21
-882.8731935064227
 31
0.0
  0
LINE
  5
12B
330
1F
100
AcDbEntity
  8
0-9
  6
Continuous
 62
     3
370
     9
100
AcDbLine
 10
-130.3935497109948
 20
-881.8730071803086
 30
0.0
 11
-130.3935497109948
 21
-879.8729648406049
 31
0.0
  0
LINE
  5
12C
330
1F
100
AcDbEntity
  8
0-9
  6
Continuous
 62
     3
370
     9
100
AcDbLine
 10
-117.0601543213251
 20
-881.8730071803086
 30
0.0
 11
-117.0601543213251
 21
-879.8729648406049
 31
0.0
  0
LINE
  5
12D
330
1F
100
AcDbEntity
  8
0-9
  6
Continuous
 62
     3
370
     9
100
AcDbLine
 10
142.9397345271355
 20
-881.8730071803086
 30
0.0
 11
142.9397345271355
 21
-879.8729648406049
 31
0.0
  0
LINE
  5
12E
330
1F
100
AcDbEntity
  8
0-9
  6
Continuous
 62
     3
370
     9
100
AcDbLine
 10
129.6066694499905
 20
-881.8730071803086
 30
0.0
 11
129.6066694499905
 21
-879.8729648406049
 31
0.0
  0
LINE
  5
12F
330
1F
100
AcDbEntity
  8
0-9
  6
Continuous
 62
     3
370
     9
100
AcDbLine
 10
179.2731213546017
 20
-881.8730071803086
 30
0.0
 11
108.0052212436226
 21
-881.8730071803086
 31
0.0
  0
LINE
  5
130
330
1F
100
AcDbEntity
  8
0-9
  6
Continuous
 62
     3
370
     9
100
AcDbLine
 10
181.2731636943045
 20
-879.8729648406049
 30
0.0
 11
19.60665295400231
 21
-879.8729648406049
 31
0.0
  0
LINE
  5
131
330
1F
100
AcDbEntity
  8
0-9
  6
Continuous
 62
     3
370
     9
100
AcDbLine
 10
-95.45903642748269
 20
-881.8730071803086
 30
0.0
 11
-166.7266062259363
 21
-881.8730071803086
 31
0.0
  0
LINE
  5
132
330
1F
100
AcDbEntity
  8
0-9
  6
Continuous
 62
     3
370
     9
100
AcDbLine
 10
-7.059807512812282
 20
-879.8729648406049
 30
0.0
 11
-168.7269788781645
 21
-879.8729648406049
 31
0.0
  0
LINE
  5
133
330
1F
100
AcDbEntity
  8
0-1
  6
Continuous
 62
     4
370
     9
100
AcDbLine
 10
447.9400805501253
 20
-634.8732283836547
 30
0.0
 11
489.6063630959241
 21
-468.2067769503576
 31
0.0
  0
LINE
  5
134
330
1F
100
AcDbEntity
  8
0-1
  6
Continuous
 62
     4
370
     9
100
AcDbLine
 10
22.94016695768281
 20
-468.2067769503576
 30
0.0
 11
22.94016695768281
 21
-634.8732283836547
 31
0.0
  0
LINE
  5
135
330
1F
100
AcDbEntity
  8
0-1
  6
Continuous
 62
     4
370
     9
100
AcDbLine
 10
-10.39332151649202
 20
-468.2067769503576
 30
0.0
 11
-10.39332151649202
 21
-634.8732283836547
 31
0.0
  0
LINE
  5
136
330
1F
100
AcDbEntity
  8
0-1
  6
Continuous
 62
     4
370
     9
100
AcDbLine
 10
-477.0601782797848
 20
-468.2067769503576
 30
0.0
 11
-435.3935654214599
 21
-634.8735586961793
 31
0.0
  0
LINE
  5
137
330
1F
100
AcDbEntity
  8
0-4
  6
Continuous
 62
     6
370
     9
100
AcDbLine
 10
-260.3933289789627
 20
-468.2067769503576
 30
0.0
 11
-260.3933289789627
 21
-441.5393255459674
 31
0.0
  0
LINE
  5
138
330
1F
100
AcDbEntity
  8
0-4
  6
Continuous
 62
     6
370
     9
100
AcDbLine
 10
272.9398441076281
 20
-468.2067769503576
 30
0.0
 11
272.9398441076281
 21
-441.5393255459674
 31
0.0
  0
LINE
  5
139
330
1F
100
AcDbEntity
  8
0-4
  6
Continuous
 62
     6
370
     9
100
AcDbLine
 10
20.43970114239682
 20
-449.2065398794418
 30
0.0
 11
20.43970114239682
 21
-441.5393255459674
 31
0.0
  0
LINE
  5
13A
330
1F
100
AcDbEntity
  8
0-4
  6
Continuous
 62
     6
370
     9
100
AcDbLine
 10
-7.893516326257637
 20
-449.2065398794418
 30
0.0
 11
-7.893516326257637
 21
-441.5393255459674
 31
0.0
  0
LINE
  5
13B
330
1F
100
AcDbEntity
  8
0-B
  6
Continuous
 62
     2
370
     9
100
AcDbLine
 10
-30.35377709798009
 20
-404.8733140056884
 30
0.0
 11
-40.39362629951177
 21
-404.8733140056884
 31
0.0
  0
LINE
  5
13C
330
1F
100
AcDbEntity
  8
0-B
  6
Continuous
 62
     2
370
     9
100
AcDbLine
 10
-19.07360436456047
 20
-411.0977232293655
 30
0.0
 11
-10.39332151649202
 21
-424.8730767776681
 31
0.0
  0
LINE
  5
13D
330
1F
100
AcDbEntity
  8
0-B
  6
Continuous
 62
     2
370
     9
100
AcDbLine
 10
-10.39332151649202
 20
-431.2058285095893
 30
0.0
 11
-10.39332151649202
 21
-437.539901491612
 31
0.0
  0
LINE
  5
13E
330
1F
100
AcDbEntity
  8
0-B
  6
Continuous
 62
     2
370
     9
100
AcDbLine
 10
42.90062253917088
 20
-404.8733140056884
 30
0.0
 11
52.93981111565172
 21
-404.8733140056884
 31
0.0
  0
LINE
  5
13F
330
1F
100
AcDbEntity
  8
0-B
  6
Continuous
 62
     2
370
     9
100
AcDbLine
 10
31.62011949322583
 20
-411.0977232293655
 30
0.0
 11
22.94016695768281
 21
-424.8730767776681
 31
0.0
  0
LINE
  5
140
330
1F
100
AcDbEntity
  8
0-B
  6
Continuous
 62
     2
370
     9
100
AcDbLine
 10
22.94016695768281
 20
-431.2058285095893
 30
0.0
 11
22.94016695768281
 21
-437.539901491612
 31
0.0
  0
LINE
  5
141
330
1F
100
AcDbEntity
  8
0-8
  6
Continuous
 62
     6
370
     9
100
AcDbLine
 10
19.60665295400231
 20
-373.7945388280973
 30
0.0
 11
-7.059807512812282
 21
-373.7945388280973
 31
0.0
  0
LINE
  5
142
330
1F
100
AcDbEntity
  8
0-8
  6
Continuous
 62
     6
370
     9
100
AcDbLine
 10
-7.059807512812282
 20
-373.7945388280973
 30
0.0
 11
-4.805094216228523
 21
-371.5391649064634
 31
0.0
  0
LINE
  5
143
330
1F
100
AcDbEntity
  8
0-8
  6
Continuous
 62
     6
370
     9
100
AcDbLine
 10
-4.805094216228523
 20
-371.5391649064634
 30
0.0
 11
17.35160934489389
 21
-371.5391649064634
 31
0.0
  0
LINE
  5
144
330
1F
100
AcDbEntity
  8
0-8
  6
Continuous
 62
     6
370
     9
100
AcDbLine
 10
17.35160934489389
 20
-371.5391649064634
 30
0.0
 11
19.60665295400231
 21
-373.7945388280973
 31
0.0
  0
LINE
  5
145
330
1F
100
AcDbEntity
  8
0-B
  6
Continuous
 62
     2
370
     9
100
AcDbLine
 10
-10.39332151649202
 20
-431.2058285095893
 30
0.0
 11
-4.805094216228523
 21
-431.2058285095893
 31
0.0
  0
LINE
  5
146
330
1F
100
AcDbEntity
  8
0-B
  6
Continuous
 62
     2
370
     9
100
AcDbLine
 10
17.35160934489389
 20
-431.2058285095893
 30
0.0
 11
22.94016695768281
 21
-431.2058285095893
 31
0.0
  0
LINE
  5
147
330
1F
100
AcDbEntity
  8
0-B
  6
Continuous
 62
     2
370
     9
100
AcDbLine
 10
-10.39332151649202
 20
-424.8730767776681
 30
0.0
 11
-7.059807512812282
 21
-424.8730767776681
 31
0.0
  0
LINE
  5
148
330
1F
100
AcDbEntity
  8
0-B
  6
Continuous
 62
     2
370
     9
100
AcDbLine
 10
19.60665295400231
 20
-424.8730767776681
 30
0.0
 11
22.94016695768281
 21
-424.8730767776681
 31
0.0
  0
LINE
  5
149
330
1F
100
AcDbEntity
  8
0-B
  6
Continuous
 62
     2
370
     9
100
AcDbLine
 10
25.60644966058592
 20
-441.5393255459674
 30
0.0
 11
19.60665295400231
 21
-441.5393255459674
 31
0.0
  0
LINE
  5
14A
330
1F
100
AcDbEntity
  8
0-B
  6
Continuous
 62
     2
370
     9
100
AcDbLine
 10
-7.059807512812282
 20
-441.5393255459674
 30
0.0
 11
-13.05993453192132
 21
-441.5393255459674
 31
0.0
  0
LINE
  5
14B
330
1F
100
AcDbEntity
  8
0-0
  6
Continuous
 62
     3
370
     9
100
AcDbLine
 10
-112.0602136283302
 20
-861.5402893829905
 30
0.0
 11
-7.059807512812282
 21
-861.5402893829905
 31
0.0
  0
LINE
  5
14C
330
1F
100
AcDbEntity
  8
0-0
  6
Continuous
 62
     3
370
     9
100
AcDbLine
 10
19.60665295400231
 20
-861.5402893829905
 30
0.0
 11
124.6067287569956
 21
-861.5402893829905
 31
0.0
  0
LINE
  5
14D
330
1F
100
AcDbEntity
  8
0-4
  6
Continuous
 62
     6
370
     9
100
AcDbLine
 10
-260.3933289789627
 20
-468.2067769503576
 30
0.0
 11
-7.059807512812282
 21
-468.2067769503576
 31
0.0
  0
LINE
  5
14E
330
1F
100
AcDbEntity
  8
0-4
  6
Continuous
 62
     6
370
     9
100
AcDbLine
 10
19.60665295400231
 20
-468.2067769503576
 30
0.0
 11
272.9398441076281
 21
-468.2067769503576
 31
0.0
  0
LINE
  5
14F
330
1F
100
AcDbEntity
  8
0-1
  6
Continuous
 62
     4
370
     9
100
AcDbLine
 10
489.6063630959241
 20
-468.2067769503576
 30
0.0
 11
19.60665295400231
 21
-468.2067769503576
 31
0.0
  0
LINE
  5
150
330
1F
100
AcDbEntity
  8
0-1
  6
Continuous
 62
     4
370
     9
100
AcDbLine
 10
-7.059807512812282
 20
-468.2067769503576
 30
0.0
 11
-477.0601782797848
 21
-468.2067769503576
 31
0.0
  0
LINE
  5
151
330
1F
100
AcDbEntity
  8
0-4
  6
Continuous
 62
     6
370
     9
100
AcDbLine
 10
-260.3933289789627
 20
-449.2065398794418
 30
0.0
 11
-7.059807512812282
 21
-449.2065398794418
 31
0.0
  0
LINE
  5
152
330
1F
100
AcDbEntity
  8
0-4
  6
Continuous
 62
     6
370
     9
100
AcDbLine
 10
19.60665295400231
 20
-449.2065398794418
 30
0.0
 11
272.9398441076281
 21
-449.2065398794418
 31
0.0
  0
LINE
  5
153
330
1F
100
AcDbEntity
  8
0-4
  6
Continuous
 62
     6
370
     9
100
AcDbLine
 10
-260.3933289789627
 20
-441.5393255459674
 30
0.0
 11
-7.059807512812282
 21
-441.5393255459674
 31
0.0
  0
LINE
  5
154
330
1F
100
AcDbEntity
  8
0-4
  6
Continuous
 62
     6
370
     9
100
AcDbLine
 10
19.60665295400231
 20
-441.5393255459674
 30
0.0
 11
272.9398441076281
 21
-441.5393255459674
 31
0.0
  0
LINE
  5
155
330
1F
100
AcDbEntity
  8
0-0
  6
JWW_CENTER1
 62
     3
370
     9
100
AcDbLine
 10
6.273257564332684
 20
-341.5097926212317
 30
0.0
 11
6.273257564332684
 21
-934.1555342840022
 31
0.0
  0
LINE
  5
156
330
1F
100
AcDbEntity
  8
0-C
  6
Continuous
 62
     2
370
     9
100
AcDbLine
 10
172.9400393101545
 20
-685.5398666143799
 30
0.0
 11
172.9400393101545
 21
-681.5397819349737
 31
0.0
  0
LINE
  5
157
330
1F
100
AcDbEntity
  8
0-C
  6
Continuous
 62
     2
370
     9
100
AcDbLine
 10
-160.3931938689644
 20
-681.5397819349737
 30
0.0
 11
-160.3931938689644
 21
-685.5398666143799
 31
0.0
  0
LINE
  5
158
330
1F
100
AcDbEntity
  8
0-C
  6
Continuous
 62
     2
370
     9
100
AcDbLine
 10
22.94016695768281
 20
-681.5397819349737
 30
0.0
 11
172.9400393101545
 21
-681.5397819349737
 31
0.0
  0
LINE
  5
159
330
1F
100
AcDbEntity
  8
0-C
  6
Continuous
 62
     2
370
     9
100
AcDbLine
 10
21.27340995584218
 20
-679.8730249331338
 30
0.0
 11
21.27340995584218
 21
-671.5399005489837
 31
0.0
  0
LINE
  5
15A
330
1F
100
AcDbEntity
  8
0-C
  6
Continuous
 62
     2
370
     9
100
AcDbLine
 10
-8.72689482717757
 20
-679.8730249331338
 30
0.0
 11
-8.72689482717757
 21
-671.5399005489837
 31
0.0
  0
LINE
  5
15B
330
1F
100
AcDbEntity
  8
0-C
  6
Continuous
 62
     2
370
     9
100
AcDbLine
 10
-10.39365182901744
 20
-681.5397819349737
 30
0.0
 11
-160.3931938689644
 21
-681.5397819349737
 31
0.0
  0
LINE
  5
15C
330
1F
100
AcDbEntity
  8
0-C
  6
Continuous
 62
     2
370
     9
100
AcDbLine
 10
-60.39338907149155
 20
-718.8730247760286
 30
0.0
 11
-60.39338907149155
 21
-685.5398666143799
 31
0.0
  0
LINE
  5
15D
330
1F
100
AcDbEntity
  8
0-C
  6
Continuous
 62
     2
370
     9
100
AcDbLine
 10
-98.07907537686785
 20
-725.5397224708643
 30
0.0
 11
-67.06008676632636
 21
-725.5397224708643
 31
0.0
  0
LINE
  5
15E
330
1F
100
AcDbEntity
  8
0-C
  6
Continuous
 62
     2
370
     9
100
AcDbLine
 10
-104.6549371272901
 20
-719.9690017344328
 30
0.0
 11
-110.3934566264903
 21
-685.5398666143799
 31
0.0
  0
LINE
  5
15F
330
1F
100
AcDbEntity
  8
0-C
  6
Continuous
 62
     2
370
     9
100
AcDbLine
 10
72.93990420015616
 20
-718.8730247760286
 30
0.0
 11
72.93990420015616
 21
-685.5398666143799
 31
0.0
  0
LINE
  5
160
330
1F
100
AcDbEntity
  8
0-C
  6
Continuous
 62
     2
370
     9
100
AcDbLine
 10
110.6259208180579
 20
-725.5397224708643
 30
0.0
 11
79.60660189499173
 21
-725.5397224708643
 31
0.0
  0
LINE
  5
161
330
1F
100
AcDbEntity
  8
0-C
  6
Continuous
 62
     2
370
     9
100
AcDbLine
 10
117.2017825684801
 20
-719.9690017344328
 30
0.0
 11
122.9396414426303
 21
-685.5398666143799
 31
0.0
  0
LINE
  5
162
330
1F
100
AcDbEntity
  8
0-C
  6
Continuous
 62
     2
370
     9
100
AcDbLine
 10
19.60632264147689
 20
-671.5399005489837
 30
0.0
 11
19.60632264147689
 21
-684.4554505943556
 31
0.0
  0
LINE
  5
163
330
1F
100
AcDbEntity
  8
0-C
  6
Continuous
 62
     2
370
     9
100
AcDbLine
 10
-7.060137825337702
 20
-671.5399005489837
 30
0.0
 11
-7.060137825337702
 21
-684.4554505943556
 31
0.0
  0
LINE
  5
164
330
1F
100
AcDbEntity
  8
0-0
  6
Continuous
 62
     3
370
     9
100
AcDbLine
 10
137.7855378849017
 20
-707.1568395094289
 30
0.0
 11
119.3369227309639
 21
-707.1568395094289
 31
0.0
  0
LINE
  5
165
330
1F
100
AcDbEntity
  8
0-0
  6
Continuous
 62
     3
370
     9
100
AcDbLine
 10
72.93990420015616
 20
-707.1568395094289
 30
0.0
 11
19.60665295400231
 21
-707.1568395094289
 31
0.0
  0
LINE
  5
166
330
1F
100
AcDbEntity
  8
0-0
  6
Continuous
 62
     3
370
     9
100
AcDbLine
 10
-7.059807512812282
 20
-707.1568395094289
 30
0.0
 11
-60.39338907149155
 21
-707.1568395094289
 31
0.0
  0
LINE
  5
167
330
1F
100
AcDbEntity
  8
0-0
  6
Continuous
 62
     3
370
     9
100
AcDbLine
 10
-106.7904076022993
 20
-707.1568395094289
 30
0.0
 11
-125.238692443711
 21
-707.1568395094289
 31
0.0
  0
LINE
  5
168
330
1F
100
AcDbEntity
  8
0-C
  6
Continuous
 62
     2
370
     9
100
AcDbLine
 10
172.9400393101545
 20
-685.5398666143799
 30
0.0
 11
19.60665295400231
 21
-685.5398666143799
 31
0.0
  0
LINE
  5
169
330
1F
100
AcDbEntity
  8
0-C
  6
Continuous
 62
     2
370
     9
100
AcDbLine
 10
-7.059807512812282
 20
-685.5398666143799
 30
0.0
 11
-160.3931938689644
 21
-685.5398666143799
 31
0.0
  0
LINE
  5
16A
330
1F
100
AcDbEntity
  8
0-C
  6
Continuous
 62
     2
370
     9
100
AcDbLine
 10
-4.805094216228523
 20
-671.5399005489837
 30
0.0
 11
-8.72689482717757
 21
-671.5399005489837
 31
0.0
  0
LINE
  5
16B
330
1F
100
AcDbEntity
  8
0-C
  6
Continuous
 62
     2
370
     9
100
AcDbLine
 10
21.27340995584218
 20
-671.5399005489837
 30
0.0
 11
17.35160934489389
 21
-671.5399005489837
 31
0.0
  0
LINE
  5
16C
330
1F
100
AcDbEntity
  8
0-8
  6
Continuous
 62
     6
370
     9
100
AcDbLine
 10
-4.805094216228523
 20
-371.5391649064634
 30
0.0
 11
-4.805094216228523
 21
-884.8732358461255
 31
0.0
  0
LINE
  5
16D
330
1F
100
AcDbEntity
  8
0-8
  6
Continuous
 62
     6
370
     9
100
AcDbLine
 10
-7.059807512812282
 20
-373.7945388280973
 30
0.0
 11
-7.059807512812282
 21
-884.8732358461255
 31
0.0
  0
LINE
  5
16E
330
1F
100
AcDbEntity
  8
0-8
  6
Continuous
 62
     6
370
     9
100
AcDbLine
 10
19.60665295400231
 20
-373.7945388280973
 30
0.0
 11
19.60665295400231
 21
-884.8732358461255
 31
0.0
  0
LINE
  5
16F
330
1F
100
AcDbEntity
  8
0-8
  6
Continuous
 62
     6
370
     9
100
AcDbLine
 10
17.35160934489389
 20
-371.5391649064634
 30
0.0
 11
17.35160934489389
 21
-884.8732358461255
 31
0.0
  0
LINE
  5
170
330
1F
100
AcDbEntity
  8
0-1
  6
Continuous
 62
     4
370
     9
100
AcDbLine
 10
447.9400805501253
 20
-634.8732283836547
 30
0.0
 11
19.60665295400231
 21
-634.8735586961793
 31
0.0
  0
LINE
  5
171
330
1F
100
AcDbEntity
  8
0-1
  6
Continuous
 62
     4
370
     9
100
AcDbLine
 10
-7.059807512812282
 20
-634.8735586961793
 30
0.0
 11
-435.3935654214599
 21
-634.8735586961793
 31
0.0
  0
LINE
  5
172
330
1F
100
AcDbEntity
  8
0-0
  6
Continuous
 62
     3
370
     9
100
AcDbLine
 10
308.3301886758288
 20
-638.2067423873344
 30
0.0
 11
19.60665295400231
 21
-638.2067423873344
 31
0.0
  0
LINE
  5
173
330
1F
100
AcDbEntity
  8
0-0
  6
Continuous
 62
     3
370
     9
100
AcDbLine
 10
311.6379383025485
 20
-641.1263747970183
 30
0.0
 11
314.6064569659522
 21
-664.8735331666744
 31
0.0
  0
LINE
  5
174
330
1F
100
AcDbEntity
  8
0-0
  6
Continuous
 62
     3
370
     9
100
AcDbLine
 10
-295.7843341722142
 20
-638.2067423873344
 30
0.0
 11
-7.059807512812282
 21
-638.2067423873344
 31
0.0
  0
LINE
  5
175
330
1F
100
AcDbEntity
  8
0-0
  6
Continuous
 62
     3
370
     9
100
AcDbLine
 10
-299.0920837989339
 20
-641.1263747970183
 30
0.0
 11
-302.0602721498122
 21
-664.8735331666744
 31
0.0
  0
LINE
  5
176
330
1F
100
AcDbEntity
  8
0-3
  6
Continuous
 62
     6
370
     9
100
AcDbLine
 10
-302.8939809632575
 20
-661.540019162994
 30
0.0
 11
-299.5604669595771
 21
-638.2070726998599
 31
0.0
  0
LINE
  5
177
330
1F
100
AcDbEntity
  8
0-3
  6
Continuous
 62
     6
370
     9
100
AcDbLine
 10
-321.2269867333967
 20
-661.540019162994
 30
0.0
 11
-302.8939809632575
 21
-661.540019162994
 31
0.0
  0
LINE
  5
178
330
1F
100
AcDbEntity
  8
0-3
  6
Continuous
 62
     6
370
     9
100
AcDbLine
 10
333.7735018620622
 20
-661.540019162994
 30
0.0
 11
315.4401657793976
 21
-661.540019162994
 31
0.0
  0
LINE
  5
179
330
1F
100
AcDbEntity
  8
0-3
  6
Continuous
 62
     6
370
     9
100
AcDbLine
 10
315.4401657793976
 20
-661.540019162994
 30
0.0
 11
312.1066517757179
 21
-638.2070726998599
 31
0.0
  0
LINE
  5
17A
330
1F
100
AcDbEntity
  8
0-3
  6
Continuous
 62
     6
370
     9
100
AcDbLine
 10
-329.5601111175467
 20
-634.8735586961793
 30
0.0
 11
-321.2269867333967
 21
-661.540019162994
 31
0.0
  0
LINE
  5
17B
330
1F
100
AcDbEntity
  8
0-3
  6
Continuous
 62
     6
370
     9
100
AcDbLine
 10
342.1066262462122
 20
-634.8735586961793
 30
0.0
 11
333.7735018620622
 21
-661.540019162994
 31
0.0
  0
LINE
  5
17C
330
1F
100
AcDbEntity
  8
0-3
  6
Continuous
 62
     6
370
     9
100
AcDbLine
 10
-7.393423163199833
 20
-634.8735586961793
 30
0.0
 11
-7.393423163199833
 21
-638.2070726998599
 31
0.0
  0
LINE
  5
17D
330
1F
100
AcDbEntity
  8
0-3
  6
Continuous
 62
     6
370
     9
100
AcDbLine
 10
19.9399382918652
 20
-634.8735586961793
 30
0.0
 11
19.9399382918652
 21
-638.2070726998599
 31
0.0
  0
LINE
  5
17E
330
1F
100
AcDbEntity
  8
0-3
  6
Continuous
 62
     6
370
     9
100
AcDbLine
 10
-7.059807512812282
 20
-634.8735586961793
 30
0.0
 11
-329.5601111175467
 21
-634.8735586961793
 31
0.0
  0
LINE
  5
17F
330
1F
100
AcDbEntity
  8
0-3
  6
Continuous
 62
     6
370
     9
100
AcDbLine
 10
-7.059807512812282
 20
-638.2070726998599
 30
0.0
 11
-299.5604669595771
 21
-638.2070726998599
 31
0.0
  0
LINE
  5
180
330
1F
100
AcDbEntity
  8
0-3
  6
Continuous
 62
     6
370
     9
100
AcDbLine
 10
342.1066262462122
 20
-634.8735586961793
 30
0.0
 11
19.60665295400231
 21
-634.8735586961793
 31
0.0
  0
LINE
  5
181
330
1F
100
AcDbEntity
  8
0-3
  6
Continuous
 62
     6
370
     9
100
AcDbLine
 10
312.1066517757179
 20
-638.2070726998599
 30
0.0
 11
19.60665295400231
 21
-638.2070726998599
 31
0.0
  0
LINE
  5
182
330
1F
100
AcDbEntity
  8
0-3
  6
Continuous
 62
     6
370
     9
100
AcDbLine
 10
326.1839109719949
 20
-661.540019162994
 30
0.0
 11
337.2232858745899
 21
-650.5009745729244
 31
0.0
  0
LINE
  5
183
330
1F
100
AcDbEntity
  8
0-3
  6
Continuous
 62
     6
370
     9
100
AcDbLine
 10
316.755800567017
 20
-661.540019162994
 30
0.0
 11
341.5084302631893
 21
-636.7877197793471
 31
0.0
  0
LINE
  5
184
330
1F
100
AcDbEntity
  8
0-3
  6
Continuous
 62
     6
370
     9
100
AcDbLine
 10
314.4261063272279
 20
-654.4422636228558
 30
0.0
 11
333.9948112539037
 21
-634.8735586961793
 31
0.0
  0
LINE
  5
185
330
1F
100
AcDbEntity
  8
0-3
  6
Continuous
 62
     6
370
     9
100
AcDbLine
 10
313.2472209250144
 20
-646.1923779950405
 30
0.0
 11
324.5663705364003
 21
-634.8735586961793
 31
0.0
  0
LINE
  5
186
330
1F
100
AcDbEntity
  8
0-3
  6
Continuous
 62
     6
370
     9
100
AcDbLine
 10
311.8047461277426
 20
-638.2070726998599
 30
0.0
 11
315.1382601314224
 21
-634.8735586961793
 31
0.0
  0
LINE
  5
187
330
1F
100
AcDbEntity
  8
0-3
  6
Continuous
 62
     6
370
     9
100
AcDbLine
 10
302.3769660352893
 20
-638.2070726998599
 30
0.0
 11
305.7101497264443
 21
-634.8735586961793
 31
0.0
  0
LINE
  5
188
330
1F
100
AcDbEntity
  8
0-3
  6
Continuous
 62
     6
370
     9
100
AcDbLine
 10
292.9488556303113
 20
-638.2070726998599
 30
0.0
 11
296.282369633991
 21
-634.8735586961793
 31
0.0
  0
LINE
  5
189
330
1F
100
AcDbEntity
  8
0-3
  6
Continuous
 62
     6
370
     9
100
AcDbLine
 10
283.5207452253334
 20
-638.2070726998599
 30
0.0
 11
286.8542592290139
 21
-634.8735586961793
 31
0.0
  0
LINE
  5
18A
330
1F
100
AcDbEntity
  8
0-3
  6
Continuous
 62
     6
370
     9
100
AcDbLine
 10
274.0926348203554
 20
-638.2070726998599
 30
0.0
 11
277.4261488240352
 21
-634.8735586961793
 31
0.0
  0
LINE
  5
18B
330
1F
100
AcDbEntity
  8
0-3
  6
Continuous
 62
     6
370
     9
100
AcDbLine
 10
264.664194102852
 20
-638.2070726998599
 30
0.0
 11
267.9980384190571
 21
-634.8735586961793
 31
0.0
  0
LINE
  5
18C
330
1F
100
AcDbEntity
  8
0-3
  6
Continuous
 62
     6
370
     9
100
AcDbLine
 10
255.2364140103995
 20
-638.2070726998599
 30
0.0
 11
258.5699280140792
 21
-634.8735586961793
 31
0.0
  0
LINE
  5
18D
330
1F
100
AcDbEntity
  8
0-3
  6
Continuous
 62
     6
370
     9
100
AcDbLine
 10
245.8079732928961
 20
-638.2070726998599
 30
0.0
 11
249.1414872965758
 21
-634.8735586961793
 31
0.0
  0
LINE
  5
18E
330
1F
100
AcDbEntity
  8
0-3
  6
Continuous
 62
     6
370
     9
100
AcDbLine
 10
236.3801932004428
 20
-638.2070726998599
 30
0.0
 11
239.7137072041232
 21
-634.8735586961793
 31
0.0
  0
LINE
  5
18F
330
1F
100
AcDbEntity
  8
0-3
  6
Continuous
 62
     6
370
     9
100
AcDbLine
 10
226.9520827954648
 20
-638.2070726998599
 30
0.0
 11
230.2855967991445
 21
-634.8735586961793
 31
0.0
  0
LINE
  5
190
330
1F
100
AcDbEntity
  8
0-3
  6
Continuous
 62
     6
370
     9
100
AcDbLine
 10
217.5239723904868
 20
-638.2070726998599
 30
0.0
 11
220.8574863941666
 21
-634.8735586961793
 31
0.0
  0
LINE
  5
191
330
1F
100
AcDbEntity
  8
0-3
  6
Continuous
 62
     6
370
     9
100
AcDbLine
 10
208.0958619855089
 20
-638.2070726998599
 30
0.0
 11
211.4293759891886
 21
-634.8735586961793
 31
0.0
  0
LINE
  5
192
330
1F
100
AcDbEntity
  8
0-3
  6
Continuous
 62
     6
370
     9
100
AcDbLine
 10
198.6677515805309
 20
-638.2070726998599
 30
0.0
 11
202.0012655842106
 21
-634.8735586961793
 31
0.0
  0
LINE
  5
193
330
1F
100
AcDbEntity
  8
0-3
  6
Continuous
 62
     6
370
     9
100
AcDbLine
 10
189.2393108630275
 20
-638.2070726998599
 30
0.0
 11
192.5728248667073
 21
-634.8735586961793
 31
0.0
  0
LINE
  5
194
330
1F
100
AcDbEntity
  8
0-3
  6
Continuous
 62
     6
370
     9
100
AcDbLine
 10
179.8115307705742
 20
-638.2070726998599
 30
0.0
 11
183.1450447742547
 21
-634.8735586961793
 31
0.0
  0
LINE
  5
195
330
1F
100
AcDbEntity
  8
0-3
  6
Continuous
 62
     6
370
     9
100
AcDbLine
 10
170.3834203655963
 20
-638.2070726998599
 30
0.0
 11
173.7169343692767
 21
-634.8735586961793
 31
0.0
  0
LINE
  5
196
330
1F
100
AcDbEntity
  8
0-3
  6
Continuous
 62
     6
370
     9
100
AcDbLine
 10
160.9553099606183
 20
-638.2070726998599
 30
0.0
 11
164.288823964298
 21
-634.8735586961793
 31
0.0
  0
LINE
  5
197
330
1F
100
AcDbEntity
  8
0-3
  6
Continuous
 62
     6
370
     9
100
AcDbLine
 10
151.5271995556403
 20
-638.2070726998599
 30
0.0
 11
154.8607135593201
 21
-634.8735586961793
 31
0.0
  0
LINE
  5
198
330
1F
100
AcDbEntity
  8
0-3
  6
Continuous
 62
     6
370
     9
100
AcDbLine
 10
142.0990891506623
 20
-638.2070726998599
 30
0.0
 11
145.4326031543421
 21
-634.8735586961793
 31
0.0
  0
LINE
  5
199
330
1F
100
AcDbEntity
  8
0-3
  6
Continuous
 62
     6
370
     9
100
AcDbLine
 10
132.6709787456836
 20
-638.2070726998599
 30
0.0
 11
136.0044927493641
 21
-634.8735586961793
 31
0.0
  0
LINE
  5
19A
330
1F
100
AcDbEntity
  8
0-3
  6
Continuous
 62
     6
370
     9
100
AcDbLine
 10
123.2428683407064
 20
-638.2070726998599
 30
0.0
 11
126.5763823443861
 21
-634.8735586961793
 31
0.0
  0
LINE
  5
19B
330
1F
100
AcDbEntity
  8
0-3
  6
Continuous
 62
     6
370
     9
100
AcDbLine
 10
113.8147579357277
 20
-638.2070726998599
 30
0.0
 11
117.1482719394082
 21
-634.8735586961793
 31
0.0
  0
LINE
  5
19C
330
1F
100
AcDbEntity
  8
0-3
  6
Continuous
 62
     6
370
     9
100
AcDbLine
 10
104.3866475307497
 20
-638.2070726998599
 30
0.0
 11
107.7201615344302
 21
-634.8735586961793
 31
0.0
  0
LINE
  5
19D
330
1F
100
AcDbEntity
  8
0-3
  6
Continuous
 62
     6
370
     9
100
AcDbLine
 10
94.95853712577176
 20
-638.2070726998599
 30
0.0
 11
98.2920511294515
 21
-634.8735586961793
 31
0.0
  0
LINE
  5
19E
330
1F
100
AcDbEntity
  8
0-3
  6
Continuous
 62
     6
370
     9
100
AcDbLine
 10
85.53042672079378
 20
-638.2070726998599
 30
0.0
 11
88.86394072447352
 21
-634.8735586961793
 31
0.0
  0
LINE
  5
19F
330
1F
100
AcDbEntity
  8
0-3
  6
Continuous
 62
     6
370
     9
100
AcDbLine
 10
76.10231631581583
 20
-638.2070726998599
 30
0.0
 11
79.4355000069709
 21
-634.8735586961793
 31
0.0
  0
LINE
  5
1A0
330
1F
100
AcDbEntity
  8
0-3
  6
Continuous
 62
     6
370
     9
100
AcDbLine
 10
66.6742059108371
 20
-638.2070726998599
 30
0.0
 11
70.0077199145176
 21
-634.8735586961793
 31
0.0
  0
LINE
  5
1A1
330
1F
100
AcDbEntity
  8
0-3
  6
Continuous
 62
     6
370
     9
100
AcDbLine
 10
57.24609550585988
 20
-638.2070726998599
 30
0.0
 11
60.57960950953962
 21
-634.8735586961793
 31
0.0
  0
LINE
  5
1A2
330
1F
100
AcDbEntity
  8
0-3
  6
Continuous
 62
     6
370
     9
100
AcDbLine
 10
47.81798510088116
 20
-638.2070726998599
 30
0.0
 11
51.15149910456167
 21
-634.8735586961793
 31
0.0
  0
LINE
  5
1A3
330
1F
100
AcDbEntity
  8
0-3
  6
Continuous
 62
     6
370
     9
100
AcDbLine
 10
38.3898746959032
 20
-638.2070726998599
 30
0.0
 11
41.72338869958369
 21
-634.8735586961793
 31
0.0
  0
LINE
  5
1A4
330
1F
100
AcDbEntity
  8
0-3
  6
Continuous
 62
     6
370
     9
100
AcDbLine
 10
28.96176429092523
 20
-638.2070726998599
 30
0.0
 11
32.29527829460497
 21
-634.8735586961793
 31
0.0
  0
LINE
  5
1A5
330
1F
100
AcDbEntity
  8
0-3
  6
Continuous
 62
     6
370
     9
100
AcDbLine
 10
-18.17878773396536
 20
-638.2070726998599
 30
0.0
 11
-14.84527373028562
 21
-634.8735586961793
 31
0.0
  0
LINE
  5
1A6
330
1F
100
AcDbEntity
  8
0-3
  6
Continuous
 62
     6
370
     9
100
AcDbLine
 10
-27.60689813894333
 20
-638.2070726998599
 30
0.0
 11
-24.27338413526282
 21
-634.8735586961793
 31
0.0
  0
LINE
  5
1A7
330
1F
100
AcDbEntity
  8
0-3
  6
Continuous
 62
     6
370
     9
100
AcDbLine
 10
-37.03467823139663
 20
-638.2070726998599
 30
0.0
 11
-33.70116422771613
 21
-634.8735586961793
 31
0.0
  0
LINE
  5
1A8
330
1F
100
AcDbEntity
  8
0-3
  6
Continuous
 62
     6
370
     9
100
AcDbLine
 10
-46.46311894889926
 20
-638.2070726998599
 30
0.0
 11
-43.12960494521952
 21
-634.8735586961793
 31
0.0
  0
LINE
  5
1A9
330
1F
100
AcDbEntity
  8
0-3
  6
Continuous
 62
     6
370
     9
100
AcDbLine
 10
-55.89089904135256
 20
-638.2070726998599
 30
0.0
 11
-52.55738503767282
 21
-634.8735586961793
 31
0.0
  0
LINE
  5
1AA
330
1F
100
AcDbEntity
  8
0-3
  6
Continuous
 62
     6
370
     9
100
AcDbLine
 10
-65.31933975885595
 20
-638.2070726998599
 30
0.0
 11
-61.98582575517545
 21
-634.8735586961793
 31
0.0
  0
LINE
  5
1AB
330
1F
100
AcDbEntity
  8
0-3
  6
Continuous
 62
     6
370
     9
100
AcDbLine
 10
-74.74745016383392
 20
-638.2070726998599
 30
0.0
 11
-71.41393616015341
 21
-634.8735586961793
 31
0.0
  0
LINE
  5
1AC
330
1F
100
AcDbEntity
  8
0-3
  6
Continuous
 62
     6
370
     9
100
AcDbLine
 10
-84.17556056881187
 20
-638.2070726998599
 30
0.0
 11
-80.84204656513214
 21
-634.8735586961793
 31
0.0
  0
LINE
  5
1AD
330
1F
100
AcDbEntity
  8
0-3
  6
Continuous
 62
     6
370
     9
100
AcDbLine
 10
-93.60367097378985
 20
-638.2070726998599
 30
0.0
 11
-90.26982665758469
 21
-634.8735586961793
 31
0.0
  0
LINE
  5
1AE
330
1F
100
AcDbEntity
  8
0-3
  6
Continuous
 62
     6
370
     9
100
AcDbLine
 10
-103.0314510662432
 20
-638.2070726998599
 30
0.0
 11
-99.69826737508808
 21
-634.8735586961793
 31
0.0
  0
LINE
  5
1AF
330
1F
100
AcDbEntity
  8
0-3
  6
Continuous
 62
     6
370
     9
100
AcDbLine
 10
-112.4595614712211
 20
-638.2070726998599
 30
0.0
 11
-109.1260474675406
 21
-634.8735586961793
 31
0.0
  0
LINE
  5
1B0
330
1F
100
AcDbEntity
  8
0-3
  6
Continuous
 62
     6
370
     9
100
AcDbLine
 10
-121.8876718761991
 20
-638.2070726998599
 30
0.0
 11
-118.5541578725193
 21
-634.8735586961793
 31
0.0
  0
LINE
  5
1B1
330
1F
100
AcDbEntity
  8
0-3
  6
Continuous
 62
     6
370
     9
100
AcDbLine
 10
-131.3157822811771
 20
-638.2070726998599
 30
0.0
 11
-127.9822682774966
 21
-634.8735586961793
 31
0.0
  0
LINE
  5
1B2
330
1F
100
AcDbEntity
  8
0-3
  6
Continuous
 62
     6
370
     9
100
AcDbLine
 10
-140.7442229986804
 20
-638.2070726998599
 30
0.0
 11
-137.4107089949999
 21
-634.8735586961793
 31
0.0
  0
LINE
  5
1B3
330
1F
100
AcDbEntity
  8
0-3
  6
Continuous
 62
     6
370
     9
100
AcDbLine
 10
-150.172003091133
 20
-638.2070726998599
 30
0.0
 11
-146.8384890874532
 21
-634.8735586961793
 31
0.0
  0
LINE
  5
1B4
330
1F
100
AcDbEntity
  8
0-3
  6
Continuous
 62
     6
370
     9
100
AcDbLine
 10
-159.6004438086364
 20
-638.2070726998599
 30
0.0
 11
-156.2669298049566
 21
-634.8735586961793
 31
0.0
  0
LINE
  5
1B5
330
1F
100
AcDbEntity
  8
0-3
  6
Continuous
 62
     6
370
     9
100
AcDbLine
 10
-169.0282239010897
 20
-638.2070726998599
 30
0.0
 11
-165.6947098974092
 21
-634.8735586961793
 31
0.0
  0
LINE
  5
1B6
330
1F
100
AcDbEntity
  8
0-3
  6
Continuous
 62
     6
370
     9
100
AcDbLine
 10
-178.4563343060676
 20
-638.2070726998599
 30
0.0
 11
-175.1228203023871
 21
-634.8735586961793
 31
0.0
  0
LINE
  5
1B7
330
1F
100
AcDbEntity
  8
0-3
  6
Continuous
 62
     6
370
     9
100
AcDbLine
 10
-187.8844447110456
 20
-638.2070726998599
 30
0.0
 11
-184.5509307073659
 21
-634.8735586961793
 31
0.0
  0
LINE
  5
1B8
330
1F
100
AcDbEntity
  8
0-3
  6
Continuous
 62
     6
370
     9
100
AcDbLine
 10
-197.3125551160236
 20
-638.2070726998599
 30
0.0
 11
-193.9790411123438
 21
-634.8735586961793
 31
0.0
  0
LINE
  5
1B9
330
1F
100
AcDbEntity
  8
0-3
  6
Continuous
 62
     6
370
     9
100
AcDbLine
 10
-206.7406655210015
 20
-638.2070726998599
 30
0.0
 11
-203.4071515173218
 21
-634.8735586961793
 31
0.0
  0
LINE
  5
1BA
330
1F
100
AcDbEntity
  8
0-3
  6
Continuous
 62
     6
370
     9
100
AcDbLine
 10
-216.1691062385049
 20
-638.2070726998599
 30
0.0
 11
-212.8355922348252
 21
-634.8735586961793
 31
0.0
  0
LINE
  5
1BB
330
1F
100
AcDbEntity
  8
0-3
  6
Continuous
 62
     6
370
     9
100
AcDbLine
 10
-225.5968863309575
 20
-638.2070726998599
 30
0.0
 11
-222.2633723272777
 21
-634.8735586961793
 31
0.0
  0
LINE
  5
1BC
330
1F
100
AcDbEntity
  8
0-3
  6
Continuous
 62
     6
370
     9
100
AcDbLine
 10
-235.0249967359362
 20
-638.2070726998599
 30
0.0
 11
-231.6914827322557
 21
-634.8735586961793
 31
0.0
  0
LINE
  5
1BD
330
1F
100
AcDbEntity
  8
0-3
  6
Continuous
 62
     6
370
     9
100
AcDbLine
 10
-244.4531071409141
 20
-638.2070726998599
 30
0.0
 11
-241.1195931372337
 21
-634.8735586961793
 31
0.0
  0
LINE
  5
1BE
330
1F
100
AcDbEntity
  8
0-3
  6
Continuous
 62
     6
370
     9
100
AcDbLine
 10
-253.8812175458921
 20
-638.2070726998599
 30
0.0
 11
-250.5477035422124
 21
-634.8735586961793
 31
0.0
  0
LINE
  5
1BF
330
1F
100
AcDbEntity
  8
0-3
  6
Continuous
 62
     6
370
     9
100
AcDbLine
 10
-263.3093279508701
 20
-638.2070726998599
 30
0.0
 11
-259.9758139471903
 21
-634.8735586961793
 31
0.0
  0
LINE
  5
1C0
330
1F
100
AcDbEntity
  8
0-3
  6
Continuous
 62
     6
370
     9
100
AcDbLine
 10
-272.737438355848
 20
-638.2070726998599
 30
0.0
 11
-269.4039243521683
 21
-634.8735586961793
 31
0.0
  0
LINE
  5
1C1
330
1F
100
AcDbEntity
  8
0-3
  6
Continuous
 62
     6
370
     9
100
AcDbLine
 10
-305.4991558490109
 20
-661.540019162994
 30
0.0
 11
-302.4592896801777
 21
-658.5011439317361
 31
0.0
  0
LINE
  5
1C2
330
1F
100
AcDbEntity
  8
0-3
  6
Continuous
 62
     6
370
     9
100
AcDbLine
 10
-282.1655487608268
 20
-638.2070726998599
 30
0.0
 11
-278.8320347571463
 21
-634.8735586961793
 31
0.0
  0
LINE
  5
1C3
330
1F
100
AcDbEntity
  8
0-3
  6
Continuous
 62
     6
370
     9
100
AcDbLine
 10
-314.9272662539889
 20
-661.540019162994
 30
0.0
 11
-300.8883233106272
 21
-647.5014065321577
 31
0.0
  0
LINE
  5
1C4
330
1F
100
AcDbEntity
  8
0-3
  6
Continuous
 62
     6
370
     9
100
AcDbLine
 10
-291.593659165804
 20
-638.2070726998599
 30
0.0
 11
-288.2601451621242
 21
-634.8735586961793
 31
0.0
  0
LINE
  5
1C5
330
1F
100
AcDbEntity
  8
0-3
  6
Continuous
 62
     6
370
     9
100
AcDbLine
 10
-321.9718414775805
 20
-659.1571446066575
 30
0.0
 11
-297.6882555671022
 21
-634.8735586961793
 31
0.0
  0
LINE
  5
1C6
330
1F
100
AcDbEntity
  8
0-3
  6
Continuous
 62
     6
370
     9
100
AcDbLine
 10
-324.2163150858846
 20
-651.9735078099836
 30
0.0
 11
-307.1163659720801
 21
-634.8735586961793
 31
0.0
  0
LINE
  5
1C7
330
1F
100
AcDbEntity
  8
0-3
  6
Continuous
 62
     6
370
     9
100
AcDbLine
 10
-326.461119006714
 20
-644.7898710133097
 30
0.0
 11
-316.5444763770589
 21
-634.8735586961793
 31
0.0
  0
LINE
  5
1C8
330
1F
100
AcDbEntity
  8
0-3
  6
Continuous
 62
     6
370
     9
100
AcDbLine
 10
-328.7059229275435
 20
-637.6065645291613
 30
0.0
 11
-325.9725867820368
 21
-634.8735586961793
 31
0.0
  0
LINE
  5
1C9
330
1F
100
AcDbEntity
  8
0-3
  6
Continuous
 62
     6
370
     9
100
AcDbLine
 10
-8.75067732898739
 20
-638.2070726998599
 30
0.0
 11
-7.393423163199833
 21
-636.8494882215476
 31
0.0
  0
LINE
  5
1CA
330
1F
100
AcDbEntity
  8
0-3
  6
Continuous
 62
     6
370
     9
100
AcDbLine
 10
19.9399382918652
 20
-637.8007882939412
 30
0.0
 11
22.867167889627
 21
-634.8735586961793
 31
0.0
  0
LINE
  5
1CB
330
1F
100
AcDbEntity
  8
0-F
  6
Continuous
 62
     7
370
     9
100
AcDbLine
 10
701.1723612273211
 20
-634.8732283836547
 30
0.0
 11
701.1723612273211
 21
-468.2067769503576
 31
0.0
  0
LINE
  5
1CC
330
1F
100
AcDbEntity
  8
0-F
  6
Continuous
 62
     7
370
     9
100
AcDbLine
 10
487.9401015628719
 20
-634.8732283836547
 30
0.0
 11
705.172280750465
 21
-634.8732283836547
 31
0.0
  0
LINE
  5
1CD
330
1F
100
AcDbEntity
  8
0-F
  6
Continuous
 62
     7
370
     9
100
AcDbLine
 10
529.6063841086714
 20
-468.2067769503576
 30
0.0
 11
705.172280750465
 21
-468.2067769503576
 31
0.0
  0
LINE
  5
1CE
330
1F
100
AcDbEntity
  8
0-F
  6
Continuous
 62
     7
370
     9
100
AcDbLine
 10
701.1723612273211
 20
-634.8732283836547
 30
0.0
 11
695.9512762987476
 21
-595.2155763032122
 31
0.0
  0
LINE
  5
1CF
330
1F
100
AcDbEntity
  8
0-F
  6
Continuous
 62
     7
370
     9
100
AcDbLine
 10
701.1723612273211
 20
-634.8732283836547
 30
0.0
 11
706.3934461558954
 21
-595.2155763032122
 31
0.0
  0
LINE
  5
1D0
330
1F
100
AcDbEntity
  8
0-F
  6
Continuous
 62
     7
370
     9
100
AcDbLine
 10
701.1723612273211
 20
-468.2067769503576
 30
0.0
 11
695.9512762987476
 21
-507.8644290308001
 31
0.0
  0
LINE
  5
1D1
330
1F
100
AcDbEntity
  8
0-F
  6
Continuous
 62
     7
370
     9
100
AcDbLine
 10
701.1723612273211
 20
-468.2067769503576
 30
0.0
 11
706.3934461558954
 21
-507.8644290308001
 31
0.0
  0
ARC
  5
1D2
330
1F
100
AcDbEntity
  8
0-0
  6
Continuous
 62
     3
370
     9
100
AcDbCircle
 10
-251.3430961027415
 20
-642.0046758013568
 30
0.0
 40
10.0000000920535
100
AcDbArc
 50
252.0001525878906
 51
348.7693023681641
  0
ARC
  5
1D3
330
1F
100
AcDbEntity
  8
0-0
  6
JWW_DASHED1
 62
     3
370
     9
100
AcDbCircle
 10
-249.0401571774881
 20
-677.8019654005263
 30
0.0
 40
10.0000000920535
100
AcDbArc
 50
7.000427246093758
 51
72.00015258789064
  0
ARC
  5
1D4
330
1F
100
AcDbEntity
  8
0-0
  6
Continuous
 62
     3
370
     9
100
AcDbCircle
 10
-125.238692443711
 20
-723.8237489027783
 30
0.0
 40
16.66666811037248
100
AcDbArc
 50
4.085220336914063
 51
86.00001525878906
  0
ARC
  5
1D5
330
1F
100
AcDbEntity
  8
0-0
  6
Continuous
 62
     3
370
     9
100
AcDbCircle
 10
-194.492677088931
 20
-733.2066064918131
 30
0.0
 40
5.000000046026752
100
AcDbArc
 50
270.0
 51
348.6897888183594
  0
ARC
  5
1D6
330
1F
100
AcDbEntity
  8
0-0
  6
Continuous
 62
     3
370
     9
100
AcDbCircle
 10
-251.5072614277339
 20
-673.4956810103188
 30
0.0
 40
6.666666728035669
100
AcDbArc
 50
6.814697265624997
 51
71.99948120117188
  0
ARC
  5
1D7
330
1F
100
AcDbEntity
  8
0-0
  6
Continuous
 62
     3
370
     9
100
AcDbCircle
 10
-137.340352427146
 20
-741.5400611884877
 30
0.0
 40
16.66666811037248
100
AcDbArc
 50
4.085678100585942
 51
90.00000000000001
  0
ARC
  5
1D8
330
1F
100
AcDbEntity
  8
0-0
  6
Continuous
 62
     3
370
     9
100
AcDbCircle
 10
261.586341993628
 20
-677.8019654005263
 30
0.0
 40
10.0000000920535
100
AcDbArc
 50
107.9998474121093
 51
172.9995727539062
  0
ARC
  5
1D9
330
1F
100
AcDbEntity
  8
0-0
  6
JWW_DASHED1
 62
     3
370
     9
100
AcDbCircle
 10
226.3951758780847
 20
-690.8955538969467
 30
0.0
 40
10.0000000920535
100
AcDbArc
 50
273.9998168945312
 51
353.0002746582031
  0
ARC
  5
1DA
330
1F
100
AcDbEntity
  8
0-0
  6
Continuous
 62
     3
370
     9
100
AcDbCircle
 10
137.7855378849017
 20
-723.8237489027783
 30
0.0
 40
16.66666811037248
100
AcDbArc
 50
93.99998474121094
 51
175.9147796630859
  0
ARC
  5
1DB
330
1F
100
AcDbEntity
  8
0-0
  6
Continuous
 62
     3
370
     9
100
AcDbCircle
 10
149.8868675558114
 20
-741.5400611884877
 30
0.0
 40
16.66666811037248
100
AcDbArc
 50
90.0
 51
175.9143218994141
  0
ARC
  5
1DC
330
1F
100
AcDbEntity
  8
0-0
  6
Continuous
 62
     3
370
     9
100
AcDbCircle
 10
204.9631779971121
 20
-686.5400529404933
 30
0.0
 40
5.000000046026752
100
AcDbArc
 50
90.0
 51
162.8500518798828
  0
ARC
  5
1DD
330
1F
100
AcDbEntity
  8
0-0
  6
Continuous
 62
     3
370
     9
100
AcDbCircle
 10
190.8390144222646
 20
-698.3943088426013
 30
0.0
 40
5.000000046026752
100
AcDbArc
 50
273.9998626708984
 51
342.8496398925781
  0
ARC
  5
1DE
330
1F
100
AcDbEntity
  8
0-0
  6
Continuous
 62
     3
370
     9
100
AcDbCircle
 10
233.1953198330742
 20
-676.5401715545042
 30
0.0
 40
5.000000046026752
100
AcDbArc
 50
270.0
 51
353.0003662109375
  0
ARC
  5
1DF
330
1F
100
AcDbEntity
  8
0-0
  6
Continuous
 62
     3
370
     9
100
AcDbCircle
 10
263.8892809188815
 20
-642.0046758013568
 30
0.0
 40
10.0000000920535
100
AcDbArc
 50
191.2306976318359
 51
287.9998474121094
  0
ARC
  5
1E0
330
1F
100
AcDbEntity
  8
0-0
  6
JWW_DASHED1
 62
     3
370
     9
100
AcDbCircle
 10
-213.8486607494193
 20
-690.8955538969467
 30
0.0
 40
10.0000000920535
100
AcDbArc
 50
186.9997253417969
 51
266.0001831054688
  0
ARC
  5
1E1
330
1F
100
AcDbEntity
  8
0-0
  6
Continuous
 62
     3
370
     9
100
AcDbCircle
 10
-192.4166628684467
 20
-686.5400529404933
 30
0.0
 40
5.000000046026752
100
AcDbArc
 50
17.1499481201172
 51
90.00000000000001
  0
ARC
  5
1E2
330
1F
100
AcDbEntity
  8
0-0
  6
Continuous
 62
     3
370
     9
100
AcDbCircle
 10
-178.2928296061247
 20
-698.3943088426013
 30
0.0
 40
5.000000046026752
100
AcDbArc
 50
197.1503601074219
 51
266.0001373291016
  0
ARC
  5
1E3
330
1F
100
AcDbEntity
  8
0-0
  6
Continuous
 62
     3
370
     9
100
AcDbCircle
 10
-220.6494653294597
 20
-676.5401715545042
 30
0.0
 40
5.000000046026752
100
AcDbArc
 50
186.9996337890625
 51
269.9999999999999
  0
ARC
  5
1E4
330
1F
100
AcDbEntity
  8
0-0
  6
Continuous
 62
     3
370
     9
100
AcDbCircle
 10
225.497386434763
 20
-698.2066913283238
 30
0.0
 40
23.33333354812484
100
AcDbArc
 50
270.0
 51
352.9994812011719
  0
ARC
  5
1E5
330
1F
100
AcDbEntity
  8
0-0
  6
Continuous
 62
     3
370
     9
100
AcDbCircle
 10
-182.9611365238823
 20
-726.5402391095029
 30
0.0
 40
5.000000046026752
100
AcDbArc
 50
90.0
 51
168.6897888183594
  0
ARC
  5
1E6
330
1F
100
AcDbEntity
  8
0-0
  6
Continuous
 62
     3
370
     9
100
AcDbCircle
 10
-232.6219731155659
 20
-733.2066064918131
 30
0.0
 40
5.000000046026752
100
AcDbArc
 50
186.813949584961
 51
270.0
  0
ARC
  5
1E7
330
1F
100
AcDbEntity
  8
0-0
  6
Continuous
 62
     3
370
     9
100
AcDbCircle
 10
-237.0597218907778
 20
-791.5397984309618
 30
0.0
 40
6.666666728035669
100
AcDbArc
 50
270.0
 51
0.0
  0
ARC
  5
1E8
330
1F
100
AcDbEntity
  8
0-0
  6
Continuous
 62
     3
370
     9
100
AcDbCircle
 10
-237.0597218907778
 20
-791.5397984309618
 30
0.0
 40
26.66666691214268
100
AcDbArc
 50
270.0
 51
0.0
  0
ARC
  5
1E9
330
1F
100
AcDbEntity
  8
0-0
  6
JWW_CENTER1
 62
     3
370
     9
100
AcDbCircle
 10
-237.0600522033032
 20
-791.5397984309618
 30
0.0
 40
16.66666811037248
100
AcDbArc
 50
270.0
 51
0.0
  0
ARC
  5
1EA
330
1F
100
AcDbEntity
  8
0-0
  6
Continuous
 62
     3
370
     9
100
AcDbCircle
 10
-264.9916096413918
 20
-700.6582708898884
 30
0.0
 40
36.66666700419619
100
AcDbArc
 50
71.99998474121092
 51
117.7433929443359
  0
ARC
  5
1EB
330
1F
100
AcDbEntity
  8
0-0
  6
Continuous
 62
     3
370
     9
100
AcDbCircle
 10
277.5377944575318
 20
-700.6582708898884
 30
0.0
 40
36.66666700419619
100
AcDbArc
 50
62.25660705566405
 51
108.0003204345703
  0
ARC
  5
1EC
330
1F
100
AcDbEntity
  8
0-0
  6
JWW_DASHED1
 62
     3
370
     9
100
AcDbCircle
 10
226.3951758780847
 20
-690.8955538969467
 30
0.0
 40
23.33333354812484
100
AcDbArc
 50
273.9998168945312
 51
353.0002746582031
  0
ARC
  5
1ED
330
1F
100
AcDbEntity
  8
0-0
  6
JWW_DASHED1
 62
     3
370
     9
100
AcDbCircle
 10
-213.8486607494193
 20
-690.8955538969467
 30
0.0
 40
23.33333354812484
100
AcDbArc
 50
186.9997253417969
 51
266.0001831054688
  0
ELLIPSE
  5
1EE
330
1F
100
AcDbEntity
  8
0-A
  6
Continuous
 62
     4
370
     9
100
AcDbEllipse
 10
217.9398358596336
 20
-657.9746257666682
 30
0.0
 11
17.49993435664527
 21
0.0
 31
0.0
210
0.0
220
0.0
230
1.0
 40
0.7428
 41
1.666184365454919
 42
3.141592653589793
  0
ELLIPSE
  5
1EF
330
1F
100
AcDbEntity
  8
0-A
  6
Continuous
 62
     4
370
     9
100
AcDbEllipse
 10
217.9398358596336
 20
-657.9746257666682
 30
0.0
 11
17.49993435664527
 21
0.0
 31
0.0
210
0.0
220
0.0
230
1.0
 40
0.7428
 41
0.0
 42
1.475408021818766
  0
ARC
  5
1F0
330
1F
100
AcDbEntity
  8
0-0
  6
JWW_DASHED1
 62
     3
370
     9
100
AcDbCircle
 10
-190.3059658328227
 20
-722.6154656858282
 30
0.0
 40
6.666666728035669
100
AcDbArc
 50
8.779998779296873
 51
85.9996795654297
  0
ARC
  5
1F1
330
1F
100
AcDbEntity
  8
0-0
  6
JWW_DASHED1
 62
     3
370
     9
100
AcDbCircle
 10
202.8521506489627
 20
-722.6154656858282
 30
0.0
 40
6.666666728035669
100
AcDbArc
 50
94.00032043457028
 51
171.2200012207031
  0
ARC
  5
1F2
330
1F
100
AcDbEntity
  8
0-B
  6
Continuous
 62
     2
370
     9
100
AcDbCircle
 10
-30.35377709798009
 20
-418.206709395358
 30
0.0
 40
13.33333345607134
100
AcDbArc
 50
32.21649169921875
 51
90.0
  0
ARC
  5
1F3
330
1F
100
AcDbEntity
  8
0-B
  6
Continuous
 62
     2
370
     9
100
AcDbCircle
 10
-1.976958376008011
 20
-404.7563833717903
 30
0.0
 40
38.41652083120751
100
AcDbArc
 50
180.1736297607422
 51
253.2320861816407
  0
ARC
  5
1F4
330
1F
100
AcDbEntity
  8
0-B
  6
Continuous
 62
     2
370
     9
100
AcDbCircle
 10
-1.976958376008011
 20
-404.7563833717903
 30
0.0
 40
34.41652389106603
100
AcDbArc
 50
180.1736297607422
 51
255.4090576171875
  0
ARC
  5
1F5
330
1F
100
AcDbEntity
  8
0-B
  6
Continuous
 62
     2
370
     9
100
AcDbCircle
 10
-11.06022250474322
 20
-437.539901491612
 30
0.0
 40
0.6666666808678376
100
AcDbArc
 50
308.2657165527344
 51
0.0
  0
ARC
  5
1F6
330
1F
100
AcDbEntity
  8
0-B
  6
Continuous
 62
     2
370
     9
100
AcDbCircle
 10
42.90062253917088
 20
-418.206709395358
 30
0.0
 40
13.33333345607134
100
AcDbArc
 50
90.0
 51
147.7835083007812
  0
ARC
  5
1F7
330
1F
100
AcDbEntity
  8
0-B
  6
Continuous
 62
     2
370
     9
100
AcDbCircle
 10
14.52380381719804
 20
-404.7563833717903
 30
0.0
 40
38.41652083120751
100
AcDbArc
 50
286.7679138183594
 51
359.8263702392579
  0
ARC
  5
1F8
330
1F
100
AcDbEntity
  8
0-B
  6
Continuous
 62
     2
370
     9
100
AcDbCircle
 10
14.52380381719804
 20
-404.7563833717903
 30
0.0
 40
34.41652389106603
100
AcDbArc
 50
284.5909423828125
 51
359.8263702392578
  0
ARC
  5
1F9
330
1F
100
AcDbEntity
  8
0-B
  6
Continuous
 62
     2
370
     9
100
AcDbCircle
 10
23.60640732088317
 20
-437.539901491612
 30
0.0
 40
0.6666666808678376
100
AcDbArc
 50
180.0
 51
231.7342834472656
  0
ARC
  5
1FA
330
1F
100
AcDbEntity
  8
0-B
  6
Continuous
 62
     2
370
     9
100
AcDbCircle
 10
22.94016695768281
 20
-437.539901491612
 30
0.0
 40
4.000000165849732
100
AcDbArc
 50
213.5567016601563
 51
270.0
  0
ARC
  5
1FB
330
1F
100
AcDbEntity
  8
0-B
  6
Continuous
 62
     2
370
     9
100
AcDbCircle
 10
-10.39332151649202
 20
-437.539901491612
 30
0.0
 40
4.000000165849732
100
AcDbArc
 50
270.0
 51
326.4436187744141
  0
ARC
  5
1FC
330
1F
100
AcDbEntity
  8
0-C
  6
Continuous
 62
     2
370
     9
100
AcDbCircle
 10
22.94016695768281
 20
-679.8730249331338
 30
0.0
 40
1.666666682008917
100
AcDbArc
 50
180.0
 51
270.0
  0
ARC
  5
1FD
330
1F
100
AcDbEntity
  8
0-C
  6
Continuous
 62
     2
370
     9
100
AcDbCircle
 10
-10.39365182901744
 20
-679.8730249331338
 30
0.0
 40
1.666666682008917
100
AcDbArc
 50
270.0
 51
0.0
  0
ARC
  5
1FE
330
1F
100
AcDbEntity
  8
0-C
  6
Continuous
 62
     2
370
     9
100
AcDbCircle
 10
-67.06008676632636
 20
-718.8730247760286
 30
0.0
 40
6.666666728035669
100
AcDbArc
 50
270.0
 51
0.0
  0
ARC
  5
1FF
330
1F
100
AcDbEntity
  8
0-C
  6
Continuous
 62
     2
370
     9
100
AcDbCircle
 10
-98.07907537686785
 20
-718.8730247760286
 30
0.0
 40
6.666666728035669
100
AcDbArc
 50
189.4628143310547
 51
270.0
  0
ARC
  5
200
330
1F
100
AcDbEntity
  8
0-C
  6
Continuous
 62
     2
370
     9
100
AcDbCircle
 10
79.60660189499173
 20
-718.8730247760286
 30
0.0
 40
6.666666728035669
100
AcDbArc
 50
180.0
 51
270.0
  0
ARC
  5
201
330
1F
100
AcDbEntity
  8
0-C
  6
Continuous
 62
     2
370
     9
100
AcDbCircle
 10
110.6259208180579
 20
-718.8730247760286
 30
0.0
 40
6.666666728035669
100
AcDbArc
 50
270.0
 51
350.5371856689453
  0
ARC
  5
202
330
1F
100
AcDbEntity
  8
0-C
  6
Continuous
 62
     2
370
     9
100
AcDbCircle
 10
-10.39365182901744
 20
-679.8730249331338
 30
0.0
 40
5.66666684785865
100
AcDbArc
 50
270.0
 51
350.4709777832031
  0
ARC
  5
203
330
1F
100
AcDbEntity
  8
0-C
  6
Continuous
 62
     2
370
     9
100
AcDbCircle
 10
22.94016695768281
 20
-679.8730249331338
 30
0.0
 40
5.66666684785865
100
AcDbArc
 50
189.5361938476562
 51
270.0
  0
ARC
  5
204
330
1F
100
AcDbEntity
  8
0-0
  6
Continuous
 62
     3
370
     9
100
AcDbCircle
 10
308.3301886758288
 20
-641.540256391014
 30
0.0
 40
3.333333364017835
100
AcDbArc
 50
7.125259399414062
 51
90.0
  0
ARC
  5
205
330
1F
100
AcDbEntity
  8
0-0
  6
Continuous
 62
     3
370
     9
100
AcDbCircle
 10
-295.7843341722142
 20
-641.540256391014
 30
0.0
 40
3.333333364017835
100
AcDbArc
 50
90.0
 51
172.8747406005859
  0
TEXT
  5
206
330
1F
100
AcDbEntity
  8
0-F
  6
Continuous
 62
     2
370
     9
100
AcDbText
 10
682.1989977946868
 20
-572.7898380486847
 30
0.0
 40
30.48
  1
50
 50
90.00000250447809
 41
1.062500000000001
  7
ＭＳ ゴシック
100
AcDbText
  0
TEXT
  5
207
330
1F
100
AcDbEntity
  8
0-5
  6
Continuous
 62
     7
370
     9
100
AcDbText
 10
486.3341003820904
 20
-325.8364490335995
 30
0.0
 40
22.86
  1
特殊発砲樹脂
 41
1.138888888888889
  7
ＭＳ ゴシック
100
AcDbText
  0
LINE
  5
208
330
1F
100
AcDbEntity
  8
0-5
  6
Continuous
 62
     7
370
     9
100
AcDbLine
 10
485.9822051690483
 20
-290.1790814532964
 30
0.0
 11
690.3816619788346
 21
-290.1790814532964
 31
0.0
  0
TEXT
  5
209
330
1F
100
AcDbEntity
  8
0-5
  6
Continuous
 62
     7
370
     9
100
AcDbText
 10
528.670643670905
 20
-281.7814510940166
 30
0.0
 40
22.86
  1
抜型本体
 41
1.125
  7
ＭＳ ゴシック
100
AcDbText
  0
LINE
  5
20A
330
1F
100
AcDbEntity
  8
0-5
  6
Continuous
 62
     7
370
     9
100
AcDbLine
 10
383.1978672506113
 20
-468.2067769503576
 30
0.0
 11
485.9822051690483
 21
-290.1790814532964
 31
0.0
  0
LINE
  5
20B
330
1F
100
AcDbEntity
  8
0-5
  6
Continuous
 62
     7
370
     9
100
AcDbLine
 10
383.1978672506113
 20
-468.2067769503576
 30
0.0
 11
392.7649530597386
 21
-445.1097886375754
 31
0.0
  0
LINE
  5
20C
330
1F
100
AcDbEntity
  8
0-5
  6
Continuous
 62
     7
370
     9
100
AcDbLine
 10
383.1978672506113
 20
-468.2067769503576
 30
0.0
 11
398.4169029758293
 21
-448.3729434430767
 31
0.0
  0
LINE
  5
20D
330
1F
100
AcDbEntity
  8
0-5
  6
Continuous
 62
     7
370
     9
100
AcDbLine
 10
-36.39332423699959
 20
-404.8606794248909
 30
0.0
 11
-168.9931417266892
 21
-175.1910584583883
 31
0.0
  0
TEXT
  5
20E
330
1F
100
AcDbEntity
  8
0-5
  6
Continuous
 62
     6
370
     9
100
AcDbText
 10
-331.4874332673517
 20
-208.8810934731031
 30
0.0
 40
19.05
  1
（別途）
 41
1.089999999999999
  7
ＭＳ ゴシック
100
AcDbText
  0
TEXT
  5
20F
330
1F
100
AcDbEntity
  8
0-5
  6
Continuous
 62
     6
370
     9
100
AcDbText
 10
-422.4912878882167
 20
-166.873384231373
 30
0.0
 40
19.05
  1
蝶ナット：ＳＰＨＣ
 41
1.106666666666666
  7
ＭＳ ゴシック
100
AcDbText
  0
LINE
  5
210
330
1F
100
AcDbEntity
  8
0-5
  6
Continuous
 62
     7
370
     9
100
AcDbLine
 10
-168.9931417266892
 20
-175.1910584583883
 30
0.0
 11
-433.5616222592546
 21
-175.1910584583883
 31
0.0
  0
LINE
  5
211
330
1F
100
AcDbEntity
  8
0-5
  6
Continuous
 62
     7
370
     9
100
AcDbLine
 10
-36.39332423699959
 20
-404.8606794248909
 30
0.0
 11
-51.61235996221759
 21
-385.02684591761
 31
0.0
  0
LINE
  5
212
330
1F
100
AcDbEntity
  8
0-5
  6
Continuous
 62
     7
370
     9
100
AcDbLine
 10
-36.39332423699959
 20
-404.8606794248909
 30
0.0
 11
-45.96041004612683
 21
-381.7636911121087
 31
0.0
  0
TEXT
  5
213
330
1F
100
AcDbEntity
  8
0-5
  6
Continuous
 62
     7
370
     9
100
AcDbText
 10
-559.6142786635606
 20
-294.6013952235983
 30
0.0
 40
22.86
  1
固定プレート
 41
1.138888888888889
  7
ＭＳ ゴシック
100
AcDbText
  0
TEXT
  5
214
330
1F
100
AcDbEntity
  8
0-5
  6
Continuous
 62
     7
370
     9
100
AcDbText
 10
-522.2223836041364
 20
-336.4595587635197
 30
0.0
 40
22.86
  1
ＳＰＨＣ
 41
1.125
  7
ＭＳ ゴシック
100
AcDbText
  0
LINE
  5
215
330
1F
100
AcDbEntity
  8
0-5
  6
Continuous
 62
     7
370
     9
100
AcDbLine
 10
-340.2902061437898
 20
-303.1538749303975
 30
0.0
 11
-564.7495563376442
 21
-303.1538749303975
 31
0.0
  0
LINE
  5
216
330
1F
100
AcDbEntity
  8
0-5
  6
Continuous
 62
     7
370
     9
100
AcDbLine
 10
-260.3933289789627
 20
-441.5393255459674
 30
0.0
 11
-340.2902061437898
 21
-303.1538749303975
 31
0.0
  0
LINE
  5
217
330
1F
100
AcDbEntity
  8
0-5
  6
Continuous
 62
     7
370
     9
100
AcDbLine
 10
-260.3933289789627
 20
-441.5393255459674
 30
0.0
 11
-275.6123647041807
 21
-421.7054920386865
 31
0.0
  0
LINE
  5
218
330
1F
100
AcDbEntity
  8
0-5
  6
Continuous
 62
     7
370
     9
100
AcDbLine
 10
-260.3933289789627
 20
-441.5393255459674
 30
0.0
 11
-269.96041478809
 21
-418.4423372331852
 31
0.0
  0
LINE
  5
219
330
1F
100
AcDbEntity
  8
0-4
  6
Continuous
 62
     7
370
     9
100
AcDbLine
 10
-302.0602721498122
 20
-298.9847670049277
 30
0.0
 11
314.6064569659522
 21
-298.9847670049277
 31
0.0
  0
LINE
  5
21A
330
1F
100
AcDbEntity
  8
0-4
  6
Continuous
 62
     7
370
     9
100
AcDbLine
 10
-302.0602721498122
 20
-298.9847670049277
 30
0.0
 11
-277.274150615467
 21
-295.7216121994264
 31
0.0
  0
LINE
  5
21B
330
1F
100
AcDbEntity
  8
0-4
  6
Continuous
 62
     7
370
     9
100
AcDbLine
 10
-302.0602721498122
 20
-298.9847670049277
 30
0.0
 11
-277.274150615467
 21
-302.2479218104289
 31
0.0
  0
LINE
  5
21C
330
1F
100
AcDbEntity
  8
0-4
  6
Continuous
 62
     7
370
     9
100
AcDbLine
 10
314.6064569659522
 20
-298.9847670049277
 30
0.0
 11
289.820335431607
 21
-295.7216121994264
 31
0.0
  0
LINE
  5
21D
330
1F
100
AcDbEntity
  8
0-4
  6
Continuous
 62
     7
370
     9
100
AcDbLine
 10
314.6064569659522
 20
-298.9847670049277
 30
0.0
 11
289.820335431607
 21
-302.2479218104289
 31
0.0
  0
LINE
  5
21E
330
1F
100
AcDbEntity
  8
0-4
  6
Continuous
 62
     7
370
     9
100
AcDbLine
 10
-302.0602721498122
 20
-295.9847670049276
 30
0.0
 11
-302.0602721498122
 21
-644.8735331666744
 31
0.0
  0
LINE
  5
21F
330
1F
100
AcDbEntity
  8
0-4
  6
Continuous
 62
     7
370
     9
100
AcDbLine
 10
314.6064569659522
 20
-295.9847670049276
 30
0.0
 11
314.6064569659522
 21
-644.8735331666744
 31
0.0
  0
TEXT
  5
220
330
1F
100
AcDbEntity
  8
0-F
  6
Continuous
 62
     2
370
     9
100
AcDbText
 10
-691.097272295238
 20
399.1680858303868
 30
0.0
 40
30.48
  1
195
 50
90.0000025
 41
1.083333333333333
  7
ＭＳ ゴシック
100
AcDbText
  0
TEXT
  5
221
330
1F
100
AcDbEntity
  8
0-4
  6
Continuous
 62
     2
370
   211
100
AcDbText
 10
-48.72690759192999
 20
-283.3447670049277
 30
0.0
 40
30.48
  1
φ185
 41
1.1
  7
ＭＳ ゴシック
100
AcDbText
  0
TEXT
  5
222
330
1F
100
AcDbEntity
  8
F-4
  6
Continuous
 62
     2
370
     0
100
AcDbText
 10
-606.3910823449612
 20
-1348.094557508731
 30
0.0
 40
30.48
  1
複数回使用抜型　ＡＷ７５Ｅ－５０
 41
1.1171875
  7
ＭＳ ゴシック
100
AcDbText
  0
ENDSEC
  0
SECTION
  2
OBJECTS
  0
DICTIONARY
  5
C
330
0
100
AcDbDictionary
281
     1
  3
ACAD_GROUP
350
D
  3
ACAD_LAYOUT
350
1A
  3
ACAD_MLEADERSTYLE
350
224
  3
ACAD_MLINESTYLE
350
17
  3
ACAD_PLOTSETTINGS
350
19
  3
ACAD_PLOTSTYLENAME
350
E
  3
ACAD_TABLESTYLE
350
223
  3
ACAD_VISUALSTYLE
350
2A
  3
AcDbVariableDictionary
350
225
  0
DICTIONARY
  5
D
102
{ACAD_REACTORS
330
C
102
}
330
C
100
AcDbDictionary
281
     1
  0
DICTIONARY
  5
1A
102
{ACAD_REACTORS
330
C
102
}
330
C
100
AcDbDictionary
281
     1
  3
Layout1
350
1E
  3
Layout2
350
26
  3
Model
350
22
  0
DICTIONARY
  5
224
102
{ACAD_REACTORS
330
C
102
}
330
C
100
AcDbDictionary
281
     1
  0
DICTIONARY
  5
17
102
{ACAD_REACTORS
330
C
102
}
330
C
100
AcDbDictionary
281
     1
  3
Standard
350
18
  0
DICTIONARY
  5
19
102
{ACAD_REACTORS
330
C
102
}
330
C
100
AcDbDictionary
281
     1
  0
ACDBDICTIONARYWDFLT
  5
E
102
{ACAD_REACTORS
330
C
102
}
330
C
100
AcDbDictionary
281
     1
  3
Normal
350
F
100
AcDbDictionaryWithDefault
340
F
  0
DICTIONARY
  5
223
102
{ACAD_REACTORS
330
C
102
}
330
C
100
AcDbDictionary
281
     1
  0
DICTIONARY
  5
2A
102
{ACAD_REACTORS
330
C
102
}
330
C
100
AcDbDictionary
281
     1
  3
2dWireframe
350
2F
  3
3D Hidden
350
31
  3
3dWireframe
350
30
  3
Basic
350
32
  3
Brighten
350
36
  3
ColorChange
350
3A
  3
Conceptual
350
34
  3
Dim
350
35
  3
Facepattern
350
39
  3
Flat
350
2B
  3
FlatWithEdges
350
2C
  3
Gouraud
350
2D
  3
GouraudWithEdges
350
2E
  3
Linepattern
350
38
  3
Realistic
350
33
  3
Thicken
350
37
  0
DICTIONARY
  5
225
102
{ACAD_REACTORS
330
C
102
}
330
C
100
AcDbDictionary
281
     1
  3
PSOLHEIGHT
350
227
  3
PSOLWIDTH
350
226
  0
LAYOUT
  5
1E
102
{ACAD_REACTORS
330
1A
102
}
102
{ACAD_XDICTIONARY
360
228
102
}
330
1A
100
AcDbPlotSettings
  1

  2
none_device
  4

  6

 40
0.0
 41
0.0
 42
0.0
 43
0.0
 44
0.0
 45
0.0
 46
0.0
 47
0.0
 48
0.0
 49
0.0
140
0.0
141
0.0
142
1.0
143
1.0
 70
   688
 72
     0
 73
     0
 74
     5
  7

 75
    16
147
1.0
148
0.0
149
0.0
100
AcDbLayout
  1
Layout1
 70
     1
 71
     1
 10
0.0
 20
0.0
 11
420.0
 21
297.0
 12
0.0
 22
0.0
 32
0.0
 14
1.000000000000000E+20
 24
1.000000000000000E+20
 34
1.000000000000000E+20
 15
-1.000000000000000E+20
 25
-1.000000000000000E+20
 35
-1.000000000000000E+20
146
0.0
 13
0.0
 23
0.0
 33
0.0
 16
1.0
 26
0.0
 36
0.0
 17
0.0
 27
1.0
 37
0.0
 76
     0
330
1B
  0
LAYOUT
  5
26
102
{ACAD_REACTORS
330
1A
102
}
102
{ACAD_XDICTIONARY
360
22C
102
}
330
1A
100
AcDbPlotSettings
  1

  2
none_device
  4

  6

 40
0.0
 41
0.0
 42
0.0
 43
0.0
 44
0.0
 45
0.0
 46
0.0
 47
0.0
 48
0.0
 49
0.0
140
0.0
141
0.0
142
1.0
143
1.0
 70
   688
 72
     0
 73
     0
 74
     5
  7

 75
    16
147
1.0
148
0.0
149
0.0
100
AcDbLayout
  1
Layout2
 70
     1
 71
     2
 10
0.0
 20
0.0
 11
0.0
 21
0.0
 12
0.0
 22
0.0
 32
0.0
 14
0.0
 24
0.0
 34
0.0
 15
0.0
 25
0.0
 35
0.0
146
0.0
 13
0.0
 23
0.0
 33
0.0
 16
1.0
 26
0.0
 36
0.0
 17
0.0
 27
1.0
 37
0.0
 76
     0
330
23
  0
LAYOUT
  5
22
102
{ACAD_REACTORS
330
1A
102
}
102
{ACAD_XDICTIONARY
360
22A
102
}
330
1A
100
AcDbPlotSettings
  1

  2
none_device
  4

  6

 40
0.0
 41
0.0
 42
0.0
 43
0.0
 44
0.0
 45
0.0
 46
0.0
 47
0.0
 48
0.0
 49
0.0
140
0.0
141
0.0
142
1.0
143
1.0
 70
  1712
 72
     0
 73
     0
 74
     0
  7

 75
     0
147
1.0
148
0.0
149
0.0
100
AcDbLayout
  1
Model
 70
     1
 71
     0
 10
-2100.0
 20
-1485.0
 11
2100.0
 21
1485.0
 12
0.0
 22
0.0
 32
0.0
 14
-2100.0
 24
-1485.0
 34
0.0
 15
2100.0
 25
1485.0
 35
0.0
146
0.0
 13
0.0
 23
0.0
 33
0.0
 16
1.0
 26
0.0
 36
0.0
 17
0.0
 27
1.0
 37
0.0
 76
     0
330
1F
331
29
  0
MLINESTYLE
  5
18
102
{ACAD_REACTORS
330
17
102
}
330
17
100
AcDbMlineStyle
  2
Standard
 70
     0
  3

 62
   256
 51
90.0
 52
90.0
 71
     2
 49
0.5
 62
   256
  6
BYLAYER
 49
-0.5
 62
   256
  6
BYLAYER
  0
ACDBPLACEHOLDER
  5
F
102
{ACAD_REACTORS
330
E
102
}
330
E
  0
VISUALSTYLE
  5
2F
102
{ACAD_REACTORS
330
2A
102
}
330
2A
100
AcDbVisualStyle
  2
2dWireframe
 70
     4
 71
     0
 72
     2
 73
     0
 90
        0
 40
-0.6
 41
-30.0
 62
     5
 63
     7
 74
     1
 91
        4
 64
     7
 65
   257
 75
     1
175
     1
 42
1.0
 92
        0
 66
   257
 43
1.0
 76
     1
 77
     6
 78
     2
 67
     7
 79
     5
170
     0
171
     0
290
     0
174
     0
 93
        1
 44
0.0
173
     0
291
     0
 45
0.0
1001
ACAD
1000
AcDbSavedByObjectVersion
1070
     0
  0
VISUALSTYLE
  5
31
102
{ACAD_REACTORS
330
2A
102
}
330
2A
100
AcDbVisualStyle
  2
3D Hidden
 70
     6
 71
     1
 72
     2
 73
     2
 90
        0
 40
-0.6
 41
-30.0
 62
     5
 63
     7
 74
     2
 91
        2
 64
     7
 65
   257
 75
     2
175
     1
 42
40.0
 92
        0
 66
   257
 43
1.0
 76
     1
 77
     6
 78
     2
 67
     7
 79
     3
170
     0
171
     0
290
     0
174
     0
 93
        1
 44
0.0
173
     0
291
     0
 45
0.0
1001
ACAD
1000
AcDbSavedByObjectVersion
1070
     0
  0
VISUALSTYLE
  5
30
102
{ACAD_REACTORS
330
2A
102
}
330
2A
100
AcDbVisualStyle
  2
3dWireframe
 70
     5
 71
     0
 72
     2
 73
     0
 90
        0
 40
-0.6
 41
-30.0
 62
     5
 63
     7
 74
     1
 91
        4
 64
     7
 65
   257
 75
     1
175
     1
 42
1.0
 92
        0
 66
   257
 43
1.0
 76
     1
 77
     6
 78
     2
 67
     7
 79
     5
170
     0
171
     0
290
     0
174
     0
 93
        1
 44
0.0
173
     0
291
     0
 45
0.0
1001
ACAD
1000
AcDbSavedByObjectVersion
1070
     0
  0
VISUALSTYLE
  5
32
102
{ACAD_REACTORS
330
2A
102
}
330
2A
100
AcDbVisualStyle
  2
Basic
 70
     7
 71
     1
 72
     0
 73
     1
 90
        0
 40
-0.6
 41
-30.0
 62
     5
 63
     7
 74
     0
 91
        4
 64
     7
 65
   257
 75
     1
175
     1
 42
1.0
 92
        8
 66
     7
 43
1.0
 76
     1
 77
     6
 78
     2
 67
     7
 79
     5
170
     0
171
     0
290
     0
174
     0
 93
        1
 44
0.0
173
     0
291
     1
 45
0.0
1001
ACAD
1000
AcDbSavedByObjectVersion
1070
     0
  0
VISUALSTYLE
  5
36
102
{ACAD_REACTORS
330
2A
102
}
330
2A
100
AcDbVisualStyle
  2
Brighten
 70
    12
 71
     2
 72
     2
 73
     0
 90
        0
 40
-0.6
 41
-30.0
 62
     5
 63
     7
 74
     1
 91
        4
 64
     7
 65
   257
 75
     1
175
     1
 42
1.0
 92
        8
 66
     7
 43
1.0
 76
     1
 77
     6
 78
     2
 67
     7
 79
     5
170
     0
171
     0
290
     0
174
     0
 93
        1
 44
50.0
173
     0
291
     1
 45
0.0
1001
ACAD
1000
AcDbSavedByObjectVersion
1070
     0
  0
VISUALSTYLE
  5
3A
102
{ACAD_REACTORS
330
2A
102
}
330
2A
100
AcDbVisualStyle
  2
ColorChange
 70
    16
 71
     2
 72
     2
 73
     3
 90
        0
 40
-0.6
 41
-30.0
 62
     5
 63
     8
 74
     1
 91
        4
 64
     7
 65
   257
 75
     1
175
     1
 42
1.0
 92
        8
 66
     8
 43
1.0
 76
     1
 77
     6
 78
     2
 67
     7
 79
     5
170
     0
171
     0
290
     0
174
     0
 93
        1
 44
0.0
173
     0
291
     1
 45
0.0
1001
ACAD
1000
AcDbSavedByObjectVersion
1070
     0
  0
VISUALSTYLE
  5
34
102
{ACAD_REACTORS
330
2A
102
}
330
2A
100
AcDbVisualStyle
  2
Conceptual
 70
     9
 71
     3
 72
     2
 73
     0
 90
        0
 40
-0.6
 41
-30.0
 62
     5
 63
     7
 74
     2
 91
        2
 64
     7
 65
   257
 75
     1
175
     1
 42
40.0
 92
        8
 66
     7
 43
1.0
 76
     1
 77
     6
 78
     2
 67
     7
 79
     3
170
     0
171
     0
290
     0
174
     0
 93
        1
 44
0.0
173
     0
291
     0
 45
0.0
1001
ACAD
1000
AcDbSavedByObjectVersion
1070
     0
  0
VISUALSTYLE
  5
35
102
{ACAD_REACTORS
330
2A
102
}
330
2A
100
AcDbVisualStyle
  2
Dim
 70
    11
 71
     2
 72
     2
 73
     0
 90
        0
 40
-0.6
 41
-30.0
 62
     5
 63
     7
 74
     1
 91
        4
 64
     7
 65
   257
 75
     1
175
     1
 42
1.0
 92
        8
 66
     7
 43
1.0
 76
     1
 77
     6
 78
     2
 67
     7
 79
     5
170
     0
171
     0
290
     0
174
     0
 93
        1
 44
-50.0
173
     0
291
     1
 45
0.0
1001
ACAD
1000
AcDbSavedByObjectVersion
1070
     0
  0
VISUALSTYLE
  5
39
102
{ACAD_REACTORS
330
2A
102
}
330
2A
100
AcDbVisualStyle
  2
Facepattern
 70
    15
 71
     2
 72
     2
 73
     0
 90
        0
 40
-0.6
 41
-30.0
 62
     5
 63
     7
 74
     1
 91
        4
 64
     7
 65
   257
 75
     1
175
     1
 42
1.0
 92
        8
 66
     7
 43
1.0
 76
     1
 77
     6
 78
     2
 67
     7
 79
     5
170
     0
171
     0
290
     0
174
     0
 93
        1
 44
0.0
173
     0
291
     1
 45
0.0
1001
ACAD
1000
AcDbSavedByObjectVersion
1070
     0
  0
VISUALSTYLE
  5
2B
102
{ACAD_REACTORS
330
2A
102
}
330
2A
100
AcDbVisualStyle
  2
Flat
 70
     0
 71
     2
 72
     1
 73
     1
 90
        2
 40
-0.6
 41
30.0
 62
     5
 63
     7
 74
     0
 91
        4
 64
     7
 65
   257
 75
     1
175
     1
 42
1.0
 92
        8
 66
     7
 43
1.0
 76
     1
 77
     6
 78
     2
 67
     7
 79
     5
170
     0
171
     0
290
     0
174
     0
 93
       13
 44
0.0
173
     0
291
     1
 45
0.0
1001
ACAD
1000
AcDbSavedByObjectVersion
1070
     0
  0
VISUALSTYLE
  5
2C
102
{ACAD_REACTORS
330
2A
102
}
330
2A
100
AcDbVisualStyle
  2
FlatWithEdges
 70
     1
 71
     2
 72
     1
 73
     1
 90
        2
 40
-0.6
 41
30.0
 62
     5
 63
     7
 74
     1
 91
        4
 64
     7
 65
   257
 75
     1
175
     1
 42
1.0
 92
        0
 66
   257
 43
1.0
 76
     1
 77
     6
 78
     2
 67
     7
 79
     5
170
     0
171
     0
290
     0
174
     0
 93
       13
 44
0.0
173
     0
291
     1
 45
0.0
1001
ACAD
1000
AcDbSavedByObjectVersion
1070
     0
  0
VISUALSTYLE
  5
2D
102
{ACAD_REACTORS
330
2A
102
}
330
2A
100
AcDbVisualStyle
  2
Gouraud
 70
     2
 71
     2
 72
     2
 73
     1
 90
        2
 40
-0.6
 41
30.0
 62
     5
 63
     7
 74
     0
 91
        4
 64
     7
 65
   257
 75
     1
175
     1
 42
1.0
 92
        0
 66
     7
 43
1.0
 76
     1
 77
     6
 78
     2
 67
     7
 79
     5
170
     0
171
     0
290
     0
174
     0
 93
       13
 44
0.0
173
     0
291
     1
 45
0.0
1001
ACAD
1000
AcDbSavedByObjectVersion
1070
     0
  0
VISUALSTYLE
  5
2E
102
{ACAD_REACTORS
330
2A
102
}
330
2A
100
AcDbVisualStyle
  2
GouraudWithEdges
 70
     3
 71
     2
 72
     2
 73
     1
 90
        2
 40
-0.6
 41
30.0
 62
     5
 63
     7
 74
     1
 91
        4
 64
     7
 65
   257
 75
     1
175
     1
 42
1.0
 92
        0
 66
   257
 43
1.0
 76
     1
 77
     6
 78
     2
 67
     7
 79
     5
170
     0
171
     0
290
     0
174
     0
 93
       13
 44
0.0
173
     0
291
     1
 45
0.0
1001
ACAD
1000
AcDbSavedByObjectVersion
1070
     0
  0
VISUALSTYLE
  5
38
102
{ACAD_REACTORS
330
2A
102
}
330
2A
100
AcDbVisualStyle
  2
Linepattern
 70
    14
 71
     2
 72
     2
 73
     0
 90
        0
 40
-0.6
 41
-30.0
 62
     5
 63
     7
 74
     1
 91
        4
 64
     7
 65
   257
 75
     7
175
     7
 42
1.0
 92
        8
 66
     7
 43
1.0
 76
     1
 77
     6
 78
     2
 67
     7
 79
     5
170
     0
171
     0
290
     0
174
     0
 93
        1
 44
0.0
173
     0
291
     1
 45
0.0
1001
ACAD
1000
AcDbSavedByObjectVersion
1070
     0
  0
VISUALSTYLE
  5
33
102
{ACAD_REACTORS
330
2A
102
}
330
2A
100
AcDbVisualStyle
  2
Realistic
 70
     8
 71
     2
 72
     2
 73
     0
 90
        0
 40
-0.6
 41
-30.0
 62
     5
 63
     7
 74
     1
 91
        0
 64
     7
 65
   257
 75
     1
175
     1
 42
1.0
 92
        8
 66
     8
 43
1.0
 76
     1
 77
     6
 78
     2
 67
     7
 79
     5
170
     0
171
     0
290
     0
174
     0
 93
       13
 44
0.0
173
     0
291
     0
 45
0.0
1001
ACAD
1000
AcDbSavedByObjectVersion
1070
     0
  0
VISUALSTYLE
  5
37
102
{ACAD_REACTORS
330
2A
102
}
330
2A
100
AcDbVisualStyle
  2
Thicken
 70
    13
 71
     2
 72
     2
 73
     0
 90
        0
 40
-0.6
 41
-30.0
 62
     5
 63
     7
 74
     1
 91
        4
 64
     7
 65
   257
 75
     1
175
     1
 42
1.0
 92
       12
 66
     7
 43
1.0
 76
     1
 77
     6
 78
     2
 67
     7
 79
     5
170
     0
171
     0
290
     0
174
     0
 93
        1
 44
0.0
173
     0
291
     1
 45
0.0
1001
ACAD
1000
AcDbSavedByObjectVersion
1070
     0
  0
DICTIONARYVAR
  5
227
102
{ACAD_REACTORS
330
225
102
}
330
225
100
DictionaryVariables
280
     0
  1
80.000000
  0
DICTIONARYVAR
  5
226
102
{ACAD_REACTORS
330
225
102
}
330
225
100
DictionaryVariables
280
     0
  1
5.000000
  0
DICTIONARY
  5
228
330
1E
100
AcDbDictionary
280
     1
281
     1
  3
ACAD_XREC_ROUNDTRIP
360
229
  0
DICTIONARY
  5
22C
330
26
100
AcDbDictionary
280
     1
281
     1
  3
ACAD_XREC_ROUNDTRIP
360
22D
  0
DICTIONARY
  5
22A
330
22
100
AcDbDictionary
280
     1
281
     1
  3
ACAD_XREC_ROUNDTRIP
360
22B
  0
XRECORD
  5
229
102
{ACAD_REACTORS
330
228
102
}
330
228
100
AcDbXrecord
280
     1
102
SHADEPLOT
 70
     0
102
SHADEPLOTRESLEVEL
 70
     5
102
SHADEPLOTCUSTOMDPI
 70
   300
  0
XRECORD
  5
22D
102
{ACAD_REACTORS
330
22C
102
}
330
22C
100
AcDbXrecord
280
     1
102
SHADEPLOT
 70
     0
102
SHADEPLOTRESLEVEL
 70
     5
102
SHADEPLOTCUSTOMDPI
 70
   300
  0
XRECORD
  5
22B
102
{ACAD_REACTORS
330
22A
102
}
330
22A
100
AcDbXrecord
280
     1
102
SHADEPLOT
 70
     0
102
SHADEPLOTRESLEVEL
 70
     5
102
SHADEPLOTCUSTOMDPI
 70
   300
  0
ENDSEC
  0
EOF
