  0
SECTION
  2
HEADER
  9
$ACADVER
  1
AC1015
  9
$ACADMAINTVER
 70
     6
  9
$DWGCODEPAGE
  3
ANSI_932
  9
$INSBASE
 10
0.0
 20
0.0
 30
0.0
  9
$EXTMIN
 10
-2100.0
 20
-1485.0
 30
0.0
  9
$EXTMAX
 10
2100.0
 20
1485.0
 30
0.0
  9
$LIMMIN
 10
-2100.0
 20
-1485.0
  9
$LIMMAX
 10
2100.0
 20
1485.0
  9
$ORTHOMODE
 70
     0
  9
$REGENMODE
 70
     1
  9
$FILLMODE
 70
     1
  9
$QTEXTMODE
 70
     0
  9
$MIRRTEXT
 70
     1
  9
$LTSCALE
 40
10.0
  9
$ATTMODE
 70
     1
  9
$TEXTSIZE
 40
2.5
  9
$TRACEWID
 40
1.0
  9
$TEXTSTYLE
  7
Standard
  9
$CLAYER
  8
0
  9
$CELTYPE
  6
ByLayer
  9
$CECOLOR
 62
   256
  9
$CELTSCALE
 40
1.0
  9
$DISPSILH
 70
     0
  9
$DIMSCALE
 40
1.0
  9
$DIMASZ
 40
2.5
  9
$DIMEXO
 40
0.625
  9
$DIMDLI
 40
3.75
  9
$DIMRND
 40
0.0
  9
$DIMDLE
 40
0.0
  9
$DIMEXE
 40
1.25
  9
$DIMTP
 40
0.0
  9
$DIMTM
 40
0.0
  9
$DIMTXT
 40
2.5
  9
$DIMCEN
 40
2.5
  9
$DIMTSZ
 40
0.0
  9
$DIMTOL
 70
     0
  9
$DIMLIM
 70
     0
  9
$DIMTIH
 70
     0
  9
$DIMTOH
 70
     0
  9
$DIMSE1
 70
     0
  9
$DIMSE2
 70
     0
  9
$DIMTAD
 70
     1
  9
$DIMZIN
 70
     8
  9
$DIMBLK
  1

  9
$DIMASO
 70
     1
  9
$DIMSHO
 70
     1
  9
$DIMPOST
  1

  9
$DIMAPOST
  1

  9
$DIMALT
 70
     0
  9
$DIMALTD
 70
     3
  9
$DIMALTF
 40
0.03937007874016
  9
$DIMLFAC
 40
1.0
  9
$DIMTOFL
 70
     1
  9
$DIMTVP
 40
0.0
  9
$DIMTIX
 70
     0
  9
$DIMSOXD
 70
     0
  9
$DIMSAH
 70
     0
  9
$DIMBLK1
  1

  9
$DIMBLK2
  1

  9
$DIMSTYLE
  2
ISO-25
  9
$DIMCLRD
 70
     0
  9
$DIMCLRE
 70
     0
  9
$DIMCLRT
 70
     0
  9
$DIMTFAC
 40
1.0
  9
$DIMGAP
 40
0.625
  9
$DIMJUST
 70
     0
  9
$DIMSD1
 70
     0
  9
$DIMSD2
 70
     0
  9
$DIMTOLJ
 70
     0
  9
$DIMTZIN
 70
     8
  9
$DIMALTZ
 70
     0
  9
$DIMALTTZ
 70
     0
  9
$DIMUPT
 70
     0
  9
$DIMDEC
 70
     2
  9
$DIMTDEC
 70
     2
  9
$DIMALTU
 70
     2
  9
$DIMALTTD
 70
     3
  9
$DIMTXSTY
  7
Standard
  9
$DIMAUNIT
 70
     0
  9
$DIMADEC
 70
     0
  9
$DIMALTRND
 40
0.0
  9
$DIMAZIN
 70
     0
  9
$DIMDSEP
 70
    44
  9
$DIMATFIT
 70
     3
  9
$DIMFRAC
 70
     0
  9
$DIMLDRBLK
  1

  9
$DIMLUNIT
 70
     2
  9
$DIMLWD
 70
    -2
  9
$DIMLWE
 70
    -2
  9
$DIMTMOVE
 70
     0
  9
$LUNITS
 70
     2
  9
$LUPREC
 70
     4
  9
$SKETCHINC
 40
1.0
  9
$FILLETRAD
 40
10.0
  9
$AUNITS
 70
     0
  9
$AUPREC
 70
     0
  9
$MENU
  1
.
  9
$ELEVATION
 40
0.0
  9
$PELEVATION
 40
0.0
  9
$THICKNESS
 40
0.0
  9
$LIMCHECK
 70
     0
  9
$CHAMFERA
 40
10.0
  9
$CHAMFERB
 40
10.0
  9
$CHAMFERC
 40
20.0
  9
$CHAMFERD
 40
0.0
  9
$SKPOLY
 70
     0
  9
$TDCREATE
 40
2456898.435582199
  9
$TDUCREATE
 40
2456898.060582199
  9
$TDUPDATE
 40
2456898.435582211
  9
$TDUUPDATE
 40
2456898.060582211
  9
$TDINDWG
 40
0.0000000116
  9
$TDUSRTIMER
 40
0.0000000116
  9
$USRTIMER
 70
     1
  9
$ANGBASE
 50
0.0
  9
$ANGDIR
 70
     0
  9
$PDMODE
 70
     0
  9
$PDSIZE
 40
0.0
  9
$PLINEWID
 40
0.0
  9
$SPLFRAME
 70
     0
  9
$SPLINETYPE
 70
     6
  9
$SPLINESEGS
 70
     8
  9
$HANDSEED
  5
217
  9
$SURFTAB1
 70
     6
  9
$SURFTAB2
 70
     6
  9
$SURFTYPE
 70
     6
  9
$SURFU
 70
     6
  9
$SURFV
 70
     6
  9
$UCSBASE
  2

  9
$UCSNAME
  2

  9
$UCSORG
 10
0.0
 20
0.0
 30
0.0
  9
$UCSXDIR
 10
1.0
 20
0.0
 30
0.0
  9
$UCSYDIR
 10
0.0
 20
1.0
 30
0.0
  9
$UCSORTHOREF
  2

  9
$UCSORTHOVIEW
 70
     0
  9
$UCSORGTOP
 10
0.0
 20
0.0
 30
0.0
  9
$UCSORGBOTTOM
 10
0.0
 20
0.0
 30
0.0
  9
$UCSORGLEFT
 10
0.0
 20
0.0
 30
0.0
  9
$UCSORGRIGHT
 10
0.0
 20
0.0
 30
0.0
  9
$UCSORGFRONT
 10
0.0
 20
0.0
 30
0.0
  9
$UCSORGBACK
 10
0.0
 20
0.0
 30
0.0
  9
$PUCSBASE
  2

  9
$PUCSNAME
  2

  9
$PUCSORG
 10
0.0
 20
0.0
 30
0.0
  9
$PUCSXDIR
 10
1.0
 20
0.0
 30
0.0
  9
$PUCSYDIR
 10
0.0
 20
1.0
 30
0.0
  9
$PUCSORTHOREF
  2

  9
$PUCSORTHOVIEW
 70
     0
  9
$PUCSORGTOP
 10
0.0
 20
0.0
 30
0.0
  9
$PUCSORGBOTTOM
 10
0.0
 20
0.0
 30
0.0
  9
$PUCSORGLEFT
 10
0.0
 20
0.0
 30
0.0
  9
$PUCSORGRIGHT
 10
0.0
 20
0.0
 30
0.0
  9
$PUCSORGFRONT
 10
0.0
 20
0.0
 30
0.0
  9
$PUCSORGBACK
 10
0.0
 20
0.0
 30
0.0
  9
$USERI1
 70
     0
  9
$USERI2
 70
     0
  9
$USERI3
 70
     0
  9
$USERI4
 70
     0
  9
$USERI5
 70
     0
  9
$USERR1
 40
0.0
  9
$USERR2
 40
0.0
  9
$USERR3
 40
0.0
  9
$USERR4
 40
0.0
  9
$USERR5
 40
0.0
  9
$WORLDVIEW
 70
     1
  9
$SHADEDGE
 70
     3
  9
$SHADEDIF
 70
    70
  9
$TILEMODE
 70
     1
  9
$MAXACTVP
 70
    64
  9
$PINSBASE
 10
0.0
 20
0.0
 30
0.0
  9
$PLIMCHECK
 70
     0
  9
$PEXTMIN
 10
1.000000000000000E+20
 20
1.000000000000000E+20
 30
1.000000000000000E+20
  9
$PEXTMAX
 10
-1.000000000000000E+20
 20
-1.000000000000000E+20
 30
-1.000000000000000E+20
  9
$PLIMMIN
 10
0.0
 20
0.0
  9
$PLIMMAX
 10
420.0
 20
297.0
  9
$UNITMODE
 70
     0
  9
$VISRETAIN
 70
     1
  9
$PLINEGEN
 70
     0
  9
$PSLTSCALE
 70
     1
  9
$TREEDEPTH
 70
  3020
  9
$CMLSTYLE
  2
Standard
  9
$CMLJUST
 70
     0
  9
$CMLSCALE
 40
20.0
  9
$PROXYGRAPHICS
 70
     1
  9
$MEASUREMENT
 70
     1
  9
$CELWEIGHT
370
    -1
  9
$ENDCAPS
280
     0
  9
$JOINSTYLE
280
     0
  9
$LWDISPLAY
290
     0
  9
$INSUNITS
 70
     4
  9
$HYPERLINKBASE
  1

  9
$STYLESHEET
  1

  9
$XEDIT
290
     1
  9
$CEPSNTYPE
380
     0
  9
$PSTYLEMODE
290
     1
  9
$FINGERPRINTGUID
  2
{6D020F8D-5E60-4708-AC3E-FCB02D5D512A}
  9
$VERSIONGUID
  2
{FAEB1C32-E019-11D5-929B-00C0DF256EC4}
  9
$EXTNAMES
290
     1
  9
$PSVPSCALE
 40
0.0
  9
$OLESTARTUP
290
     0
  0
ENDSEC
  0
SECTION
  2
CLASSES
  0
CLASS
  1
ACDBDICTIONARYWDFLT
  2
AcDbDictionaryWithDefault
  3
ObjectDBX Classes
 90
        0
280
     0
281
     0
  0
CLASS
  1
VISUALSTYLE
  2
AcDbVisualStyle
  3
ObjectDBX Classes
 90
     4095
280
     0
281
     0
  0
CLASS
  1
DICTIONARYVAR
  2
AcDbDictionaryVar
  3
ObjectDBX Classes
 90
        0
280
     0
281
     0
  0
CLASS
  1
ACDBPLACEHOLDER
  2
AcDbPlaceHolder
  3
ObjectDBX Classes
 90
        0
280
     0
281
     0
  0
CLASS
  1
LAYOUT
  2
AcDbLayout
  3
ObjectDBX Classes
 90
        0
280
     0
281
     0
  0
ENDSEC
  0
SECTION
  2
TABLES
  0
TABLE
  2
VPORT
  5
8
330
0
100
AcDbSymbolTable
 70
     1
  0
VPORT
  5
29
330
8
100
AcDbSymbolTableRecord
100
AcDbViewportTableRecord
  2
*Active
 70
     0
 10
0.0
 20
0.0
 11
1.0
 21
1.0
 12
0.0
 22
0.0
 13
0.0
 23
0.0
 14
10.0
 24
10.0
 15
10.0
 25
10.0
 16
0.0
 26
0.0
 36
1.0
 17
0.0
 27
0.0
 37
0.0
 40
3267.0
 41
1.414141414141414
 42
50.0
 43
0.0
 44
0.0
 50
0.0
 51
0.0
 71
     0
 72
 10000
 73
     1
 74
     3
 75
     0
 76
     0
 77
     0
 78
     0
281
     0
 65
     1
110
0.0
120
0.0
130
0.0
111
1.0
121
0.0
131
0.0
112
0.0
122
1.0
132
0.0
 79
     0
146
0.0
  0
ENDTAB
  0
TABLE
  2
LTYPE
  5
5
330
0
100
AcDbSymbolTable
 70
     5
  0
LTYPE
  5
14
330
5
100
AcDbSymbolTableRecord
100
AcDbLinetypeTableRecord
  2
ByBlock
 70
     0
  3

 72
    65
 73
     0
 40
0.0
  0
LTYPE
  5
15
330
5
100
AcDbSymbolTableRecord
100
AcDbLinetypeTableRecord
  2
ByLayer
 70
     0
  3

 72
    65
 73
     0
 40
0.0
  0
LTYPE
  5
16
330
5
100
AcDbSymbolTableRecord
100
AcDbLinetypeTableRecord
  2
Continuous
 70
     0
  3
Solid line
 72
    65
 73
     0
 40
0.0
  0
LTYPE
  5
3C
330
5
100
AcDbSymbolTableRecord
100
AcDbLinetypeTableRecord
  2
JWW_CENTER1
 70
     0
  3
-----  --  ----------  --  -----
 72
    65
 73
     4
 40
6.773333333333333
 49
4.233333333333333
 74
     0
 49
-0.8466666666666667
 74
     0
 49
0.8466666666666667
 74
     0
 49
-0.8466666666666667
 74
     0
  0
LTYPE
  5
3D
330
5
100
AcDbSymbolTableRecord
100
AcDbLinetypeTableRecord
  2
JWW_HOJO
 70
     0
  3
  -   -   -   -   -   -   -   - 
 72
    65
 73
     2
 40
1.693333333333333
 49
-1.27
 74
     0
 49
0.4233333333333333
 74
     0
  0
LTYPE
  5
3E
330
5
100
AcDbSymbolTableRecord
100
AcDbLinetypeTableRecord
  2
JWW_DASHED1
 70
     0
  3
-  --  --  --  --  --  --  --  -
 72
    65
 73
     2
 40
1.693333333333333
 49
0.8466666666666667
 74
     0
 49
-0.8466666666666667
 74
     0
  0
LTYPE
  5
3F
330
5
100
AcDbSymbolTableRecord
100
AcDbLinetypeTableRecord
  2
JWW_PHANTOM2
 70
     0
  3
------------  -  -  ------------
 72
    65
 73
     6
 40
13.54666666666667
 49
10.16
 74
     0
 49
-0.8466666666666667
 74
     0
 49
0.4233333333333333
 74
     0
 49
-0.8466666666666667
 74
     0
 49
0.4233333333333333
 74
     0
 49
-0.8466666666666667
 74
     0
  0
ENDTAB
  0
TABLE
  2
LAYER
  5
2
330
0
100
AcDbSymbolTable
 70
    14
  0
LAYER
  5
10
330
2
100
AcDbSymbolTableRecord
100
AcDbLayerTableRecord
  2
0
 70
     0
 62
     7
  6
Continuous
370
    -3
390
F
  0
LAYER
  5
40
330
2
100
AcDbSymbolTableRecord
100
AcDbLayerTableRecord
  2
0-F
 70
     0
 62
     7
  6
Continuous
370
    -3
390
F
  0
LAYER
  5
41
330
2
100
AcDbSymbolTableRecord
100
AcDbLayerTableRecord
  2
0-1
 70
     0
 62
     7
  6
Continuous
370
    -3
390
F
  0
LAYER
  5
42
330
2
100
AcDbSymbolTableRecord
100
AcDbLayerTableRecord
  2
0-B
 70
     0
 62
     7
  6
Continuous
370
    -3
390
F
  0
LAYER
  5
43
330
2
100
AcDbSymbolTableRecord
100
AcDbLayerTableRecord
  2
0-4
 70
     0
 62
     7
  6
Continuous
370
    -3
390
F
  0
LAYER
  5
44
330
2
100
AcDbSymbolTableRecord
100
AcDbLayerTableRecord
  2
0-D
 70
     0
 62
     7
  6
Continuous
370
    -3
390
F
  0
LAYER
  5
45
330
2
100
AcDbSymbolTableRecord
100
AcDbLayerTableRecord
  2
F-4
 70
     0
 62
     7
  6
Continuous
370
    -3
390
F
  0
LAYER
  5
46
330
2
100
AcDbSymbolTableRecord
100
AcDbLayerTableRecord
  2
0-8
 70
     0
 62
     7
  6
Continuous
370
    -3
390
F
  0
LAYER
  5
47
330
2
100
AcDbSymbolTableRecord
100
AcDbLayerTableRecord
  2
0-0
 70
     0
 62
     7
  6
Continuous
370
    -3
390
F
  0
LAYER
  5
48
330
2
100
AcDbSymbolTableRecord
100
AcDbLayerTableRecord
  2
0-2
 70
     0
 62
     7
  6
Continuous
370
    -3
390
F
  0
LAYER
  5
49
330
2
100
AcDbSymbolTableRecord
100
AcDbLayerTableRecord
  2
0-C
 70
     0
 62
     7
  6
Continuous
370
    -3
390
F
  0
LAYER
  5
4A
330
2
100
AcDbSymbolTableRecord
100
AcDbLayerTableRecord
  2
0-9
 70
     0
 62
     7
  6
Continuous
370
    -3
390
F
  0
LAYER
  5
4B
330
2
100
AcDbSymbolTableRecord
100
AcDbLayerTableRecord
  2
0-3
 70
     0
 62
     7
  6
Continuous
370
    -3
390
F
  0
LAYER
  5
4C
330
2
100
AcDbSymbolTableRecord
100
AcDbLayerTableRecord
  2
0-5
 70
     0
 62
     7
  6
Continuous
370
    -3
390
F
  0
ENDTAB
  0
TABLE
  2
STYLE
  5
3
330
0
100
AcDbSymbolTable
 70
     2
  0
STYLE
  5
11
330
3
100
AcDbSymbolTableRecord
100
AcDbTextStyleTableRecord
  2
Standard
 70
     0
 40
0.0
 41
1.0
 50
0.0
 71
     0
 42
2.5
  3
txt
  4

1001
ACAD
1000

1071
        0
  0
STYLE
  5
3B
330
3
100
AcDbSymbolTableRecord
100
AcDbTextStyleTableRecord
  2
ＭＳ ゴシック
 70
     0
 40
1.0
 41
1.0
 50
0.0
 71
     0
 42
10.0
  3

  4

1001
ACAD
1000
MS Gothic
1071
    32817
  0
ENDTAB
  0
TABLE
  2
VIEW
  5
6
330
0
100
AcDbSymbolTable
 70
     0
  0
ENDTAB
  0
TABLE
  2
UCS
  5
7
330
0
100
AcDbSymbolTable
 70
     0
  0
ENDTAB
  0
TABLE
  2
APPID
  5
9
330
0
100
AcDbSymbolTable
 70
     1
  0
APPID
  5
12
330
9
100
AcDbSymbolTableRecord
100
AcDbRegAppTableRecord
  2
ACAD
 70
     0
  0
ENDTAB
  0
TABLE
  2
DIMSTYLE
  5
A
330
0
100
AcDbSymbolTable
 70
     1
100
AcDbDimStyleTable
  0
DIMSTYLE
105
27
330
A
100
AcDbSymbolTableRecord
100
AcDbDimStyleTableRecord
  2
ISO-25
 70
     0
 41
2.5
 42
0.625
 43
3.75
 44
1.25
 73
     0
 74
     0
 77
     1
 78
     8
140
2.5
141
2.5
143
0.03937007874016
147
0.625
171
     3
172
     1
271
     2
272
     2
274
     3
278
    44
283
     0
284
     8
340
11
  0
ENDTAB
  0
TABLE
  2
BLOCK_RECORD
  5
1
330
0
100
AcDbSymbolTable
 70
     1
  0
BLOCK_RECORD
  5
1F
330
1
100
AcDbSymbolTableRecord
100
AcDbBlockTableRecord
  2
*Model_Space
340
22
  0
BLOCK_RECORD
  5
1B
330
1
100
AcDbSymbolTableRecord
100
AcDbBlockTableRecord
  2
*Paper_Space
340
1E
  0
BLOCK_RECORD
  5
23
330
1
100
AcDbSymbolTableRecord
100
AcDbBlockTableRecord
  2
*Paper_Space0
340
26
  0
ENDTAB
  0
ENDSEC
  0
SECTION
  2
BLOCKS
  0
BLOCK
  5
20
330
1F
100
AcDbEntity
  8
0
100
AcDbBlockBegin
  2
*Model_Space
 70
     0
 10
0.0
 20
0.0
 30
0.0
  3
*Model_Space
  1

  0
ENDBLK
  5
21
330
1F
100
AcDbEntity
  8
0
100
AcDbBlockEnd
  0
BLOCK
  5
1C
330
1B
100
AcDbEntity
 67
     1
  8
0
100
AcDbBlockBegin
  2
*Paper_Space
 70
     0
 10
0.0
 20
0.0
 30
0.0
  3
*Paper_Space
  1

  0
ENDBLK
  5
1D
330
1B
100
AcDbEntity
 67
     1
  8
0
100
AcDbBlockEnd
  0
BLOCK
  5
24
330
23
100
AcDbEntity
  8
0
100
AcDbBlockBegin
  2
*Paper_Space0
 70
     0
 10
0.0
 20
0.0
 30
0.0
  3
*Paper_Space0
  1

  0
ENDBLK
  5
25
330
23
100
AcDbEntity
  8
0
100
AcDbBlockEnd
  0
ENDSEC
  0
SECTION
  2
ENTITIES
  0
LWPOLYLINE
  5
4D
330
1F
100
AcDbEntity
  8
0-F
  6
Continuous
 62
     7
370
     9
100
AcDbPolyline
 90
        4
 70
     1
 43
1.0
 10
13.49083812816747
 20
-622.1485735919023
 42
0.4142135623731
 10
12.99083812816747
 20
-621.6485735919024
 42
0.4142135623731
 10
12.49083812816747
 20
-622.1485735919023
 42
0.4142135623731
 10
12.99083812816747
 20
-622.6485735919023
 42
0.4142135623731
  0
LWPOLYLINE
  5
4E
330
1F
100
AcDbEntity
  8
0-F
  6
Continuous
 62
     7
370
     9
100
AcDbPolyline
 90
        4
 70
     1
 43
1.0
 10
0.1575432854731958
 20
678.4675721864443
 42
0.4142135623731
 10
-0.3424567145268043
 20
678.9675721864443
 42
0.4142135623731
 10
-0.8424567145268043
 20
678.4675721864443
 42
0.4142135623731
 10
-0.3424567145268043
 20
677.9675721864443
 42
0.4142135623731
  0
LINE
  5
4F
330
1F
100
AcDbEntity
  8
0-1
  6
Continuous
 62
     4
370
     9
100
AcDbLine
 10
482.9906488170641
 20
678.4675721864443
 30
0.0
 11
482.9906488170641
 21
28.46801522155502
 31
0.0
  0
LINE
  5
50
330
1F
100
AcDbEntity
  8
0-1
  6
Continuous
 62
     4
370
     9
100
AcDbLine
 10
482.9906488170641
 20
28.46801522155502
 30
0.0
 11
-483.6762228711697
 21
28.46801522155502
 31
0.0
  0
LINE
  5
51
330
1F
100
AcDbEntity
  8
0-1
  6
JWW_CENTER1
 62
     4
370
     9
100
AcDbLine
 10
-0.3424567145268043
 20
1220.982772846787
 30
0.0
 11
-0.3424567145268043
 21
-50.16816638764894
 31
0.0
  0
LINE
  5
52
330
1F
100
AcDbEntity
  8
0-1
  6
Continuous
 62
     4
370
     9
100
AcDbLine
 10
-483.6762228711697
 20
678.4675721864443
 30
0.0
 11
-483.6762228711697
 21
28.46801522155502
 31
0.0
  0
LINE
  5
53
330
1F
100
AcDbEntity
  8
0-B
  6
Continuous
 62
     2
370
     9
100
AcDbLine
 10
-28.58748073896976
 20
690.133549949224
 30
0.0
 11
-35.34237187801722
 21
690.133549949224
 31
0.0
  0
LINE
  5
54
330
1F
100
AcDbEntity
  8
0-B
  6
Continuous
 62
     2
370
     9
100
AcDbLine
 10
-35.34237187801722
 20
666.8002731735636
 30
0.0
 11
-28.58748073896976
 21
666.8002731735636
 31
0.0
  0
LINE
  5
55
330
1F
100
AcDbEntity
  8
0-B
  6
Continuous
 62
     2
370
     9
100
AcDbLine
 10
27.90256730991615
 20
690.133549949224
 30
0.0
 11
34.65745844896247
 21
690.133549949224
 31
0.0
  0
LINE
  5
56
330
1F
100
AcDbEntity
  8
0-B
  6
Continuous
 62
     2
370
     9
100
AcDbLine
 10
34.65745844896247
 20
666.8002731735636
 30
0.0
 11
27.90256730991615
 21
666.8002731735636
 31
0.0
  0
LINE
  5
57
330
1F
100
AcDbEntity
  8
0-B
  6
Continuous
 62
     2
370
     9
100
AcDbLine
 10
27.90256730991615
 20
686.1341258948677
 30
0.0
 11
34.65745844896247
 21
686.1341258948677
 31
0.0
  0
LINE
  5
58
330
1F
100
AcDbEntity
  8
0-B
  6
Continuous
 62
     2
370
     9
100
AcDbLine
 10
34.65745844896247
 20
670.8003578529699
 30
0.0
 11
27.90256730991615
 21
670.8003578529699
 31
0.0
  0
LINE
  5
59
330
1F
100
AcDbEntity
  8
0-B
  6
Continuous
 62
     2
370
     9
100
AcDbLine
 10
-35.34237187801722
 20
670.8003578529699
 30
0.0
 11
-28.58748073896976
 21
670.8003578529699
 31
0.0
  0
LINE
  5
5A
330
1F
100
AcDbEntity
  8
0-B
  6
Continuous
 62
     2
370
     9
100
AcDbLine
 10
-28.58748073896976
 20
686.1341258948677
 30
0.0
 11
-35.34237187801722
 21
686.1341258948677
 31
0.0
  0
LINE
  5
5B
330
1F
100
AcDbEntity
  8
0-1
  6
JWW_CENTER1
 62
     4
370
     9
100
AcDbLine
 10
540.3335638058538
 20
678.4675721864443
 30
0.0
 11
-541.0184772349087
 21
678.4675721864443
 31
0.0
  0
LINE
  5
5C
330
1F
100
AcDbEntity
  8
0-4
  6
Continuous
 62
     6
370
     9
100
AcDbLine
 10
261.3648175763652
 20
726.1336514388273
 30
0.0
 11
-271.9683555102253
 21
726.1336514388273
 31
0.0
  0
LINE
  5
5D
330
1F
100
AcDbEntity
  8
0-4
  6
Continuous
 62
     6
370
     9
100
AcDbLine
 10
-271.9683555102253
 20
630.8001716839602
 30
0.0
 11
-271.9683555102253
 21
726.1336514388273
 31
0.0
  0
LINE
  5
5E
330
1F
100
AcDbEntity
  8
0-4
  6
Continuous
 62
     6
370
     9
100
AcDbLine
 10
261.3648175763652
 20
630.8001716839602
 30
0.0
 11
-271.9683555102253
 21
630.8001716839602
 31
0.0
  0
LINE
  5
5F
330
1F
100
AcDbEntity
  8
0-4
  6
Continuous
 62
     6
370
     9
100
AcDbLine
 10
261.3648175763652
 20
630.8001716839602
 30
0.0
 11
261.3648175763652
 21
726.1336514388273
 31
0.0
  0
LINE
  5
60
330
1F
100
AcDbEntity
  8
0-D
  6
Continuous
 62
     2
370
     9
100
AcDbLine
 10
28.03138919471877
 20
645.1337533997447
 30
0.0
 11
28.03138919471877
 21
666.8002731735636
 31
0.0
  0
LINE
  5
61
330
1F
100
AcDbEntity
  8
0-D
  6
Continuous
 62
     2
370
     9
100
AcDbLine
 10
28.03138919471877
 20
690.133549949224
 30
0.0
 11
28.03138919471877
 21
711.8000697230428
 31
0.0
  0
LINE
  5
62
330
1F
100
AcDbEntity
  8
0-D
  6
Continuous
 62
     2
370
     9
100
AcDbLine
 10
261.3648175763652
 20
711.8000697230428
 30
0.0
 11
28.03138919471877
 21
711.8000697230428
 31
0.0
  0
LINE
  5
63
330
1F
100
AcDbEntity
  8
0-D
  6
Continuous
 62
     2
370
     9
100
AcDbLine
 10
261.3648175763652
 20
645.1337533997447
 30
0.0
 11
28.03138919471877
 21
645.1337533997447
 31
0.0
  0
LINE
  5
64
330
1F
100
AcDbEntity
  8
0-F
  6
Continuous
 62
     7
370
     9
100
AcDbLine
 10
-483.6762228711697
 20
-142.8756615676785
 30
0.0
 11
482.9906488170641
 21
-142.8756615676785
 31
0.0
  0
LINE
  5
65
330
1F
100
AcDbEntity
  8
0-F
  6
Continuous
 62
     7
370
     9
100
AcDbLine
 10
-483.6762228711697
 20
-11.53217094745457
 30
0.0
 11
-483.6762228711697
 21
-146.875746247084
 31
0.0
  0
LINE
  5
66
330
1F
100
AcDbEntity
  8
0-F
  6
Continuous
 62
     7
370
     9
100
AcDbLine
 10
482.9906488170641
 20
-11.53217094745457
 30
0.0
 11
482.9906488170641
 21
-146.875746247084
 31
0.0
  0
LINE
  5
67
330
1F
100
AcDbEntity
  8
0-F
  6
Continuous
 62
     7
370
     9
100
AcDbLine
 10
-483.6762228711697
 20
-142.8756615676785
 30
0.0
 11
-444.0182404782021
 21
-137.6547417953667
 31
0.0
  0
LINE
  5
68
330
1F
100
AcDbEntity
  8
0-F
  6
Continuous
 62
     7
370
     9
100
AcDbLine
 10
-483.6762228711697
 20
-142.8756615676785
 30
0.0
 11
-444.0182404782021
 21
-148.0965813399896
 31
0.0
  0
LINE
  5
69
330
1F
100
AcDbEntity
  8
0-F
  6
Continuous
 62
     7
370
     9
100
AcDbLine
 10
482.9906488170641
 20
-142.8756615676785
 30
0.0
 11
443.3326664240965
 21
-137.6547417953667
 31
0.0
  0
LINE
  5
6A
330
1F
100
AcDbEntity
  8
0-F
  6
Continuous
 62
     7
370
     9
100
AcDbLine
 10
482.9906488170641
 20
-142.8756615676785
 30
0.0
 11
443.3326664240965
 21
-148.0965813399896
 31
0.0
  0
LINE
  5
6B
330
1F
100
AcDbEntity
  8
0-F
  6
Continuous
 62
     7
370
     9
100
AcDbLine
 10
694.5564817921993
 20
28.46801522155502
 30
0.0
 11
694.5564817921993
 21
1161.800677718036
 31
0.0
  0
LINE
  5
6C
330
1F
100
AcDbEntity
  8
0-F
  6
Continuous
 62
     7
370
     9
100
AcDbLine
 10
522.9908349860741
 20
28.46801522155502
 30
0.0
 11
698.5565664716048
 21
28.46801522155502
 31
0.0
  0
LINE
  5
6D
330
1F
100
AcDbEntity
  8
0-F
  6
Continuous
 62
     7
370
     9
100
AcDbLine
 10
39.65772945448208
 20
1161.800677718036
 30
0.0
 11
698.5565664716048
 21
1161.800677718036
 31
0.0
  0
LINE
  5
6E
330
1F
100
AcDbEntity
  8
0-F
  6
Continuous
 62
     7
370
     9
100
AcDbLine
 10
694.5564817921993
 20
28.46801522155502
 30
0.0
 11
689.3355620198886
 21
68.12599761452304
 31
0.0
  0
LINE
  5
6F
330
1F
100
AcDbEntity
  8
0-F
  6
Continuous
 62
     7
370
     9
100
AcDbLine
 10
694.5564817921993
 20
28.46801522155502
 30
0.0
 11
699.778062189562
 21
68.12599761452304
 31
0.0
  0
LINE
  5
70
330
1F
100
AcDbEntity
  8
0-F
  6
Continuous
 62
     7
370
     9
100
AcDbLine
 10
694.5564817921993
 20
1161.800677718036
 30
0.0
 11
689.3355620198886
 21
1122.142695325068
 31
0.0
  0
LINE
  5
71
330
1F
100
AcDbEntity
  8
0-F
  6
Continuous
 62
     7
370
     9
100
AcDbLine
 10
694.5564817921993
 20
1161.800677718036
 30
0.0
 11
699.778062189562
 21
1122.142695325068
 31
0.0
  0
LINE
  5
72
330
1F
100
AcDbEntity
  8
0-F
  6
Continuous
 62
     7
370
     9
100
AcDbLine
 10
-678.7396420904722
 20
28.46801522155502
 30
0.0
 11
-678.7396420904722
 21
678.4675721864443
 31
0.0
  0
LINE
  5
73
330
1F
100
AcDbEntity
  8
0-F
  6
Continuous
 62
     7
370
     9
100
AcDbLine
 10
-523.675748415129
 20
28.46801522155502
 30
0.0
 11
-682.7397267698777
 21
28.46801522155502
 31
0.0
  0
LINE
  5
74
330
1F
100
AcDbEntity
  8
0-F
  6
Continuous
 62
     7
370
     9
100
AcDbLine
 10
-581.0186634039176
 20
678.4675721864443
 30
0.0
 11
-682.7397267698777
 21
678.4675721864443
 31
0.0
  0
LINE
  5
75
330
1F
100
AcDbEntity
  8
0-F
  6
Continuous
 62
     7
370
     9
100
AcDbLine
 10
-678.7396420904722
 20
28.46801522155502
 30
0.0
 11
-683.9605618627841
 21
68.12599761452304
 31
0.0
  0
LINE
  5
76
330
1F
100
AcDbEntity
  8
0-F
  6
Continuous
 62
     7
370
     9
100
AcDbLine
 10
-678.7396420904722
 20
28.46801522155502
 30
0.0
 11
-673.5187223181615
 21
68.12599761452304
 31
0.0
  0
LINE
  5
77
330
1F
100
AcDbEntity
  8
0-F
  6
Continuous
 62
     7
370
     9
100
AcDbLine
 10
-678.7396420904722
 20
678.4675721864443
 30
0.0
 11
-683.9605618627841
 21
638.8095897934762
 31
0.0
  0
LINE
  5
78
330
1F
100
AcDbEntity
  8
0-F
  6
Continuous
 62
     7
370
     9
100
AcDbLine
 10
-678.7396420904722
 20
678.4675721864443
 30
0.0
 11
-673.5187223181615
 21
638.8095897934762
 31
0.0
  0
LINE
  5
79
330
1F
100
AcDbEntity
  8
0-F
  6
Continuous
 62
     7
370
     9
100
AcDbLine
 10
-0.3424567145268043
 20
678.4675721864443
 30
0.0
 11
341.4259674190092
 21
1020.23599631998
 31
0.0
  0
LINE
  5
7A
330
1F
100
AcDbEntity
  8
0-F
  6
Continuous
 62
     7
370
     9
100
AcDbLine
 10
341.4259674190092
 20
1020.23599631998
 30
0.0
 11
317.0753280659281
 21
988.5015507799932
 31
0.0
  0
LINE
  5
7B
330
1F
100
AcDbEntity
  8
0-F
  6
Continuous
 62
     7
370
     9
100
AcDbLine
 10
341.4259674190092
 20
1020.23599631998
 30
0.0
 11
309.6915218790221
 21
995.8853569668997
 31
0.0
  0
ARC
  5
7C
330
1F
100
AcDbEntity
  8
0-1
  6
Continuous
 62
     4
370
     9
100
AcDbCircle
 10
-0.3424567145268043
 20
678.4675721864443
 30
0.0
 40
483.3333532659856
100
AcDbArc
 50
0.0
 51
180.0
  0
ARC
  5
7D
330
1F
100
AcDbEntity
  8
0-B
  6
Continuous
 62
     2
370
     9
100
AcDbCircle
 10
-35.34237187801722
 20
678.4675721864443
 30
0.0
 40
11.66666419349582
100
AcDbArc
 50
90.0
 51
270.0
  0
ARC
  5
7E
330
1F
100
AcDbEntity
  8
0-B
  6
Continuous
 62
     2
370
     9
100
AcDbCircle
 10
-28.58748073896976
 20
694.1336346286295
 30
0.0
 40
4.000000165849732
100
AcDbArc
 50
270.0
 51
323.9680633544922
  0
ARC
  5
7F
330
1F
100
AcDbEntity
  8
0-B
  6
Continuous
 62
     2
370
     9
100
AcDbCircle
 10
-28.58748073896976
 20
662.8008491192082
 30
0.0
 40
4.000000165849732
100
AcDbArc
 50
36.03193664550781
 51
90.0
  0
ARC
  5
80
330
1F
100
AcDbEntity
  8
0-B
  6
Continuous
 62
     2
370
     9
100
AcDbCircle
 10
34.65745844896247
 20
678.4675721864443
 30
0.0
 40
11.66666419349582
100
AcDbArc
 50
270.0
 51
90.0
  0
ARC
  5
81
330
1F
100
AcDbEntity
  8
0-B
  6
Continuous
 62
     2
370
     9
100
AcDbCircle
 10
27.90256730991615
 20
694.1336346286295
 30
0.0
 40
4.000000165849732
100
AcDbArc
 50
216.0319366455078
 51
270.0
  0
ARC
  5
82
330
1F
100
AcDbEntity
  8
0-B
  6
Continuous
 62
     2
370
     9
100
AcDbCircle
 10
27.90256730991615
 20
662.8008491192082
 30
0.0
 40
4.000000165849732
100
AcDbArc
 50
90.0
 51
143.9680633544922
  0
ARC
  5
83
330
1F
100
AcDbEntity
  8
0-B
  6
Continuous
 62
     2
370
     9
100
AcDbCircle
 10
-0.3424567145268043
 20
678.4675721864443
 30
0.0
 40
28.3333335941516
100
AcDbArc
 50
28.02752685546875
 51
151.9724273681641
  0
ARC
  5
84
330
1F
100
AcDbEntity
  8
0-B
  6
Continuous
 62
     2
370
     9
100
AcDbCircle
 10
-0.3424567145268043
 20
678.4675721864443
 30
0.0
 40
28.3333335941516
100
AcDbArc
 50
208.0275573730469
 51
331.9724426269531
  0
ARC
  5
85
330
1F
100
AcDbEntity
  8
0-B
  6
Continuous
 62
     2
370
     9
100
AcDbCircle
 10
34.65745844896247
 20
678.4675721864443
 30
0.0
 40
7.666664027646087
100
AcDbArc
 50
270.0
 51
90.0
  0
ARC
  5
86
330
1F
100
AcDbEntity
  8
0-B
  6
Continuous
 62
     2
370
     9
100
AcDbCircle
 10
-35.34237187801722
 20
678.4675721864443
 30
0.0
 40
7.666664027646087
100
AcDbArc
 50
90.0
 51
270.0
  0
ARC
  5
87
330
1F
100
AcDbEntity
  8
0-B
  6
Continuous
 62
     2
370
     9
100
AcDbCircle
 10
-28.58748073896976
 20
694.1336346286295
 30
0.0
 40
8.000000331699464
100
AcDbArc
 50
270.0
 51
323.9680633544922
  0
ARC
  5
88
330
1F
100
AcDbEntity
  8
0-B
  6
Continuous
 62
     2
370
     9
100
AcDbCircle
 10
-0.3424567145268043
 20
678.4675721864443
 30
0.0
 40
24.33333665401012
100
AcDbArc
 50
28.02752685546875
 51
153.5666046142578
  0
ARC
  5
89
330
1F
100
AcDbEntity
  8
0-B
  6
Continuous
 62
     2
370
     9
100
AcDbCircle
 10
-28.58748073896976
 20
662.8008491192082
 30
0.0
 40
8.000000331699464
100
AcDbArc
 50
32.02981567382812
 51
90.0
  0
ARC
  5
8A
330
1F
100
AcDbEntity
  8
0-B
  6
Continuous
 62
     2
370
     9
100
AcDbCircle
 10
27.90256730991615
 20
694.1336346286295
 30
0.0
 40
8.000000331699464
100
AcDbArc
 50
212.02978515625
 51
270.0
  0
ARC
  5
8B
330
1F
100
AcDbEntity
  8
0-B
  6
Continuous
 62
     2
370
     9
100
AcDbCircle
 10
-0.3424567145268043
 20
678.4675721864443
 30
0.0
 40
24.33333665401012
100
AcDbArc
 50
208.0275573730469
 51
331.9724426269531
  0
ARC
  5
8C
330
1F
100
AcDbEntity
  8
0-B
  6
Continuous
 62
     2
370
     9
100
AcDbCircle
 10
27.90256730991615
 20
662.8008491192082
 30
0.0
 40
8.000000331699464
100
AcDbArc
 50
90.0
 51
147.9701843261718
  0
CIRCLE
  5
8D
330
1F
100
AcDbEntity
  8
0-B
  6
Continuous
 62
     2
370
     9
100
AcDbCircle
 10
-0.3424567145268043
 20
678.4675721864443
 30
0.0
 40
16.66666811037248
  0
CIRCLE
  5
8E
330
1F
100
AcDbEntity
  8
0-B
  6
Continuous
 62
     2
370
     9
100
AcDbCircle
 10
-0.3424567145268043
 20
678.4675721864443
 30
0.0
 40
12.66666600909779
  0
TEXT
  5
8F
330
1F
100
AcDbEntity
  8
0-D
  6
Continuous
 62
     6
370
     9
100
AcDbText
 10
88.69876401058974
 20
671.2868495050571
 30
0.0
 40
15.24
  1
複数回使用
 41
1.120000000000027
  7
ＭＳ ゴシック
100
AcDbText
  0
TEXT
  5
90
330
1F
100
AcDbEntity
  8
0-F
  6
Continuous
 62
     2
370
     9
100
AcDbText
 10
-32.84278702705222
 20
-123.9019668936516
 30
0.0
 40
30.48
  1
290
 41
1.083333333333333
  7
ＭＳ ゴシック
100
AcDbText
  0
TEXT
  5
91
330
1F
100
AcDbEntity
  8
0-F
  6
Continuous
 62
     2
370
     9
100
AcDbText
 10
675.5834491638437
 20
562.6346762443787
 30
0.0
 40
30.48
  1
340
 50
90.00000250447974
 41
1.083333333333332
  7
ＭＳ ゴシック
100
AcDbText
  0
TEXT
  5
92
330
1F
100
AcDbEntity
  8
0-F
  6
Continuous
 62
     2
370
     9
100
AcDbText
 10
-697.7126747188266
 20
320.9681234785838
 30
0.0
 40
30.48
  1
195
 50
90.00000250448272
 41
1.083333333333334
  7
ＭＳ ゴシック
100
AcDbText
  0
TEXT
  5
93
330
1F
100
AcDbEntity
  8
0-F
  6
Continuous
 62
     2
370
     9
100
AcDbText
 10
126.1895751399356
 20
831.8317209151992
 30
0.0
 40
30.48
  1
R145
 50
45.00023006357497
 41
1.093750000000016
  7
ＭＳ ゴシック
100
AcDbText
  0
TEXT
  5
94
330
1F
100
AcDbEntity
  8
F-4
  6
Continuous
 62
     2
370
     9
100
AcDbText
 10
-606.3913046347126
 20
-1348.094550476074
 30
0.0
 40
30.48
  1
複数回使用抜型　ＡＷ７５Ｗ－５０
 41
1.1171875
  7
ＭＳ ゴシック
100
AcDbText
  0
LINE
  5
95
330
1F
100
AcDbEntity
  8
0-4
  6
Continuous
 62
     6
370
     9
100
AcDbLine
 10
-267.0090432578237
 20
-522.0302273913428
 30
0.0
 11
-267.0090432578237
 21
-495.3634366120036
 31
0.0
  0
LINE
  5
96
330
1F
100
AcDbEntity
  8
0-4
  6
Continuous
 62
     6
370
     9
100
AcDbLine
 10
266.324129828769
 20
-522.0302273913428
 30
0.0
 11
266.324129828769
 21
-495.3634366120036
 31
0.0
  0
LINE
  5
97
330
1F
100
AcDbEntity
  8
0-4
  6
Continuous
 62
     6
370
     9
100
AcDbLine
 10
13.8246474885878
 20
-503.0303206329524
 30
0.0
 11
13.8246474885878
 21
-495.3634366120036
 31
0.0
  0
LINE
  5
98
330
1F
100
AcDbEntity
  8
0-4
  6
Continuous
 62
     6
370
     9
100
AcDbLine
 10
-14.50956091764255
 20
-503.0303206329524
 30
0.0
 11
-14.50956091764255
 21
-495.3634366120036
 31
0.0
  0
LINE
  5
99
330
1F
100
AcDbEntity
  8
0-B
  6
Continuous
 62
     2
370
     9
100
AcDbLine
 10
-36.96949137683958
 20
-458.6967644466744
 30
0.0
 11
-47.0096708908963
 21
-458.6967644466744
 31
0.0
  0
LINE
  5
9A
330
1F
100
AcDbEntity
  8
0-B
  6
Continuous
 62
     2
370
     9
100
AcDbLine
 10
-25.68931864342034
 20
-464.9218342954009
 30
0.0
 11
-17.00936610787693
 21
-478.6968575311789
 31
0.0
  0
LINE
  5
9B
330
1F
100
AcDbEntity
  8
0-B
  6
Continuous
 62
     2
370
     9
100
AcDbLine
 10
-17.00936610787693
 20
-485.0302698881507
 30
0.0
 11
-17.00936610787693
 21
-491.3636822451227
 31
0.0
  0
LINE
  5
9C
330
1F
100
AcDbEntity
  8
0-B
  6
Continuous
 62
     2
370
     9
100
AcDbLine
 10
36.28457794778598
 20
-458.6967644466744
 30
0.0
 11
46.32409683679299
 21
-458.6967644466744
 31
0.0
  0
LINE
  5
9D
330
1F
100
AcDbEntity
  8
0-B
  6
Continuous
 62
     2
370
     9
100
AcDbLine
 10
25.00440521436559
 20
-464.9218342954009
 30
0.0
 11
16.32445267882332
 21
-478.6968575311789
 31
0.0
  0
LINE
  5
9E
330
1F
100
AcDbEntity
  8
0-B
  6
Continuous
 62
     2
370
     9
100
AcDbLine
 10
16.32445267882332
 20
-485.0302698881507
 30
0.0
 11
16.32445267882332
 21
-491.3636822451227
 31
0.0
  0
LINE
  5
9F
330
1F
100
AcDbEntity
  8
0-8
  6
Continuous
 62
     6
370
     9
100
AcDbLine
 10
12.99093867514358
 20
-427.618319581608
 30
0.0
 11
-13.67585210419719
 21
-427.618319581608
 31
0.0
  0
LINE
  5
A0
330
1F
100
AcDbEntity
  8
0-8
  6
Continuous
 62
     6
370
     9
100
AcDbLine
 10
-13.67585210419719
 20
-427.618319581608
 30
0.0
 11
-11.42047818256259
 21
-425.3632759724996
 31
0.0
  0
LINE
  5
A1
330
1F
100
AcDbEntity
  8
0-8
  6
Continuous
 62
     6
370
     9
100
AcDbLine
 10
-11.42047818256259
 20
-425.3632759724996
 30
0.0
 11
10.73556475350898
 21
-425.3632759724996
 31
0.0
  0
LINE
  5
A2
330
1F
100
AcDbEntity
  8
0-8
  6
Continuous
 62
     6
370
     9
100
AcDbLine
 10
10.73556475350898
 20
-425.3632759724996
 30
0.0
 11
12.99093867514358
 21
-427.618319581608
 31
0.0
  0
LINE
  5
A3
330
1F
100
AcDbEntity
  8
0-B
  6
Continuous
 62
     2
370
     9
100
AcDbLine
 10
-17.00936610787693
 20
-485.0302698881507
 30
0.0
 11
-11.42047818256259
 21
-485.0302698881507
 31
0.0
  0
LINE
  5
A4
330
1F
100
AcDbEntity
  8
0-B
  6
Continuous
 62
     2
370
     9
100
AcDbLine
 10
10.73556475350898
 20
-485.0302698881507
 30
0.0
 11
16.32445267882332
 21
-485.0302698881507
 31
0.0
  0
LINE
  5
A5
330
1F
100
AcDbEntity
  8
0-B
  6
Continuous
 62
     2
370
     9
100
AcDbLine
 10
-17.00936610787693
 20
-478.6968575311789
 30
0.0
 11
-13.67585210419719
 21
-478.6968575311789
 31
0.0
  0
LINE
  5
A6
330
1F
100
AcDbEntity
  8
0-B
  6
Continuous
 62
     2
370
     9
100
AcDbLine
 10
12.99093867514358
 20
-478.6968575311789
 30
0.0
 11
16.32445267882332
 21
-478.6968575311789
 31
0.0
  0
LINE
  5
A7
330
1F
100
AcDbEntity
  8
0-B
  6
Continuous
 62
     2
370
     9
100
AcDbLine
 10
18.99073538172644
 20
-495.3634366120036
 30
0.0
 11
12.99093867514358
 21
-495.3634366120036
 31
0.0
  0
LINE
  5
A8
330
1F
100
AcDbEntity
  8
0-B
  6
Continuous
 62
     2
370
     9
100
AcDbLine
 10
-13.67585210419719
 20
-495.3634366120036
 30
0.0
 11
-19.67564881078005
 21
-495.3634366120036
 31
0.0
  0
LINE
  5
A9
330
1F
100
AcDbEntity
  8
0-4
  6
Continuous
 62
     6
370
     9
100
AcDbLine
 10
-267.0090432578237
 20
-522.0302273913428
 30
0.0
 11
-13.67585210419719
 21
-522.0302273913428
 31
0.0
  0
LINE
  5
AA
330
1F
100
AcDbEntity
  8
0-4
  6
Continuous
 62
     6
370
     9
100
AcDbLine
 10
12.99093867514358
 20
-522.0302273913428
 30
0.0
 11
266.324129828769
 21
-522.0302273913428
 31
0.0
  0
LINE
  5
AB
330
1F
100
AcDbEntity
  8
0-4
  6
Continuous
 62
     6
370
     9
100
AcDbLine
 10
-267.0090432578237
 20
-503.0303206329524
 30
0.0
 11
-13.67585210419719
 21
-503.0303206329524
 31
0.0
  0
LINE
  5
AC
330
1F
100
AcDbEntity
  8
0-4
  6
Continuous
 62
     6
370
     9
100
AcDbLine
 10
12.99093867514358
 20
-503.0303206329524
 30
0.0
 11
266.324129828769
 21
-503.0303206329524
 31
0.0
  0
LINE
  5
AD
330
1F
100
AcDbEntity
  8
0-4
  6
Continuous
 62
     6
370
     9
100
AcDbLine
 10
-267.0090432578237
 20
-495.3634366120036
 30
0.0
 11
-13.67585210419719
 21
-495.3634366120036
 31
0.0
  0
LINE
  5
AE
330
1F
100
AcDbEntity
  8
0-4
  6
Continuous
 62
     6
370
     9
100
AcDbLine
 10
12.99093867514358
 20
-495.3634366120036
 30
0.0
 11
266.324129828769
 21
-495.3634366120036
 31
0.0
  0
LINE
  5
AF
330
1F
100
AcDbEntity
  8
0-0
  6
JWW_CENTER1
 62
     3
370
     9
100
AcDbLine
 10
-0.3424567145268043
 20
-395.3342339997932
 30
0.0
 11
-0.3424567145268043
 21
-1036.745665311127
 31
0.0
  0
LINE
  5
B0
330
1F
100
AcDbEntity
  8
0-1
  6
Continuous
 62
     4
370
     9
100
AcDbLine
 10
441.3243662712662
 20
-688.6966788246399
 30
0.0
 11
482.9906488170641
 21
-522.0302273913428
 31
0.0
  0
LINE
  5
B1
330
1F
100
AcDbEntity
  8
0-1
  6
Continuous
 62
     4
370
     9
100
AcDbLine
 10
16.32445267882332
 20
-522.0302273913428
 30
0.0
 11
16.32445267882332
 21
-688.6966788246399
 31
0.0
  0
LINE
  5
B2
330
1F
100
AcDbEntity
  8
0-1
  6
Continuous
 62
     4
370
     9
100
AcDbLine
 10
-17.00936610787693
 20
-522.0302273913428
 30
0.0
 11
-17.00936610787693
 21
-688.6966788246399
 31
0.0
  0
LINE
  5
B3
330
1F
100
AcDbEntity
  8
0-1
  6
Continuous
 62
     4
370
     9
100
AcDbLine
 10
-483.6762228711697
 20
-522.0302273913428
 30
0.0
 11
-442.0092797003187
 21
-688.6970091371653
 31
0.0
  0
LINE
  5
B4
330
1F
100
AcDbEntity
  8
0-1
  6
Continuous
 62
     4
370
     9
100
AcDbLine
 10
482.9906488170641
 20
-522.0302273913428
 30
0.0
 11
12.99093867514358
 21
-522.0302273913428
 31
0.0
  0
LINE
  5
B5
330
1F
100
AcDbEntity
  8
0-1
  6
Continuous
 62
     4
370
     9
100
AcDbLine
 10
-13.67585210419719
 20
-522.0302273913428
 30
0.0
 11
-483.6762228711697
 21
-522.0302273913428
 31
0.0
  0
LINE
  5
B6
330
1F
100
AcDbEntity
  8
0-1
  6
Continuous
 62
     4
370
     9
100
AcDbLine
 10
441.3243662712662
 20
-688.6966788246399
 30
0.0
 11
12.99093867514358
 21
-688.6970091371653
 31
0.0
  0
LINE
  5
B7
330
1F
100
AcDbEntity
  8
0-1
  6
Continuous
 62
     4
370
     9
100
AcDbLine
 10
-13.67585210419719
 20
-688.6970091371653
 30
0.0
 11
-442.0092797003187
 21
-688.6970091371653
 31
0.0
  0
LINE
  5
B8
330
1F
100
AcDbEntity
  8
0-0
  6
JWW_HOJO
 62
     4
370
     9
100
AcDbLine
 10
134.2876435308077
 20
-775.3640791700186
 30
0.0
 11
124.6577121729709
 21
-775.3640791700186
 31
0.0
  0
LINE
  5
B9
330
1F
100
AcDbEntity
  8
0-8
  6
Continuous
 62
     4
370
     9
100
AcDbLine
 10
227.3862287405987
 20
-711.7828818314978
 30
0.0
 11
227.9907006615989
 21
-718.697313920185
 31
0.0
  0
LINE
  5
BA
330
1F
100
AcDbEntity
  8
0-8
  6
Continuous
 62
     4
370
     9
100
AcDbLine
 10
201.9039386763987
 20
-705.6972038683783
 30
0.0
 11
220.7449651101993
 21
-705.6972038683783
 31
0.0
  0
LINE
  5
BB
330
1F
100
AcDbEntity
  8
0-8
  6
Continuous
 62
     4
370
     9
100
AcDbLine
 10
194.6575424999494
 20
-718.697313920185
 30
0.0
 11
227.9907006615989
 21
-718.697313920185
 31
0.0
  0
LINE
  5
BC
330
1F
100
AcDbEntity
  8
0-8
  6
Continuous
 62
     4
370
     9
100
AcDbLine
 10
195.2626750459993
 20
-711.7828818314978
 30
0.0
 11
194.6575424999494
 21
-718.697313920185
 31
0.0
  0
LINE
  5
BD
330
1F
100
AcDbEntity
  8
0-2
  6
Continuous
 62
     4
370
     9
100
AcDbLine
 10
-190.3421849234834
 20
-1025.36408663249
 30
0.0
 11
189.6579321194807
 21
-1025.36408663249
 31
0.0
  0
LINE
  5
BE
330
1F
100
AcDbEntity
  8
0-8
  6
Continuous
 62
     4
370
     9
100
AcDbLine
 10
202.9913275091499
 20
-758.6971697766693
 30
0.0
 11
201.3245705073101
 21
-757.0304127748294
 31
0.0
  0
LINE
  5
BF
330
1F
100
AcDbEntity
  8
0-8
  6
Continuous
 62
     4
370
     9
100
AcDbLine
 10
201.3245705073101
 20
-757.0304127748294
 30
0.0
 11
221.3243332792902
 21
-757.0304127748294
 31
0.0
  0
LINE
  5
C0
330
1F
100
AcDbEntity
  8
0-8
  6
Continuous
 62
     4
370
     9
100
AcDbLine
 10
202.9913275091499
 20
-758.6971697766693
 30
0.0
 11
219.6575762774503
 21
-758.6971697766693
 31
0.0
  0
LINE
  5
C1
330
1F
100
AcDbEntity
  8
0-8
  6
Continuous
 62
     4
370
     9
100
AcDbLine
 10
221.3243332792902
 20
-757.0304127748294
 30
0.0
 11
219.6575762774503
 21
-758.6971697766693
 31
0.0
  0
LINE
  5
C2
330
1F
100
AcDbEntity
  8
0-8
  6
Continuous
 62
     4
370
     9
100
AcDbLine
 10
201.3245705073101
 20
-718.697313920185
 30
0.0
 11
201.3245705073101
 21
-757.0304127748294
 31
0.0
  0
LINE
  5
C3
330
1F
100
AcDbEntity
  8
0-8
  6
Continuous
 62
     4
370
     9
100
AcDbLine
 10
219.6575762774503
 20
-718.697313920185
 30
0.0
 11
219.6575762774503
 21
-758.6971697766693
 31
0.0
  0
LINE
  5
C4
330
1F
100
AcDbEntity
  8
0-8
  6
Continuous
 62
     4
370
     9
100
AcDbLine
 10
202.9913275091499
 20
-718.697313920185
 30
0.0
 11
202.9913275091499
 21
-758.6971697766693
 31
0.0
  0
LINE
  5
C5
330
1F
100
AcDbEntity
  8
0-8
  6
Continuous
 62
     4
370
     9
100
AcDbLine
 10
221.3243332792902
 20
-718.697313920185
 30
0.0
 11
221.3243332792902
 21
-757.0304127748294
 31
0.0
  0
LINE
  5
C6
330
1F
100
AcDbEntity
  8
0-0
  6
Continuous
 62
     3
370
     9
100
AcDbLine
 10
201.3245705073101
 20
-758.6971697766693
 30
0.0
 11
221.3243332792902
 21
-758.6971697766693
 31
0.0
  0
LINE
  5
C7
330
1F
100
AcDbEntity
  8
0-0
  6
Continuous
 62
     3
370
     9
100
AcDbLine
 10
202.9913275091499
 20
-762.0303534678243
 30
0.0
 11
219.6575762774503
 21
-762.0303534678243
 31
0.0
  0
LINE
  5
C8
330
1F
100
AcDbEntity
  8
0-0
  6
Continuous
 62
     3
370
     9
100
AcDbLine
 10
219.6575762774503
 20
-762.0303534678243
 30
0.0
 11
211.3244518932996
 21
-766.8413553964409
 31
0.0
  0
LINE
  5
C9
330
1F
100
AcDbEntity
  8
0-0
  6
Continuous
 62
     3
370
     9
100
AcDbLine
 10
-216.4256437834317
 20
-771.363333865563
 30
0.0
 11
-237.5920703941935
 21
-771.363333865563
 31
0.0
  0
LINE
  5
CA
330
1F
100
AcDbEntity
  8
0-0
  6
Continuous
 62
     3
370
     9
100
AcDbLine
 10
-216.4256437834317
 20
-771.363333865563
 30
0.0
 11
-219.1427946152075
 21
-768.6970511626591
 31
0.0
  0
LINE
  5
CB
330
1F
100
AcDbEntity
  8
0-0
  6
Continuous
 62
     3
370
     9
100
AcDbLine
 10
-234.8755801874697
 20
-768.6970511626591
 30
0.0
 11
-237.5920703941935
 21
-771.363333865563
 31
0.0
  0
LINE
  5
CC
330
1F
100
AcDbEntity
  8
0-0
  6
Continuous
 62
     3
370
     9
100
AcDbLine
 10
-219.1427946152075
 20
-768.6970511626591
 30
0.0
 11
-234.8755801874697
 21
-768.6970511626591
 31
0.0
  0
LINE
  5
CD
330
1F
100
AcDbEntity
  8
0-0
  6
Continuous
 62
     3
370
     9
100
AcDbLine
 10
-243.6757664821627
 20
-852.0302768793073
 30
0.0
 11
-263.6755292541417
 21
-852.0302768793073
 31
0.0
  0
LINE
  5
CE
330
1F
100
AcDbEntity
  8
0-0
  6
Continuous
 62
     3
370
     9
100
AcDbLine
 10
-217.0089757028231
 20
-845.3635791844725
 30
0.0
 11
-217.0089757028231
 21
-802.0305396368332
 31
0.0
  0
LINE
  5
CF
330
1F
100
AcDbEntity
  8
0-0
  6
Continuous
 62
     3
370
     9
100
AcDbLine
 10
-243.6757664821627
 20
-872.0303699638125
 30
0.0
 11
-263.6755292541417
 21
-872.0303699638125
 31
0.0
  0
LINE
  5
D0
330
1F
100
AcDbEntity
  8
0-0
  6
Continuous
 62
     3
370
     9
100
AcDbLine
 10
-237.0087384748032
 20
-845.3635791844725
 30
0.0
 11
-237.0087384748032
 21
-802.0305396368332
 31
0.0
  0
LINE
  5
D1
330
1F
100
AcDbEntity
  8
0-0
  6
Continuous
 62
     3
370
     9
100
AcDbLine
 10
-234.8755801874697
 20
-802.0305396368332
 30
0.0
 11
-234.8755801874697
 21
-765.3635371589786
 31
0.0
  0
LINE
  5
D2
330
1F
100
AcDbEntity
  8
0-0
  6
Continuous
 62
     3
370
     9
100
AcDbLine
 10
-219.1427946152075
 20
-802.0305396368332
 30
0.0
 11
-219.1427946152075
 21
-765.3635371589786
 31
0.0
  0
LINE
  5
D3
330
1F
100
AcDbEntity
  8
0-0
  6
Continuous
 62
     3
370
     9
100
AcDbLine
 10
-216.4256437834317
 20
-802.0305396368332
 30
0.0
 11
-216.4256437834317
 21
-771.363333865563
 31
0.0
  0
LINE
  5
D4
330
1F
100
AcDbEntity
  8
0-0
  6
Continuous
 62
     3
370
     9
100
AcDbLine
 10
-237.5920703941935
 20
-802.0305396368332
 30
0.0
 11
-237.5920703941935
 21
-771.363333865563
 31
0.0
  0
LINE
  5
D5
330
1F
100
AcDbEntity
  8
0-0
  6
Continuous
 62
     3
370
     9
100
AcDbLine
 10
-216.4256437834317
 20
-802.0305396368332
 30
0.0
 11
-237.5920703941935
 21
-802.0305396368332
 31
0.0
  0
LINE
  5
D6
330
1F
100
AcDbEntity
  8
0-0
  6
JWW_CENTER1
 62
     3
370
     9
100
AcDbLine
 10
-243.6757664821627
 20
-862.0304885778227
 30
0.0
 11
-266.0650100609823
 21
-862.0304885778227
 31
0.0
  0
LINE
  5
D7
330
1F
100
AcDbEntity
  8
0-0
  6
Continuous
 62
     3
370
     9
100
AcDbLine
 10
-219.1427946152075
 20
-765.3635371589786
 30
0.0
 11
-234.8755801874697
 21
-765.3635371589786
 31
0.0
  0
LINE
  5
D8
330
1F
100
AcDbEntity
  8
0-0
  6
Continuous
 62
     3
370
     9
100
AcDbLine
 10
-219.1427946152075
 20
-765.3635371589786
 30
0.0
 11
-227.0095177138634
 21
-760.8217399383487
 31
0.0
  0
LINE
  5
D9
330
1F
100
AcDbEntity
  8
0-0
  6
Continuous
 62
     3
370
     9
100
AcDbLine
 10
-234.8755801874697
 20
-765.3635371589786
 30
0.0
 11
-227.0095177138634
 21
-760.8217399383487
 31
0.0
  0
LINE
  5
DA
330
1F
100
AcDbEntity
  8
0-0
  6
Continuous
 62
     3
370
     9
100
AcDbLine
 10
-263.6755292541417
 20
-852.0302768793073
 30
0.0
 11
-263.6755292541417
 21
-872.0303699638125
 31
0.0
  0
LINE
  5
DB
330
1F
100
AcDbEntity
  8
0-0
  6
Continuous
 62
     3
370
     9
100
AcDbLine
 10
202.9913275091499
 20
-762.0303534678243
 30
0.0
 11
211.3244518932996
 21
-766.8413553964409
 31
0.0
  0
LINE
  5
DC
330
1F
100
AcDbEntity
  8
0-8
  6
JWW_CENTER1
 62
     4
370
     9
100
AcDbLine
 10
211.3244518932996
 20
-684.3064950530476
 30
0.0
 11
211.3244518932996
 21
-769.1558552600735
 31
0.0
  0
LINE
  5
DD
330
1F
100
AcDbEntity
  8
0-0
  6
Continuous
 62
     3
370
     9
100
AcDbLine
 10
221.3243332792902
 20
-740.4810946404282
 30
0.0
 11
221.3243332792902
 21
-758.6971697766693
 31
0.0
  0
LINE
  5
DE
330
1F
100
AcDbEntity
  8
0-0
  6
Continuous
 62
     3
370
     9
100
AcDbLine
 10
201.3245705073101
 20
-740.4810946404282
 30
0.0
 11
201.3245705073101
 21
-758.6971697766693
 31
0.0
  0
LINE
  5
DF
330
1F
100
AcDbEntity
  8
0-0
  6
Continuous
 62
     3
370
     9
100
AcDbLine
 10
202.9913275091499
 20
-742.147851642268
 30
0.0
 11
202.9913275091499
 21
-762.0303534678243
 31
0.0
  0
LINE
  5
E0
330
1F
100
AcDbEntity
  8
0-0
  6
Continuous
 62
     3
370
     9
100
AcDbLine
 10
219.6575762774503
 20
-742.147851642268
 30
0.0
 11
219.6575762774503
 21
-762.0303534678243
 31
0.0
  0
LINE
  5
E1
330
1F
100
AcDbEntity
  8
0-0
  6
Continuous
 62
     3
370
     9
100
AcDbLine
 10
332.9911067771175
 20
-718.697313920185
 30
0.0
 11
329.6582533984886
 21
-722.0308279238648
 31
0.0
  0
LINE
  5
E2
330
1F
100
AcDbEntity
  8
0-0
  6
Continuous
 62
     3
370
     9
100
AcDbLine
 10
329.6582533984886
 20
-722.0308279238648
 30
0.0
 11
312.9920046301882
 21
-722.0308279238648
 31
0.0
  0
LINE
  5
E3
330
1F
100
AcDbEntity
  8
0-0
  6
Continuous
 62
     3
370
     9
100
AcDbLine
 10
174.1220128121975
 20
-778.0439046864534
 30
0.0
 11
171.8606932651122
 21
-789.351163046934
 31
0.0
  0
LINE
  5
E4
330
1F
100
AcDbEntity
  8
0-0
  6
Continuous
 62
     3
370
     9
100
AcDbLine
 10
168.591920516358
 20
-792.0309885633687
 30
0.0
 11
164.0573901712813
 21
-792.0309885633687
 31
0.0
  0
LINE
  5
E5
330
1F
100
AcDbEntity
  8
0-0
  6
Continuous
 62
     3
370
     9
100
AcDbLine
 10
233.5894979626667
 20
-720.9731672183767
 30
0.0
 11
236.3244856707993
 21
-698.6972208356798
 31
0.0
  0
LINE
  5
E6
330
1F
100
AcDbEntity
  8
0-0
  6
Continuous
 62
     3
370
     9
100
AcDbLine
 10
256.9062591120704
 20
-714.5859139198075
 30
0.0
 11
326.3247393948066
 21
-692.030523140845
 31
0.0
  0
LINE
  5
E7
330
1F
100
AcDbEntity
  8
0-0
  6
Continuous
 62
     3
370
     9
100
AcDbLine
 10
246.3250276818385
 20
-698.6972208356798
 30
0.0
 11
248.2884053312515
 21
-709.4436085284791
 31
0.0
  0
LINE
  5
E8
330
1F
100
AcDbEntity
  8
0-0
  6
Continuous
 62
     3
370
     9
100
AcDbLine
 10
330.0229184262392
 20
-694.9504858630544
 30
0.0
 11
332.9911067771175
 21
-718.697313920185
 31
0.0
  0
LINE
  5
E9
330
1F
100
AcDbEntity
  8
0-0
  6
Continuous
 62
     3
370
     9
100
AcDbLine
 10
251.695248715512
 20
-730.2985504280376
 30
0.0
 11
284.5917337189306
 21
-719.6099674271377
 31
0.0
  0
LINE
  5
EA
330
1F
100
AcDbEntity
  8
0-0
  6
Continuous
 62
     3
370
     9
100
AcDbLine
 10
118.1122391748616
 20
-948.8230773702281
 30
0.0
 11
124.2950290203706
 21
-784.987073964828
 31
0.0
  0
LINE
  5
EB
330
1F
100
AcDbEntity
  8
0-0
  6
Continuous
 62
     3
370
     9
100
AcDbLine
 10
-333.6753595811203
 20
-718.697313920185
 30
0.0
 11
-330.3425062024914
 21
-722.0308279238648
 31
0.0
  0
LINE
  5
EC
330
1F
100
AcDbEntity
  8
0-0
  6
Continuous
 62
     3
370
     9
100
AcDbLine
 10
-330.3425062024914
 20
-722.0308279238648
 30
0.0
 11
-313.6762574341921
 21
-722.0308279238648
 31
0.0
  0
LINE
  5
ED
330
1F
100
AcDbEntity
  8
0-0
  6
Continuous
 62
     3
370
     9
100
AcDbLine
 10
-174.8062656162026
 20
-778.0439046864534
 30
0.0
 11
-172.5449460691172
 21
-789.351163046934
 31
0.0
  0
LINE
  5
EE
330
1F
100
AcDbEntity
  8
0-0
  6
Continuous
 62
     3
370
     9
100
AcDbLine
 10
-169.2761733203631
 20
-792.0309885633687
 30
0.0
 11
-164.7416429752852
 21
-792.0309885633687
 31
0.0
  0
LINE
  5
EF
330
1F
100
AcDbEntity
  8
0-0
  6
Continuous
 62
     3
370
     9
100
AcDbLine
 10
-237.0093990998541
 20
-698.6972208356798
 30
0.0
 11
-247.0092804858436
 21
-698.6972208356798
 31
0.0
  0
LINE
  5
F0
330
1F
100
AcDbEntity
  8
0-0
  6
Continuous
 62
     3
370
     9
100
AcDbLine
 10
-234.2737507666718
 20
-720.9731672183767
 30
0.0
 11
-237.0093990998541
 21
-698.6972208356798
 31
0.0
  0
LINE
  5
F1
330
1F
100
AcDbEntity
  8
0-0
  6
Continuous
 62
     3
370
     9
100
AcDbLine
 10
-257.5905119160731
 20
-714.5859139198075
 30
0.0
 11
-327.0096528238614
 21
-692.030523140845
 31
0.0
  0
LINE
  5
F2
330
1F
100
AcDbEntity
  8
0-0
  6
Continuous
 62
     3
370
     9
100
AcDbLine
 10
-247.0092804858436
 20
-698.6972208356798
 30
0.0
 11
-248.9726581352565
 21
-709.4436085284791
 31
0.0
  0
LINE
  5
F3
330
1F
100
AcDbEntity
  8
0-0
  6
Continuous
 62
     3
370
     9
100
AcDbLine
 10
-257.5905119160731
 20
-714.5859139198075
 30
0.0
 11
-234.1218070051079
 21
-722.2111785625898
 31
0.0
  0
LINE
  5
F4
330
1F
100
AcDbEntity
  8
0-0
  6
Continuous
 62
     3
370
     9
100
AcDbLine
 10
-330.707171230242
 20
-694.9504858630544
 30
0.0
 11
-333.6753595811203
 21
-718.697313920185
 31
0.0
  0
LINE
  5
F5
330
1F
100
AcDbEntity
  8
0-0
  6
Continuous
 62
     3
370
     9
100
AcDbLine
 10
-118.7971526039152
 20
-948.8230773702281
 30
0.0
 11
-124.9792818243745
 21
-784.987073964828
 31
0.0
  0
LINE
  5
F6
330
1F
100
AcDbEntity
  8
0-0
  6
Continuous
 62
     3
370
     9
100
AcDbLine
 10
111.0283567607783
 20
-782.9672128736166
 30
0.0
 11
104.648700650288
 21
-952.0307423018311
 31
0.0
  0
LINE
  5
F7
330
1F
100
AcDbEntity
  8
0-0
  6
Continuous
 62
     3
370
     9
100
AcDbLine
 10
-111.7126095647822
 20
-782.9672128736166
 30
0.0
 11
-105.332953454292
 21
-952.0307423018311
 31
0.0
  0
LINE
  5
F8
330
1F
100
AcDbEntity
  8
0-0
  6
Continuous
 62
     3
370
     9
100
AcDbLine
 10
197.9910565036303
 20
-778.4396190915669
 30
0.0
 11
224.65784728297
 21
-778.4396190915669
 31
0.0
  0
LINE
  5
F9
330
1F
100
AcDbEntity
  8
0-0
  6
Continuous
 62
     3
370
     9
100
AcDbLine
 10
236.3244856707993
 20
-698.6972208356798
 30
0.0
 11
246.3250276818385
 21
-698.6972208356798
 31
0.0
  0
LINE
  5
FA
330
1F
100
AcDbEntity
  8
0-0
  6
JWW_DASHED1
 62
     3
370
     9
100
AcDbLine
 10
256.9062591120704
 20
-714.5859139198075
 30
0.0
 11
233.4375542011028
 21
-722.2111785625898
 31
0.0
  0
LINE
  5
FB
330
1F
100
AcDbEntity
  8
0-0
  6
Continuous
 62
     3
370
     9
100
AcDbLine
 10
-161.4728702265322
 20
-789.351163046934
 30
0.0
 11
-159.4797644498564
 21
-779.383652288408
 31
0.0
  0
LINE
  5
FC
330
1F
100
AcDbEntity
  8
0-0
  6
Continuous
 62
     3
370
     9
100
AcDbLine
 10
-154.5766053267275
 20
-775.3640791700186
 30
0.0
 11
-134.9718963348116
 21
-775.3640791700186
 31
0.0
  0
LINE
  5
FD
330
1F
100
AcDbEntity
  8
0-0
  6
Continuous
 62
     3
370
     9
100
AcDbLine
 10
160.7886174225283
 20
-789.351163046934
 30
0.0
 11
158.7948510208028
 21
-779.383652288408
 31
0.0
  0
LINE
  5
FE
330
1F
100
AcDbEntity
  8
0-0
  6
Continuous
 62
     3
370
     9
100
AcDbLine
 10
-199.2533562266223
 20
-757.6642825105665
 30
0.0
 11
-197.5099667189508
 21
-757.7861678323421
 31
0.0
  0
LINE
  5
FF
330
1F
100
AcDbEntity
  8
0-0
  6
JWW_DASHED1
 62
     3
370
     9
100
AcDbLine
 10
-229.8772910571003
 20
-755.522866410105
 30
0.0
 11
-199.2533562266223
 21
-757.6642825105665
 31
0.0
  0
LINE
  5
100
330
1F
100
AcDbEntity
  8
0-0
  6
JWW_DASHED1
 62
     3
370
     9
100
AcDbLine
 10
-245.257302852518
 20
-740.928007486938
 30
0.0
 11
-245.5440141243363
 21
-738.5907160590704
 31
0.0
  0
LINE
  5
101
330
1F
100
AcDbEntity
  8
0-0
  6
JWW_DASHED1
 62
     3
370
     9
100
AcDbLine
 10
198.5691034226195
 20
-757.6642825105665
 30
0.0
 11
196.8250532898972
 21
-757.7861678323421
 31
0.0
  0
LINE
  5
102
330
1F
100
AcDbEntity
  8
0-0
  6
Continuous
 62
     3
370
     9
100
AcDbLine
 10
224.65784728297
 20
-778.4396190915669
 30
0.0
 11
230.5572289819114
 21
-757.9040894038158
 31
0.0
  0
LINE
  5
103
330
1F
100
AcDbEntity
  8
0-0
  6
Continuous
 62
     3
370
     9
100
AcDbLine
 10
186.9051075349901
 20
-775.3640791700186
 30
0.0
 11
177.3907855609517
 21
-775.3640791700186
 31
0.0
  0
LINE
  5
104
330
1F
100
AcDbEntity
  8
0-0
  6
Continuous
 62
     3
370
     9
100
AcDbLine
 10
244.5723894234632
 20
-740.928007486938
 30
0.0
 11
244.8597613203324
 21
-738.5907160590704
 31
0.0
  0
LINE
  5
105
330
1F
100
AcDbEntity
  8
0-0
  6
Continuous
 62
     3
370
     9
100
AcDbLine
 10
132.7173377863076
 20
-760.5700417941943
 30
0.0
 11
170.8763619402046
 21
-757.9021075286647
 31
0.0
  0
LINE
  5
106
330
1F
100
AcDbEntity
  8
0-0
  6
Continuous
 62
     3
370
     9
100
AcDbLine
 10
-187.5900209640437
 20
-775.3640791700186
 30
0.0
 11
-178.0750383649544
 21
-775.3640791700186
 31
0.0
  0
LINE
  5
107
330
1F
100
AcDbEntity
  8
0-0
  6
Continuous
 62
     3
370
     9
100
AcDbLine
 10
-184.0787988218412
 20
-745.3594803241722
 30
0.0
 11
-181.5684236308013
 21
-745.5348762750205
 31
0.0
  0
LINE
  5
108
330
1F
100
AcDbEntity
  8
0-0
  6
JWW_HOJO
 62
     3
370
     9
100
AcDbLine
 10
228.6268825850132
 20
-725.3640116150199
 30
0.0
 11
233.0497672965933
 21
-725.3640116150199
 31
0.0
  0
LINE
  5
109
330
1F
100
AcDbEntity
  8
0-0
  6
Continuous
 62
     3
370
     9
100
AcDbLine
 10
184.0677229440658
 20
-745.312245633078
 30
0.0
 11
180.8841708267985
 21
-745.5348762750205
 31
0.0
  0
LINE
  5
10A
330
1F
100
AcDbEntity
  8
0-0
  6
Continuous
 62
     3
370
     9
100
AcDbLine
 10
175.6084191753146
 20
-754.2442266253009
 30
0.0
 11
177.0406542843071
 21
-749.130658423659
 31
0.0
  0
LINE
  5
10B
330
1F
100
AcDbEntity
  8
0-0
  6
JWW_PHANTOM2
 62
     3
370
     9
100
AcDbLine
 10
-196.2329784967719
 20
-725.3640116150199
 30
0.0
 11
-229.311135389016
 21
-725.3640116150199
 31
0.0
  0
LINE
  5
10C
330
1F
100
AcDbEntity
  8
0-0
  6
JWW_PHANTOM2
 62
     3
370
     9
100
AcDbLine
 10
-191.303394371632
 20
-729.5285919319439
 30
0.0
 11
-189.3327498466655
 21
-741.1595565670585
 31
0.0
  0
LINE
  5
10D
330
1F
100
AcDbEntity
  8
0-0
  6
JWW_HOJO
 62
     3
370
     9
100
AcDbLine
 10
-196.2329784967719
 20
-725.3640116150199
 30
0.0
 11
-192.0089419253233
 21
-725.3640116150199
 31
0.0
  0
LINE
  5
10E
330
1F
100
AcDbEntity
  8
0-0
  6
Continuous
 62
     3
370
     9
100
AcDbLine
 10
190.6191415676281
 20
-729.5285919319439
 30
0.0
 11
188.6484970426616
 21
-741.1595565670585
 31
0.0
  0
LINE
  5
10F
330
1F
100
AcDbEntity
  8
0-0
  6
Continuous
 62
     3
370
     9
100
AcDbLine
 10
-176.2926719793174
 20
-754.2442266253009
 30
0.0
 11
-177.724907088311
 21
-749.130658423659
 31
0.0
  0
LINE
  5
110
330
1F
100
AcDbEntity
  8
0-0
  6
Continuous
 62
     3
370
     9
100
AcDbLine
 10
-133.4015905903104
 20
-760.5700417941943
 30
0.0
 11
-171.826846639469
 21
-757.8832797147325
 31
0.0
  0
LINE
  5
111
330
1F
100
AcDbEntity
  8
0-0
  6
Continuous
 62
     3
370
     9
100
AcDbLine
 10
-256.4912318324181
 20
-728.9624362638596
 30
0.0
 11
-285.2766471479842
 21
-719.6099674271377
 31
0.0
  0
LINE
  5
112
330
1F
100
AcDbEntity
  8
0-0
  6
Continuous
 62
     3
370
     9
100
AcDbLine
 10
-209.8220357808984
 20
-789.3267199200741
 30
0.0
 11
-204.5125922518511
 21
-761.7079684432905
 31
0.0
  0
LINE
  5
113
330
1F
100
AcDbEntity
  8
0-0
  6
Continuous
 62
     3
370
     9
100
AcDbLine
 10
-190.8627574630995
 20
-772.6611317768248
 30
0.0
 11
-192.9490113718632
 21
-761.8285325149651
 31
0.0
  0
LINE
  5
114
330
1F
100
AcDbEntity
  8
0-0
  6
Continuous
 62
     3
370
     9
100
AcDbLine
 10
193.5562805411442
 20
-770.6356553726868
 30
0.0
 11
197.9910565036303
 21
-778.4396190915669
 31
0.0
  0
LINE
  5
115
330
1F
100
AcDbEntity
  8
0-0
  6
JWW_HOJO
 62
     3
370
     9
100
AcDbLine
 10
186.9051075349901
 20
-775.3640791700186
 30
0.0
 11
189.6579321194807
 21
-775.3640791700186
 31
0.0
  0
LINE
  5
116
330
1F
100
AcDbEntity
  8
0-0
  6
JWW_HOJO
 62
     4
370
     9
100
AcDbLine
 10
124.2950290203706
 20
-784.987073964828
 30
0.0
 11
124.6577121729709
 21
-775.3640791700186
 31
0.0
  0
LINE
  5
117
330
1F
100
AcDbEntity
  8
0-0
  6
Continuous
 62
     3
370
     9
100
AcDbLine
 10
153.8923525227236
 20
-775.3640791700186
 30
0.0
 11
134.2876435308077
 21
-775.3640791700186
 31
0.0
  0
LINE
  5
118
330
1F
100
AcDbEntity
  8
0-0
  6
Continuous
 62
     3
370
     9
100
AcDbLine
 10
-244.0001333818483
 20
-789.0591667747138
 30
0.0
 11
-249.8744113288782
 21
-735.2456411170107
 31
0.0
  0
LINE
  5
119
330
1F
100
AcDbEntity
  8
0-0
  6
JWW_DASHED1
 62
     3
370
     9
100
AcDbLine
 10
190.4705009313162
 20
-771.1440063488717
 30
0.0
 11
192.2640979428084
 21
-761.8285325149651
 31
0.0
  0
LINE
  5
11A
330
1F
100
AcDbEntity
  8
0-0
  6
Continuous
 62
     3
370
     9
100
AcDbLine
 10
190.1785046590956
 20
-772.6611317768248
 30
0.0
 11
190.4705009313162
 21
-771.1440063488717
 31
0.0
  0
LINE
  5
11B
330
1F
100
AcDbEntity
  8
0-0
  6
JWW_DASHED1
 62
     3
370
     9
100
AcDbLine
 10
230.5572289819114
 20
-757.9040894038158
 30
0.0
 11
231.3242146652797
 21
-755.2348338881861
 31
0.0
  0
LINE
  5
11C
330
1F
100
AcDbEntity
  8
0-0
  6
Continuous
 62
     3
370
     9
100
AcDbLine
 10
-254.4419729264698
 20
-729.6286766270599
 30
0.0
 11
-256.4912318324181
 21
-728.9624362638596
 31
0.0
  0
LINE
  5
11D
330
1F
100
AcDbEntity
  8
0-0
  6
JWW_DASHED1
 62
     3
370
     9
100
AcDbLine
 10
-252.3795015195159
 20
-730.2985504280376
 30
0.0
 11
-254.4419729264698
 21
-729.6286766270599
 31
0.0
  0
LINE
  5
11E
330
1F
100
AcDbEntity
  8
0-0
  6
Continuous
 62
     3
370
     9
100
AcDbLine
 10
-184.0787988218412
 20
-745.3594803241722
 30
0.0
 11
-184.7519757480697
 21
-745.312245633078
 31
0.0
  0
LINE
  5
11F
330
1F
100
AcDbEntity
  8
0-0
  6
Continuous
 62
     3
370
     9
100
AcDbLine
 10
-184.7519757480697
 20
-745.312245633078
 30
0.0
 11
-223.4646036940953
 21
-742.6056648021076
 31
0.0
  0
LINE
  5
120
330
1F
100
AcDbEntity
  8
0-0
  6
Continuous
 62
     3
370
     9
100
AcDbLine
 10
-232.6928750213662
 20
-733.8487494482075
 30
0.0
 11
-234.2737507666718
 21
-720.9731672183767
 31
0.0
  0
LINE
  5
121
330
1F
100
AcDbEntity
  8
0-0
  6
JWW_DASHED1
 62
     3
370
     9
100
AcDbLine
 10
232.0086222173634
 20
-733.8487494482075
 30
0.0
 11
233.5894979626667
 21
-720.9731672183767
 31
0.0
  0
LINE
  5
122
330
1F
100
AcDbEntity
  8
0-0
  6
Continuous
 62
     3
370
     9
100
AcDbLine
 10
326.7151687995195
 20
-692.030523140845
 30
0.0
 11
226.2334380278722
 21
-692.030523140845
 31
0.0
  0
LINE
  5
123
330
1F
100
AcDbEntity
  8
0-0
  6
Continuous
 62
     3
370
     9
100
AcDbLine
 10
195.548725692768
 20
-725.3640116150199
 30
0.0
 11
201.3245705073101
 21
-725.3640116150199
 31
0.0
  0
LINE
  5
124
330
1F
100
AcDbEntity
  8
0-0
  6
Continuous
 62
     3
370
     9
100
AcDbLine
 10
221.3236726542394
 20
-725.3640116150199
 30
0.0
 11
228.6268825850132
 21
-725.3640116150199
 31
0.0
  0
LINE
  5
125
330
1F
100
AcDbEntity
  8
0-0
  6
JWW_DASHED1
 62
     3
370
     9
100
AcDbLine
 10
184.0677229440658
 20
-745.312245633078
 30
0.0
 11
201.3245705073101
 21
-744.1059442912788
 31
0.0
  0
LINE
  5
126
330
1F
100
AcDbEntity
  8
0-0
  6
JWW_DASHED1
 62
     3
370
     9
100
AcDbLine
 10
221.3243332792902
 20
-742.7074010598493
 30
0.0
 11
222.7803508900914
 21
-742.6056648021076
 31
0.0
  0
LINE
  5
127
330
1F
100
AcDbEntity
  8
0-0
  6
JWW_DASHED1
 62
     3
370
     9
100
AcDbLine
 10
229.1930382530975
 20
-755.522866410105
 30
0.0
 11
221.3243332792902
 21
-756.0731670769828
 31
0.0
  0
LINE
  5
128
330
1F
100
AcDbEntity
  8
0-0
  6
JWW_DASHED1
 62
     3
370
     9
100
AcDbLine
 10
201.3245705073101
 20
-757.4717103084116
 30
0.0
 11
198.5691034226195
 21
-757.6642825105665
 31
0.0
  0
LINE
  5
129
330
1F
100
AcDbEntity
  8
0-0
  6
JWW_CENTER1
 62
     3
370
     9
100
AcDbLine
 10
-227.0095177138634
 20
-845.3635791844725
 30
0.0
 11
-227.0095177138634
 21
-760.1796123894828
 31
0.0
  0
LINE
  5
12A
330
1F
100
AcDbEntity
  8
0-0
  6
Continuous
 62
     3
370
     9
100
AcDbLine
 10
-213.0954329050039
 20
-792.0306582508433
 30
0.0
 11
-216.4256437834317
 21
-792.0306582508433
 31
0.0
  0
LINE
  5
12B
330
1F
100
AcDbEntity
  8
0-0
  6
Continuous
 62
     3
370
     9
100
AcDbLine
 10
-237.5920703941935
 20
-792.0306582508433
 30
0.0
 11
-240.6870987547265
 21
-792.0306582508433
 31
0.0
  0
LINE
  5
12C
330
1F
100
AcDbEntity
  8
0-0
  6
JWW_HOJO
 62
     3
370
     9
100
AcDbLine
 10
-187.5900209640437
 20
-775.3640791700186
 30
0.0
 11
-190.3421849234834
 21
-775.3640791700186
 31
0.0
  0
LINE
  5
12D
330
1F
100
AcDbEntity
  8
0-2
  6
Continuous
 62
     4
370
     9
100
AcDbLine
 10
-190.3421849234834
 20
-775.3640791700186
 30
0.0
 11
-187.5900209640437
 21
-775.3640791700186
 31
0.0
  0
LINE
  5
12E
330
1F
100
AcDbEntity
  8
0-2
  6
Continuous
 62
     4
370
     9
100
AcDbLine
 10
189.6579321194807
 20
-775.3640791700186
 30
0.0
 11
186.9051075349901
 21
-775.3640791700186
 31
0.0
  0
LINE
  5
12F
330
1F
100
AcDbEntity
  8
0-2
  6
Continuous
 62
     4
370
     9
100
AcDbLine
 10
177.9912937316502
 20
-775.3640791700186
 30
0.0
 11
177.9912937316502
 21
-1025.36408663249
 31
0.0
  0
LINE
  5
130
330
1F
100
AcDbEntity
  8
0-2
  6
Continuous
 62
     4
370
     9
100
AcDbLine
 10
189.6579321194807
 20
-775.3640791700186
 30
0.0
 11
189.6579321194807
 21
-1025.36408663249
 31
0.0
  0
LINE
  5
131
330
1F
100
AcDbEntity
  8
0-2
  6
Continuous
 62
     4
370
     9
100
AcDbLine
 10
-190.3421849234834
 20
-775.3640791700186
 30
0.0
 11
-190.3421849234834
 21
-1025.36408663249
 31
0.0
  0
LINE
  5
132
330
1F
100
AcDbEntity
  8
0-2
  6
Continuous
 62
     4
370
     9
100
AcDbLine
 10
-178.6755465356541
 20
-775.3640791700186
 30
0.0
 11
-178.6755465356541
 21
-1025.36408663249
 31
0.0
  0
LINE
  5
133
330
1F
100
AcDbEntity
  8
0-C
  6
Continuous
 62
     2
370
     9
100
AcDbLine
 10
166.3239947187699
 20
-739.3633170553652
 30
0.0
 11
166.3239947187699
 21
-735.3632323759589
 31
0.0
  0
LINE
  5
134
330
1F
100
AcDbEntity
  8
0-C
  6
Continuous
 62
     2
370
     9
100
AcDbLine
 10
-167.0089081478247
 20
-735.3632323759589
 30
0.0
 11
-167.0089081478247
 21
-739.3633170553652
 31
0.0
  0
LINE
  5
135
330
1F
100
AcDbEntity
  8
0-C
  6
Continuous
 62
     2
370
     9
100
AcDbLine
 10
16.32445267882332
 20
-735.3632323759589
 30
0.0
 11
166.3239947187699
 21
-735.3632323759589
 31
0.0
  0
LINE
  5
136
330
1F
100
AcDbEntity
  8
0-C
  6
Continuous
 62
     2
370
     9
100
AcDbLine
 10
14.65769567698345
 20
-733.696475374119
 30
0.0
 11
14.65769567698345
 21
-725.3633509899697
 31
0.0
  0
LINE
  5
137
330
1F
100
AcDbEntity
  8
0-C
  6
Continuous
 62
     2
370
     9
100
AcDbLine
 10
-15.34260910603706
 20
-733.696475374119
 30
0.0
 11
-15.34260910603706
 21
-725.3633509899697
 31
0.0
  0
LINE
  5
138
330
1F
100
AcDbEntity
  8
0-C
  6
Continuous
 62
     2
370
     9
100
AcDbLine
 10
-17.00936610787693
 20
-735.3632323759589
 30
0.0
 11
-167.0089081478247
 21
-735.3632323759589
 31
0.0
  0
LINE
  5
139
330
1F
100
AcDbEntity
  8
0-C
  6
Continuous
 62
     2
370
     9
100
AcDbLine
 10
-67.00877303782562
 20
-772.69680552954
 30
0.0
 11
-67.00877303782562
 21
-739.3633170553652
 31
0.0
  0
LINE
  5
13A
330
1F
100
AcDbEntity
  8
0-C
  6
Continuous
 62
     2
370
     9
100
AcDbLine
 10
-104.6947896557273
 20
-779.3635032243748
 30
0.0
 11
-73.67580104518623
 21
-779.3635032243748
 31
0.0
  0
LINE
  5
13B
330
1F
100
AcDbEntity
  8
0-C
  6
Continuous
 62
     2
370
     9
100
AcDbLine
 10
-111.2706514061503
 20
-773.7927824879434
 30
0.0
 11
-117.0095012178749
 21
-739.3633170553652
 31
0.0
  0
LINE
  5
13C
330
1F
100
AcDbEntity
  8
0-C
  6
Continuous
 62
     2
370
     9
100
AcDbLine
 10
66.32452023382172
 20
-772.69680552954
 30
0.0
 11
66.32452023382172
 21
-739.3633170553652
 31
0.0
  0
LINE
  5
13D
330
1F
100
AcDbEntity
  8
0-C
  6
Continuous
 62
     2
370
     9
100
AcDbLine
 10
104.0098762266737
 20
-779.3635032243748
 30
0.0
 11
72.99088761613149
 21
-779.3635032243748
 31
0.0
  0
LINE
  5
13E
330
1F
100
AcDbEntity
  8
0-C
  6
Continuous
 62
     2
370
     9
100
AcDbLine
 10
110.5857379770956
 20
-773.7927824879434
 30
0.0
 11
116.3239271637715
 21
-739.3633170553652
 31
0.0
  0
LINE
  5
13F
330
1F
100
AcDbEntity
  8
0-C
  6
Continuous
 62
     2
370
     9
100
AcDbLine
 10
12.99093867514358
 20
-725.3633509899697
 30
0.0
 11
12.99093867514358
 21
-738.2789010353416
 31
0.0
  0
LINE
  5
140
330
1F
100
AcDbEntity
  8
0-C
  6
Continuous
 62
     2
370
     9
100
AcDbLine
 10
-13.67585210419719
 20
-725.3633509899697
 30
0.0
 11
-13.67585210419719
 21
-738.2792313478662
 31
0.0
  0
LINE
  5
141
330
1F
100
AcDbEntity
  8
0-C
  6
Continuous
 62
     2
370
     9
100
AcDbLine
 10
166.3239947187699
 20
-739.3633170553652
 30
0.0
 11
12.99093867514358
 21
-739.3633170553652
 31
0.0
  0
LINE
  5
142
330
1F
100
AcDbEntity
  8
0-C
  6
Continuous
 62
     2
370
     9
100
AcDbLine
 10
-13.67585210419719
 20
-739.3633170553652
 30
0.0
 11
-167.0089081478247
 21
-739.3633170553652
 31
0.0
  0
LINE
  5
143
330
1F
100
AcDbEntity
  8
0-C
  6
Continuous
 62
     2
370
     9
100
AcDbLine
 10
-11.42047818256259
 20
-725.3633509899697
 30
0.0
 11
-15.34260910603706
 21
-725.3633509899697
 31
0.0
  0
LINE
  5
144
330
1F
100
AcDbEntity
  8
0-C
  6
Continuous
 62
     2
370
     9
100
AcDbLine
 10
14.65769567698345
 20
-725.3633509899697
 30
0.0
 11
10.73556475350898
 21
-725.3633509899697
 31
0.0
  0
LINE
  5
145
330
1F
100
AcDbEntity
  8
0-9
  6
Continuous
 62
     3
370
     9
100
AcDbLine
 10
174.6571191029196
 20
-1025.36408663249
 30
0.0
 11
174.6571191029196
 21
-1000.364383167515
 31
0.0
  0
LINE
  5
146
330
1F
100
AcDbEntity
  8
0-9
  6
Continuous
 62
     3
370
     9
100
AcDbLine
 10
174.6571191029196
 20
-1025.36408663249
 30
0.0
 11
172.6567464506914
 21
-1025.36408663249
 31
0.0
  0
LINE
  5
147
330
1F
100
AcDbEntity
  8
0-9
  6
Continuous
 62
     3
370
     9
100
AcDbLine
 10
172.6567464506914
 20
-1025.36408663249
 30
0.0
 11
172.6567464506914
 21
-1002.364095194694
 31
0.0
  0
LINE
  5
148
330
1F
100
AcDbEntity
  8
0-9
  6
Continuous
 62
     3
370
     9
100
AcDbLine
 10
-173.3429811298467
 20
-1025.36408663249
 30
0.0
 11
-175.3433537820749
 21
-1025.36408663249
 31
0.0
  0
LINE
  5
149
330
1F
100
AcDbEntity
  8
0-9
  6
Continuous
 62
     3
370
     9
100
AcDbLine
 10
-175.3433537820749
 20
-1025.36408663249
 30
0.0
 11
-175.3433537820749
 21
-1000.364383167515
 31
0.0
  0
LINE
  5
14A
330
1F
100
AcDbEntity
  8
0-9
  6
Continuous
 62
     3
370
     9
100
AcDbLine
 10
-173.3429811298467
 20
-1025.36408663249
 30
0.0
 11
-173.3429811298467
 21
-1002.364095194694
 31
0.0
  0
LINE
  5
14B
330
1F
100
AcDbEntity
  8
0-9
  6
Continuous
 62
     3
370
     9
100
AcDbLine
 10
98.50224518254237
 20
-1003.364281520808
 30
0.0
 11
100.2344040643598
 21
-1000.364383167515
 31
0.0
  0
LINE
  5
14C
330
1F
100
AcDbEntity
  8
0-9
  6
Continuous
 62
     3
370
     9
100
AcDbLine
 10
99.65701777042028
 20
-1005.363993547985
 30
0.0
 11
101.3891766522377
 21
-1002.364095194694
 31
0.0
  0
LINE
  5
14D
330
1F
100
AcDbEntity
  8
0-9
  6
Continuous
 62
     3
370
     9
100
AcDbLine
 10
-100.3432524495767
 20
-1005.363993547985
 30
0.0
 11
-102.075411331393
 21
-1002.364095194694
 31
0.0
  0
LINE
  5
14E
330
1F
100
AcDbEntity
  8
0-9
  6
Continuous
 62
     3
370
     9
100
AcDbLine
 10
-99.18847986169766
 20
-1003.364281520808
 30
0.0
 11
-100.920638743514
 21
-1000.364383167515
 31
0.0
  0
LINE
  5
14F
330
1F
100
AcDbEntity
  8
0-9
  6
Continuous
 62
     2
370
     9
100
AcDbLine
 10
19.65664543240251
 20
-1025.36408663249
 30
0.0
 11
-20.34288011155667
 21
-1025.36408663249
 31
0.0
  0
LINE
  5
150
330
1F
100
AcDbEntity
  8
0-9
  6
Continuous
 62
     2
370
     9
100
AcDbLine
 10
-20.34288011155667
 20
-1025.36408663249
 30
0.0
 11
-20.34354073660751
 21
-1010.058395155229
 31
0.0
  0
LINE
  5
151
330
1F
100
AcDbEntity
  8
0-9
  6
Continuous
 62
     2
370
     9
100
AcDbLine
 10
-16.84222797015849
 20
-1012.916919747762
 30
0.0
 11
-22.00963711339654
 21
-1008.697507551665
 31
0.0
  0
LINE
  5
152
330
1F
100
AcDbEntity
  8
0-9
  6
Continuous
 62
     2
370
     9
100
AcDbLine
 10
-16.84222797015849
 20
-1012.916919747762
 30
0.0
 11
-12.36186887920184
 21
-1012.916919747762
 31
0.0
  0
LINE
  5
153
330
1F
100
AcDbEntity
  8
0-9
  6
Continuous
 62
     2
370
     9
100
AcDbLine
 10
-12.36186887920184
 20
-1012.916919747762
 30
0.0
 11
-12.36186887920184
 21
-1005.363993547985
 31
0.0
  0
LINE
  5
154
330
1F
100
AcDbEntity
  8
0-9
  6
Continuous
 62
     2
370
     9
100
AcDbLine
 10
-22.00963711339654
 20
-1008.697507551665
 30
0.0
 11
-22.00963711339654
 21
-1005.363993547985
 31
0.0
  0
LINE
  5
155
330
1F
100
AcDbEntity
  8
0-9
  6
Continuous
 62
     2
370
     9
100
AcDbLine
 10
19.65664543240251
 20
-1025.36408663249
 30
0.0
 11
19.65664543240251
 21
-1010.058395155229
 31
0.0
  0
LINE
  5
156
330
1F
100
AcDbEntity
  8
0-9
  6
Continuous
 62
     2
370
     9
100
AcDbLine
 10
16.15599329100206
 20
-1012.916919747762
 30
0.0
 11
21.32340243424238
 21
-1008.697507551665
 31
0.0
  0
LINE
  5
157
330
1F
100
AcDbEntity
  8
0-9
  6
Continuous
 62
     2
370
     9
100
AcDbLine
 10
16.15599329100206
 20
-1012.916919747762
 30
0.0
 11
11.67497357499798
 21
-1012.916919747762
 31
0.0
  0
LINE
  5
158
330
1F
100
AcDbEntity
  8
0-9
  6
Continuous
 62
     2
370
     9
100
AcDbLine
 10
11.67497357499798
 20
-1012.916919747762
 30
0.0
 11
11.67497357499798
 21
-1005.363993547985
 31
0.0
  0
LINE
  5
159
330
1F
100
AcDbEntity
  8
0-9
  6
Continuous
 62
     2
370
     9
100
AcDbLine
 10
21.32340243424238
 20
-1008.697507551665
 30
0.0
 11
21.32340243424238
 21
-1005.363993547985
 31
0.0
  0
LINE
  5
15A
330
1F
100
AcDbEntity
  8
0-9
  6
Continuous
 62
     3
370
     9
100
AcDbLine
 10
-15.34326973108676
 20
-1005.363993547985
 30
0.0
 11
-15.34326973108676
 21
-1003.364281520808
 31
0.0
  0
LINE
  5
15B
330
1F
100
AcDbEntity
  8
0-9
  6
Continuous
 62
     3
370
     9
100
AcDbLine
 10
14.65703505193261
 20
-1005.363993547985
 30
0.0
 11
14.65703505193261
 21
-1003.364281520808
 31
0.0
  0
LINE
  5
15C
330
1F
100
AcDbEntity
  8
0-9
  6
Continuous
 62
     3
370
     9
100
AcDbLine
 10
-13.67651272924689
 20
-1003.364281520808
 30
0.0
 11
-99.18847986169766
 21
-1003.364281520808
 31
0.0
  0
LINE
  5
15D
330
1F
100
AcDbEntity
  8
0-9
  6
Continuous
 62
     3
370
     9
100
AcDbLine
 10
98.50224518254237
 20
-1003.364281520808
 30
0.0
 11
12.99027805009274
 21
-1003.364281520808
 31
0.0
  0
LINE
  5
15E
330
1F
100
AcDbEntity
  8
0-9
  6
Continuous
 62
     3
370
     9
100
AcDbLine
 10
-137.0099246149059
 20
-1002.364095194694
 30
0.0
 11
-137.0099246149059
 21
-1000.364383167515
 31
0.0
  0
LINE
  5
15F
330
1F
100
AcDbEntity
  8
0-9
  6
Continuous
 62
     3
370
     9
100
AcDbLine
 10
-123.6765292252355
 20
-1002.364095194694
 30
0.0
 11
-123.6765292252355
 21
-1000.364383167515
 31
0.0
  0
LINE
  5
160
330
1F
100
AcDbEntity
  8
0-9
  6
Continuous
 62
     3
370
     9
100
AcDbLine
 10
136.3236899357506
 20
-1002.364095194694
 30
0.0
 11
136.3236899357506
 21
-1000.364383167515
 31
0.0
  0
LINE
  5
161
330
1F
100
AcDbEntity
  8
0-9
  6
Continuous
 62
     3
370
     9
100
AcDbLine
 10
122.9902945460813
 20
-1002.364095194694
 30
0.0
 11
122.9902945460813
 21
-1000.364383167515
 31
0.0
  0
LINE
  5
162
330
1F
100
AcDbEntity
  8
0-9
  6
Continuous
 62
     3
370
     9
100
AcDbLine
 10
172.6567464506914
 20
-1002.364095194694
 30
0.0
 11
101.3891766522377
 21
-1002.364095194694
 31
0.0
  0
LINE
  5
163
330
1F
100
AcDbEntity
  8
0-9
  6
Continuous
 62
     3
370
     9
100
AcDbLine
 10
174.6571191029196
 20
-1000.364383167515
 30
0.0
 11
12.99027805009274
 21
-1000.364383167515
 31
0.0
  0
LINE
  5
164
330
1F
100
AcDbEntity
  8
0-9
  6
Continuous
 62
     3
370
     9
100
AcDbLine
 10
-102.075411331393
 20
-1002.364095194694
 30
0.0
 11
-173.3429811298467
 21
-1002.364095194694
 31
0.0
  0
LINE
  5
165
330
1F
100
AcDbEntity
  8
0-9
  6
Continuous
 62
     3
370
     9
100
AcDbLine
 10
-13.67651272924689
 20
-1000.364383167515
 30
0.0
 11
-175.3433537820749
 21
-1000.364383167515
 31
0.0
  0
LINE
  5
166
330
1F
100
AcDbEntity
  8
0-9
  6
Continuous
 62
     3
370
     9
100
AcDbLine
 10
99.65701777042028
 20
-1005.363993547985
 30
0.0
 11
-100.3432524495767
 21
-1005.363993547985
 31
0.0
  0
LINE
  5
167
330
1F
100
AcDbEntity
  8
0-9
  6
Continuous
 62
     2
370
     9
100
AcDbLine
 10
-22.00963711339654
 20
-1005.363993547985
 30
0.0
 11
21.32340243424238
 21
-1005.363993547985
 31
0.0
  0
LINE
  5
168
330
1F
100
AcDbEntity
  8
0-3
  6
Continuous
 62
     6
370
     9
100
AcDbLine
 10
-334.5097290196165
 20
-715.3641302290299
 30
0.0
 11
-331.1762150159367
 21
-692.030523140845
 31
0.0
  0
LINE
  5
169
330
1F
100
AcDbEntity
  8
0-3
  6
Continuous
 62
     6
370
     9
100
AcDbLine
 10
-352.8433954148065
 20
-715.3641302290299
 30
0.0
 11
-334.5097290196165
 21
-715.3641302290299
 31
0.0
  0
LINE
  5
16A
330
1F
100
AcDbEntity
  8
0-3
  6
Continuous
 62
     6
370
     9
100
AcDbLine
 10
352.157821360702
 20
-715.3641302290299
 30
0.0
 11
333.824154965512
 21
-715.3641302290299
 31
0.0
  0
LINE
  5
16B
330
1F
100
AcDbEntity
  8
0-3
  6
Continuous
 62
     6
370
     9
100
AcDbLine
 10
333.824154965512
 20
-715.3641302290299
 30
0.0
 11
330.4906409618323
 21
-692.030523140845
 31
0.0
  0
LINE
  5
16C
330
1F
100
AcDbEntity
  8
0-3
  6
Continuous
 62
     6
370
     9
100
AcDbLine
 10
-361.1758591739064
 20
-688.6970091371653
 30
0.0
 11
-352.8433954148065
 21
-715.3641302290299
 31
0.0
  0
LINE
  5
16D
330
1F
100
AcDbEntity
  8
0-3
  6
Continuous
 62
     6
370
     9
100
AcDbLine
 10
360.4909457448517
 20
-688.6970091371653
 30
0.0
 11
352.157821360702
 21
-715.3641302290299
 31
0.0
  0
LINE
  5
16E
330
1F
100
AcDbEntity
  8
0-3
  6
Continuous
 62
     6
370
     9
100
AcDbLine
 10
-14.00880712953466
 20
-688.6970091371653
 30
0.0
 11
-14.00880712953466
 21
-692.030523140845
 31
0.0
  0
LINE
  5
16F
330
1F
100
AcDbEntity
  8
0-3
  6
Continuous
 62
     6
370
     9
100
AcDbLine
 10
13.32389370048105
 20
-688.6970091371653
 30
0.0
 11
13.32389370048105
 21
-692.030523140845
 31
0.0
  0
LINE
  5
170
330
1F
100
AcDbEntity
  8
0-0
  6
Continuous
 62
     3
370
     9
100
AcDbLine
 10
-115.4656204753869
 20
-952.0307423018311
 30
0.0
 11
-13.67585210419719
 21
-952.0307423018311
 31
0.0
  0
LINE
  5
171
330
1F
100
AcDbEntity
  8
0-0
  6
Continuous
 62
     3
370
     9
100
AcDbLine
 10
114.7813676713818
 20
-952.0307423018311
 30
0.0
 11
12.99093867514358
 21
-952.0307423018311
 31
0.0
  0
LINE
  5
172
330
1F
100
AcDbEntity
  8
0-0
  6
Continuous
 62
     3
370
     9
100
AcDbLine
 10
-13.67585210419719
 20
-698.6972208356798
 30
0.0
 11
-237.0093990998541
 21
-698.6972208356798
 31
0.0
  0
LINE
  5
173
330
1F
100
AcDbEntity
  8
0-0
  6
Continuous
 62
     3
370
     9
100
AcDbLine
 10
-327.4000822285731
 20
-692.030523140845
 30
0.0
 11
-13.67585210419719
 21
-692.030523140845
 31
0.0
  0
LINE
  5
174
330
1F
100
AcDbEntity
  8
0-3
  6
Continuous
 62
     6
370
     9
100
AcDbLine
 10
-13.67585210419719
 20
-692.030523140845
 30
0.0
 11
-331.1762150159367
 21
-692.030523140845
 31
0.0
  0
LINE
  5
175
330
1F
100
AcDbEntity
  8
0-0
  6
Continuous
 62
     3
370
     9
100
AcDbLine
 10
12.99093867514358
 20
-692.030523140845
 30
0.0
 11
196.4148051336772
 21
-692.030523140845
 31
0.0
  0
LINE
  5
176
330
1F
100
AcDbEntity
  8
0-3
  6
Continuous
 62
     6
370
     9
100
AcDbLine
 10
330.4906409618323
 20
-692.030523140845
 30
0.0
 11
12.99093867514358
 21
-692.030523140845
 31
0.0
  0
LINE
  5
177
330
1F
100
AcDbEntity
  8
0-3
  6
Continuous
 62
     6
370
     9
100
AcDbLine
 10
360.4909457448517
 20
-688.6970091371653
 30
0.0
 11
12.99093867514358
 21
-688.6970091371653
 31
0.0
  0
LINE
  5
178
330
1F
100
AcDbEntity
  8
0-3
  6
Continuous
 62
     6
370
     9
100
AcDbLine
 10
-13.67585210419719
 20
-688.6970091371653
 30
0.0
 11
-361.1758591739064
 21
-688.6970091371653
 31
0.0
  0
LINE
  5
179
330
1F
100
AcDbEntity
  8
0-0
  6
Continuous
 62
     3
370
     9
100
AcDbLine
 10
236.3244856707993
 20
-698.6972208356798
 30
0.0
 11
12.99093867514358
 21
-698.6972208356798
 31
0.0
  0
LINE
  5
17A
330
1F
100
AcDbEntity
  8
0-0
  6
Continuous
 62
     3
370
     9
100
AcDbLine
 10
-67.00877303782562
 20
-762.0320050304499
 30
0.0
 11
-13.67585210419719
 21
-762.0320050304499
 31
0.0
  0
LINE
  5
17B
330
1F
100
AcDbEntity
  8
0-0
  6
Continuous
 62
     3
370
     9
100
AcDbLine
 10
66.32452023382172
 20
-762.0320050304499
 30
0.0
 11
12.99093867514358
 21
-762.0320050304499
 31
0.0
  0
LINE
  5
17C
330
1F
100
AcDbEntity
  8
0-8
  6
Continuous
 62
     6
370
     9
100
AcDbLine
 10
-11.42047818256259
 20
-425.3632759724996
 30
0.0
 11
-11.42047818256259
 21
-1005.363993547985
 31
0.0
  0
LINE
  5
17D
330
1F
100
AcDbEntity
  8
0-8
  6
Continuous
 62
     6
370
     9
100
AcDbLine
 10
-13.67585210419719
 20
-427.618319581608
 30
0.0
 11
-13.67585210419719
 21
-1005.363993547985
 31
0.0
  0
LINE
  5
17E
330
1F
100
AcDbEntity
  8
0-8
  6
Continuous
 62
     6
370
     9
100
AcDbLine
 10
10.73556475350898
 20
-425.3632759724996
 30
0.0
 11
10.73556475350898
 21
-1005.363993547985
 31
0.0
  0
LINE
  5
17F
330
1F
100
AcDbEntity
  8
0-8
  6
Continuous
 62
     6
370
     9
100
AcDbLine
 10
12.99093867514358
 20
-427.618319581608
 30
0.0
 11
12.99093867514358
 21
-1005.363993547985
 31
0.0
  0
ARC
  5
180
330
1F
100
AcDbEntity
  8
0-B
  6
Continuous
 62
     2
370
     9
100
AcDbCircle
 10
-36.96949137683958
 20
-472.030159836344
 30
0.0
 40
13.33333345607134
100
AcDbArc
 50
32.21649169921875
 51
90.0
  0
ARC
  5
181
330
1F
100
AcDbEntity
  8
0-B
  6
Continuous
 62
     2
370
     9
100
AcDbCircle
 10
-8.59300296739292
 20
-458.5804944378256
 30
0.0
 40
38.4165156700743
100
AcDbArc
 50
180.1736145019531
 51
253.2320709228515
  0
ARC
  5
182
330
1F
100
AcDbEntity
  8
0-B
  6
Continuous
 62
     2
370
     9
100
AcDbCircle
 10
-8.59300296739292
 20
-458.5804944378256
 30
0.0
 40
34.41652131049943
100
AcDbArc
 50
180.1736145019531
 51
255.4090423583985
  0
ARC
  5
183
330
1F
100
AcDbEntity
  8
0-B
  6
Continuous
 62
     2
370
     9
100
AcDbCircle
 10
-17.67593678360271
 20
-491.3636822451227
 30
0.0
 40
0.6666666808678376
100
AcDbArc
 50
308.2657165527344
 51
0.0
  0
ARC
  5
184
330
1F
100
AcDbEntity
  8
0-B
  6
Continuous
 62
     2
370
     9
100
AcDbCircle
 10
36.28457794778598
 20
-472.030159836344
 30
0.0
 40
13.33333345607134
100
AcDbArc
 50
90.0
 51
147.7835083007812
  0
ARC
  5
185
330
1F
100
AcDbEntity
  8
0-B
  6
Continuous
 62
     2
370
     9
100
AcDbCircle
 10
7.908089538338174
 20
-458.5804944378256
 30
0.0
 40
38.4165156700743
100
AcDbArc
 50
286.7679138183594
 51
359.8263702392579
  0
ARC
  5
186
330
1F
100
AcDbEntity
  8
0-B
  6
Continuous
 62
     2
370
     9
100
AcDbCircle
 10
7.908089538338174
 20
-458.5804944378256
 30
0.0
 40
34.41652131049943
100
AcDbArc
 50
284.5909423828125
 51
359.8263702392578
  0
ARC
  5
187
330
1F
100
AcDbEntity
  8
0-B
  6
Continuous
 62
     2
370
     9
100
AcDbCircle
 10
16.9910233545491
 20
-491.3636822451227
 30
0.0
 40
0.6666666808678376
100
AcDbArc
 50
180.0
 51
231.7342834472656
  0
ARC
  5
188
330
1F
100
AcDbEntity
  8
0-B
  6
Continuous
 62
     2
370
     9
100
AcDbCircle
 10
16.32445267882332
 20
-491.3636822451227
 30
0.0
 40
4.000000165849732
100
AcDbArc
 50
213.5567016601563
 51
270.0
  0
ARC
  5
189
330
1F
100
AcDbEntity
  8
0-B
  6
Continuous
 62
     2
370
     9
100
AcDbCircle
 10
-17.00936610787693
 20
-491.3636822451227
 30
0.0
 40
4.000000165849732
100
AcDbArc
 50
270.0
 51
326.4436187744141
  0
ARC
  5
18A
330
1F
100
AcDbEntity
  8
0-8
  6
Continuous
 62
     4
370
     9
100
AcDbCircle
 10
220.7449651101993
 20
-712.3639015632131
 30
0.0
 40
6.666666728035669
100
AcDbArc
 50
5.000015258789053
 51
89.99999999999999
  0
ARC
  5
18B
330
1F
100
AcDbEntity
  8
0-8
  6
Continuous
 62
     4
370
     9
100
AcDbCircle
 10
201.9039386763987
 20
-712.3639015632131
 30
0.0
 40
6.666666728035669
100
AcDbArc
 50
90.0
 51
174.9999847412109
  0
ARC
  5
18C
330
1F
100
AcDbEntity
  8
0-0
  6
Continuous
 62
     3
370
     9
100
AcDbCircle
 10
-243.6757664821627
 20
-845.3635791844725
 30
0.0
 40
6.666666728035669
100
AcDbArc
 50
270.0
 51
0.0
  0
ARC
  5
18D
330
1F
100
AcDbEntity
  8
0-0
  6
Continuous
 62
     3
370
     9
100
AcDbCircle
 10
-243.6757664821627
 20
-845.3635791844725
 30
0.0
 40
26.66666691214268
100
AcDbArc
 50
270.0
 51
0.0
  0
ARC
  5
18E
330
1F
100
AcDbEntity
  8
0-0
  6
JWW_CENTER1
 62
     3
370
     9
100
AcDbCircle
 10
-243.6757664821627
 20
-845.3635791844725
 30
0.0
 40
16.66666682008918
100
AcDbArc
 50
270.0
 51
0.0
  0
ARC
  5
18F
330
1F
100
AcDbEntity
  8
0-0
  6
Continuous
 62
     3
370
     9
100
AcDbCircle
 10
295.9227745812225
 20
-754.4820516433991
 30
0.0
 40
36.66667216532939
100
AcDbArc
 50
62.25653076171876
 51
107.9999237060547
  0
ARC
  5
190
330
1F
100
AcDbEntity
  8
0-0
  6
Continuous
 62
     3
370
     9
100
AcDbCircle
 10
326.7151687995195
 20
-695.3640371445255
 30
0.0
 40
3.333333364017835
100
AcDbArc
 50
7.124267578125002
 51
90.0
  0
ARC
  5
191
330
1F
100
AcDbEntity
  8
0-0
  6
Continuous
 62
     3
370
     9
100
AcDbCircle
 10
177.3907855609517
 20
-778.6975931736991
 30
0.0
 40
3.333333364017835
100
AcDbArc
 50
90.0
 51
168.6906585693359
  0
ARC
  5
192
330
1F
100
AcDbEntity
  8
0-0
  6
Continuous
 62
     3
370
     9
100
AcDbCircle
 10
168.591920516358
 20
-788.697474559689
 30
0.0
 40
3.333333364017835
100
AcDbArc
 50
270.0
 51
348.6908569335938
  0
ARC
  5
193
330
1F
100
AcDbEntity
  8
0-0
  6
Continuous
 62
     3
370
     9
100
AcDbCircle
 10
164.0573901712813
 20
-788.697474559689
 30
0.0
 40
3.333333364017835
100
AcDbArc
 50
191.3091430664063
 51
270.0
  0
ARC
  5
194
330
1F
100
AcDbEntity
  8
0-0
  6
Continuous
 62
     3
370
     9
100
AcDbCircle
 10
-240.6870987547265
 20
-788.697474559689
 30
0.0
 40
3.333333364017835
100
AcDbArc
 50
186.2380065917969
 51
270.2526550292969
  0
ARC
  5
195
330
1F
100
AcDbEntity
  8
0-0
  6
Continuous
 62
     3
370
     9
100
AcDbCircle
 10
228.6268825850132
 20
-720.3640709220249
 30
0.0
 40
5.000000368597577
100
AcDbArc
 50
270.0
 51
353.0004119873047
  0
ARC
  5
196
330
1F
100
AcDbEntity
  8
0-0
  6
Continuous
 62
     3
370
     9
100
AcDbCircle
 10
254.8464302053165
 20
-708.2455649998078
 30
0.0
 40
6.666666728035669
100
AcDbArc
 50
190.3539428710938
 51
287.9999389648438
  0
ARC
  5
197
330
1F
100
AcDbEntity
  8
0-0
  6
Continuous
 62
     3
370
     9
100
AcDbCircle
 10
114.7813676713818
 20
-948.697558610676
 30
0.0
 40
3.333333364017835
100
AcDbArc
 50
270.0
 51
357.8380126953125
  0
ARC
  5
198
330
1F
100
AcDbEntity
  8
0-0
  6
Continuous
 62
     3
370
     9
100
AcDbCircle
 10
254.7849920756406
 20
-739.8092389642994
 30
0.0
 40
10.0000000920535
100
AcDbArc
 50
107.999984741211
 51
172.9995880126953
  0
ARC
  5
199
330
1F
100
AcDbEntity
  8
0-0
  6
Continuous
 62
     3
370
     9
100
AcDbCircle
 10
134.2876435308077
 20
-785.3639605560085
 30
0.0
 40
10.0000000920535
100
AcDbArc
 50
90.0
 51
177.8386993408203
  0
ARC
  5
19A
330
1F
100
AcDbEntity
  8
0-0
  6
Continuous
 62
     3
370
     9
100
AcDbCircle
 10
-296.6070273852253
 20
-754.4820516433991
 30
0.0
 40
36.66667216532939
100
AcDbArc
 50
72.00007629394531
 51
117.7434692382813
  0
ARC
  5
19B
330
1F
100
AcDbEntity
  8
0-0
  6
Continuous
 62
     3
370
     9
100
AcDbCircle
 10
-327.4000822285731
 20
-695.3640371445255
 30
0.0
 40
3.333333364017835
100
AcDbArc
 50
90.0
 51
172.875732421875
  0
ARC
  5
19C
330
1F
100
AcDbEntity
  8
0-0
  6
Continuous
 62
     3
370
     9
100
AcDbCircle
 10
-178.0750383649544
 20
-778.6975931736991
 30
0.0
 40
3.333333364017835
100
AcDbArc
 50
11.30934143066407
 51
90.00000000000001
  0
ARC
  5
19D
330
1F
100
AcDbEntity
  8
0-0
  6
Continuous
 62
     3
370
     9
100
AcDbCircle
 10
-169.2761733203631
 20
-788.697474559689
 30
0.0
 40
3.333333364017835
100
AcDbArc
 50
191.3091430664063
 51
270.0
  0
ARC
  5
19E
330
1F
100
AcDbEntity
  8
0-0
  6
Continuous
 62
     3
370
     9
100
AcDbCircle
 10
-164.7416429752852
 20
-788.697474559689
 30
0.0
 40
3.333333364017835
100
AcDbArc
 50
270.0
 51
348.6908569335938
  0
ARC
  5
19F
330
1F
100
AcDbEntity
  8
0-0
  6
Continuous
 62
     3
370
     9
100
AcDbCircle
 10
-255.5306830093215
 20
-708.2455649998078
 30
0.0
 40
6.666666728035669
100
AcDbArc
 50
252.0000610351562
 51
349.6460571289062
  0
ARC
  5
1A0
330
1F
100
AcDbEntity
  8
0-0
  6
Continuous
 62
     3
370
     9
100
AcDbCircle
 10
-115.4656204753869
 20
-948.697558610676
 30
0.0
 40
3.333333364017835
100
AcDbArc
 50
182.1619873046875
 51
270.0
  0
ARC
  5
1A1
330
1F
100
AcDbEntity
  8
0-0
  6
JWW_DASHED1
 62
     3
370
     9
100
AcDbCircle
 10
-255.4692448796456
 20
-739.8092389642994
 30
0.0
 40
10.0000000920535
100
AcDbArc
 50
7.000411987304687
 51
72.00001525878908
  0
ARC
  5
1A2
330
1F
100
AcDbEntity
  8
0-0
  6
Continuous
 62
     3
370
     9
100
AcDbCircle
 10
-134.9718963348116
 20
-785.3639605560085
 30
0.0
 40
10.0000000920535
100
AcDbArc
 50
2.161285400390625
 51
90.0
  0
ARC
  5
1A3
330
1F
100
AcDbEntity
  8
0-0
  6
Continuous
 62
     3
370
     9
100
AcDbCircle
 10
134.3451179101808
 20
-783.8468351280553
 30
0.0
 40
23.33333096755824
100
AcDbArc
 50
94.00004577636719
 51
177.8388824462891
  0
ARC
  5
1A4
330
1F
100
AcDbEntity
  8
0-0
  6
Continuous
 62
     3
370
     9
100
AcDbCircle
 10
-135.0293707141859
 20
-783.8468351280553
 30
0.0
 40
23.33333096755824
100
AcDbArc
 50
2.16111755371094
 51
85.99995422363281
  0
ARC
  5
1A5
330
1F
100
AcDbEntity
  8
0-0
  6
Continuous
 62
     3
370
     9
100
AcDbCircle
 10
-154.5766053267275
 20
-780.364350175539
 30
0.0
 40
5.000000046026752
100
AcDbArc
 50
90.0
 51
168.6903381347656
  0
ARC
  5
1A6
330
1F
100
AcDbEntity
  8
0-0
  6
Continuous
 62
     3
370
     9
100
AcDbCircle
 10
153.8923525227236
 20
-780.364350175539
 30
0.0
 40
5.000000046026752
100
AcDbArc
 50
11.30966186523437
 51
90.0
  0
ARC
  5
1A7
330
1F
100
AcDbEntity
  8
0-0
  6
Continuous
 62
     3
370
     9
100
AcDbCircle
 10
-197.858776745496
 20
-762.7738869619071
 30
0.0
 40
5.000000046026752
100
AcDbArc
 50
10.89831542968751
 51
85.99990844726562
  0
ARC
  5
1A8
330
1F
100
AcDbEntity
  8
0-0
  6
Continuous
 62
     3
370
     9
100
AcDbCircle
 10
-199.6021662531663
 20
-762.6523319526563
 30
0.0
 40
5.000000046026752
100
AcDbArc
 50
86.00067138671876
 51
169.1167144775391
  0
ARC
  5
1A9
330
1F
100
AcDbEntity
  8
0-0
  6
Continuous
 62
     3
370
     9
100
AcDbCircle
 10
-187.5900209640437
 20
-772.0305651663389
 30
0.0
 40
3.333333364017835
100
AcDbArc
 50
190.8990020751953
 51
270.0
  0
ARC
  5
1AA
330
1F
100
AcDbEntity
  8
0-0
  6
Continuous
 62
     3
370
     9
100
AcDbCircle
 10
-213.0954329050039
 20
-788.6971442471636
 30
0.0
 40
3.333333364017835
100
AcDbArc
 50
270.0
 51
349.1173095703125
  0
ARC
  5
1AB
330
1F
100
AcDbEntity
  8
0-0
  6
JWW_DASHED1
 62
     3
370
     9
100
AcDbCircle
 10
197.1738633164412
 20
-762.7738869619071
 30
0.0
 40
5.000000046026752
100
AcDbArc
 50
94.00009155273438
 51
169.1016540527344
  0
ARC
  5
1AC
330
1F
100
AcDbEntity
  8
0-0
  6
Continuous
 62
     3
370
     9
100
AcDbCircle
 10
186.9051075349901
 20
-772.0305651663389
 30
0.0
 40
3.333333364017835
100
AcDbArc
 50
270.0
 51
349.1009979248047
  0
ARC
  5
1AD
330
1F
100
AcDbEntity
  8
0-0
  6
Continuous
 62
     3
370
     9
100
AcDbCircle
 10
235.3632762226519
 20
-759.2847957588878
 30
0.0
 40
5.000000046026752
100
AcDbArc
 50
109.7822265625
 51
163.9705047607422
  0
ARC
  5
1AE
330
1F
100
AcDbEntity
  8
0-0
  6
JWW_DASHED1
 62
     3
370
     9
100
AcDbCircle
 10
-228.7145909686191
 20
-738.8969157698722
 30
0.0
 40
16.66666682008918
100
AcDbArc
 50
187.0002746582031
 51
266.0000610351563
  0
ARC
  5
1AF
330
1F
100
AcDbEntity
  8
0-0
  6
Continuous
 62
     3
370
     9
100
AcDbCircle
 10
195.548725692768
 20
-730.3639523080147
 30
0.0
 40
5.000000046026752
100
AcDbArc
 50
90.0
 51
170.3853912353516
  0
ARC
  5
1B0
330
1F
100
AcDbEntity
  8
0-0
  6
Continuous
 62
     3
370
     9
100
AcDbCircle
 10
183.7189129175218
 20
-740.324526503513
 30
0.0
 40
5.000000046026752
100
AcDbArc
 50
274.0
 51
350.3853912353516
  0
ARC
  5
1B1
330
1F
100
AcDbEntity
  8
0-0
  6
Continuous
 62
     3
370
     9
100
AcDbCircle
 10
181.8552896506995
 20
-750.4793244637917
 30
0.0
 40
5.000000046026752
100
AcDbArc
 50
101.1119689941406
 51
164.3511352539063
  0
ARC
  5
1B2
330
1F
100
AcDbEntity
  8
0-0
  6
Continuous
 62
     3
370
     9
100
AcDbCircle
 10
170.79378380892
 20
-752.8955605851675
 30
0.0
 40
5.000000046026752
100
AcDbArc
 50
270.950439453125
 51
344.3511352539062
  0
ARC
  5
1B3
330
1F
100
AcDbEntity
  8
0-0
  6
JWW_PHANTOM2
 62
     3
370
     9
100
AcDbCircle
 10
-229.311135389016
 20
-720.3640709220249
 30
0.0
 40
5.000000368597577
100
AcDbArc
 50
186.9995727539062
 51
270.0
  0
ARC
  5
1B4
330
1F
100
AcDbEntity
  8
0-0
  6
JWW_PHANTOM2
 62
     3
370
     9
100
AcDbCircle
 10
-196.2329784967719
 20
-730.3639523080147
 30
0.0
 40
5.000000046026752
100
AcDbArc
 50
9.61460876464845
 51
90.00000000000001
  0
ARC
  5
1B5
330
1F
100
AcDbEntity
  8
0-0
  6
JWW_PHANTOM2
 62
     3
370
     9
100
AcDbCircle
 10
-184.4031657215257
 20
-740.324526503513
 30
0.0
 40
5.000000046026752
100
AcDbArc
 50
189.6146087646485
 51
266.0
  0
ARC
  5
1B6
330
1F
100
AcDbEntity
  8
0-0
  6
Continuous
 62
     3
370
     9
100
AcDbCircle
 10
-182.5395424547034
 20
-750.4793244637917
 30
0.0
 40
5.000000046026752
100
AcDbArc
 50
15.64886474609375
 51
78.88803100585938
  0
ARC
  5
1B7
330
1F
100
AcDbEntity
  8
0-0
  6
Continuous
 62
     3
370
     9
100
AcDbCircle
 10
-171.4780366129239
 20
-752.8955605851675
 30
0.0
 40
5.000000046026752
100
AcDbArc
 50
195.6488647460938
 51
266.0
  0
ARC
  5
1B8
330
1F
100
AcDbEntity
  8
0-0
  6
Continuous
 62
     3
370
     9
100
AcDbCircle
 10
192.1075298058943
 20
-771.4591244978524
 30
0.0
 40
1.666666682008917
100
AcDbArc
 50
29.60806274414062
 51
169.0990295410156
  0
ARC
  5
1B9
330
1F
100
AcDbEntity
  8
0-0
  6
Continuous
 62
     3
370
     9
100
AcDbCircle
 10
-256.5018018332225
 20
-735.9690255470604
 30
0.0
 40
6.666666728035669
100
AcDbArc
 50
6.230026245117189
 51
72.00018310546875
  0
ARC
  5
1BA
330
1F
100
AcDbEntity
  8
0-0
  6
Continuous
 62
     3
370
     9
100
AcDbCircle
 10
228.0303381646152
 20
-738.8969157698722
 30
0.0
 40
16.66666682008918
100
AcDbArc
 50
289.7825775146484
 51
352.9997253417969
  0
ARC
  5
1BB
330
1F
100
AcDbEntity
  8
0-0
  6
JWW_DASHED1
 62
     3
370
     9
100
AcDbCircle
 10
228.0303381646152
 20
-738.8969157698722
 30
0.0
 40
16.66666682008918
100
AcDbArc
 50
273.9999237060547
 51
289.7825775146484
  0
ARC
  5
1BC
330
1F
100
AcDbEntity
  8
0-0
  6
Continuous
 62
     3
370
     9
100
AcDbCircle
 10
-222.7669836410072
 20
-732.629896230453
 30
0.0
 40
10.0000000920535
100
AcDbArc
 50
187.0003814697266
 51
266.0003356933594
  0
ARC
  5
1BD
330
1F
100
AcDbEntity
  8
0-0
  6
JWW_DASHED1
 62
     3
370
     9
100
AcDbCircle
 10
222.083391462053
 20
-732.629896230453
 30
0.0
 40
10.0000000920535
100
AcDbArc
 50
273.9993286132812
 51
352.9994964599609
  0
ARC
  5
1BE
330
1F
100
AcDbEntity
  8
0-C
  6
Continuous
 62
     2
370
     9
100
AcDbCircle
 10
16.32445267882332
 20
-733.696475374119
 30
0.0
 40
1.666666682008917
100
AcDbArc
 50
180.0
 51
270.0
  0
ARC
  5
1BF
330
1F
100
AcDbEntity
  8
0-C
  6
Continuous
 62
     2
370
     9
100
AcDbCircle
 10
-17.00936610787693
 20
-733.696475374119
 30
0.0
 40
1.666666682008917
100
AcDbArc
 50
270.0
 51
0.0
  0
ARC
  5
1C0
330
1F
100
AcDbEntity
  8
0-C
  6
Continuous
 62
     2
370
     9
100
AcDbCircle
 10
-73.67580104518623
 20
-772.69680552954
 30
0.0
 40
6.666666728035669
100
AcDbArc
 50
270.0
 51
0.0
  0
ARC
  5
1C1
330
1F
100
AcDbEntity
  8
0-C
  6
Continuous
 62
     2
370
     9
100
AcDbCircle
 10
-104.6947896557273
 20
-772.69680552954
 30
0.0
 40
6.666666728035669
100
AcDbArc
 50
189.4628143310547
 51
270.0
  0
ARC
  5
1C2
330
1F
100
AcDbEntity
  8
0-C
  6
Continuous
 62
     2
370
     9
100
AcDbCircle
 10
72.99088761613149
 20
-772.69680552954
 30
0.0
 40
6.666666728035669
100
AcDbArc
 50
180.0
 51
270.0
  0
ARC
  5
1C3
330
1F
100
AcDbEntity
  8
0-C
  6
Continuous
 62
     2
370
     9
100
AcDbCircle
 10
104.0098762266737
 20
-772.69680552954
 30
0.0
 40
6.666666728035669
100
AcDbArc
 50
270.0
 51
350.5371856689453
  0
ARC
  5
1C4
330
1F
100
AcDbEntity
  8
0-C
  6
Continuous
 62
     2
370
     9
100
AcDbCircle
 10
-17.00936610787693
 20
-733.696475374119
 30
0.0
 40
5.66666684785865
100
AcDbArc
 50
270.0
 51
350.4709777832031
  0
ARC
  5
1C5
330
1F
100
AcDbEntity
  8
0-C
  6
Continuous
 62
     2
370
     9
100
AcDbCircle
 10
16.32445267882332
 20
-733.696475374119
 30
0.0
 40
5.66666684785865
100
AcDbArc
 50
189.5361938476562
 51
270.0
  0
LINE
  5
1C6
330
1F
100
AcDbEntity
  8
0-4
  6
Continuous
 62
     7
370
     9
100
AcDbLine
 10
694.5564817921993
 20
-688.6966788246399
 30
0.0
 11
694.5564817921993
 21
-522.0302273913428
 31
0.0
  0
LINE
  5
1C7
330
1F
100
AcDbEntity
  8
0-4
  6
Continuous
 62
     7
370
     9
100
AcDbLine
 10
694.5564817921993
 20
-688.6966788246399
 30
0.0
 11
691.293326986698
 21
-663.9105572902946
 31
0.0
  0
LINE
  5
1C8
330
1F
100
AcDbEntity
  8
0-4
  6
Continuous
 62
     7
370
     9
100
AcDbLine
 10
694.5564817921993
 20
-688.6966788246399
 30
0.0
 11
697.8196365977008
 21
-663.9105572902946
 31
0.0
  0
LINE
  5
1C9
330
1F
100
AcDbEntity
  8
0-4
  6
Continuous
 62
     7
370
     9
100
AcDbLine
 10
694.5564817921993
 20
-522.0302273913428
 30
0.0
 11
691.293326986698
 21
-546.816348925688
 31
0.0
  0
LINE
  5
1CA
330
1F
100
AcDbEntity
  8
0-4
  6
Continuous
 62
     7
370
     9
100
AcDbLine
 10
694.5564817921993
 20
-522.0302273913428
 30
0.0
 11
697.8196365977008
 21
-546.816348925688
 31
0.0
  0
LINE
  5
1CB
330
1F
100
AcDbEntity
  8
0-4
  6
Continuous
 62
     7
370
     9
100
AcDbLine
 10
697.5564817921993
 20
-688.6966788246399
 30
0.0
 11
461.3243662712662
 21
-688.6966788246399
 31
0.0
  0
LINE
  5
1CC
330
1F
100
AcDbEntity
  8
0-4
  6
Continuous
 62
     7
370
     9
100
AcDbLine
 10
697.5564817921993
 20
-522.0302273913428
 30
0.0
 11
502.9906488170641
 21
-522.0302273913428
 31
0.0
  0
TEXT
  5
1CD
330
1F
100
AcDbEntity
  8
0-4
  6
Continuous
 62
     2
370
   211
100
AcDbText
 10
678.9164817921993
 20
-626.6134531079913
 30
0.0
 40
30.48
  1
50
 50
90.0
 41
1.0625
  7
ＭＳ ゴシック
100
AcDbText
  0
LINE
  5
1CE
330
1F
100
AcDbEntity
  8
0-5
  6
Continuous
 62
     7
370
     9
100
AcDbLine
 10
97.54056324216236
 20
-1005.364577388138
 30
0.0
 11
112.7595969731593
 21
-1025.19836381128
 31
0.0
  0
LINE
  5
1CF
330
1F
100
AcDbEntity
  8
0-5
  6
Continuous
 62
     7
370
     9
100
AcDbLine
 10
97.54056324216236
 20
-1005.364577388138
 30
0.0
 11
107.1075765445275
 21
-1028.461538332237
 31
0.0
  0
LINE
  5
1D0
330
1F
100
AcDbEntity
  8
0-5
  6
Continuous
 62
     7
370
     9
100
AcDbLine
 10
-190.3425560832173
 20
-1025.364767092002
 30
0.0
 11
-238.4552500760387
 21
-1108.698138228642
 31
0.0
  0
LINE
  5
1D1
330
1F
100
AcDbEntity
  8
0-5
  6
Continuous
 62
     7
370
     9
100
AcDbLine
 10
-190.3425560832173
 20
-1025.364767092002
 30
0.0
 11
-205.5615898142136
 21
-1045.198429795233
 31
0.0
  0
LINE
  5
1D2
330
1F
100
AcDbEntity
  8
0-5
  6
Continuous
 62
     7
370
     9
100
AcDbLine
 10
-190.3425560832173
 20
-1025.364767092002
 30
0.0
 11
-199.9100642652272
 21
-1048.461666176145
 31
0.0
  0
LINE
  5
1D3
330
1F
100
AcDbEntity
  8
0-5
  6
Continuous
 62
     7
370
     9
100
AcDbLine
 10
-330.3430179708866
 20
-722.0315671012401
 30
0.0
 11
-387.9922901678876
 21
-821.8827526679104
 31
0.0
  0
LINE
  5
1D4
330
1F
100
AcDbEntity
  8
0-5
  6
Continuous
 62
     7
370
     9
100
AcDbLine
 10
-330.3430179708866
 20
-722.0315671012401
 30
0.0
 11
-339.9100312732511
 21
-745.1285280453385
 31
0.0
  0
LINE
  5
1D5
330
1F
100
AcDbEntity
  8
0-5
  6
Continuous
 62
     7
370
     9
100
AcDbLine
 10
-330.3430179708866
 20
-722.0315671012401
 30
0.0
 11
-345.5620517018829
 21
-741.8654153843374
 31
0.0
  0
LINE
  5
1D6
330
1F
100
AcDbEntity
  8
0-5
  6
Continuous
 62
     7
370
     9
100
AcDbLine
 10
529.9057745227797
 20
-1108.698138228642
 30
0.0
 11
157.200036558252
 21
-1108.698138228642
 31
0.0
  0
LINE
  5
1D7
330
1F
100
AcDbEntity
  8
0-5
  6
Continuous
 62
     7
370
     9
100
AcDbLine
 10
283.755855683041
 20
-952.4584172912739
 30
0.0
 11
649.6280480658536
 21
-952.4584172912739
 31
0.0
  0
LINE
  5
1D8
330
1F
100
AcDbEntity
  8
0-5
  6
Continuous
 62
     7
370
     9
100
AcDbLine
 10
160.7258065909801
 20
-739.3641080772748
 30
0.0
 11
283.755855683041
 21
-952.4584172912739
 31
0.0
  0
LINE
  5
1D9
330
1F
100
AcDbEntity
  8
0-5
  6
Continuous
 62
     7
370
     9
100
AcDbLine
 10
160.7258065909801
 20
-739.3641080772748
 30
0.0
 11
175.944840321977
 21
-759.1978945004166
 31
0.0
  0
LINE
  5
1DA
330
1F
100
AcDbEntity
  8
0-5
  6
Continuous
 62
     7
370
     9
100
AcDbLine
 10
160.7258065909801
 20
-739.3641080772748
 30
0.0
 11
170.2928198933452
 21
-762.4610690213731
 31
0.0
  0
LINE
  5
1DB
330
1F
100
AcDbEntity
  8
0-5
  6
Continuous
 62
     7
370
     9
100
AcDbLine
 10
355.6074313798317
 20
-704.3255157129377
 30
0.0
 11
365.1746921220192
 21
-727.4225385169916
 31
0.0
  0
LINE
  5
1DC
330
1F
100
AcDbEntity
  8
0-5
  6
Continuous
 62
     7
370
     9
100
AcDbLine
 10
355.6074313798317
 20
-704.3255157129377
 30
0.0
 11
370.826465110828
 21
-724.1593639960354
 31
0.0
  0
LINE
  5
1DD
330
1F
100
AcDbEntity
  8
0-5
  6
Continuous
 62
     7
370
     9
100
AcDbLine
 10
355.6074313798317
 20
-704.3255157129377
 30
0.0
 11
431.9638964875176
 21
-836.5784511740335
 31
0.0
  0
LINE
  5
1DE
330
1F
100
AcDbEntity
  8
0-5
  6
Continuous
 62
     7
370
     9
100
AcDbLine
 10
431.9638964875176
 20
-836.5784511740335
 30
0.0
 11
643.6993899155161
 21
-836.5784511740335
 31
0.0
  0
LINE
  5
1DF
330
1F
100
AcDbEntity
  8
0-5
  6
Continuous
 62
     7
370
     9
100
AcDbLine
 10
12.9906232875598
 20
-427.6191294560755
 30
0.0
 11
22.5578840297473
 21
-404.5221066520213
 31
0.0
  0
LINE
  5
1E0
330
1F
100
AcDbEntity
  8
0-5
  6
Continuous
 62
     7
370
     9
100
AcDbLine
 10
12.9906232875598
 20
-427.6191294560755
 30
0.0
 11
28.20965701855613
 21
-407.7852193130224
 31
0.0
  0
LINE
  5
1E1
330
1F
100
AcDbEntity
  8
0-5
  6
Continuous
 62
     7
370
     9
100
AcDbLine
 10
12.9906232875598
 20
-427.6191294560755
 30
0.0
 11
106.694104600904
 21
-265.3198856321734
 31
0.0
  0
LINE
  5
1E2
330
1F
100
AcDbEntity
  8
0-5
  6
Continuous
 62
     7
370
     9
100
AcDbLine
 10
106.694104600904
 20
-265.3198856321734
 30
0.0
 11
416.911389757154
 21
-265.3198856321734
 31
0.0
  0
LINE
  5
1E3
330
1F
100
AcDbEntity
  8
0-5
  6
Continuous
 62
     7
370
     9
100
AcDbLine
 10
97.54056324216236
 20
-1005.364577388138
 30
0.0
 11
157.200036558252
 21
-1108.698138228642
 31
0.0
  0
TEXT
  5
1E4
330
1F
100
AcDbEntity
  8
0-5
  6
Continuous
 62
     6
370
     9
100
AcDbText
 10
201.0131980473781
 20
-300.4749261463203
 30
0.0
 40
19.05
  1
（別途）
 41
1.089999999999998
  7
ＭＳ ゴシック
100
AcDbText
  0
TEXT
  5
1E5
330
1F
100
AcDbEntity
  8
0-5
  6
Continuous
 62
     6
370
     9
100
AcDbText
 10
106.981390482978
 20
-251.9117679563921
 30
0.0
 40
19.05
  1
長ネジボルト：ＳＷＲＭ
 41
1.109090909090909
  7
ＭＳ ゴシック
100
AcDbText
  0
TEXT
  5
1E6
330
1F
100
AcDbEntity
  8
0-5
  6
Continuous
 62
     6
370
     9
100
AcDbText
 10
167.3913916706888
 20
-1098.200809836407
 30
0.0
 40
19.05
  1
位置決めプレート：ＳＧＨＣ
 41
1.110769230769231
  7
ＭＳ ゴシック
100
AcDbText
  0
TEXT
  5
1E7
330
1F
100
AcDbEntity
  8
0-5
  6
Continuous
 62
     6
370
     9
100
AcDbText
 10
289.0530292604271
 20
-1138.05492137898
 30
0.0
 40
19.05
  1
（別途）
 41
1.090000000000003
  7
ＭＳ ゴシック
100
AcDbText
  0
TEXT
  5
1E8
330
1F
100
AcDbEntity
  8
0-5
  6
Continuous
 62
     6
370
     9
100
AcDbText
 10
-556.2993910309583
 20
-856.363086645687
 30
0.0
 40
19.05
  1
（別途）
 41
1.090000000000003
  7
ＭＳ ゴシック
100
AcDbText
  0
TEXT
  5
1E9
330
1F
100
AcDbEntity
  8
0-5
  6
Continuous
 62
     6
370
     9
100
AcDbText
 10
290.3207327549372
 20
-945.0987804999417
 30
0.0
 40
19.05
  1
引き上げプレート：ＳＧＨＣ
 41
1.11076923076923
  7
ＭＳ ゴシック
100
AcDbText
  0
TEXT
  5
1EA
330
1F
100
AcDbEntity
  8
0-5
  6
Continuous
 62
     6
370
     9
100
AcDbText
 10
412.191704434625
 20
-984.4775292132543
 30
0.0
 40
19.05
  1
（別途）
 41
1.089999999999998
  7
ＭＳ ゴシック
100
AcDbText
  0
TEXT
  5
1EB
330
1F
100
AcDbEntity
  8
0-5
  6
Continuous
 62
     6
370
     9
100
AcDbText
 10
-516.2683290852235
 20
-1140.343368578621
 30
0.0
 40
19.05
  1
（別途）
 41
1.090000000000003
  7
ＭＳ ゴシック
100
AcDbText
  0
TEXT
  5
1EC
330
1F
100
AcDbEntity
  8
0-5
  6
Continuous
 62
     7
370
     9
100
AcDbText
 10
478.5100902032062
 20
-824.7735140237484
 30
0.0
 40
22.86
  1
リング
 41
1.111111111111111
  7
ＭＳ ゴシック
100
AcDbText
  0
TEXT
  5
1ED
330
1F
100
AcDbEntity
  8
0-5
  6
Continuous
 62
     7
370
     9
100
AcDbText
 10
435.9402214452879
 20
-876.4101222506275
 30
0.0
 40
22.86
  1
クロロプレン
 41
1.138888888888889
  7
ＭＳ ゴシック
100
AcDbText
  0
LINE
  5
1EE
330
1F
100
AcDbEntity
  8
0-5
  6
Continuous
 62
     7
370
     9
100
AcDbLine
 10
-267.0090632886647
 20
-495.3634366120036
 30
0.0
 11
-282.2280970196616
 21
-475.5295264689505
 31
0.0
  0
LINE
  5
1EF
330
1F
100
AcDbEntity
  8
0-5
  6
Continuous
 62
     7
370
     9
100
AcDbLine
 10
-267.0090632886647
 20
-495.3634366120036
 30
0.0
 11
-276.5760765910298
 21
-472.2664138079497
 31
0.0
  0
LINE
  5
1F0
330
1F
100
AcDbEntity
  8
0-5
  6
Continuous
 62
     7
370
     9
100
AcDbLine
 10
376.3243305299582
 20
-522.0302273913428
 30
0.0
 11
481.033687714291
 21
-340.6684670714524
 31
0.0
  0
LINE
  5
1F1
330
1F
100
AcDbEntity
  8
0-5
  6
Continuous
 62
     7
370
     9
100
AcDbLine
 10
481.033687714291
 20
-340.6684670714524
 30
0.0
 11
685.433085280803
 21
-340.6684670714524
 31
0.0
  0
TEXT
  5
1F2
330
1F
100
AcDbEntity
  8
0-5
  6
Continuous
 62
     7
370
     9
100
AcDbText
 10
481.385514150102
 20
-376.3258902001477
 30
0.0
 40
22.86
  1
特殊発砲樹脂
 41
1.138888888888889
  7
ＭＳ ゴシック
100
AcDbText
  0
TEXT
  5
1F3
330
1F
100
AcDbEntity
  8
0-5
  6
Continuous
 62
     7
370
     9
100
AcDbText
 10
523.7219811713223
 20
-332.2708381388086
 30
0.0
 40
22.86
  1
抜型本体
 41
1.125
  7
ＭＳ ゴシック
100
AcDbText
  0
LINE
  5
1F4
330
1F
100
AcDbEntity
  8
0-5
  6
Continuous
 62
     7
370
     9
100
AcDbLine
 10
376.3243305299582
 20
-522.0302273913428
 30
0.0
 11
385.8913438323233
 21
-498.9332664472443
 31
0.0
  0
LINE
  5
1F5
330
1F
100
AcDbEntity
  8
0-5
  6
Continuous
 62
     7
370
     9
100
AcDbLine
 10
376.3243305299582
 20
-522.0302273913428
 30
0.0
 11
391.5433642609551
 21
-502.1963791082451
 31
0.0
  0
LINE
  5
1F6
330
1F
100
AcDbEntity
  8
0-5
  6
Continuous
 62
     7
370
     9
100
AcDbLine
 10
-47.0093422716654
 20
-458.696901860588
 30
0.0
 11
-62.22837600266173
 21
-438.8631154374457
 31
0.0
  0
LINE
  5
1F7
330
1F
100
AcDbEntity
  8
0-5
  6
Continuous
 62
     7
370
     9
100
AcDbLine
 10
-47.0093422716654
 20
-458.696901860588
 30
0.0
 11
-56.57635557403053
 21
-435.6000027764453
 31
0.0
  0
TEXT
  5
1F8
330
1F
100
AcDbEntity
  8
0-5
  6
Continuous
 62
     6
370
     9
100
AcDbText
 10
-691.5230172450626
 20
-1099.923454951615
 30
0.0
 40
19.05
  1
スペーサー：硬質ポリ塩化ビニル管
 41
1.1125
  7
ＭＳ ゴシック
100
AcDbText
  0
LINE
  5
1F9
330
1F
100
AcDbEntity
  8
0-5
  6
Continuous
 62
     7
370
     9
100
AcDbLine
 10
-238.4552500760387
 20
-1108.698138228642
 30
0.0
 11
-694.959948133471
 21
-1108.698138228642
 31
0.0
  0
TEXT
  5
1FA
330
1F
100
AcDbEntity
  8
0-5
  6
Continuous
 62
     6
370
     9
100
AcDbText
 10
-640.2013025860683
 20
-810.6845200480833
 30
0.0
 40
19.05
  1
ルーフドレイン本体
 41
1.106666666666668
  7
ＭＳ ゴシック
100
AcDbText
  0
LINE
  5
1FB
330
1F
100
AcDbEntity
  8
0-5
  6
Continuous
 62
     7
370
     9
100
AcDbLine
 10
-387.9922901678876
 20
-821.8827526679104
 30
0.0
 11
-648.765160205895
 21
-821.8827526679104
 31
0.0
  0
TEXT
  5
1FC
330
1F
100
AcDbEntity
  8
0-5
  6
Continuous
 62
     7
370
     9
100
AcDbText
 10
-535.0937526031664
 20
-398.3393230199597
 30
0.0
 40
22.86
  1
固定プレート
 41
1.138888888888889
  7
ＭＳ ゴシック
100
AcDbText
  0
TEXT
  5
1FD
330
1F
100
AcDbEntity
  8
0-5
  6
Continuous
 62
     7
370
     9
100
AcDbText
 10
-497.7018755576638
 20
-440.197604335943
 30
0.0
 40
22.86
  1
ＳＰＨＣ
 41
1.125
  7
ＭＳ ゴシック
100
AcDbText
  0
LINE
  5
1FE
330
1F
100
AcDbEntity
  8
0-5
  6
Continuous
 62
     7
370
     9
100
AcDbLine
 10
-318.088186994568
 20
-406.8918492815727
 30
0.0
 11
-540.2288382503367
 21
-406.8918492815727
 31
0.0
  0
LINE
  5
1FF
330
1F
100
AcDbEntity
  8
0-5
  6
Continuous
 62
     7
370
     9
100
AcDbLine
 10
-267.0090632886647
 20
-495.3634366120036
 30
0.0
 11
-318.088186994568
 21
-406.8918492815727
 31
0.0
  0
TEXT
  5
200
330
1F
100
AcDbEntity
  8
0-5
  6
Continuous
 62
     6
370
     9
100
AcDbText
 10
-309.225458825994
 20
-335.7482655779321
 30
0.0
 40
19.05
  1
（別途）
 41
1.090000000000003
  7
ＭＳ ゴシック
100
AcDbText
  0
TEXT
  5
201
330
1F
100
AcDbEntity
  8
0-5
  6
Continuous
 62
     6
370
     9
100
AcDbText
 10
-397.0997692936882
 20
-292.055712856754
 30
0.0
 40
19.05
  1
蝶ナット：ＳＰＨＣ
 41
1.106666666666668
  7
ＭＳ ゴシック
100
AcDbText
  0
LINE
  5
202
330
1F
100
AcDbEntity
  8
0-5
  6
Continuous
 62
     7
370
     9
100
AcDbLine
 10
-136.4047779815722
 20
-303.8595544424806
 30
0.0
 11
-409.6355309464545
 21
-303.8595544424806
 31
0.0
  0
LINE
  5
203
330
1F
100
AcDbEntity
  8
0-5
  6
Continuous
 62
     7
370
     9
100
AcDbLine
 10
-47.0093422716654
 20
-458.696901860588
 30
0.0
 11
-136.4047779815722
 21
-303.8595544424806
 31
0.0
  0
LINE
  5
204
330
1F
100
AcDbEntity
  8
0-4
  6
Continuous
 62
     7
370
     9
100
AcDbLine
 10
-333.6753595811203
 20
-366.0227015070298
 30
0.0
 11
332.9911067771175
 21
-366.0227015070298
 31
0.0
  0
LINE
  5
205
330
1F
100
AcDbEntity
  8
0-4
  6
Continuous
 62
     7
370
     9
100
AcDbLine
 10
-333.6753595811203
 20
-366.0227015070298
 30
0.0
 11
-308.8892380467751
 21
-362.7595467015285
 31
0.0
  0
LINE
  5
206
330
1F
100
AcDbEntity
  8
0-4
  6
Continuous
 62
     7
370
     9
100
AcDbLine
 10
-333.6753595811203
 20
-366.0227015070298
 30
0.0
 11
-308.8892380467751
 21
-369.2858563125311
 31
0.0
  0
LINE
  5
207
330
1F
100
AcDbEntity
  8
0-4
  6
Continuous
 62
     7
370
     9
100
AcDbLine
 10
332.9911067771175
 20
-366.0227015070298
 30
0.0
 11
308.2049852427723
 21
-362.7595467015285
 31
0.0
  0
LINE
  5
208
330
1F
100
AcDbEntity
  8
0-4
  6
Continuous
 62
     7
370
     9
100
AcDbLine
 10
332.9911067771175
 20
-366.0227015070298
 30
0.0
 11
308.2049852427723
 21
-369.2858563125311
 31
0.0
  0
LINE
  5
209
330
1F
100
AcDbEntity
  8
0-4
  6
Continuous
 62
     7
370
     9
100
AcDbLine
 10
-333.6753595811203
 20
-363.0227015070298
 30
0.0
 11
-333.6753595811203
 21
-698.697313920185
 31
0.0
  0
LINE
  5
20A
330
1F
100
AcDbEntity
  8
0-4
  6
Continuous
 62
     7
370
     9
100
AcDbLine
 10
332.9911067771175
 20
-363.0227015070298
 30
0.0
 11
332.9911067771175
 21
-698.697313920185
 31
0.0
  0
TEXT
  5
20B
330
1F
100
AcDbEntity
  8
0-4
  6
Continuous
 62
     2
370
   211
100
AcDbText
 10
-82.5379353675148
 20
-350.5675017438067
 30
0.0
 40
30.48
  1
φ200
 41
1.1
  7
ＭＳ ゴシック
100
AcDbText
  0
ENDSEC
  0
SECTION
  2
OBJECTS
  0
DICTIONARY
  5
C
330
0
100
AcDbDictionary
281
     1
  3
ACAD_GROUP
350
D
  3
ACAD_LAYOUT
350
1A
  3
ACAD_MLEADERSTYLE
350
20D
  3
ACAD_MLINESTYLE
350
17
  3
ACAD_PLOTSETTINGS
350
19
  3
ACAD_PLOTSTYLENAME
350
E
  3
ACAD_TABLESTYLE
350
20C
  3
ACAD_VISUALSTYLE
350
2A
  3
AcDbVariableDictionary
350
20E
  0
DICTIONARY
  5
D
102
{ACAD_REACTORS
330
C
102
}
330
C
100
AcDbDictionary
281
     1
  0
DICTIONARY
  5
1A
102
{ACAD_REACTORS
330
C
102
}
330
C
100
AcDbDictionary
281
     1
  3
Layout1
350
1E
  3
Layout2
350
26
  3
Model
350
22
  0
DICTIONARY
  5
20D
102
{ACAD_REACTORS
330
C
102
}
330
C
100
AcDbDictionary
281
     1
  0
DICTIONARY
  5
17
102
{ACAD_REACTORS
330
C
102
}
330
C
100
AcDbDictionary
281
     1
  3
Standard
350
18
  0
DICTIONARY
  5
19
102
{ACAD_REACTORS
330
C
102
}
330
C
100
AcDbDictionary
281
     1
  0
ACDBDICTIONARYWDFLT
  5
E
102
{ACAD_REACTORS
330
C
102
}
330
C
100
AcDbDictionary
281
     1
  3
Normal
350
F
100
AcDbDictionaryWithDefault
340
F
  0
DICTIONARY
  5
20C
102
{ACAD_REACTORS
330
C
102
}
330
C
100
AcDbDictionary
281
     1
  0
DICTIONARY
  5
2A
102
{ACAD_REACTORS
330
C
102
}
330
C
100
AcDbDictionary
281
     1
  3
2dWireframe
350
2F
  3
3D Hidden
350
31
  3
3dWireframe
350
30
  3
Basic
350
32
  3
Brighten
350
36
  3
ColorChange
350
3A
  3
Conceptual
350
34
  3
Dim
350
35
  3
Facepattern
350
39
  3
Flat
350
2B
  3
FlatWithEdges
350
2C
  3
Gouraud
350
2D
  3
GouraudWithEdges
350
2E
  3
Linepattern
350
38
  3
Realistic
350
33
  3
Thicken
350
37
  0
DICTIONARY
  5
20E
102
{ACAD_REACTORS
330
C
102
}
330
C
100
AcDbDictionary
281
     1
  3
PSOLHEIGHT
350
210
  3
PSOLWIDTH
350
20F
  0
LAYOUT
  5
1E
102
{ACAD_REACTORS
330
1A
102
}
102
{ACAD_XDICTIONARY
360
211
102
}
330
1A
100
AcDbPlotSettings
  1

  2
none_device
  4

  6

 40
0.0
 41
0.0
 42
0.0
 43
0.0
 44
0.0
 45
0.0
 46
0.0
 47
0.0
 48
0.0
 49
0.0
140
0.0
141
0.0
142
1.0
143
1.0
 70
   688
 72
     0
 73
     0
 74
     5
  7

 75
    16
147
1.0
148
0.0
149
0.0
100
AcDbLayout
  1
Layout1
 70
     1
 71
     1
 10
0.0
 20
0.0
 11
420.0
 21
297.0
 12
0.0
 22
0.0
 32
0.0
 14
1.000000000000000E+20
 24
1.000000000000000E+20
 34
1.000000000000000E+20
 15
-1.000000000000000E+20
 25
-1.000000000000000E+20
 35
-1.000000000000000E+20
146
0.0
 13
0.0
 23
0.0
 33
0.0
 16
1.0
 26
0.0
 36
0.0
 17
0.0
 27
1.0
 37
0.0
 76
     0
330
1B
  0
LAYOUT
  5
26
102
{ACAD_REACTORS
330
1A
102
}
102
{ACAD_XDICTIONARY
360
215
102
}
330
1A
100
AcDbPlotSettings
  1

  2
none_device
  4

  6

 40
0.0
 41
0.0
 42
0.0
 43
0.0
 44
0.0
 45
0.0
 46
0.0
 47
0.0
 48
0.0
 49
0.0
140
0.0
141
0.0
142
1.0
143
1.0
 70
   688
 72
     0
 73
     0
 74
     5
  7

 75
    16
147
1.0
148
0.0
149
0.0
100
AcDbLayout
  1
Layout2
 70
     1
 71
     2
 10
0.0
 20
0.0
 11
0.0
 21
0.0
 12
0.0
 22
0.0
 32
0.0
 14
0.0
 24
0.0
 34
0.0
 15
0.0
 25
0.0
 35
0.0
146
0.0
 13
0.0
 23
0.0
 33
0.0
 16
1.0
 26
0.0
 36
0.0
 17
0.0
 27
1.0
 37
0.0
 76
     0
330
23
  0
LAYOUT
  5
22
102
{ACAD_REACTORS
330
1A
102
}
102
{ACAD_XDICTIONARY
360
213
102
}
330
1A
100
AcDbPlotSettings
  1

  2
none_device
  4

  6

 40
0.0
 41
0.0
 42
0.0
 43
0.0
 44
0.0
 45
0.0
 46
0.0
 47
0.0
 48
0.0
 49
0.0
140
0.0
141
0.0
142
1.0
143
1.0
 70
  1712
 72
     0
 73
     0
 74
     0
  7

 75
     0
147
1.0
148
0.0
149
0.0
100
AcDbLayout
  1
Model
 70
     1
 71
     0
 10
-2100.0
 20
-1485.0
 11
2100.0
 21
1485.0
 12
0.0
 22
0.0
 32
0.0
 14
-2100.0
 24
-1485.0
 34
0.0
 15
2100.0
 25
1485.0
 35
0.0
146
0.0
 13
0.0
 23
0.0
 33
0.0
 16
1.0
 26
0.0
 36
0.0
 17
0.0
 27
1.0
 37
0.0
 76
     0
330
1F
331
29
  0
MLINESTYLE
  5
18
102
{ACAD_REACTORS
330
17
102
}
330
17
100
AcDbMlineStyle
  2
Standard
 70
     0
  3

 62
   256
 51
90.0
 52
90.0
 71
     2
 49
0.5
 62
   256
  6
BYLAYER
 49
-0.5
 62
   256
  6
BYLAYER
  0
ACDBPLACEHOLDER
  5
F
102
{ACAD_REACTORS
330
E
102
}
330
E
  0
VISUALSTYLE
  5
2F
102
{ACAD_REACTORS
330
2A
102
}
330
2A
100
AcDbVisualStyle
  2
2dWireframe
 70
     4
 71
     0
 72
     2
 73
     0
 90
        0
 40
-0.6
 41
-30.0
 62
     5
 63
     7
 74
     1
 91
        4
 64
     7
 65
   257
 75
     1
175
     1
 42
1.0
 92
        0
 66
   257
 43
1.0
 76
     1
 77
     6
 78
     2
 67
     7
 79
     5
170
     0
171
     0
290
     0
174
     0
 93
        1
 44
0.0
173
     0
291
     0
 45
0.0
1001
ACAD
1000
AcDbSavedByObjectVersion
1070
     0
  0
VISUALSTYLE
  5
31
102
{ACAD_REACTORS
330
2A
102
}
330
2A
100
AcDbVisualStyle
  2
3D Hidden
 70
     6
 71
     1
 72
     2
 73
     2
 90
        0
 40
-0.6
 41
-30.0
 62
     5
 63
     7
 74
     2
 91
        2
 64
     7
 65
   257
 75
     2
175
     1
 42
40.0
 92
        0
 66
   257
 43
1.0
 76
     1
 77
     6
 78
     2
 67
     7
 79
     3
170
     0
171
     0
290
     0
174
     0
 93
        1
 44
0.0
173
     0
291
     0
 45
0.0
1001
ACAD
1000
AcDbSavedByObjectVersion
1070
     0
  0
VISUALSTYLE
  5
30
102
{ACAD_REACTORS
330
2A
102
}
330
2A
100
AcDbVisualStyle
  2
3dWireframe
 70
     5
 71
     0
 72
     2
 73
     0
 90
        0
 40
-0.6
 41
-30.0
 62
     5
 63
     7
 74
     1
 91
        4
 64
     7
 65
   257
 75
     1
175
     1
 42
1.0
 92
        0
 66
   257
 43
1.0
 76
     1
 77
     6
 78
     2
 67
     7
 79
     5
170
     0
171
     0
290
     0
174
     0
 93
        1
 44
0.0
173
     0
291
     0
 45
0.0
1001
ACAD
1000
AcDbSavedByObjectVersion
1070
     0
  0
VISUALSTYLE
  5
32
102
{ACAD_REACTORS
330
2A
102
}
330
2A
100
AcDbVisualStyle
  2
Basic
 70
     7
 71
     1
 72
     0
 73
     1
 90
        0
 40
-0.6
 41
-30.0
 62
     5
 63
     7
 74
     0
 91
        4
 64
     7
 65
   257
 75
     1
175
     1
 42
1.0
 92
        8
 66
     7
 43
1.0
 76
     1
 77
     6
 78
     2
 67
     7
 79
     5
170
     0
171
     0
290
     0
174
     0
 93
        1
 44
0.0
173
     0
291
     1
 45
0.0
1001
ACAD
1000
AcDbSavedByObjectVersion
1070
     0
  0
VISUALSTYLE
  5
36
102
{ACAD_REACTORS
330
2A
102
}
330
2A
100
AcDbVisualStyle
  2
Brighten
 70
    12
 71
     2
 72
     2
 73
     0
 90
        0
 40
-0.6
 41
-30.0
 62
     5
 63
     7
 74
     1
 91
        4
 64
     7
 65
   257
 75
     1
175
     1
 42
1.0
 92
        8
 66
     7
 43
1.0
 76
     1
 77
     6
 78
     2
 67
     7
 79
     5
170
     0
171
     0
290
     0
174
     0
 93
        1
 44
50.0
173
     0
291
     1
 45
0.0
1001
ACAD
1000
AcDbSavedByObjectVersion
1070
     0
  0
VISUALSTYLE
  5
3A
102
{ACAD_REACTORS
330
2A
102
}
330
2A
100
AcDbVisualStyle
  2
ColorChange
 70
    16
 71
     2
 72
     2
 73
     3
 90
        0
 40
-0.6
 41
-30.0
 62
     5
 63
     8
 74
     1
 91
        4
 64
     7
 65
   257
 75
     1
175
     1
 42
1.0
 92
        8
 66
     8
 43
1.0
 76
     1
 77
     6
 78
     2
 67
     7
 79
     5
170
     0
171
     0
290
     0
174
     0
 93
        1
 44
0.0
173
     0
291
     1
 45
0.0
1001
ACAD
1000
AcDbSavedByObjectVersion
1070
     0
  0
VISUALSTYLE
  5
34
102
{ACAD_REACTORS
330
2A
102
}
330
2A
100
AcDbVisualStyle
  2
Conceptual
 70
     9
 71
     3
 72
     2
 73
     0
 90
        0
 40
-0.6
 41
-30.0
 62
     5
 63
     7
 74
     2
 91
        2
 64
     7
 65
   257
 75
     1
175
     1
 42
40.0
 92
        8
 66
     7
 43
1.0
 76
     1
 77
     6
 78
     2
 67
     7
 79
     3
170
     0
171
     0
290
     0
174
     0
 93
        1
 44
0.0
173
     0
291
     0
 45
0.0
1001
ACAD
1000
AcDbSavedByObjectVersion
1070
     0
  0
VISUALSTYLE
  5
35
102
{ACAD_REACTORS
330
2A
102
}
330
2A
100
AcDbVisualStyle
  2
Dim
 70
    11
 71
     2
 72
     2
 73
     0
 90
        0
 40
-0.6
 41
-30.0
 62
     5
 63
     7
 74
     1
 91
        4
 64
     7
 65
   257
 75
     1
175
     1
 42
1.0
 92
        8
 66
     7
 43
1.0
 76
     1
 77
     6
 78
     2
 67
     7
 79
     5
170
     0
171
     0
290
     0
174
     0
 93
        1
 44
-50.0
173
     0
291
     1
 45
0.0
1001
ACAD
1000
AcDbSavedByObjectVersion
1070
     0
  0
VISUALSTYLE
  5
39
102
{ACAD_REACTORS
330
2A
102
}
330
2A
100
AcDbVisualStyle
  2
Facepattern
 70
    15
 71
     2
 72
     2
 73
     0
 90
        0
 40
-0.6
 41
-30.0
 62
     5
 63
     7
 74
     1
 91
        4
 64
     7
 65
   257
 75
     1
175
     1
 42
1.0
 92
        8
 66
     7
 43
1.0
 76
     1
 77
     6
 78
     2
 67
     7
 79
     5
170
     0
171
     0
290
     0
174
     0
 93
        1
 44
0.0
173
     0
291
     1
 45
0.0
1001
ACAD
1000
AcDbSavedByObjectVersion
1070
     0
  0
VISUALSTYLE
  5
2B
102
{ACAD_REACTORS
330
2A
102
}
330
2A
100
AcDbVisualStyle
  2
Flat
 70
     0
 71
     2
 72
     1
 73
     1
 90
        2
 40
-0.6
 41
30.0
 62
     5
 63
     7
 74
     0
 91
        4
 64
     7
 65
   257
 75
     1
175
     1
 42
1.0
 92
        8
 66
     7
 43
1.0
 76
     1
 77
     6
 78
     2
 67
     7
 79
     5
170
     0
171
     0
290
     0
174
     0
 93
       13
 44
0.0
173
     0
291
     1
 45
0.0
1001
ACAD
1000
AcDbSavedByObjectVersion
1070
     0
  0
VISUALSTYLE
  5
2C
102
{ACAD_REACTORS
330
2A
102
}
330
2A
100
AcDbVisualStyle
  2
FlatWithEdges
 70
     1
 71
     2
 72
     1
 73
     1
 90
        2
 40
-0.6
 41
30.0
 62
     5
 63
     7
 74
     1
 91
        4
 64
     7
 65
   257
 75
     1
175
     1
 42
1.0
 92
        0
 66
   257
 43
1.0
 76
     1
 77
     6
 78
     2
 67
     7
 79
     5
170
     0
171
     0
290
     0
174
     0
 93
       13
 44
0.0
173
     0
291
     1
 45
0.0
1001
ACAD
1000
AcDbSavedByObjectVersion
1070
     0
  0
VISUALSTYLE
  5
2D
102
{ACAD_REACTORS
330
2A
102
}
330
2A
100
AcDbVisualStyle
  2
Gouraud
 70
     2
 71
     2
 72
     2
 73
     1
 90
        2
 40
-0.6
 41
30.0
 62
     5
 63
     7
 74
     0
 91
        4
 64
     7
 65
   257
 75
     1
175
     1
 42
1.0
 92
        0
 66
     7
 43
1.0
 76
     1
 77
     6
 78
     2
 67
     7
 79
     5
170
     0
171
     0
290
     0
174
     0
 93
       13
 44
0.0
173
     0
291
     1
 45
0.0
1001
ACAD
1000
AcDbSavedByObjectVersion
1070
     0
  0
VISUALSTYLE
  5
2E
102
{ACAD_REACTORS
330
2A
102
}
330
2A
100
AcDbVisualStyle
  2
GouraudWithEdges
 70
     3
 71
     2
 72
     2
 73
     1
 90
        2
 40
-0.6
 41
30.0
 62
     5
 63
     7
 74
     1
 91
        4
 64
     7
 65
   257
 75
     1
175
     1
 42
1.0
 92
        0
 66
   257
 43
1.0
 76
     1
 77
     6
 78
     2
 67
     7
 79
     5
170
     0
171
     0
290
     0
174
     0
 93
       13
 44
0.0
173
     0
291
     1
 45
0.0
1001
ACAD
1000
AcDbSavedByObjectVersion
1070
     0
  0
VISUALSTYLE
  5
38
102
{ACAD_REACTORS
330
2A
102
}
330
2A
100
AcDbVisualStyle
  2
Linepattern
 70
    14
 71
     2
 72
     2
 73
     0
 90
        0
 40
-0.6
 41
-30.0
 62
     5
 63
     7
 74
     1
 91
        4
 64
     7
 65
   257
 75
     7
175
     7
 42
1.0
 92
        8
 66
     7
 43
1.0
 76
     1
 77
     6
 78
     2
 67
     7
 79
     5
170
     0
171
     0
290
     0
174
     0
 93
        1
 44
0.0
173
     0
291
     1
 45
0.0
1001
ACAD
1000
AcDbSavedByObjectVersion
1070
     0
  0
VISUALSTYLE
  5
33
102
{ACAD_REACTORS
330
2A
102
}
330
2A
100
AcDbVisualStyle
  2
Realistic
 70
     8
 71
     2
 72
     2
 73
     0
 90
        0
 40
-0.6
 41
-30.0
 62
     5
 63
     7
 74
     1
 91
        0
 64
     7
 65
   257
 75
     1
175
     1
 42
1.0
 92
        8
 66
     8
 43
1.0
 76
     1
 77
     6
 78
     2
 67
     7
 79
     5
170
     0
171
     0
290
     0
174
     0
 93
       13
 44
0.0
173
     0
291
     0
 45
0.0
1001
ACAD
1000
AcDbSavedByObjectVersion
1070
     0
  0
VISUALSTYLE
  5
37
102
{ACAD_REACTORS
330
2A
102
}
330
2A
100
AcDbVisualStyle
  2
Thicken
 70
    13
 71
     2
 72
     2
 73
     0
 90
        0
 40
-0.6
 41
-30.0
 62
     5
 63
     7
 74
     1
 91
        4
 64
     7
 65
   257
 75
     1
175
     1
 42
1.0
 92
       12
 66
     7
 43
1.0
 76
     1
 77
     6
 78
     2
 67
     7
 79
     5
170
     0
171
     0
290
     0
174
     0
 93
        1
 44
0.0
173
     0
291
     1
 45
0.0
1001
ACAD
1000
AcDbSavedByObjectVersion
1070
     0
  0
DICTIONARYVAR
  5
210
102
{ACAD_REACTORS
330
20E
102
}
330
20E
100
DictionaryVariables
280
     0
  1
80.000000
  0
DICTIONARYVAR
  5
20F
102
{ACAD_REACTORS
330
20E
102
}
330
20E
100
DictionaryVariables
280
     0
  1
5.000000
  0
DICTIONARY
  5
211
330
1E
100
AcDbDictionary
280
     1
281
     1
  3
ACAD_XREC_ROUNDTRIP
360
212
  0
DICTIONARY
  5
215
330
26
100
AcDbDictionary
280
     1
281
     1
  3
ACAD_XREC_ROUNDTRIP
360
216
  0
DICTIONARY
  5
213
330
22
100
AcDbDictionary
280
     1
281
     1
  3
ACAD_XREC_ROUNDTRIP
360
214
  0
XRECORD
  5
212
102
{ACAD_REACTORS
330
211
102
}
330
211
100
AcDbXrecord
280
     1
102
SHADEPLOT
 70
     0
102
SHADEPLOTRESLEVEL
 70
     5
102
SHADEPLOTCUSTOMDPI
 70
   300
  0
XRECORD
  5
216
102
{ACAD_REACTORS
330
215
102
}
330
215
100
AcDbXrecord
280
     1
102
SHADEPLOT
 70
     0
102
SHADEPLOTRESLEVEL
 70
     5
102
SHADEPLOTCUSTOMDPI
 70
   300
  0
XRECORD
  5
214
102
{ACAD_REACTORS
330
213
102
}
330
213
100
AcDbXrecord
280
     1
102
SHADEPLOT
 70
     0
102
SHADEPLOTRESLEVEL
 70
     5
102
SHADEPLOTCUSTOMDPI
 70
   300
  0
ENDSEC
  0
EOF
