  0
SECTION
  2
HEADER
  9
$ACADVER
  1
AC1018
  9
$ACADMAINTVER
 70
     0
  9
$DWGCODEPAGE
  3
ANSI_932
  9
$LASTSAVEDBY
  1
m.murai
  9
$INSBASE
 10
0.0
 20
0.0
 30
0.0
  9
$EXTMIN
 10
-420.0
 20
-297.0
 30
0.0
  9
$EXTMAX
 10
420.0
 20
297.0
 30
0.0
  9
$LIMMIN
 10
-420.0
 20
-297.0
  9
$LIMMAX
 10
420.0
 20
297.0
  9
$ORTHOMODE
 70
     0
  9
$REGENMODE
 70
     1
  9
$FILLMODE
 70
     1
  9
$QTEXTMODE
 70
     0
  9
$MIRRTEXT
 70
     1
  9
$LTSCALE
 40
2.0
  9
$ATTMODE
 70
     1
  9
$TEXTSIZE
 40
2.5
  9
$TRACEWID
 40
1.0
  9
$TEXTSTYLE
  7
Standard
  9
$CLAYER
  8
0
  9
$CELTYPE
  6
ByLayer
  9
$CECOLOR
 62
   256
  9
$CELTSCALE
 40
1.0
  9
$DISPSILH
 70
     0
  9
$DIMSCALE
 40
1.0
  9
$DIMASZ
 40
2.5
  9
$DIMEXO
 40
0.625
  9
$DIMDLI
 40
3.75
  9
$DIMRND
 40
0.0
  9
$DIMDLE
 40
0.0
  9
$DIMEXE
 40
1.25
  9
$DIMTP
 40
0.0
  9
$DIMTM
 40
0.0
  9
$DIMTXT
 40
2.5
  9
$DIMCEN
 40
2.5
  9
$DIMTSZ
 40
0.0
  9
$DIMTOL
 70
     0
  9
$DIMLIM
 70
     0
  9
$DIMTIH
 70
     0
  9
$DIMTOH
 70
     0
  9
$DIMSE1
 70
     0
  9
$DIMSE2
 70
     0
  9
$DIMTAD
 70
     1
  9
$DIMZIN
 70
     8
  9
$DIMBLK
  1

  9
$DIMASO
 70
     1
  9
$DIMSHO
 70
     1
  9
$DIMPOST
  1

  9
$DIMAPOST
  1

  9
$DIMALT
 70
     0
  9
$DIMALTD
 70
     3
  9
$DIMALTF
 40
0.03937007874016
  9
$DIMLFAC
 40
1.0
  9
$DIMTOFL
 70
     1
  9
$DIMTVP
 40
0.0
  9
$DIMTIX
 70
     0
  9
$DIMSOXD
 70
     0
  9
$DIMSAH
 70
     0
  9
$DIMBLK1
  1

  9
$DIMBLK2
  1

  9
$DIMSTYLE
  2
ISO-25
  9
$DIMCLRD
 70
     0
  9
$DIMCLRE
 70
     0
  9
$DIMCLRT
 70
     0
  9
$DIMTFAC
 40
1.0
  9
$DIMGAP
 40
0.625
  9
$DIMJUST
 70
     0
  9
$DIMSD1
 70
     0
  9
$DIMSD2
 70
     0
  9
$DIMTOLJ
 70
     0
  9
$DIMTZIN
 70
     8
  9
$DIMALTZ
 70
     0
  9
$DIMALTTZ
 70
     0
  9
$DIMUPT
 70
     0
  9
$DIMDEC
 70
     2
  9
$DIMTDEC
 70
     2
  9
$DIMALTU
 70
     2
  9
$DIMALTTD
 70
     3
  9
$DIMTXSTY
  7
Standard
  9
$DIMAUNIT
 70
     0
  9
$DIMADEC
 70
     0
  9
$DIMALTRND
 40
0.0
  9
$DIMAZIN
 70
     0
  9
$DIMDSEP
 70
    44
  9
$DIMATFIT
 70
     3
  9
$DIMFRAC
 70
     0
  9
$DIMLDRBLK
  1

  9
$DIMLUNIT
 70
     2
  9
$DIMLWD
 70
    -2
  9
$DIMLWE
 70
    -2
  9
$DIMTMOVE
 70
     0
  9
$LUNITS
 70
     2
  9
$LUPREC
 70
     4
  9
$SKETCHINC
 40
1.0
  9
$FILLETRAD
 40
10.0
  9
$AUNITS
 70
     0
  9
$AUPREC
 70
     0
  9
$MENU
  1
.
  9
$ELEVATION
 40
0.0
  9
$PELEVATION
 40
0.0
  9
$THICKNESS
 40
0.0
  9
$LIMCHECK
 70
     0
  9
$CHAMFERA
 40
0.0
  9
$CHAMFERB
 40
0.0
  9
$CHAMFERC
 40
0.0
  9
$CHAMFERD
 40
0.0
  9
$SKPOLY
 70
     0
  9
$TDCREATE
 40
2460290.569597639
  9
$TDUCREATE
 40
2460290.194597639
  9
$TDUPDATE
 40
2460290.569597743
  9
$TDUUPDATE
 40
2460290.194597743
  9
$TDINDWG
 40
0.0000000116
  9
$TDUSRTIMER
 40
0.0000000116
  9
$USRTIMER
 70
     1
  9
$ANGBASE
 50
0.0
  9
$ANGDIR
 70
     0
  9
$PDMODE
 70
     0
  9
$PDSIZE
 40
0.0
  9
$PLINEWID
 40
0.0
  9
$SPLFRAME
 70
     0
  9
$SPLINETYPE
 70
     6
  9
$SPLINESEGS
 70
     8
  9
$HANDSEED
  5
356
  9
$SURFTAB1
 70
     6
  9
$SURFTAB2
 70
     6
  9
$SURFTYPE
 70
     6
  9
$SURFU
 70
     6
  9
$SURFV
 70
     6
  9
$UCSBASE
  2

  9
$UCSNAME
  2

  9
$UCSORG
 10
0.0
 20
0.0
 30
0.0
  9
$UCSXDIR
 10
1.0
 20
0.0
 30
0.0
  9
$UCSYDIR
 10
0.0
 20
1.0
 30
0.0
  9
$UCSORTHOREF
  2

  9
$UCSORTHOVIEW
 70
     0
  9
$UCSORGTOP
 10
0.0
 20
0.0
 30
0.0
  9
$UCSORGBOTTOM
 10
0.0
 20
0.0
 30
0.0
  9
$UCSORGLEFT
 10
0.0
 20
0.0
 30
0.0
  9
$UCSORGRIGHT
 10
0.0
 20
0.0
 30
0.0
  9
$UCSORGFRONT
 10
0.0
 20
0.0
 30
0.0
  9
$UCSORGBACK
 10
0.0
 20
0.0
 30
0.0
  9
$PUCSBASE
  2

  9
$PUCSNAME
  2

  9
$PUCSORG
 10
0.0
 20
0.0
 30
0.0
  9
$PUCSXDIR
 10
1.0
 20
0.0
 30
0.0
  9
$PUCSYDIR
 10
0.0
 20
1.0
 30
0.0
  9
$PUCSORTHOREF
  2

  9
$PUCSORTHOVIEW
 70
     0
  9
$PUCSORGTOP
 10
0.0
 20
0.0
 30
0.0
  9
$PUCSORGBOTTOM
 10
0.0
 20
0.0
 30
0.0
  9
$PUCSORGLEFT
 10
0.0
 20
0.0
 30
0.0
  9
$PUCSORGRIGHT
 10
0.0
 20
0.0
 30
0.0
  9
$PUCSORGFRONT
 10
0.0
 20
0.0
 30
0.0
  9
$PUCSORGBACK
 10
0.0
 20
0.0
 30
0.0
  9
$USERI1
 70
     0
  9
$USERI2
 70
     0
  9
$USERI3
 70
     0
  9
$USERI4
 70
     0
  9
$USERI5
 70
     0
  9
$USERR1
 40
0.0
  9
$USERR2
 40
0.0
  9
$USERR3
 40
0.0
  9
$USERR4
 40
0.0
  9
$USERR5
 40
0.0
  9
$WORLDVIEW
 70
     1
  9
$SHADEDGE
 70
     3
  9
$SHADEDIF
 70
    70
  9
$TILEMODE
 70
     1
  9
$MAXACTVP
 70
    64
  9
$PINSBASE
 10
0.0
 20
0.0
 30
0.0
  9
$PLIMCHECK
 70
     0
  9
$PEXTMIN
 10
1.000000000000000E+20
 20
1.000000000000000E+20
 30
1.000000000000000E+20
  9
$PEXTMAX
 10
-1.000000000000000E+20
 20
-1.000000000000000E+20
 30
-1.000000000000000E+20
  9
$PLIMMIN
 10
0.0
 20
0.0
  9
$PLIMMAX
 10
420.0
 20
297.0
  9
$UNITMODE
 70
     0
  9
$VISRETAIN
 70
     1
  9
$PLINEGEN
 70
     0
  9
$PSLTSCALE
 70
     1
  9
$TREEDEPTH
 70
  3020
  9
$CMLSTYLE
  2
Standard
  9
$CMLJUST
 70
     0
  9
$CMLSCALE
 40
20.0
  9
$PROXYGRAPHICS
 70
     1
  9
$MEASUREMENT
 70
     1
  9
$CELWEIGHT
370
    -1
  9
$ENDCAPS
280
     0
  9
$JOINSTYLE
280
     0
  9
$LWDISPLAY
290
     0
  9
$INSUNITS
 70
     4
  9
$HYPERLINKBASE
  1

  9
$STYLESHEET
  1

  9
$XEDIT
290
     1
  9
$CEPSNTYPE
380
     0
  9
$PSTYLEMODE
290
     1
  9
$FINGERPRINTGUID
  2
{31757d48-7c54-44f5-a29d-4ae76f27b5f8}
  9
$VERSIONGUID
  2
{FAEB1C32-E019-11D5-929B-00C0DF256EC4}
  9
$EXTNAMES
290
     1
  9
$PSVPSCALE
 40
0.0
  9
$OLESTARTUP
290
     0
  9
$SORTENTS
280
   127
  9
$INDEXCTL
280
     0
  9
$HIDETEXT
280
     1
  9
$XCLIPFRAME
290
     0
  9
$HALOGAP
280
     0
  9
$OBSCOLOR
 70
   257
  9
$OBSLTYPE
280
     0
  9
$INTERSECTIONDISPLAY
280
     0
  9
$INTERSECTIONCOLOR
 70
   257
  9
$DIMASSOC
280
     2
  9
$PROJECTNAME
  1

  0
ENDSEC
  0
SECTION
  2
CLASSES
  0
CLASS
  1
ACDBDICTIONARYWDFLT
  2
AcDbDictionaryWithDefault
  3
ObjectDBX Classes
 90
        0
 91
        3
280
     0
281
     0
  0
CLASS
  1
VISUALSTYLE
  2
AcDbVisualStyle
  3
ObjectDBX Classes
 90
     4095
 91
        3
280
     0
281
     0
  0
CLASS
  1
MATERIAL
  2
AcDbMaterial
  3
ObjectDBX Classes
 90
     1153
 91
        3
280
     0
281
     0
  0
CLASS
  1
SCALE
  2
AcDbScale
  3
ObjectDBX Classes
 90
     1153
 91
        3
280
     0
281
     0
  0
CLASS
  1
TABLESTYLE
  2
AcDbTableStyle
  3
ObjectDBX Classes
 90
     4095
 91
        3
280
     0
281
     0
  0
CLASS
  1
MLEADERSTYLE
  2
AcDbMLeaderStyle
  3
ACDB_MLEADERSTYLE_CLASS
 90
     4095
 91
        3
280
     0
281
     0
  0
CLASS
  1
SUN
  2
AcDbSun
  3
SCENEOE
 90
     1153
 91
        3
280
     0
281
     0
  0
CLASS
  1
DICTIONARYVAR
  2
AcDbDictionaryVar
  3
ObjectDBX Classes
 90
        0
 91
        3
280
     0
281
     0
  0
CLASS
  1
CELLSTYLEMAP
  2
AcDbCellStyleMap
  3
ObjectDBX Classes
 90
     1152
 91
        3
280
     0
281
     0
  0
ENDSEC
  0
SECTION
  2
TABLES
  0
TABLE
  2
VPORT
  5
8
102
{ACAD_XDICTIONARY
360
30D
102
}
330
0
100
AcDbSymbolTable
 70
     1
  0
VPORT
  5
29
330
8
100
AcDbSymbolTableRecord
100
AcDbViewportTableRecord
  2
*Active
 70
     0
 10
0.0
 20
0.0
 11
1.0
 21
1.0
 12
0.0
 22
0.0
 13
0.0
 23
0.0
 14
10.0
 24
10.0
 15
10.0
 25
10.0
 16
0.0
 26
0.0
 36
1.0
 17
0.0
 27
0.0
 37
0.0
 40
653.4000000000001
 41
1.414141414141414
 42
50.0
 43
0.0
 44
0.0
 50
0.0
 51
0.0
 71
     0
 72
 10000
 73
     1
 74
     3
 75
     0
 76
     0
 77
     0
 78
     0
281
     0
 65
     1
110
0.0
120
0.0
130
0.0
111
1.0
121
0.0
131
0.0
112
0.0
122
1.0
132
0.0
 79
     0
146
0.0
  0
ENDTAB
  0
TABLE
  2
LTYPE
  5
5
330
0
100
AcDbSymbolTable
 70
     3
  0
LTYPE
  5
14
330
5
100
AcDbSymbolTableRecord
100
AcDbLinetypeTableRecord
  2
ByBlock
 70
     0
  3

 72
    65
 73
     0
 40
0.0
  0
LTYPE
  5
15
330
5
100
AcDbSymbolTableRecord
100
AcDbLinetypeTableRecord
  2
ByLayer
 70
     0
  3

 72
    65
 73
     0
 40
0.0
  0
LTYPE
  5
16
330
5
100
AcDbSymbolTableRecord
100
AcDbLinetypeTableRecord
  2
Continuous
 70
     0
  3
Solid line
 72
    65
 73
     0
 40
0.0
  0
LTYPE
  5
6F
330
5
100
AcDbSymbolTableRecord
100
AcDbLinetypeTableRecord
  2
JWW_CENTER1
 70
     0
  3
-----  --  ----------  --  -----
 72
    65
 73
     8
 40
13.54666666666667
 49
4.233333333333333
 74
     0
 49
-0.8466666666666667
 74
     0
 49
0.8466666666666667
 74
     0
 49
-0.8466666666666667
 74
     0
 49
4.233333333333333
 74
     0
 49
-0.8466666666666667
 74
     0
 49
0.8466666666666667
 74
     0
 49
-0.8466666666666667
 74
     0
  0
LTYPE
  5
70
330
5
100
AcDbSymbolTableRecord
100
AcDbLinetypeTableRecord
  2
JWW_DASHED1
 70
     0
  3
-  --  --  --  --  --  --  --  -
 72
    65
 73
    12
 40
10.16
 49
0.8466666666666667
 74
     0
 49
-0.8466666666666667
 74
     0
 49
0.8466666666666667
 74
     0
 49
-0.8466666666666667
 74
     0
 49
0.8466666666666667
 74
     0
 49
-0.8466666666666667
 74
     0
 49
0.8466666666666667
 74
     0
 49
-0.8466666666666667
 74
     0
 49
0.8466666666666667
 74
     0
 49
-0.8466666666666667
 74
     0
 49
0.8466666666666667
 74
     0
 49
-0.8466666666666667
 74
     0
  0
ENDTAB
  0
TABLE
  2
LAYER
  5
2
330
0
100
AcDbSymbolTable
 70
     8
  0
LAYER
  5
10
330
2
100
AcDbSymbolTableRecord
100
AcDbLayerTableRecord
  2
0
 70
     0
 62
     7
  6
Continuous
370
    -3
390
F
  0
LAYER
  5
71
330
2
100
AcDbSymbolTableRecord
100
AcDbLayerTableRecord
  2
D-0
 70
     0
 62
     7
  6
Continuous
370
    -3
390
F
  0
LAYER
  5
72
330
2
100
AcDbSymbolTableRecord
100
AcDbLayerTableRecord
  2
D-1
 70
     0
 62
     7
  6
Continuous
370
    -3
390
F
  0
LAYER
  5
73
330
2
100
AcDbSymbolTableRecord
100
AcDbLayerTableRecord
  2
D-2
 70
     0
 62
     7
  6
Continuous
370
    -3
390
F
  0
LAYER
  5
74
330
2
100
AcDbSymbolTableRecord
100
AcDbLayerTableRecord
  2
D-3
 70
     0
 62
     7
  6
Continuous
370
    -3
390
F
  0
LAYER
  5
75
330
2
100
AcDbSymbolTableRecord
100
AcDbLayerTableRecord
  2
D-5
 70
     0
 62
     7
  6
Continuous
370
    -3
390
F
  0
LAYER
  5
76
330
2
100
AcDbSymbolTableRecord
100
AcDbLayerTableRecord
  2
D-4
 70
     0
 62
     7
  6
Continuous
370
    -3
390
F
  0
LAYER
  5
77
330
2
100
AcDbSymbolTableRecord
100
AcDbLayerTableRecord
  2
F-5ﾚｲﾔ
 70
     0
 62
     7
  6
Continuous
370
    -3
390
F
  0
ENDTAB
  0
TABLE
  2
STYLE
  5
3
330
0
100
AcDbSymbolTable
 70
     2
  0
STYLE
  5
11
330
3
100
AcDbSymbolTableRecord
100
AcDbTextStyleTableRecord
  2
Standard
 70
     0
 40
0.0
 41
1.0
 50
0.0
 71
     0
 42
2.5
  3
txt
  4

  0
STYLE
  5
6E
330
3
100
AcDbSymbolTableRecord
100
AcDbTextStyleTableRecord
  2
ＭＳ ゴシック
 70
     0
 40
0.0
 41
1.0
 50
0.0
 71
     0
 42
2.5
  3

  4

1001
ACAD
1000
MS Gothic
1071
    32817
  0
ENDTAB
  0
TABLE
  2
VIEW
  5
6
330
0
100
AcDbSymbolTable
 70
     0
  0
ENDTAB
  0
TABLE
  2
UCS
  5
7
330
0
100
AcDbSymbolTable
 70
     0
  0
ENDTAB
  0
TABLE
  2
APPID
  5
9
330
0
100
AcDbSymbolTable
 70
     2
  0
APPID
  5
12
330
9
100
AcDbSymbolTableRecord
100
AcDbRegAppTableRecord
  2
ACAD
 70
     0
  0
APPID
  5
34C
330
9
100
AcDbSymbolTableRecord
100
AcDbRegAppTableRecord
  2
ACAD_MLEADERVER
 70
     0
  0
ENDTAB
  0
TABLE
  2
DIMSTYLE
  5
A
330
0
100
AcDbSymbolTable
 70
     2
100
AcDbDimStyleTable
  0
DIMSTYLE
105
27
330
A
100
AcDbSymbolTableRecord
100
AcDbDimStyleTableRecord
  2
ISO-25
 70
     0
 41
2.5
 42
0.625
 43
3.75
 44
1.25
 73
     0
 74
     0
 77
     1
 78
     8
140
2.5
141
2.5
143
0.03937007874016
147
0.625
171
     3
172
     1
178
     0
271
     2
272
     2
274
     3
278
    44
283
     0
284
     8
340
11
  0
DIMSTYLE
105
78
330
A
100
AcDbSymbolTableRecord
100
AcDbDimStyleTableRecord
  2
JWAC_DIMSTYLE
 70
     0
  3
x
  4
mm
 41
0.0
 42
0.625
 43
3.75
 44
1.25
 73
     0
 74
     0
 75
     1
 76
     1
 77
     1
 78
     8
140
2.5
141
2.5
143
0.03937007874016
147
0.625
171
     3
172
     1
173
     1
178
     0
271
     2
272
     2
274
     3
278
    32
283
     0
284
     8
340
11
371
     0
372
     0
  0
ENDTAB
  0
TABLE
  2
BLOCK_RECORD
  5
1
330
0
100
AcDbSymbolTable
 70
     1
  0
BLOCK_RECORD
  5
1F
330
1
100
AcDbSymbolTableRecord
100
AcDbBlockTableRecord
  2
*Model_Space
340
22
  0
BLOCK_RECORD
  5
1B
330
1
100
AcDbSymbolTableRecord
100
AcDbBlockTableRecord
  2
*Paper_Space
340
1E
  0
BLOCK_RECORD
  5
23
330
1
100
AcDbSymbolTableRecord
100
AcDbBlockTableRecord
  2
*Paper_Space0
340
26
  0
ENDTAB
  0
ENDSEC
  0
SECTION
  2
BLOCKS
  0
BLOCK
  5
20
330
1F
100
AcDbEntity
  8
0
100
AcDbBlockBegin
  2
*Model_Space
 70
     0
 10
0.0
 20
0.0
 30
0.0
  3
*Model_Space
  1

  0
ENDBLK
  5
21
330
1F
100
AcDbEntity
  8
0
100
AcDbBlockEnd
  0
BLOCK
  5
1C
330
1B
100
AcDbEntity
 67
     1
  8
0
100
AcDbBlockBegin
  2
*Paper_Space
 70
     0
 10
0.0
 20
0.0
 30
0.0
  3
*Paper_Space
  1

  0
ENDBLK
  5
1D
330
1B
100
AcDbEntity
 67
     1
  8
0
100
AcDbBlockEnd
  0
BLOCK
  5
24
330
23
100
AcDbEntity
  8
0
100
AcDbBlockBegin
  2
*Paper_Space0
 70
     0
 10
0.0
 20
0.0
 30
0.0
  3
*Paper_Space0
  1

  0
ENDBLK
  5
25
330
23
100
AcDbEntity
  8
0
100
AcDbBlockEnd
  0
ENDSEC
  0
SECTION
  2
ENTITIES
  0
LINE
  5
79
330
1F
100
AcDbEntity
  8
D-0
  6
Continuous
 62
     3
370
     9
100
AcDbLine
 10
-66.47778382292893
 20
40.73823987778148
 30
0.0
 11
-65.47792878142502
 21
40.73823987778148
 31
0.0
  0
LINE
  5
7A
330
1F
100
AcDbEntity
  8
D-0
  6
Continuous
 62
     3
370
     9
100
AcDbLine
 10
-64.4778753756633
 20
41.73810254867992
 30
0.0
 11
-62.47776856413986
 21
41.73810254867992
 31
0.0
  0
LINE
  5
7B
330
1F
100
AcDbEntity
  8
D-1
  6
Continuous
 62
     2
370
     9
100
AcDbLine
 10
-121.7137857913127
 20
79.18730603989086
 30
0.0
 11
-118.1053358553996
 21
79.18730603989086
 31
0.0
  0
LINE
  5
7C
330
1F
100
AcDbEntity
  8
D-1
  6
Continuous
 62
     2
370
     9
100
AcDbLine
 10
-120.5449244021526
 20
79.68733655746898
 30
0.0
 11
-121.0449530123821
 21
79.68733655746898
 31
0.0
  0
LINE
  5
7D
330
1F
100
AcDbEntity
  8
D-1
  6
Continuous
 62
     2
370
     9
100
AcDbLine
 10
-121.0449530123821
 20
79.68733655746898
 30
0.0
 11
-121.0449530123821
 21
78.68718396957836
 31
0.0
  0
LINE
  5
7E
330
1F
100
AcDbEntity
  8
D-1
  6
Continuous
 62
     2
370
     9
100
AcDbLine
 10
-121.0449530123821
 20
78.68718396957836
 30
0.0
 11
-120.5449244021526
 21
78.68718396957836
 31
0.0
  0
LINE
  5
7F
330
1F
100
AcDbEntity
  8
D-1
  6
Continuous
 62
     2
370
     9
100
AcDbLine
 10
-120.5449244021526
 20
79.68733655746898
 30
0.0
 11
-120.5449244021526
 21
82.18738233383617
 31
0.0
  0
LINE
  5
80
330
1F
100
AcDbEntity
  8
D-0
  6
Continuous
 62
     3
370
     9
100
AcDbLine
 10
-117.5449606417766
 20
38.18736707504711
 30
0.0
 11
-116.0448786257854
 21
38.18736707504711
 31
0.0
  0
LINE
  5
81
330
1F
100
AcDbEntity
  8
D-0
  6
Continuous
 62
     3
370
     9
100
AcDbLine
 10
-59.47780671111252
 20
41.73810254867992
 30
0.0
 11
-57.47779145232346
 21
41.73810254867992
 31
0.0
  0
LINE
  5
82
330
1F
100
AcDbEntity
  8
D-0
  6
Continuous
 62
     3
370
     9
100
AcDbLine
 10
-61.47781434050705
 20
40.73823987778148
 30
0.0
 11
-60.47786011687424
 21
40.73823987778148
 31
0.0
  0
LINE
  5
83
330
1F
100
AcDbEntity
  8
D-0
  6
Continuous
 62
     3
370
     9
100
AcDbLine
 10
-56.47783722869065
 20
40.73823987778148
 30
0.0
 11
-55.47778382292893
 21
40.73823987778148
 31
0.0
  0
LINE
  5
84
330
1F
100
AcDbEntity
  8
D-0
  6
Continuous
 62
     3
370
     9
100
AcDbLine
 10
-54.47792878142502
 20
41.73810254867992
 30
0.0
 11
-52.47782196990158
 21
41.73810254867992
 31
0.0
  0
LINE
  5
85
330
1F
100
AcDbEntity
  8
D-0
  6
Continuous
 62
     3
370
     9
100
AcDbLine
 10
-79.89765610686447
 20
41.73810254867992
 30
0.0
 11
-123.3007227419963
 21
36.92323743637523
 31
0.0
  0
LINE
  5
86
330
1F
100
AcDbEntity
  8
D-0
  6
Continuous
 62
     3
370
     9
100
AcDbLine
 10
-101.8604017733684
 20
36.57828199203929
 30
0.0
 11
-101.9156958102336
 21
37.07533704575023
 31
0.0
  0
LINE
  5
87
330
1F
100
AcDbEntity
  8
D-0
  6
Continuous
 62
     3
370
     9
100
AcDbLine
 10
-100.3696333407512
 20
36.74377881821117
 30
0.0
 11
-100.4247290133586
 21
37.24083387192211
 31
0.0
  0
LINE
  5
88
330
1F
100
AcDbEntity
  8
D-0
  6
Continuous
 62
     3
370
     9
100
AcDbLine
 10
-52.47603669158127
 20
41.74344312485179
 30
0.0
 11
-14.97593750945236
 21
38.74329053696117
 31
0.0
  0
LINE
  5
89
330
1F
100
AcDbEntity
  8
D-0
  6
Continuous
 62
     3
370
     9
100
AcDbLine
 10
-101.9156958102336
 20
37.07533704575023
 30
0.0
 11
-103.4064108370891
 21
36.90994703110179
 31
0.0
  0
LINE
  5
8A
330
1F
100
AcDbEntity
  8
D-0
  6
Continuous
 62
     3
370
     9
100
AcDbLine
 10
-100.3696333407512
 20
36.74377881821117
 30
0.0
 11
-101.8604017733684
 21
36.57828199203929
 31
0.0
  0
LINE
  5
8B
330
1F
100
AcDbEntity
  8
D-0
  6
Continuous
 62
     3
370
     9
100
AcDbLine
 10
-97.33984436980393
 20
37.13737928207836
 30
0.0
 11
-98.8306585787883
 21
36.97198926742992
 31
0.0
  0
LINE
  5
8C
330
1F
100
AcDbEntity
  8
D-0
  6
Continuous
 62
     3
370
     9
100
AcDbLine
 10
-98.88580384246018
 20
37.46873914535961
 30
0.0
 11
-100.3767210482707
 21
37.30345594223461
 31
0.0
  0
LINE
  5
8D
330
1F
100
AcDbEntity
  8
D-0
  6
Continuous
 62
     3
370
     9
100
AcDbLine
 10
-97.33984436980393
 20
37.13737928207836
 30
0.0
 11
-97.39503922454026
 21
37.63423597153148
 31
0.0
  0
LINE
  5
8E
330
1F
100
AcDbEntity
  8
D-0
  6
Continuous
 62
     3
370
     9
100
AcDbLine
 10
-98.8306585787883
 20
36.97198926742992
 30
0.0
 11
-98.88580384246018
 21
37.46873914535961
 31
0.0
  0
LINE
  5
8F
330
1F
100
AcDbEntity
  8
D-1
  6
Continuous
 62
     2
370
     9
100
AcDbLine
 10
-127.478118562614
 20
21.70273267563304
 30
0.0
 11
-127.478118562614
 21
27.20282422836742
 31
0.0
  0
LINE
  5
90
330
1F
100
AcDbEntity
  8
D-0
  6
Continuous
 62
     3
370
     9
100
AcDbLine
 10
-92.72420563689377
 20
38.23820936020336
 30
0.0
 11
-94.4824263095012
 21
38.04318677719554
 31
0.0
  0
LINE
  5
91
330
1F
100
AcDbEntity
  8
D-0
  6
Continuous
 62
     3
370
     9
100
AcDbLine
 10
-128.0450340746989
 20
83.18742811020336
 30
0.0
 11
-128.0450340746989
 21
92.68744336899242
 31
0.0
  0
LINE
  5
92
330
1F
100
AcDbEntity
  8
D-0
  6
Continuous
 62
     3
370
     9
100
AcDbLine
 10
-116.0448786257854
 20
47.68738233383617
 30
0.0
 11
-116.0448786257854
 21
62.68741285141429
 31
0.0
  0
LINE
  5
93
330
1F
100
AcDbEntity
  8
D-0
  6
Continuous
 62
     3
370
     9
100
AcDbLine
 10
-116.5449072360149
 20
46.68722974594554
 30
0.0
 11
-116.0448786257854
 21
46.68722974594554
 31
0.0
  0
LINE
  5
94
330
1F
100
AcDbEntity
  8
D-0
  6
Continuous
 62
     3
370
     9
100
AcDbLine
 10
-119.66274323455
 20
34.43509351547679
 30
0.0
 11
-119.7178884982219
 21
34.93204175766429
 31
0.0
  0
LINE
  5
95
330
1F
100
AcDbEntity
  8
D-0
  6
Continuous
 62
     3
370
     9
100
AcDbLine
 10
-118.1720263003459
 20
34.60057508285961
 30
0.0
 11
-118.2271219729533
 21
35.09743177231273
 31
0.0
  0
LINE
  5
96
330
1F
100
AcDbEntity
  8
D-0
  6
Continuous
 62
     3
370
     9
100
AcDbLine
 10
-119.7178884982219
 20
34.93204175766429
 30
0.0
 11
-121.2088533877483
 21
34.76665174301586
 31
0.0
  0
LINE
  5
97
330
1F
100
AcDbEntity
  8
D-0
  6
Continuous
 62
     3
370
     9
100
AcDbLine
 10
-118.1720263003459
 20
34.60057508285961
 30
0.0
 11
-119.66274323455
 21
34.43509351547679
 31
0.0
  0
LINE
  5
98
330
1F
100
AcDbEntity
  8
D-0
  6
Continuous
 62
     3
370
     9
100
AcDbLine
 10
-95.91576828948166
 20
37.35895215805492
 30
0.0
 11
-95.97091355315354
 21
37.85590040024242
 31
0.0
  0
LINE
  5
99
330
1F
100
AcDbEntity
  8
D-0
  6
Continuous
 62
     3
370
     9
100
AcDbLine
 10
-94.42499985686447
 20
37.52423536117992
 30
0.0
 11
-94.4824263095012
 21
38.04318677719554
 31
0.0
  0
LINE
  5
9A
330
1F
100
AcDbEntity
  8
D-0
  6
Continuous
 62
     3
370
     9
100
AcDbLine
 10
-95.97091355315354
 20
37.85590040024242
 30
0.0
 11
-97.46182694426682
 21
37.69041883285961
 31
0.0
  0
LINE
  5
9B
330
1F
100
AcDbEntity
  8
D-0
  6
Continuous
 62
     3
370
     9
100
AcDbLine
 10
-94.42499985686447
 20
37.52423536117992
 30
0.0
 11
-95.91576828948166
 21
37.35895215805492
 31
0.0
  0
LINE
  5
9C
330
1F
100
AcDbEntity
  8
D-0
  6
Continuous
 62
     3
370
     9
100
AcDbLine
 10
-116.5449072360149
 20
47.68738233383617
 30
0.0
 11
-116.5449072360149
 21
46.68722974594554
 31
0.0
  0
LINE
  5
9D
330
1F
100
AcDbEntity
  8
D-0
  6
Continuous
 62
     3
370
     9
100
AcDbLine
 10
-116.0448786257854
 20
47.68738233383617
 30
0.0
 11
-116.5449072360149
 21
47.68738233383617
 31
0.0
  0
LINE
  5
9E
330
1F
100
AcDbEntity
  8
D-0
  6
Continuous
 62
     3
370
     9
100
AcDbLine
 10
-92.72420563689377
 20
38.23820936020336
 30
0.0
 11
-34.70555176726486
 21
38.23820936020336
 31
0.0
  0
LINE
  5
9F
330
1F
100
AcDbEntity
  8
D-0
  6
Continuous
 62
     3
370
     9
100
AcDbLine
 10
-19.01940979949143
 20
36.66211377914867
 30
0.0
 11
-17.67124238005783
 21
36.55420362289867
 31
0.0
  0
LINE
  5
A0
330
1F
100
AcDbEntity
  8
D-0
  6
Continuous
 62
     3
370
     9
100
AcDbLine
 10
-17.71097626677658
 20
36.05586683090648
 30
0.0
 11
-16.21585144988205
 21
35.93625318344554
 31
0.0
  0
LINE
  5
A1
330
1F
100
AcDbEntity
  8
D-0
  6
Continuous
 62
     3
370
     9
100
AcDbLine
 10
-16.21585144988205
 20
35.93625318344554
 30
0.0
 11
-16.17620911589768
 21
36.43341504867992
 31
0.0
  0
LINE
  5
A2
330
1F
100
AcDbEntity
  8
D-0
  6
Continuous
 62
     3
370
     9
100
AcDbLine
 10
-17.71097626677658
 20
36.05586683090648
 30
0.0
 11
-17.67128815642502
 21
36.55281507309398
 31
0.0
  0
LINE
  5
A3
330
1F
100
AcDbEntity
  8
D-0
  6
Continuous
 62
     3
370
     9
100
AcDbLine
 10
-20.55001130095627
 20
36.33847486313304
 30
0.0
 11
-20.51027741423752
 21
36.83552991684398
 31
0.0
  0
LINE
  5
A4
330
1F
100
AcDbEntity
  8
D-0
  6
Continuous
 62
     3
370
     9
100
AcDbLine
 10
-19.05468811980393
 20
36.21907483871898
 30
0.0
 11
-19.01940979949143
 21
36.66211377914867
 31
0.0
  0
LINE
  5
A5
330
1F
100
AcDbEntity
  8
D-0
  6
Continuous
 62
     3
370
     9
100
AcDbLine
 10
-20.55001130095627
 20
36.33847486313304
 30
0.0
 11
-19.05468811980393
 21
36.21907483871898
 31
0.0
  0
LINE
  5
A6
330
1F
100
AcDbEntity
  8
D-0
  6
Continuous
 62
     3
370
     9
100
AcDbLine
 10
-21.77044739714768
 20
36.93779432114086
 30
0.0
 11
-20.51027741423752
 21
36.83722364242992
 31
0.0
  0
LINE
  5
A7
330
1F
100
AcDbEntity
  8
D-0
  6
Continuous
 62
     3
370
     9
100
AcDbLine
 10
-24.69708313933518
 20
37.22754346664867
 30
0.0
 11
-23.34901490203049
 21
37.11974012192211
 31
0.0
  0
LINE
  5
A8
330
1F
100
AcDbEntity
  8
D-0
  6
Continuous
 62
     3
370
     9
100
AcDbLine
 10
-23.38884797087815
 20
36.62118970688304
 30
0.0
 11
-21.80592408171799
 21
36.49484693344554
 31
0.0
  0
LINE
  5
A9
330
1F
100
AcDbEntity
  8
D-0
  6
Continuous
 62
     3
370
     9
100
AcDbLine
 10
-21.80592408171799
 20
36.49484693344554
 30
0.0
 11
-21.77044739714768
 21
36.93779432114086
 31
0.0
  0
LINE
  5
AA
330
1F
100
AcDbEntity
  8
D-0
  6
Continuous
 62
     3
370
     9
100
AcDbLine
 10
-23.38884797087815
 20
36.62118970688304
 30
0.0
 11
-23.34901490203049
 21
37.11854993637523
 31
0.0
  0
LINE
  5
AB
330
1F
100
AcDbEntity
  8
D-0
  6
Continuous
 62
     3
370
     9
100
AcDbLine
 10
-26.22768464080002
 20
36.90420972641429
 30
0.0
 11
-26.18804993621018
 21
37.40126478012523
 31
0.0
  0
LINE
  5
AC
330
1F
100
AcDbEntity
  8
D-0
  6
Continuous
 62
     3
370
     9
100
AcDbLine
 10
-24.7325140475383
 20
36.78439771469554
 30
0.0
 11
-24.69708313933518
 21
37.22754346664867
 31
0.0
  0
LINE
  5
AD
330
1F
100
AcDbEntity
  8
D-0
  6
Continuous
 62
     3
370
     9
100
AcDbLine
 10
-26.22768464080002
 20
36.90420972641429
 30
0.0
 11
-24.7325140475383
 21
36.78439771469554
 31
0.0
  0
LINE
  5
AE
330
1F
100
AcDbEntity
  8
D-0
  6
Continuous
 62
     3
370
     9
100
AcDbLine
 10
-27.53591980925705
 20
37.51025831039867
 30
0.0
 11
-26.18785157195236
 21
37.40234815414867
 31
0.0
  0
LINE
  5
AF
330
1F
100
AcDbEntity
  8
D-0
  6
Continuous
 62
     3
370
     9
100
AcDbLine
 10
-30.37476410857346
 20
37.79307996567211
 30
0.0
 11
-29.02668824187424
 21
37.68526136215648
 31
0.0
  0
LINE
  5
B0
330
1F
100
AcDbEntity
  8
D-0
  6
Continuous
 62
     3
370
     9
100
AcDbLine
 10
-29.0665213107219
 20
37.18692457016429
 30
0.0
 11
-27.57139649382736
 21
37.06721936996898
 31
0.0
  0
LINE
  5
B1
330
1F
100
AcDbEntity
  8
D-0
  6
Continuous
 62
     3
370
     9
100
AcDbLine
 10
-27.57139649382736
 20
37.06721936996898
 30
0.0
 11
-27.53156342497971
 21
37.56416761215648
 31
0.0
  0
LINE
  5
B2
330
1F
100
AcDbEntity
  8
D-0
  6
Continuous
 62
     3
370
     9
100
AcDbLine
 10
-29.0665213107219
 20
37.18692457016429
 30
0.0
 11
-29.02688660613205
 21
37.68397962387523
 31
0.0
  0
LINE
  5
B3
330
1F
100
AcDbEntity
  8
D-0
  6
Continuous
 62
     3
370
     9
100
AcDbLine
 10
-31.90566315642502
 20
37.46963941391429
 30
0.0
 11
-31.86572327605393
 21
37.96669446762523
 31
0.0
  0
LINE
  5
B4
330
1F
100
AcDbEntity
  8
D-0
  6
Continuous
 62
     3
370
     9
100
AcDbLine
 10
-30.41023316374924
 20
37.34982740219554
 30
0.0
 11
-30.3705984591594
 21
37.84708082016429
 31
0.0
  0
LINE
  5
B5
330
1F
100
AcDbEntity
  8
D-0
  6
Continuous
 62
     3
370
     9
100
AcDbLine
 10
-31.90566315642502
 20
37.46963941391429
 30
0.0
 11
-30.41023316374924
 21
37.34982740219554
 31
0.0
  0
LINE
  5
B6
330
1F
100
AcDbEntity
  8
D-0
  6
Continuous
 62
     3
370
     9
100
AcDbLine
 10
-33.21389832488205
 20
38.07579480942211
 30
0.0
 11
-31.86572327605393
 21
37.96797620590648
 31
0.0
  0
LINE
  5
B7
330
1F
100
AcDbEntity
  8
D-0
  6
Continuous
 62
     3
370
     9
100
AcDbLine
 10
-116.0448786257854
 20
63.68726026352367
 30
0.0
 11
-116.0448786257854
 21
78.68718396957836
 31
0.0
  0
LINE
  5
B8
330
1F
100
AcDbEntity
  8
D-0
  6
Continuous
 62
     3
370
     9
100
AcDbLine
 10
-34.74440064421799
 20
37.75215589340648
 30
0.0
 11
-33.24907746306565
 21
37.63284742172679
 31
0.0
  0
LINE
  5
B9
330
1F
100
AcDbEntity
  8
D-0
  6
Continuous
 62
     3
370
     9
100
AcDbLine
 10
-33.24907746306565
 20
37.63284742172679
 30
0.0
 11
-33.21389832488205
 21
38.07579480942211
 31
0.0
  0
LINE
  5
BA
330
1F
100
AcDbEntity
  8
D-0
  6
Continuous
 62
     3
370
     9
100
AcDbLine
 10
-34.74440064421799
 20
37.75215589340648
 30
0.0
 11
-34.7045599459758
 21
38.24921094711742
 31
0.0
  0
LINE
  5
BB
330
1F
100
AcDbEntity
  8
D-0
  6
Continuous
 62
     3
370
     9
100
AcDbLine
 10
-116.5449072360149
 20
62.68741285141429
 30
0.0
 11
-116.0448786257854
 21
62.68741285141429
 31
0.0
  0
LINE
  5
BC
330
1F
100
AcDbEntity
  8
D-1
  6
Continuous
 62
     2
370
     9
100
AcDbLine
 10
-120.5449244021526
 20
77.68742811020336
 30
0.0
 11
-120.5449244021526
 21
78.68718396957836
 31
0.0
  0
LINE
  5
BD
330
1F
100
AcDbEntity
  8
D-1
  6
Continuous
 62
     2
370
     9
100
AcDbLine
 10
-121.0449530123821
 20
76.68727552231273
 30
0.0
 11
-120.5449244021526
 21
76.68727552231273
 31
0.0
  0
LINE
  5
BE
330
1F
100
AcDbEntity
  8
D-1
  6
Continuous
 62
     2
370
     9
100
AcDbLine
 10
-121.0449530123821
 20
77.68742811020336
 30
0.0
 11
-121.0449530123821
 21
76.68727552231273
 31
0.0
  0
LINE
  5
BF
330
1F
100
AcDbEntity
  8
D-1
  6
Continuous
 62
     2
370
     9
100
AcDbLine
 10
-120.5449244021526
 20
77.68742811020336
 30
0.0
 11
-121.0449530123821
 21
77.68742811020336
 31
0.0
  0
LINE
  5
C0
330
1F
100
AcDbEntity
  8
D-0
  6
Continuous
 62
     3
370
     9
100
AcDbLine
 10
-116.5449072360149
 20
63.68726026352367
 30
0.0
 11
-116.5449072360149
 21
62.68741285141429
 31
0.0
  0
LINE
  5
C1
330
1F
100
AcDbEntity
  8
D-0
  6
Continuous
 62
     3
370
     9
100
AcDbLine
 10
9.198920583809354
 20
30.39978467758617
 30
0.0
 11
11.19908843048904
 21
30.39978467758617
 31
0.0
  0
LINE
  5
C2
330
1F
100
AcDbEntity
  8
D-0
  6
Continuous
 62
     3
370
     9
100
AcDbLine
 10
-116.0448786257854
 20
63.68726026352367
 30
0.0
 11
-116.5449072360149
 21
63.68726026352367
 31
0.0
  0
LINE
  5
C3
330
1F
100
AcDbEntity
  8
D-0
  6
Continuous
 62
     3
370
     9
100
AcDbLine
 10
-126.5448538302531
 20
84.1825300389143
 30
0.0
 11
-126.5448538302531
 21
91.6872907811018
 31
0.0
  0
LINE
  5
C4
330
1F
100
AcDbEntity
  8
D-0
  6
Continuous
 62
     3
370
     9
100
AcDbLine
 10
-116.0448786257854
 20
79.68733655746898
 30
0.0
 11
-116.0448786257854
 21
92.68744336899242
 31
0.0
  0
LINE
  5
C5
330
1F
100
AcDbEntity
  8
D-0
  6
Continuous
 62
     3
370
     9
100
AcDbLine
 10
-126.0456186770549
 20
83.68329297836742
 30
0.0
 11
-126.5456472872844
 21
84.18332349594554
 31
0.0
  0
LINE
  5
C6
330
1F
100
AcDbEntity
  8
D-0
  6
Continuous
 62
     3
370
     9
100
AcDbLine
 10
-126.5456472872844
 20
83.18336927231273
 30
0.0
 11
-126.0456186770549
 21
83.68329297836742
 31
0.0
  0
LINE
  5
C7
330
1F
100
AcDbEntity
  8
D-0
  6
Continuous
 62
     3
370
     9
100
AcDbLine
 10
-126.0456186770549
 20
82.68344556625804
 30
0.0
 11
-126.5456472872844
 21
83.18336927231273
 31
0.0
  0
LINE
  5
C8
330
1F
100
AcDbEntity
  8
D-0
  6
Continuous
 62
     3
370
     9
100
AcDbLine
 10
-126.5456472872844
 20
82.18341504867992
 30
0.0
 11
-126.0456186770549
 21
82.68344556625804
 31
0.0
  0
LINE
  5
C9
330
1F
100
AcDbEntity
  8
D-0
  6
Continuous
 62
     3
370
     9
100
AcDbLine
 10
-126.0456186770549
 20
81.68329297836742
 30
0.0
 11
-126.5456472872844
 21
82.18341504867992
 31
0.0
  0
LINE
  5
CA
330
1F
100
AcDbEntity
  8
D-0
  6
Continuous
 62
     3
370
     9
100
AcDbLine
 10
-126.5456472872844
 20
81.1834608250471
 30
0.0
 11
-126.0456186770549
 21
81.68329297836742
 31
0.0
  0
LINE
  5
CB
330
1F
100
AcDbEntity
  8
D-0
  6
Continuous
 62
     3
370
     9
100
AcDbLine
 10
-126.0456186770549
 20
80.68343030746898
 30
0.0
 11
-126.5456472872844
 21
81.1834608250471
 31
0.0
  0
LINE
  5
CC
330
1F
100
AcDbEntity
  8
D-0
  6
Continuous
 62
     3
370
     9
100
AcDbLine
 10
-116.5449072360149
 20
78.68718396957836
 30
0.0
 11
-116.0448786257854
 21
78.68718396957836
 31
0.0
  0
LINE
  5
CD
330
1F
100
AcDbEntity
  8
D-0
  6
Continuous
 62
     3
370
     9
100
AcDbLine
 10
-126.5456472872844
 20
80.18330823715648
 30
0.0
 11
-126.0456186770549
 21
80.68343030746898
 31
0.0
  0
LINE
  5
CE
330
1F
100
AcDbEntity
  8
D-0
  6
Continuous
 62
     3
370
     9
100
AcDbLine
 10
-126.0456186770549
 20
79.68327771957836
 30
0.0
 11
-126.5456472872844
 21
80.18330823715648
 31
0.0
  0
LINE
  5
CF
330
1F
100
AcDbEntity
  8
D-0
  6
Continuous
 62
     3
370
     9
100
AcDbLine
 10
-126.5456472872844
 20
79.18355237778148
 30
0.0
 11
-126.0456186770549
 21
79.68327771957836
 31
0.0
  0
LINE
  5
D0
330
1F
100
AcDbEntity
  8
D-0
  6
Continuous
 62
     3
370
     9
100
AcDbLine
 10
-116.5449072360149
 20
79.68733655746898
 30
0.0
 11
-116.5449072360149
 21
78.68718396957836
 31
0.0
  0
LINE
  5
D1
330
1F
100
AcDbEntity
  8
D-0
  6
Continuous
 62
     3
370
     9
100
AcDbLine
 10
-116.0448786257854
 20
79.68733655746898
 30
0.0
 11
-116.5449072360149
 21
79.68733655746898
 31
0.0
  0
LINE
  5
D2
330
1F
100
AcDbEntity
  8
D-1
  6
Continuous
 62
     2
370
     9
100
AcDbLine
 10
-119.5448709963908
 20
84.1872907811018
 30
0.0
 11
-119.5448709963908
 21
89.68719922836742
 31
0.0
  0
LINE
  5
D3
330
1F
100
AcDbEntity
  8
D-0
  6
Continuous
 62
     3
370
     9
100
AcDbLine
 10
-128.5449615954509
 20
82.18738233383617
 30
0.0
 11
-128.0450340746989
 21
82.18738233383617
 31
0.0
  0
LINE
  5
D4
330
1F
100
AcDbEntity
  8
D-1
  6
Continuous
 62
     2
370
     9
100
AcDbLine
 10
-119.5448709963908
 20
86.92087232407054
 30
0.0
 11
-119.0449930667033
 21
86.92087232407054
 31
0.0
  0
LINE
  5
D5
330
1F
100
AcDbEntity
  8
D-0
  6
Continuous
 62
     3
370
     9
100
AcDbLine
 10
-128.5449615954509
 20
83.18742811020336
 30
0.0
 11
-128.5449615954509
 21
82.18738233383617
 31
0.0
  0
LINE
  5
D6
330
1F
100
AcDbEntity
  8
D-0
  6
Continuous
 62
     3
370
     9
100
AcDbLine
 10
-116.0448786257854
 20
38.18736707504711
 30
0.0
 11
-116.0448786257854
 21
46.68722974594554
 31
0.0
  0
LINE
  5
D7
330
1F
100
AcDbEntity
  8
D-1
  6
Continuous
 62
     2
370
     9
100
AcDbLine
 10
-116.8530889987102
 20
21.70273267563304
 30
0.0
 11
-127.478118562614
 21
21.70273267563304
 31
0.0
  0
LINE
  5
D8
330
1F
100
AcDbEntity
  8
D-1
  6
Continuous
 62
     2
370
     9
100
AcDbLine
 10
-125.4781595706096
 20
27.20282422836742
 30
0.0
 11
-125.4781595706096
 21
23.45271741684398
 31
0.0
  0
LINE
  5
D9
330
1F
100
AcDbEntity
  8
D-1
  6
Continuous
 62
     2
370
     9
100
AcDbLine
 10
-125.4781595706096
 20
23.45271741684398
 30
0.0
 11
-116.8530889987102
 21
23.45271741684398
 31
0.0
  0
LINE
  5
DA
330
1F
100
AcDbEntity
  8
D-1
  6
Continuous
 62
     2
370
     9
100
AcDbLine
 10
-119.0449930667033
 20
86.92087232407054
 30
0.0
 11
-119.5448709963908
 21
87.78696119125804
 31
0.0
  0
LINE
  5
DB
330
1F
100
AcDbEntity
  8
D-1
  6
Continuous
 62
     2
370
     9
100
AcDbLine
 10
-117.6949392794719
 20
72.18733655746898
 30
0.0
 11
-117.6949392794719
 21
74.18733655746898
 31
0.0
  0
LINE
  5
DC
330
1F
100
AcDbEntity
  8
D-1
  6
Continuous
 62
     2
370
     9
100
AcDbLine
 10
-122.5449835299602
 20
74.18733655746898
 30
0.0
 11
-122.5449835299602
 21
89.68719922836742
 31
0.0
  0
LINE
  5
DD
330
1F
100
AcDbEntity
  8
D-1
  6
Continuous
 62
     2
370
     9
100
AcDbLine
 10
-122.5449835299602
 20
74.18733655746898
 30
0.0
 11
-130.978209161674
 21
74.18733655746898
 31
0.0
  0
LINE
  5
DE
330
1F
100
AcDbEntity
  8
D-1
  6
Continuous
 62
     2
370
     9
100
AcDbLine
 10
-117.6949392794719
 20
72.18733655746898
 30
0.0
 11
-128.9780022143474
 21
72.18733655746898
 31
0.0
  0
LINE
  5
DF
330
1F
100
AcDbEntity
  8
D-0
  6
Continuous
 62
     3
370
     9
100
AcDbLine
 10
-128.0225397585979
 20
92.71588575180492
 30
0.0
 11
-128.0225397585979
 21
84.83119642075023
 31
0.0
  0
LINE
  5
E0
330
1F
100
AcDbEntity
  8
D-0
  6
Continuous
 62
     3
370
     9
100
AcDbLine
 10
-128.8287664889446
 20
92.7280622654768
 30
0.0
 11
-128.0238777636638
 21
92.7280622654768
 31
0.0
  0
LINE
  5
E1
330
1F
100
AcDbEntity
  8
D-0
  6
Continuous
 62
     3
370
     9
100
AcDbLine
 10
-128.8226725100627
 20
92.71588575180492
 30
0.0
 11
-128.8226725100627
 21
84.83119642075023
 31
0.0
  0
LINE
  5
E2
330
1F
100
AcDbEntity
  8
D-0
  6
Continuous
 62
     3
370
     9
100
AcDbLine
 10
-128.8387753008952
 20
84.83130323227367
 30
0.0
 11
-128.0205084323039
 21
84.83130323227367
 31
0.0
  0
LINE
  5
E3
330
1F
100
AcDbEntity
  8
D-0
  6
Continuous
 62
     3
370
     9
100
AcDbLine
 10
-128.8253971575847
 20
85.75287305649242
 30
0.0
 11
-130.1193138598552
 21
85.4802595311018
 31
0.0
  0
LINE
  5
E4
330
1F
100
AcDbEntity
  8
D-0
  6
Continuous
 62
     3
370
     9
100
AcDbLine
 10
-130.1193138598552
 20
85.4802595311018
 30
0.0
 11
-130.9642368792644
 21
84.81137525375804
 31
0.0
  0
LINE
  5
E5
330
1F
100
AcDbEntity
  8
D-0
  6
Continuous
 62
     3
370
     9
100
AcDbLine
 10
-128.8253971575847
 20
86.79394971664867
 30
0.0
 11
-129.8199020861736
 21
86.71735059555492
 31
0.0
  0
LINE
  5
E6
330
1F
100
AcDbEntity
  8
D-0
  6
Continuous
 62
     3
370
     9
100
AcDbLine
 10
-129.8698460101238
 20
86.71735059555492
 30
0.0
 11
-130.9875732897868
 21
86.22514783676586
 31
0.0
  0
LINE
  5
E7
330
1F
100
AcDbEntity
  8
D-0
  6
Continuous
 62
     3
370
     9
100
AcDbLine
 10
-128.8253971575847
 20
87.80856763657054
 30
0.0
 11
-129.5971399783244
 21
87.80856763657054
 31
0.0
  0
LINE
  5
E8
330
1F
100
AcDbEntity
  8
D-0
  6
Continuous
 62
     3
370
     9
100
AcDbLine
 10
-129.5971399783244
 20
87.80856763657054
 30
0.0
 11
-130.9875732897868
 21
87.5856062107893
 31
0.0
  0
LINE
  5
E9
330
1F
100
AcDbEntity
  8
D-0
  6
Continuous
 62
     3
370
     9
100
AcDbLine
 10
-128.8253971575847
 20
88.67334424789867
 30
0.0
 11
-130.9875732897868
 21
88.67334424789867
 31
0.0
  0
LINE
  5
EA
330
1F
100
AcDbEntity
  8
D-0
  6
Continuous
 62
     3
370
     9
100
AcDbLine
 10
-128.8253971575847
 20
89.56479322250804
 30
0.0
 11
-129.7968136309734
 21
89.56479322250804
 31
0.0
  0
LINE
  5
EB
330
1F
100
AcDbEntity
  8
D-0
  6
Continuous
 62
     3
370
     9
100
AcDbLine
 10
-129.8199020861736
 20
89.56479322250804
 30
0.0
 11
-130.9875732897868
 21
89.91074048813304
 31
0.0
  0
LINE
  5
EC
330
1F
100
AcDbEntity
  8
D-0
  6
Continuous
 62
     3
370
     9
100
AcDbLine
 10
-128.8521524905315
 20
90.3564802342268
 30
0.0
 11
-129.8466078280559
 21
90.4296003514143
 31
0.0
  0
LINE
  5
ED
330
1F
100
AcDbEntity
  8
D-0
  6
Continuous
 62
     3
370
     9
100
AcDbLine
 10
-129.9197393893352
 20
90.45624219711742
 30
0.0
 11
-131.0141798495403
 21
91.07489454086742
 31
0.0
  0
LINE
  5
EE
330
1F
100
AcDbEntity
  8
D-0
  6
Continuous
 62
     3
370
     9
100
AcDbLine
 10
-128.8253971575847
 20
91.37079297836742
 30
0.0
 11
-129.8965021609416
 21
91.5704694920393
 31
0.0
  0
LINE
  5
EF
330
1F
100
AcDbEntity
  8
D-0
  6
Continuous
 62
     3
370
     9
100
AcDbLine
 10
-129.9197393893352
 20
91.54379712875804
 30
0.0
 11
-130.9642368792644
 21
92.2622419529768
 31
0.0
  0
LINE
  5
F0
330
1F
100
AcDbEntity
  8
D-1
  6
Continuous
 62
     2
370
     9
100
AcDbLine
 10
-117.6949392794719
 20
74.18733655746898
 30
0.0
 11
-120.5449244021526
 21
74.18733655746898
 31
0.0
  0
LINE
  5
F1
330
1F
100
AcDbEntity
  8
D-1
  6
Continuous
 62
     2
370
     9
100
AcDbLine
 10
-120.5449244021526
 20
74.18733655746898
 30
0.0
 11
-120.5449244021526
 21
76.68727552231273
 31
0.0
  0
LINE
  5
F2
330
1F
100
AcDbEntity
  8
D-0
  6
Continuous
 62
     3
370
     9
100
AcDbLine
 10
-128.0450340746989
 20
83.18742811020336
 30
0.0
 11
-128.5449615954509
 21
83.18742811020336
 31
0.0
  0
LINE
  5
F3
330
1F
100
AcDbEntity
  8
D-0
  6
Continuous
 62
     3
370
     9
100
AcDbLine
 10
-14.97232117644455
 20
41.71976148422679
 30
0.0
 11
-15.97267212859299
 21
40.72000562485179
 31
0.0
  0
LINE
  5
F4
330
1F
100
AcDbEntity
  8
D-0
  6
Continuous
 62
     3
370
     9
100
AcDbLine
 10
-8.972496652518771
 20
40.72000562485179
 30
0.0
 11
-9.972649240409396
 21
41.72006666000804
 31
0.0
  0
LINE
  5
F5
330
1F
100
AcDbEntity
  8
D-0
  6
Continuous
 62
     3
370
     9
100
AcDbLine
 10
-3.972618722831271
 20
40.72000562485179
 30
0.0
 11
-8.972496652518771
 21
40.72000562485179
 31
0.0
  0
LINE
  5
F6
330
1F
100
AcDbEntity
  8
D-0
  6
Continuous
 62
     3
370
     9
100
AcDbLine
 10
-14.97261872283127
 20
41.72006666000804
 30
0.0
 11
-9.972649240409396
 21
41.72006666000804
 31
0.0
  0
LINE
  5
F7
330
1F
100
AcDbEntity
  8
D-0
  6
Continuous
 62
     3
370
     9
100
AcDbLine
 10
-2.972557687675021
 20
41.72006666000804
 30
0.0
 11
2.027503347481229
 21
41.72006666000804
 31
0.0
  0
LINE
  5
F8
330
1F
100
AcDbEntity
  8
D-0
  6
Continuous
 62
     3
370
     9
100
AcDbLine
 10
8.027442312324979
 20
40.72000562485179
 30
0.0
 11
3.027259206856229
 21
40.72000562485179
 31
0.0
  0
LINE
  5
F9
330
1F
100
AcDbEntity
  8
D-0
  6
Continuous
 62
     3
370
     9
100
AcDbLine
 10
3.027259206856229
 20
40.72000562485179
 30
0.0
 11
2.027503347481229
 21
41.72006666000804
 31
0.0
  0
LINE
  5
FA
330
1F
100
AcDbEntity
  8
D-0
  6
Continuous
 62
     3
370
     9
100
AcDbLine
 10
-2.972557687675021
 20
41.72006666000804
 30
0.0
 11
-3.972618722831271
 21
40.72000562485179
 31
0.0
  0
LINE
  5
FB
330
1F
100
AcDbEntity
  8
D-0
  6
Continuous
 62
     3
370
     9
100
AcDbLine
 10
9.027396535957791
 20
41.72006666000804
 30
0.0
 11
8.027442312324979
 21
40.72000562485179
 31
0.0
  0
LINE
  5
FC
330
1F
100
AcDbEntity
  8
D-0
  6
Continuous
 62
     3
370
     9
100
AcDbLine
 10
15.02742705353592
 20
40.72000562485179
 30
0.0
 11
14.02727446564529
 21
41.72006666000804
 31
0.0
  0
LINE
  5
FD
330
1F
100
AcDbEntity
  8
D-0
  6
Continuous
 62
     3
370
     9
100
AcDbLine
 10
20.02748808869217
 20
40.72000562485179
 30
0.0
 11
15.02742705353592
 21
40.72000562485179
 31
0.0
  0
LINE
  5
FE
330
1F
100
AcDbEntity
  8
D-0
  6
Continuous
 62
     3
370
     9
100
AcDbLine
 10
9.027396535957791
 20
41.72006666000804
 30
0.0
 11
14.02727446564529
 21
41.72006666000804
 31
0.0
  0
LINE
  5
FF
330
1F
100
AcDbEntity
  8
D-0
  6
Continuous
 62
     3
370
     9
100
AcDbLine
 10
21.02754912384842
 20
41.72006666000804
 30
0.0
 11
26.0274728299031
 21
41.72006666000804
 31
0.0
  0
LINE
  5
100
330
1F
100
AcDbEntity
  8
D-0
  6
Continuous
 62
     3
370
     9
100
AcDbLine
 10
32.02754912384842
 20
40.72000562485179
 30
0.0
 11
27.0274728299031
 21
40.72000562485179
 31
0.0
  0
LINE
  5
101
330
1F
100
AcDbEntity
  8
D-0
  6
Continuous
 62
     3
370
     9
100
AcDbLine
 10
27.0274728299031
 20
40.72000562485179
 30
0.0
 11
26.0274728299031
 21
41.72006666000804
 31
0.0
  0
LINE
  5
102
330
1F
100
AcDbEntity
  8
D-0
  6
Continuous
 62
     3
370
     9
100
AcDbLine
 10
21.02754912384842
 20
41.72006666000804
 30
0.0
 11
20.02748808869217
 21
40.72000562485179
 31
0.0
  0
LINE
  5
103
330
1F
100
AcDbEntity
  8
D-0
  6
Continuous
 62
     3
370
     9
100
AcDbLine
 10
33.02750334748123
 20
41.72006666000804
 30
0.0
 11
32.02754912384842
 21
40.72000562485179
 31
0.0
  0
LINE
  5
104
330
1F
100
AcDbEntity
  8
D-0
  6
Continuous
 62
     3
370
     9
100
AcDbLine
 10
39.02753386505935
 20
40.72000562485179
 30
0.0
 11
38.0274728299031
 21
41.72006666000804
 31
0.0
  0
LINE
  5
105
330
1F
100
AcDbEntity
  8
D-0
  6
Continuous
 62
     3
370
     9
100
AcDbLine
 10
44.02741179474685
 20
40.72000562485179
 30
0.0
 11
39.02753386505935
 21
40.72000562485179
 31
0.0
  0
LINE
  5
106
330
1F
100
AcDbEntity
  8
D-0
  6
Continuous
 62
     3
370
     9
100
AcDbLine
 10
45.02736601837967
 20
41.72006666000804
 30
0.0
 11
44.02741179474685
 21
40.72000562485179
 31
0.0
  0
LINE
  5
107
330
1F
100
AcDbEntity
  8
D-0
  6
Continuous
 62
     3
370
     9
100
AcDbLine
 10
-15.97267212859299
 20
38.72000562485179
 30
0.0
 11
-15.97267212859299
 21
40.72000562485179
 31
0.0
  0
LINE
  5
108
330
1F
100
AcDbEntity
  8
D-0
  6
Continuous
 62
     3
370
     9
100
AcDbLine
 10
33.02750334748123
 20
41.72006666000804
 30
0.0
 11
38.0274728299031
 21
41.72006666000804
 31
0.0
  0
LINE
  5
109
330
1F
100
AcDbEntity
  8
D-1
  6
Continuous
 62
     2
370
     9
100
AcDbLine
 10
-130.978209161674
 20
27.20282422836742
 30
0.0
 11
-127.478118562614
 21
27.20282422836742
 31
0.0
  0
LINE
  5
10A
330
1F
100
AcDbEntity
  8
D-1
  6
Continuous
 62
     2
370
     9
100
AcDbLine
 10
-113.9781309603801
 20
28.20268689926586
 30
0.0
 11
-113.9781309603801
 21
34.20271741684398
 31
0.0
  0
LINE
  5
10B
330
1F
100
AcDbEntity
  8
D-1
  6
Continuous
 62
     2
370
     9
100
AcDbLine
 10
-115.9780413149944
 20
30.20279371078929
 30
0.0
 11
-115.9780413149944
 21
34.20271741684398
 31
0.0
  0
LINE
  5
10C
330
1F
100
AcDbEntity
  8
D-1
  6
Continuous
 62
     2
370
     9
100
AcDbLine
 10
-128.9780022143474
 20
30.20279371078929
 30
0.0
 11
-115.9780413149944
 21
30.20279371078929
 31
0.0
  0
LINE
  5
10D
330
1F
100
AcDbEntity
  8
D-0
  6
Continuous
 62
     3
370
     9
100
AcDbLine
 10
49.52750334748123
 20
38.72000562485179
 30
0.0
 11
-15.97267212859299
 21
38.72000562485179
 31
0.0
  0
LINE
  5
10E
330
1F
100
AcDbEntity
  8
D-0
  6
Continuous
 62
     3
370
     9
100
AcDbLine
 10
-126.5448538302531
 20
78.93739759262523
 30
0.0
 11
-126.5448538302531
 21
79.1842390232893
 31
0.0
  0
LINE
  5
10F
330
1F
100
AcDbEntity
  8
D-0
  6
Continuous
 62
     3
370
     9
100
AcDbLine
 10
-116.5449072360149
 20
93.1871687107893
 30
0.0
 11
-127.5449081896892
 21
93.1871687107893
 31
0.0
  0
LINE
  5
110
330
1F
100
AcDbEntity
  8
D-0
  6
Continuous
 62
     3
370
     9
100
AcDbLine
 10
-128.0450340746989
 20
78.93739759262523
 30
0.0
 11
-128.0450340746989
 21
82.18738233383617
 31
0.0
  0
LINE
  5
111
330
1F
100
AcDbEntity
  8
D-0
  6
Continuous
 62
     3
370
     9
100
AcDbLine
 10
-117.5449606417766
 20
91.6872907811018
 30
0.0
 11
-126.5448538302531
 21
91.6872907811018
 31
0.0
  0
LINE
  5
112
330
1F
100
AcDbEntity
  8
D-1
  6
Continuous
 62
     2
370
     9
100
AcDbLine
 10
-121.7137857913127
 20
77.18730603989086
 30
0.0
 11
-118.1053358553996
 21
77.18730603989086
 31
0.0
  0
LINE
  5
113
330
1F
100
AcDbEntity
  8
D-1
  6
Continuous
 62
     2
370
     9
100
AcDbLine
 10
-117.5449606417766
 20
84.1872907811018
 30
0.0
 11
-119.5448709963908
 21
84.1872907811018
 31
0.0
  0
LINE
  5
114
330
1F
100
AcDbEntity
  8
D-1
  6
Continuous
 62
     2
370
     9
100
AcDbLine
 10
-117.5449606417766
 20
82.18738233383617
 30
0.0
 11
-120.5449244021526
 21
82.18738233383617
 31
0.0
  0
LINE
  5
115
330
1F
100
AcDbEntity
  8
D-1
  6
Continuous
 62
     2
370
     9
100
AcDbLine
 10
-3.467583322440646
 20
14.72008191879711
 30
0.0
 11
56.03241667755935
 21
14.72008191879711
 31
0.0
  0
LINE
  5
116
330
1F
100
AcDbEntity
  8
D-1
  6
Continuous
 62
     2
370
     9
100
AcDbLine
 10
-3.467583322440646
 20
30.22012769516429
 30
0.0
 11
-3.467583322440646
 21
14.72008191879711
 31
0.0
  0
LINE
  5
117
330
1F
100
AcDbEntity
  8
D-1
  6
Continuous
 62
     2
370
     9
100
AcDbLine
 10
-11.96770539275315
 20
30.22012769516429
 30
0.0
 11
-3.467583322440646
 21
30.22012769516429
 31
0.0
  0
LINE
  5
118
330
1F
100
AcDbEntity
  8
D-1
  6
Continuous
 62
     2
370
     9
100
AcDbLine
 10
-11.96770539275315
 20
33.91058790024242
 30
0.0
 11
-11.96770539275315
 21
30.22012769516429
 31
0.0
  0
LINE
  5
119
330
1F
100
AcDbEntity
  8
D-1
  6
Continuous
 62
     2
370
     9
100
AcDbLine
 10
-14.9677664279094
 20
28.21992933090648
 30
0.0
 11
-14.9677664279094
 21
33.91058790024242
 31
0.0
  0
LINE
  5
11A
330
1F
100
AcDbEntity
  8
D-1
  6
Continuous
 62
     2
370
     9
100
AcDbLine
 10
-6.467598581229709
 20
27.21986829575023
 30
0.0
 11
-13.96761384001877
 21
27.21986829575023
 31
0.0
  0
LINE
  5
11B
330
1F
100
AcDbEntity
  8
D-1
  6
Continuous
 62
     2
370
     9
100
AcDbLine
 10
-6.467598581229709
 20
23.47006666000804
 30
0.0
 11
-6.467598581229709
 21
27.21986829575023
 31
0.0
  0
LINE
  5
11C
330
1F
100
AcDbEntity
  8
D-1
  6
Continuous
 62
     2
370
     9
100
AcDbLine
 10
-14.09772553435471
 20
23.47006666000804
 30
0.0
 11
-6.467598581229709
 21
23.47006666000804
 31
0.0
  0
LINE
  5
11D
330
1F
100
AcDbEntity
  8
D-1
  6
Continuous
 62
     2
370
     9
100
AcDbLine
 10
-6.472557687675021
 20
21.72006666000804
 30
0.0
 11
-14.09772553435471
 21
21.72006666000804
 31
0.0
  0
LINE
  5
11E
330
1F
100
AcDbEntity
  8
D-1
  6
Continuous
 62
     2
370
     9
100
AcDbLine
 10
-6.472557687675021
 20
11.72002088364086
 30
0.0
 11
-6.472557687675021
 21
21.72006666000804
 31
0.0
  0
LINE
  5
11F
330
1F
100
AcDbEntity
  8
D-2
  6
Continuous
 62
     4
370
     9
100
AcDbLine
 10
-6.467598581229709
 20
25.34511243637523
 30
0.0
 11
-8.342751169120334
 21
23.47006666000804
 31
0.0
  0
LINE
  5
120
330
1F
100
AcDbEntity
  8
D-2
  6
Continuous
 62
     4
370
     9
100
AcDbLine
 10
-8.342751169120334
 20
27.21986829575023
 30
0.0
 11
-6.467598581229709
 21
25.34511243637523
 31
0.0
  0
LINE
  5
121
330
1F
100
AcDbEntity
  8
D-2
  6
Continuous
 62
     4
370
     9
100
AcDbLine
 10
-17.96762909880783
 20
16.89510022934398
 30
0.0
 11
-17.96762909880783
 21
22.89502393539867
 31
0.0
  0
LINE
  5
122
330
1F
100
AcDbEntity
  8
D-2
  6
Continuous
 62
     4
370
     9
100
AcDbLine
 10
-13.96761384001877
 20
24.09514295395336
 30
0.0
 11
-15.9675222872844
 21
24.09514295395336
 31
0.0
  0
LINE
  5
123
330
1F
100
AcDbEntity
  8
D-2
  6
Continuous
 62
     4
370
     9
100
AcDbLine
 10
-17.16754212371018
 20
16.89510022934398
 30
0.0
 11
-17.16754212371018
 21
22.89502393539867
 31
0.0
  0
LINE
  5
124
330
1F
100
AcDbEntity
  8
D-2
  6
Continuous
 62
     4
370
     9
100
AcDbLine
 10
-17.16754212371018
 20
16.89510022934398
 30
0.0
 11
-17.96762909880783
 21
16.89510022934398
 31
0.0
  0
LINE
  5
125
330
1F
100
AcDbEntity
  8
D-2
  6
Continuous
 62
     4
370
     9
100
AcDbLine
 10
-10.34265961638596
 20
24.35011731918773
 30
0.0
 11
-13.71759858122971
 21
24.35011731918773
 31
0.0
  0
LINE
  5
126
330
1F
100
AcDbEntity
  8
D-2
  6
Continuous
 62
     4
370
     9
100
AcDbLine
 10
-13.96761384001877
 20
26.59003125961742
 30
0.0
 11
-26.09430756560471
 21
26.59003125961742
 31
0.0
  0
LINE
  5
127
330
1F
100
AcDbEntity
  8
D-2
  6
Continuous
 62
     4
370
     9
100
AcDbLine
 10
-13.96761384001877
 20
25.79489576157054
 30
0.0
 11
-26.69521393767502
 21
25.79489576157054
 31
0.0
  0
LINE
  5
128
330
1F
100
AcDbEntity
  8
D-2
  6
Continuous
 62
     4
370
     9
100
AcDbLine
 10
-13.96761384001877
 20
24.89513074692211
 30
0.0
 11
-26.09430756560471
 21
24.89513074692211
 31
0.0
  0
LINE
  5
129
330
1F
100
AcDbEntity
  8
D-2
  6
Continuous
 62
     4
370
     9
100
AcDbLine
 10
-10.34265961638596
 20
27.21986829575023
 30
0.0
 11
-10.34265961638596
 21
26.34012281235179
 31
0.0
  0
LINE
  5
12A
330
1F
100
AcDbEntity
  8
D-2
  6
Continuous
 62
     4
370
     9
100
AcDbLine
 10
-9.342461252128146
 20
26.34012281235179
 30
0.0
 11
-10.34265961638596
 21
27.21986829575023
 31
0.0
  0
LINE
  5
12B
330
1F
100
AcDbEntity
  8
D-2
  6
Continuous
 62
     4
370
     9
100
AcDbLine
 10
-9.342461252128146
 20
27.21986829575023
 30
0.0
 11
-9.342461252128146
 21
26.34012281235179
 31
0.0
  0
LINE
  5
12C
330
1F
100
AcDbEntity
  8
D-2
  6
Continuous
 62
     4
370
     9
100
AcDbLine
 10
-8.342751169120334
 20
26.34012281235179
 30
0.0
 11
-9.342461252128146
 21
27.21986829575023
 31
0.0
  0
LINE
  5
12D
330
1F
100
AcDbEntity
  8
D-2
  6
Continuous
 62
     4
370
     9
100
AcDbLine
 10
-8.342751169120334
 20
27.21986829575023
 30
0.0
 11
-8.342751169120334
 21
26.34012281235179
 31
0.0
  0
LINE
  5
12E
330
1F
100
AcDbEntity
  8
D-2
  6
Continuous
 62
     4
370
     9
100
AcDbLine
 10
-10.34265961638596
 20
23.47006666000804
 30
0.0
 11
-10.34265961638596
 21
24.35011731918773
 31
0.0
  0
LINE
  5
12F
330
1F
100
AcDbEntity
  8
D-2
  6
Continuous
 62
     4
370
     9
100
AcDbLine
 10
-9.342461252128146
 20
24.35011731918773
 30
0.0
 11
-10.34265961638596
 21
23.47006666000804
 31
0.0
  0
LINE
  5
130
330
1F
100
AcDbEntity
  8
D-2
  6
Continuous
 62
     4
370
     9
100
AcDbLine
 10
-9.342461252128146
 20
23.47006666000804
 30
0.0
 11
-9.342461252128146
 21
24.35011731918773
 31
0.0
  0
LINE
  5
131
330
1F
100
AcDbEntity
  8
D-2
  6
Continuous
 62
     4
370
     9
100
AcDbLine
 10
-8.342751169120334
 20
24.35011731918773
 30
0.0
 11
-9.342461252128146
 21
23.47006666000804
 31
0.0
  0
LINE
  5
132
330
1F
100
AcDbEntity
  8
D-2
  6
Continuous
 62
     4
370
     9
100
AcDbLine
 10
-8.342751169120334
 20
23.47006666000804
 30
0.0
 11
-8.342751169120334
 21
24.35011731918773
 31
0.0
  0
LINE
  5
133
330
1F
100
AcDbEntity
  8
D-2
  6
Continuous
 62
     4
370
     9
100
AcDbLine
 10
-10.34265961638596
 20
26.34012281235179
 30
0.0
 11
-13.71759858122971
 21
26.34012281235179
 31
0.0
  0
LINE
  5
134
330
1F
100
AcDbEntity
  8
D-2
  6
Continuous
 62
     4
370
     9
100
AcDbLine
 10
-26.09430756560471
 20
25.79489576157054
 30
0.0
 11
-26.09430756560471
 21
26.59003125961742
 31
0.0
  0
LINE
  5
135
330
1F
100
AcDbEntity
  8
D-2
  6
Continuous
 62
     4
370
     9
100
AcDbLine
 10
-41.69522919646408
 20
-4.703578359523206
 30
0.0
 11
-41.69522919646408
 21
10.79498731430492
 31
0.0
  0
LINE
  5
136
330
1F
100
AcDbEntity
  8
D-2
  6
Continuous
 62
     4
370
     9
100
AcDbLine
 10
-40.79505982390549
 20
-4.703578359523206
 30
0.0
 11
-40.79505982390549
 21
10.79498731430492
 31
0.0
  0
LINE
  5
137
330
1F
100
AcDbEntity
  8
D-2
  6
Continuous
 62
     4
370
     9
100
AcDbLine
 10
-91.14995255461838
 20
-4.703578359523206
 30
0.0
 11
-91.14995255461838
 21
10.79498731430492
 31
0.0
  0
LINE
  5
138
330
1F
100
AcDbEntity
  8
D-2
  6
Continuous
 62
     4
370
     9
100
AcDbLine
 10
-90.24993195525315
 20
-4.703578359523206
 30
0.0
 11
-90.24993195525315
 21
10.79498731430492
 31
0.0
  0
LINE
  5
139
330
1F
100
AcDbEntity
  8
D-2
  6
Continuous
 62
     4
370
     9
100
AcDbLine
 10
-105.8507086276164
 20
25.79489576157054
 30
0.0
 11
-105.8507086276164
 21
26.59003125961742
 31
0.0
  0
LINE
  5
13A
330
1F
100
AcDbEntity
  8
D-2
  6
Continuous
 62
     4
370
     9
100
AcDbLine
 10
-121.6025530337444
 20
24.35011731918773
 30
0.0
 11
-118.227518701469
 21
24.35011731918773
 31
0.0
  0
LINE
  5
13B
330
1F
100
AcDbEntity
  8
D-0
  6
Continuous
 62
     3
370
     9
100
AcDbLine
 10
-103.3993269442668
 20
36.35037671860179
 30
0.0
 11
-104.890095376884
 21
36.18507825668773
 31
0.0
  0
LINE
  5
13C
330
1F
100
AcDbEntity
  8
D-0
  6
Continuous
 62
     3
370
     9
100
AcDbLine
 10
-106.3810583590617
 20
36.01948987778148
 30
0.0
 11
-107.8720213412395
 21
35.85411512192211
 31
0.0
  0
LINE
  5
13D
330
1F
100
AcDbEntity
  8
D-0
  6
Continuous
 62
     3
370
     9
100
AcDbLine
 10
-109.3627401827922
 20
35.68872510727367
 30
0.0
 11
-110.8535562991252
 21
35.52333509262523
 31
0.0
  0
LINE
  5
13E
330
1F
100
AcDbEntity
  8
D-0
  6
Continuous
 62
     3
370
     9
100
AcDbLine
 10
-112.3444715975871
 20
35.35794507797679
 30
0.0
 11
-113.835386896049
 21
35.19255506332836
 31
0.0
  0
LINE
  5
13F
330
1F
100
AcDbEntity
  8
D-0
  6
Continuous
 62
     3
370
     9
100
AcDbLine
 10
-115.3260542391887
 20
35.02716504867992
 30
0.0
 11
-116.8170172213664
 21
34.86168348129711
 31
0.0
  0
LINE
  5
140
330
1F
100
AcDbEntity
  8
D-0
  6
Continuous
 62
     3
370
     9
100
AcDbLine
 10
-13.33718171111252
 20
36.15198194321117
 30
0.0
 11
-11.84185090056565
 21
36.03238355453929
 31
0.0
  0
LINE
  5
141
330
1F
100
AcDbEntity
  8
D-0
  6
Continuous
 62
     3
370
     9
100
AcDbLine
 10
-11.88169159880783
 20
35.53403150375804
 30
0.0
 11
-10.38655915251877
 21
35.41432630356273
 31
0.0
  0
LINE
  5
142
330
1F
100
AcDbEntity
  8
D-0
  6
Continuous
 62
     3
370
     9
100
AcDbLine
 10
-10.34671845427658
 20
35.91287671860179
 30
0.0
 11
-8.851341867362521
 21
35.79336988266429
 31
0.0
  0
LINE
  5
143
330
1F
100
AcDbEntity
  8
D-0
  6
Continuous
 62
     3
370
     9
100
AcDbLine
 10
-8.891426706229709
 20
35.29481946762523
 30
0.0
 11
-7.396111154471896
 21
35.17511426742992
 31
0.0
  0
LINE
  5
144
330
1F
100
AcDbEntity
  8
D-0
  6
Continuous
 62
     3
370
     9
100
AcDbLine
 10
-7.356270456229709
 20
35.67355787094554
 30
0.0
 11
-5.860954904471896
 21
35.55405103500804
 31
0.0
  0
LINE
  5
145
330
1F
100
AcDbEntity
  8
D-0
  6
Continuous
 62
     3
370
     9
100
AcDbLine
 10
-5.900780343925021
 20
35.05560743149242
 30
0.0
 11
-4.405663156425021
 21
34.93590223129711
 31
0.0
  0
LINE
  5
146
330
1F
100
AcDbEntity
  8
D-0
  6
Continuous
 62
     3
370
     9
100
AcDbLine
 10
-4.365914010917209
 20
35.43445264633617
 30
0.0
 11
-2.870491647635959
 21
35.31494581039867
 31
0.0
  0
LINE
  5
147
330
1F
100
AcDbEntity
  8
D-0
  6
Continuous
 62
     3
370
     9
100
AcDbLine
 10
-2.910332345878146
 20
34.81639539535961
 30
0.0
 11
-1.415154123221896
 21
34.69679700668773
 31
0.0
  0
LINE
  5
148
330
1F
100
AcDbEntity
  8
D-0
  6
Continuous
 62
     3
370
     9
100
AcDbLine
 10
0.080115652168729
 20
34.57729017075023
 30
0.0
 11
1.575248098457791
 21
34.45747815903148
 31
0.0
  0
LINE
  5
149
330
1F
100
AcDbEntity
  8
D-0
  6
Continuous
 62
     3
370
     9
100
AcDbLine
 10
1.615088796699979
 20
34.95592176254711
 30
0.0
 11
3.110404348457791
 21
34.83652173813304
 31
0.0
  0
LINE
  5
14A
330
1F
100
AcDbEntity
  8
D-0
  6
Continuous
 62
     3
370
     9
100
AcDbLine
 10
3.070563650215604
 20
34.33797132309398
 30
0.0
 11
4.565696096504666
 21
34.21846448715648
 31
0.0
  0
LINE
  5
14B
330
1F
100
AcDbEntity
  8
D-0
  6
Continuous
 62
     3
370
     9
100
AcDbLine
 10
4.605582571114041
 20
34.71701490219554
 30
0.0
 11
6.100760793770291
 21
34.59720289047679
 31
0.0
  0
LINE
  5
14C
330
1F
100
AcDbEntity
  8
D-0
  6
Continuous
 62
     3
370
     9
100
AcDbLine
 10
6.061026907051541
 20
34.09886609848461
 30
0.0
 11
7.556098318184354
 21
33.97935926254711
 31
0.0
  0
LINE
  5
14D
330
1F
100
AcDbEntity
  8
D-0
  6
Continuous
 62
     3
370
     9
100
AcDbLine
 10
7.596076345528104
 20
34.47749769028148
 30
0.0
 11
9.198920583809354
 21
34.34936963852367
 31
0.0
  0
LINE
  5
14E
330
1F
100
AcDbEntity
  8
D-0
  6
Continuous
 62
     3
370
     9
100
AcDbLine
 10
-14.87213959685471
 20
35.77315198715648
 30
0.0
 11
-14.83259644499924
 21
36.27010022934398
 31
0.0
  0
LINE
  5
14F
330
1F
100
AcDbEntity
  8
D-0
  6
Continuous
 62
     3
370
     9
100
AcDbLine
 10
-13.37700715056565
 20
35.65353833969554
 30
0.0
 11
-13.33718171111252
 21
36.15059339340648
 31
0.0
  0
LINE
  5
150
330
1F
100
AcDbEntity
  8
D-0
  6
Continuous
 62
     3
370
     9
100
AcDbLine
 10
-11.88169159880783
 20
35.53403150375804
 30
0.0
 11
-11.84204926482346
 21
36.03099500473461
 31
0.0
  0
LINE
  5
151
330
1F
100
AcDbEntity
  8
D-0
  6
Continuous
 62
     3
370
     9
100
AcDbLine
 10
-10.38655915251877
 20
35.41432630356273
 30
0.0
 11
-10.34671845427658
 21
35.91148816879711
 31
0.0
  0
LINE
  5
152
330
1F
100
AcDbEntity
  8
D-0
  6
Continuous
 62
     3
370
     9
100
AcDbLine
 10
-8.891426706229709
 20
35.29481946762523
 30
0.0
 11
-8.851540231620334
 21
35.79198133285961
 31
0.0
  0
LINE
  5
153
330
1F
100
AcDbEntity
  8
D-0
  6
Continuous
 62
     3
370
     9
100
AcDbLine
 10
-7.396111154471896
 20
35.17511426742992
 30
0.0
 11
-7.356270456229709
 21
35.67216932114086
 31
0.0
  0
LINE
  5
154
330
1F
100
AcDbEntity
  8
D-0
  6
Continuous
 62
     3
370
     9
100
AcDbLine
 10
-5.900780343925021
 20
35.05560743149242
 30
0.0
 11
-5.861153268729709
 21
35.55266248520336
 31
0.0
  0
LINE
  5
155
330
1F
100
AcDbEntity
  8
D-0
  6
Continuous
 62
     3
370
     9
100
AcDbLine
 10
-4.405663156425021
 20
34.93590223129711
 30
0.0
 11
-4.365914010917209
 21
35.43295728500804
 31
0.0
  0
LINE
  5
156
330
1F
100
AcDbEntity
  8
D-0
  6
Continuous
 62
     3
370
     9
100
AcDbLine
 10
-2.910332345878146
 20
34.81639539535961
 30
0.0
 11
-2.870690011893771
 21
35.31345044907054
 31
0.0
  0
LINE
  5
157
330
1F
100
AcDbEntity
  8
D-0
  6
Continuous
 62
     3
370
     9
100
AcDbLine
 10
-1.415154123221896
 20
34.69679700668773
 30
0.0
 11
-1.375374460135959
 21
35.19374524887523
 31
0.0
  0
LINE
  5
158
330
1F
100
AcDbEntity
  8
D-0
  6
Continuous
 62
     3
370
     9
100
AcDbLine
 10
0.0850747586140415
 20
34.59651624496898
 30
0.0
 11
0.1249612332234165
 21
35.09357129867992
 31
0.0
  0
LINE
  5
159
330
1F
100
AcDbEntity
  8
D-0
  6
Continuous
 62
     3
370
     9
100
AcDbLine
 10
1.575248098457791
 20
34.45747815903148
 30
0.0
 11
1.615088796699979
 21
34.95473157700023
 31
0.0
  0
LINE
  5
15A
330
1F
100
AcDbEntity
  8
D-0
  6
Continuous
 62
     3
370
     9
100
AcDbLine
 10
3.070563650215604
 20
34.33797132309398
 30
0.0
 11
3.110205984199979
 21
34.83502637680492
 31
0.0
  0
LINE
  5
15B
330
1F
100
AcDbEntity
  8
D-0
  6
Continuous
 62
     3
370
     9
100
AcDbLine
 10
4.565696096504666
 20
34.21846448715648
 30
0.0
 11
4.605582571114041
 21
34.71542798813304
 31
0.0
  0
LINE
  5
15C
330
1F
100
AcDbEntity
  8
D-0
  6
Continuous
 62
     3
370
     9
100
AcDbLine
 10
6.061026907051541
 20
34.09886609848461
 30
0.0
 11
6.100653982246854
 21
34.59581434067211
 31
0.0
  0
LINE
  5
15D
330
1F
100
AcDbEntity
  8
D-0
  6
Continuous
 62
     3
370
     9
100
AcDbLine
 10
7.556098318184354
 20
33.97935926254711
 30
0.0
 11
7.595984792793729
 21
34.47641431625804
 31
0.0
  0
LINE
  5
15E
330
1F
100
AcDbEntity
  8
D-0
  6
Continuous
 62
     3
370
     9
100
AcDbLine
 10
-1.375374460135959
 20
35.19513379867992
 30
0.0
 11
0.1199563504109165
 21
35.07562696274242
 31
0.0
  0
LINE
  5
15F
330
1F
100
AcDbEntity
  8
D-0
  6
Continuous
 62
     3
370
     9
100
AcDbLine
 10
-104.9453398226848
 20
36.68193494614086
 30
0.0
 11
-106.4361540316692
 21
36.51654493149242
 31
0.0
  0
LINE
  5
160
330
1F
100
AcDbEntity
  8
D-0
  6
Continuous
 62
     3
370
     9
100
AcDbLine
 10
-107.9268728732219
 20
36.35106336410961
 30
0.0
 11
-109.4178854464641
 21
36.18578016098461
 31
0.0
  0
LINE
  5
161
330
1F
100
AcDbEntity
  8
D-0
  6
Continuous
 62
     3
370
     9
100
AcDbLine
 10
-110.9086519717326
 20
36.02019178207836
 30
0.0
 11
-112.3995672701946
 21
35.85500013168773
 31
0.0
  0
LINE
  5
162
330
1F
100
AcDbEntity
  8
D-0
  6
Continuous
 62
     3
370
     9
100
AcDbLine
 10
-113.8903833865276
 20
35.68941175278148
 30
0.0
 11
-115.3813482760539
 21
35.52393018539867
 31
0.0
  0
LINE
  5
163
330
1F
100
AcDbEntity
  8
D-0
  6
Continuous
 62
     3
370
     9
100
AcDbLine
 10
9.198920583809354
 20
30.39978467758617
 30
0.0
 11
9.198920583809354
 21
34.34936963852367
 31
0.0
  0
LINE
  5
164
330
1F
100
AcDbEntity
  8
D-0
  6
Continuous
 62
     3
370
     9
100
AcDbLine
 10
-14.87213959685471
 20
35.77315198715648
 30
0.0
 11
-13.37700715056565
 21
35.65353833969554
 31
0.0
  0
LINE
  5
165
330
1F
100
AcDbEntity
  8
D-0
  6
Continuous
 62
     3
370
     9
100
AcDbLine
 10
-103.3993269442668
 20
36.35037671860179
 30
0.0
 11
-103.4544226168742
 21
36.84732496078929
 31
0.0
  0
LINE
  5
166
330
1F
100
AcDbEntity
  8
D-0
  6
Continuous
 62
     3
370
     9
100
AcDbLine
 10
-104.890095376884
 20
36.18507825668773
 30
0.0
 11
-104.9453398226848
 21
36.68193494614086
 31
0.0
  0
LINE
  5
167
330
1F
100
AcDbEntity
  8
D-0
  6
Continuous
 62
     3
370
     9
100
AcDbLine
 10
-106.3810583590617
 20
36.01948987778148
 30
0.0
 11
-106.4361540316692
 21
36.51654493149242
 31
0.0
  0
LINE
  5
168
330
1F
100
AcDbEntity
  8
D-0
  6
Continuous
 62
     3
370
     9
100
AcDbLine
 10
-107.8720213412395
 20
35.85411512192211
 30
0.0
 11
-107.9268728732219
 21
36.35106336410961
 31
0.0
  0
LINE
  5
169
330
1F
100
AcDbEntity
  8
D-0
  6
Continuous
 62
     3
370
     9
100
AcDbLine
 10
-109.3627401827922
 20
35.68872510727367
 30
0.0
 11
-109.4178854464641
 21
36.18578016098461
 31
0.0
  0
LINE
  5
16A
330
1F
100
AcDbEntity
  8
D-0
  6
Continuous
 62
     3
370
     9
100
AcDbLine
 10
-110.8535562991252
 20
35.52333509262523
 30
0.0
 11
-110.9086519717326
 21
36.02019178207836
 31
0.0
  0
LINE
  5
16B
330
1F
100
AcDbEntity
  8
D-0
  6
Continuous
 62
     3
370
     9
100
AcDbLine
 10
-112.3444715975871
 20
35.35794507797679
 30
0.0
 11
-112.3995672701946
 21
35.85500013168773
 31
0.0
  0
LINE
  5
16C
330
1F
100
AcDbEntity
  8
D-0
  6
Continuous
 62
     3
370
     9
100
AcDbLine
 10
-113.835386896049
 20
35.19255506332836
 30
0.0
 11
-113.8903833865276
 21
35.68941175278148
 31
0.0
  0
LINE
  5
16D
330
1F
100
AcDbEntity
  8
D-0
  6
Continuous
 62
     3
370
     9
100
AcDbLine
 10
-115.3260542391887
 20
35.02716504867992
 30
0.0
 11
-115.3813482760539
 21
35.52393018539867
 31
0.0
  0
LINE
  5
16E
330
1F
100
AcDbEntity
  8
D-0
  6
Continuous
 62
     3
370
     9
100
AcDbLine
 10
-74.47782196990158
 20
41.73810254867992
 30
0.0
 11
-72.47781434050705
 21
41.73810254867992
 31
0.0
  0
LINE
  5
16F
330
1F
100
AcDbEntity
  8
D-0
  6
Continuous
 62
     3
370
     9
100
AcDbLine
 10
-69.47795166960861
 20
41.73810254867992
 30
0.0
 11
-67.47783722869065
 21
41.73810254867992
 31
0.0
  0
LINE
  5
170
330
1F
100
AcDbEntity
  8
D-0
  6
Continuous
 62
     3
370
     9
100
AcDbLine
 10
-116.8170172213664
 20
34.86168348129711
 30
0.0
 11
-116.872065210258
 21
35.35864698227367
 31
0.0
  0
LINE
  5
171
330
1F
100
AcDbEntity
  8
D-0
  6
Continuous
 62
     3
370
     9
100
AcDbLine
 10
-71.47786011687424
 20
40.73823987778148
 30
0.0
 11
-70.47780671111252
 21
40.73823987778148
 31
0.0
  0
LINE
  5
172
330
1F
100
AcDbEntity
  8
D-0
  6
Continuous
 62
     3
370
     9
100
AcDbLine
 10
-76.47792878142502
 20
40.73823987778148
 30
0.0
 11
-75.4777761935344
 21
40.73823987778148
 31
0.0
  0
LINE
  5
173
330
1F
100
AcDbEntity
  8
D-0
  6
Continuous
 62
     3
370
     9
100
AcDbLine
 10
-116.872065210258
 20
35.35864698227367
 30
0.0
 11
-118.2076002596965
 21
35.21039258774242
 31
0.0
  0
LINE
  5
174
330
1F
100
AcDbEntity
  8
D-2
  6
Continuous
 62
     4
370
     9
100
AcDbLine
 10
-121.6025530337444
 20
26.34012281235179
 30
0.0
 11
-118.227518701469
 21
26.34012281235179
 31
0.0
  0
LINE
  5
175
330
1F
100
AcDbEntity
  8
D-0
  6
Continuous
 62
     3
370
     9
100
AcDbLine
 10
-16.18037476531174
 20
36.37950574692211
 30
0.0
 11
-14.83239808074143
 21
36.27148877914867
 31
0.0
  0
LINE
  5
176
330
1F
100
AcDbEntity
  8
D-0
  6
Continuous
 62
     3
370
     9
100
AcDbLine
 10
11.19908843048904
 20
30.39978467758617
 30
0.0
 11
11.19908843048904
 21
36.65369092758617
 31
0.0
  0
LINE
  5
177
330
1F
100
AcDbEntity
  8
D-0
  6
Continuous
 62
     3
370
     9
100
AcDbLine
 10
-79.89765610686447
 20
41.73810254867992
 30
0.0
 11
-77.47773804656174
 21
41.73810254867992
 31
0.0
  0
LINE
  5
178
330
1F
100
AcDbEntity
  8
D-0
  6
Continuous
 62
     3
370
     9
100
AcDbLine
 10
-121.3008123873821
 20
31.10295545395336
 30
0.0
 11
-121.3008123873821
 21
34.75635206039867
 31
0.0
  0
LINE
  5
179
330
1F
100
AcDbEntity
  8
D-0
  6
Continuous
 62
     3
370
     9
100
AcDbLine
 10
-123.3007227419963
 20
31.09840833481273
 30
0.0
 11
-121.3008123873821
 21
31.09840833481273
 31
0.0
  0
LINE
  5
17A
330
1F
100
AcDbEntity
  8
D-0
  6
Continuous
 62
     3
370
     9
100
AcDbLine
 10
-21.34980072966721
 20
39.25699292953929
 30
0.0
 11
11.19908843048904
 21
36.65369092758617
 31
0.0
  0
LINE
  5
17B
330
1F
100
AcDbEntity
  8
D-2
  6
Continuous
 62
     4
370
     9
100
AcDbLine
 10
-123.6025129794231
 20
23.47006666000804
 30
0.0
 11
-123.6025129794231
 21
24.35011731918773
 31
0.0
  0
LINE
  5
17C
330
1F
100
AcDbEntity
  8
D-2
  6
Continuous
 62
     4
370
     9
100
AcDbLine
 10
-123.6025129794231
 20
24.35011731918773
 30
0.0
 11
-122.6025568484416
 21
23.47006666000804
 31
0.0
  0
LINE
  5
17D
330
1F
100
AcDbEntity
  8
D-0
  6
Continuous
 62
     3
370
     9
100
AcDbLine
 10
-123.3007227419963
 20
31.09840833481273
 30
0.0
 11
-123.3007227419963
 21
36.96693860825023
 31
0.0
  0
LINE
  5
17E
330
1F
100
AcDbEntity
  8
D-2
  6
Continuous
 62
     4
370
     9
100
AcDbLine
 10
-122.6025568484416
 20
23.47006666000804
 30
0.0
 11
-122.6025568484416
 21
24.35011731918773
 31
0.0
  0
LINE
  5
17F
330
1F
100
AcDbEntity
  8
D-2
  6
Continuous
 62
     4
370
     9
100
AcDbLine
 10
-122.6025568484416
 20
24.35011731918773
 30
0.0
 11
-121.6025530337444
 21
23.47006666000804
 31
0.0
  0
LINE
  5
180
330
1F
100
AcDbEntity
  8
D-2
  6
Continuous
 62
     4
370
     9
100
AcDbLine
 10
-121.6025530337444
 20
23.47006666000804
 30
0.0
 11
-121.6025530337444
 21
24.35011731918773
 31
0.0
  0
LINE
  5
181
330
1F
100
AcDbEntity
  8
D-2
  6
Continuous
 62
     4
370
     9
100
AcDbLine
 10
-123.6025129794231
 20
27.21986829575023
 30
0.0
 11
-123.6025129794231
 21
26.34012281235179
 31
0.0
  0
LINE
  5
182
330
1F
100
AcDbEntity
  8
D-2
  6
Continuous
 62
     4
370
     9
100
AcDbLine
 10
-123.6025129794231
 20
26.34012281235179
 30
0.0
 11
-122.6025568484416
 21
27.21986829575023
 31
0.0
  0
LINE
  5
183
330
1F
100
AcDbEntity
  8
D-2
  6
Continuous
 62
     4
370
     9
100
AcDbLine
 10
-122.6025568484416
 20
27.21986829575023
 30
0.0
 11
-122.6025568484416
 21
26.34012281235179
 31
0.0
  0
LINE
  5
184
330
1F
100
AcDbEntity
  8
D-2
  6
Continuous
 62
     4
370
     9
100
AcDbLine
 10
-122.6025568484416
 20
26.34012281235179
 30
0.0
 11
-121.6025530337444
 21
27.21986829575023
 31
0.0
  0
LINE
  5
185
330
1F
100
AcDbEntity
  8
D-2
  6
Continuous
 62
     4
370
     9
100
AcDbLine
 10
-121.6025530337444
 20
27.21986829575023
 30
0.0
 11
-121.6025530337444
 21
26.34012281235179
 31
0.0
  0
LINE
  5
186
330
1F
100
AcDbEntity
  8
D-2
  6
Continuous
 62
     4
370
     9
100
AcDbLine
 10
-117.9776045321574
 20
24.89513074692211
 30
0.0
 11
-105.8507086276164
 21
24.89513074692211
 31
0.0
  0
LINE
  5
187
330
1F
100
AcDbEntity
  8
D-2
  6
Continuous
 62
     4
370
     9
100
AcDbLine
 10
-117.9776045321574
 20
25.79489576157054
 30
0.0
 11
-105.249901437675
 21
25.79489576157054
 31
0.0
  0
LINE
  5
188
330
1F
100
AcDbEntity
  8
D-2
  6
Continuous
 62
     4
370
     9
100
AcDbLine
 10
-117.9776045321574
 20
26.59003125961742
 30
0.0
 11
-105.8507086276164
 21
26.59003125961742
 31
0.0
  0
LINE
  5
189
330
1F
100
AcDbEntity
  8
D-2
  6
Continuous
 62
     4
370
     9
100
AcDbLine
 10
-114.7774702548137
 20
16.89510022934398
 30
0.0
 11
-113.9774366854778
 21
16.89510022934398
 31
0.0
  0
LINE
  5
18A
330
1F
100
AcDbEntity
  8
D-2
  6
Continuous
 62
     4
370
     9
100
AcDbLine
 10
-114.7774702548137
 20
16.89510022934398
 30
0.0
 11
-114.7774702548137
 21
22.89502393539867
 31
0.0
  0
LINE
  5
18B
330
1F
100
AcDbEntity
  8
D-2
  6
Continuous
 62
     4
370
     9
100
AcDbLine
 10
-117.9776045321574
 20
24.09514295395336
 30
0.0
 11
-115.9774958132854
 21
24.09514295395336
 31
0.0
  0
LINE
  5
18C
330
1F
100
AcDbEntity
  8
D-2
  6
Continuous
 62
     4
370
     9
100
AcDbLine
 10
-113.9774366854778
 20
16.89510022934398
 30
0.0
 11
-113.9774366854778
 21
22.89502393539867
 31
0.0
  0
LINE
  5
18D
330
1F
100
AcDbEntity
  8
D-2
  6
Continuous
 62
     4
370
     9
100
AcDbLine
 10
-123.6025129794231
 20
27.21986829575023
 30
0.0
 11
-125.4776140689006
 21
25.34511243637523
 31
0.0
  0
LINE
  5
18E
330
1F
100
AcDbEntity
  8
D-2
  6
Continuous
 62
     4
370
     9
100
AcDbLine
 10
-125.4776140689006
 20
25.34511243637523
 30
0.0
 11
-123.6025129794231
 21
23.47006666000804
 31
0.0
  0
LINE
  5
18F
330
1F
100
AcDbEntity
  8
D-3
  6
Continuous
 62
     6
370
     5
100
AcDbLine
 10
-15.9780203341594
 20
11.70535718735179
 30
0.0
 11
-15.9780203341594
 21
-108.2971795863298
 31
0.0
  0
LINE
  5
190
330
1F
100
AcDbEntity
  8
D-3
  6
Continuous
 62
     6
370
     5
100
AcDbLine
 10
84.02184233673904
 20
11.70535718735179
 30
0.0
 11
84.02184233673904
 21
-8.297206289210706
 31
0.0
  0
LINE
  5
191
330
1F
100
AcDbEntity
  8
D-3
  6
Continuous
 62
     6
370
     5
100
AcDbLine
 10
-190.9779898165813
 20
101.0870405369612
 30
0.0
 11
-130.3449007510295
 21
161.7199140721174
 31
0.0
  0
LINE
  5
192
330
1F
100
AcDbEntity
  8
D-5
  6
Continuous
 62
     7
370
     9
100
AcDbLine
 10
-150.9782024859538
 20
138.1624799900862
 30
0.0
 11
59.02742705353592
 21
138.1624799900862
 31
0.0
  0
LINE
  5
193
330
1F
100
AcDbEntity
  8
D-5
  6
Continuous
 62
     7
370
     9
100
AcDbLine
 10
-115.9781900881877
 20
-137.7529977625994
 30
0.0
 11
84.02184233673904
 21
-137.7529977625994
 31
0.0
  0
LINE
  5
194
330
1F
100
AcDbEntity
  8
D-5
  6
Continuous
 62
     7
370
     9
100
AcDbLine
 10
-115.9781900881877
 20
-117.1761812037615
 30
0.0
 11
-115.9781900881877
 21
-138.3530095881609
 31
0.0
  0
LINE
  5
195
330
1F
100
AcDbEntity
  8
D-5
  6
Continuous
 62
     7
370
     9
100
AcDbLine
 10
-15.9780203341594
 20
-117.1761812037615
 30
0.0
 11
-15.9780203341594
 21
-138.3530095881609
 31
0.0
  0
LINE
  5
196
330
1F
100
AcDbEntity
  8
D-5
  6
Continuous
 62
     7
370
     9
100
AcDbLine
 10
-15.9780203341594
 20
-84.44045580092946
 30
0.0
 11
24.02434477814529
 21
-84.44045580092946
 31
0.0
  0
LINE
  5
197
330
1F
100
AcDbEntity
  8
D-5
  6
Continuous
 62
     7
370
     9
100
AcDbLine
 10
-15.9780203341594
 20
-81.63461626235524
 30
0.0
 11
-15.9780203341594
 21
-85.0403703517107
 31
0.0
  0
LINE
  5
198
330
1F
100
AcDbEntity
  8
D-5
  6
Continuous
 62
     7
370
     9
100
AcDbLine
 10
-195.249527597343
 20
11.70268689926586
 30
0.0
 11
-195.249527597343
 21
56.70116102035961
 31
0.0
  0
LINE
  5
199
330
1F
100
AcDbEntity
  8
D-5
  6
Continuous
 62
     7
370
     9
100
AcDbLine
 10
141.5493997097859
 20
93.1871687107893
 30
0.0
 11
141.5493997097859
 21
11.70268689926586
 31
0.0
  0
LINE
  5
19A
330
1F
100
AcDbEntity
  8
D-5
  6
Continuous
 62
     7
370
     9
100
AcDbLine
 10
123.7784646511922
 20
41.72006666000804
 30
0.0
 11
156.1790383816609
 21
41.72006666000804
 31
0.0
  0
LINE
  5
19B
330
1F
100
AcDbEntity
  8
D-5
  6
Continuous
 62
     7
370
     9
100
AcDbLine
 10
123.7784646511922
 20
11.70268689926586
 30
0.0
 11
142.1494363308797
 21
11.70268689926586
 31
0.0
  0
LINE
  5
19C
330
1F
100
AcDbEntity
  8
D-5
  6
Continuous
 62
     7
370
     9
100
AcDbLine
 10
155.5790322781453
 20
41.72006666000804
 30
0.0
 11
155.5790322781453
 21
-8.297206289210706
 31
0.0
  0
LINE
  5
19D
330
1F
100
AcDbEntity
  8
D-5
  6
Continuous
 62
     7
370
     9
100
AcDbLine
 10
-103.5011946200481
 20
11.70268689926586
 30
0.0
 11
-195.8495413302531
 21
11.70268689926586
 31
0.0
  0
LINE
  5
19E
330
1F
100
AcDbEntity
  8
D-5
  6
Continuous
 62
     7
370
     9
100
AcDbLine
 10
77.94838652619217
 20
93.1871687107893
 30
0.0
 11
142.1494363308797
 21
93.1871687107893
 31
0.0
  0
LINE
  5
19F
330
1F
100
AcDbEntity
  8
D-5
  6
Continuous
 62
     7
370
     9
100
AcDbLine
 10
100.3958962918172
 20
-8.297206289210706
 30
0.0
 11
156.1790383816609
 21
-8.297206289210706
 31
0.0
  0
LINE
  5
1A0
330
1F
100
AcDbEntity
  8
D-5
  6
Continuous
 62
     7
370
     9
100
AcDbLine
 10
24.02434477814529
 20
-47.02810991469899
 30
0.0
 11
24.02434477814529
 21
-85.0403703517107
 31
0.0
  0
LINE
  5
1A1
330
1F
100
AcDbEntity
  8
D-5
  6
Continuous
 62
     7
370
     9
100
AcDbLine
 10
84.02184233673904
 20
-35.80454576674977
 30
0.0
 11
84.02184233673904
 21
-138.3530095881609
 31
0.0
  0
LINE
  5
1A2
330
1F
100
AcDbEntity
  8
D-5
  6
Continuous
 62
     7
370
     9
100
AcDbLine
 10
25.20474944123123
 20
38.72000562485179
 30
0.0
 11
24.4151681424031
 21
38.72000562485179
 31
0.0
  0
LINE
  5
1A3
330
1F
100
AcDbEntity
  8
D-5
  6
Continuous
 62
     7
370
     9
100
AcDbLine
 10
25.20474944123123
 20
41.72006666000804
 30
0.0
 11
24.4151681424031
 21
41.72006666000804
 31
0.0
  0
LINE
  5
1A4
330
1F
100
AcDbEntity
  8
D-5
  6
Continuous
 62
     7
370
     9
100
AcDbLine
 10
25.01508269318435
 20
38.72000562485179
 30
0.0
 11
25.01508269318435
 21
48.49005567367992
 31
0.0
  0
LINE
  5
1A5
330
1F
100
AcDbEntity
  8
D-4
  6
Continuous
 62
     7
370
     9
100
AcDbLine
 10
125.9516213894734
 20
-45.62870348159352
 30
0.0
 11
227.7061074734578
 21
-45.62870348159352
 31
0.0
  0
LINE
  5
1A6
330
1F
100
AcDbEntity
  8
D-4
  6
Continuous
 62
     7
370
     9
100
AcDbLine
 10
94.28993926056717
 20
115.9510847264143
 30
0.0
 11
285.763053274239
 21
115.9510847264143
 31
0.0
  0
LINE
  5
1A7
330
1F
100
AcDbEntity
  8
D-4
  6
Continuous
 62
     7
370
     9
100
AcDbLine
 10
77.87782988556717
 20
141.6390730076643
 30
0.0
 11
312.0223001004109
 21
141.6390730076643
 31
0.0
  0
LINE
  5
1A8
330
1F
100
AcDbEntity
  8
D-4
  6
Continuous
 62
     7
370
     9
100
AcDbLine
 10
16.60637602814529
 20
160.2393537693831
 30
0.0
 11
298.892691946114
 21
160.2393537693831
 31
0.0
  0
LINE
  5
1A9
330
1F
100
AcDbEntity
  8
D-4
  6
Continuous
 62
     7
370
     9
100
AcDbLine
 10
94.28993926056717
 20
115.9510847264143
 30
0.0
 11
59.27744231232498
 21
28.42053663071117
 31
0.0
  0
LINE
  5
1AA
330
1F
100
AcDbEntity
  8
D-4
  6
Continuous
 62
     7
370
     9
100
AcDbLine
 10
77.87782988556717
 20
141.6390730076643
 30
0.0
 11
36.30086455353592
 21
42.07313978012523
 31
0.0
  0
LINE
  5
1AB
330
1F
100
AcDbEntity
  8
D-4
  6
Continuous
 62
     7
370
     9
100
AcDbLine
 10
16.60637602814529
 20
160.2393537693831
 30
0.0
 11
-37.00611176482346
 21
39.88484632309398
 31
0.0
  0
LINE
  5
1AC
330
1F
100
AcDbEntity
  8
D-4
  6
Continuous
 62
     7
370
     9
100
AcDbLine
 10
125.9516213894734
 20
-45.62870348159352
 30
0.0
 11
69.1248849392781
 21
-2.786311513820081
 31
0.0
  0
LINE
  5
1AD
330
1F
100
AcDbEntity
  8
D-4
  6
Continuous
 62
     7
370
     9
100
AcDbLine
 10
-125.6308123110881
 20
-69.5285295313982
 30
0.0
 11
-86.2420355319133
 21
-20.29250658217946
 31
0.0
  0
LINE
  5
1AE
330
1F
100
AcDbEntity
  8
D-1
  6
Continuous
 62
     2
370
     9
100
AcDbLine
 10
-125.4781595706096
 20
27.20282422836742
 30
0.0
 11
-114.9780355929485
 21
27.20282422836742
 31
0.0
  0
LINE
  5
1AF
330
1F
100
AcDbEntity
  8
D-3
  6
Continuous
 62
     6
370
     5
100
AcDbLine
 10
134.0219644070515
 20
11.70268689926586
 30
0.0
 11
-15.9780203341594
 21
11.70268689926586
 31
0.0
  0
LINE
  5
1B0
330
1F
100
AcDbEntity
  8
D-5
  6
Continuous
 62
     7
370
     9
100
AcDbLine
 10
-116.0446802615276
 20
125.2745405369612
 30
0.0
 11
59.02742705353592
 21
125.2745405369612
 31
0.0
  0
LINE
  5
1B1
330
1F
100
AcDbEntity
  8
D-5
  6
Continuous
 62
     7
370
     9
100
AcDbLine
 10
-15.97267212859299
 20
125.2745405369612
 30
0.0
 11
-15.97267212859299
 21
58.66153394516429
 31
0.0
  0
LINE
  5
1B2
330
1F
100
AcDbEntity
  8
D-4
  6
Continuous
 62
     7
370
     9
100
AcDbLine
 10
-37.00611176482346
 20
39.88484632309398
 30
0.0
 11
-35.58506073943283
 21
44.67860853012523
 31
0.0
  0
LINE
  5
1B3
330
1F
100
AcDbEntity
  8
D-4
  6
Continuous
 62
     7
370
     9
100
AcDbLine
 10
-37.00611176482346
 20
39.88484632309398
 30
0.0
 11
-34.39276185027268
 21
44.14755689438304
 31
0.0
  0
LINE
  5
1B4
330
1F
100
AcDbEntity
  8
D-4
  6
Continuous
 62
     7
370
     9
100
AcDbLine
 10
36.30086455353592
 20
42.07313978012523
 30
0.0
 11
37.60880217560623
 21
46.89889966782054
 31
0.0
  0
LINE
  5
1B5
330
1F
100
AcDbEntity
  8
D-4
  6
Continuous
 62
     7
370
     9
100
AcDbLine
 10
36.30086455353592
 20
42.07313978012523
 30
0.0
 11
38.81328520783279
 21
46.39589368637523
 31
0.0
  0
LINE
  5
1B6
330
1F
100
AcDbEntity
  8
D-4
  6
Continuous
 62
     7
370
     9
100
AcDbLine
 10
59.27744231232498
 20
28.42053663071117
 30
0.0
 11
60.51254973419998
 21
33.26553785141429
 31
0.0
  0
LINE
  5
1B7
330
1F
100
AcDbEntity
  8
D-4
  6
Continuous
 62
     7
370
     9
100
AcDbLine
 10
59.27744231232498
 20
28.42053663071117
 30
0.0
 11
61.72446379669998
 21
32.78085767563304
 31
0.0
  0
LINE
  5
1B8
330
1F
100
AcDbEntity
  8
D-4
  6
Continuous
 62
     7
370
     9
100
AcDbLine
 10
69.1248849392781
 20
-2.786311513820081
 30
0.0
 11
73.47609648712967
 21
-5.249492055812269
 31
0.0
  0
LINE
  5
1B9
330
1F
100
AcDbEntity
  8
D-4
  6
Continuous
 62
     7
370
     9
100
AcDbLine
 10
69.1248849392781
 20
-2.786311513820081
 30
0.0
 11
72.69037566193435
 21
-6.291652089991956
 31
0.0
  0
LINE
  5
1BA
330
1F
100
AcDbEntity
  8
D-4
  6
Continuous
 62
     7
370
     9
100
AcDbLine
 10
-86.2420355319133
 20
-20.29250658217946
 30
0.0
 11
-88.82912507048752
 21
-24.57128465835133
 31
0.0
  0
LINE
  5
1BB
330
1F
100
AcDbEntity
  8
D-4
  6
Continuous
 62
     7
370
     9
100
AcDbLine
 10
-86.2420355319133
 20
-20.29250658217946
 30
0.0
 11
-89.84840455046799
 21
-23.75573290053883
 31
0.0
  0
LINE
  5
1BC
330
1F
100
AcDbEntity
  8
D-1
  6
Continuous
 62
     2
370
     9
100
AcDbLine
 10
-130.978209161674
 20
74.18733655746898
 30
0.0
 11
-130.978209161674
 21
27.20282422836742
 31
0.0
  0
LINE
  5
1BD
330
1F
100
AcDbEntity
  8
D-1
  6
Continuous
 62
     2
370
     9
100
AcDbLine
 10
-128.9780022143474
 20
30.20279371078929
 30
0.0
 11
-128.9780022143474
 21
72.18733655746898
 31
0.0
  0
LINE
  5
1BE
330
1F
100
AcDbEntity
  8
D-1
  6
Continuous
 62
     2
370
     9
100
AcDbLine
 10
-6.472557687675021
 20
11.72002088364086
 30
0.0
 11
59.02742705353592
 21
11.72002088364086
 31
0.0
  0
LINE
  5
1BF
330
1F
100
AcDbEntity
  8
D-3
  6
Continuous
 62
     6
370
     5
100
AcDbLine
 10
58.02736601837967
 20
41.72006666000804
 30
0.0
 11
134.0219644070515
 21
41.72006666000804
 31
0.0
  0
LINE
  5
1C0
330
1F
100
AcDbEntity
  8
D-3
  6
Continuous
 62
     6
370
     5
100
AcDbLine
 10
20.0244210720906
 20
-8.297206289210706
 30
0.0
 11
-15.9780203341594
 21
-8.297206289210706
 31
0.0
  0
LINE
  5
1C1
330
1F
100
AcDbEntity
  8
D-3
  6
Continuous
 62
     6
370
     5
100
AcDbLine
 10
84.02184233673904
 20
-8.297206289210706
 30
0.0
 11
28.02446684845779
 21
-8.297206289210706
 31
0.0
  0
LINE
  5
1C2
330
1F
100
AcDbEntity
  8
D-3
  6
Continuous
 62
     6
370
     5
100
AcDbLine
 10
-15.9780203341594
 20
-51.1552614039568
 30
0.0
 11
20.2028878689656
 21
-14.97425401870289
 31
0.0
  0
LINE
  5
1C3
330
1F
100
AcDbEntity
  8
D-3
  6
Continuous
 62
     6
370
     5
100
AcDbLine
 10
-115.9781900881877
 20
-8.297206289210706
 30
0.0
 11
-115.9781900881877
 21
-108.2971795863298
 31
0.0
  0
LINE
  5
1C4
330
1F
100
AcDbEntity
  8
D-3
  6
Continuous
 62
     6
370
     5
100
AcDbLine
 10
-15.9780203341594
 20
-56.81222856704274
 30
0.0
 11
20.63275847443435
 21
-20.20144212905446
 31
0.0
  0
LINE
  5
1C5
330
1F
100
AcDbEntity
  8
D-3
  6
Continuous
 62
     6
370
     5
100
AcDbLine
 10
-15.9780203341594
 20
-62.46909654799977
 30
0.0
 11
21.02684721955154
 21
-25.46412218276539
 31
0.0
  0
LINE
  5
1C6
330
1F
100
AcDbEntity
  8
D-3
  6
Continuous
 62
     6
370
     5
100
AcDbLine
 10
28.02446684845779
 20
-18.46660936538258
 30
0.0
 11
38.19376311310623
 21
-8.297206289210706
 31
0.0
  0
LINE
  5
1C7
330
1F
100
AcDbEntity
  8
D-3
  6
Continuous
 62
     6
370
     5
100
AcDbLine
 10
-130.978209161674
 20
111.7026411228987
 30
0.0
 11
-130.978209161674
 21
-8.297206289210706
 31
0.0
  0
LINE
  5
1C8
330
1F
100
AcDbEntity
  8
D-3
  6
Continuous
 62
     6
370
     5
100
AcDbLine
 10
-115.9781900881877
 20
-8.297206289210706
 30
0.0
 11
-150.9782024859538
 21
-8.297206289210706
 31
0.0
  0
LINE
  5
1C9
330
1F
100
AcDbEntity
  8
D-3
  6
Continuous
 62
     6
370
     5
100
AcDbLine
 10
-150.9782024859538
 20
111.7026411228987
 30
0.0
 11
-150.9782024859538
 21
59.20109998520336
 31
0.0
  0
LINE
  5
1CA
330
1F
100
AcDbEntity
  8
D-3
  6
Continuous
 62
     6
370
     5
100
AcDbLine
 10
-150.9782024859538
 20
54.20111524399242
 30
0.0
 11
-150.9782024859538
 21
-8.297206289210706
 31
0.0
  0
LINE
  5
1CB
330
1F
100
AcDbEntity
  8
D-3
  6
Continuous
 62
     6
370
     5
100
AcDbLine
 10
-130.978209161674
 20
100.6366621189924
 30
0.0
 11
-119.9122110842815
 21
111.7026411228987
 31
0.0
  0
LINE
  5
1CC
330
1F
100
AcDbEntity
  8
D-3
  6
Continuous
 62
     6
370
     5
100
AcDbLine
 10
-130.978209161674
 20
106.2935224705549
 30
0.0
 11
-125.5690771578899
 21
111.7026411228987
 31
0.0
  0
LINE
  5
1CD
330
1F
100
AcDbEntity
  8
D-3
  6
Continuous
 62
     6
370
     5
100
AcDbLine
 10
-130.978209161674
 20
102.8198896580549
 30
0.0
 11
-121.3160730837932
 21
93.1577497654768
 31
0.0
  0
LINE
  5
1CE
330
1F
100
AcDbEntity
  8
D-3
  6
Continuous
 62
     6
370
     5
100
AcDbLine
 10
-130.978209161674
 20
97.16302930649242
 30
0.0
 11
-126.9729391574016
 21
93.1577497654768
 31
0.0
  0
LINE
  5
1CF
330
1F
100
AcDbEntity
  8
D-3
  6
Continuous
 62
     6
370
     5
100
AcDbLine
 10
-116.0446802615276
 20
161.7199140721174
 30
0.0
 11
-116.0446802615276
 21
92.68744336899242
 31
0.0
  0
LINE
  5
1D0
330
1F
100
AcDbEntity
  8
D-3
  6
Continuous
 62
     6
370
     5
100
AcDbLine
 10
-190.9779898165813
 20
-40.33422411147633
 30
0.0
 11
-150.9782024859538
 21
-0.3344377345232061
 31
0.0
  0
LINE
  5
1D1
330
1F
100
AcDbEntity
  8
D-3
  6
Continuous
 62
     6
370
     5
100
AcDbLine
 10
-190.9779898165813
 20
-45.99119127456227
 30
0.0
 11
-150.9782024859538
 21
-5.991298086085706
 31
0.0
  0
LINE
  5
1D2
330
1F
100
AcDbEntity
  8
D-3
  6
Continuous
 62
     6
370
     5
100
AcDbLine
 10
-190.9779898165813
 20
-51.6480592555193
 30
0.0
 11
-147.6272980212321
 21
-8.297206289210706
 31
0.0
  0
LINE
  5
1D3
330
1F
100
AcDbEntity
  8
D-5
  6
Continuous
 62
     7
370
     9
100
AcDbLine
 10
-182.2475363253703
 20
56.70116102035961
 30
0.0
 11
-195.8495413302531
 21
56.70116102035961
 31
0.0
  0
LINE
  5
1D4
330
1F
100
AcDbEntity
  8
D-5
  6
Continuous
 62
     7
370
     9
100
AcDbLine
 10
-210.6575170992961
 20
-8.297206289210706
 30
0.0
 11
-210.6575170992961
 21
111.7028547459455
 31
0.0
  0
LINE
  5
1D5
330
1F
100
AcDbEntity
  8
D-5
  6
Continuous
 62
     7
370
     9
100
AcDbLine
 10
-161.4870954989543
 20
-8.297206289210706
 30
0.0
 11
-211.2575308322063
 21
-8.297206289210706
 31
0.0
  0
LINE
  5
1D6
330
1F
100
AcDbEntity
  8
D-5
  6
Continuous
 62
     7
370
     9
100
AcDbLine
 10
-161.4870954989543
 20
111.7028547459455
 30
0.0
 11
-211.2575308322063
 21
111.7028547459455
 31
0.0
  0
LINE
  5
1D7
330
1F
100
AcDbEntity
  8
D-5
  6
Continuous
 62
     7
370
     9
100
AcDbLine
 10
-130.978209161674
 20
115.6198164158674
 30
0.0
 11
-130.978209161674
 21
138.7625776463362
 31
0.0
  0
LINE
  5
1D8
330
1F
100
AcDbEntity
  8
D-5
  6
Continuous
 62
     7
370
     9
100
AcDbLine
 10
-150.9782024859538
 20
138.1624799900862
 30
0.0
 11
-150.9782024859538
 21
115.6198164158674
 31
0.0
  0
LINE
  5
1D9
330
1F
100
AcDbEntity
  8
D-5
  6
Continuous
 62
     7
370
     9
100
AcDbLine
 10
59.02742705353592
 20
58.66153394516429
 30
0.0
 11
59.02742705353592
 21
138.7625776463362
 31
0.0
  0
LINE
  5
1DA
330
1F
100
AcDbEntity
  8
D-3
  6
Continuous
 62
     6
370
     5
100
AcDbLine
 10
-116.0446802615276
 20
111.7026411228987
 30
0.0
 11
-150.9782024859538
 21
111.7026411228987
 31
0.0
  0
LINE
  5
1DB
330
1F
100
AcDbEntity
  8
D-3
  6
Continuous
 62
     6
370
     5
100
AcDbLine
 10
-121.486364984428
 20
93.1577497654768
 30
0.0
 11
-116.0446802615276
 21
98.59958326157054
 31
0.0
  0
LINE
  5
1DC
330
1F
100
AcDbEntity
  8
D-3
  6
Continuous
 62
     6
370
     5
100
AcDbLine
 10
-128.5470921038738
 20
111.7026411228987
 30
0.0
 11
-116.0446802615276
 21
99.20019971664867
 31
0.0
  0
LINE
  5
1DD
330
1F
100
AcDbEntity
  8
D-3
  6
Continuous
 62
     6
370
     5
100
AcDbLine
 10
-130.978209161674
 20
108.4767500096174
 30
0.0
 11
-116.0446802615276
 21
93.54330884750804
 31
0.0
  0
LINE
  5
1DE
330
1F
100
AcDbEntity
  8
D-3
  6
Continuous
 62
     6
370
     5
100
AcDbLine
 10
-127.1433798312297
 20
93.1577497654768
 30
0.0
 11
-116.0446802615276
 21
104.2563520603987
 31
0.0
  0
LINE
  5
1DF
330
1F
100
AcDbEntity
  8
D-3
  6
Continuous
 62
     6
370
     5
100
AcDbLine
 10
-122.8902765750041
 20
111.7026411228987
 30
0.0
 11
-116.0446802615276
 21
104.8570600682112
 31
0.0
  0
LINE
  5
1E0
330
1F
100
AcDbEntity
  8
D-3
  6
Continuous
 62
     6
370
     5
100
AcDbLine
 10
-130.978209161674
 20
94.9798933201643
 30
0.0
 11
-116.0446802615276
 21
109.9132124119612
 31
0.0
  0
LINE
  5
1E1
330
1F
100
AcDbEntity
  8
D-3
  6
Continuous
 62
     6
370
     5
100
AcDbLine
 10
-117.2334105013957
 20
111.7026411228987
 30
0.0
 11
-116.0446802615276
 21
110.5139204197737
 31
0.0
  0
LINE
  5
1E2
330
1F
100
AcDbEntity
  8
D-4
  6
Continuous
 62
     7
370
     9
100
AcDbLine
 10
-88.68152680388596
 20
159.9433637791487
 30
0.0
 11
-18.85630097380783
 21
159.9433637791487
 31
0.0
  0
LINE
  5
1E3
330
1F
100
AcDbEntity
  8
D-4
  6
Continuous
 62
     7
370
     9
100
AcDbLine
 10
-88.68152680388596
 20
159.9433637791487
 30
0.0
 11
-116.0446802615276
 21
104.2563520603987
 31
0.0
  0
LINE
  5
1E4
330
1F
100
AcDbEntity
  8
D-4
  6
Continuous
 62
     7
370
     9
100
AcDbLine
 10
-116.0446802615276
 20
104.2563520603987
 30
0.0
 11
-114.4441687106242
 21
108.9933210545393
 31
0.0
  0
LINE
  5
1E5
330
1F
100
AcDbEntity
  8
D-4
  6
Continuous
 62
     7
370
     9
100
AcDbLine
 10
-116.0446802615276
 20
104.2563520603987
 30
0.0
 11
-113.2727324008098
 21
108.4176984959455
 31
0.0
  0
LINE
  5
1E6
330
1F
100
AcDbEntity
  8
D-1
  6
Continuous
 62
     2
370
     9
100
AcDbLine
 10
44.0323556424031
 20
38.72009717758617
 30
0.0
 11
44.0323556424031
 21
38.42004834946117
 31
0.0
  0
LINE
  5
1E7
330
1F
100
AcDbEntity
  8
D-1
  6
Continuous
 62
     2
370
     9
100
AcDbLine
 10
58.32524809845779
 20
38.72009717758617
 30
0.0
 11
59.03238615998123
 21
38.01295911606273
 31
0.0
  0
LINE
  5
1E8
330
1F
100
AcDbEntity
  8
D-1
  6
Continuous
 62
     2
370
     9
100
AcDbLine
 10
46.73236784943435
 20
35.71992933090648
 30
0.0
 11
47.8324044705281
 21
35.71992933090648
 31
0.0
  0
LINE
  5
1E9
330
1F
100
AcDbEntity
  8
D-1
  6
Continuous
 62
     2
370
     9
100
AcDbLine
 10
59.03238615998123
 20
38.01295911606273
 30
0.0
 11
59.03238615998123
 21
35.71992933090648
 31
0.0
  0
LINE
  5
1EA
330
1F
100
AcDbEntity
  8
D-1
  6
Continuous
 62
     2
370
     9
100
AcDbLine
 10
55.73236784943435
 20
35.71992933090648
 30
0.0
 11
59.03238615998123
 21
35.71992933090648
 31
0.0
  0
LINE
  5
1EB
330
1F
100
AcDbEntity
  8
D-1
  6
Continuous
 62
     2
370
     9
100
AcDbLine
 10
55.23233733185623
 20
29.23979627426586
 30
0.0
 11
55.23233733185623
 21
35.22011243637523
 31
0.0
  0
LINE
  5
1EC
330
1F
100
AcDbEntity
  8
D-1
  6
Continuous
 62
     2
370
     9
100
AcDbLine
 10
55.73236784943435
 20
28.73976575668773
 30
0.0
 11
58.5323556424031
 21
28.73976575668773
 31
0.0
  0
LINE
  5
1ED
330
1F
100
AcDbEntity
  8
D-1
  6
Continuous
 62
     2
370
     9
100
AcDbLine
 10
47.8324044705281
 20
26.22011243637523
 30
0.0
 11
47.8324044705281
 21
35.71992933090648
 31
0.0
  0
LINE
  5
1EE
330
1F
100
AcDbEntity
  8
D-1
  6
Continuous
 62
     2
370
     9
100
AcDbLine
 10
44.0323556424031
 20
38.42004834946117
 30
0.0
 11
46.73236784943435
 21
35.71992933090648
 31
0.0
  0
LINE
  5
1EF
330
1F
100
AcDbEntity
  8
D-1
  6
Continuous
 62
     2
370
     9
100
AcDbLine
 10
59.03238615998123
 20
38.72009717758617
 30
0.0
 11
44.0323556424031
 21
38.72009717758617
 31
0.0
  0
LINE
  5
1F0
330
1F
100
AcDbEntity
  8
D-1
  6
Continuous
 62
     2
370
     9
100
AcDbLine
 10
55.38216338166092
 20
41.72006666000804
 30
0.0
 11
52.03215727814529
 21
41.72006666000804
 31
0.0
  0
LINE
  5
1F1
330
1F
100
AcDbEntity
  8
D-1
  6
JWW_CENTER1
 62
     2
370
     9
100
AcDbLine
 10
51.53217253693435
 20
44.20315992172679
 30
0.0
 11
51.53217253693435
 21
26.80229627426586
 31
0.0
  0
LINE
  5
1F2
330
1F
100
AcDbEntity
  8
D-0
  6
Continuous
 62
     3
370
     9
100
AcDbLine
 10
59.03238615998123
 20
41.01292859848461
 30
0.0
 11
59.03238615998123
 21
38.72009717758617
 31
0.0
  0
LINE
  5
1F3
330
1F
100
AcDbEntity
  8
D-0
  6
Continuous
 62
     3
370
     9
100
AcDbLine
 10
59.03238615998123
 20
41.01292859848461
 30
0.0
 11
58.32524809845779
 21
41.72006666000804
 31
0.0
  0
LINE
  5
1F4
330
1F
100
AcDbEntity
  8
D-1
  6
Continuous
 62
     2
370
     9
100
AcDbLine
 10
56.03241667755935
 20
14.72008191879711
 30
0.0
 11
56.03241667755935
 21
25.21995984848461
 31
0.0
  0
LINE
  5
1F5
330
1F
100
AcDbEntity
  8
D-0
  6
Continuous
 62
     3
370
     9
100
AcDbLine
 10
-117.5449606417766
 20
38.18736707504711
 30
0.0
 11
-117.5449606417766
 21
91.6872907811018
 31
0.0
  0
LINE
  5
1F6
330
1F
100
AcDbEntity
  8
D-1
  6
Continuous
 62
     2
370
     9
100
AcDbLine
 10
-118.7439943789592
 20
85.20171033676586
 30
0.0
 11
-119.6843954562297
 21
86.32236158188304
 31
0.0
  0
LINE
  5
1F7
330
1F
100
AcDbEntity
  8
D-1
  6
Continuous
 62
     2
370
     9
100
AcDbLine
 10
-119.6843954562297
 20
86.32236158188304
 30
0.0
 11
-119.4545961855998
 21
86.51509534653148
 31
0.0
  0
LINE
  5
1F8
330
1F
100
AcDbEntity
  8
D-1
  6
Continuous
 62
     2
370
     9
100
AcDbLine
 10
-118.514197015678
 20
85.39455091293773
 30
0.0
 11
-119.4545961855998
 21
86.51509534653148
 31
0.0
  0
LINE
  5
1F9
330
1F
100
AcDbEntity
  8
D-1
  6
Continuous
 62
     2
370
     9
100
AcDbLine
 10
-122.736681604301
 20
86.56503736313304
 30
0.0
 11
-126.1242510317912
 21
90.90356885727367
 31
0.0
  0
LINE
  5
1FA
330
1F
100
AcDbEntity
  8
D-1
  6
Continuous
 62
     2
370
     9
100
AcDbLine
 10
-122.8698622225871
 20
85.99078809555492
 30
0.0
 11
-126.5448538302531
 21
82.18727552231273
 31
0.0
  0
LINE
  5
1FB
330
1F
100
AcDbEntity
  8
D-1
  6
Continuous
 62
     2
370
     9
100
AcDbLine
 10
-122.9285265444865
 20
86.34088575180492
 30
0.0
 11
-126.3283335208049
 21
90.68378125961742
 31
0.0
  0
LINE
  5
1FC
330
1F
100
AcDbEntity
  8
D-1
  6
Continuous
 62
     2
370
     9
100
AcDbLine
 10
-122.6165796755901
 20
85.84087049301586
 30
0.0
 11
-126.2770525454631
 21
82.05231153305492
 31
0.0
  0
LINE
  5
1FD
330
1F
100
AcDbEntity
  8
D-1
  6
Continuous
 62
     2
370
     9
100
AcDbLine
 10
-117.9844423770061
 20
91.08728467758617
 30
0.0
 11
-117.9844423770061
 21
85.58728467758617
 31
0.0
  0
LINE
  5
1FE
330
1F
100
AcDbEntity
  8
D-1
  6
Continuous
 62
     2
370
     9
100
AcDbLine
 10
-118.2843977450481
 20
91.6872907811018
 30
0.0
 11
-125.8843943118205
 21
91.6872907811018
 31
0.0
  0
LINE
  5
1FF
330
1F
100
AcDbEntity
  8
D-1
  6
Continuous
 62
     2
370
     9
100
AcDbLine
 10
-117.6843859194865
 20
91.08728467758617
 30
0.0
 11
-117.6843859194865
 21
85.58728467758617
 31
0.0
  0
LINE
  5
200
330
1F
100
AcDbEntity
  8
D-1
  6
Continuous
 62
     2
370
     9
100
AcDbLine
 10
-118.2843977450481
 20
91.38733350571117
 30
0.0
 11
-125.8843943118205
 21
91.38733350571117
 31
0.0
  0
LINE
  5
201
330
1F
100
AcDbEntity
  8
D-0
  6
Continuous
 62
     3
370
     9
100
AcDbLine
 10
45.02736601837967
 20
41.72006666000804
 30
0.0
 11
58.32524809845779
 21
41.72006666000804
 31
0.0
  0
LINE
  5
202
330
1F
100
AcDbEntity
  8
D-1
  6
Continuous
 62
     2
370
     9
100
AcDbLine
 10
59.02742705353592
 20
28.23975049789867
 30
0.0
 11
59.02742705353592
 21
11.72002088364086
 31
0.0
  0
ARC
  5
203
330
1F
100
AcDbEntity
  8
D-0
  6
Continuous
 62
     3
370
     9
100
AcDbCircle
 10
-66.47778382292893
 20
41.73810254867992
 30
0.0
 40
1.0
100
AcDbArc
 50
180.0
 51
270.0
  0
ARC
  5
204
330
1F
100
AcDbEntity
  8
D-0
  6
Continuous
 62
     3
370
     9
100
AcDbCircle
 10
-65.47792878142502
 20
41.73810254867992
 30
0.0
 40
1.0
100
AcDbArc
 50
270.0
 51
0.0
  0
ARC
  5
205
330
1F
100
AcDbEntity
  8
D-0
  6
Continuous
 62
     3
370
     9
100
AcDbCircle
 10
-60.47786011687424
 20
41.73810254867992
 30
0.0
 40
1.0
100
AcDbArc
 50
270.0
 51
0.0
  0
ARC
  5
206
330
1F
100
AcDbEntity
  8
D-0
  6
Continuous
 62
     3
370
     9
100
AcDbCircle
 10
-61.47781434050705
 20
41.73810254867992
 30
0.0
 40
1.0
100
AcDbArc
 50
180.0
 51
270.0
  0
ARC
  5
207
330
1F
100
AcDbEntity
  8
D-0
  6
Continuous
 62
     3
370
     9
100
AcDbCircle
 10
-56.47783722869065
 20
41.73810254867992
 30
0.0
 40
1.0
100
AcDbArc
 50
180.0
 51
270.0
  0
ARC
  5
208
330
1F
100
AcDbEntity
  8
D-0
  6
Continuous
 62
     3
370
     9
100
AcDbCircle
 10
-55.47778382292893
 20
41.73810254867992
 30
0.0
 40
1.0
100
AcDbArc
 50
270.0
 51
0.0
  0
ARC
  5
209
330
1F
100
AcDbEntity
  8
D-1
  6
Continuous
 62
     2
370
     9
100
AcDbCircle
 10
-116.8530889987102
 20
22.57773267563304
 30
0.0
 40
0.875
100
AcDbArc
 50
270.0
 51
90.0
  0
ARC
  5
20A
330
1F
100
AcDbEntity
  8
D-0
  6
Continuous
 62
     3
370
     9
100
AcDbCircle
 10
-128.6497532366863
 20
95.3441511326643
 30
0.0
 40
2.618713855743408
100
AcDbArc
 50
205.4662933349609
 51
266.1547393798828
  0
ARC
  5
20B
330
1F
100
AcDbEntity
  8
D-0
  6
Continuous
 62
     3
370
     9
100
AcDbCircle
 10
-128.4764887332072
 20
82.15486585434398
 30
0.0
 40
2.709379434585571
100
AcDbArc
 50
97.9675750732422
 51
156.6620788574219
  0
ARC
  5
20C
330
1F
100
AcDbEntity
  8
D-0
  6
Continuous
 62
     3
370
     9
100
AcDbCircle
 10
-127.2949434756389
 20
78.93739759262523
 30
0.0
 40
0.7499999403953552
100
AcDbArc
 50
180.0
 51
0.0
  0
ARC
  5
20D
330
1F
100
AcDbEntity
  8
D-0
  6
Continuous
 62
     3
370
     9
100
AcDbCircle
 10
-127.5449081896892
 20
92.68744336899242
 30
0.0
 40
0.5
100
AcDbArc
 50
90.0
 51
180.0
  0
ARC
  5
20E
330
1F
100
AcDbEntity
  8
D-1
  6
Continuous
 62
     2
370
     9
100
AcDbCircle
 10
-114.9780355929485
 20
28.20268689926586
 30
0.0
 40
1.0
100
AcDbArc
 50
270.0
 51
0.0
  0
ARC
  5
20F
330
1F
100
AcDbEntity
  8
D-1
  6
Continuous
 62
     2
370
     9
100
AcDbCircle
 10
-114.9780355929485
 20
34.20271741684398
 30
0.0
 40
1.0
100
AcDbArc
 50
0.0
 51
180.0
  0
ARC
  5
210
330
1F
100
AcDbEntity
  8
D-0
  6
Continuous
 62
     3
370
     9
100
AcDbCircle
 10
-116.5449072360149
 20
92.68744336899242
 30
0.0
 40
0.5
100
AcDbArc
 50
0.0
 51
90.0
  0
ARC
  5
211
330
1F
100
AcDbEntity
  8
D-1
  6
Continuous
 62
     2
370
     9
100
AcDbCircle
 10
-121.0449530123821
 20
89.68719922836742
 30
0.0
 40
1.49999988079071
100
AcDbArc
 50
0.0
 51
180.0
  0
ARC
  5
212
330
1F
100
AcDbEntity
  8
D-1
  6
Continuous
 62
     2
370
     9
100
AcDbCircle
 10
-13.96761384001877
 20
28.21992933090648
 30
0.0
 40
1.0
100
AcDbArc
 50
180.0
 51
270.0
  0
ARC
  5
213
330
1F
100
AcDbEntity
  8
D-1
  6
Continuous
 62
     2
370
     9
100
AcDbCircle
 10
-14.09772553435471
 20
22.59517347153148
 30
0.0
 40
0.875
100
AcDbArc
 50
90.0
 51
270.0
  0
ARC
  5
214
330
1F
100
AcDbEntity
  8
D-1
  6
Continuous
 62
     2
370
     9
100
AcDbCircle
 10
-13.46758332244065
 20
33.91058790024242
 30
0.0
 40
1.49999988079071
100
AcDbArc
 50
0.0000152587890625
 51
177.3917083740235
  0
ARC
  5
215
330
1F
100
AcDbEntity
  8
D-2
  6
Continuous
 62
     4
370
     9
100
AcDbCircle
 10
-15.9675222872844
 20
22.89502393539867
 30
0.0
 40
2.0
100
AcDbArc
 50
90.0
 51
180.0
  0
ARC
  5
216
330
1F
100
AcDbEntity
  8
D-2
  6
Continuous
 62
     4
370
     9
100
AcDbCircle
 10
-15.9675222872844
 20
22.89502393539867
 30
0.0
 40
1.200000166893005
100
AcDbArc
 50
90.0
 51
180.0
  0
ARC
  5
217
330
1F
100
AcDbEntity
  8
D-2
  6
Continuous
 62
     4
370
     9
100
AcDbCircle
 10
-13.96761384001877
 20
26.34012281235179
 30
0.0
 40
0.25
100
AcDbArc
 50
0.0
 51
90.0
  0
ARC
  5
218
330
1F
100
AcDbEntity
  8
D-2
  6
Continuous
 62
     4
370
     9
100
AcDbCircle
 10
-13.96761384001877
 20
24.35011731918773
 30
0.0
 40
0.25
100
AcDbArc
 50
270.0
 51
0.0
  0
ARC
  5
219
330
1F
100
AcDbEntity
  8
D-2
  6
Continuous
 62
     4
370
     9
100
AcDbCircle
 10
-26.69521393767502
 20
10.79498731430492
 30
0.0
 40
14.99999809265137
100
AcDbArc
 50
90.0
 51
180.0
  0
ARC
  5
21A
330
1F
100
AcDbEntity
  8
D-2
  6
Continuous
 62
     4
370
     9
100
AcDbCircle
 10
-65.97508301726486
 20
-4.703578359523206
 30
0.0
 40
24.28000450134277
100
AcDbArc
 50
270.0
 51
0.0
  0
ARC
  5
21B
330
1F
100
AcDbEntity
  8
D-2
  6
Continuous
 62
     4
370
     9
100
AcDbCircle
 10
-26.69521393767502
 20
10.79498731430492
 30
0.0
 40
14.10000133514404
100
AcDbArc
 50
90.0
 51
177.7619476318359
  0
ARC
  5
21C
330
1F
100
AcDbEntity
  8
D-2
  6
Continuous
 62
     4
370
     9
100
AcDbCircle
 10
-65.97508301726486
 20
-4.703578359523206
 30
0.0
 40
25.17999839782715
100
AcDbArc
 50
270.0
 51
0.0
  0
ARC
  5
21D
330
1F
100
AcDbEntity
  8
D-2
  6
Continuous
 62
     4
370
     9
100
AcDbCircle
 10
-65.97003235808518
 20
-4.703578359523206
 30
0.0
 40
25.17999839782715
100
AcDbArc
 50
180.0000152587891
 51
270.0
  0
ARC
  5
21E
330
1F
100
AcDbEntity
  8
D-2
  6
Continuous
 62
     4
370
     9
100
AcDbCircle
 10
-105.249901437675
 20
10.79498731430492
 30
0.0
 40
14.10000133514404
100
AcDbArc
 50
0.0000152587890625
 51
90.00001525878905
  0
ARC
  5
21F
330
1F
100
AcDbEntity
  8
D-2
  6
Continuous
 62
     4
370
     9
100
AcDbCircle
 10
-65.97003235808518
 20
-4.703578359523206
 30
0.0
 40
24.28000450134277
100
AcDbArc
 50
180.0
 51
270.0
  0
ARC
  5
220
330
1F
100
AcDbEntity
  8
D-2
  6
Continuous
 62
     4
370
     9
100
AcDbCircle
 10
-105.249901437675
 20
10.79498731430492
 30
0.0
 40
14.99999809265137
100
AcDbArc
 50
0.0
 51
90.00001525878905
  0
ARC
  5
221
330
1F
100
AcDbEntity
  8
D-0
  6
Continuous
 62
     3
370
     9
100
AcDbCircle
 10
-75.4777761935344
 20
41.73810254867992
 30
0.0
 40
1.0
100
AcDbArc
 50
270.0
 51
0.0
  0
ARC
  5
222
330
1F
100
AcDbEntity
  8
D-0
  6
Continuous
 62
     3
370
     9
100
AcDbCircle
 10
-76.47792878142502
 20
41.73810254867992
 30
0.0
 40
1.0
100
AcDbArc
 50
180.0
 51
270.0
  0
ARC
  5
223
330
1F
100
AcDbEntity
  8
D-0
  6
Continuous
 62
     3
370
     9
100
AcDbCircle
 10
-70.47780671111252
 20
41.73810254867992
 30
0.0
 40
1.0
100
AcDbArc
 50
270.0
 51
0.0
  0
ARC
  5
224
330
1F
100
AcDbEntity
  8
D-0
  6
Continuous
 62
     3
370
     9
100
AcDbCircle
 10
-71.47786011687424
 20
41.73810254867992
 30
0.0
 40
1.0
100
AcDbArc
 50
180.0
 51
270.0
  0
ARC
  5
225
330
1F
100
AcDbEntity
  8
D-2
  6
Continuous
 62
     4
370
     9
100
AcDbCircle
 10
-117.9776045321574
 20
24.35011731918773
 30
0.0
 40
0.25
100
AcDbArc
 50
180.0
 51
270.0
  0
ARC
  5
226
330
1F
100
AcDbEntity
  8
D-2
  6
Continuous
 62
     4
370
     9
100
AcDbCircle
 10
-117.9776045321574
 20
26.34012281235179
 30
0.0
 40
0.25
100
AcDbArc
 50
90.0
 51
180.0
  0
ARC
  5
227
330
1F
100
AcDbEntity
  8
D-2
  6
Continuous
 62
     4
370
     9
100
AcDbCircle
 10
-115.9774958132854
 20
22.89502393539867
 30
0.0
 40
1.200000166893005
100
AcDbArc
 50
0.0
 51
90.00001525878905
  0
ARC
  5
228
330
1F
100
AcDbEntity
  8
D-2
  6
Continuous
 62
     4
370
     9
100
AcDbCircle
 10
-115.9774958132854
 20
22.89502393539867
 30
0.0
 40
2.0
100
AcDbArc
 50
0.0
 51
90.00001525878905
  0
ARC
  5
229
330
1F
100
AcDbEntity
  8
D-1
  6
Continuous
 62
     2
370
     9
100
AcDbCircle
 10
58.5323556424031
 20
28.23975049789867
 30
0.0
 40
0.5
100
AcDbArc
 50
0.0
 51
90.0
  0
ARC
  5
22A
330
1F
100
AcDbEntity
  8
D-1
  6
Continuous
 62
     2
370
     9
100
AcDbCircle
 10
55.73236784943435
 20
35.22011243637523
 30
0.0
 40
0.5
100
AcDbArc
 50
90.0
 51
180.0
  0
ARC
  5
22B
330
1F
100
AcDbEntity
  8
D-1
  6
Continuous
 62
     2
370
     9
100
AcDbCircle
 10
55.73236784943435
 20
29.23979627426586
 30
0.0
 40
0.5
100
AcDbArc
 50
180.0
 51
270.0
  0
ARC
  5
22C
330
1F
100
AcDbEntity
  8
D-1
  6
Continuous
 62
     2
370
     9
100
AcDbCircle
 10
48.33243498810623
 20
26.22011243637523
 30
0.0
 40
0.5
100
AcDbArc
 50
180.0
 51
270.0
  0
ARC
  5
22D
330
1F
100
AcDbEntity
  8
D-1
  6
Continuous
 62
     2
370
     9
100
AcDbCircle
 10
55.53244719513748
 20
25.21995984848461
 30
0.0
 40
0.5
100
AcDbArc
 50
0.0
 51
90.0
  0
ARC
  5
22E
330
1F
100
AcDbEntity
  8
D-1
  6
Continuous
 62
     2
370
     9
100
AcDbCircle
 10
-118.2843977450481
 20
85.58728467758617
 30
0.0
 40
0.6000000238418579
100
AcDbArc
 50
220.0004119873047
 51
0.0000000000000254
  0
ARC
  5
22F
330
1F
100
AcDbEntity
  8
D-1
  6
Continuous
 62
     2
370
     9
100
AcDbCircle
 10
-118.2843977450481
 20
85.58728467758617
 30
0.0
 40
0.300000011920929
100
AcDbArc
 50
220.0004119873047
 51
0.0000000000000254
  0
ARC
  5
230
330
1F
100
AcDbEntity
  8
D-1
  6
Continuous
 62
     2
370
     9
100
AcDbCircle
 10
-125.8843943118205
 20
91.08728467758617
 30
0.0
 40
0.6000000238418579
100
AcDbArc
 50
90.0
 51
222.2742919921875
  0
ARC
  5
231
330
1F
100
AcDbEntity
  8
D-1
  6
Continuous
 62
     2
370
     9
100
AcDbCircle
 10
-125.8843943118205
 20
91.08728467758617
 30
0.0
 40
0.300000011920929
100
AcDbArc
 50
90.0
 51
222.2742919921875
  0
ARC
  5
232
330
1F
100
AcDbEntity
  8
D-1
  6
Continuous
 62
     2
370
     9
100
AcDbCircle
 10
-123.144848489677
 20
86.12526380356273
 30
0.0
 40
0.6000000238418579
100
AcDbArc
 50
331.6990509033203
 51
47.13160705566407
  0
ARC
  5
233
330
1F
100
AcDbEntity
  8
D-1
  6
Continuous
 62
     2
370
     9
100
AcDbCircle
 10
-123.1377130984416
 20
86.12585889633617
 30
0.0
 40
0.300000011920929
100
AcDbArc
 50
333.2426300048828
 51
45.78445434570311
  0
ARC
  5
234
330
1F
100
AcDbEntity
  8
D-1
  6
Continuous
 62
     2
370
     9
100
AcDbCircle
 10
-118.2843977450481
 20
91.08728467758617
 30
0.0
 40
0.300000011920929
100
AcDbArc
 50
0.0
 51
90.0
  0
ARC
  5
235
330
1F
100
AcDbEntity
  8
D-1
  6
Continuous
 62
     2
370
     9
100
AcDbCircle
 10
-118.2843977450481
 20
91.08728467758617
 30
0.0
 40
0.6000000238418579
100
AcDbArc
 50
0.0
 51
90.0
  0
LWPOLYLINE
  5
236
330
1F
100
AcDbEntity
  8
D-5
  6
Continuous
 62
     7
370
     9
100
AcDbPolyline
 90
        4
 70
     1
 43
0.4
 10
-115.8448786257854
 20
138.1624799900862
 42
0.4142135623731
 10
-116.0448786257854
 20
138.3624799900862
 42
0.4142135623731
 10
-116.2448786257854
 20
138.1624799900862
 42
0.4142135623731
 10
-116.0448786257854
 20
137.9624799900862
 42
0.4142135623731
  0
LWPOLYLINE
  5
237
330
1F
100
AcDbEntity
  8
D-5
  6
Continuous
 62
     7
370
     9
100
AcDbPolyline
 90
        4
 70
     1
 43
0.4
 10
59.22742705353592
 20
138.1624799900862
 42
0.4142135623731
 10
59.02742705353592
 20
138.3624799900862
 42
0.4142135623731
 10
58.82742705353591
 20
138.1624799900862
 42
0.4142135623731
 10
59.02742705353592
 20
137.9624799900862
 42
0.4142135623731
  0
LWPOLYLINE
  5
238
330
1F
100
AcDbEntity
  8
D-5
  6
Continuous
 62
     7
370
     9
100
AcDbPolyline
 90
        4
 70
     1
 43
0.4
 10
-115.7781900881877
 20
-137.7529977625994
 42
0.4142135623731
 10
-115.9781900881877
 20
-137.5529977625994
 42
0.4142135623731
 10
-116.1781900881877
 20
-137.7529977625994
 42
0.4142135623731
 10
-115.9781900881877
 20
-137.9529977625994
 42
0.4142135623731
  0
LWPOLYLINE
  5
239
330
1F
100
AcDbEntity
  8
D-5
  6
Continuous
 62
     7
370
     9
100
AcDbPolyline
 90
        4
 70
     1
 43
0.4
 10
-15.7780203341594
 20
-137.7529977625994
 42
0.4142135623731
 10
-15.9780203341594
 20
-137.5529977625994
 42
0.4142135623731
 10
-16.1780203341594
 20
-137.7529977625994
 42
0.4142135623731
 10
-15.9780203341594
 20
-137.9529977625994
 42
0.4142135623731
  0
LWPOLYLINE
  5
23A
330
1F
100
AcDbEntity
  8
D-5
  6
Continuous
 62
     7
370
     9
100
AcDbPolyline
 90
        4
 70
     1
 43
0.4
 10
84.22184233673904
 20
-137.7529977625994
 42
0.4142135623731
 10
84.02184233673904
 20
-137.5529977625994
 42
0.4142135623731
 10
83.82184233673904
 20
-137.7529977625994
 42
0.4142135623731
 10
84.02184233673904
 20
-137.9529977625994
 42
0.4142135623731
  0
LWPOLYLINE
  5
23B
330
1F
100
AcDbEntity
  8
D-5
  6
Continuous
 62
     7
370
     9
100
AcDbPolyline
 90
        4
 70
     1
 43
0.4
 10
-15.7780203341594
 20
-84.44045580092946
 42
0.4142135623731
 10
-15.9780203341594
 20
-84.24045580092945
 42
0.4142135623731
 10
-16.1780203341594
 20
-84.44045580092946
 42
0.4142135623731
 10
-15.9780203341594
 20
-84.64045580092946
 42
0.4142135623731
  0
LWPOLYLINE
  5
23C
330
1F
100
AcDbEntity
  8
D-5
  6
Continuous
 62
     7
370
     9
100
AcDbPolyline
 90
        4
 70
     1
 43
0.4
 10
24.22434477814529
 20
-84.44045580092946
 42
0.4142135623731
 10
24.02434477814529
 20
-84.24045580092945
 42
0.4142135623731
 10
23.82434477814529
 20
-84.44045580092946
 42
0.4142135623731
 10
24.02434477814529
 20
-84.64045580092946
 42
0.4142135623731
  0
LWPOLYLINE
  5
23D
330
1F
100
AcDbEntity
  8
D-5
  6
Continuous
 62
     7
370
     9
100
AcDbPolyline
 90
        4
 70
     1
 43
0.4
 10
-195.049527597343
 20
11.70268689926586
 42
0.4142135623731
 10
-195.249527597343
 20
11.90268689926586
 42
0.4142135623731
 10
-195.449527597343
 20
11.70268689926586
 42
0.4142135623731
 10
-195.249527597343
 20
11.50268689926586
 42
0.4142135623731
  0
LWPOLYLINE
  5
23E
330
1F
100
AcDbEntity
  8
D-5
  6
Continuous
 62
     7
370
     9
100
AcDbPolyline
 90
        4
 70
     1
 43
0.4
 10
-195.049527597343
 20
56.70116102035961
 42
0.4142135623731
 10
-195.249527597343
 20
56.90116102035961
 42
0.4142135623731
 10
-195.449527597343
 20
56.70116102035961
 42
0.4142135623731
 10
-195.249527597343
 20
56.5011610203596
 42
0.4142135623731
  0
LWPOLYLINE
  5
23F
330
1F
100
AcDbEntity
  8
D-5
  6
Continuous
 62
     7
370
     9
100
AcDbPolyline
 90
        4
 70
     1
 43
0.4
 10
141.7493997097859
 20
93.1871687107893
 42
0.4142135623731
 10
141.5493997097859
 20
93.3871687107893
 42
0.4142135623731
 10
141.3493997097859
 20
93.1871687107893
 42
0.4142135623731
 10
141.5493997097859
 20
92.98716871078929
 42
0.4142135623731
  0
LWPOLYLINE
  5
240
330
1F
100
AcDbEntity
  8
D-5
  6
Continuous
 62
     7
370
     9
100
AcDbPolyline
 90
        4
 70
     1
 43
0.4
 10
141.7493997097859
 20
41.72006666000804
 42
0.4142135623731
 10
141.5493997097859
 20
41.92006666000805
 42
0.4142135623731
 10
141.3493997097859
 20
41.72006666000804
 42
0.4142135623731
 10
141.5493997097859
 20
41.52006666000804
 42
0.4142135623731
  0
LWPOLYLINE
  5
241
330
1F
100
AcDbEntity
  8
D-5
  6
Continuous
 62
     7
370
     9
100
AcDbPolyline
 90
        4
 70
     1
 43
0.4
 10
141.7493997097859
 20
11.70268689926586
 42
0.4142135623731
 10
141.5493997097859
 20
11.90268689926586
 42
0.4142135623731
 10
141.3493997097859
 20
11.70268689926586
 42
0.4142135623731
 10
141.5493997097859
 20
11.50268689926586
 42
0.4142135623731
  0
LWPOLYLINE
  5
242
330
1F
100
AcDbEntity
  8
D-5
  6
Continuous
 62
     7
370
     9
100
AcDbPolyline
 90
        4
 70
     1
 43
0.4
 10
155.7790322781453
 20
41.72006666000804
 42
0.4142135623731
 10
155.5790322781453
 20
41.92006666000805
 42
0.4142135623731
 10
155.3790322781453
 20
41.72006666000804
 42
0.4142135623731
 10
155.5790322781453
 20
41.52006666000804
 42
0.4142135623731
  0
LWPOLYLINE
  5
243
330
1F
100
AcDbEntity
  8
D-5
  6
Continuous
 62
     7
370
     9
100
AcDbPolyline
 90
        4
 70
     1
 43
0.4
 10
155.7790322781453
 20
-8.297206289210706
 42
0.4142135623731
 10
155.5790322781453
 20
-8.097206289210707
 42
0.4142135623731
 10
155.3790322781453
 20
-8.297206289210706
 42
0.4142135623731
 10
155.5790322781453
 20
-8.497206289210705
 42
0.4142135623731
  0
LWPOLYLINE
  5
244
330
1F
100
AcDbEntity
  8
D-5
  6
Continuous
 62
     7
370
     9
100
AcDbPolyline
 90
        4
 70
     1
 43
0.4
 10
25.21508269318435
 20
38.72000562485179
 42
0.4142135623731
 10
25.01508269318435
 20
38.9200056248518
 42
0.4142135623731
 10
24.81508269318435
 20
38.72000562485179
 42
0.4142135623731
 10
25.01508269318435
 20
38.52000562485179
 42
0.4142135623731
  0
LWPOLYLINE
  5
245
330
1F
100
AcDbEntity
  8
D-5
  6
Continuous
 62
     7
370
     9
100
AcDbPolyline
 90
        4
 70
     1
 43
0.4
 10
25.21508269318435
 20
41.72006666000804
 42
0.4142135623731
 10
25.01508269318435
 20
41.92006666000805
 42
0.4142135623731
 10
24.81508269318435
 20
41.72006666000804
 42
0.4142135623731
 10
25.01508269318435
 20
41.52006666000804
 42
0.4142135623731
  0
LWPOLYLINE
  5
246
330
1F
100
AcDbEntity
  8
D-5
  6
Continuous
 62
     7
370
     9
100
AcDbPolyline
 90
        4
 70
     1
 43
0.4
 10
-115.8446802615276
 20
125.2745405369612
 42
0.4142135623731
 10
-116.0446802615276
 20
125.4745405369612
 42
0.4142135623731
 10
-116.2446802615276
 20
125.2745405369612
 42
0.4142135623731
 10
-116.0446802615276
 20
125.0745405369612
 42
0.4142135623731
  0
LWPOLYLINE
  5
247
330
1F
100
AcDbEntity
  8
D-5
  6
Continuous
 62
     7
370
     9
100
AcDbPolyline
 90
        4
 70
     1
 43
0.4
 10
-15.77267212859299
 20
125.2745405369612
 42
0.4142135623731
 10
-15.97267212859299
 20
125.4745405369612
 42
0.4142135623731
 10
-16.17267212859299
 20
125.2745405369612
 42
0.4142135623731
 10
-15.97267212859299
 20
125.0745405369612
 42
0.4142135623731
  0
LWPOLYLINE
  5
248
330
1F
100
AcDbEntity
  8
D-5
  6
Continuous
 62
     7
370
     9
100
AcDbPolyline
 90
        4
 70
     1
 43
0.4
 10
59.22742705353592
 20
125.2745405369612
 42
0.4142135623731
 10
59.02742705353592
 20
125.4745405369612
 42
0.4142135623731
 10
58.82742705353591
 20
125.2745405369612
 42
0.4142135623731
 10
59.02742705353592
 20
125.0745405369612
 42
0.4142135623731
  0
LWPOLYLINE
  5
249
330
1F
100
AcDbEntity
  8
D-3
  6
Continuous
 62
     6
370
     5
100
AcDbPolyline
 90
        4
 70
     1
 43
0.4
 10
-12.2435965060344
 20
6.484699838718981
 42
0.4142135623731
 10
-12.4435965060344
 20
6.684699838718982
 42
0.4142135623731
 10
-12.6435965060344
 20
6.484699838718981
 42
0.4142135623731
 10
-12.4435965060344
 20
6.284699838718981
 42
0.4142135623731
  0
LWPOLYLINE
  5
24A
330
1F
100
AcDbEntity
  8
D-3
  6
Continuous
 62
     6
370
     5
100
AcDbPolyline
 90
        4
 70
     1
 43
0.4
 10
-0.208013009940646
 20
-3.946101552882581
 42
0.4142135623731
 10
-0.408013009940646
 20
-3.746101552882581
 42
0.4142135623731
 10
-0.608013009940646
 20
-3.946101552882581
 42
0.4142135623731
 10
-0.408013009940646
 20
-4.146101552882581
 42
0.4142135623731
  0
LWPOLYLINE
  5
24B
330
1F
100
AcDbEntity
  8
D-3
  6
Continuous
 62
     6
370
     5
100
AcDbPolyline
 90
        4
 70
     1
 43
0.4
 10
10.22289519318435
 20
4.879871957859606
 42
0.4142135623731
 10
10.02289519318435
 20
5.079871957859607
 42
0.4142135623731
 10
9.822895193184355
 20
4.879871957859606
 42
0.4142135623731
 10
10.02289519318435
 20
4.679871957859606
 42
0.4142135623731
  0
LWPOLYLINE
  5
24C
330
1F
100
AcDbEntity
  8
D-3
  6
Continuous
 62
     6
370
     5
100
AcDbPolyline
 90
        4
 70
     1
 43
0.4
 10
35.09641509064529
 20
6.484699838718981
 42
0.4142135623731
 10
34.89641509064529
 20
6.684699838718982
 42
0.4142135623731
 10
34.69641509064529
 20
6.484699838718981
 42
0.4142135623731
 10
34.89641509064529
 20
6.284699838718981
 42
0.4142135623731
  0
LWPOLYLINE
  5
24D
330
1F
100
AcDbEntity
  8
D-3
  6
Continuous
 62
     6
370
     5
100
AcDbPolyline
 90
        4
 70
     1
 43
0.4
 10
45.52732329377029
 20
-4.748561269679456
 42
0.4142135623731
 10
45.32732329377029
 20
-4.548561269679456
 42
0.4142135623731
 10
45.12732329377029
 20
-4.748561269679456
 42
0.4142135623731
 10
45.32732329377029
 20
-4.948561269679456
 42
0.4142135623731
  0
LWPOLYLINE
  5
24E
330
1F
100
AcDbEntity
  8
D-3
  6
Continuous
 62
     6
370
     5
100
AcDbPolyline
 90
        4
 70
     1
 43
0.4
 10
55.15575652130936
 20
5.682331674656481
 42
0.4142135623731
 10
54.95575652130935
 20
5.882331674656482
 42
0.4142135623731
 10
54.75575652130935
 20
5.682331674656481
 42
0.4142135623731
 10
54.95575652130935
 20
5.482331674656481
 42
0.4142135623731
  0
LWPOLYLINE
  5
24F
330
1F
100
AcDbEntity
  8
D-3
  6
Continuous
 62
     6
370
     5
100
AcDbPolyline
 90
        4
 70
     1
 43
0.4
 10
70.40084319123123
 20
-0.7366594142107061
 42
0.4142135623731
 10
70.20084319123123
 20
-0.5366594142107062
 42
0.4142135623731
 10
70.00084319123123
 20
-0.7366594142107061
 42
0.4142135623731
 10
70.20084319123123
 20
-0.9366594142107061
 42
0.4142135623731
  0
LWPOLYLINE
  5
250
330
1F
100
AcDbEntity
  8
D-3
  6
Continuous
 62
     6
370
     5
100
AcDbPolyline
 90
        4
 70
     1
 43
0.4
 10
70.40084319123123
 20
20.12505018051586
 42
0.4142135623731
 10
70.20084319123123
 20
20.32505018051586
 42
0.4142135623731
 10
70.00084319123123
 20
20.12505018051586
 42
0.4142135623731
 10
70.20084319123123
 20
19.92505018051586
 42
0.4142135623731
  0
LWPOLYLINE
  5
251
330
1F
100
AcDbEntity
  8
D-3
  6
Continuous
 62
     6
370
     5
100
AcDbPolyline
 90
        4
 70
     1
 43
0.4
 10
80.8316445828328
 20
36.17239820297679
 42
0.4142135623731
 10
80.63164458283279
 20
36.3723982029768
 42
0.4142135623731
 10
80.43164458283279
 20
36.17239820297679
 42
0.4142135623731
 10
80.63164458283279
 20
35.97239820297679
 42
0.4142135623731
  0
LWPOLYLINE
  5
252
330
1F
100
AcDbEntity
  8
D-3
  6
Continuous
 62
     6
370
     5
100
AcDbPolyline
 90
        4
 70
     1
 43
0.4
 10
96.87919096955154
 20
19.32259046371898
 42
0.4142135623731
 10
96.67919096955154
 20
19.52259046371898
 42
0.4142135623731
 10
96.47919096955154
 20
19.32259046371898
 42
0.4142135623731
 10
96.67919096955154
 20
19.12259046371898
 42
0.4142135623731
  0
LWPOLYLINE
  5
253
330
1F
100
AcDbEntity
  8
D-3
  6
Continuous
 62
     6
370
     5
100
AcDbPolyline
 90
        4
 70
     1
 43
0.4
 10
112.1242623806844
 20
31.35821973617992
 42
0.4142135623731
 10
111.9242623806844
 20
31.55821973617992
 42
0.4142135623731
 10
111.7242623806844
 20
31.35821973617992
 42
0.4142135623731
 10
111.9242623806844
 20
31.15821973617992
 42
0.4142135623731
  0
LWPOLYLINE
  5
254
330
1F
100
AcDbEntity
  8
D-3
  6
Continuous
 62
     6
370
     5
100
AcDbPolyline
 90
        4
 70
     1
 43
0.4
 10
125.7646584988484
 20
18.52023755844554
 42
0.4142135623731
 10
125.5646584988484
 20
18.72023755844554
 42
0.4142135623731
 10
125.3646584988484
 20
18.52023755844554
 42
0.4142135623731
 10
125.5646584988484
 20
18.32023755844554
 42
0.4142135623731
  0
LWPOLYLINE
  5
255
330
1F
100
AcDbEntity
  8
D-3
  6
Continuous
 62
     6
370
     5
100
AcDbPolyline
 90
        4
 70
     1
 43
0.4
 10
-144.7753507613292
 20
103.5739790135237
 42
0.4142135623731
 10
-144.9753507613292
 20
103.7739790135237
 42
0.4142135623731
 10
-145.1753507613292
 20
103.5739790135237
 42
0.4142135623731
 10
-144.9753507613292
 20
103.3739790135237
 42
0.4142135623731
  0
LWPOLYLINE
  5
256
330
1F
100
AcDbEntity
  8
D-3
  6
Continuous
 62
     6
370
     5
100
AcDbPolyline
 90
        4
 70
     1
 43
0.4
 10
-136.6513971804729
 20
81.91000806625804
 42
0.4142135623731
 10
-136.8513971804729
 20
82.11000806625805
 42
0.4142135623731
 10
-137.0513971804729
 20
81.91000806625804
 42
0.4142135623731
 10
-136.8513971804729
 20
81.71000806625804
 42
0.4142135623731
  0
LWPOLYLINE
  5
257
330
1F
100
AcDbEntity
  8
D-3
  6
Continuous
 62
     6
370
     5
100
AcDbPolyline
 90
        4
 70
     1
 43
0.4
 10
-142.0673661648383
 20
68.36993848617992
 42
0.4142135623731
 10
-142.2673661648383
 20
68.56993848617992
 42
0.4142135623731
 10
-142.4673661648383
 20
68.36993848617992
 42
0.4142135623731
 10
-142.2673661648383
 20
68.16993848617992
 42
0.4142135623731
  0
LWPOLYLINE
  5
258
330
1F
100
AcDbEntity
  8
D-3
  6
Continuous
 62
     6
370
     5
100
AcDbPolyline
 90
        4
 70
     1
 43
0.4
 10
-143.4213336824527
 20
39.93597852524242
 42
0.4142135623731
 10
-143.6213336824527
 20
40.13597852524242
 42
0.4142135623731
 10
-143.8213336824527
 20
39.93597852524242
 42
0.4142135623731
 10
-143.6213336824527
 20
39.73597852524242
 42
0.4142135623731
  0
LWPOLYLINE
  5
259
330
1F
100
AcDbEntity
  8
D-3
  6
Continuous
 62
     6
370
     5
100
AcDbPolyline
 90
        4
 70
     1
 43
0.4
 10
-136.6513971804729
 20
20.97974073227367
 42
0.4142135623731
 10
-136.8513971804729
 20
21.17974073227367
 42
0.4142135623731
 10
-137.0513971804729
 20
20.97974073227367
 42
0.4142135623731
 10
-136.8513971804729
 20
20.77974073227367
 42
0.4142135623731
  0
LWPOLYLINE
  5
25A
330
1F
100
AcDbEntity
  8
D-3
  6
Continuous
 62
     6
370
     5
100
AcDbPolyline
 90
        4
 70
     1
 43
0.4
 10
-143.4213336824527
 20
-2.038356191554456
 42
0.4142135623731
 10
-143.6213336824527
 20
-1.838356191554456
 42
0.4142135623731
 10
-143.8213336824527
 20
-2.038356191554456
 42
0.4142135623731
 10
-143.6213336824527
 20
-2.238356191554456
 42
0.4142135623731
  0
LWPOLYLINE
  5
25B
330
1F
100
AcDbEntity
  8
D-5
  6
Continuous
 62
     7
370
     9
100
AcDbPolyline
 90
        4
 70
     1
 43
0.4
 10
-210.4575170992961
 20
-8.297206289210706
 42
0.4142135623731
 10
-210.6575170992961
 20
-8.097206289210707
 42
0.4142135623731
 10
-210.8575170992961
 20
-8.297206289210706
 42
0.4142135623731
 10
-210.6575170992961
 20
-8.497206289210705
 42
0.4142135623731
  0
LWPOLYLINE
  5
25C
330
1F
100
AcDbEntity
  8
D-5
  6
Continuous
 62
     7
370
     9
100
AcDbPolyline
 90
        4
 70
     1
 43
0.4
 10
-210.4575170992961
 20
111.7028547459455
 42
0.4142135623731
 10
-210.6575170992961
 20
111.9028547459455
 42
0.4142135623731
 10
-210.8575170992961
 20
111.7028547459455
 42
0.4142135623731
 10
-210.6575170992961
 20
111.5028547459455
 42
0.4142135623731
  0
LWPOLYLINE
  5
25D
330
1F
100
AcDbEntity
  8
D-5
  6
Continuous
 62
     7
370
     9
100
AcDbPolyline
 90
        4
 70
     1
 43
0.4
 10
-150.7782024859538
 20
138.1624799900862
 42
0.4142135623731
 10
-150.9782024859538
 20
138.3624799900862
 42
0.4142135623731
 10
-151.1782024859538
 20
138.1624799900862
 42
0.4142135623731
 10
-150.9782024859538
 20
137.9624799900862
 42
0.4142135623731
  0
LWPOLYLINE
  5
25E
330
1F
100
AcDbEntity
  8
D-5
  6
Continuous
 62
     7
370
     9
100
AcDbPolyline
 90
        4
 70
     1
 43
0.4
 10
-130.7782091616741
 20
138.1624799900862
 42
0.4142135623731
 10
-130.978209161674
 20
138.3624799900862
 42
0.4142135623731
 10
-131.178209161674
 20
138.1624799900862
 42
0.4142135623731
 10
-130.978209161674
 20
137.9624799900862
 42
0.4142135623731
  0
TEXT
  5
25F
330
1F
100
AcDbEntity
  8
D-5
  6
Continuous
 62
     2
370
     9
100
AcDbText
 10
-197.3774322299113
 20
29.95198499496898
 30
0.0
 40
6.096
  1
45
 50
90.0
 41
1.0625
  7
ＭＳ ゴシック
100
AcDbText
  0
TEXT
  5
260
330
1F
100
AcDbEntity
  8
D-5
  6
Continuous
 62
     2
370
     9
100
AcDbText
 10
153.4508796902547
 20
12.46144544418773
 30
0.0
 40
6.096
  1
50
 50
90.0
 41
1.0625
  7
ＭＳ ゴシック
100
AcDbText
  0
TEXT
  5
261
330
1F
100
AcDbEntity
  8
D-5
  6
Continuous
 62
     2
370
     9
100
AcDbText
 10
22.94361650666092
 20
43.41188489731273
 30
0.0
 40
6.096
  1
3
 50
90.0
  7
ＭＳ ゴシック
100
AcDbText
  0
TEXT
  5
262
330
1F
100
AcDbEntity
  8
D-5
  6
Continuous
 62
     2
370
     9
100
AcDbText
 10
-127.761526727592
 20
140.2906325779768
 30
0.0
 40
6.096
  1
15
 41
1.0625
  7
ＭＳ ゴシック
100
AcDbText
  0
TEXT
  5
263
330
1F
100
AcDbEntity
  8
D-5
  6
Continuous
 62
     2
370
     9
100
AcDbText
 10
-39.50882782927658
 20
140.2906325779768
 30
0.0
 40
6.096
  1
175
 41
1.083333333333333
  7
ＭＳ ゴシック
100
AcDbText
  0
TEXT
  5
264
330
1F
100
AcDbEntity
  8
D-5
  6
Continuous
 62
     2
370
     9
100
AcDbText
 10
139.4212471218953
 20
22.46149122055492
 30
0.0
 40
6.096
  1
30
 50
90.0
 41
1.0625
  7
ＭＳ ゴシック
100
AcDbText
  0
TEXT
  5
265
330
1F
100
AcDbEntity
  8
D-5
  6
Continuous
 62
     2
370
     9
100
AcDbText
 10
139.4212471218953
 20
58.70373975571117
 30
0.0
 40
6.096
  1
51.5
 50
90.0
 41
1.09375
  7
ＭＳ ゴシック
100
AcDbText
  0
TEXT
  5
266
330
1F
100
AcDbEntity
  8
D-4
  6
Continuous
 62
     2
370
     9
100
AcDbText
 10
99.7605050564656
 20
121.4556716404768
 30
0.0
 40
6.096
  1
フレーム：アルミ（型材）　アルマイト処理
 41
1.11875
  7
ＭＳ ゴシック
100
AcDbText
  0
TEXT
  5
267
330
1F
100
AcDbEntity
  8
D-4
  6
Continuous
 62
     2
370
     9
100
AcDbText
 10
132.5166848660359
 20
-42.97564854995289
 30
0.0
 40
6.096
  1
モルタル下地（別途）
 41
1.1125
  7
ＭＳ ゴシック
100
AcDbText
  0
TEXT
  5
268
330
1F
100
AcDbEntity
  8
D-4
  6
Continuous
 62
     2
370
     9
100
AcDbText
 10
79.38356719025467
 20
144.970136972508
 30
0.0
 40
6.096
  1
カバー：アルミ（型材）　アルマイト処理　ｔ＝３．０
 41
1.12
  7
ＭＳ ゴシック
100
AcDbText
  0
TEXT
  5
269
330
1F
100
AcDbEntity
  8
D-4
  6
Continuous
 62
     2
370
     9
100
AcDbText
 10
18.70409331330154
 20
162.6222976170393
 30
0.0
 40
6.096
  1
スライドプレート：アルミ（型材）　アルマイト処理　ｔ＝３．０
 41
1.120833333333333
  7
ＭＳ ゴシック
100
AcDbText
  0
TEXT
  5
26A
330
1F
100
AcDbEntity
  8
D-5
  6
Continuous
 62
     2
370
     9
100
AcDbText
 10
-72.47805848113205
 20
-135.6249443568377
 30
0.0
 40
6.096
  1
100
 41
1.083333333333333
  7
ＭＳ ゴシック
100
AcDbText
  0
TEXT
  5
26B
330
1F
100
AcDbEntity
  8
D-5
  6
Continuous
 62
     2
370
     9
100
AcDbText
 10
17.2773507595906
 20
127.4025710545393
 30
0.0
 40
6.096
  1
75
 41
1.0625
  7
ＭＳ ゴシック
100
AcDbText
  0
TEXT
  5
26C
330
1F
100
AcDbEntity
  8
D-5
  6
Continuous
 62
     2
370
     9
100
AcDbText
 10
-72.50862946501877
 20
127.4025710545393
 30
0.0
 40
6.096
  1
100
 41
1.083333333333333
  7
ＭＳ ゴシック
100
AcDbText
  0
TEXT
  5
26D
330
1F
100
AcDbEntity
  8
D-5
  6
Continuous
 62
     2
370
     9
100
AcDbText
 10
-0.2268759249797085
 20
-82.31250157729664
 30
0.0
 40
6.096
  1
40
 41
1.0625
  7
ＭＳ ゴシック
100
AcDbText
  0
TEXT
  5
26E
330
1F
100
AcDbEntity
  8
D-5
  6
Continuous
 62
     2
370
     9
100
AcDbText
 10
27.52194914826248
 20
-135.6249443568377
 30
0.0
 40
6.096
  1
100
 41
1.083333333333333
  7
ＭＳ ゴシック
100
AcDbText
  0
TEXT
  5
26F
330
1F
100
AcDbEntity
  8
D-5
  6
Continuous
 62
     2
370
     9
100
AcDbText
 10
-212.7854713229289
 20
45.20291578110179
 30
0.0
 40
6.096
  1
120
 50
90.0
 41
1.083333333333333
  7
ＭＳ ゴシック
100
AcDbText
  0
TEXT
  5
270
330
1F
100
AcDbEntity
  8
D-5
  6
Continuous
 62
     2
370
     9
100
AcDbText
 10
-145.2281884192577
 20
140.2905105076643
 30
0.0
 40
6.096
  1
20
 41
1.0625
  7
ＭＳ ゴシック
100
AcDbText
  0
TEXT
  5
271
330
1F
100
AcDbEntity
  8
D-4
  6
Continuous
 62
     2
370
     9
100
AcDbText
 10
-83.71683182707932
 20
163.5537551365705
 30
0.0
 40
6.096
  1
シール（別途）
 41
1.107142857142857
  7
ＭＳ ゴシック
100
AcDbText
  0
LINE
  5
272
330
1F
100
AcDbEntity
  8
D-1
  6
JWW_CENTER1
 62
     2
370
     9
100
AcDbLine
 10
51.53217253693435
 20
44.20315992172679
 30
0.0
 11
51.53217253693435
 21
26.80229627426586
 31
0.0
  0
LINE
  5
273
330
1F
100
AcDbEntity
  8
D-1
  6
Continuous
 62
     2
370
     9
100
AcDbLine
 10
53.2823556424031
 20
28.92012464340648
 30
0.0
 11
53.2823556424031
 21
28.73976575668773
 31
0.0
  0
LINE
  5
274
330
1F
100
AcDbEntity
  8
D-1
  6
Continuous
 62
     2
370
     9
100
AcDbLine
 10
53.2823556424031
 20
28.73976575668773
 30
0.0
 11
53.3165353299031
 21
28.71994458969554
 31
0.0
  0
LINE
  5
275
330
1F
100
AcDbEntity
  8
D-1
  6
Continuous
 62
     2
370
     9
100
AcDbLine
 10
49.7823556424031
 20
28.92012464340648
 30
0.0
 11
49.7823556424031
 21
28.73976575668773
 31
0.0
  0
LINE
  5
276
330
1F
100
AcDbEntity
  8
D-1
  6
Continuous
 62
     2
370
     9
100
AcDbLine
 10
49.7823556424031
 20
28.73976575668773
 30
0.0
 11
49.74826750763748
 21
28.71994458969554
 31
0.0
  0
LINE
  5
277
330
1F
100
AcDbEntity
  8
D-1
  6
Continuous
 62
     2
370
     9
100
AcDbLine
 10
53.2823556424031
 20
38.72009717758617
 30
0.0
 11
53.2823556424031
 21
38.53953992660961
 31
0.0
  0
LINE
  5
278
330
1F
100
AcDbEntity
  8
D-1
  6
Continuous
 62
     2
370
     9
100
AcDbLine
 10
53.2823556424031
 20
38.02010022934398
 30
0.0
 11
53.2823556424031
 21
37.83954297836742
 31
0.0
  0
LINE
  5
279
330
1F
100
AcDbEntity
  8
D-1
  6
Continuous
 62
     2
370
     9
100
AcDbLine
 10
53.2823556424031
 20
37.83954297836742
 30
0.0
 11
53.7324288845906
 21
37.57973157700023
 31
0.0
  0
LINE
  5
27A
330
1F
100
AcDbEntity
  8
D-1
  6
Continuous
 62
     2
370
     9
100
AcDbLine
 10
53.7324288845906
 20
37.57973157700023
 30
0.0
 11
53.2823556424031
 21
37.32010328110179
 31
0.0
  0
LINE
  5
27B
330
1F
100
AcDbEntity
  8
D-1
  6
Continuous
 62
     2
370
     9
100
AcDbLine
 10
53.2823556424031
 20
37.32010328110179
 30
0.0
 11
53.2823556424031
 21
37.13954603012523
 31
0.0
  0
LINE
  5
27C
330
1F
100
AcDbEntity
  8
D-1
  6
Continuous
 62
     2
370
     9
100
AcDbLine
 10
53.2823556424031
 20
37.13954603012523
 30
0.0
 11
53.7324288845906
 21
36.87971936996898
 31
0.0
  0
LINE
  5
27D
330
1F
100
AcDbEntity
  8
D-1
  6
Continuous
 62
     2
370
     9
100
AcDbLine
 10
53.7324288845906
 20
36.87971936996898
 30
0.0
 11
53.2823556424031
 21
36.61990796860179
 31
0.0
  0
LINE
  5
27E
330
1F
100
AcDbEntity
  8
D-1
  6
Continuous
 62
     2
370
     9
100
AcDbLine
 10
53.2823556424031
 20
36.61990796860179
 30
0.0
 11
53.2823556424031
 21
36.43954908188304
 31
0.0
  0
LINE
  5
27F
330
1F
100
AcDbEntity
  8
D-1
  6
Continuous
 62
     2
370
     9
100
AcDbLine
 10
53.2823556424031
 20
36.43954908188304
 30
0.0
 11
53.7324288845906
 21
36.17992078598461
 31
0.0
  0
LINE
  5
280
330
1F
100
AcDbEntity
  8
D-1
  6
Continuous
 62
     2
370
     9
100
AcDbLine
 10
53.7324288845906
 20
36.17992078598461
 30
0.0
 11
53.2823556424031
 21
35.92010938461742
 31
0.0
  0
LINE
  5
281
330
1F
100
AcDbEntity
  8
D-1
  6
Continuous
 62
     2
370
     9
100
AcDbLine
 10
53.2823556424031
 20
35.92010938461742
 30
0.0
 11
53.2823556424031
 21
35.73955213364086
 31
0.0
  0
LINE
  5
282
330
1F
100
AcDbEntity
  8
D-1
  6
Continuous
 62
     2
370
     9
100
AcDbLine
 10
53.2823556424031
 20
35.73955213364086
 30
0.0
 11
53.7324288845906
 21
35.47972547348461
 31
0.0
  0
LINE
  5
283
330
1F
100
AcDbEntity
  8
D-1
  6
Continuous
 62
     2
370
     9
100
AcDbLine
 10
53.7324288845906
 20
35.47972547348461
 30
0.0
 11
53.2823556424031
 21
35.22009717758617
 31
0.0
  0
LINE
  5
284
330
1F
100
AcDbEntity
  8
D-1
  6
Continuous
 62
     2
370
     9
100
AcDbLine
 10
53.2823556424031
 20
35.22009717758617
 30
0.0
 11
53.2823556424031
 21
35.03975354965648
 31
0.0
  0
LINE
  5
285
330
1F
100
AcDbEntity
  8
D-1
  6
Continuous
 62
     2
370
     9
100
AcDbLine
 10
53.2823556424031
 20
35.03975354965648
 30
0.0
 11
53.7324288845906
 21
34.77992688950023
 31
0.0
  0
LINE
  5
286
330
1F
100
AcDbEntity
  8
D-1
  6
Continuous
 62
     2
370
     9
100
AcDbLine
 10
53.7324288845906
 20
34.77992688950023
 30
0.0
 11
53.2823556424031
 21
34.52010022934398
 31
0.0
  0
LINE
  5
287
330
1F
100
AcDbEntity
  8
D-1
  6
Continuous
 62
     2
370
     9
100
AcDbLine
 10
53.2823556424031
 20
34.52010022934398
 30
0.0
 11
53.2823556424031
 21
34.33975660141429
 31
0.0
  0
LINE
  5
288
330
1F
100
AcDbEntity
  8
D-1
  6
Continuous
 62
     2
370
     9
100
AcDbLine
 10
53.2823556424031
 20
34.33975660141429
 30
0.0
 11
53.7324288845906
 21
34.07992994125804
 31
0.0
  0
LINE
  5
289
330
1F
100
AcDbEntity
  8
D-1
  6
Continuous
 62
     2
370
     9
100
AcDbLine
 10
53.7324288845906
 20
34.07992994125804
 30
0.0
 11
53.2823556424031
 21
33.82010328110179
 31
0.0
  0
LINE
  5
28A
330
1F
100
AcDbEntity
  8
D-1
  6
Continuous
 62
     2
370
     9
100
AcDbLine
 10
53.2823556424031
 20
33.82010328110179
 30
0.0
 11
53.2823556424031
 21
33.63956128891429
 31
0.0
  0
LINE
  5
28B
330
1F
100
AcDbEntity
  8
D-1
  6
Continuous
 62
     2
370
     9
100
AcDbLine
 10
53.2823556424031
 20
33.63956128891429
 30
0.0
 11
53.7324288845906
 21
33.37993299301586
 31
0.0
  0
LINE
  5
28C
330
1F
100
AcDbEntity
  8
D-1
  6
Continuous
 62
     2
370
     9
100
AcDbLine
 10
53.7324288845906
 20
33.37993299301586
 30
0.0
 11
53.2823556424031
 21
33.12010633285961
 31
0.0
  0
LINE
  5
28D
330
1F
100
AcDbEntity
  8
D-1
  6
Continuous
 62
     2
370
     9
100
AcDbLine
 10
53.2823556424031
 20
33.12010633285961
 30
0.0
 11
53.2823556424031
 21
32.93976270492992
 31
0.0
  0
LINE
  5
28E
330
1F
100
AcDbEntity
  8
D-1
  6
Continuous
 62
     2
370
     9
100
AcDbLine
 10
53.2823556424031
 20
32.93976270492992
 30
0.0
 11
53.7324288845906
 21
32.67993604477367
 31
0.0
  0
LINE
  5
28F
330
1F
100
AcDbEntity
  8
D-1
  6
Continuous
 62
     2
370
     9
100
AcDbLine
 10
53.7324288845906
 20
32.67993604477367
 30
0.0
 11
53.2823556424031
 21
32.42010938461742
 31
0.0
  0
LINE
  5
290
330
1F
100
AcDbEntity
  8
D-1
  6
Continuous
 62
     2
370
     9
100
AcDbLine
 10
53.2823556424031
 20
32.42010938461742
 30
0.0
 11
53.2823556424031
 21
32.23976575668773
 31
0.0
  0
LINE
  5
291
330
1F
100
AcDbEntity
  8
D-1
  6
Continuous
 62
     2
370
     9
100
AcDbLine
 10
53.2823556424031
 20
32.23976575668773
 30
0.0
 11
53.7324288845906
 21
31.97993909653148
 31
0.0
  0
LINE
  5
292
330
1F
100
AcDbEntity
  8
D-1
  6
Continuous
 62
     2
370
     9
100
AcDbLine
 10
53.7324288845906
 20
31.97993909653148
 30
0.0
 11
53.2823556424031
 21
31.72011243637523
 31
0.0
  0
LINE
  5
293
330
1F
100
AcDbEntity
  8
D-1
  6
Continuous
 62
     2
370
     9
100
AcDbLine
 10
53.2823556424031
 20
31.72011243637523
 30
0.0
 11
53.2823556424031
 21
31.53976880844554
 31
0.0
  0
LINE
  5
294
330
1F
100
AcDbEntity
  8
D-1
  6
Continuous
 62
     2
370
     9
100
AcDbLine
 10
53.2823556424031
 20
31.53976880844554
 30
0.0
 11
53.7324288845906
 21
31.27994214828929
 31
0.0
  0
LINE
  5
295
330
1F
100
AcDbEntity
  8
D-1
  6
Continuous
 62
     2
370
     9
100
AcDbLine
 10
53.7324288845906
 20
31.27994214828929
 30
0.0
 11
53.2823556424031
 21
31.02011548813304
 31
0.0
  0
LINE
  5
296
330
1F
100
AcDbEntity
  8
D-1
  6
Continuous
 62
     2
370
     9
100
AcDbLine
 10
53.2823556424031
 20
31.02011548813304
 30
0.0
 11
53.2823556424031
 21
30.83975660141429
 31
0.0
  0
LINE
  5
297
330
1F
100
AcDbEntity
  8
D-1
  6
Continuous
 62
     2
370
     9
100
AcDbLine
 10
53.2823556424031
 20
30.83975660141429
 30
0.0
 11
53.7324288845906
 21
30.57994520004711
 31
0.0
  0
LINE
  5
298
330
1F
100
AcDbEntity
  8
D-1
  6
Continuous
 62
     2
370
     9
100
AcDbLine
 10
53.7324288845906
 20
30.57994520004711
 30
0.0
 11
53.2823556424031
 21
30.32011853989086
 31
0.0
  0
LINE
  5
299
330
1F
100
AcDbEntity
  8
D-1
  6
Continuous
 62
     2
370
     9
100
AcDbLine
 10
53.2823556424031
 20
30.32011853989086
 30
0.0
 11
53.2823556424031
 21
30.13975965317211
 31
0.0
  0
LINE
  5
29A
330
1F
100
AcDbEntity
  8
D-1
  6
Continuous
 62
     2
370
     9
100
AcDbLine
 10
53.2823556424031
 20
30.13975965317211
 30
0.0
 11
53.7324288845906
 21
29.87994825180492
 31
0.0
  0
LINE
  5
29B
330
1F
100
AcDbEntity
  8
D-1
  6
Continuous
 62
     2
370
     9
100
AcDbLine
 10
53.7324288845906
 20
29.87994825180492
 30
0.0
 11
53.2823556424031
 21
29.62012159164867
 31
0.0
  0
LINE
  5
29C
330
1F
100
AcDbEntity
  8
D-1
  6
Continuous
 62
     2
370
     9
100
AcDbLine
 10
53.2823556424031
 20
29.62012159164867
 30
0.0
 11
53.2823556424031
 21
29.43976270492992
 31
0.0
  0
LINE
  5
29D
330
1F
100
AcDbEntity
  8
D-1
  6
Continuous
 62
     2
370
     9
100
AcDbLine
 10
53.2823556424031
 20
29.43976270492992
 30
0.0
 11
53.7324288845906
 21
29.17993604477367
 31
0.0
  0
LINE
  5
29E
330
1F
100
AcDbEntity
  8
D-1
  6
Continuous
 62
     2
370
     9
100
AcDbLine
 10
53.7324288845906
 20
29.17993604477367
 30
0.0
 11
53.2823556424031
 21
28.92012464340648
 31
0.0
  0
LINE
  5
29F
330
1F
100
AcDbEntity
  8
D-1
  6
Continuous
 62
     2
370
     9
100
AcDbLine
 10
53.7324288845906
 20
38.27972852524242
 30
0.0
 11
53.2823556424031
 21
38.02010022934398
 31
0.0
  0
LINE
  5
2A0
330
1F
100
AcDbEntity
  8
D-1
  6
Continuous
 62
     2
370
     9
100
AcDbLine
 10
53.2823556424031
 20
38.53953992660961
 30
0.0
 11
53.7324288845906
 21
38.27972852524242
 31
0.0
  0
LINE
  5
2A1
330
1F
100
AcDbEntity
  8
D-1
  6
Continuous
 62
     2
370
     9
100
AcDbLine
 10
49.7823556424031
 20
38.72009717758617
 30
0.0
 11
49.7823556424031
 21
38.53953992660961
 31
0.0
  0
LINE
  5
2A2
330
1F
100
AcDbEntity
  8
D-1
  6
Continuous
 62
     2
370
     9
100
AcDbLine
 10
49.7823556424031
 20
38.02010022934398
 30
0.0
 11
49.7823556424031
 21
37.83954297836742
 31
0.0
  0
LINE
  5
2A3
330
1F
100
AcDbEntity
  8
D-1
  6
Continuous
 62
     2
370
     9
100
AcDbLine
 10
49.7823556424031
 20
37.83954297836742
 30
0.0
 11
49.33246550568435
 21
37.57973157700023
 31
0.0
  0
LINE
  5
2A4
330
1F
100
AcDbEntity
  8
D-1
  6
Continuous
 62
     2
370
     9
100
AcDbLine
 10
49.33246550568435
 20
37.57973157700023
 30
0.0
 11
49.7823556424031
 21
37.32010328110179
 31
0.0
  0
LINE
  5
2A5
330
1F
100
AcDbEntity
  8
D-1
  6
Continuous
 62
     2
370
     9
100
AcDbLine
 10
49.7823556424031
 20
37.32010328110179
 30
0.0
 11
49.7823556424031
 21
37.13954603012523
 31
0.0
  0
LINE
  5
2A6
330
1F
100
AcDbEntity
  8
D-1
  6
Continuous
 62
     2
370
     9
100
AcDbLine
 10
49.7823556424031
 20
37.13954603012523
 30
0.0
 11
49.33246550568435
 21
36.87971936996898
 31
0.0
  0
LINE
  5
2A7
330
1F
100
AcDbEntity
  8
D-1
  6
Continuous
 62
     2
370
     9
100
AcDbLine
 10
49.33246550568435
 20
36.87971936996898
 30
0.0
 11
49.7823556424031
 21
36.61990796860179
 31
0.0
  0
LINE
  5
2A8
330
1F
100
AcDbEntity
  8
D-1
  6
Continuous
 62
     2
370
     9
100
AcDbLine
 10
49.7823556424031
 20
36.61990796860179
 30
0.0
 11
49.7823556424031
 21
36.43954908188304
 31
0.0
  0
LINE
  5
2A9
330
1F
100
AcDbEntity
  8
D-1
  6
Continuous
 62
     2
370
     9
100
AcDbLine
 10
49.7823556424031
 20
36.43954908188304
 30
0.0
 11
49.33246550568435
 21
36.17992078598461
 31
0.0
  0
LINE
  5
2AA
330
1F
100
AcDbEntity
  8
D-1
  6
Continuous
 62
     2
370
     9
100
AcDbLine
 10
49.33246550568435
 20
36.17992078598461
 30
0.0
 11
49.7823556424031
 21
35.92010938461742
 31
0.0
  0
LINE
  5
2AB
330
1F
100
AcDbEntity
  8
D-1
  6
Continuous
 62
     2
370
     9
100
AcDbLine
 10
49.7823556424031
 20
35.92010938461742
 30
0.0
 11
49.7823556424031
 21
35.73955213364086
 31
0.0
  0
LINE
  5
2AC
330
1F
100
AcDbEntity
  8
D-1
  6
Continuous
 62
     2
370
     9
100
AcDbLine
 10
49.7823556424031
 20
35.73955213364086
 30
0.0
 11
49.33246550568435
 21
35.47972547348461
 31
0.0
  0
LINE
  5
2AD
330
1F
100
AcDbEntity
  8
D-1
  6
Continuous
 62
     2
370
     9
100
AcDbLine
 10
49.33246550568435
 20
35.47972547348461
 30
0.0
 11
49.7823556424031
 21
35.22009717758617
 31
0.0
  0
LINE
  5
2AE
330
1F
100
AcDbEntity
  8
D-1
  6
Continuous
 62
     2
370
     9
100
AcDbLine
 10
49.7823556424031
 20
35.22009717758617
 30
0.0
 11
49.7823556424031
 21
35.03975354965648
 31
0.0
  0
LINE
  5
2AF
330
1F
100
AcDbEntity
  8
D-1
  6
Continuous
 62
     2
370
     9
100
AcDbLine
 10
49.7823556424031
 20
35.03975354965648
 30
0.0
 11
49.33246550568435
 21
34.77992688950023
 31
0.0
  0
LINE
  5
2B0
330
1F
100
AcDbEntity
  8
D-1
  6
Continuous
 62
     2
370
     9
100
AcDbLine
 10
49.33246550568435
 20
34.77992688950023
 30
0.0
 11
49.7823556424031
 21
34.52010022934398
 31
0.0
  0
LINE
  5
2B1
330
1F
100
AcDbEntity
  8
D-1
  6
Continuous
 62
     2
370
     9
100
AcDbLine
 10
49.7823556424031
 20
34.52010022934398
 30
0.0
 11
49.7823556424031
 21
34.33975660141429
 31
0.0
  0
LINE
  5
2B2
330
1F
100
AcDbEntity
  8
D-1
  6
Continuous
 62
     2
370
     9
100
AcDbLine
 10
49.7823556424031
 20
34.33975660141429
 30
0.0
 11
49.33246550568435
 21
34.07992994125804
 31
0.0
  0
LINE
  5
2B3
330
1F
100
AcDbEntity
  8
D-1
  6
Continuous
 62
     2
370
     9
100
AcDbLine
 10
49.33246550568435
 20
34.07992994125804
 30
0.0
 11
49.7823556424031
 21
33.82010328110179
 31
0.0
  0
LINE
  5
2B4
330
1F
100
AcDbEntity
  8
D-1
  6
Continuous
 62
     2
370
     9
100
AcDbLine
 10
49.7823556424031
 20
33.82010328110179
 30
0.0
 11
49.7823556424031
 21
33.63956128891429
 31
0.0
  0
LINE
  5
2B5
330
1F
100
AcDbEntity
  8
D-1
  6
Continuous
 62
     2
370
     9
100
AcDbLine
 10
49.7823556424031
 20
33.63956128891429
 30
0.0
 11
49.33246550568435
 21
33.37993299301586
 31
0.0
  0
LINE
  5
2B6
330
1F
100
AcDbEntity
  8
D-1
  6
Continuous
 62
     2
370
     9
100
AcDbLine
 10
49.33246550568435
 20
33.37993299301586
 30
0.0
 11
49.7823556424031
 21
33.12010633285961
 31
0.0
  0
LINE
  5
2B7
330
1F
100
AcDbEntity
  8
D-1
  6
Continuous
 62
     2
370
     9
100
AcDbLine
 10
49.7823556424031
 20
33.12010633285961
 30
0.0
 11
49.7823556424031
 21
32.93976270492992
 31
0.0
  0
LINE
  5
2B8
330
1F
100
AcDbEntity
  8
D-1
  6
Continuous
 62
     2
370
     9
100
AcDbLine
 10
49.7823556424031
 20
32.93976270492992
 30
0.0
 11
49.33246550568435
 21
32.67993604477367
 31
0.0
  0
LINE
  5
2B9
330
1F
100
AcDbEntity
  8
D-1
  6
Continuous
 62
     2
370
     9
100
AcDbLine
 10
49.33246550568435
 20
32.67993604477367
 30
0.0
 11
49.7823556424031
 21
32.42010938461742
 31
0.0
  0
LINE
  5
2BA
330
1F
100
AcDbEntity
  8
D-1
  6
Continuous
 62
     2
370
     9
100
AcDbLine
 10
49.7823556424031
 20
32.42010938461742
 30
0.0
 11
49.7823556424031
 21
32.23976575668773
 31
0.0
  0
LINE
  5
2BB
330
1F
100
AcDbEntity
  8
D-1
  6
Continuous
 62
     2
370
     9
100
AcDbLine
 10
49.7823556424031
 20
32.23976575668773
 30
0.0
 11
49.33246550568435
 21
31.97993909653148
 31
0.0
  0
LINE
  5
2BC
330
1F
100
AcDbEntity
  8
D-1
  6
Continuous
 62
     2
370
     9
100
AcDbLine
 10
49.33246550568435
 20
31.97993909653148
 30
0.0
 11
49.7823556424031
 21
31.72011243637523
 31
0.0
  0
LINE
  5
2BD
330
1F
100
AcDbEntity
  8
D-1
  6
Continuous
 62
     2
370
     9
100
AcDbLine
 10
49.7823556424031
 20
31.72011243637523
 30
0.0
 11
49.7823556424031
 21
31.53976880844554
 31
0.0
  0
LINE
  5
2BE
330
1F
100
AcDbEntity
  8
D-1
  6
Continuous
 62
     2
370
     9
100
AcDbLine
 10
49.7823556424031
 20
31.53976880844554
 30
0.0
 11
49.33246550568435
 21
31.27994214828929
 31
0.0
  0
LINE
  5
2BF
330
1F
100
AcDbEntity
  8
D-1
  6
Continuous
 62
     2
370
     9
100
AcDbLine
 10
49.33246550568435
 20
31.27994214828929
 30
0.0
 11
49.7823556424031
 21
31.02011548813304
 31
0.0
  0
LINE
  5
2C0
330
1F
100
AcDbEntity
  8
D-1
  6
Continuous
 62
     2
370
     9
100
AcDbLine
 10
49.7823556424031
 20
31.02011548813304
 30
0.0
 11
49.7823556424031
 21
30.83975660141429
 31
0.0
  0
LINE
  5
2C1
330
1F
100
AcDbEntity
  8
D-1
  6
Continuous
 62
     2
370
     9
100
AcDbLine
 10
49.7823556424031
 20
30.83975660141429
 30
0.0
 11
49.33246550568435
 21
30.57994520004711
 31
0.0
  0
LINE
  5
2C2
330
1F
100
AcDbEntity
  8
D-1
  6
Continuous
 62
     2
370
     9
100
AcDbLine
 10
49.33246550568435
 20
30.57994520004711
 30
0.0
 11
49.7823556424031
 21
30.32011853989086
 31
0.0
  0
LINE
  5
2C3
330
1F
100
AcDbEntity
  8
D-1
  6
Continuous
 62
     2
370
     9
100
AcDbLine
 10
49.7823556424031
 20
30.32011853989086
 30
0.0
 11
49.7823556424031
 21
30.13975965317211
 31
0.0
  0
LINE
  5
2C4
330
1F
100
AcDbEntity
  8
D-1
  6
Continuous
 62
     2
370
     9
100
AcDbLine
 10
49.7823556424031
 20
30.13975965317211
 30
0.0
 11
49.33246550568435
 21
29.87994825180492
 31
0.0
  0
LINE
  5
2C5
330
1F
100
AcDbEntity
  8
D-1
  6
Continuous
 62
     2
370
     9
100
AcDbLine
 10
49.33246550568435
 20
29.87994825180492
 30
0.0
 11
49.7823556424031
 21
29.62012159164867
 31
0.0
  0
LINE
  5
2C6
330
1F
100
AcDbEntity
  8
D-1
  6
Continuous
 62
     2
370
     9
100
AcDbLine
 10
49.7823556424031
 20
29.62012159164867
 30
0.0
 11
49.7823556424031
 21
29.43976270492992
 31
0.0
  0
LINE
  5
2C7
330
1F
100
AcDbEntity
  8
D-1
  6
Continuous
 62
     2
370
     9
100
AcDbLine
 10
49.7823556424031
 20
29.43976270492992
 30
0.0
 11
49.33246550568435
 21
29.17993604477367
 31
0.0
  0
LINE
  5
2C8
330
1F
100
AcDbEntity
  8
D-1
  6
Continuous
 62
     2
370
     9
100
AcDbLine
 10
49.33246550568435
 20
29.17993604477367
 30
0.0
 11
49.7823556424031
 21
28.92012464340648
 31
0.0
  0
LINE
  5
2C9
330
1F
100
AcDbEntity
  8
D-1
  6
Continuous
 62
     2
370
     9
100
AcDbLine
 10
49.33246550568435
 20
38.27972852524242
 30
0.0
 11
49.7823556424031
 21
38.02010022934398
 31
0.0
  0
LINE
  5
2CA
330
1F
100
AcDbEntity
  8
D-1
  6
Continuous
 62
     2
370
     9
100
AcDbLine
 10
49.7823556424031
 20
38.53953992660961
 30
0.0
 11
49.33246550568435
 21
38.27972852524242
 31
0.0
  0
LINE
  5
2CB
330
1F
100
AcDbEntity
  8
D-1
  6
Continuous
 62
     2
370
     9
100
AcDbLine
 10
47.68216643341873
 20
41.72006666000804
 30
0.0
 11
47.68216643341873
 21
41.42000257309398
 31
0.0
  0
LINE
  5
2CC
330
1F
100
AcDbEntity
  8
D-1
  6
Continuous
 62
     2
370
     9
100
AcDbLine
 10
47.68216643341873
 20
41.42000257309398
 30
0.0
 11
49.53205046662185
 21
38.72009717758617
 31
0.0
  0
LINE
  5
2CD
330
1F
100
AcDbEntity
  8
D-1
  6
Continuous
 62
     2
370
     9
100
AcDbLine
 10
52.03220305451248
 20
41.72006666000804
 30
0.0
 11
52.03220305451248
 21
40.72000562485179
 31
0.0
  0
LINE
  5
2CE
330
1F
100
AcDbEntity
  8
D-1
  6
Continuous
 62
     2
370
     9
100
AcDbLine
 10
52.03220305451248
 20
40.72000562485179
 30
0.0
 11
51.03214201935623
 21
40.72000562485179
 31
0.0
  0
LINE
  5
2CF
330
1F
100
AcDbEntity
  8
D-1
  6
Continuous
 62
     2
370
     9
100
AcDbLine
 10
51.03214201935623
 20
40.72000562485179
 30
0.0
 11
51.03214201935623
 21
41.72006666000804
 31
0.0
  0
LINE
  5
2D0
330
1F
100
AcDbEntity
  8
D-1
  6
Continuous
 62
     2
370
     9
100
AcDbLine
 10
47.68216643341873
 20
41.42000257309398
 30
0.0
 11
51.03214201935623
 21
41.42000257309398
 31
0.0
  0
LINE
  5
2D1
330
1F
100
AcDbEntity
  8
D-1
  6
Continuous
 62
     2
370
     9
100
AcDbLine
 10
53.53206572541114
 20
38.72009717758617
 30
0.0
 11
53.52524394308841
 21
20.72032506581643
 31
0.0
  0
LINE
  5
2D2
330
1F
100
AcDbEntity
  8
D-1
  6
Continuous
 62
     2
370
     9
100
AcDbLine
 10
49.53205046662208
 20
38.72009717758617
 30
0.0
 11
49.52522868429935
 21
20.72032506581643
 31
0.0
  0
LINE
  5
2D3
330
1F
100
AcDbEntity
  8
D-1
  6
Continuous
 62
     2
370
     9
100
AcDbLine
 10
53.52524394308841
 20
20.72032506581643
 30
0.0
 11
51.52523631369388
 21
17.25621023617957
 31
0.0
  0
LINE
  5
2D4
330
1F
100
AcDbEntity
  8
D-1
  6
Continuous
 62
     2
370
     9
100
AcDbLine
 10
49.52522868429935
 20
20.72032506581643
 30
0.0
 11
51.52523631369388
 21
17.25621023617957
 31
0.0
  0
LINE
  5
2D5
330
1F
100
AcDbEntity
  8
D-1
  6
Continuous
 62
     2
370
     9
100
AcDbLine
 10
52.93204436310646
 20
38.72009717758617
 30
0.0
 11
52.92482844726544
 21
19.68037492139926
 31
0.0
  0
LINE
  5
2D6
330
1F
100
AcDbEntity
  8
D-1
  6
JWW_CENTER1
 62
     2
370
     9
100
AcDbLine
 10
51.53217253693435
 20
44.20314466293773
 30
0.0
 11
51.53217253693435
 21
15.89702574505866
 31
0.0
  0
LINE
  5
2D7
330
1F
100
AcDbEntity
  8
D-1
  6
Continuous
 62
     2
370
     9
100
AcDbLine
 10
50.13205657013771
 20
38.72009717758617
 30
0.0
 11
50.12484118141276
 21
19.68176575596267
 31
0.0
  0
LINE
  5
2D8
330
1F
100
AcDbEntity
  8
D-1
  6
Continuous
 62
     2
370
     9
100
AcDbLine
 10
53.53208098419998
 20
38.72009717758617
 30
0.0
 11
55.38214812287185
 21
41.42000257309398
 31
0.0
  0
LINE
  5
2D9
330
1F
100
AcDbEntity
  8
D-1
  6
Continuous
 62
     2
370
     9
100
AcDbLine
 10
52.03220305451248
 20
41.42000257309398
 30
0.0
 11
55.38214812287185
 21
41.42000257309398
 31
0.0
  0
LINE
  5
2DA
330
1F
100
AcDbEntity
  8
D-1
  6
Continuous
 62
     2
370
     9
100
AcDbLine
 10
55.38214812287185
 20
41.72006666000804
 30
0.0
 11
55.38214812287185
 21
41.42000257309398
 31
0.0
  0
LINE
  5
2DB
330
1F
100
AcDbEntity
  8
D-1
  6
Continuous
 62
     2
370
     9
100
AcDbLine
 10
55.53244719513748
 20
25.71999036606273
 30
0.0
 11
53.52713877976487
 21
25.71999036606273
 31
0.0
  0
LINE
  5
2DC
330
1F
100
AcDbEntity
  8
D-1
  6
Continuous
 62
     2
370
     9
100
AcDbLine
 10
49.52712352097581
 20
25.71999036606273
 30
0.0
 11
48.33243498810623
 21
25.71999036606273
 31
0.0
  0
LINE
  5
2DD
330
1F
100
AcDbEntity
  8
D-3
  6
Continuous
 62
     6
370
     5
100
AcDbLine
 10
79.61504302033279
 20
-108.2971795863298
 30
0.0
 11
103.7072752164094
 21
-84.20507408080552
 31
0.0
  0
LINE
  5
2DE
330
1F
100
AcDbEntity
  8
D-3
  6
Continuous
 62
     6
370
     5
100
AcDbLine
 10
116.1310461766663
 20
-71.78136845174724
 30
0.0
 11
134.0219644070515
 21
-53.89054430190602
 31
0.0
  0
LINE
  5
2DF
330
1F
100
AcDbEntity
  8
D-3
  6
Continuous
 62
     6
370
     5
100
AcDbLine
 10
73.95827422150467
 20
-108.2971795863298
 30
0.0
 11
100.8788510890348
 21
-81.37664546253171
 31
0.0
  0
LINE
  5
2E0
330
1F
100
AcDbEntity
  8
D-3
  6
Continuous
 62
     6
370
     5
100
AcDbLine
 10
113.4253006805458
 20
-68.83021579191916
 30
0.0
 11
134.0219644070515
 21
-48.23358476821461
 31
0.0
  0
LINE
  5
2E1
330
1F
100
AcDbEntity
  8
D-3
  6
Continuous
 62
     6
370
     5
100
AcDbLine
 10
68.30141386994217
 20
-108.2971795863298
 30
0.0
 11
130.9698790620543
 21
-45.62870348159352
 31
0.0
  0
LINE
  5
2E2
330
1F
100
AcDbEntity
  8
D-3
  6
Continuous
 62
     6
370
     5
100
AcDbLine
 10
-190.9779898165813
 20
95.43018018539867
 30
0.0
 11
-148.2455473861039
 21
138.1624799900862
 31
0.0
  0
LINE
  5
2E3
330
1F
100
AcDbEntity
  8
D-3
  6
Continuous
 62
     6
370
     5
100
AcDbLine
 10
-135.2433570233774
 20
151.1646269560965
 30
0.0
 11
-124.6880346774211
 21
161.7199140721174
 31
0.0
  0
LINE
  5
2E4
330
1F
100
AcDbEntity
  8
D-3
  6
Continuous
 62
     6
370
     5
100
AcDbLine
 10
-190.9779898165813
 20
89.77328931625804
 30
0.0
 11
-142.5888004255799
 21
138.1624799900862
 31
0.0
  0
LINE
  5
2E5
330
1F
100
AcDbEntity
  8
D-3
  6
Continuous
 62
     6
370
     5
100
AcDbLine
 10
-131.3796939595886
 20
149.3715867532377
 30
0.0
 11
-119.0313669680705
 21
161.7199140721174
 31
0.0
  0
TEXT
  5
2E6
330
1F
100
AcDbEntity
  8
F-5ﾚｲﾔ
  6
Continuous
 62
     2
370
     9
100
AcDbText
 10
-122.0000577359586
 20
-269.4936591499947
 30
0.0
 40
6.096
  1
床－内壁　ＡＸ５６Ａ－１００Ｇ
 41
1.116666666666667
  7
ＭＳ ゴシック
100
AcDbText
  0
LINE
  5
2E7
330
1F
100
AcDbEntity
  8
D-1
  6
Continuous
 62
     2
370
     9
100
AcDbLine
 10
-127.9780479907146
 20
48.69537793930492
 30
0.0
 11
-128.9780022143474
 21
48.69537793930492
 31
0.0
  0
LINE
  5
2E8
330
1F
100
AcDbEntity
  8
D-1
  6
Continuous
 62
     2
370
     9
100
AcDbLine
 10
-127.9780479907146
 20
48.69537793930492
 30
0.0
 11
-127.9780479907146
 21
64.69525586899242
 31
0.0
  0
ARC
  5
2E9
330
1F
100
AcDbEntity
  8
D-1
  6
Continuous
 62
     2
370
     9
100
AcDbCircle
 10
-127.4780174731364
 20
58.69542371567211
 30
0.0
 40
2.999999761581421
100
AcDbArc
 50
0.0
 51
90.0
  0
ARC
  5
2EA
330
1F
100
AcDbEntity
  8
D-1
  6
Continuous
 62
     2
370
     9
100
AcDbCircle
 10
-127.4780174731364
 20
54.69540845688304
 30
0.0
 40
2.999999761581421
100
AcDbArc
 50
270.0
 51
0.0
  0
LINE
  5
2EB
330
1F
100
AcDbEntity
  8
D-1
  6
Continuous
 62
     2
370
     9
100
AcDbLine
 10
-127.4780174731364
 20
61.69548475082836
 30
0.0
 11
-127.9780479907146
 21
61.69548475082836
 31
0.0
  0
LINE
  5
2EC
330
1F
100
AcDbEntity
  8
D-1
  6
Continuous
 62
     2
370
     9
100
AcDbLine
 10
-124.4778496264568
 20
58.69542371567211
 30
0.0
 11
-124.4778496264568
 21
54.69540845688304
 31
0.0
  0
LINE
  5
2ED
330
1F
100
AcDbEntity
  8
D-1
  6
Continuous
 62
     2
370
     9
100
AcDbLine
 10
-127.4780174731364
 20
51.69543897446117
 30
0.0
 11
-127.9780479907146
 21
51.69543897446117
 31
0.0
  0
LINE
  5
2EE
330
1F
100
AcDbEntity
  8
D-1
  6
Continuous
 62
     2
370
     9
100
AcDbLine
 10
-127.9780479907146
 20
64.69525586899242
 30
0.0
 11
-128.9780022143474
 21
64.69525586899242
 31
0.0
  0
LINE
  5
2EF
330
1F
100
AcDbEntity
  8
D-1
  6
Continuous
 62
     2
370
     9
100
AcDbLine
 10
-128.9780022143474
 20
60.19530164535961
 30
0.0
 11
-130.9780136584392
 21
60.19530164535961
 31
0.0
  0
LINE
  5
2F0
330
1F
100
AcDbEntity
  8
D-1
  6
Continuous
 62
     2
370
     9
100
AcDbLine
 10
-128.9780022143474
 20
53.19531690414867
 30
0.0
 11
-130.9780136584392
 21
53.19531690414867
 31
0.0
  0
LINE
  5
2F1
330
1F
100
AcDbEntity
  8
D-1
  6
Continuous
 62
     2
370
     9
100
AcDbLine
 10
-130.9873253339821
 20
60.69548475082836
 30
0.0
 11
-157.9975088226804
 21
60.69548475082836
 31
0.0
  0
LINE
  5
2F2
330
1F
100
AcDbEntity
  8
D-1
  6
JWW_DASHED1
 62
     2
370
     9
100
AcDbLine
 10
-128.9780022143474
 20
59.19545423325023
 30
0.0
 11
-157.9975088226804
 21
59.19545423325023
 31
0.0
  0
LINE
  5
2F3
330
1F
100
AcDbEntity
  8
D-1
  6
JWW_DASHED1
 62
     2
370
     9
100
AcDbLine
 10
-128.9780022143474
 20
54.19537793930492
 30
0.0
 11
-157.9975088226804
 21
54.19537793930492
 31
0.0
  0
LINE
  5
2F4
330
1F
100
AcDbEntity
  8
D-1
  6
Continuous
 62
     2
370
     9
100
AcDbLine
 10
-130.9780136579822
 20
52.69530164535961
 30
0.0
 11
-157.9975088226804
 21
52.69530164535961
 31
0.0
  0
LINE
  5
2F5
330
1F
100
AcDbEntity
  8
D-1
  6
JWW_CENTER1
 62
     2
370
     9
100
AcDbLine
 10
-118.9846941470256
 20
56.69540845688304
 30
0.0
 11
-163.4392610395568
 21
56.69540845688304
 31
0.0
  0
LINE
  5
2F6
330
1F
100
AcDbEntity
  8
D-1
  6
Continuous
 62
     2
370
     9
100
AcDbLine
 10
16.0242990017781
 20
15.72014295395336
 30
0.0
 11
32.02437529572342
 21
15.72014295395336
 31
0.0
  0
LINE
  5
2F7
330
1F
100
AcDbEntity
  8
D-1
  6
Continuous
 62
     2
370
     9
100
AcDbLine
 10
24.52416167267654
 20
17.51997815903148
 30
0.0
 11
24.52416167267654
 21
18.99359571274242
 31
0.0
  0
LINE
  5
2F8
330
1F
100
AcDbEntity
  8
D-1
  6
Continuous
 62
     2
370
     9
100
AcDbLine
 10
23.52410063752029
 20
17.51997815903148
 30
0.0
 11
23.52410063752029
 21
18.99359571274242
 31
0.0
  0
LINE
  5
2F9
330
1F
100
AcDbEntity
  8
D-1
  6
Continuous
 62
     2
370
     9
100
AcDbLine
 10
24.52416167267654
 20
17.51997815903148
 30
0.0
 11
23.52410063752029
 21
17.51997815903148
 31
0.0
  0
LINE
  5
2FA
330
1F
100
AcDbEntity
  8
D-1
  6
Continuous
 62
     2
370
     9
100
AcDbLine
 10
32.02437529572342
 20
15.72014295395336
 30
0.0
 11
32.02437529572342
 21
14.72008191879711
 31
0.0
  0
LINE
  5
2FB
330
1F
100
AcDbEntity
  8
D-1
  6
Continuous
 62
     2
370
     9
100
AcDbLine
 10
16.0242990017781
 20
14.72008191879711
 30
0.0
 11
16.0242990017781
 21
15.72014295395336
 31
0.0
  0
LINE
  5
2FC
330
1F
100
AcDbEntity
  8
D-1
  6
Continuous
 62
     2
370
     9
100
AcDbLine
 10
20.02413115509842
 20
-15.35169542495289
 30
0.0
 11
20.02413115509842
 21
11.72002088364086
 31
0.0
  0
LINE
  5
2FD
330
1F
100
AcDbEntity
  8
D-1
  6
JWW_CENTER1
 62
     2
370
     9
100
AcDbLine
 10
24.02434477814529
 20
-17.46784532729664
 30
0.0
 11
24.02434477814529
 21
22.21661817367992
 31
0.0
  0
LINE
  5
2FE
330
1F
100
AcDbEntity
  8
D-1
  6
Continuous
 62
     2
370
     9
100
AcDbLine
 10
14.02419219025467
 20
11.72002088364086
 30
0.0
 11
14.02419219025467
 21
14.72008191879711
 31
0.0
  0
LINE
  5
2FF
330
1F
100
AcDbEntity
  8
D-1
  6
Continuous
 62
     2
370
     9
100
AcDbLine
 10
34.02410063752029
 20
11.72002088364086
 30
0.0
 11
34.02410063752029
 21
14.72008191879711
 31
0.0
  0
LINE
  5
300
330
1F
100
AcDbEntity
  8
D-1
  6
JWW_DASHED1
 62
     2
370
     9
100
AcDbLine
 10
21.52419219025467
 20
-15.35169542495289
 30
0.0
 11
21.52419219025467
 21
14.72008191879711
 31
0.0
  0
LINE
  5
301
330
1F
100
AcDbEntity
  8
D-1
  6
JWW_DASHED1
 62
     2
370
     9
100
AcDbLine
 10
26.52428374298904
 20
-15.35169542495289
 30
0.0
 11
26.52428374298904
 21
14.72008191879711
 31
0.0
  0
LINE
  5
302
330
1F
100
AcDbEntity
  8
D-1
  6
Continuous
 62
     2
370
     9
100
AcDbLine
 10
28.02416167267654
 20
-15.35169542495289
 30
0.0
 11
28.02416167267654
 21
11.72002088364086
 31
0.0
  0
ARC
  5
303
330
1F
100
AcDbEntity
  8
D-1
  6
Continuous
 62
     2
370
     9
100
AcDbCircle
 10
24.02434477814529
 20
14.30220472153148
 30
0.0
 40
4.718181610107422
100
AcDbArc
 50
17.4923095703125
 51
162.5076751708984
  0
LINE
  5
304
330
1F
100
AcDbEntity
  8
D-4
  6
Continuous
 62
     7
370
     9
100
AcDbLine
 10
99.7605050564656
 20
-84.8464464015154
 30
0.0
 11
28.26016994994626
 21
-12.16778619995482
 31
0.0
  0
LINE
  5
305
330
1F
100
AcDbEntity
  8
D-4
  6
Continuous
 62
     7
370
     9
100
AcDbLine
 10
28.26016994994626
 20
-12.16778619995482
 30
0.0
 11
32.20192903031997
 21
-15.2439096292553
 31
0.0
  0
LINE
  5
306
330
1F
100
AcDbEntity
  8
D-4
  6
Continuous
 62
     7
370
     9
100
AcDbLine
 10
28.26016994994626
 20
-12.16778619995482
 30
0.0
 11
31.27145751809964
 21
-16.15929558637556
 31
0.0
  0
LINE
  5
307
330
1F
100
AcDbEntity
  8
D-0
  6
Continuous
 62
     3
370
     9
100
AcDbLine
 10
49.43248686954124
 20
38.72000562485179
 30
0.0
 11
46.43221220978589
 21
41.72026502426586
 31
0.0
  0
LINE
  5
308
330
1F
100
AcDbEntity
  8
D-0
  6
Continuous
 62
     3
370
     9
100
AcDbLine
 10
53.63196501740308
 20
38.72009717758617
 30
0.0
 11
56.63213286408276
 21
41.72026502426586
 31
0.0
  0
LINE
  5
309
330
1F
100
AcDbEntity
  8
D-4
  6
Continuous
 62
     7
370
     9
100
AcDbLine
 10
-312.5866228323453
 20
-69.5285295313982
 30
0.0
 11
-125.6308123110881
 21
-69.5285295313982
 31
0.0
  0
TEXT
  5
30A
330
1F
100
AcDbEntity
  8
D-4
  6
Continuous
 62
     2
370
     9
100
AcDbText
 10
-311.8770685506888
 20
-67.08878201070108
 30
0.0
 40
6.096
  1
補助シート：軟質ポリ塩化ビニル　ｔ＝０．９
 41
1.119047619047619
  7
ＭＳ ゴシック
100
AcDbText
  0
LINE
  5
30B
330
1F
100
AcDbEntity
  8
D-4
  6
Continuous
 62
     7
370
     9
100
AcDbLine
 10
99.7605050564656
 20
-84.8464464015154
 30
0.0
 11
247.363073796989
 21
-84.8464464015154
 31
0.0
  0
TEXT
  5
30C
330
1F
100
AcDbEntity
  8
D-4
  6
Continuous
 62
     2
370
     9
100
AcDbText
 10
105.2312844754109
 20
-82.10650632677566
 30
0.0
 40
6.096
  1
ナイロンプラグ　呼び８　＠４７０
 41
1.1171875
  7
ＭＳ ゴシック
100
AcDbText
  0
ENDSEC
  0
SECTION
  2
OBJECTS
  0
DICTIONARY
  5
C
330
0
100
AcDbDictionary
281
     1
  3
ACAD_DETAILVIEWSTYLE
350
352
  3
ACAD_GROUP
350
D
  3
ACAD_LAYOUT
350
1A
  3
ACAD_MATERIAL
350
43
  3
ACAD_MLEADERSTYLE
350
6B
  3
ACAD_MLINESTYLE
350
17
  3
ACAD_PLOTSETTINGS
350
19
  3
ACAD_PLOTSTYLENAME
350
E
  3
ACAD_SCALELIST
350
47
  3
ACAD_SECTIONVIEWSTYLE
350
353
  3
ACAD_TABLESTYLE
350
69
  3
ACAD_VISUALSTYLE
350
2A
  3
ACDB_RECOMPOSE_DATA
350
34F
  3
AcDbVariableDictionary
350
30F
  0
DICTIONARY
  5
30D
330
8
100
AcDbDictionary
280
     1
281
     1
  3
ACAD_XREC_ROUNDTRIP
360
30E
  0
DICTIONARY
  5
352
102
{ACAD_REACTORS
330
C
102
}
330
C
100
AcDbDictionary
281
     1
  0
DICTIONARY
  5
D
102
{ACAD_REACTORS
330
C
102
}
330
C
100
AcDbDictionary
281
     1
  0
DICTIONARY
  5
1A
102
{ACAD_REACTORS
330
C
102
}
330
C
100
AcDbDictionary
281
     1
  3
Layout1
350
1E
  3
Layout2
350
26
  3
Model
350
22
  0
DICTIONARY
  5
43
102
{ACAD_REACTORS
330
C
102
}
330
C
100
AcDbDictionary
281
     1
  3
ByBlock
350
45
  3
ByLayer
350
44
  3
Global
350
46
  0
DICTIONARY
  5
6B
102
{ACAD_REACTORS
330
C
102
}
330
C
100
AcDbDictionary
281
     1
  3
Standard
350
6C
  0
DICTIONARY
  5
17
102
{ACAD_REACTORS
330
C
102
}
330
C
100
AcDbDictionary
281
     1
  3
Standard
350
18
  0
DICTIONARY
  5
19
102
{ACAD_REACTORS
330
C
102
}
330
C
100
AcDbDictionary
281
     1
  0
ACDBDICTIONARYWDFLT
  5
E
102
{ACAD_REACTORS
330
C
102
}
330
C
100
AcDbDictionary
281
     1
  3
Normal
350
F
100
AcDbDictionaryWithDefault
340
F
  0
DICTIONARY
  5
47
102
{ACAD_REACTORS
330
C
102
}
330
C
100
AcDbDictionary
281
     1
  3
A0
350
48
  3
A1
350
49
  3
A2
350
4A
  3
A3
350
4B
  3
A4
350
4C
  3
A5
350
4D
  3
A6
350
4E
  3
A7
350
4F
  3
A8
350
50
  3
A9
350
51
  3
B0
350
52
  3
B1
350
53
  3
B2
350
54
  3
B3
350
55
  3
B4
350
56
  3
B5
350
57
  3
B6
350
58
  3
B7
350
59
  3
B8
350
5A
  3
B9
350
5B
  3
C0
350
5C
  3
C1
350
5D
  3
C2
350
5E
  3
C3
350
5F
  3
C4
350
60
  3
C5
350
61
  3
C6
350
62
  3
C7
350
63
  3
C8
350
64
  3
C9
350
65
  3
D0
350
66
  3
D1
350
67
  3
D2
350
68
  0
DICTIONARY
  5
353
102
{ACAD_REACTORS
330
C
102
}
330
C
100
AcDbDictionary
281
     1
  0
DICTIONARY
  5
69
102
{ACAD_REACTORS
330
C
102
}
330
C
100
AcDbDictionary
281
     1
  3
Standard
350
6A
  0
DICTIONARY
  5
2A
102
{ACAD_REACTORS
330
C
102
}
330
C
100
AcDbDictionary
281
     1
  3
2dWireframe
350
2F
  3
Basic
350
32
  3
Brighten
350
36
  3
ColorChange
350
3A
  3
Conceptual
350
34
  3
Dim
350
35
  3
EdgeColorOff
350
3D
  3
Facepattern
350
39
  3
Flat
350
2B
  3
FlatWithEdges
350
2C
  3
Gouraud
350
2D
  3
GouraudWithEdges
350
2E
  3
Hidden
350
31
  3
JitterOff
350
3B
  3
Linepattern
350
38
  3
OverhangOff
350
3C
  3
Realistic
350
33
  3
Shaded
350
42
  3
Shaded with edges
350
41
  3
Shades of Gray
350
3E
  3
Sketchy
350
3F
  3
Thicken
350
37
  3
Wireframe
350
30
  3
X-Ray
350
40
  0
XRECORD
  5
34F
102
{ACAD_REACTORS
330
C
102
}
330
C
100
AcDbXrecord
280
     1
 90
        1
330
6A
  0
DICTIONARY
  5
30F
102
{ACAD_REACTORS
330
C
102
}
330
C
100
AcDbDictionary
281
     1
  3
CANNOSCALE
350
310
  3
CENTEREXE
350
354
  3
CENTERLTYPEFILE
350
355
  3
CMLEADERSTYLE
350
351
  3
CTABLESTYLE
350
350
  3
MSLTSCALE
350
311
  3
XCLIPFRAME
350
312
  0
XRECORD
  5
30E
102
{ACAD_REACTORS
330
30D
102
}
330
30D
100
AcDbXrecord
280
     1
102
VTR_0.000_0.000_1.000_1.000_VISUALSTYLE
340
2F
102
VTR_0.000_0.000_1.000_1.000_GRIDDISPLAY
 70
     3
102
VTR_0.000_0.000_1.000_1.000_GRIDMAJOR
 70
     5
102
VTR_0.000_0.000_1.000_1.000_DEFAULTLIGHTING
280
     1
102
VTR_0.000_0.000_1.000_1.000_DEFAULTLIGHTINGTYPE
 70
     1
102
VTR_0.000_0.000_1.000_1.000_BRIGHTNESS
141
0.0
102
VTR_0.000_0.000_1.000_1.000_CONTRAST
142
0.0
  0
LAYOUT
  5
1E
102
{ACAD_REACTORS
330
1A
102
}
330
1A
100
AcDbPlotSettings
  1

  2
none_device
  4

  6

 40
0.0
 41
0.0
 42
0.0
 43
0.0
 44
0.0
 45
0.0
 46
0.0
 47
0.0
 48
0.0
 49
0.0
140
0.0
141
0.0
142
1.0
143
1.0
 70
   688
 72
     1
 73
     0
 74
     5
  7

 75
    16
 76
     0
 77
     5
 78
   300
147
1.0
148
0.0
149
0.0
100
AcDbLayout
  1
Layout1
 70
     1
 71
     1
 10
0.0
 20
0.0
 11
420.0
 21
297.0
 12
0.0
 22
0.0
 32
0.0
 14
1.000000000000000E+20
 24
1.000000000000000E+20
 34
1.000000000000000E+20
 15
-1.000000000000000E+20
 25
-1.000000000000000E+20
 35
-1.000000000000000E+20
146
0.0
 13
0.0
 23
0.0
 33
0.0
 16
1.0
 26
0.0
 36
0.0
 17
0.0
 27
1.0
 37
0.0
 76
     0
330
1B
  0
LAYOUT
  5
26
102
{ACAD_REACTORS
330
1A
102
}
330
1A
100
AcDbPlotSettings
  1

  2
none_device
  4

  6

 40
0.0
 41
0.0
 42
0.0
 43
0.0
 44
0.0
 45
0.0
 46
0.0
 47
0.0
 48
0.0
 49
0.0
140
0.0
141
0.0
142
1.0
143
1.0
 70
   688
 72
     1
 73
     0
 74
     5
  7

 75
    16
 76
     0
 77
     5
 78
   300
147
1.0
148
0.0
149
0.0
100
AcDbLayout
  1
Layout2
 70
     1
 71
     2
 10
0.0
 20
0.0
 11
0.0
 21
0.0
 12
0.0
 22
0.0
 32
0.0
 14
0.0
 24
0.0
 34
0.0
 15
0.0
 25
0.0
 35
0.0
146
0.0
 13
0.0
 23
0.0
 33
0.0
 16
1.0
 26
0.0
 36
0.0
 17
0.0
 27
1.0
 37
0.0
 76
     0
330
23
  0
LAYOUT
  5
22
102
{ACAD_REACTORS
330
1A
102
}
330
1A
100
AcDbPlotSettings
  1

  2
none_device
  4
Letter_(8.50_x_11.00_Inches)
  6

 40
6.35
 41
6.35
 42
6.35000508
 43
6.35000508
 44
215.9
 45
279.4
 46
0.0
 47
0.0
 48
0.0
 49
0.0
140
0.0
141
0.0
142
1.0
143
1.0
 70
  1712
 72
     1
 73
     0
 74
     0
  7

 75
     0
 76
     0
 77
     5
 78
   300
147
1.0
148
0.0
149
0.0
100
AcDbLayout
  1
Model
 70
     1
 71
     0
 10
-420.0
 20
-297.0
 11
420.0
 21
297.0
 12
0.0
 22
0.0
 32
0.0
 14
-420.0
 24
-297.0
 34
0.0
 15
420.0
 25
297.0
 35
0.0
146
0.0
 13
0.0
 23
0.0
 33
0.0
 16
1.0
 26
0.0
 36
0.0
 17
0.0
 27
1.0
 37
0.0
 76
     0
330
1F
331
29
  0
MATERIAL
  5
45
102
{ACAD_REACTORS
330
43
102
}
102
{ACAD_XDICTIONARY
360
345
102
}
330
43
100
AcDbMaterial
  1
ByBlock
  0
MATERIAL
  5
44
102
{ACAD_REACTORS
330
43
102
}
102
{ACAD_XDICTIONARY
360
343
102
}
330
43
100
AcDbMaterial
  1
ByLayer
  0
MATERIAL
  5
46
102
{ACAD_REACTORS
330
43
102
}
102
{ACAD_XDICTIONARY
360
347
102
}
330
43
100
AcDbMaterial
  1
Global
  0
MLEADERSTYLE
  5
6C
102
{ACAD_REACTORS
330
6B
102
}
102
{ACAD_XDICTIONARY
360
34D
102
}
330
6B
100
AcDbMLeaderStyle
170
     2
171
     1
172
     0
 90
        2
 40
0.0
 41
0.0
173
     1
 91
-1056964608
340
14
 92
       -2
290
     1
 42
2.0
291
     1
 43
8.0
  3
Standard
341
0
 44
4.0
300

342
11
174
     1
178
     6
175
     1
176
     0
 93
-1056964608
 45
4.0
292
     0
297
     0
 46
4.0
343
0
 94
-1056964608
 47
1.0
 49
1.0
140
1.0
293
     1
141
0.0
294
     1
177
     0
142
1.0
295
     0
296
     0
143
3.75
1001
ACAD_MLEADERVER
1070
     2
  0
MLINESTYLE
  5
18
102
{ACAD_REACTORS
330
17
102
}
330
17
100
AcDbMlineStyle
  2
Standard
 70
     0
  3

 62
   256
 51
90.0
 52
90.0
 71
     2
 49
0.5
 62
   256
  6
BYLAYER
 49
-0.5
 62
   256
  6
BYLAYER
  0
ACDBPLACEHOLDER
  5
F
102
{ACAD_REACTORS
330
E
102
}
330
E
  0
SCALE
  5
48
102
{ACAD_REACTORS
330
47
102
}
330
47
100
AcDbScale
 70
     0
300
1:1
140
1.0
141
1.0
290
     1
  0
SCALE
  5
49
102
{ACAD_REACTORS
330
47
102
}
330
47
100
AcDbScale
 70
     0
300
1:2
140
1.0
141
2.0
290
     0
  0
SCALE
  5
4A
102
{ACAD_REACTORS
330
47
102
}
330
47
100
AcDbScale
 70
     0
300
1:4
140
1.0
141
4.0
290
     0
  0
SCALE
  5
4B
102
{ACAD_REACTORS
330
47
102
}
330
47
100
AcDbScale
 70
     0
300
1:5
140
1.0
141
5.0
290
     0
  0
SCALE
  5
4C
102
{ACAD_REACTORS
330
47
102
}
330
47
100
AcDbScale
 70
     0
300
1:8
140
1.0
141
8.0
290
     0
  0
SCALE
  5
4D
102
{ACAD_REACTORS
330
47
102
}
330
47
100
AcDbScale
 70
     0
300
1:10
140
1.0
141
10.0
290
     0
  0
SCALE
  5
4E
102
{ACAD_REACTORS
330
47
102
}
330
47
100
AcDbScale
 70
     0
300
1:16
140
1.0
141
16.0
290
     0
  0
SCALE
  5
4F
102
{ACAD_REACTORS
330
47
102
}
330
47
100
AcDbScale
 70
     0
300
1:20
140
1.0
141
20.0
290
     0
  0
SCALE
  5
50
102
{ACAD_REACTORS
330
47
102
}
330
47
100
AcDbScale
 70
     0
300
1:30
140
1.0
141
30.0
290
     0
  0
SCALE
  5
51
102
{ACAD_REACTORS
330
47
102
}
330
47
100
AcDbScale
 70
     0
300
1:40
140
1.0
141
40.0
290
     0
  0
SCALE
  5
52
102
{ACAD_REACTORS
330
47
102
}
330
47
100
AcDbScale
 70
     0
300
1:50
140
1.0
141
50.0
290
     0
  0
SCALE
  5
53
102
{ACAD_REACTORS
330
47
102
}
330
47
100
AcDbScale
 70
     0
300
1:100
140
1.0
141
100.0
290
     0
  0
SCALE
  5
54
102
{ACAD_REACTORS
330
47
102
}
330
47
100
AcDbScale
 70
     0
300
2:1
140
2.0
141
1.0
290
     0
  0
SCALE
  5
55
102
{ACAD_REACTORS
330
47
102
}
330
47
100
AcDbScale
 70
     0
300
4:1
140
4.0
141
1.0
290
     0
  0
SCALE
  5
56
102
{ACAD_REACTORS
330
47
102
}
330
47
100
AcDbScale
 70
     0
300
8:1
140
8.0
141
1.0
290
     0
  0
SCALE
  5
57
102
{ACAD_REACTORS
330
47
102
}
330
47
100
AcDbScale
 70
     0
300
10:1
140
10.0
141
1.0
290
     0
  0
SCALE
  5
58
102
{ACAD_REACTORS
330
47
102
}
330
47
100
AcDbScale
 70
     0
300
100:1
140
100.0
141
1.0
290
     0
  0
SCALE
  5
59
102
{ACAD_REACTORS
330
47
102
}
330
47
100
AcDbScale
 70
     0
300
1/128" = 1'-0"
140
0.0078125
141
12.0
290
     0
  0
SCALE
  5
5A
102
{ACAD_REACTORS
330
47
102
}
330
47
100
AcDbScale
 70
     0
300
1/64" = 1'-0"
140
0.015625
141
12.0
290
     0
  0
SCALE
  5
5B
102
{ACAD_REACTORS
330
47
102
}
330
47
100
AcDbScale
 70
     0
300
1/32" = 1'-0"
140
0.03125
141
12.0
290
     0
  0
SCALE
  5
5C
102
{ACAD_REACTORS
330
47
102
}
330
47
100
AcDbScale
 70
     0
300
1/16" = 1'-0"
140
0.0625
141
12.0
290
     0
  0
SCALE
  5
5D
102
{ACAD_REACTORS
330
47
102
}
330
47
100
AcDbScale
 70
     0
300
3/32" = 1'-0"
140
0.09375
141
12.0
290
     0
  0
SCALE
  5
5E
102
{ACAD_REACTORS
330
47
102
}
330
47
100
AcDbScale
 70
     0
300
1/8" = 1'-0"
140
0.125
141
12.0
290
     0
  0
SCALE
  5
5F
102
{ACAD_REACTORS
330
47
102
}
330
47
100
AcDbScale
 70
     0
300
3/16" = 1'-0"
140
0.1875
141
12.0
290
     0
  0
SCALE
  5
60
102
{ACAD_REACTORS
330
47
102
}
330
47
100
AcDbScale
 70
     0
300
1/4" = 1'-0"
140
0.25
141
12.0
290
     0
  0
SCALE
  5
61
102
{ACAD_REACTORS
330
47
102
}
330
47
100
AcDbScale
 70
     0
300
3/8" = 1'-0"
140
0.375
141
12.0
290
     0
  0
SCALE
  5
62
102
{ACAD_REACTORS
330
47
102
}
330
47
100
AcDbScale
 70
     0
300
1/2" = 1'-0"
140
0.5
141
12.0
290
     0
  0
SCALE
  5
63
102
{ACAD_REACTORS
330
47
102
}
330
47
100
AcDbScale
 70
     0
300
3/4" = 1'-0"
140
0.75
141
12.0
290
     0
  0
SCALE
  5
64
102
{ACAD_REACTORS
330
47
102
}
330
47
100
AcDbScale
 70
     0
300
1" = 1'-0"
140
1.0
141
12.0
290
     0
  0
SCALE
  5
65
102
{ACAD_REACTORS
330
47
102
}
330
47
100
AcDbScale
 70
     0
300
1-1/2" = 1'-0"
140
1.5
141
12.0
290
     0
  0
SCALE
  5
66
102
{ACAD_REACTORS
330
47
102
}
330
47
100
AcDbScale
 70
     0
300
3" = 1'-0"
140
3.0
141
12.0
290
     0
  0
SCALE
  5
67
102
{ACAD_REACTORS
330
47
102
}
330
47
100
AcDbScale
 70
     0
300
6" = 1'-0"
140
6.0
141
12.0
290
     0
  0
SCALE
  5
68
102
{ACAD_REACTORS
330
47
102
}
330
47
100
AcDbScale
 70
     0
300
1'-0" = 1'-0"
140
12.0
141
12.0
290
     0
  0
TABLESTYLE
  5
6A
102
{ACAD_REACTORS
330
69
102
}
102
{ACAD_XDICTIONARY
360
349
102
}
330
69
100
AcDbTableStyle
  3
Standard
 70
     0
 71
     0
 40
0.06
 41
0.06
280
     0
281
     0
  7
Standard
140
4.5
170
     2
 62
     0
 63
   257
283
     0
274
    -2
284
     1
 64
     0
275
    -2
285
     1
 65
     0
276
    -2
286
     1
 66
     0
277
    -2
287
     1
 67
     0
278
    -2
288
     1
 68
     0
279
    -2
289
     1
 69
     0
  7
Standard
140
6.0
170
     5
 62
     0
 63
   257
283
     0
274
    -2
284
     1
 64
     0
275
    -2
285
     1
 65
     0
276
    -2
286
     1
 66
     0
277
    -2
287
     1
 67
     0
278
    -2
288
     1
 68
     0
279
    -2
289
     1
 69
     0
  7
Standard
140
4.5
170
     5
 62
     0
 63
   257
283
     0
274
    -2
284
     1
 64
     0
275
    -2
285
     1
 65
     0
276
    -2
286
     1
 66
     0
277
    -2
287
     1
 67
     0
278
    -2
288
     1
 68
     0
279
    -2
289
     1
 69
     0
  0
VISUALSTYLE
  5
2F
102
{ACAD_REACTORS
330
2A
102
}
102
{ACAD_XDICTIONARY
360
31B
102
}
330
2A
100
AcDbVisualStyle
  2
2dWireframe
 70
     4
 71
     0
 72
     2
 73
     0
 90
        0
 40
0.6
 41
30.0
 62
     5
 63
     7
421
 16777215
 74
     1
 91
        4
 64
     7
 65
   257
 75
     1
175
     1
 42
1.0
 92
        0
 66
   257
 43
1.0
 76
     1
 77
     6
 78
     2
 67
     7
 79
     5
170
     0
171
     0
290
     0
174
     0
 93
        1
 44
0.0
173
     0
291
     0
 45
0.0
1001
ACAD
1000
AcDbSavedByObjectVersion
1070
     0
  0
VISUALSTYLE
  5
32
102
{ACAD_REACTORS
330
2A
102
}
102
{ACAD_XDICTIONARY
360
321
102
}
330
2A
100
AcDbVisualStyle
  2
Basic
 70
     7
 71
     1
 72
     0
 73
     1
 90
        0
 40
0.6
 41
30.0
 62
     5
 63
     7
421
 16777215
 74
     0
 91
        4
 64
     7
 65
   257
 75
     1
175
     1
 42
1.0
 92
        8
 66
     7
 43
1.0
 76
     1
 77
     6
 78
     2
 67
     7
 79
     5
170
     0
171
     0
290
     0
174
     0
 93
        1
 44
0.0
173
     0
291
     1
 45
0.0
1001
ACAD
1000
AcDbSavedByObjectVersion
1070
     0
  0
VISUALSTYLE
  5
36
102
{ACAD_REACTORS
330
2A
102
}
102
{ACAD_XDICTIONARY
360
329
102
}
330
2A
100
AcDbVisualStyle
  2
Brighten
 70
    12
 71
     2
 72
     2
 73
     0
 90
        0
 40
0.6
 41
30.0
 62
     5
 63
     7
421
 16777215
 74
     1
 91
        4
 64
     7
 65
   257
 75
     1
175
     1
 42
1.0
 92
        8
 66
     7
 43
1.0
 76
     1
 77
     6
 78
     2
 67
     7
 79
     5
170
     0
171
     0
290
     0
174
     0
 93
        1
 44
50.0
173
     0
291
     1
 45
0.0
1001
ACAD
1000
AcDbSavedByObjectVersion
1070
     0
  0
VISUALSTYLE
  5
3A
102
{ACAD_REACTORS
330
2A
102
}
102
{ACAD_XDICTIONARY
360
331
102
}
330
2A
100
AcDbVisualStyle
  2
ColorChange
 70
    16
 71
     2
 72
     2
 73
     3
 90
        0
 40
0.6
 41
30.0
 62
     5
 63
     8
421
  8421504
 74
     1
 91
        4
 64
     7
 65
   257
 75
     1
175
     1
 42
1.0
 92
        8
 66
     8
424
  8421504
 43
1.0
 76
     1
 77
     6
 78
     2
 67
     7
 79
     5
170
     0
171
     0
290
     0
174
     0
 93
        1
 44
0.0
173
     0
291
     1
 45
0.0
1001
ACAD
1000
AcDbSavedByObjectVersion
1070
     0
  0
VISUALSTYLE
  5
34
102
{ACAD_REACTORS
330
2A
102
}
102
{ACAD_XDICTIONARY
360
325
102
}
330
2A
100
AcDbVisualStyle
  2
Conceptual
 70
     9
 71
     3
 72
     2
 73
     0
 90
        0
 40
0.6
 41
30.0
 62
     5
 63
     7
421
 16777215
 74
     2
 91
        2
 64
     7
 65
   257
 75
     1
175
     1
 42
179.0
 92
        8
 66
     7
 43
1.0
 76
     1
 77
     6
 78
     2
 67
     7
 79
     3
170
     0
171
     0
290
     0
174
     0
 93
        1
 44
0.0
173
     0
291
     0
 45
0.0
1001
ACAD
1000
AcDbSavedByObjectVersion
1070
     0
  0
VISUALSTYLE
  5
35
102
{ACAD_REACTORS
330
2A
102
}
102
{ACAD_XDICTIONARY
360
327
102
}
330
2A
100
AcDbVisualStyle
  2
Dim
 70
    11
 71
     2
 72
     2
 73
     0
 90
        0
 40
0.6
 41
30.0
 62
     5
 63
     7
421
 16777215
 74
     1
 91
        4
 64
     7
 65
   257
 75
     1
175
     1
 42
1.0
 92
        8
 66
     7
 43
1.0
 76
     1
 77
     6
 78
     2
 67
     7
 79
     5
170
     0
171
     0
290
     0
174
     0
 93
        1
 44
-50.0
173
     0
291
     1
 45
0.0
1001
ACAD
1000
AcDbSavedByObjectVersion
1070
     0
  0
VISUALSTYLE
  5
3D
102
{ACAD_REACTORS
330
2A
102
}
102
{ACAD_XDICTIONARY
360
337
102
}
330
2A
100
AcDbVisualStyle
  2
EdgeColorOff
 70
    22
 71
     2
 72
     2
 73
     0
 90
        0
 40
0.6
 41
30.0
 62
     5
 63
     7
421
 16777215
 74
     1
 91
        4
 64
     7
 65
   257
 75
     1
175
     1
 42
1.0
 92
        8
 66
     7
 43
1.0
 76
     1
 77
     6
 78
     2
 67
     7
 79
     5
170
     0
171
     0
290
     0
174
     0
 93
        1
 44
0.0
173
     0
291
     1
 45
0.0
1001
ACAD
1000
AcDbSavedByObjectVersion
1070
     0
  0
VISUALSTYLE
  5
39
102
{ACAD_REACTORS
330
2A
102
}
102
{ACAD_XDICTIONARY
360
32F
102
}
330
2A
100
AcDbVisualStyle
  2
Facepattern
 70
    15
 71
     2
 72
     2
 73
     0
 90
        0
 40
0.6
 41
30.0
 62
     5
 63
     7
421
 16777215
 74
     1
 91
        4
 64
     7
 65
   257
 75
     1
175
     1
 42
1.0
 92
        8
 66
     7
 43
1.0
 76
     1
 77
     6
 78
     2
 67
     7
 79
     5
170
     0
171
     0
290
     0
174
     0
 93
        1
 44
0.0
173
     0
291
     1
 45
0.0
1001
ACAD
1000
AcDbSavedByObjectVersion
1070
     0
  0
VISUALSTYLE
  5
2B
102
{ACAD_REACTORS
330
2A
102
}
102
{ACAD_XDICTIONARY
360
313
102
}
330
2A
100
AcDbVisualStyle
  2
Flat
 70
     0
 71
     2
 72
     1
 73
     1
 90
        2
 40
0.6
 41
30.0
 62
     5
 63
     7
421
 16777215
 74
     0
 91
        0
 64
     7
 65
   257
 75
     1
175
     1
 42
1.0
 92
        8
 66
     7
 43
1.0
 76
     1
 77
     6
 78
     2
 67
     7
 79
     5
170
     0
171
     0
290
     0
174
     0
 93
       13
 44
0.0
173
     0
291
     1
 45
0.0
1001
ACAD
1000
AcDbSavedByObjectVersion
1070
     0
  0
VISUALSTYLE
  5
2C
102
{ACAD_REACTORS
330
2A
102
}
102
{ACAD_XDICTIONARY
360
315
102
}
330
2A
100
AcDbVisualStyle
  2
FlatWithEdges
 70
     1
 71
     2
 72
     1
 73
     1
 90
        2
 40
0.6
 41
30.0
 62
     5
 63
     7
421
 16777215
 74
     1
 91
        0
 64
     7
 65
   257
 75
     1
175
     1
 42
1.0
 92
        0
 66
   257
 43
1.0
 76
     1
 77
     6
 78
     2
 67
     7
 79
     5
170
     0
171
     0
290
     0
174
     0
 93
       13
 44
0.0
173
     0
291
     1
 45
0.0
1001
ACAD
1000
AcDbSavedByObjectVersion
1070
     0
  0
VISUALSTYLE
  5
2D
102
{ACAD_REACTORS
330
2A
102
}
102
{ACAD_XDICTIONARY
360
317
102
}
330
2A
100
AcDbVisualStyle
  2
Gouraud
 70
     2
 71
     2
 72
     2
 73
     1
 90
        2
 40
0.6
 41
30.0
 62
     5
 63
     7
421
 16777215
 74
     0
 91
        0
 64
     7
 65
   257
 75
     1
175
     1
 42
1.0
 92
        0
 66
     7
 43
1.0
 76
     1
 77
     6
 78
     2
 67
     7
 79
     5
170
     0
171
     0
290
     0
174
     0
 93
       13
 44
0.0
173
     0
291
     1
 45
0.0
1001
ACAD
1000
AcDbSavedByObjectVersion
1070
     0
  0
VISUALSTYLE
  5
2E
102
{ACAD_REACTORS
330
2A
102
}
102
{ACAD_XDICTIONARY
360
319
102
}
330
2A
100
AcDbVisualStyle
  2
GouraudWithEdges
 70
     3
 71
     2
 72
     2
 73
     1
 90
        2
 40
0.6
 41
30.0
 62
     5
 63
     7
421
 16777215
 74
     1
 91
        0
 64
     7
 65
   257
 75
     1
175
     1
 42
1.0
 92
        0
 66
   257
 43
1.0
 76
     1
 77
     6
 78
     2
 67
     7
 79
     5
170
     0
171
     0
290
     0
174
     0
 93
       13
 44
0.0
173
     0
291
     1
 45
0.0
1001
ACAD
1000
AcDbSavedByObjectVersion
1070
     0
  0
VISUALSTYLE
  5
31
102
{ACAD_REACTORS
330
2A
102
}
102
{ACAD_XDICTIONARY
360
31F
102
}
330
2A
100
AcDbVisualStyle
  2
Hidden
 70
     6
 71
     1
 72
     2
 73
     2
 90
        0
 40
0.6
 41
30.0
 62
     5
 63
     7
421
 16777215
 74
     2
 91
        2
 64
     7
 65
   257
 75
     2
175
     1
 42
40.0
 92
        0
 66
   257
 43
1.0
 76
     1
 77
     6
 78
     2
 67
     7
 79
     3
170
     0
171
     0
290
     0
174
     0
 93
        1
 44
0.0
173
     0
291
     0
 45
0.0
1001
ACAD
1000
AcDbSavedByObjectVersion
1070
     0
  0
VISUALSTYLE
  5
3B
102
{ACAD_REACTORS
330
2A
102
}
102
{ACAD_XDICTIONARY
360
333
102
}
330
2A
100
AcDbVisualStyle
  2
JitterOff
 70
    20
 71
     2
 72
     2
 73
     0
 90
        0
 40
0.6
 41
30.0
 62
     5
 63
     7
421
 16777215
 74
     1
 91
        4
 64
     7
 65
   257
 75
     1
175
     1
 42
1.0
 92
       10
 66
     7
 43
1.0
 76
     1
 77
     6
 78
     2
 67
     7
 79
     5
170
     0
171
     0
290
     0
174
     0
 93
        1
 44
0.0
173
     0
291
     1
 45
0.0
1001
ACAD
1000
AcDbSavedByObjectVersion
1070
     0
  0
VISUALSTYLE
  5
38
102
{ACAD_REACTORS
330
2A
102
}
102
{ACAD_XDICTIONARY
360
32D
102
}
330
2A
100
AcDbVisualStyle
  2
Linepattern
 70
    14
 71
     2
 72
     2
 73
     0
 90
        0
 40
0.6
 41
30.0
 62
     5
 63
     7
421
 16777215
 74
     1
 91
        4
 64
     7
 65
   257
 75
     7
175
     7
 42
1.0
 92
        8
 66
     7
 43
1.0
 76
     1
 77
     6
 78
     2
 67
     7
 79
     5
170
     0
171
     0
290
     0
174
     0
 93
        1
 44
0.0
173
     0
291
     1
 45
0.0
1001
ACAD
1000
AcDbSavedByObjectVersion
1070
     0
  0
VISUALSTYLE
  5
3C
102
{ACAD_REACTORS
330
2A
102
}
102
{ACAD_XDICTIONARY
360
335
102
}
330
2A
100
AcDbVisualStyle
  2
OverhangOff
 70
    21
 71
     2
 72
     2
 73
     0
 90
        0
 40
0.6
 41
30.0
 62
     5
 63
     7
421
 16777215
 74
     1
 91
        4
 64
     7
 65
   257
 75
     1
175
     1
 42
1.0
 92
        9
 66
     7
 43
1.0
 76
     1
 77
     6
 78
     2
 67
     7
 79
     5
170
     0
171
     0
290
     0
174
     0
 93
        1
 44
0.0
173
     0
291
     1
 45
0.0
1001
ACAD
1000
AcDbSavedByObjectVersion
1070
     0
  0
VISUALSTYLE
  5
33
102
{ACAD_REACTORS
330
2A
102
}
102
{ACAD_XDICTIONARY
360
323
102
}
330
2A
100
AcDbVisualStyle
  2
Realistic
 70
     8
 71
     2
 72
     3
 73
     0
 90
        2
 40
0.6
 41
30.0
 62
     5
 63
     7
421
 16777215
 74
     0
 91
        0
 64
     7
 65
   257
 75
     1
175
     1
 42
1.0
 92
        8
 66
   257
 43
1.0
 76
     1
 77
     6
 78
     2
 67
     7
 79
     3
170
     0
171
     0
290
     0
174
     0
 93
       13
 44
0.0
173
     0
291
     0
 45
0.0
1001
ACAD
1000
AcDbSavedByObjectVersion
1070
     0
  0
VISUALSTYLE
  5
42
102
{ACAD_REACTORS
330
2A
102
}
102
{ACAD_XDICTIONARY
360
341
102
}
330
2A
100
AcDbVisualStyle
  2
Shaded
 70
    27
 71
     2
 72
     2
 73
     1
 90
        2
 40
0.6
 41
30.0
 62
     5
 63
     7
421
 16777215
 74
     0
 91
        4
 64
     7
 65
   257
 75
     1
175
     1
 42
1.0
 92
        8
 66
   257
 43
1.0
 76
     1
 77
     6
 78
     2
 67
     8
425
  7895160
 79
     3
170
     0
171
     0
290
     0
174
     0
 93
        5
 44
0.0
173
     0
291
     0
 45
0.0
1001
ACAD
1000
AcDbSavedByObjectVersion
1070
     0
  0
VISUALSTYLE
  5
41
102
{ACAD_REACTORS
330
2A
102
}
102
{ACAD_XDICTIONARY
360
33F
102
}
330
2A
100
AcDbVisualStyle
  2
Shaded with edges
 70
    26
 71
     2
 72
     2
 73
     1
 90
        2
 40
0.6
 41
30.0
 62
     5
 63
     7
421
 16777215
 74
     1
 91
       10
 64
     7
 65
   257
 75
     2
175
     1
 42
1.0
 92
        8
 66
   257
 43
1.0
 76
     1
 77
     6
 78
     2
 67
     7
 79
     3
170
     0
171
     0
290
     0
174
     0
 93
        5
 44
0.0
173
     0
291
     0
 45
0.0
1001
ACAD
1000
AcDbSavedByObjectVersion
1070
     0
  0
VISUALSTYLE
  5
3E
102
{ACAD_REACTORS
330
2A
102
}
102
{ACAD_XDICTIONARY
360
339
102
}
330
2A
100
AcDbVisualStyle
  2
Shades of Gray
 70
    23
 71
     2
 72
     2
 73
     3
 90
        0
 40
0.6
 41
30.0
 62
     5
 63
     7
421
 16777215
 74
     2
 91
        2
 64
     7
 65
     7
 75
     1
175
     1
 42
40.0
 92
        8
 66
     7
 43
1.0
 76
     1
 77
     6
 78
     2
 67
     7
 79
     3
170
     0
171
     0
290
     0
174
     0
 93
        1
 44
0.0
173
     0
291
     0
 45
0.0
1001
ACAD
1000
AcDbSavedByObjectVersion
1070
     0
  0
VISUALSTYLE
  5
3F
102
{ACAD_REACTORS
330
2A
102
}
102
{ACAD_XDICTIONARY
360
33B
102
}
330
2A
100
AcDbVisualStyle
  2
Sketchy
 70
    24
 71
     1
 72
     2
 73
     2
 90
        0
 40
0.6
 41
30.0
 62
     5
 63
     7
421
 16777215
 74
     2
 91
        2
 64
     7
 65
     7
 75
     1
175
     1
 42
40.0
 92
       11
 66
     7
 43
1.0
 76
     1
 77
     6
 78
     2
 67
     7
 79
     6
170
     0
171
     0
290
     0
174
     0
 93
        1
 44
0.0
173
     0
291
     0
 45
0.0
1001
ACAD
1000
AcDbSavedByObjectVersion
1070
     0
  0
VISUALSTYLE
  5
37
102
{ACAD_REACTORS
330
2A
102
}
102
{ACAD_XDICTIONARY
360
32B
102
}
330
2A
100
AcDbVisualStyle
  2
Thicken
 70
    13
 71
     2
 72
     2
 73
     0
 90
        0
 40
0.6
 41
30.0
 62
     5
 63
     7
421
 16777215
 74
     1
 91
        4
 64
     7
 65
   257
 75
     1
175
     1
 42
1.0
 92
       12
 66
     7
 43
1.0
 76
     1
 77
     6
 78
     2
 67
     7
 79
     5
170
     0
171
     0
290
     0
174
     0
 93
        1
 44
0.0
173
     0
291
     1
 45
0.0
1001
ACAD
1000
AcDbSavedByObjectVersion
1070
     0
  0
VISUALSTYLE
  5
30
102
{ACAD_REACTORS
330
2A
102
}
102
{ACAD_XDICTIONARY
360
31D
102
}
330
2A
100
AcDbVisualStyle
  2
Wireframe
 70
     5
 71
     0
 72
     2
 73
     0
 90
        0
 40
0.6
 41
30.0
 62
     5
 63
     7
421
 16777215
 74
     1
 91
        4
 64
     7
 65
   257
 75
     1
175
     1
 42
1.0
 92
        0
 66
   257
 43
1.0
 76
     1
 77
     6
 78
     2
 67
     7
 79
     3
170
     0
171
     0
290
     0
174
     0
 93
        1
 44
0.0
173
     0
291
     0
 45
0.0
1001
ACAD
1000
AcDbSavedByObjectVersion
1070
     0
  0
VISUALSTYLE
  5
40
102
{ACAD_REACTORS
330
2A
102
}
102
{ACAD_XDICTIONARY
360
33D
102
}
330
2A
100
AcDbVisualStyle
  2
X-Ray
 70
    25
 71
     2
 72
     2
 73
     1
 90
        1
 40
0.5
 41
30.0
 62
     5
 63
     7
421
 16777215
 74
     1
 91
        0
 64
     7
 65
   257
 75
     1
175
     1
 42
1.0
 92
        8
 66
     7
 43
1.0
 76
     1
 77
     6
 78
     2
 67
     7
 79
     3
170
     0
171
     0
290
     0
174
     0
 93
       13
 44
0.0
173
     0
291
     0
 45
0.0
1001
ACAD
1000
AcDbSavedByObjectVersion
1070
     0
  0
DICTIONARYVAR
  5
310
102
{ACAD_REACTORS
330
30F
102
}
330
30F
100
DictionaryVariables
280
     0
  1
1:1
  0
DICTIONARYVAR
  5
354
102
{ACAD_REACTORS
330
30F
102
}
330
30F
100
DictionaryVariables
280
     0
  1
3.500000
  0
DICTIONARYVAR
  5
355
102
{ACAD_REACTORS
330
30F
102
}
330
30F
100
DictionaryVariables
280
     0
  1
acadiso.lin
  0
DICTIONARYVAR
  5
351
102
{ACAD_REACTORS
330
30F
102
}
330
30F
100
DictionaryVariables
280
     0
  1
Standard
  0
DICTIONARYVAR
  5
350
102
{ACAD_REACTORS
330
30F
102
}
330
30F
100
DictionaryVariables
280
     0
  1
Standard
  0
DICTIONARYVAR
  5
311
102
{ACAD_REACTORS
330
30F
102
}
330
30F
100
DictionaryVariables
280
     0
  1
1
  0
DICTIONARYVAR
  5
312
102
{ACAD_REACTORS
330
30F
102
}
330
30F
100
DictionaryVariables
280
     0
  1
2
  0
DICTIONARY
  5
345
330
45
100
AcDbDictionary
280
     1
281
     1
  3
ACAD_XREC_ROUNDTRIP
360
346
  0
DICTIONARY
  5
343
330
44
100
AcDbDictionary
280
     1
281
     1
  3
ACAD_XREC_ROUNDTRIP
360
344
  0
DICTIONARY
  5
347
330
46
100
AcDbDictionary
280
     1
281
     1
  3
ACAD_XREC_ROUNDTRIP
360
348
  0
DICTIONARY
  5
34D
330
6C
100
AcDbDictionary
280
     1
281
     1
  3
ACAD_XREC_ROUNDTRIP
360
34E
  0
DICTIONARY
  5
349
330
6A
100
AcDbDictionary
280
     1
281
     1
  3
ACAD_ROUNDTRIP_2008_TABLESTYLE_CELLSTYLEMAP
360
34B
  3
ACAD_XREC_ROUNDTRIP
360
34A
  0
DICTIONARY
  5
31B
330
2F
100
AcDbDictionary
280
     1
281
     1
  3
ACAD_XREC_ROUNDTRIP
360
31C
  0
DICTIONARY
  5
321
330
32
100
AcDbDictionary
280
     1
281
     1
  3
ACAD_XREC_ROUNDTRIP
360
322
  0
DICTIONARY
  5
329
330
36
100
AcDbDictionary
280
     1
281
     1
  3
ACAD_XREC_ROUNDTRIP
360
32A
  0
DICTIONARY
  5
331
330
3A
100
AcDbDictionary
280
     1
281
     1
  3
ACAD_XREC_ROUNDTRIP
360
332
  0
DICTIONARY
  5
325
330
34
100
AcDbDictionary
280
     1
281
     1
  3
ACAD_XREC_ROUNDTRIP
360
326
  0
DICTIONARY
  5
327
330
35
100
AcDbDictionary
280
     1
281
     1
  3
ACAD_XREC_ROUNDTRIP
360
328
  0
DICTIONARY
  5
337
330
3D
100
AcDbDictionary
280
     1
281
     1
  3
ACAD_XREC_ROUNDTRIP
360
338
  0
DICTIONARY
  5
32F
330
39
100
AcDbDictionary
280
     1
281
     1
  3
ACAD_XREC_ROUNDTRIP
360
330
  0
DICTIONARY
  5
313
330
2B
100
AcDbDictionary
280
     1
281
     1
  3
ACAD_XREC_ROUNDTRIP
360
314
  0
DICTIONARY
  5
315
330
2C
100
AcDbDictionary
280
     1
281
     1
  3
ACAD_XREC_ROUNDTRIP
360
316
  0
DICTIONARY
  5
317
330
2D
100
AcDbDictionary
280
     1
281
     1
  3
ACAD_XREC_ROUNDTRIP
360
318
  0
DICTIONARY
  5
319
330
2E
100
AcDbDictionary
280
     1
281
     1
  3
ACAD_XREC_ROUNDTRIP
360
31A
  0
DICTIONARY
  5
31F
330
31
100
AcDbDictionary
280
     1
281
     1
  3
ACAD_XREC_ROUNDTRIP
360
320
  0
DICTIONARY
  5
333
330
3B
100
AcDbDictionary
280
     1
281
     1
  3
ACAD_XREC_ROUNDTRIP
360
334
  0
DICTIONARY
  5
32D
330
38
100
AcDbDictionary
280
     1
281
     1
  3
ACAD_XREC_ROUNDTRIP
360
32E
  0
DICTIONARY
  5
335
330
3C
100
AcDbDictionary
280
     1
281
     1
  3
ACAD_XREC_ROUNDTRIP
360
336
  0
DICTIONARY
  5
323
330
33
100
AcDbDictionary
280
     1
281
     1
  3
ACAD_XREC_ROUNDTRIP
360
324
  0
DICTIONARY
  5
341
330
42
100
AcDbDictionary
280
     1
281
     1
  3
ACAD_XREC_ROUNDTRIP
360
342
  0
DICTIONARY
  5
33F
330
41
100
AcDbDictionary
280
     1
281
     1
  3
ACAD_XREC_ROUNDTRIP
360
340
  0
DICTIONARY
  5
339
330
3E
100
AcDbDictionary
280
     1
281
     1
  3
ACAD_XREC_ROUNDTRIP
360
33A
  0
DICTIONARY
  5
33B
330
3F
100
AcDbDictionary
280
     1
281
     1
  3
ACAD_XREC_ROUNDTRIP
360
33C
  0
DICTIONARY
  5
32B
330
37
100
AcDbDictionary
280
     1
281
     1
  3
ACAD_XREC_ROUNDTRIP
360
32C
  0
DICTIONARY
  5
31D
330
30
100
AcDbDictionary
280
     1
281
     1
  3
ACAD_XREC_ROUNDTRIP
360
31E
  0
DICTIONARY
  5
33D
330
40
100
AcDbDictionary
280
     1
281
     1
  3
ACAD_XREC_ROUNDTRIP
360
33E
  0
XRECORD
  5
346
102
{ACAD_REACTORS
330
345
102
}
330
345
100
AcDbXrecord
280
     1
102
MATERIAL
148
0.0
149
0.0
149
0.0
 93
        0
 94
      127
282
     0
 72
     1
 77
     1
171
     1
175
     1
179
     1
273
     0
  0
XRECORD
  5
344
102
{ACAD_REACTORS
330
343
102
}
330
343
100
AcDbXrecord
280
     1
102
MATERIAL
148
0.0
149
0.0
149
0.0
 93
        0
 94
      127
282
     0
 72
     1
 77
     1
171
     1
175
     1
179
     1
273
     0
  0
XRECORD
  5
348
102
{ACAD_REACTORS
330
347
102
}
330
347
100
AcDbXrecord
280
     1
102
MATERIAL
148
0.0
149
0.0
149
0.0
 93
        0
 94
      127
282
     0
 72
     1
 77
     1
171
     1
175
     1
179
     1
273
     0
  0
XRECORD
  5
34E
102
{ACAD_REACTORS
330
34D
102
}
330
34D
100
AcDbXrecord
280
     1
102
ACAD_ROUNDTRIP_2010_MLEADER_STYLE
  0
CELLSTYLEMAP
  5
34B
102
{ACAD_REACTORS
330
349
102
}
330
349
100
AcDbCellStyleMap
 90
        3
300
CELLSTYLE
  1
TABLEFORMAT_BEGIN
 90
        5
170
     1
 91
        0
 92
    32768
 62
   257
 93
        1
300
CONTENTFORMAT
  1
CONTENTFORMAT_BEGIN
 90
        0
 91
        0
 92
        4
 93
        0
300

 40
0.0
140
1.0
 94
        5
 62
     0
340
11
144
6.0
309
CONTENTFORMAT_END
171
     1
301
MARGIN
  1
CELLMARGIN_BEGIN
 40
1.5
 40
1.5
 40
1.5
 40
1.5
 40
1.5
 40
1.5
309
CELLMARGIN_END
 94
        6
 95
        1
302
GRIDFORMAT
  1
GRIDFORMAT_BEGIN
 90
        0
 91
        1
 62
     0
 92
       -2
340
14
 93
        0
 40
0.045
309
GRIDFORMAT_END
 95
        2
302
GRIDFORMAT
  1
GRIDFORMAT_BEGIN
 90
        0
 91
        1
 62
     0
 92
       -2
340
14
 93
        0
 40
0.045
309
GRIDFORMAT_END
 95
        4
302
GRIDFORMAT
  1
GRIDFORMAT_BEGIN
 90
        0
 91
        1
 62
     0
 92
       -2
340
14
 93
        0
 40
0.045
309
GRIDFORMAT_END
 95
        8
302
GRIDFORMAT
  1
GRIDFORMAT_BEGIN
 90
        0
 91
        1
 62
     0
 92
       -2
340
14
 93
        0
 40
0.045
309
GRIDFORMAT_END
 95
       16
302
GRIDFORMAT
  1
GRIDFORMAT_BEGIN
 90
        0
 91
        1
 62
     0
 92
       -2
340
14
 93
        0
 40
0.045
309
GRIDFORMAT_END
 95
       32
302
GRIDFORMAT
  1
GRIDFORMAT_BEGIN
 90
        0
 91
        1
 62
     0
 92
       -2
340
14
 93
        0
 40
0.045
309
GRIDFORMAT_END
309
TABLEFORMAT_END
  1
CELLSTYLE_BEGIN
 90
        1
 91
        1
300
_TITLE
309
CELLSTYLE_END
300
CELLSTYLE
  1
TABLEFORMAT_BEGIN
 90
        5
170
     1
 91
        0
 92
        0
 62
   257
 93
        1
300
CONTENTFORMAT
  1
CONTENTFORMAT_BEGIN
 90
        0
 91
        0
 92
        4
 93
        0
300

 40
0.0
140
1.0
 94
        5
 62
     0
340
11
144
4.5
309
CONTENTFORMAT_END
171
     1
301
MARGIN
  1
CELLMARGIN_BEGIN
 40
1.5
 40
1.5
 40
1.5
 40
1.5
 40
1.5
 40
1.5
309
CELLMARGIN_END
 94
        6
 95
        1
302
GRIDFORMAT
  1
GRIDFORMAT_BEGIN
 90
        0
 91
        1
 62
     0
 92
       -2
340
14
 93
        0
 40
0.045
309
GRIDFORMAT_END
 95
        2
302
GRIDFORMAT
  1
GRIDFORMAT_BEGIN
 90
        0
 91
        1
 62
     0
 92
       -2
340
14
 93
        0
 40
0.045
309
GRIDFORMAT_END
 95
        4
302
GRIDFORMAT
  1
GRIDFORMAT_BEGIN
 90
        0
 91
        1
 62
     0
 92
       -2
340
14
 93
        0
 40
0.045
309
GRIDFORMAT_END
 95
        8
302
GRIDFORMAT
  1
GRIDFORMAT_BEGIN
 90
        0
 91
        1
 62
     0
 92
       -2
340
14
 93
        0
 40
0.045
309
GRIDFORMAT_END
 95
       16
302
GRIDFORMAT
  1
GRIDFORMAT_BEGIN
 90
        0
 91
        1
 62
     0
 92
       -2
340
14
 93
        0
 40
0.045
309
GRIDFORMAT_END
 95
       32
302
GRIDFORMAT
  1
GRIDFORMAT_BEGIN
 90
        0
 91
        1
 62
     0
 92
       -2
340
14
 93
        0
 40
0.045
309
GRIDFORMAT_END
309
TABLEFORMAT_END
  1
CELLSTYLE_BEGIN
 90
        2
 91
        1
300
_HEADER
309
CELLSTYLE_END
300
CELLSTYLE
  1
TABLEFORMAT_BEGIN
 90
        5
170
     1
 91
        0
 92
        0
 62
   257
 93
        1
300
CONTENTFORMAT
  1
CONTENTFORMAT_BEGIN
 90
        0
 91
        0
 92
        4
 93
        0
300

 40
0.0
140
1.0
 94
        2
 62
     0
340
11
144
4.5
309
CONTENTFORMAT_END
171
     1
301
MARGIN
  1
CELLMARGIN_BEGIN
 40
1.5
 40
1.5
 40
1.5
 40
1.5
 40
1.5
 40
1.5
309
CELLMARGIN_END
 94
        6
 95
        1
302
GRIDFORMAT
  1
GRIDFORMAT_BEGIN
 90
        0
 91
        1
 62
     0
 92
       -2
340
14
 93
        0
 40
0.045
309
GRIDFORMAT_END
 95
        2
302
GRIDFORMAT
  1
GRIDFORMAT_BEGIN
 90
        0
 91
        1
 62
     0
 92
       -2
340
14
 93
        0
 40
0.045
309
GRIDFORMAT_END
 95
        4
302
GRIDFORMAT
  1
GRIDFORMAT_BEGIN
 90
        0
 91
        1
 62
     0
 92
       -2
340
14
 93
        0
 40
0.045
309
GRIDFORMAT_END
 95
        8
302
GRIDFORMAT
  1
GRIDFORMAT_BEGIN
 90
        0
 91
        1
 62
     0
 92
       -2
340
14
 93
        0
 40
0.045
309
GRIDFORMAT_END
 95
       16
302
GRIDFORMAT
  1
GRIDFORMAT_BEGIN
 90
        0
 91
        1
 62
     0
 92
       -2
340
14
 93
        0
 40
0.045
309
GRIDFORMAT_END
 95
       32
302
GRIDFORMAT
  1
GRIDFORMAT_BEGIN
 90
        0
 91
        1
 62
     0
 92
       -2
340
14
 93
        0
 40
0.045
309
GRIDFORMAT_END
309
TABLEFORMAT_END
  1
CELLSTYLE_BEGIN
 90
        3
 91
        2
300
_DATA
309
CELLSTYLE_END
  0
XRECORD
  5
34A
102
{ACAD_REACTORS
330
349
102
}
330
349
100
AcDbXrecord
280
     1
102
ACAD_ROUNDTRIP_PRE2007_TABLESTYLE
 90
        4
 91
        0
  1

 92
        4
 93
        0
  2

 94
        4
 95
        0
  3

  0
XRECORD
  5
31C
102
{ACAD_REACTORS
330
31B
102
}
330
31B
100
AcDbXrecord
280
     1
102
RTVSPropertyOp0
 70
     1
102
RTVSPropertyOp1
 70
     1
102
RTVSPropertyOp2
 70
     1
102
RTVSPropertyOp3
 70
     1
102
RTVSPropertyOp4
 70
     1
102
RTVSPropertyOp5
 70
     1
102
RTVSPropertyOp6
 70
     1
102
RTVSPropertyOp7
 70
     1
102
RTVSPropertyOp8
 70
     1
102
RTVSPropertyOp9
 70
     1
102
RTVSPropertyOp10
 70
     1
102
RTVSPropertyOp11
 70
     1
102
RTVSPropertyOp12
 70
     1
102
RTVSPropertyOp13
 70
     1
102
RTVSPropertyOp14
 70
     1
102
RTVSPropertyOp15
 70
     1
102
RTVSPropertyOp16
 70
     1
102
RTVSPropertyOp17
 70
     1
102
RTVSPropertyOp18
 70
     1
102
RTVSPropertyOp19
 70
     1
102
RTVSPropertyOp20
 70
     1
102
RTVSPropertyOp21
 70
     1
102
RTVSPropertyOp22
 70
     1
102
RTVSPropertyOp23
 70
     1
102
RTVSPropertyOp24
 70
     1
102
RTVSPropertyOp25
 70
     1
102
RTVSPropertyOp26
 70
     1
102
RTVSPropertyOp27
 70
     1
102
RTVSPropertyOp28
 70
     1
102
RTVSPropertyOp29
 70
     1
102
RTVSPropertyOp30
 70
     1
102
RTVSPropertyOp31
 70
     1
102
RTVSPropertyOp32
 70
     1
102
RTVSPropertyOp33
 70
     1
102
RTVSPropertyOp34
 70
     1
102
RTVSPropertyOp35
 70
     1
102
RTVSPropertyOp36
 70
     1
102
RTVSPropertyOp37
 70
     1
102
RTVSPropertyOp38
 70
     1
102
RTVSPropertyOp39
 70
     1
102
RTVSPropertyOp40
 70
     1
102
RTVSPropertyOp41
 70
     1
102
RTVSPropertyOp42
 70
     1
102
RTVSPropertyOp43
 70
     1
102
RTVSPropertyOp44
 70
     1
102
RTVSPropertyOp45
 70
     1
102
RTVSPropertyOp46
 70
     1
102
RTVSPropertyOp47
 70
     1
102
RTVSPropertyOp48
 70
     1
102
RTVSPropertyOp49
 70
     1
102
RTVSPropertyOp50
 70
     1
102
RTVSPropertyOp51
 70
     0
102
RTVSPropertyOp52
 70
     0
102
RTVSPropertyOp53
 70
     1
102
RTVSPropertyOp54
 70
     1
102
RTVSPropertyOp55
 70
     1
102
RTVSPropertyOp56
 70
     1
102
RTVSPropertyOp57
 70
     1
102
RTVSPost2010Prop28
280
     1
102
RTVSPost2010PropOp28
 70
     1
102
RTVSPost2010Prop29
280
     1
102
RTVSPost2010PropOp29
 70
     1
102
RTVSPost2010Prop30
280
     0
102
RTVSPost2010PropOp30
 70
     1
102
RTVSPost2010Prop31
280
     0
102
RTVSPost2010PropOp31
 70
     1
102
RTVSPost2010Prop32
280
     0
102
RTVSPost2010PropOp32
 70
     1
102
RTVSPost2010Prop33
280
     0
102
RTVSPost2010PropOp33
 70
     1
102
RTVSPost2010Prop34
280
     0
102
RTVSPost2010PropOp34
 70
     1
102
RTVSPost2010Prop35
280
     0
102
RTVSPost2010PropOp35
 70
     1
102
RTVSPost2010Prop36
280
     0
102
RTVSPost2010PropOp36
 70
     1
102
RTVSPost2010Prop37
 90
       50
102
RTVSPost2010PropOp37
 70
     1
102
RTVSPost2010Prop38
140
0.0
102
RTVSPost2010PropOp38
 70
     1
102
RTVSPost2010Prop39
140
1.0
102
RTVSPost2010PropOp39
 70
     1
102
RTVSPost2010Prop40
 90
        0
102
RTVSPost2010PropOp40
 70
     1
102
RTVSPost2010Prop41ColorIndex
 90
       18
102
RTVSPost2010Prop41ColorRGB
 90
        0
102
RTVSPost2010PropOp41
 70
     1
102
RTVSPost2010Prop42
 90
       50
102
RTVSPost2010PropOp42
 70
     1
102
RTVSPost2010Prop43
 90
        3
102
RTVSPost2010PropOp43
 70
     1
102
RTVSPost2010Prop44ColorIndex
 90
        5
102
RTVSPost2010Prop44ColorRGB
 90
      255
102
RTVSPost2010PropOp44
 70
     1
102
RTVSPost2010Prop45
280
     0
102
RTVSPost2010PropOp45
 70
     1
102
RTVSPost2010Prop46
 90
       50
102
RTVSPost2010PropOp46
 70
     1
102
RTVSPost2010Prop47
 90
       50
102
RTVSPost2010PropOp47
 70
     1
102
RTVSPost2010Prop48
 90
       50
102
RTVSPost2010PropOp48
 70
     1
102
RTVSPost2010Prop49
280
     0
102
RTVSPost2010PropOp49
 70
     1
102
RTVSPost2010Prop50
 90
       50
102
RTVSPost2010PropOp50
 70
     1
102
RTVSPost2010Prop51ColorIndex
 90
      256
102
RTVSPost2010Prop51ColorRGB
 90
-16777216
102
RTVSPost2010PropOp51
 70
     0
102
RTVSPost2010Prop52
140
1.0
102
RTVSPost2010PropOp52
 70
     0
102
RTVSPost2010Prop53
 90
        2
102
RTVSPost2010PropOp53
 70
     1
102
RTVSPost2010Prop54
  1
strokes_ogs.tif
102
RTVSPost2010PropOp54
 70
     1
102
RTVSPost2010Prop55
280
     0
102
RTVSPost2010PropOp55
 70
     1
102
RTVSPost2010Prop56
140
1.0
102
RTVSPost2010PropOp56
 70
     1
102
RTVSPost2010Prop57
140
1.0
102
RTVSPost2010PropOp57
 70
     1
  0
XRECORD
  5
322
102
{ACAD_REACTORS
330
321
102
}
330
321
100
AcDbXrecord
280
     1
102
RTVSPropertyOp0
 70
     1
102
RTVSPropertyOp1
 70
     1
102
RTVSPropertyOp2
 70
     1
102
RTVSPropertyOp3
 70
     1
102
RTVSPropertyOp4
 70
     1
102
RTVSPropertyOp5
 70
     1
102
RTVSPropertyOp6
 70
     1
102
RTVSPropertyOp7
 70
     1
102
RTVSPropertyOp8
 70
     1
102
RTVSPropertyOp9
 70
     1
102
RTVSPropertyOp10
 70
     1
102
RTVSPropertyOp11
 70
     1
102
RTVSPropertyOp12
 70
     1
102
RTVSPropertyOp13
 70
     1
102
RTVSPropertyOp14
 70
     1
102
RTVSPropertyOp15
 70
     1
102
RTVSPropertyOp16
 70
     1
102
RTVSPropertyOp17
 70
     1
102
RTVSPropertyOp18
 70
     1
102
RTVSPropertyOp19
 70
     1
102
RTVSPropertyOp20
 70
     1
102
RTVSPropertyOp21
 70
     1
102
RTVSPropertyOp22
 70
     1
102
RTVSPropertyOp23
 70
     1
102
RTVSPropertyOp24
 70
     1
102
RTVSPropertyOp25
 70
     1
102
RTVSPropertyOp26
 70
     1
102
RTVSPropertyOp27
 70
     1
102
RTVSPropertyOp28
 70
     1
102
RTVSPropertyOp29
 70
     1
102
RTVSPropertyOp30
 70
     1
102
RTVSPropertyOp31
 70
     1
102
RTVSPropertyOp32
 70
     1
102
RTVSPropertyOp33
 70
     1
102
RTVSPropertyOp34
 70
     1
102
RTVSPropertyOp35
 70
     1
102
RTVSPropertyOp36
 70
     1
102
RTVSPropertyOp37
 70
     1
102
RTVSPropertyOp38
 70
     1
102
RTVSPropertyOp39
 70
     1
102
RTVSPropertyOp40
 70
     1
102
RTVSPropertyOp41
 70
     1
102
RTVSPropertyOp42
 70
     1
102
RTVSPropertyOp43
 70
     1
102
RTVSPropertyOp44
 70
     1
102
RTVSPropertyOp45
 70
     1
102
RTVSPropertyOp46
 70
     1
102
RTVSPropertyOp47
 70
     1
102
RTVSPropertyOp48
 70
     1
102
RTVSPropertyOp49
 70
     1
102
RTVSPropertyOp50
 70
     1
102
RTVSPropertyOp51
 70
     0
102
RTVSPropertyOp52
 70
     0
102
RTVSPropertyOp53
 70
     1
102
RTVSPropertyOp54
 70
     1
102
RTVSPropertyOp55
 70
     1
102
RTVSPropertyOp56
 70
     1
102
RTVSPropertyOp57
 70
     1
102
RTVSPost2010Prop28
280
     0
102
RTVSPost2010PropOp28
 70
     1
102
RTVSPost2010Prop29
280
     1
102
RTVSPost2010PropOp29
 70
     1
102
RTVSPost2010Prop30
280
     1
102
RTVSPost2010PropOp30
 70
     1
102
RTVSPost2010Prop31
280
     0
102
RTVSPost2010PropOp31
 70
     1
102
RTVSPost2010Prop32
280
     0
102
RTVSPost2010PropOp32
 70
     1
102
RTVSPost2010Prop33
280
     0
102
RTVSPost2010PropOp33
 70
     1
102
RTVSPost2010Prop34
280
     0
102
RTVSPost2010PropOp34
 70
     1
102
RTVSPost2010Prop35
280
     0
102
RTVSPost2010PropOp35
 70
     1
102
RTVSPost2010Prop36
280
     0
102
RTVSPost2010PropOp36
 70
     1
102
RTVSPost2010Prop37
 90
       50
102
RTVSPost2010PropOp37
 70
     1
102
RTVSPost2010Prop38
140
0.0
102
RTVSPost2010PropOp38
 70
     1
102
RTVSPost2010Prop39
140
1.0
102
RTVSPost2010PropOp39
 70
     1
102
RTVSPost2010Prop40
 90
        0
102
RTVSPost2010PropOp40
 70
     1
102
RTVSPost2010Prop41ColorIndex
 90
       18
102
RTVSPost2010Prop41ColorRGB
 90
        0
102
RTVSPost2010PropOp41
 70
     1
102
RTVSPost2010Prop42
 90
       50
102
RTVSPost2010PropOp42
 70
     1
102
RTVSPost2010Prop43
 90
        3
102
RTVSPost2010PropOp43
 70
     1
102
RTVSPost2010Prop44ColorIndex
 90
        5
102
RTVSPost2010Prop44ColorRGB
 90
      255
102
RTVSPost2010PropOp44
 70
     1
102
RTVSPost2010Prop45
280
     0
102
RTVSPost2010PropOp45
 70
     1
102
RTVSPost2010Prop46
 90
       50
102
RTVSPost2010PropOp46
 70
     1
102
RTVSPost2010Prop47
 90
       50
102
RTVSPost2010PropOp47
 70
     1
102
RTVSPost2010Prop48
 90
       50
102
RTVSPost2010PropOp48
 70
     1
102
RTVSPost2010Prop49
280
     0
102
RTVSPost2010PropOp49
 70
     1
102
RTVSPost2010Prop50
 90
       50
102
RTVSPost2010PropOp50
 70
     1
102
RTVSPost2010Prop51ColorIndex
 90
      256
102
RTVSPost2010Prop51ColorRGB
 90
-16777216
102
RTVSPost2010PropOp51
 70
     0
102
RTVSPost2010Prop52
140
1.0
102
RTVSPost2010PropOp52
 70
     0
102
RTVSPost2010Prop53
 90
        2
102
RTVSPost2010PropOp53
 70
     1
102
RTVSPost2010Prop54
  1
strokes_ogs.tif
102
RTVSPost2010PropOp54
 70
     1
102
RTVSPost2010Prop55
280
     0
102
RTVSPost2010PropOp55
 70
     1
102
RTVSPost2010Prop56
140
1.0
102
RTVSPost2010PropOp56
 70
     1
102
RTVSPost2010Prop57
140
1.0
102
RTVSPost2010PropOp57
 70
     1
  0
XRECORD
  5
32A
102
{ACAD_REACTORS
330
329
102
}
330
329
100
AcDbXrecord
280
     1
102
RTVSPropertyOp0
 70
     1
102
RTVSPropertyOp1
 70
     1
102
RTVSPropertyOp2
 70
     1
102
RTVSPropertyOp3
 70
     1
102
RTVSPropertyOp4
 70
     1
102
RTVSPropertyOp5
 70
     1
102
RTVSPropertyOp6
 70
     1
102
RTVSPropertyOp7
 70
     1
102
RTVSPropertyOp8
 70
     1
102
RTVSPropertyOp9
 70
     1
102
RTVSPropertyOp10
 70
     1
102
RTVSPropertyOp11
 70
     1
102
RTVSPropertyOp12
 70
     1
102
RTVSPropertyOp13
 70
     1
102
RTVSPropertyOp14
 70
     1
102
RTVSPropertyOp15
 70
     1
102
RTVSPropertyOp16
 70
     1
102
RTVSPropertyOp17
 70
     1
102
RTVSPropertyOp18
 70
     1
102
RTVSPropertyOp19
 70
     1
102
RTVSPropertyOp20
 70
     1
102
RTVSPropertyOp21
 70
     1
102
RTVSPropertyOp22
 70
     1
102
RTVSPropertyOp23
 70
     1
102
RTVSPropertyOp24
 70
     1
102
RTVSPropertyOp25
 70
     1
102
RTVSPropertyOp26
 70
     1
102
RTVSPropertyOp27
 70
     1
102
RTVSPropertyOp28
 70
     1
102
RTVSPropertyOp29
 70
     1
102
RTVSPropertyOp30
 70
     1
102
RTVSPropertyOp31
 70
     1
102
RTVSPropertyOp32
 70
     1
102
RTVSPropertyOp33
 70
     1
102
RTVSPropertyOp34
 70
     1
102
RTVSPropertyOp35
 70
     1
102
RTVSPropertyOp36
 70
     1
102
RTVSPropertyOp37
 70
     1
102
RTVSPropertyOp38
 70
     1
102
RTVSPropertyOp39
 70
     1
102
RTVSPropertyOp40
 70
     1
102
RTVSPropertyOp41
 70
     1
102
RTVSPropertyOp42
 70
     1
102
RTVSPropertyOp43
 70
     1
102
RTVSPropertyOp44
 70
     1
102
RTVSPropertyOp45
 70
     1
102
RTVSPropertyOp46
 70
     1
102
RTVSPropertyOp47
 70
     1
102
RTVSPropertyOp48
 70
     1
102
RTVSPropertyOp49
 70
     1
102
RTVSPropertyOp50
 70
     1
102
RTVSPropertyOp51
 70
     0
102
RTVSPropertyOp52
 70
     0
102
RTVSPropertyOp53
 70
     1
102
RTVSPropertyOp54
 70
     1
102
RTVSPropertyOp55
 70
     1
102
RTVSPropertyOp56
 70
     1
102
RTVSPropertyOp57
 70
     1
102
RTVSPost2010Prop28
280
     0
102
RTVSPost2010PropOp28
 70
     1
102
RTVSPost2010Prop29
280
     1
102
RTVSPost2010PropOp29
 70
     1
102
RTVSPost2010Prop30
280
     1
102
RTVSPost2010PropOp30
 70
     1
102
RTVSPost2010Prop31
280
     0
102
RTVSPost2010PropOp31
 70
     1
102
RTVSPost2010Prop32
280
     0
102
RTVSPost2010PropOp32
 70
     1
102
RTVSPost2010Prop33
280
     0
102
RTVSPost2010PropOp33
 70
     1
102
RTVSPost2010Prop34
280
     0
102
RTVSPost2010PropOp34
 70
     1
102
RTVSPost2010Prop35
280
     0
102
RTVSPost2010PropOp35
 70
     1
102
RTVSPost2010Prop36
280
     0
102
RTVSPost2010PropOp36
 70
     1
102
RTVSPost2010Prop37
 90
       50
102
RTVSPost2010PropOp37
 70
     1
102
RTVSPost2010Prop38
140
0.0
102
RTVSPost2010PropOp38
 70
     1
102
RTVSPost2010Prop39
140
1.0
102
RTVSPost2010PropOp39
 70
     1
102
RTVSPost2010Prop40
 90
        0
102
RTVSPost2010PropOp40
 70
     1
102
RTVSPost2010Prop41ColorIndex
 90
       18
102
RTVSPost2010Prop41ColorRGB
 90
        0
102
RTVSPost2010PropOp41
 70
     1
102
RTVSPost2010Prop42
 90
       50
102
RTVSPost2010PropOp42
 70
     1
102
RTVSPost2010Prop43
 90
        3
102
RTVSPost2010PropOp43
 70
     1
102
RTVSPost2010Prop44ColorIndex
 90
        5
102
RTVSPost2010Prop44ColorRGB
 90
      255
102
RTVSPost2010PropOp44
 70
     1
102
RTVSPost2010Prop45
280
     0
102
RTVSPost2010PropOp45
 70
     1
102
RTVSPost2010Prop46
 90
       50
102
RTVSPost2010PropOp46
 70
     1
102
RTVSPost2010Prop47
 90
       50
102
RTVSPost2010PropOp47
 70
     1
102
RTVSPost2010Prop48
 90
       50
102
RTVSPost2010PropOp48
 70
     1
102
RTVSPost2010Prop49
280
     0
102
RTVSPost2010PropOp49
 70
     1
102
RTVSPost2010Prop50
 90
       50
102
RTVSPost2010PropOp50
 70
     1
102
RTVSPost2010Prop51ColorIndex
 90
      256
102
RTVSPost2010Prop51ColorRGB
 90
-16777216
102
RTVSPost2010PropOp51
 70
     0
102
RTVSPost2010Prop52
140
1.0
102
RTVSPost2010PropOp52
 70
     0
102
RTVSPost2010Prop53
 90
        2
102
RTVSPost2010PropOp53
 70
     1
102
RTVSPost2010Prop54
  1
strokes_ogs.tif
102
RTVSPost2010PropOp54
 70
     1
102
RTVSPost2010Prop55
280
     0
102
RTVSPost2010PropOp55
 70
     1
102
RTVSPost2010Prop56
140
1.0
102
RTVSPost2010PropOp56
 70
     1
102
RTVSPost2010Prop57
140
1.0
102
RTVSPost2010PropOp57
 70
     1
  0
XRECORD
  5
332
102
{ACAD_REACTORS
330
331
102
}
330
331
100
AcDbXrecord
280
     1
102
RTVSPropertyOp0
 70
     1
102
RTVSPropertyOp1
 70
     1
102
RTVSPropertyOp2
 70
     1
102
RTVSPropertyOp3
 70
     1
102
RTVSPropertyOp4
 70
     1
102
RTVSPropertyOp5
 70
     1
102
RTVSPropertyOp6
 70
     1
102
RTVSPropertyOp7
 70
     1
102
RTVSPropertyOp8
 70
     1
102
RTVSPropertyOp9
 70
     1
102
RTVSPropertyOp10
 70
     1
102
RTVSPropertyOp11
 70
     1
102
RTVSPropertyOp12
 70
     1
102
RTVSPropertyOp13
 70
     1
102
RTVSPropertyOp14
 70
     1
102
RTVSPropertyOp15
 70
     1
102
RTVSPropertyOp16
 70
     1
102
RTVSPropertyOp17
 70
     1
102
RTVSPropertyOp18
 70
     1
102
RTVSPropertyOp19
 70
     1
102
RTVSPropertyOp20
 70
     1
102
RTVSPropertyOp21
 70
     1
102
RTVSPropertyOp22
 70
     1
102
RTVSPropertyOp23
 70
     1
102
RTVSPropertyOp24
 70
     1
102
RTVSPropertyOp25
 70
     1
102
RTVSPropertyOp26
 70
     1
102
RTVSPropertyOp27
 70
     1
102
RTVSPropertyOp28
 70
     1
102
RTVSPropertyOp29
 70
     1
102
RTVSPropertyOp30
 70
     1
102
RTVSPropertyOp31
 70
     1
102
RTVSPropertyOp32
 70
     1
102
RTVSPropertyOp33
 70
     1
102
RTVSPropertyOp34
 70
     1
102
RTVSPropertyOp35
 70
     1
102
RTVSPropertyOp36
 70
     1
102
RTVSPropertyOp37
 70
     1
102
RTVSPropertyOp38
 70
     1
102
RTVSPropertyOp39
 70
     1
102
RTVSPropertyOp40
 70
     1
102
RTVSPropertyOp41
 70
     1
102
RTVSPropertyOp42
 70
     1
102
RTVSPropertyOp43
 70
     1
102
RTVSPropertyOp44
 70
     1
102
RTVSPropertyOp45
 70
     1
102
RTVSPropertyOp46
 70
     1
102
RTVSPropertyOp47
 70
     1
102
RTVSPropertyOp48
 70
     1
102
RTVSPropertyOp49
 70
     1
102
RTVSPropertyOp50
 70
     1
102
RTVSPropertyOp51
 70
     0
102
RTVSPropertyOp52
 70
     0
102
RTVSPropertyOp53
 70
     1
102
RTVSPropertyOp54
 70
     1
102
RTVSPropertyOp55
 70
     1
102
RTVSPropertyOp56
 70
     1
102
RTVSPropertyOp57
 70
     1
102
RTVSPost2010Prop28
280
     0
102
RTVSPost2010PropOp28
 70
     1
102
RTVSPost2010Prop29
280
     1
102
RTVSPost2010PropOp29
 70
     1
102
RTVSPost2010Prop30
280
     1
102
RTVSPost2010PropOp30
 70
     1
102
RTVSPost2010Prop31
280
     0
102
RTVSPost2010PropOp31
 70
     1
102
RTVSPost2010Prop32
280
     0
102
RTVSPost2010PropOp32
 70
     1
102
RTVSPost2010Prop33
280
     0
102
RTVSPost2010PropOp33
 70
     1
102
RTVSPost2010Prop34
280
     0
102
RTVSPost2010PropOp34
 70
     1
102
RTVSPost2010Prop35
280
     0
102
RTVSPost2010PropOp35
 70
     1
102
RTVSPost2010Prop36
280
     0
102
RTVSPost2010PropOp36
 70
     1
102
RTVSPost2010Prop37
 90
       50
102
RTVSPost2010PropOp37
 70
     1
102
RTVSPost2010Prop38
140
0.0
102
RTVSPost2010PropOp38
 70
     1
102
RTVSPost2010Prop39
140
1.0
102
RTVSPost2010PropOp39
 70
     1
102
RTVSPost2010Prop40
 90
        0
102
RTVSPost2010PropOp40
 70
     1
102
RTVSPost2010Prop41ColorIndex
 90
       18
102
RTVSPost2010Prop41ColorRGB
 90
        0
102
RTVSPost2010PropOp41
 70
     1
102
RTVSPost2010Prop42
 90
       50
102
RTVSPost2010PropOp42
 70
     1
102
RTVSPost2010Prop43
 90
        3
102
RTVSPost2010PropOp43
 70
     1
102
RTVSPost2010Prop44ColorIndex
 90
        5
102
RTVSPost2010Prop44ColorRGB
 90
      255
102
RTVSPost2010PropOp44
 70
     1
102
RTVSPost2010Prop45
280
     0
102
RTVSPost2010PropOp45
 70
     1
102
RTVSPost2010Prop46
 90
       50
102
RTVSPost2010PropOp46
 70
     1
102
RTVSPost2010Prop47
 90
       50
102
RTVSPost2010PropOp47
 70
     1
102
RTVSPost2010Prop48
 90
       50
102
RTVSPost2010PropOp48
 70
     1
102
RTVSPost2010Prop49
280
     0
102
RTVSPost2010PropOp49
 70
     1
102
RTVSPost2010Prop50
 90
       50
102
RTVSPost2010PropOp50
 70
     1
102
RTVSPost2010Prop51ColorIndex
 90
      256
102
RTVSPost2010Prop51ColorRGB
 90
-16777216
102
RTVSPost2010PropOp51
 70
     0
102
RTVSPost2010Prop52
140
1.0
102
RTVSPost2010PropOp52
 70
     0
102
RTVSPost2010Prop53
 90
        2
102
RTVSPost2010PropOp53
 70
     1
102
RTVSPost2010Prop54
  1
strokes_ogs.tif
102
RTVSPost2010PropOp54
 70
     1
102
RTVSPost2010Prop55
280
     0
102
RTVSPost2010PropOp55
 70
     1
102
RTVSPost2010Prop56
140
1.0
102
RTVSPost2010PropOp56
 70
     1
102
RTVSPost2010Prop57
140
1.0
102
RTVSPost2010PropOp57
 70
     1
  0
XRECORD
  5
326
102
{ACAD_REACTORS
330
325
102
}
330
325
100
AcDbXrecord
280
     1
102
RTVSPropertyOp0
 70
     1
102
RTVSPropertyOp1
 70
     1
102
RTVSPropertyOp2
 70
     1
102
RTVSPropertyOp3
 70
     1
102
RTVSPropertyOp4
 70
     1
102
RTVSPropertyOp5
 70
     1
102
RTVSPropertyOp6
 70
     1
102
RTVSPropertyOp7
 70
     1
102
RTVSPropertyOp8
 70
     1
102
RTVSPropertyOp9
 70
     1
102
RTVSPropertyOp10
 70
     1
102
RTVSPropertyOp11
 70
     1
102
RTVSPropertyOp12
 70
     1
102
RTVSPropertyOp13
 70
     1
102
RTVSPropertyOp14
 70
     1
102
RTVSPropertyOp15
 70
     1
102
RTVSPropertyOp16
 70
     1
102
RTVSPropertyOp17
 70
     1
102
RTVSPropertyOp18
 70
     1
102
RTVSPropertyOp19
 70
     1
102
RTVSPropertyOp20
 70
     1
102
RTVSPropertyOp21
 70
     1
102
RTVSPropertyOp22
 70
     1
102
RTVSPropertyOp23
 70
     1
102
RTVSPropertyOp24
 70
     1
102
RTVSPropertyOp25
 70
     1
102
RTVSPropertyOp26
 70
     1
102
RTVSPropertyOp27
 70
     1
102
RTVSPropertyOp28
 70
     1
102
RTVSPropertyOp29
 70
     1
102
RTVSPropertyOp30
 70
     1
102
RTVSPropertyOp31
 70
     1
102
RTVSPropertyOp32
 70
     1
102
RTVSPropertyOp33
 70
     1
102
RTVSPropertyOp34
 70
     1
102
RTVSPropertyOp35
 70
     1
102
RTVSPropertyOp36
 70
     1
102
RTVSPropertyOp37
 70
     1
102
RTVSPropertyOp38
 70
     1
102
RTVSPropertyOp39
 70
     1
102
RTVSPropertyOp40
 70
     1
102
RTVSPropertyOp41
 70
     1
102
RTVSPropertyOp42
 70
     1
102
RTVSPropertyOp43
 70
     1
102
RTVSPropertyOp44
 70
     1
102
RTVSPropertyOp45
 70
     1
102
RTVSPropertyOp46
 70
     1
102
RTVSPropertyOp47
 70
     1
102
RTVSPropertyOp48
 70
     1
102
RTVSPropertyOp49
 70
     1
102
RTVSPropertyOp50
 70
     1
102
RTVSPropertyOp51
 70
     0
102
RTVSPropertyOp52
 70
     0
102
RTVSPropertyOp53
 70
     1
102
RTVSPropertyOp54
 70
     1
102
RTVSPropertyOp55
 70
     1
102
RTVSPropertyOp56
 70
     1
102
RTVSPropertyOp57
 70
     1
102
RTVSPost2010Prop28
280
     0
102
RTVSPost2010PropOp28
 70
     1
102
RTVSPost2010Prop29
280
     1
102
RTVSPost2010PropOp29
 70
     1
102
RTVSPost2010Prop30
280
     1
102
RTVSPost2010PropOp30
 70
     1
102
RTVSPost2010Prop31
280
     0
102
RTVSPost2010PropOp31
 70
     1
102
RTVSPost2010Prop32
280
     0
102
RTVSPost2010PropOp32
 70
     1
102
RTVSPost2010Prop33
280
     0
102
RTVSPost2010PropOp33
 70
     1
102
RTVSPost2010Prop34
280
     0
102
RTVSPost2010PropOp34
 70
     1
102
RTVSPost2010Prop35
280
     0
102
RTVSPost2010PropOp35
 70
     1
102
RTVSPost2010Prop36
280
     0
102
RTVSPost2010PropOp36
 70
     1
102
RTVSPost2010Prop37
 90
       50
102
RTVSPost2010PropOp37
 70
     1
102
RTVSPost2010Prop38
140
0.0
102
RTVSPost2010PropOp38
 70
     1
102
RTVSPost2010Prop39
140
1.0
102
RTVSPost2010PropOp39
 70
     1
102
RTVSPost2010Prop40
 90
        0
102
RTVSPost2010PropOp40
 70
     1
102
RTVSPost2010Prop41ColorIndex
 90
       18
102
RTVSPost2010Prop41ColorRGB
 90
        0
102
RTVSPost2010PropOp41
 70
     1
102
RTVSPost2010Prop42
 90
       50
102
RTVSPost2010PropOp42
 70
     1
102
RTVSPost2010Prop43
 90
        3
102
RTVSPost2010PropOp43
 70
     1
102
RTVSPost2010Prop44ColorIndex
 90
        5
102
RTVSPost2010Prop44ColorRGB
 90
      255
102
RTVSPost2010PropOp44
 70
     1
102
RTVSPost2010Prop45
280
     0
102
RTVSPost2010PropOp45
 70
     1
102
RTVSPost2010Prop46
 90
       50
102
RTVSPost2010PropOp46
 70
     1
102
RTVSPost2010Prop47
 90
       50
102
RTVSPost2010PropOp47
 70
     1
102
RTVSPost2010Prop48
 90
       50
102
RTVSPost2010PropOp48
 70
     1
102
RTVSPost2010Prop49
280
     0
102
RTVSPost2010PropOp49
 70
     1
102
RTVSPost2010Prop50
 90
       50
102
RTVSPost2010PropOp50
 70
     1
102
RTVSPost2010Prop51ColorIndex
 90
      256
102
RTVSPost2010Prop51ColorRGB
 90
-16777216
102
RTVSPost2010PropOp51
 70
     0
102
RTVSPost2010Prop52
140
1.0
102
RTVSPost2010PropOp52
 70
     0
102
RTVSPost2010Prop53
 90
        2
102
RTVSPost2010PropOp53
 70
     1
102
RTVSPost2010Prop54
  1
strokes_ogs.tif
102
RTVSPost2010PropOp54
 70
     1
102
RTVSPost2010Prop55
280
     0
102
RTVSPost2010PropOp55
 70
     1
102
RTVSPost2010Prop56
140
1.0
102
RTVSPost2010PropOp56
 70
     1
102
RTVSPost2010Prop57
140
1.0
102
RTVSPost2010PropOp57
 70
     1
  0
XRECORD
  5
328
102
{ACAD_REACTORS
330
327
102
}
330
327
100
AcDbXrecord
280
     1
102
RTVSPropertyOp0
 70
     1
102
RTVSPropertyOp1
 70
     1
102
RTVSPropertyOp2
 70
     1
102
RTVSPropertyOp3
 70
     1
102
RTVSPropertyOp4
 70
     1
102
RTVSPropertyOp5
 70
     1
102
RTVSPropertyOp6
 70
     1
102
RTVSPropertyOp7
 70
     1
102
RTVSPropertyOp8
 70
     1
102
RTVSPropertyOp9
 70
     1
102
RTVSPropertyOp10
 70
     1
102
RTVSPropertyOp11
 70
     1
102
RTVSPropertyOp12
 70
     1
102
RTVSPropertyOp13
 70
     1
102
RTVSPropertyOp14
 70
     1
102
RTVSPropertyOp15
 70
     1
102
RTVSPropertyOp16
 70
     1
102
RTVSPropertyOp17
 70
     1
102
RTVSPropertyOp18
 70
     1
102
RTVSPropertyOp19
 70
     1
102
RTVSPropertyOp20
 70
     1
102
RTVSPropertyOp21
 70
     1
102
RTVSPropertyOp22
 70
     1
102
RTVSPropertyOp23
 70
     1
102
RTVSPropertyOp24
 70
     1
102
RTVSPropertyOp25
 70
     1
102
RTVSPropertyOp26
 70
     1
102
RTVSPropertyOp27
 70
     1
102
RTVSPropertyOp28
 70
     1
102
RTVSPropertyOp29
 70
     1
102
RTVSPropertyOp30
 70
     1
102
RTVSPropertyOp31
 70
     1
102
RTVSPropertyOp32
 70
     1
102
RTVSPropertyOp33
 70
     1
102
RTVSPropertyOp34
 70
     1
102
RTVSPropertyOp35
 70
     1
102
RTVSPropertyOp36
 70
     1
102
RTVSPropertyOp37
 70
     1
102
RTVSPropertyOp38
 70
     1
102
RTVSPropertyOp39
 70
     1
102
RTVSPropertyOp40
 70
     1
102
RTVSPropertyOp41
 70
     1
102
RTVSPropertyOp42
 70
     1
102
RTVSPropertyOp43
 70
     1
102
RTVSPropertyOp44
 70
     1
102
RTVSPropertyOp45
 70
     1
102
RTVSPropertyOp46
 70
     1
102
RTVSPropertyOp47
 70
     1
102
RTVSPropertyOp48
 70
     1
102
RTVSPropertyOp49
 70
     1
102
RTVSPropertyOp50
 70
     1
102
RTVSPropertyOp51
 70
     0
102
RTVSPropertyOp52
 70
     0
102
RTVSPropertyOp53
 70
     1
102
RTVSPropertyOp54
 70
     1
102
RTVSPropertyOp55
 70
     1
102
RTVSPropertyOp56
 70
     1
102
RTVSPropertyOp57
 70
     1
102
RTVSPost2010Prop28
280
     0
102
RTVSPost2010PropOp28
 70
     1
102
RTVSPost2010Prop29
280
     1
102
RTVSPost2010PropOp29
 70
     1
102
RTVSPost2010Prop30
280
     1
102
RTVSPost2010PropOp30
 70
     1
102
RTVSPost2010Prop31
280
     0
102
RTVSPost2010PropOp31
 70
     1
102
RTVSPost2010Prop32
280
     0
102
RTVSPost2010PropOp32
 70
     1
102
RTVSPost2010Prop33
280
     0
102
RTVSPost2010PropOp33
 70
     1
102
RTVSPost2010Prop34
280
     0
102
RTVSPost2010PropOp34
 70
     1
102
RTVSPost2010Prop35
280
     0
102
RTVSPost2010PropOp35
 70
     1
102
RTVSPost2010Prop36
280
     0
102
RTVSPost2010PropOp36
 70
     1
102
RTVSPost2010Prop37
 90
       50
102
RTVSPost2010PropOp37
 70
     1
102
RTVSPost2010Prop38
140
0.0
102
RTVSPost2010PropOp38
 70
     1
102
RTVSPost2010Prop39
140
1.0
102
RTVSPost2010PropOp39
 70
     1
102
RTVSPost2010Prop40
 90
        0
102
RTVSPost2010PropOp40
 70
     1
102
RTVSPost2010Prop41ColorIndex
 90
       18
102
RTVSPost2010Prop41ColorRGB
 90
        0
102
RTVSPost2010PropOp41
 70
     1
102
RTVSPost2010Prop42
 90
       50
102
RTVSPost2010PropOp42
 70
     1
102
RTVSPost2010Prop43
 90
        3
102
RTVSPost2010PropOp43
 70
     1
102
RTVSPost2010Prop44ColorIndex
 90
        5
102
RTVSPost2010Prop44ColorRGB
 90
      255
102
RTVSPost2010PropOp44
 70
     1
102
RTVSPost2010Prop45
280
     0
102
RTVSPost2010PropOp45
 70
     1
102
RTVSPost2010Prop46
 90
       50
102
RTVSPost2010PropOp46
 70
     1
102
RTVSPost2010Prop47
 90
       50
102
RTVSPost2010PropOp47
 70
     1
102
RTVSPost2010Prop48
 90
       50
102
RTVSPost2010PropOp48
 70
     1
102
RTVSPost2010Prop49
280
     0
102
RTVSPost2010PropOp49
 70
     1
102
RTVSPost2010Prop50
 90
       50
102
RTVSPost2010PropOp50
 70
     1
102
RTVSPost2010Prop51ColorIndex
 90
      256
102
RTVSPost2010Prop51ColorRGB
 90
-16777216
102
RTVSPost2010PropOp51
 70
     0
102
RTVSPost2010Prop52
140
1.0
102
RTVSPost2010PropOp52
 70
     0
102
RTVSPost2010Prop53
 90
        2
102
RTVSPost2010PropOp53
 70
     1
102
RTVSPost2010Prop54
  1
strokes_ogs.tif
102
RTVSPost2010PropOp54
 70
     1
102
RTVSPost2010Prop55
280
     0
102
RTVSPost2010PropOp55
 70
     1
102
RTVSPost2010Prop56
140
1.0
102
RTVSPost2010PropOp56
 70
     1
102
RTVSPost2010Prop57
140
1.0
102
RTVSPost2010PropOp57
 70
     1
  0
XRECORD
  5
338
102
{ACAD_REACTORS
330
337
102
}
330
337
100
AcDbXrecord
280
     1
102
RTVSPropertyOp0
 70
     0
102
RTVSPropertyOp1
 70
     0
102
RTVSPropertyOp2
 70
     0
102
RTVSPropertyOp3
 70
     0
102
RTVSPropertyOp4
 70
     0
102
RTVSPropertyOp5
 70
     0
102
RTVSPropertyOp6
 70
     0
102
RTVSPropertyOp7
 70
     0
102
RTVSPropertyOp8
 70
     0
102
RTVSPropertyOp9
 70
     0
102
RTVSPropertyOp10
 70
     0
102
RTVSPropertyOp11
 70
     0
102
RTVSPropertyOp12
 70
     0
102
RTVSPropertyOp13
 70
     0
102
RTVSPropertyOp14
 70
     2
102
RTVSPropertyOp15
 70
     0
102
RTVSPropertyOp16
 70
     0
102
RTVSPropertyOp17
 70
     0
102
RTVSPropertyOp18
 70
     0
102
RTVSPropertyOp19
 70
     0
102
RTVSPropertyOp20
 70
     0
102
RTVSPropertyOp21
 70
     0
102
RTVSPropertyOp22
 70
     0
102
RTVSPropertyOp23
 70
     0
102
RTVSPropertyOp24
 70
     0
102
RTVSPropertyOp25
 70
     0
102
RTVSPropertyOp26
 70
     0
102
RTVSPropertyOp27
 70
     0
102
RTVSPropertyOp28
 70
     0
102
RTVSPropertyOp29
 70
     0
102
RTVSPropertyOp30
 70
     0
102
RTVSPropertyOp31
 70
     0
102
RTVSPropertyOp32
 70
     0
102
RTVSPropertyOp33
 70
     0
102
RTVSPropertyOp34
 70
     0
102
RTVSPropertyOp35
 70
     0
102
RTVSPropertyOp36
 70
     0
102
RTVSPropertyOp37
 70
     0
102
RTVSPropertyOp38
 70
     0
102
RTVSPropertyOp39
 70
     0
102
RTVSPropertyOp40
 70
     0
102
RTVSPropertyOp41
 70
     0
102
RTVSPropertyOp42
 70
     0
102
RTVSPropertyOp43
 70
     0
102
RTVSPropertyOp44
 70
     0
102
RTVSPropertyOp45
 70
     0
102
RTVSPropertyOp46
 70
     0
102
RTVSPropertyOp47
 70
     0
102
RTVSPropertyOp48
 70
     0
102
RTVSPropertyOp49
 70
     0
102
RTVSPropertyOp50
 70
     0
102
RTVSPropertyOp51
 70
     0
102
RTVSPropertyOp52
 70
     0
102
RTVSPropertyOp53
 70
     0
102
RTVSPropertyOp54
 70
     0
102
RTVSPropertyOp55
 70
     0
102
RTVSPropertyOp56
 70
     0
102
RTVSPropertyOp57
 70
     0
102
RTVSPost2010Prop28
280
     0
102
RTVSPost2010PropOp28
 70
     0
102
RTVSPost2010Prop29
280
     1
102
RTVSPost2010PropOp29
 70
     0
102
RTVSPost2010Prop30
280
     1
102
RTVSPost2010PropOp30
 70
     0
102
RTVSPost2010Prop31
280
     0
102
RTVSPost2010PropOp31
 70
     0
102
RTVSPost2010Prop32
280
     0
102
RTVSPost2010PropOp32
 70
     0
102
RTVSPost2010Prop33
280
     0
102
RTVSPost2010PropOp33
 70
     0
102
RTVSPost2010Prop34
280
     0
102
RTVSPost2010PropOp34
 70
     0
102
RTVSPost2010Prop35
280
     0
102
RTVSPost2010PropOp35
 70
     0
102
RTVSPost2010Prop36
280
     0
102
RTVSPost2010PropOp36
 70
     0
102
RTVSPost2010Prop37
 90
       50
102
RTVSPost2010PropOp37
 70
     0
102
RTVSPost2010Prop38
140
0.0
102
RTVSPost2010PropOp38
 70
     0
102
RTVSPost2010Prop39
140
1.0
102
RTVSPost2010PropOp39
 70
     0
102
RTVSPost2010Prop40
 90
        0
102
RTVSPost2010PropOp40
 70
     0
102
RTVSPost2010Prop41ColorIndex
 90
       18
102
RTVSPost2010Prop41ColorRGB
 90
        0
102
RTVSPost2010PropOp41
 70
     0
102
RTVSPost2010Prop42
 90
       50
102
RTVSPost2010PropOp42
 70
     0
102
RTVSPost2010Prop43
 90
        3
102
RTVSPost2010PropOp43
 70
     0
102
RTVSPost2010Prop44ColorIndex
 90
        5
102
RTVSPost2010Prop44ColorRGB
 90
      255
102
RTVSPost2010PropOp44
 70
     0
102
RTVSPost2010Prop45
280
     0
102
RTVSPost2010PropOp45
 70
     0
102
RTVSPost2010Prop46
 90
       50
102
RTVSPost2010PropOp46
 70
     0
102
RTVSPost2010Prop47
 90
       50
102
RTVSPost2010PropOp47
 70
     0
102
RTVSPost2010Prop48
 90
       50
102
RTVSPost2010PropOp48
 70
     0
102
RTVSPost2010Prop49
280
     0
102
RTVSPost2010PropOp49
 70
     0
102
RTVSPost2010Prop50
 90
       50
102
RTVSPost2010PropOp50
 70
     0
102
RTVSPost2010Prop51ColorIndex
 90
      256
102
RTVSPost2010Prop51ColorRGB
 90
-16777216
102
RTVSPost2010PropOp51
 70
     0
102
RTVSPost2010Prop52
140
1.0
102
RTVSPost2010PropOp52
 70
     0
102
RTVSPost2010Prop53
 90
        2
102
RTVSPost2010PropOp53
 70
     0
102
RTVSPost2010Prop54
  1
strokes_ogs.tif
102
RTVSPost2010PropOp54
 70
     0
102
RTVSPost2010Prop55
280
     0
102
RTVSPost2010PropOp55
 70
     0
102
RTVSPost2010Prop56
140
1.0
102
RTVSPost2010PropOp56
 70
     0
102
RTVSPost2010Prop57
140
1.0
102
RTVSPost2010PropOp57
 70
     0
  0
XRECORD
  5
330
102
{ACAD_REACTORS
330
32F
102
}
330
32F
100
AcDbXrecord
280
     1
102
RTVSPropertyOp0
 70
     1
102
RTVSPropertyOp1
 70
     1
102
RTVSPropertyOp2
 70
     1
102
RTVSPropertyOp3
 70
     1
102
RTVSPropertyOp4
 70
     1
102
RTVSPropertyOp5
 70
     1
102
RTVSPropertyOp6
 70
     1
102
RTVSPropertyOp7
 70
     1
102
RTVSPropertyOp8
 70
     1
102
RTVSPropertyOp9
 70
     1
102
RTVSPropertyOp10
 70
     1
102
RTVSPropertyOp11
 70
     1
102
RTVSPropertyOp12
 70
     1
102
RTVSPropertyOp13
 70
     1
102
RTVSPropertyOp14
 70
     1
102
RTVSPropertyOp15
 70
     1
102
RTVSPropertyOp16
 70
     1
102
RTVSPropertyOp17
 70
     1
102
RTVSPropertyOp18
 70
     1
102
RTVSPropertyOp19
 70
     1
102
RTVSPropertyOp20
 70
     1
102
RTVSPropertyOp21
 70
     1
102
RTVSPropertyOp22
 70
     1
102
RTVSPropertyOp23
 70
     1
102
RTVSPropertyOp24
 70
     1
102
RTVSPropertyOp25
 70
     1
102
RTVSPropertyOp26
 70
     1
102
RTVSPropertyOp27
 70
     1
102
RTVSPropertyOp28
 70
     1
102
RTVSPropertyOp29
 70
     1
102
RTVSPropertyOp30
 70
     1
102
RTVSPropertyOp31
 70
     1
102
RTVSPropertyOp32
 70
     1
102
RTVSPropertyOp33
 70
     1
102
RTVSPropertyOp34
 70
     1
102
RTVSPropertyOp35
 70
     1
102
RTVSPropertyOp36
 70
     1
102
RTVSPropertyOp37
 70
     1
102
RTVSPropertyOp38
 70
     1
102
RTVSPropertyOp39
 70
     1
102
RTVSPropertyOp40
 70
     1
102
RTVSPropertyOp41
 70
     1
102
RTVSPropertyOp42
 70
     1
102
RTVSPropertyOp43
 70
     1
102
RTVSPropertyOp44
 70
     1
102
RTVSPropertyOp45
 70
     1
102
RTVSPropertyOp46
 70
     1
102
RTVSPropertyOp47
 70
     1
102
RTVSPropertyOp48
 70
     1
102
RTVSPropertyOp49
 70
     1
102
RTVSPropertyOp50
 70
     1
102
RTVSPropertyOp51
 70
     0
102
RTVSPropertyOp52
 70
     0
102
RTVSPropertyOp53
 70
     1
102
RTVSPropertyOp54
 70
     1
102
RTVSPropertyOp55
 70
     1
102
RTVSPropertyOp56
 70
     1
102
RTVSPropertyOp57
 70
     1
102
RTVSPost2010Prop28
280
     0
102
RTVSPost2010PropOp28
 70
     1
102
RTVSPost2010Prop29
280
     1
102
RTVSPost2010PropOp29
 70
     1
102
RTVSPost2010Prop30
280
     1
102
RTVSPost2010PropOp30
 70
     1
102
RTVSPost2010Prop31
280
     0
102
RTVSPost2010PropOp31
 70
     1
102
RTVSPost2010Prop32
280
     0
102
RTVSPost2010PropOp32
 70
     1
102
RTVSPost2010Prop33
280
     0
102
RTVSPost2010PropOp33
 70
     1
102
RTVSPost2010Prop34
280
     0
102
RTVSPost2010PropOp34
 70
     1
102
RTVSPost2010Prop35
280
     0
102
RTVSPost2010PropOp35
 70
     1
102
RTVSPost2010Prop36
280
     0
102
RTVSPost2010PropOp36
 70
     1
102
RTVSPost2010Prop37
 90
       50
102
RTVSPost2010PropOp37
 70
     1
102
RTVSPost2010Prop38
140
0.0
102
RTVSPost2010PropOp38
 70
     1
102
RTVSPost2010Prop39
140
1.0
102
RTVSPost2010PropOp39
 70
     1
102
RTVSPost2010Prop40
 90
        0
102
RTVSPost2010PropOp40
 70
     1
102
RTVSPost2010Prop41ColorIndex
 90
       18
102
RTVSPost2010Prop41ColorRGB
 90
        0
102
RTVSPost2010PropOp41
 70
     1
102
RTVSPost2010Prop42
 90
       50
102
RTVSPost2010PropOp42
 70
     1
102
RTVSPost2010Prop43
 90
        3
102
RTVSPost2010PropOp43
 70
     1
102
RTVSPost2010Prop44ColorIndex
 90
        5
102
RTVSPost2010Prop44ColorRGB
 90
      255
102
RTVSPost2010PropOp44
 70
     1
102
RTVSPost2010Prop45
280
     0
102
RTVSPost2010PropOp45
 70
     1
102
RTVSPost2010Prop46
 90
       50
102
RTVSPost2010PropOp46
 70
     1
102
RTVSPost2010Prop47
 90
       50
102
RTVSPost2010PropOp47
 70
     1
102
RTVSPost2010Prop48
 90
       50
102
RTVSPost2010PropOp48
 70
     1
102
RTVSPost2010Prop49
280
     0
102
RTVSPost2010PropOp49
 70
     1
102
RTVSPost2010Prop50
 90
       50
102
RTVSPost2010PropOp50
 70
     1
102
RTVSPost2010Prop51ColorIndex
 90
      256
102
RTVSPost2010Prop51ColorRGB
 90
-16777216
102
RTVSPost2010PropOp51
 70
     0
102
RTVSPost2010Prop52
140
1.0
102
RTVSPost2010PropOp52
 70
     0
102
RTVSPost2010Prop53
 90
        2
102
RTVSPost2010PropOp53
 70
     1
102
RTVSPost2010Prop54
  1
strokes_ogs.tif
102
RTVSPost2010PropOp54
 70
     1
102
RTVSPost2010Prop55
280
     0
102
RTVSPost2010PropOp55
 70
     1
102
RTVSPost2010Prop56
140
1.0
102
RTVSPost2010PropOp56
 70
     1
102
RTVSPost2010Prop57
140
1.0
102
RTVSPost2010PropOp57
 70
     1
  0
XRECORD
  5
314
102
{ACAD_REACTORS
330
313
102
}
330
313
100
AcDbXrecord
280
     1
102
RTVSPropertyOp0
 70
     1
102
RTVSPropertyOp1
 70
     1
102
RTVSPropertyOp2
 70
     1
102
RTVSPropertyOp3
 70
     1
102
RTVSPropertyOp4
 70
     1
102
RTVSPropertyOp5
 70
     1
102
RTVSPropertyOp6
 70
     1
102
RTVSPropertyOp7
 70
     1
102
RTVSPropertyOp8
 70
     1
102
RTVSPropertyOp9
 70
     1
102
RTVSPropertyOp10
 70
     1
102
RTVSPropertyOp11
 70
     1
102
RTVSPropertyOp12
 70
     1
102
RTVSPropertyOp13
 70
     1
102
RTVSPropertyOp14
 70
     1
102
RTVSPropertyOp15
 70
     1
102
RTVSPropertyOp16
 70
     1
102
RTVSPropertyOp17
 70
     1
102
RTVSPropertyOp18
 70
     1
102
RTVSPropertyOp19
 70
     1
102
RTVSPropertyOp20
 70
     1
102
RTVSPropertyOp21
 70
     1
102
RTVSPropertyOp22
 70
     1
102
RTVSPropertyOp23
 70
     1
102
RTVSPropertyOp24
 70
     1
102
RTVSPropertyOp25
 70
     1
102
RTVSPropertyOp26
 70
     1
102
RTVSPropertyOp27
 70
     1
102
RTVSPropertyOp28
 70
     1
102
RTVSPropertyOp29
 70
     1
102
RTVSPropertyOp30
 70
     1
102
RTVSPropertyOp31
 70
     1
102
RTVSPropertyOp32
 70
     1
102
RTVSPropertyOp33
 70
     1
102
RTVSPropertyOp34
 70
     1
102
RTVSPropertyOp35
 70
     1
102
RTVSPropertyOp36
 70
     1
102
RTVSPropertyOp37
 70
     1
102
RTVSPropertyOp38
 70
     1
102
RTVSPropertyOp39
 70
     1
102
RTVSPropertyOp40
 70
     1
102
RTVSPropertyOp41
 70
     1
102
RTVSPropertyOp42
 70
     1
102
RTVSPropertyOp43
 70
     1
102
RTVSPropertyOp44
 70
     1
102
RTVSPropertyOp45
 70
     1
102
RTVSPropertyOp46
 70
     1
102
RTVSPropertyOp47
 70
     1
102
RTVSPropertyOp48
 70
     1
102
RTVSPropertyOp49
 70
     1
102
RTVSPropertyOp50
 70
     1
102
RTVSPropertyOp51
 70
     0
102
RTVSPropertyOp52
 70
     0
102
RTVSPropertyOp53
 70
     1
102
RTVSPropertyOp54
 70
     1
102
RTVSPropertyOp55
 70
     1
102
RTVSPropertyOp56
 70
     1
102
RTVSPropertyOp57
 70
     1
102
RTVSPost2010Prop28
280
     0
102
RTVSPost2010PropOp28
 70
     1
102
RTVSPost2010Prop29
280
     1
102
RTVSPost2010PropOp29
 70
     1
102
RTVSPost2010Prop30
280
     1
102
RTVSPost2010PropOp30
 70
     1
102
RTVSPost2010Prop31
280
     0
102
RTVSPost2010PropOp31
 70
     1
102
RTVSPost2010Prop32
280
     0
102
RTVSPost2010PropOp32
 70
     1
102
RTVSPost2010Prop33
280
     0
102
RTVSPost2010PropOp33
 70
     1
102
RTVSPost2010Prop34
280
     0
102
RTVSPost2010PropOp34
 70
     1
102
RTVSPost2010Prop35
280
     0
102
RTVSPost2010PropOp35
 70
     1
102
RTVSPost2010Prop36
280
     0
102
RTVSPost2010PropOp36
 70
     1
102
RTVSPost2010Prop37
 90
       50
102
RTVSPost2010PropOp37
 70
     1
102
RTVSPost2010Prop38
140
0.0
102
RTVSPost2010PropOp38
 70
     1
102
RTVSPost2010Prop39
140
1.0
102
RTVSPost2010PropOp39
 70
     1
102
RTVSPost2010Prop40
 90
        0
102
RTVSPost2010PropOp40
 70
     1
102
RTVSPost2010Prop41ColorIndex
 90
       18
102
RTVSPost2010Prop41ColorRGB
 90
        0
102
RTVSPost2010PropOp41
 70
     1
102
RTVSPost2010Prop42
 90
       50
102
RTVSPost2010PropOp42
 70
     1
102
RTVSPost2010Prop43
 90
        3
102
RTVSPost2010PropOp43
 70
     1
102
RTVSPost2010Prop44ColorIndex
 90
        5
102
RTVSPost2010Prop44ColorRGB
 90
      255
102
RTVSPost2010PropOp44
 70
     1
102
RTVSPost2010Prop45
280
     0
102
RTVSPost2010PropOp45
 70
     1
102
RTVSPost2010Prop46
 90
       50
102
RTVSPost2010PropOp46
 70
     1
102
RTVSPost2010Prop47
 90
       50
102
RTVSPost2010PropOp47
 70
     1
102
RTVSPost2010Prop48
 90
       50
102
RTVSPost2010PropOp48
 70
     1
102
RTVSPost2010Prop49
280
     0
102
RTVSPost2010PropOp49
 70
     1
102
RTVSPost2010Prop50
 90
       50
102
RTVSPost2010PropOp50
 70
     1
102
RTVSPost2010Prop51ColorIndex
 90
      256
102
RTVSPost2010Prop51ColorRGB
 90
-16777216
102
RTVSPost2010PropOp51
 70
     0
102
RTVSPost2010Prop52
140
1.0
102
RTVSPost2010PropOp52
 70
     0
102
RTVSPost2010Prop53
 90
        2
102
RTVSPost2010PropOp53
 70
     1
102
RTVSPost2010Prop54
  1
strokes_ogs.tif
102
RTVSPost2010PropOp54
 70
     1
102
RTVSPost2010Prop55
280
     0
102
RTVSPost2010PropOp55
 70
     1
102
RTVSPost2010Prop56
140
1.0
102
RTVSPost2010PropOp56
 70
     1
102
RTVSPost2010Prop57
140
1.0
102
RTVSPost2010PropOp57
 70
     1
  0
XRECORD
  5
316
102
{ACAD_REACTORS
330
315
102
}
330
315
100
AcDbXrecord
280
     1
102
RTVSPropertyOp0
 70
     1
102
RTVSPropertyOp1
 70
     1
102
RTVSPropertyOp2
 70
     1
102
RTVSPropertyOp3
 70
     1
102
RTVSPropertyOp4
 70
     1
102
RTVSPropertyOp5
 70
     1
102
RTVSPropertyOp6
 70
     1
102
RTVSPropertyOp7
 70
     1
102
RTVSPropertyOp8
 70
     1
102
RTVSPropertyOp9
 70
     1
102
RTVSPropertyOp10
 70
     1
102
RTVSPropertyOp11
 70
     1
102
RTVSPropertyOp12
 70
     1
102
RTVSPropertyOp13
 70
     1
102
RTVSPropertyOp14
 70
     1
102
RTVSPropertyOp15
 70
     1
102
RTVSPropertyOp16
 70
     1
102
RTVSPropertyOp17
 70
     1
102
RTVSPropertyOp18
 70
     1
102
RTVSPropertyOp19
 70
     1
102
RTVSPropertyOp20
 70
     1
102
RTVSPropertyOp21
 70
     1
102
RTVSPropertyOp22
 70
     1
102
RTVSPropertyOp23
 70
     1
102
RTVSPropertyOp24
 70
     1
102
RTVSPropertyOp25
 70
     1
102
RTVSPropertyOp26
 70
     1
102
RTVSPropertyOp27
 70
     1
102
RTVSPropertyOp28
 70
     1
102
RTVSPropertyOp29
 70
     1
102
RTVSPropertyOp30
 70
     1
102
RTVSPropertyOp31
 70
     1
102
RTVSPropertyOp32
 70
     1
102
RTVSPropertyOp33
 70
     1
102
RTVSPropertyOp34
 70
     1
102
RTVSPropertyOp35
 70
     1
102
RTVSPropertyOp36
 70
     1
102
RTVSPropertyOp37
 70
     1
102
RTVSPropertyOp38
 70
     1
102
RTVSPropertyOp39
 70
     1
102
RTVSPropertyOp40
 70
     1
102
RTVSPropertyOp41
 70
     1
102
RTVSPropertyOp42
 70
     1
102
RTVSPropertyOp43
 70
     1
102
RTVSPropertyOp44
 70
     1
102
RTVSPropertyOp45
 70
     1
102
RTVSPropertyOp46
 70
     1
102
RTVSPropertyOp47
 70
     1
102
RTVSPropertyOp48
 70
     1
102
RTVSPropertyOp49
 70
     1
102
RTVSPropertyOp50
 70
     1
102
RTVSPropertyOp51
 70
     0
102
RTVSPropertyOp52
 70
     0
102
RTVSPropertyOp53
 70
     1
102
RTVSPropertyOp54
 70
     1
102
RTVSPropertyOp55
 70
     1
102
RTVSPropertyOp56
 70
     1
102
RTVSPropertyOp57
 70
     1
102
RTVSPost2010Prop28
280
     0
102
RTVSPost2010PropOp28
 70
     1
102
RTVSPost2010Prop29
280
     1
102
RTVSPost2010PropOp29
 70
     1
102
RTVSPost2010Prop30
280
     1
102
RTVSPost2010PropOp30
 70
     1
102
RTVSPost2010Prop31
280
     0
102
RTVSPost2010PropOp31
 70
     1
102
RTVSPost2010Prop32
280
     0
102
RTVSPost2010PropOp32
 70
     1
102
RTVSPost2010Prop33
280
     0
102
RTVSPost2010PropOp33
 70
     1
102
RTVSPost2010Prop34
280
     0
102
RTVSPost2010PropOp34
 70
     1
102
RTVSPost2010Prop35
280
     0
102
RTVSPost2010PropOp35
 70
     1
102
RTVSPost2010Prop36
280
     0
102
RTVSPost2010PropOp36
 70
     1
102
RTVSPost2010Prop37
 90
       50
102
RTVSPost2010PropOp37
 70
     1
102
RTVSPost2010Prop38
140
0.0
102
RTVSPost2010PropOp38
 70
     1
102
RTVSPost2010Prop39
140
1.0
102
RTVSPost2010PropOp39
 70
     1
102
RTVSPost2010Prop40
 90
        0
102
RTVSPost2010PropOp40
 70
     1
102
RTVSPost2010Prop41ColorIndex
 90
       18
102
RTVSPost2010Prop41ColorRGB
 90
        0
102
RTVSPost2010PropOp41
 70
     1
102
RTVSPost2010Prop42
 90
       50
102
RTVSPost2010PropOp42
 70
     1
102
RTVSPost2010Prop43
 90
        3
102
RTVSPost2010PropOp43
 70
     1
102
RTVSPost2010Prop44ColorIndex
 90
        5
102
RTVSPost2010Prop44ColorRGB
 90
      255
102
RTVSPost2010PropOp44
 70
     1
102
RTVSPost2010Prop45
280
     0
102
RTVSPost2010PropOp45
 70
     1
102
RTVSPost2010Prop46
 90
       50
102
RTVSPost2010PropOp46
 70
     1
102
RTVSPost2010Prop47
 90
       50
102
RTVSPost2010PropOp47
 70
     1
102
RTVSPost2010Prop48
 90
       50
102
RTVSPost2010PropOp48
 70
     1
102
RTVSPost2010Prop49
280
     0
102
RTVSPost2010PropOp49
 70
     1
102
RTVSPost2010Prop50
 90
       50
102
RTVSPost2010PropOp50
 70
     1
102
RTVSPost2010Prop51ColorIndex
 90
      256
102
RTVSPost2010Prop51ColorRGB
 90
-16777216
102
RTVSPost2010PropOp51
 70
     0
102
RTVSPost2010Prop52
140
1.0
102
RTVSPost2010PropOp52
 70
     0
102
RTVSPost2010Prop53
 90
        2
102
RTVSPost2010PropOp53
 70
     1
102
RTVSPost2010Prop54
  1
strokes_ogs.tif
102
RTVSPost2010PropOp54
 70
     1
102
RTVSPost2010Prop55
280
     0
102
RTVSPost2010PropOp55
 70
     1
102
RTVSPost2010Prop56
140
1.0
102
RTVSPost2010PropOp56
 70
     1
102
RTVSPost2010Prop57
140
1.0
102
RTVSPost2010PropOp57
 70
     1
  0
XRECORD
  5
318
102
{ACAD_REACTORS
330
317
102
}
330
317
100
AcDbXrecord
280
     1
102
RTVSPropertyOp0
 70
     1
102
RTVSPropertyOp1
 70
     1
102
RTVSPropertyOp2
 70
     1
102
RTVSPropertyOp3
 70
     1
102
RTVSPropertyOp4
 70
     1
102
RTVSPropertyOp5
 70
     1
102
RTVSPropertyOp6
 70
     1
102
RTVSPropertyOp7
 70
     1
102
RTVSPropertyOp8
 70
     1
102
RTVSPropertyOp9
 70
     1
102
RTVSPropertyOp10
 70
     1
102
RTVSPropertyOp11
 70
     1
102
RTVSPropertyOp12
 70
     1
102
RTVSPropertyOp13
 70
     1
102
RTVSPropertyOp14
 70
     1
102
RTVSPropertyOp15
 70
     1
102
RTVSPropertyOp16
 70
     1
102
RTVSPropertyOp17
 70
     1
102
RTVSPropertyOp18
 70
     1
102
RTVSPropertyOp19
 70
     1
102
RTVSPropertyOp20
 70
     1
102
RTVSPropertyOp21
 70
     1
102
RTVSPropertyOp22
 70
     1
102
RTVSPropertyOp23
 70
     1
102
RTVSPropertyOp24
 70
     1
102
RTVSPropertyOp25
 70
     1
102
RTVSPropertyOp26
 70
     1
102
RTVSPropertyOp27
 70
     1
102
RTVSPropertyOp28
 70
     1
102
RTVSPropertyOp29
 70
     1
102
RTVSPropertyOp30
 70
     1
102
RTVSPropertyOp31
 70
     1
102
RTVSPropertyOp32
 70
     1
102
RTVSPropertyOp33
 70
     1
102
RTVSPropertyOp34
 70
     1
102
RTVSPropertyOp35
 70
     1
102
RTVSPropertyOp36
 70
     1
102
RTVSPropertyOp37
 70
     1
102
RTVSPropertyOp38
 70
     1
102
RTVSPropertyOp39
 70
     1
102
RTVSPropertyOp40
 70
     1
102
RTVSPropertyOp41
 70
     1
102
RTVSPropertyOp42
 70
     1
102
RTVSPropertyOp43
 70
     1
102
RTVSPropertyOp44
 70
     1
102
RTVSPropertyOp45
 70
     1
102
RTVSPropertyOp46
 70
     1
102
RTVSPropertyOp47
 70
     1
102
RTVSPropertyOp48
 70
     1
102
RTVSPropertyOp49
 70
     1
102
RTVSPropertyOp50
 70
     1
102
RTVSPropertyOp51
 70
     0
102
RTVSPropertyOp52
 70
     0
102
RTVSPropertyOp53
 70
     1
102
RTVSPropertyOp54
 70
     1
102
RTVSPropertyOp55
 70
     1
102
RTVSPropertyOp56
 70
     1
102
RTVSPropertyOp57
 70
     1
102
RTVSPost2010Prop28
280
     0
102
RTVSPost2010PropOp28
 70
     1
102
RTVSPost2010Prop29
280
     1
102
RTVSPost2010PropOp29
 70
     1
102
RTVSPost2010Prop30
280
     1
102
RTVSPost2010PropOp30
 70
     1
102
RTVSPost2010Prop31
280
     0
102
RTVSPost2010PropOp31
 70
     1
102
RTVSPost2010Prop32
280
     0
102
RTVSPost2010PropOp32
 70
     1
102
RTVSPost2010Prop33
280
     0
102
RTVSPost2010PropOp33
 70
     1
102
RTVSPost2010Prop34
280
     0
102
RTVSPost2010PropOp34
 70
     1
102
RTVSPost2010Prop35
280
     0
102
RTVSPost2010PropOp35
 70
     1
102
RTVSPost2010Prop36
280
     0
102
RTVSPost2010PropOp36
 70
     1
102
RTVSPost2010Prop37
 90
       50
102
RTVSPost2010PropOp37
 70
     1
102
RTVSPost2010Prop38
140
0.0
102
RTVSPost2010PropOp38
 70
     1
102
RTVSPost2010Prop39
140
1.0
102
RTVSPost2010PropOp39
 70
     1
102
RTVSPost2010Prop40
 90
        0
102
RTVSPost2010PropOp40
 70
     1
102
RTVSPost2010Prop41ColorIndex
 90
       18
102
RTVSPost2010Prop41ColorRGB
 90
        0
102
RTVSPost2010PropOp41
 70
     1
102
RTVSPost2010Prop42
 90
       50
102
RTVSPost2010PropOp42
 70
     1
102
RTVSPost2010Prop43
 90
        3
102
RTVSPost2010PropOp43
 70
     1
102
RTVSPost2010Prop44ColorIndex
 90
        5
102
RTVSPost2010Prop44ColorRGB
 90
      255
102
RTVSPost2010PropOp44
 70
     1
102
RTVSPost2010Prop45
280
     0
102
RTVSPost2010PropOp45
 70
     1
102
RTVSPost2010Prop46
 90
       50
102
RTVSPost2010PropOp46
 70
     1
102
RTVSPost2010Prop47
 90
       50
102
RTVSPost2010PropOp47
 70
     1
102
RTVSPost2010Prop48
 90
       50
102
RTVSPost2010PropOp48
 70
     1
102
RTVSPost2010Prop49
280
     0
102
RTVSPost2010PropOp49
 70
     1
102
RTVSPost2010Prop50
 90
       50
102
RTVSPost2010PropOp50
 70
     1
102
RTVSPost2010Prop51ColorIndex
 90
      256
102
RTVSPost2010Prop51ColorRGB
 90
-16777216
102
RTVSPost2010PropOp51
 70
     0
102
RTVSPost2010Prop52
140
1.0
102
RTVSPost2010PropOp52
 70
     0
102
RTVSPost2010Prop53
 90
        2
102
RTVSPost2010PropOp53
 70
     1
102
RTVSPost2010Prop54
  1
strokes_ogs.tif
102
RTVSPost2010PropOp54
 70
     1
102
RTVSPost2010Prop55
280
     0
102
RTVSPost2010PropOp55
 70
     1
102
RTVSPost2010Prop56
140
1.0
102
RTVSPost2010PropOp56
 70
     1
102
RTVSPost2010Prop57
140
1.0
102
RTVSPost2010PropOp57
 70
     1
  0
XRECORD
  5
31A
102
{ACAD_REACTORS
330
319
102
}
330
319
100
AcDbXrecord
280
     1
102
RTVSPropertyOp0
 70
     1
102
RTVSPropertyOp1
 70
     1
102
RTVSPropertyOp2
 70
     1
102
RTVSPropertyOp3
 70
     1
102
RTVSPropertyOp4
 70
     1
102
RTVSPropertyOp5
 70
     1
102
RTVSPropertyOp6
 70
     1
102
RTVSPropertyOp7
 70
     1
102
RTVSPropertyOp8
 70
     1
102
RTVSPropertyOp9
 70
     1
102
RTVSPropertyOp10
 70
     1
102
RTVSPropertyOp11
 70
     1
102
RTVSPropertyOp12
 70
     1
102
RTVSPropertyOp13
 70
     1
102
RTVSPropertyOp14
 70
     1
102
RTVSPropertyOp15
 70
     1
102
RTVSPropertyOp16
 70
     1
102
RTVSPropertyOp17
 70
     1
102
RTVSPropertyOp18
 70
     1
102
RTVSPropertyOp19
 70
     1
102
RTVSPropertyOp20
 70
     1
102
RTVSPropertyOp21
 70
     1
102
RTVSPropertyOp22
 70
     1
102
RTVSPropertyOp23
 70
     1
102
RTVSPropertyOp24
 70
     1
102
RTVSPropertyOp25
 70
     1
102
RTVSPropertyOp26
 70
     1
102
RTVSPropertyOp27
 70
     1
102
RTVSPropertyOp28
 70
     1
102
RTVSPropertyOp29
 70
     1
102
RTVSPropertyOp30
 70
     1
102
RTVSPropertyOp31
 70
     1
102
RTVSPropertyOp32
 70
     1
102
RTVSPropertyOp33
 70
     1
102
RTVSPropertyOp34
 70
     1
102
RTVSPropertyOp35
 70
     1
102
RTVSPropertyOp36
 70
     1
102
RTVSPropertyOp37
 70
     1
102
RTVSPropertyOp38
 70
     1
102
RTVSPropertyOp39
 70
     1
102
RTVSPropertyOp40
 70
     1
102
RTVSPropertyOp41
 70
     1
102
RTVSPropertyOp42
 70
     1
102
RTVSPropertyOp43
 70
     1
102
RTVSPropertyOp44
 70
     1
102
RTVSPropertyOp45
 70
     1
102
RTVSPropertyOp46
 70
     1
102
RTVSPropertyOp47
 70
     1
102
RTVSPropertyOp48
 70
     1
102
RTVSPropertyOp49
 70
     1
102
RTVSPropertyOp50
 70
     1
102
RTVSPropertyOp51
 70
     0
102
RTVSPropertyOp52
 70
     0
102
RTVSPropertyOp53
 70
     1
102
RTVSPropertyOp54
 70
     1
102
RTVSPropertyOp55
 70
     1
102
RTVSPropertyOp56
 70
     1
102
RTVSPropertyOp57
 70
     1
102
RTVSPost2010Prop28
280
     0
102
RTVSPost2010PropOp28
 70
     1
102
RTVSPost2010Prop29
280
     1
102
RTVSPost2010PropOp29
 70
     1
102
RTVSPost2010Prop30
280
     1
102
RTVSPost2010PropOp30
 70
     1
102
RTVSPost2010Prop31
280
     0
102
RTVSPost2010PropOp31
 70
     1
102
RTVSPost2010Prop32
280
     0
102
RTVSPost2010PropOp32
 70
     1
102
RTVSPost2010Prop33
280
     0
102
RTVSPost2010PropOp33
 70
     1
102
RTVSPost2010Prop34
280
     0
102
RTVSPost2010PropOp34
 70
     1
102
RTVSPost2010Prop35
280
     0
102
RTVSPost2010PropOp35
 70
     1
102
RTVSPost2010Prop36
280
     0
102
RTVSPost2010PropOp36
 70
     1
102
RTVSPost2010Prop37
 90
       50
102
RTVSPost2010PropOp37
 70
     1
102
RTVSPost2010Prop38
140
0.0
102
RTVSPost2010PropOp38
 70
     1
102
RTVSPost2010Prop39
140
1.0
102
RTVSPost2010PropOp39
 70
     1
102
RTVSPost2010Prop40
 90
        0
102
RTVSPost2010PropOp40
 70
     1
102
RTVSPost2010Prop41ColorIndex
 90
       18
102
RTVSPost2010Prop41ColorRGB
 90
        0
102
RTVSPost2010PropOp41
 70
     1
102
RTVSPost2010Prop42
 90
       50
102
RTVSPost2010PropOp42
 70
     1
102
RTVSPost2010Prop43
 90
        3
102
RTVSPost2010PropOp43
 70
     1
102
RTVSPost2010Prop44ColorIndex
 90
        5
102
RTVSPost2010Prop44ColorRGB
 90
      255
102
RTVSPost2010PropOp44
 70
     1
102
RTVSPost2010Prop45
280
     0
102
RTVSPost2010PropOp45
 70
     1
102
RTVSPost2010Prop46
 90
       50
102
RTVSPost2010PropOp46
 70
     1
102
RTVSPost2010Prop47
 90
       50
102
RTVSPost2010PropOp47
 70
     1
102
RTVSPost2010Prop48
 90
       50
102
RTVSPost2010PropOp48
 70
     1
102
RTVSPost2010Prop49
280
     0
102
RTVSPost2010PropOp49
 70
     1
102
RTVSPost2010Prop50
 90
       50
102
RTVSPost2010PropOp50
 70
     1
102
RTVSPost2010Prop51ColorIndex
 90
      256
102
RTVSPost2010Prop51ColorRGB
 90
-16777216
102
RTVSPost2010PropOp51
 70
     0
102
RTVSPost2010Prop52
140
1.0
102
RTVSPost2010PropOp52
 70
     0
102
RTVSPost2010Prop53
 90
        2
102
RTVSPost2010PropOp53
 70
     1
102
RTVSPost2010Prop54
  1
strokes_ogs.tif
102
RTVSPost2010PropOp54
 70
     1
102
RTVSPost2010Prop55
280
     0
102
RTVSPost2010PropOp55
 70
     1
102
RTVSPost2010Prop56
140
1.0
102
RTVSPost2010PropOp56
 70
     1
102
RTVSPost2010Prop57
140
1.0
102
RTVSPost2010PropOp57
 70
     1
  0
XRECORD
  5
320
102
{ACAD_REACTORS
330
31F
102
}
330
31F
100
AcDbXrecord
280
     1
102
RTVSPropertyOp0
 70
     1
102
RTVSPropertyOp1
 70
     1
102
RTVSPropertyOp2
 70
     1
102
RTVSPropertyOp3
 70
     1
102
RTVSPropertyOp4
 70
     1
102
RTVSPropertyOp5
 70
     1
102
RTVSPropertyOp6
 70
     1
102
RTVSPropertyOp7
 70
     1
102
RTVSPropertyOp8
 70
     1
102
RTVSPropertyOp9
 70
     1
102
RTVSPropertyOp10
 70
     1
102
RTVSPropertyOp11
 70
     1
102
RTVSPropertyOp12
 70
     1
102
RTVSPropertyOp13
 70
     1
102
RTVSPropertyOp14
 70
     1
102
RTVSPropertyOp15
 70
     1
102
RTVSPropertyOp16
 70
     1
102
RTVSPropertyOp17
 70
     1
102
RTVSPropertyOp18
 70
     1
102
RTVSPropertyOp19
 70
     1
102
RTVSPropertyOp20
 70
     1
102
RTVSPropertyOp21
 70
     1
102
RTVSPropertyOp22
 70
     1
102
RTVSPropertyOp23
 70
     1
102
RTVSPropertyOp24
 70
     1
102
RTVSPropertyOp25
 70
     1
102
RTVSPropertyOp26
 70
     1
102
RTVSPropertyOp27
 70
     1
102
RTVSPropertyOp28
 70
     1
102
RTVSPropertyOp29
 70
     1
102
RTVSPropertyOp30
 70
     1
102
RTVSPropertyOp31
 70
     1
102
RTVSPropertyOp32
 70
     1
102
RTVSPropertyOp33
 70
     1
102
RTVSPropertyOp34
 70
     1
102
RTVSPropertyOp35
 70
     1
102
RTVSPropertyOp36
 70
     1
102
RTVSPropertyOp37
 70
     1
102
RTVSPropertyOp38
 70
     1
102
RTVSPropertyOp39
 70
     1
102
RTVSPropertyOp40
 70
     1
102
RTVSPropertyOp41
 70
     1
102
RTVSPropertyOp42
 70
     1
102
RTVSPropertyOp43
 70
     1
102
RTVSPropertyOp44
 70
     1
102
RTVSPropertyOp45
 70
     1
102
RTVSPropertyOp46
 70
     1
102
RTVSPropertyOp47
 70
     1
102
RTVSPropertyOp48
 70
     1
102
RTVSPropertyOp49
 70
     1
102
RTVSPropertyOp50
 70
     1
102
RTVSPropertyOp51
 70
     0
102
RTVSPropertyOp52
 70
     0
102
RTVSPropertyOp53
 70
     1
102
RTVSPropertyOp54
 70
     1
102
RTVSPropertyOp55
 70
     1
102
RTVSPropertyOp56
 70
     1
102
RTVSPropertyOp57
 70
     1
102
RTVSPost2010Prop28
280
     0
102
RTVSPost2010PropOp28
 70
     1
102
RTVSPost2010Prop29
280
     1
102
RTVSPost2010PropOp29
 70
     1
102
RTVSPost2010Prop30
280
     1
102
RTVSPost2010PropOp30
 70
     1
102
RTVSPost2010Prop31
280
     0
102
RTVSPost2010PropOp31
 70
     1
102
RTVSPost2010Prop32
280
     0
102
RTVSPost2010PropOp32
 70
     1
102
RTVSPost2010Prop33
280
     0
102
RTVSPost2010PropOp33
 70
     1
102
RTVSPost2010Prop34
280
     0
102
RTVSPost2010PropOp34
 70
     1
102
RTVSPost2010Prop35
280
     0
102
RTVSPost2010PropOp35
 70
     1
102
RTVSPost2010Prop36
280
     0
102
RTVSPost2010PropOp36
 70
     1
102
RTVSPost2010Prop37
 90
       50
102
RTVSPost2010PropOp37
 70
     1
102
RTVSPost2010Prop38
140
0.0
102
RTVSPost2010PropOp38
 70
     1
102
RTVSPost2010Prop39
140
1.0
102
RTVSPost2010PropOp39
 70
     1
102
RTVSPost2010Prop40
 90
        0
102
RTVSPost2010PropOp40
 70
     1
102
RTVSPost2010Prop41ColorIndex
 90
       18
102
RTVSPost2010Prop41ColorRGB
 90
        0
102
RTVSPost2010PropOp41
 70
     1
102
RTVSPost2010Prop42
 90
       50
102
RTVSPost2010PropOp42
 70
     1
102
RTVSPost2010Prop43
 90
        3
102
RTVSPost2010PropOp43
 70
     1
102
RTVSPost2010Prop44ColorIndex
 90
        5
102
RTVSPost2010Prop44ColorRGB
 90
      255
102
RTVSPost2010PropOp44
 70
     1
102
RTVSPost2010Prop45
280
     0
102
RTVSPost2010PropOp45
 70
     1
102
RTVSPost2010Prop46
 90
       50
102
RTVSPost2010PropOp46
 70
     1
102
RTVSPost2010Prop47
 90
       50
102
RTVSPost2010PropOp47
 70
     1
102
RTVSPost2010Prop48
 90
       50
102
RTVSPost2010PropOp48
 70
     1
102
RTVSPost2010Prop49
280
     0
102
RTVSPost2010PropOp49
 70
     1
102
RTVSPost2010Prop50
 90
       50
102
RTVSPost2010PropOp50
 70
     1
102
RTVSPost2010Prop51ColorIndex
 90
      256
102
RTVSPost2010Prop51ColorRGB
 90
-16777216
102
RTVSPost2010PropOp51
 70
     0
102
RTVSPost2010Prop52
140
1.0
102
RTVSPost2010PropOp52
 70
     0
102
RTVSPost2010Prop53
 90
        2
102
RTVSPost2010PropOp53
 70
     1
102
RTVSPost2010Prop54
  1
strokes_ogs.tif
102
RTVSPost2010PropOp54
 70
     1
102
RTVSPost2010Prop55
280
     0
102
RTVSPost2010PropOp55
 70
     1
102
RTVSPost2010Prop56
140
1.0
102
RTVSPost2010PropOp56
 70
     1
102
RTVSPost2010Prop57
140
1.0
102
RTVSPost2010PropOp57
 70
     1
  0
XRECORD
  5
334
102
{ACAD_REACTORS
330
333
102
}
330
333
100
AcDbXrecord
280
     1
102
RTVSPropertyOp0
 70
     0
102
RTVSPropertyOp1
 70
     0
102
RTVSPropertyOp2
 70
     0
102
RTVSPropertyOp3
 70
     0
102
RTVSPropertyOp4
 70
     0
102
RTVSPropertyOp5
 70
     0
102
RTVSPropertyOp6
 70
     0
102
RTVSPropertyOp7
 70
     0
102
RTVSPropertyOp8
 70
     0
102
RTVSPropertyOp9
 70
     0
102
RTVSPropertyOp10
 70
     0
102
RTVSPropertyOp11
 70
     0
102
RTVSPropertyOp12
 70
     0
102
RTVSPropertyOp13
 70
     0
102
RTVSPropertyOp14
 70
     2
102
RTVSPropertyOp15
 70
     0
102
RTVSPropertyOp16
 70
     0
102
RTVSPropertyOp17
 70
     0
102
RTVSPropertyOp18
 70
     0
102
RTVSPropertyOp19
 70
     0
102
RTVSPropertyOp20
 70
     0
102
RTVSPropertyOp21
 70
     0
102
RTVSPropertyOp22
 70
     0
102
RTVSPropertyOp23
 70
     0
102
RTVSPropertyOp24
 70
     0
102
RTVSPropertyOp25
 70
     0
102
RTVSPropertyOp26
 70
     0
102
RTVSPropertyOp27
 70
     0
102
RTVSPropertyOp28
 70
     0
102
RTVSPropertyOp29
 70
     0
102
RTVSPropertyOp30
 70
     0
102
RTVSPropertyOp31
 70
     0
102
RTVSPropertyOp32
 70
     0
102
RTVSPropertyOp33
 70
     0
102
RTVSPropertyOp34
 70
     0
102
RTVSPropertyOp35
 70
     0
102
RTVSPropertyOp36
 70
     0
102
RTVSPropertyOp37
 70
     0
102
RTVSPropertyOp38
 70
     0
102
RTVSPropertyOp39
 70
     0
102
RTVSPropertyOp40
 70
     0
102
RTVSPropertyOp41
 70
     0
102
RTVSPropertyOp42
 70
     0
102
RTVSPropertyOp43
 70
     0
102
RTVSPropertyOp44
 70
     0
102
RTVSPropertyOp45
 70
     0
102
RTVSPropertyOp46
 70
     0
102
RTVSPropertyOp47
 70
     0
102
RTVSPropertyOp48
 70
     0
102
RTVSPropertyOp49
 70
     0
102
RTVSPropertyOp50
 70
     0
102
RTVSPropertyOp51
 70
     0
102
RTVSPropertyOp52
 70
     0
102
RTVSPropertyOp53
 70
     0
102
RTVSPropertyOp54
 70
     0
102
RTVSPropertyOp55
 70
     0
102
RTVSPropertyOp56
 70
     0
102
RTVSPropertyOp57
 70
     0
102
RTVSPost2010Prop28
280
     0
102
RTVSPost2010PropOp28
 70
     0
102
RTVSPost2010Prop29
280
     1
102
RTVSPost2010PropOp29
 70
     0
102
RTVSPost2010Prop30
280
     1
102
RTVSPost2010PropOp30
 70
     0
102
RTVSPost2010Prop31
280
     0
102
RTVSPost2010PropOp31
 70
     0
102
RTVSPost2010Prop32
280
     0
102
RTVSPost2010PropOp32
 70
     0
102
RTVSPost2010Prop33
280
     0
102
RTVSPost2010PropOp33
 70
     0
102
RTVSPost2010Prop34
280
     0
102
RTVSPost2010PropOp34
 70
     0
102
RTVSPost2010Prop35
280
     0
102
RTVSPost2010PropOp35
 70
     0
102
RTVSPost2010Prop36
280
     0
102
RTVSPost2010PropOp36
 70
     0
102
RTVSPost2010Prop37
 90
       50
102
RTVSPost2010PropOp37
 70
     0
102
RTVSPost2010Prop38
140
0.0
102
RTVSPost2010PropOp38
 70
     0
102
RTVSPost2010Prop39
140
1.0
102
RTVSPost2010PropOp39
 70
     0
102
RTVSPost2010Prop40
 90
        0
102
RTVSPost2010PropOp40
 70
     0
102
RTVSPost2010Prop41ColorIndex
 90
       18
102
RTVSPost2010Prop41ColorRGB
 90
        0
102
RTVSPost2010PropOp41
 70
     0
102
RTVSPost2010Prop42
 90
       50
102
RTVSPost2010PropOp42
 70
     0
102
RTVSPost2010Prop43
 90
        3
102
RTVSPost2010PropOp43
 70
     0
102
RTVSPost2010Prop44ColorIndex
 90
        5
102
RTVSPost2010Prop44ColorRGB
 90
      255
102
RTVSPost2010PropOp44
 70
     0
102
RTVSPost2010Prop45
280
     0
102
RTVSPost2010PropOp45
 70
     0
102
RTVSPost2010Prop46
 90
       50
102
RTVSPost2010PropOp46
 70
     0
102
RTVSPost2010Prop47
 90
       50
102
RTVSPost2010PropOp47
 70
     0
102
RTVSPost2010Prop48
 90
       50
102
RTVSPost2010PropOp48
 70
     0
102
RTVSPost2010Prop49
280
     0
102
RTVSPost2010PropOp49
 70
     0
102
RTVSPost2010Prop50
 90
       50
102
RTVSPost2010PropOp50
 70
     0
102
RTVSPost2010Prop51ColorIndex
 90
      256
102
RTVSPost2010Prop51ColorRGB
 90
-16777216
102
RTVSPost2010PropOp51
 70
     0
102
RTVSPost2010Prop52
140
1.0
102
RTVSPost2010PropOp52
 70
     0
102
RTVSPost2010Prop53
 90
        2
102
RTVSPost2010PropOp53
 70
     0
102
RTVSPost2010Prop54
  1
strokes_ogs.tif
102
RTVSPost2010PropOp54
 70
     0
102
RTVSPost2010Prop55
280
     0
102
RTVSPost2010PropOp55
 70
     0
102
RTVSPost2010Prop56
140
1.0
102
RTVSPost2010PropOp56
 70
     0
102
RTVSPost2010Prop57
140
1.0
102
RTVSPost2010PropOp57
 70
     0
  0
XRECORD
  5
32E
102
{ACAD_REACTORS
330
32D
102
}
330
32D
100
AcDbXrecord
280
     1
102
RTVSPropertyOp0
 70
     1
102
RTVSPropertyOp1
 70
     1
102
RTVSPropertyOp2
 70
     1
102
RTVSPropertyOp3
 70
     1
102
RTVSPropertyOp4
 70
     1
102
RTVSPropertyOp5
 70
     1
102
RTVSPropertyOp6
 70
     1
102
RTVSPropertyOp7
 70
     1
102
RTVSPropertyOp8
 70
     1
102
RTVSPropertyOp9
 70
     1
102
RTVSPropertyOp10
 70
     1
102
RTVSPropertyOp11
 70
     1
102
RTVSPropertyOp12
 70
     1
102
RTVSPropertyOp13
 70
     1
102
RTVSPropertyOp14
 70
     1
102
RTVSPropertyOp15
 70
     1
102
RTVSPropertyOp16
 70
     1
102
RTVSPropertyOp17
 70
     1
102
RTVSPropertyOp18
 70
     1
102
RTVSPropertyOp19
 70
     1
102
RTVSPropertyOp20
 70
     1
102
RTVSPropertyOp21
 70
     1
102
RTVSPropertyOp22
 70
     1
102
RTVSPropertyOp23
 70
     1
102
RTVSPropertyOp24
 70
     1
102
RTVSPropertyOp25
 70
     1
102
RTVSPropertyOp26
 70
     1
102
RTVSPropertyOp27
 70
     1
102
RTVSPropertyOp28
 70
     1
102
RTVSPropertyOp29
 70
     1
102
RTVSPropertyOp30
 70
     1
102
RTVSPropertyOp31
 70
     1
102
RTVSPropertyOp32
 70
     1
102
RTVSPropertyOp33
 70
     1
102
RTVSPropertyOp34
 70
     1
102
RTVSPropertyOp35
 70
     1
102
RTVSPropertyOp36
 70
     1
102
RTVSPropertyOp37
 70
     1
102
RTVSPropertyOp38
 70
     1
102
RTVSPropertyOp39
 70
     1
102
RTVSPropertyOp40
 70
     1
102
RTVSPropertyOp41
 70
     1
102
RTVSPropertyOp42
 70
     1
102
RTVSPropertyOp43
 70
     1
102
RTVSPropertyOp44
 70
     1
102
RTVSPropertyOp45
 70
     1
102
RTVSPropertyOp46
 70
     1
102
RTVSPropertyOp47
 70
     1
102
RTVSPropertyOp48
 70
     1
102
RTVSPropertyOp49
 70
     1
102
RTVSPropertyOp50
 70
     1
102
RTVSPropertyOp51
 70
     0
102
RTVSPropertyOp52
 70
     0
102
RTVSPropertyOp53
 70
     1
102
RTVSPropertyOp54
 70
     1
102
RTVSPropertyOp55
 70
     1
102
RTVSPropertyOp56
 70
     1
102
RTVSPropertyOp57
 70
     1
102
RTVSPost2010Prop28
280
     0
102
RTVSPost2010PropOp28
 70
     1
102
RTVSPost2010Prop29
280
     1
102
RTVSPost2010PropOp29
 70
     1
102
RTVSPost2010Prop30
280
     1
102
RTVSPost2010PropOp30
 70
     1
102
RTVSPost2010Prop31
280
     0
102
RTVSPost2010PropOp31
 70
     1
102
RTVSPost2010Prop32
280
     0
102
RTVSPost2010PropOp32
 70
     1
102
RTVSPost2010Prop33
280
     0
102
RTVSPost2010PropOp33
 70
     1
102
RTVSPost2010Prop34
280
     0
102
RTVSPost2010PropOp34
 70
     1
102
RTVSPost2010Prop35
280
     0
102
RTVSPost2010PropOp35
 70
     1
102
RTVSPost2010Prop36
280
     0
102
RTVSPost2010PropOp36
 70
     1
102
RTVSPost2010Prop37
 90
       50
102
RTVSPost2010PropOp37
 70
     1
102
RTVSPost2010Prop38
140
0.0
102
RTVSPost2010PropOp38
 70
     1
102
RTVSPost2010Prop39
140
1.0
102
RTVSPost2010PropOp39
 70
     1
102
RTVSPost2010Prop40
 90
        0
102
RTVSPost2010PropOp40
 70
     1
102
RTVSPost2010Prop41ColorIndex
 90
       18
102
RTVSPost2010Prop41ColorRGB
 90
        0
102
RTVSPost2010PropOp41
 70
     1
102
RTVSPost2010Prop42
 90
       50
102
RTVSPost2010PropOp42
 70
     1
102
RTVSPost2010Prop43
 90
        3
102
RTVSPost2010PropOp43
 70
     1
102
RTVSPost2010Prop44ColorIndex
 90
        5
102
RTVSPost2010Prop44ColorRGB
 90
      255
102
RTVSPost2010PropOp44
 70
     1
102
RTVSPost2010Prop45
280
     0
102
RTVSPost2010PropOp45
 70
     1
102
RTVSPost2010Prop46
 90
       50
102
RTVSPost2010PropOp46
 70
     1
102
RTVSPost2010Prop47
 90
       50
102
RTVSPost2010PropOp47
 70
     1
102
RTVSPost2010Prop48
 90
       50
102
RTVSPost2010PropOp48
 70
     1
102
RTVSPost2010Prop49
280
     0
102
RTVSPost2010PropOp49
 70
     1
102
RTVSPost2010Prop50
 90
       50
102
RTVSPost2010PropOp50
 70
     1
102
RTVSPost2010Prop51ColorIndex
 90
      256
102
RTVSPost2010Prop51ColorRGB
 90
-16777216
102
RTVSPost2010PropOp51
 70
     0
102
RTVSPost2010Prop52
140
1.0
102
RTVSPost2010PropOp52
 70
     0
102
RTVSPost2010Prop53
 90
        2
102
RTVSPost2010PropOp53
 70
     1
102
RTVSPost2010Prop54
  1
strokes_ogs.tif
102
RTVSPost2010PropOp54
 70
     1
102
RTVSPost2010Prop55
280
     0
102
RTVSPost2010PropOp55
 70
     1
102
RTVSPost2010Prop56
140
1.0
102
RTVSPost2010PropOp56
 70
     1
102
RTVSPost2010Prop57
140
1.0
102
RTVSPost2010PropOp57
 70
     1
  0
XRECORD
  5
336
102
{ACAD_REACTORS
330
335
102
}
330
335
100
AcDbXrecord
280
     1
102
RTVSPropertyOp0
 70
     0
102
RTVSPropertyOp1
 70
     0
102
RTVSPropertyOp2
 70
     0
102
RTVSPropertyOp3
 70
     0
102
RTVSPropertyOp4
 70
     0
102
RTVSPropertyOp5
 70
     0
102
RTVSPropertyOp6
 70
     0
102
RTVSPropertyOp7
 70
     0
102
RTVSPropertyOp8
 70
     0
102
RTVSPropertyOp9
 70
     0
102
RTVSPropertyOp10
 70
     0
102
RTVSPropertyOp11
 70
     0
102
RTVSPropertyOp12
 70
     0
102
RTVSPropertyOp13
 70
     0
102
RTVSPropertyOp14
 70
     2
102
RTVSPropertyOp15
 70
     0
102
RTVSPropertyOp16
 70
     0
102
RTVSPropertyOp17
 70
     0
102
RTVSPropertyOp18
 70
     0
102
RTVSPropertyOp19
 70
     0
102
RTVSPropertyOp20
 70
     0
102
RTVSPropertyOp21
 70
     0
102
RTVSPropertyOp22
 70
     0
102
RTVSPropertyOp23
 70
     0
102
RTVSPropertyOp24
 70
     0
102
RTVSPropertyOp25
 70
     0
102
RTVSPropertyOp26
 70
     0
102
RTVSPropertyOp27
 70
     0
102
RTVSPropertyOp28
 70
     0
102
RTVSPropertyOp29
 70
     0
102
RTVSPropertyOp30
 70
     0
102
RTVSPropertyOp31
 70
     0
102
RTVSPropertyOp32
 70
     0
102
RTVSPropertyOp33
 70
     0
102
RTVSPropertyOp34
 70
     0
102
RTVSPropertyOp35
 70
     0
102
RTVSPropertyOp36
 70
     0
102
RTVSPropertyOp37
 70
     0
102
RTVSPropertyOp38
 70
     0
102
RTVSPropertyOp39
 70
     0
102
RTVSPropertyOp40
 70
     0
102
RTVSPropertyOp41
 70
     0
102
RTVSPropertyOp42
 70
     0
102
RTVSPropertyOp43
 70
     0
102
RTVSPropertyOp44
 70
     0
102
RTVSPropertyOp45
 70
     0
102
RTVSPropertyOp46
 70
     0
102
RTVSPropertyOp47
 70
     0
102
RTVSPropertyOp48
 70
     0
102
RTVSPropertyOp49
 70
     0
102
RTVSPropertyOp50
 70
     0
102
RTVSPropertyOp51
 70
     0
102
RTVSPropertyOp52
 70
     0
102
RTVSPropertyOp53
 70
     0
102
RTVSPropertyOp54
 70
     0
102
RTVSPropertyOp55
 70
     0
102
RTVSPropertyOp56
 70
     0
102
RTVSPropertyOp57
 70
     0
102
RTVSPost2010Prop28
280
     0
102
RTVSPost2010PropOp28
 70
     0
102
RTVSPost2010Prop29
280
     1
102
RTVSPost2010PropOp29
 70
     0
102
RTVSPost2010Prop30
280
     1
102
RTVSPost2010PropOp30
 70
     0
102
RTVSPost2010Prop31
280
     0
102
RTVSPost2010PropOp31
 70
     0
102
RTVSPost2010Prop32
280
     0
102
RTVSPost2010PropOp32
 70
     0
102
RTVSPost2010Prop33
280
     0
102
RTVSPost2010PropOp33
 70
     0
102
RTVSPost2010Prop34
280
     0
102
RTVSPost2010PropOp34
 70
     0
102
RTVSPost2010Prop35
280
     0
102
RTVSPost2010PropOp35
 70
     0
102
RTVSPost2010Prop36
280
     0
102
RTVSPost2010PropOp36
 70
     0
102
RTVSPost2010Prop37
 90
       50
102
RTVSPost2010PropOp37
 70
     0
102
RTVSPost2010Prop38
140
0.0
102
RTVSPost2010PropOp38
 70
     0
102
RTVSPost2010Prop39
140
1.0
102
RTVSPost2010PropOp39
 70
     0
102
RTVSPost2010Prop40
 90
        0
102
RTVSPost2010PropOp40
 70
     0
102
RTVSPost2010Prop41ColorIndex
 90
       18
102
RTVSPost2010Prop41ColorRGB
 90
        0
102
RTVSPost2010PropOp41
 70
     0
102
RTVSPost2010Prop42
 90
       50
102
RTVSPost2010PropOp42
 70
     0
102
RTVSPost2010Prop43
 90
        3
102
RTVSPost2010PropOp43
 70
     0
102
RTVSPost2010Prop44ColorIndex
 90
        5
102
RTVSPost2010Prop44ColorRGB
 90
      255
102
RTVSPost2010PropOp44
 70
     0
102
RTVSPost2010Prop45
280
     0
102
RTVSPost2010PropOp45
 70
     0
102
RTVSPost2010Prop46
 90
       50
102
RTVSPost2010PropOp46
 70
     0
102
RTVSPost2010Prop47
 90
       50
102
RTVSPost2010PropOp47
 70
     0
102
RTVSPost2010Prop48
 90
       50
102
RTVSPost2010PropOp48
 70
     0
102
RTVSPost2010Prop49
280
     0
102
RTVSPost2010PropOp49
 70
     0
102
RTVSPost2010Prop50
 90
       50
102
RTVSPost2010PropOp50
 70
     0
102
RTVSPost2010Prop51ColorIndex
 90
      256
102
RTVSPost2010Prop51ColorRGB
 90
-16777216
102
RTVSPost2010PropOp51
 70
     0
102
RTVSPost2010Prop52
140
1.0
102
RTVSPost2010PropOp52
 70
     0
102
RTVSPost2010Prop53
 90
        2
102
RTVSPost2010PropOp53
 70
     0
102
RTVSPost2010Prop54
  1
strokes_ogs.tif
102
RTVSPost2010PropOp54
 70
     0
102
RTVSPost2010Prop55
280
     0
102
RTVSPost2010PropOp55
 70
     0
102
RTVSPost2010Prop56
140
1.0
102
RTVSPost2010PropOp56
 70
     0
102
RTVSPost2010Prop57
140
1.0
102
RTVSPost2010PropOp57
 70
     0
  0
XRECORD
  5
324
102
{ACAD_REACTORS
330
323
102
}
330
323
100
AcDbXrecord
280
     1
102
RTVSPropertyOp0
 70
     1
102
RTVSPropertyOp1
 70
     1
102
RTVSPropertyOp2
 70
     1
102
RTVSPropertyOp3
 70
     1
102
RTVSPropertyOp4
 70
     1
102
RTVSPropertyOp5
 70
     1
102
RTVSPropertyOp6
 70
     1
102
RTVSPropertyOp7
 70
     1
102
RTVSPropertyOp8
 70
     1
102
RTVSPropertyOp9
 70
     1
102
RTVSPropertyOp10
 70
     1
102
RTVSPropertyOp11
 70
     1
102
RTVSPropertyOp12
 70
     1
102
RTVSPropertyOp13
 70
     1
102
RTVSPropertyOp14
 70
     1
102
RTVSPropertyOp15
 70
     1
102
RTVSPropertyOp16
 70
     1
102
RTVSPropertyOp17
 70
     1
102
RTVSPropertyOp18
 70
     1
102
RTVSPropertyOp19
 70
     1
102
RTVSPropertyOp20
 70
     1
102
RTVSPropertyOp21
 70
     1
102
RTVSPropertyOp22
 70
     1
102
RTVSPropertyOp23
 70
     1
102
RTVSPropertyOp24
 70
     1
102
RTVSPropertyOp25
 70
     1
102
RTVSPropertyOp26
 70
     1
102
RTVSPropertyOp27
 70
     1
102
RTVSPropertyOp28
 70
     1
102
RTVSPropertyOp29
 70
     1
102
RTVSPropertyOp30
 70
     1
102
RTVSPropertyOp31
 70
     1
102
RTVSPropertyOp32
 70
     1
102
RTVSPropertyOp33
 70
     1
102
RTVSPropertyOp34
 70
     1
102
RTVSPropertyOp35
 70
     1
102
RTVSPropertyOp36
 70
     1
102
RTVSPropertyOp37
 70
     1
102
RTVSPropertyOp38
 70
     1
102
RTVSPropertyOp39
 70
     1
102
RTVSPropertyOp40
 70
     1
102
RTVSPropertyOp41
 70
     1
102
RTVSPropertyOp42
 70
     1
102
RTVSPropertyOp43
 70
     1
102
RTVSPropertyOp44
 70
     1
102
RTVSPropertyOp45
 70
     1
102
RTVSPropertyOp46
 70
     1
102
RTVSPropertyOp47
 70
     1
102
RTVSPropertyOp48
 70
     1
102
RTVSPropertyOp49
 70
     1
102
RTVSPropertyOp50
 70
     1
102
RTVSPropertyOp51
 70
     0
102
RTVSPropertyOp52
 70
     0
102
RTVSPropertyOp53
 70
     1
102
RTVSPropertyOp54
 70
     1
102
RTVSPropertyOp55
 70
     1
102
RTVSPropertyOp56
 70
     1
102
RTVSPropertyOp57
 70
     1
102
RTVSPost2010Prop28
280
     0
102
RTVSPost2010PropOp28
 70
     1
102
RTVSPost2010Prop29
280
     1
102
RTVSPost2010PropOp29
 70
     1
102
RTVSPost2010Prop30
280
     1
102
RTVSPost2010PropOp30
 70
     1
102
RTVSPost2010Prop31
280
     0
102
RTVSPost2010PropOp31
 70
     1
102
RTVSPost2010Prop32
280
     0
102
RTVSPost2010PropOp32
 70
     1
102
RTVSPost2010Prop33
280
     0
102
RTVSPost2010PropOp33
 70
     1
102
RTVSPost2010Prop34
280
     0
102
RTVSPost2010PropOp34
 70
     1
102
RTVSPost2010Prop35
280
     0
102
RTVSPost2010PropOp35
 70
     1
102
RTVSPost2010Prop36
280
     0
102
RTVSPost2010PropOp36
 70
     1
102
RTVSPost2010Prop37
 90
       50
102
RTVSPost2010PropOp37
 70
     1
102
RTVSPost2010Prop38
140
0.0
102
RTVSPost2010PropOp38
 70
     1
102
RTVSPost2010Prop39
140
1.0
102
RTVSPost2010PropOp39
 70
     1
102
RTVSPost2010Prop40
 90
        0
102
RTVSPost2010PropOp40
 70
     1
102
RTVSPost2010Prop41ColorIndex
 90
       18
102
RTVSPost2010Prop41ColorRGB
 90
        0
102
RTVSPost2010PropOp41
 70
     1
102
RTVSPost2010Prop42
 90
       50
102
RTVSPost2010PropOp42
 70
     1
102
RTVSPost2010Prop43
 90
        3
102
RTVSPost2010PropOp43
 70
     1
102
RTVSPost2010Prop44ColorIndex
 90
        5
102
RTVSPost2010Prop44ColorRGB
 90
      255
102
RTVSPost2010PropOp44
 70
     1
102
RTVSPost2010Prop45
280
     0
102
RTVSPost2010PropOp45
 70
     1
102
RTVSPost2010Prop46
 90
       50
102
RTVSPost2010PropOp46
 70
     1
102
RTVSPost2010Prop47
 90
       50
102
RTVSPost2010PropOp47
 70
     1
102
RTVSPost2010Prop48
 90
       50
102
RTVSPost2010PropOp48
 70
     1
102
RTVSPost2010Prop49
280
     0
102
RTVSPost2010PropOp49
 70
     1
102
RTVSPost2010Prop50
 90
       50
102
RTVSPost2010PropOp50
 70
     1
102
RTVSPost2010Prop51ColorIndex
 90
      256
102
RTVSPost2010Prop51ColorRGB
 90
-16777216
102
RTVSPost2010PropOp51
 70
     0
102
RTVSPost2010Prop52
140
1.0
102
RTVSPost2010PropOp52
 70
     0
102
RTVSPost2010Prop53
 90
        2
102
RTVSPost2010PropOp53
 70
     1
102
RTVSPost2010Prop54
  1
strokes_ogs.tif
102
RTVSPost2010PropOp54
 70
     1
102
RTVSPost2010Prop55
280
     0
102
RTVSPost2010PropOp55
 70
     1
102
RTVSPost2010Prop56
140
1.0
102
RTVSPost2010PropOp56
 70
     1
102
RTVSPost2010Prop57
140
1.0
102
RTVSPost2010PropOp57
 70
     1
  0
XRECORD
  5
342
102
{ACAD_REACTORS
330
341
102
}
330
341
100
AcDbXrecord
280
     1
102
RTVSPropertyOp0
 70
     1
102
RTVSPropertyOp1
 70
     1
102
RTVSPropertyOp2
 70
     1
102
RTVSPropertyOp3
 70
     1
102
RTVSPropertyOp4
 70
     1
102
RTVSPropertyOp5
 70
     1
102
RTVSPropertyOp6
 70
     1
102
RTVSPropertyOp7
 70
     1
102
RTVSPropertyOp8
 70
     1
102
RTVSPropertyOp9
 70
     1
102
RTVSPropertyOp10
 70
     1
102
RTVSPropertyOp11
 70
     1
102
RTVSPropertyOp12
 70
     1
102
RTVSPropertyOp13
 70
     1
102
RTVSPropertyOp14
 70
     1
102
RTVSPropertyOp15
 70
     1
102
RTVSPropertyOp16
 70
     1
102
RTVSPropertyOp17
 70
     1
102
RTVSPropertyOp18
 70
     1
102
RTVSPropertyOp19
 70
     1
102
RTVSPropertyOp20
 70
     1
102
RTVSPropertyOp21
 70
     1
102
RTVSPropertyOp22
 70
     1
102
RTVSPropertyOp23
 70
     1
102
RTVSPropertyOp24
 70
     1
102
RTVSPropertyOp25
 70
     1
102
RTVSPropertyOp26
 70
     1
102
RTVSPropertyOp27
 70
     1
102
RTVSPropertyOp28
 70
     1
102
RTVSPropertyOp29
 70
     1
102
RTVSPropertyOp30
 70
     1
102
RTVSPropertyOp31
 70
     1
102
RTVSPropertyOp32
 70
     1
102
RTVSPropertyOp33
 70
     1
102
RTVSPropertyOp34
 70
     1
102
RTVSPropertyOp35
 70
     1
102
RTVSPropertyOp36
 70
     1
102
RTVSPropertyOp37
 70
     1
102
RTVSPropertyOp38
 70
     1
102
RTVSPropertyOp39
 70
     1
102
RTVSPropertyOp40
 70
     1
102
RTVSPropertyOp41
 70
     1
102
RTVSPropertyOp42
 70
     1
102
RTVSPropertyOp43
 70
     1
102
RTVSPropertyOp44
 70
     1
102
RTVSPropertyOp45
 70
     1
102
RTVSPropertyOp46
 70
     1
102
RTVSPropertyOp47
 70
     1
102
RTVSPropertyOp48
 70
     1
102
RTVSPropertyOp49
 70
     1
102
RTVSPropertyOp50
 70
     1
102
RTVSPropertyOp51
 70
     0
102
RTVSPropertyOp52
 70
     0
102
RTVSPropertyOp53
 70
     1
102
RTVSPropertyOp54
 70
     1
102
RTVSPropertyOp55
 70
     1
102
RTVSPropertyOp56
 70
     1
102
RTVSPropertyOp57
 70
     1
102
RTVSPost2010Prop28
280
     0
102
RTVSPost2010PropOp28
 70
     1
102
RTVSPost2010Prop29
280
     1
102
RTVSPost2010PropOp29
 70
     1
102
RTVSPost2010Prop30
280
     1
102
RTVSPost2010PropOp30
 70
     1
102
RTVSPost2010Prop31
280
     0
102
RTVSPost2010PropOp31
 70
     1
102
RTVSPost2010Prop32
280
     0
102
RTVSPost2010PropOp32
 70
     1
102
RTVSPost2010Prop33
280
     0
102
RTVSPost2010PropOp33
 70
     1
102
RTVSPost2010Prop34
280
     0
102
RTVSPost2010PropOp34
 70
     1
102
RTVSPost2010Prop35
280
     0
102
RTVSPost2010PropOp35
 70
     1
102
RTVSPost2010Prop36
280
     0
102
RTVSPost2010PropOp36
 70
     1
102
RTVSPost2010Prop37
 90
       50
102
RTVSPost2010PropOp37
 70
     1
102
RTVSPost2010Prop38
140
0.0
102
RTVSPost2010PropOp38
 70
     1
102
RTVSPost2010Prop39
140
1.0
102
RTVSPost2010PropOp39
 70
     1
102
RTVSPost2010Prop40
 90
        0
102
RTVSPost2010PropOp40
 70
     1
102
RTVSPost2010Prop41ColorIndex
 90
       18
102
RTVSPost2010Prop41ColorRGB
 90
        0
102
RTVSPost2010PropOp41
 70
     1
102
RTVSPost2010Prop42
 90
       50
102
RTVSPost2010PropOp42
 70
     1
102
RTVSPost2010Prop43
 90
        3
102
RTVSPost2010PropOp43
 70
     1
102
RTVSPost2010Prop44ColorIndex
 90
        5
102
RTVSPost2010Prop44ColorRGB
 90
      255
102
RTVSPost2010PropOp44
 70
     1
102
RTVSPost2010Prop45
280
     0
102
RTVSPost2010PropOp45
 70
     1
102
RTVSPost2010Prop46
 90
       50
102
RTVSPost2010PropOp46
 70
     1
102
RTVSPost2010Prop47
 90
       50
102
RTVSPost2010PropOp47
 70
     1
102
RTVSPost2010Prop48
 90
       50
102
RTVSPost2010PropOp48
 70
     1
102
RTVSPost2010Prop49
280
     0
102
RTVSPost2010PropOp49
 70
     1
102
RTVSPost2010Prop50
 90
       50
102
RTVSPost2010PropOp50
 70
     1
102
RTVSPost2010Prop51ColorIndex
 90
      256
102
RTVSPost2010Prop51ColorRGB
 90
-16777216
102
RTVSPost2010PropOp51
 70
     0
102
RTVSPost2010Prop52
140
1.0
102
RTVSPost2010PropOp52
 70
     0
102
RTVSPost2010Prop53
 90
        2
102
RTVSPost2010PropOp53
 70
     1
102
RTVSPost2010Prop54
  1
strokes_ogs.tif
102
RTVSPost2010PropOp54
 70
     1
102
RTVSPost2010Prop55
280
     0
102
RTVSPost2010PropOp55
 70
     1
102
RTVSPost2010Prop56
140
1.0
102
RTVSPost2010PropOp56
 70
     1
102
RTVSPost2010Prop57
140
1.0
102
RTVSPost2010PropOp57
 70
     1
  0
XRECORD
  5
340
102
{ACAD_REACTORS
330
33F
102
}
330
33F
100
AcDbXrecord
280
     1
102
RTVSPropertyOp0
 70
     1
102
RTVSPropertyOp1
 70
     1
102
RTVSPropertyOp2
 70
     1
102
RTVSPropertyOp3
 70
     1
102
RTVSPropertyOp4
 70
     1
102
RTVSPropertyOp5
 70
     1
102
RTVSPropertyOp6
 70
     1
102
RTVSPropertyOp7
 70
     1
102
RTVSPropertyOp8
 70
     1
102
RTVSPropertyOp9
 70
     1
102
RTVSPropertyOp10
 70
     1
102
RTVSPropertyOp11
 70
     1
102
RTVSPropertyOp12
 70
     1
102
RTVSPropertyOp13
 70
     1
102
RTVSPropertyOp14
 70
     1
102
RTVSPropertyOp15
 70
     1
102
RTVSPropertyOp16
 70
     1
102
RTVSPropertyOp17
 70
     1
102
RTVSPropertyOp18
 70
     1
102
RTVSPropertyOp19
 70
     1
102
RTVSPropertyOp20
 70
     1
102
RTVSPropertyOp21
 70
     1
102
RTVSPropertyOp22
 70
     1
102
RTVSPropertyOp23
 70
     1
102
RTVSPropertyOp24
 70
     1
102
RTVSPropertyOp25
 70
     1
102
RTVSPropertyOp26
 70
     1
102
RTVSPropertyOp27
 70
     1
102
RTVSPropertyOp28
 70
     1
102
RTVSPropertyOp29
 70
     1
102
RTVSPropertyOp30
 70
     1
102
RTVSPropertyOp31
 70
     1
102
RTVSPropertyOp32
 70
     1
102
RTVSPropertyOp33
 70
     1
102
RTVSPropertyOp34
 70
     1
102
RTVSPropertyOp35
 70
     1
102
RTVSPropertyOp36
 70
     1
102
RTVSPropertyOp37
 70
     1
102
RTVSPropertyOp38
 70
     1
102
RTVSPropertyOp39
 70
     1
102
RTVSPropertyOp40
 70
     1
102
RTVSPropertyOp41
 70
     1
102
RTVSPropertyOp42
 70
     1
102
RTVSPropertyOp43
 70
     1
102
RTVSPropertyOp44
 70
     1
102
RTVSPropertyOp45
 70
     1
102
RTVSPropertyOp46
 70
     1
102
RTVSPropertyOp47
 70
     1
102
RTVSPropertyOp48
 70
     1
102
RTVSPropertyOp49
 70
     1
102
RTVSPropertyOp50
 70
     1
102
RTVSPropertyOp51
 70
     0
102
RTVSPropertyOp52
 70
     0
102
RTVSPropertyOp53
 70
     1
102
RTVSPropertyOp54
 70
     1
102
RTVSPropertyOp55
 70
     1
102
RTVSPropertyOp56
 70
     1
102
RTVSPropertyOp57
 70
     1
102
RTVSPost2010Prop28
280
     0
102
RTVSPost2010PropOp28
 70
     1
102
RTVSPost2010Prop29
280
     1
102
RTVSPost2010PropOp29
 70
     1
102
RTVSPost2010Prop30
280
     1
102
RTVSPost2010PropOp30
 70
     1
102
RTVSPost2010Prop31
280
     0
102
RTVSPost2010PropOp31
 70
     1
102
RTVSPost2010Prop32
280
     0
102
RTVSPost2010PropOp32
 70
     1
102
RTVSPost2010Prop33
280
     0
102
RTVSPost2010PropOp33
 70
     1
102
RTVSPost2010Prop34
280
     0
102
RTVSPost2010PropOp34
 70
     1
102
RTVSPost2010Prop35
280
     0
102
RTVSPost2010PropOp35
 70
     1
102
RTVSPost2010Prop36
280
     0
102
RTVSPost2010PropOp36
 70
     1
102
RTVSPost2010Prop37
 90
       50
102
RTVSPost2010PropOp37
 70
     1
102
RTVSPost2010Prop38
140
0.0
102
RTVSPost2010PropOp38
 70
     1
102
RTVSPost2010Prop39
140
1.0
102
RTVSPost2010PropOp39
 70
     1
102
RTVSPost2010Prop40
 90
        0
102
RTVSPost2010PropOp40
 70
     1
102
RTVSPost2010Prop41ColorIndex
 90
       18
102
RTVSPost2010Prop41ColorRGB
 90
        0
102
RTVSPost2010PropOp41
 70
     1
102
RTVSPost2010Prop42
 90
       50
102
RTVSPost2010PropOp42
 70
     1
102
RTVSPost2010Prop43
 90
        3
102
RTVSPost2010PropOp43
 70
     1
102
RTVSPost2010Prop44ColorIndex
 90
        5
102
RTVSPost2010Prop44ColorRGB
 90
      255
102
RTVSPost2010PropOp44
 70
     1
102
RTVSPost2010Prop45
280
     0
102
RTVSPost2010PropOp45
 70
     1
102
RTVSPost2010Prop46
 90
       50
102
RTVSPost2010PropOp46
 70
     1
102
RTVSPost2010Prop47
 90
       50
102
RTVSPost2010PropOp47
 70
     1
102
RTVSPost2010Prop48
 90
       50
102
RTVSPost2010PropOp48
 70
     1
102
RTVSPost2010Prop49
280
     0
102
RTVSPost2010PropOp49
 70
     1
102
RTVSPost2010Prop50
 90
       50
102
RTVSPost2010PropOp50
 70
     1
102
RTVSPost2010Prop51ColorIndex
 90
      256
102
RTVSPost2010Prop51ColorRGB
 90
-16777216
102
RTVSPost2010PropOp51
 70
     0
102
RTVSPost2010Prop52
140
1.0
102
RTVSPost2010PropOp52
 70
     0
102
RTVSPost2010Prop53
 90
        2
102
RTVSPost2010PropOp53
 70
     1
102
RTVSPost2010Prop54
  1
strokes_ogs.tif
102
RTVSPost2010PropOp54
 70
     1
102
RTVSPost2010Prop55
280
     0
102
RTVSPost2010PropOp55
 70
     1
102
RTVSPost2010Prop56
140
1.0
102
RTVSPost2010PropOp56
 70
     1
102
RTVSPost2010Prop57
140
1.0
102
RTVSPost2010PropOp57
 70
     1
  0
XRECORD
  5
33A
102
{ACAD_REACTORS
330
339
102
}
330
339
100
AcDbXrecord
280
     1
102
RTVSPropertyOp0
 70
     1
102
RTVSPropertyOp1
 70
     1
102
RTVSPropertyOp2
 70
     1
102
RTVSPropertyOp3
 70
     1
102
RTVSPropertyOp4
 70
     1
102
RTVSPropertyOp5
 70
     1
102
RTVSPropertyOp6
 70
     1
102
RTVSPropertyOp7
 70
     1
102
RTVSPropertyOp8
 70
     1
102
RTVSPropertyOp9
 70
     1
102
RTVSPropertyOp10
 70
     1
102
RTVSPropertyOp11
 70
     1
102
RTVSPropertyOp12
 70
     1
102
RTVSPropertyOp13
 70
     1
102
RTVSPropertyOp14
 70
     1
102
RTVSPropertyOp15
 70
     1
102
RTVSPropertyOp16
 70
     1
102
RTVSPropertyOp17
 70
     1
102
RTVSPropertyOp18
 70
     1
102
RTVSPropertyOp19
 70
     1
102
RTVSPropertyOp20
 70
     1
102
RTVSPropertyOp21
 70
     1
102
RTVSPropertyOp22
 70
     1
102
RTVSPropertyOp23
 70
     1
102
RTVSPropertyOp24
 70
     1
102
RTVSPropertyOp25
 70
     1
102
RTVSPropertyOp26
 70
     1
102
RTVSPropertyOp27
 70
     1
102
RTVSPropertyOp28
 70
     1
102
RTVSPropertyOp29
 70
     1
102
RTVSPropertyOp30
 70
     1
102
RTVSPropertyOp31
 70
     1
102
RTVSPropertyOp32
 70
     1
102
RTVSPropertyOp33
 70
     1
102
RTVSPropertyOp34
 70
     1
102
RTVSPropertyOp35
 70
     1
102
RTVSPropertyOp36
 70
     1
102
RTVSPropertyOp37
 70
     1
102
RTVSPropertyOp38
 70
     1
102
RTVSPropertyOp39
 70
     1
102
RTVSPropertyOp40
 70
     1
102
RTVSPropertyOp41
 70
     1
102
RTVSPropertyOp42
 70
     1
102
RTVSPropertyOp43
 70
     1
102
RTVSPropertyOp44
 70
     1
102
RTVSPropertyOp45
 70
     1
102
RTVSPropertyOp46
 70
     1
102
RTVSPropertyOp47
 70
     1
102
RTVSPropertyOp48
 70
     1
102
RTVSPropertyOp49
 70
     1
102
RTVSPropertyOp50
 70
     1
102
RTVSPropertyOp51
 70
     0
102
RTVSPropertyOp52
 70
     0
102
RTVSPropertyOp53
 70
     1
102
RTVSPropertyOp54
 70
     1
102
RTVSPropertyOp55
 70
     1
102
RTVSPropertyOp56
 70
     1
102
RTVSPropertyOp57
 70
     1
102
RTVSPost2010Prop28
280
     0
102
RTVSPost2010PropOp28
 70
     1
102
RTVSPost2010Prop29
280
     1
102
RTVSPost2010PropOp29
 70
     1
102
RTVSPost2010Prop30
280
     1
102
RTVSPost2010PropOp30
 70
     1
102
RTVSPost2010Prop31
280
     0
102
RTVSPost2010PropOp31
 70
     1
102
RTVSPost2010Prop32
280
     0
102
RTVSPost2010PropOp32
 70
     1
102
RTVSPost2010Prop33
280
     0
102
RTVSPost2010PropOp33
 70
     1
102
RTVSPost2010Prop34
280
     0
102
RTVSPost2010PropOp34
 70
     1
102
RTVSPost2010Prop35
280
     0
102
RTVSPost2010PropOp35
 70
     1
102
RTVSPost2010Prop36
280
     0
102
RTVSPost2010PropOp36
 70
     1
102
RTVSPost2010Prop37
 90
       50
102
RTVSPost2010PropOp37
 70
     1
102
RTVSPost2010Prop38
140
0.0
102
RTVSPost2010PropOp38
 70
     1
102
RTVSPost2010Prop39
140
1.0
102
RTVSPost2010PropOp39
 70
     1
102
RTVSPost2010Prop40
 90
        0
102
RTVSPost2010PropOp40
 70
     1
102
RTVSPost2010Prop41ColorIndex
 90
       18
102
RTVSPost2010Prop41ColorRGB
 90
        0
102
RTVSPost2010PropOp41
 70
     1
102
RTVSPost2010Prop42
 90
       50
102
RTVSPost2010PropOp42
 70
     1
102
RTVSPost2010Prop43
 90
        3
102
RTVSPost2010PropOp43
 70
     1
102
RTVSPost2010Prop44ColorIndex
 90
        5
102
RTVSPost2010Prop44ColorRGB
 90
      255
102
RTVSPost2010PropOp44
 70
     1
102
RTVSPost2010Prop45
280
     0
102
RTVSPost2010PropOp45
 70
     1
102
RTVSPost2010Prop46
 90
       50
102
RTVSPost2010PropOp46
 70
     1
102
RTVSPost2010Prop47
 90
       50
102
RTVSPost2010PropOp47
 70
     1
102
RTVSPost2010Prop48
 90
       50
102
RTVSPost2010PropOp48
 70
     1
102
RTVSPost2010Prop49
280
     0
102
RTVSPost2010PropOp49
 70
     1
102
RTVSPost2010Prop50
 90
       50
102
RTVSPost2010PropOp50
 70
     1
102
RTVSPost2010Prop51ColorIndex
 90
      256
102
RTVSPost2010Prop51ColorRGB
 90
-16777216
102
RTVSPost2010PropOp51
 70
     0
102
RTVSPost2010Prop52
140
1.0
102
RTVSPost2010PropOp52
 70
     0
102
RTVSPost2010Prop53
 90
        2
102
RTVSPost2010PropOp53
 70
     1
102
RTVSPost2010Prop54
  1
strokes_ogs.tif
102
RTVSPost2010PropOp54
 70
     1
102
RTVSPost2010Prop55
280
     0
102
RTVSPost2010PropOp55
 70
     1
102
RTVSPost2010Prop56
140
1.0
102
RTVSPost2010PropOp56
 70
     1
102
RTVSPost2010Prop57
140
1.0
102
RTVSPost2010PropOp57
 70
     1
  0
XRECORD
  5
33C
102
{ACAD_REACTORS
330
33B
102
}
330
33B
100
AcDbXrecord
280
     1
102
RTVSPropertyOp0
 70
     1
102
RTVSPropertyOp1
 70
     1
102
RTVSPropertyOp2
 70
     1
102
RTVSPropertyOp3
 70
     1
102
RTVSPropertyOp4
 70
     1
102
RTVSPropertyOp5
 70
     1
102
RTVSPropertyOp6
 70
     1
102
RTVSPropertyOp7
 70
     1
102
RTVSPropertyOp8
 70
     1
102
RTVSPropertyOp9
 70
     1
102
RTVSPropertyOp10
 70
     1
102
RTVSPropertyOp11
 70
     1
102
RTVSPropertyOp12
 70
     1
102
RTVSPropertyOp13
 70
     1
102
RTVSPropertyOp14
 70
     1
102
RTVSPropertyOp15
 70
     1
102
RTVSPropertyOp16
 70
     1
102
RTVSPropertyOp17
 70
     1
102
RTVSPropertyOp18
 70
     1
102
RTVSPropertyOp19
 70
     1
102
RTVSPropertyOp20
 70
     1
102
RTVSPropertyOp21
 70
     1
102
RTVSPropertyOp22
 70
     1
102
RTVSPropertyOp23
 70
     1
102
RTVSPropertyOp24
 70
     1
102
RTVSPropertyOp25
 70
     1
102
RTVSPropertyOp26
 70
     1
102
RTVSPropertyOp27
 70
     1
102
RTVSPropertyOp28
 70
     1
102
RTVSPropertyOp29
 70
     1
102
RTVSPropertyOp30
 70
     1
102
RTVSPropertyOp31
 70
     1
102
RTVSPropertyOp32
 70
     1
102
RTVSPropertyOp33
 70
     1
102
RTVSPropertyOp34
 70
     1
102
RTVSPropertyOp35
 70
     1
102
RTVSPropertyOp36
 70
     1
102
RTVSPropertyOp37
 70
     1
102
RTVSPropertyOp38
 70
     1
102
RTVSPropertyOp39
 70
     1
102
RTVSPropertyOp40
 70
     1
102
RTVSPropertyOp41
 70
     1
102
RTVSPropertyOp42
 70
     1
102
RTVSPropertyOp43
 70
     1
102
RTVSPropertyOp44
 70
     1
102
RTVSPropertyOp45
 70
     1
102
RTVSPropertyOp46
 70
     1
102
RTVSPropertyOp47
 70
     1
102
RTVSPropertyOp48
 70
     1
102
RTVSPropertyOp49
 70
     1
102
RTVSPropertyOp50
 70
     1
102
RTVSPropertyOp51
 70
     0
102
RTVSPropertyOp52
 70
     0
102
RTVSPropertyOp53
 70
     1
102
RTVSPropertyOp54
 70
     1
102
RTVSPropertyOp55
 70
     1
102
RTVSPropertyOp56
 70
     1
102
RTVSPropertyOp57
 70
     1
102
RTVSPost2010Prop28
280
     0
102
RTVSPost2010PropOp28
 70
     1
102
RTVSPost2010Prop29
280
     1
102
RTVSPost2010PropOp29
 70
     1
102
RTVSPost2010Prop30
280
     1
102
RTVSPost2010PropOp30
 70
     1
102
RTVSPost2010Prop31
280
     0
102
RTVSPost2010PropOp31
 70
     1
102
RTVSPost2010Prop32
280
     0
102
RTVSPost2010PropOp32
 70
     1
102
RTVSPost2010Prop33
280
     0
102
RTVSPost2010PropOp33
 70
     1
102
RTVSPost2010Prop34
280
     0
102
RTVSPost2010PropOp34
 70
     1
102
RTVSPost2010Prop35
280
     0
102
RTVSPost2010PropOp35
 70
     1
102
RTVSPost2010Prop36
280
     0
102
RTVSPost2010PropOp36
 70
     1
102
RTVSPost2010Prop37
 90
       50
102
RTVSPost2010PropOp37
 70
     1
102
RTVSPost2010Prop38
140
0.0
102
RTVSPost2010PropOp38
 70
     1
102
RTVSPost2010Prop39
140
1.0
102
RTVSPost2010PropOp39
 70
     1
102
RTVSPost2010Prop40
 90
        0
102
RTVSPost2010PropOp40
 70
     1
102
RTVSPost2010Prop41ColorIndex
 90
       18
102
RTVSPost2010Prop41ColorRGB
 90
        0
102
RTVSPost2010PropOp41
 70
     1
102
RTVSPost2010Prop42
 90
       50
102
RTVSPost2010PropOp42
 70
     1
102
RTVSPost2010Prop43
 90
        3
102
RTVSPost2010PropOp43
 70
     1
102
RTVSPost2010Prop44ColorIndex
 90
        5
102
RTVSPost2010Prop44ColorRGB
 90
      255
102
RTVSPost2010PropOp44
 70
     1
102
RTVSPost2010Prop45
280
     0
102
RTVSPost2010PropOp45
 70
     1
102
RTVSPost2010Prop46
 90
       50
102
RTVSPost2010PropOp46
 70
     1
102
RTVSPost2010Prop47
 90
       50
102
RTVSPost2010PropOp47
 70
     1
102
RTVSPost2010Prop48
 90
       50
102
RTVSPost2010PropOp48
 70
     1
102
RTVSPost2010Prop49
280
     0
102
RTVSPost2010PropOp49
 70
     1
102
RTVSPost2010Prop50
 90
       50
102
RTVSPost2010PropOp50
 70
     1
102
RTVSPost2010Prop51ColorIndex
 90
      256
102
RTVSPost2010Prop51ColorRGB
 90
-16777216
102
RTVSPost2010PropOp51
 70
     0
102
RTVSPost2010Prop52
140
1.0
102
RTVSPost2010PropOp52
 70
     0
102
RTVSPost2010Prop53
 90
        2
102
RTVSPost2010PropOp53
 70
     1
102
RTVSPost2010Prop54
  1
strokes_ogs.tif
102
RTVSPost2010PropOp54
 70
     1
102
RTVSPost2010Prop55
280
     0
102
RTVSPost2010PropOp55
 70
     1
102
RTVSPost2010Prop56
140
1.0
102
RTVSPost2010PropOp56
 70
     1
102
RTVSPost2010Prop57
140
1.0
102
RTVSPost2010PropOp57
 70
     1
  0
XRECORD
  5
32C
102
{ACAD_REACTORS
330
32B
102
}
330
32B
100
AcDbXrecord
280
     1
102
RTVSPropertyOp0
 70
     1
102
RTVSPropertyOp1
 70
     1
102
RTVSPropertyOp2
 70
     1
102
RTVSPropertyOp3
 70
     1
102
RTVSPropertyOp4
 70
     1
102
RTVSPropertyOp5
 70
     1
102
RTVSPropertyOp6
 70
     1
102
RTVSPropertyOp7
 70
     1
102
RTVSPropertyOp8
 70
     1
102
RTVSPropertyOp9
 70
     1
102
RTVSPropertyOp10
 70
     1
102
RTVSPropertyOp11
 70
     1
102
RTVSPropertyOp12
 70
     1
102
RTVSPropertyOp13
 70
     1
102
RTVSPropertyOp14
 70
     1
102
RTVSPropertyOp15
 70
     1
102
RTVSPropertyOp16
 70
     1
102
RTVSPropertyOp17
 70
     1
102
RTVSPropertyOp18
 70
     1
102
RTVSPropertyOp19
 70
     1
102
RTVSPropertyOp20
 70
     1
102
RTVSPropertyOp21
 70
     1
102
RTVSPropertyOp22
 70
     1
102
RTVSPropertyOp23
 70
     1
102
RTVSPropertyOp24
 70
     1
102
RTVSPropertyOp25
 70
     1
102
RTVSPropertyOp26
 70
     1
102
RTVSPropertyOp27
 70
     1
102
RTVSPropertyOp28
 70
     1
102
RTVSPropertyOp29
 70
     1
102
RTVSPropertyOp30
 70
     1
102
RTVSPropertyOp31
 70
     1
102
RTVSPropertyOp32
 70
     1
102
RTVSPropertyOp33
 70
     1
102
RTVSPropertyOp34
 70
     1
102
RTVSPropertyOp35
 70
     1
102
RTVSPropertyOp36
 70
     1
102
RTVSPropertyOp37
 70
     1
102
RTVSPropertyOp38
 70
     1
102
RTVSPropertyOp39
 70
     1
102
RTVSPropertyOp40
 70
     1
102
RTVSPropertyOp41
 70
     1
102
RTVSPropertyOp42
 70
     1
102
RTVSPropertyOp43
 70
     1
102
RTVSPropertyOp44
 70
     1
102
RTVSPropertyOp45
 70
     1
102
RTVSPropertyOp46
 70
     1
102
RTVSPropertyOp47
 70
     1
102
RTVSPropertyOp48
 70
     1
102
RTVSPropertyOp49
 70
     1
102
RTVSPropertyOp50
 70
     1
102
RTVSPropertyOp51
 70
     0
102
RTVSPropertyOp52
 70
     0
102
RTVSPropertyOp53
 70
     1
102
RTVSPropertyOp54
 70
     1
102
RTVSPropertyOp55
 70
     1
102
RTVSPropertyOp56
 70
     1
102
RTVSPropertyOp57
 70
     1
102
RTVSPost2010Prop28
280
     0
102
RTVSPost2010PropOp28
 70
     1
102
RTVSPost2010Prop29
280
     1
102
RTVSPost2010PropOp29
 70
     1
102
RTVSPost2010Prop30
280
     1
102
RTVSPost2010PropOp30
 70
     1
102
RTVSPost2010Prop31
280
     0
102
RTVSPost2010PropOp31
 70
     1
102
RTVSPost2010Prop32
280
     0
102
RTVSPost2010PropOp32
 70
     1
102
RTVSPost2010Prop33
280
     0
102
RTVSPost2010PropOp33
 70
     1
102
RTVSPost2010Prop34
280
     0
102
RTVSPost2010PropOp34
 70
     1
102
RTVSPost2010Prop35
280
     0
102
RTVSPost2010PropOp35
 70
     1
102
RTVSPost2010Prop36
280
     0
102
RTVSPost2010PropOp36
 70
     1
102
RTVSPost2010Prop37
 90
       50
102
RTVSPost2010PropOp37
 70
     1
102
RTVSPost2010Prop38
140
0.0
102
RTVSPost2010PropOp38
 70
     1
102
RTVSPost2010Prop39
140
1.0
102
RTVSPost2010PropOp39
 70
     1
102
RTVSPost2010Prop40
 90
        0
102
RTVSPost2010PropOp40
 70
     1
102
RTVSPost2010Prop41ColorIndex
 90
       18
102
RTVSPost2010Prop41ColorRGB
 90
        0
102
RTVSPost2010PropOp41
 70
     1
102
RTVSPost2010Prop42
 90
       50
102
RTVSPost2010PropOp42
 70
     1
102
RTVSPost2010Prop43
 90
        3
102
RTVSPost2010PropOp43
 70
     1
102
RTVSPost2010Prop44ColorIndex
 90
        5
102
RTVSPost2010Prop44ColorRGB
 90
      255
102
RTVSPost2010PropOp44
 70
     1
102
RTVSPost2010Prop45
280
     0
102
RTVSPost2010PropOp45
 70
     1
102
RTVSPost2010Prop46
 90
       50
102
RTVSPost2010PropOp46
 70
     1
102
RTVSPost2010Prop47
 90
       50
102
RTVSPost2010PropOp47
 70
     1
102
RTVSPost2010Prop48
 90
       50
102
RTVSPost2010PropOp48
 70
     1
102
RTVSPost2010Prop49
280
     0
102
RTVSPost2010PropOp49
 70
     1
102
RTVSPost2010Prop50
 90
       50
102
RTVSPost2010PropOp50
 70
     1
102
RTVSPost2010Prop51ColorIndex
 90
      256
102
RTVSPost2010Prop51ColorRGB
 90
-16777216
102
RTVSPost2010PropOp51
 70
     0
102
RTVSPost2010Prop52
140
1.0
102
RTVSPost2010PropOp52
 70
     0
102
RTVSPost2010Prop53
 90
        2
102
RTVSPost2010PropOp53
 70
     1
102
RTVSPost2010Prop54
  1
strokes_ogs.tif
102
RTVSPost2010PropOp54
 70
     1
102
RTVSPost2010Prop55
280
     0
102
RTVSPost2010PropOp55
 70
     1
102
RTVSPost2010Prop56
140
1.0
102
RTVSPost2010PropOp56
 70
     1
102
RTVSPost2010Prop57
140
1.0
102
RTVSPost2010PropOp57
 70
     1
  0
XRECORD
  5
31E
102
{ACAD_REACTORS
330
31D
102
}
330
31D
100
AcDbXrecord
280
     1
102
RTVSPropertyOp0
 70
     1
102
RTVSPropertyOp1
 70
     1
102
RTVSPropertyOp2
 70
     1
102
RTVSPropertyOp3
 70
     1
102
RTVSPropertyOp4
 70
     1
102
RTVSPropertyOp5
 70
     1
102
RTVSPropertyOp6
 70
     1
102
RTVSPropertyOp7
 70
     1
102
RTVSPropertyOp8
 70
     1
102
RTVSPropertyOp9
 70
     1
102
RTVSPropertyOp10
 70
     1
102
RTVSPropertyOp11
 70
     1
102
RTVSPropertyOp12
 70
     1
102
RTVSPropertyOp13
 70
     1
102
RTVSPropertyOp14
 70
     1
102
RTVSPropertyOp15
 70
     1
102
RTVSPropertyOp16
 70
     1
102
RTVSPropertyOp17
 70
     1
102
RTVSPropertyOp18
 70
     1
102
RTVSPropertyOp19
 70
     1
102
RTVSPropertyOp20
 70
     1
102
RTVSPropertyOp21
 70
     1
102
RTVSPropertyOp22
 70
     1
102
RTVSPropertyOp23
 70
     1
102
RTVSPropertyOp24
 70
     1
102
RTVSPropertyOp25
 70
     1
102
RTVSPropertyOp26
 70
     1
102
RTVSPropertyOp27
 70
     1
102
RTVSPropertyOp28
 70
     1
102
RTVSPropertyOp29
 70
     1
102
RTVSPropertyOp30
 70
     1
102
RTVSPropertyOp31
 70
     1
102
RTVSPropertyOp32
 70
     1
102
RTVSPropertyOp33
 70
     1
102
RTVSPropertyOp34
 70
     1
102
RTVSPropertyOp35
 70
     1
102
RTVSPropertyOp36
 70
     1
102
RTVSPropertyOp37
 70
     1
102
RTVSPropertyOp38
 70
     1
102
RTVSPropertyOp39
 70
     1
102
RTVSPropertyOp40
 70
     1
102
RTVSPropertyOp41
 70
     1
102
RTVSPropertyOp42
 70
     1
102
RTVSPropertyOp43
 70
     1
102
RTVSPropertyOp44
 70
     1
102
RTVSPropertyOp45
 70
     1
102
RTVSPropertyOp46
 70
     1
102
RTVSPropertyOp47
 70
     1
102
RTVSPropertyOp48
 70
     1
102
RTVSPropertyOp49
 70
     1
102
RTVSPropertyOp50
 70
     1
102
RTVSPropertyOp51
 70
     0
102
RTVSPropertyOp52
 70
     0
102
RTVSPropertyOp53
 70
     1
102
RTVSPropertyOp54
 70
     1
102
RTVSPropertyOp55
 70
     1
102
RTVSPropertyOp56
 70
     1
102
RTVSPropertyOp57
 70
     1
102
RTVSPost2010Prop28
280
     0
102
RTVSPost2010PropOp28
 70
     1
102
RTVSPost2010Prop29
280
     1
102
RTVSPost2010PropOp29
 70
     1
102
RTVSPost2010Prop30
280
     1
102
RTVSPost2010PropOp30
 70
     1
102
RTVSPost2010Prop31
280
     0
102
RTVSPost2010PropOp31
 70
     1
102
RTVSPost2010Prop32
280
     0
102
RTVSPost2010PropOp32
 70
     1
102
RTVSPost2010Prop33
280
     0
102
RTVSPost2010PropOp33
 70
     1
102
RTVSPost2010Prop34
280
     0
102
RTVSPost2010PropOp34
 70
     1
102
RTVSPost2010Prop35
280
     0
102
RTVSPost2010PropOp35
 70
     1
102
RTVSPost2010Prop36
280
     0
102
RTVSPost2010PropOp36
 70
     1
102
RTVSPost2010Prop37
 90
       50
102
RTVSPost2010PropOp37
 70
     1
102
RTVSPost2010Prop38
140
0.0
102
RTVSPost2010PropOp38
 70
     1
102
RTVSPost2010Prop39
140
1.0
102
RTVSPost2010PropOp39
 70
     1
102
RTVSPost2010Prop40
 90
        0
102
RTVSPost2010PropOp40
 70
     1
102
RTVSPost2010Prop41ColorIndex
 90
       18
102
RTVSPost2010Prop41ColorRGB
 90
        0
102
RTVSPost2010PropOp41
 70
     1
102
RTVSPost2010Prop42
 90
       50
102
RTVSPost2010PropOp42
 70
     1
102
RTVSPost2010Prop43
 90
        3
102
RTVSPost2010PropOp43
 70
     1
102
RTVSPost2010Prop44ColorIndex
 90
        5
102
RTVSPost2010Prop44ColorRGB
 90
      255
102
RTVSPost2010PropOp44
 70
     1
102
RTVSPost2010Prop45
280
     0
102
RTVSPost2010PropOp45
 70
     1
102
RTVSPost2010Prop46
 90
       50
102
RTVSPost2010PropOp46
 70
     1
102
RTVSPost2010Prop47
 90
       50
102
RTVSPost2010PropOp47
 70
     1
102
RTVSPost2010Prop48
 90
       50
102
RTVSPost2010PropOp48
 70
     1
102
RTVSPost2010Prop49
280
     0
102
RTVSPost2010PropOp49
 70
     1
102
RTVSPost2010Prop50
 90
       50
102
RTVSPost2010PropOp50
 70
     1
102
RTVSPost2010Prop51ColorIndex
 90
      256
102
RTVSPost2010Prop51ColorRGB
 90
-16777216
102
RTVSPost2010PropOp51
 70
     0
102
RTVSPost2010Prop52
140
1.0
102
RTVSPost2010PropOp52
 70
     0
102
RTVSPost2010Prop53
 90
        2
102
RTVSPost2010PropOp53
 70
     1
102
RTVSPost2010Prop54
  1
strokes_ogs.tif
102
RTVSPost2010PropOp54
 70
     1
102
RTVSPost2010Prop55
280
     0
102
RTVSPost2010PropOp55
 70
     1
102
RTVSPost2010Prop56
140
1.0
102
RTVSPost2010PropOp56
 70
     1
102
RTVSPost2010Prop57
140
1.0
102
RTVSPost2010PropOp57
 70
     1
  0
XRECORD
  5
33E
102
{ACAD_REACTORS
330
33D
102
}
330
33D
100
AcDbXrecord
280
     1
102
RTVSPropertyOp0
 70
     1
102
RTVSPropertyOp1
 70
     1
102
RTVSPropertyOp2
 70
     1
102
RTVSPropertyOp3
 70
     1
102
RTVSPropertyOp4
 70
     1
102
RTVSPropertyOp5
 70
     1
102
RTVSPropertyOp6
 70
     1
102
RTVSPropertyOp7
 70
     1
102
RTVSPropertyOp8
 70
     1
102
RTVSPropertyOp9
 70
     1
102
RTVSPropertyOp10
 70
     1
102
RTVSPropertyOp11
 70
     1
102
RTVSPropertyOp12
 70
     1
102
RTVSPropertyOp13
 70
     1
102
RTVSPropertyOp14
 70
     1
102
RTVSPropertyOp15
 70
     1
102
RTVSPropertyOp16
 70
     1
102
RTVSPropertyOp17
 70
     1
102
RTVSPropertyOp18
 70
     1
102
RTVSPropertyOp19
 70
     1
102
RTVSPropertyOp20
 70
     1
102
RTVSPropertyOp21
 70
     1
102
RTVSPropertyOp22
 70
     1
102
RTVSPropertyOp23
 70
     1
102
RTVSPropertyOp24
 70
     1
102
RTVSPropertyOp25
 70
     1
102
RTVSPropertyOp26
 70
     1
102
RTVSPropertyOp27
 70
     1
102
RTVSPropertyOp28
 70
     1
102
RTVSPropertyOp29
 70
     1
102
RTVSPropertyOp30
 70
     1
102
RTVSPropertyOp31
 70
     1
102
RTVSPropertyOp32
 70
     1
102
RTVSPropertyOp33
 70
     1
102
RTVSPropertyOp34
 70
     1
102
RTVSPropertyOp35
 70
     1
102
RTVSPropertyOp36
 70
     1
102
RTVSPropertyOp37
 70
     1
102
RTVSPropertyOp38
 70
     1
102
RTVSPropertyOp39
 70
     1
102
RTVSPropertyOp40
 70
     1
102
RTVSPropertyOp41
 70
     1
102
RTVSPropertyOp42
 70
     1
102
RTVSPropertyOp43
 70
     1
102
RTVSPropertyOp44
 70
     1
102
RTVSPropertyOp45
 70
     1
102
RTVSPropertyOp46
 70
     1
102
RTVSPropertyOp47
 70
     1
102
RTVSPropertyOp48
 70
     1
102
RTVSPropertyOp49
 70
     1
102
RTVSPropertyOp50
 70
     1
102
RTVSPropertyOp51
 70
     0
102
RTVSPropertyOp52
 70
     0
102
RTVSPropertyOp53
 70
     1
102
RTVSPropertyOp54
 70
     1
102
RTVSPropertyOp55
 70
     1
102
RTVSPropertyOp56
 70
     1
102
RTVSPropertyOp57
 70
     1
102
RTVSPost2010Prop28
280
     0
102
RTVSPost2010PropOp28
 70
     1
102
RTVSPost2010Prop29
280
     1
102
RTVSPost2010PropOp29
 70
     1
102
RTVSPost2010Prop30
280
     1
102
RTVSPost2010PropOp30
 70
     1
102
RTVSPost2010Prop31
280
     0
102
RTVSPost2010PropOp31
 70
     1
102
RTVSPost2010Prop32
280
     0
102
RTVSPost2010PropOp32
 70
     1
102
RTVSPost2010Prop33
280
     0
102
RTVSPost2010PropOp33
 70
     1
102
RTVSPost2010Prop34
280
     0
102
RTVSPost2010PropOp34
 70
     1
102
RTVSPost2010Prop35
280
     0
102
RTVSPost2010PropOp35
 70
     1
102
RTVSPost2010Prop36
280
     0
102
RTVSPost2010PropOp36
 70
     1
102
RTVSPost2010Prop37
 90
       50
102
RTVSPost2010PropOp37
 70
     1
102
RTVSPost2010Prop38
140
0.0
102
RTVSPost2010PropOp38
 70
     1
102
RTVSPost2010Prop39
140
1.0
102
RTVSPost2010PropOp39
 70
     1
102
RTVSPost2010Prop40
 90
        0
102
RTVSPost2010PropOp40
 70
     1
102
RTVSPost2010Prop41ColorIndex
 90
       18
102
RTVSPost2010Prop41ColorRGB
 90
        0
102
RTVSPost2010PropOp41
 70
     1
102
RTVSPost2010Prop42
 90
       50
102
RTVSPost2010PropOp42
 70
     1
102
RTVSPost2010Prop43
 90
        3
102
RTVSPost2010PropOp43
 70
     1
102
RTVSPost2010Prop44ColorIndex
 90
        5
102
RTVSPost2010Prop44ColorRGB
 90
      255
102
RTVSPost2010PropOp44
 70
     1
102
RTVSPost2010Prop45
280
     0
102
RTVSPost2010PropOp45
 70
     1
102
RTVSPost2010Prop46
 90
       50
102
RTVSPost2010PropOp46
 70
     1
102
RTVSPost2010Prop47
 90
       50
102
RTVSPost2010PropOp47
 70
     1
102
RTVSPost2010Prop48
 90
       50
102
RTVSPost2010PropOp48
 70
     1
102
RTVSPost2010Prop49
280
     0
102
RTVSPost2010PropOp49
 70
     1
102
RTVSPost2010Prop50
 90
       50
102
RTVSPost2010PropOp50
 70
     1
102
RTVSPost2010Prop51ColorIndex
 90
      256
102
RTVSPost2010Prop51ColorRGB
 90
-16777216
102
RTVSPost2010PropOp51
 70
     0
102
RTVSPost2010Prop52
140
1.0
102
RTVSPost2010PropOp52
 70
     0
102
RTVSPost2010Prop53
 90
        2
102
RTVSPost2010PropOp53
 70
     1
102
RTVSPost2010Prop54
  1
strokes_ogs.tif
102
RTVSPost2010PropOp54
 70
     1
102
RTVSPost2010Prop55
280
     0
102
RTVSPost2010PropOp55
 70
     1
102
RTVSPost2010Prop56
140
1.0
102
RTVSPost2010PropOp56
 70
     1
102
RTVSPost2010Prop57
140
1.0
102
RTVSPost2010PropOp57
 70
     1
  0
ENDSEC
  0
EOF
