  0
SECTION
  2
HEADER
  9
$ACADVER
  1
AC1018
  9
$ACADMAINTVER
 70
     0
  9
$DWGCODEPAGE
  3
ANSI_932
  9
$INSBASE
 10
0.0
 20
0.0
 30
0.0
  9
$EXTMIN
 10
-1050.0
 20
-742.5
 30
0.0
  9
$EXTMAX
 10
1050.0
 20
742.5
 30
0.0
  9
$LIMMIN
 10
-1050.0
 20
-742.5
  9
$LIMMAX
 10
1050.0
 20
742.5
  9
$ORTHOMODE
 70
     0
  9
$REGENMODE
 70
     1
  9
$FILLMODE
 70
     1
  9
$QTEXTMODE
 70
     0
  9
$MIRRTEXT
 70
     1
  9
$LTSCALE
 40
5.0
  9
$ATTMODE
 70
     1
  9
$TEXTSIZE
 40
2.5
  9
$TRACEWID
 40
1.0
  9
$TEXTSTYLE
  7
Standard
  9
$CLAYER
  8
0
  9
$CELTYPE
  6
ByLayer
  9
$CECOLOR
 62
   256
  9
$CELTSCALE
 40
1.0
  9
$DISPSILH
 70
     0
  9
$DIMSCALE
 40
1.0
  9
$DIMASZ
 40
2.5
  9
$DIMEXO
 40
0.625
  9
$DIMDLI
 40
3.75
  9
$DIMRND
 40
0.0
  9
$DIMDLE
 40
0.0
  9
$DIMEXE
 40
1.25
  9
$DIMTP
 40
0.0
  9
$DIMTM
 40
0.0
  9
$DIMTXT
 40
2.5
  9
$DIMCEN
 40
2.5
  9
$DIMTSZ
 40
0.0
  9
$DIMTOL
 70
     0
  9
$DIMLIM
 70
     0
  9
$DIMTIH
 70
     0
  9
$DIMTOH
 70
     0
  9
$DIMSE1
 70
     0
  9
$DIMSE2
 70
     0
  9
$DIMTAD
 70
     1
  9
$DIMZIN
 70
     8
  9
$DIMBLK
  1

  9
$DIMASO
 70
     1
  9
$DIMSHO
 70
     1
  9
$DIMPOST
  1

  9
$DIMAPOST
  1

  9
$DIMALT
 70
     0
  9
$DIMALTD
 70
     3
  9
$DIMALTF
 40
0.03937007874016
  9
$DIMLFAC
 40
1.0
  9
$DIMTOFL
 70
     1
  9
$DIMTVP
 40
0.0
  9
$DIMTIX
 70
     0
  9
$DIMSOXD
 70
     0
  9
$DIMSAH
 70
     0
  9
$DIMBLK1
  1

  9
$DIMBLK2
  1

  9
$DIMSTYLE
  2
ISO-25
  9
$DIMCLRD
 70
     0
  9
$DIMCLRE
 70
     0
  9
$DIMCLRT
 70
     0
  9
$DIMTFAC
 40
1.0
  9
$DIMGAP
 40
0.625
  9
$DIMJUST
 70
     0
  9
$DIMSD1
 70
     0
  9
$DIMSD2
 70
     0
  9
$DIMTOLJ
 70
     0
  9
$DIMTZIN
 70
     8
  9
$DIMALTZ
 70
     0
  9
$DIMALTTZ
 70
     0
  9
$DIMUPT
 70
     0
  9
$DIMDEC
 70
     2
  9
$DIMTDEC
 70
     2
  9
$DIMALTU
 70
     2
  9
$DIMALTTD
 70
     3
  9
$DIMTXSTY
  7
Standard
  9
$DIMAUNIT
 70
     0
  9
$DIMADEC
 70
     0
  9
$DIMALTRND
 40
0.0
  9
$DIMAZIN
 70
     0
  9
$DIMDSEP
 70
    44
  9
$DIMATFIT
 70
     3
  9
$DIMFRAC
 70
     0
  9
$DIMLDRBLK
  1

  9
$DIMLUNIT
 70
     2
  9
$DIMLWD
 70
    -2
  9
$DIMLWE
 70
    -2
  9
$DIMTMOVE
 70
     0
  9
$LUNITS
 70
     2
  9
$LUPREC
 70
     4
  9
$SKETCHINC
 40
1.0
  9
$FILLETRAD
 40
10.0
  9
$AUNITS
 70
     0
  9
$AUPREC
 70
     0
  9
$MENU
  1
.
  9
$ELEVATION
 40
0.0
  9
$PELEVATION
 40
0.0
  9
$THICKNESS
 40
0.0
  9
$LIMCHECK
 70
     0
  9
$CHAMFERA
 40
10.0
  9
$CHAMFERB
 40
10.0
  9
$CHAMFERC
 40
20.0
  9
$CHAMFERD
 40
0.0
  9
$SKPOLY
 70
     0
  9
$TDCREATE
 40
2456498.818754954
  9
$TDUCREATE
 40
2456498.443754954
  9
$TDUPDATE
 40
2456498.818754965
  9
$TDUUPDATE
 40
2456498.443754965
  9
$TDINDWG
 40
0.0000000116
  9
$TDUSRTIMER
 40
0.0000000116
  9
$USRTIMER
 70
     1
  9
$ANGBASE
 50
0.0
  9
$ANGDIR
 70
     0
  9
$PDMODE
 70
     0
  9
$PDSIZE
 40
0.0
  9
$PLINEWID
 40
0.0
  9
$SPLFRAME
 70
     0
  9
$SPLINETYPE
 70
     6
  9
$SPLINESEGS
 70
     8
  9
$HANDSEED
  5
157
  9
$SURFTAB1
 70
     6
  9
$SURFTAB2
 70
     6
  9
$SURFTYPE
 70
     6
  9
$SURFU
 70
     6
  9
$SURFV
 70
     6
  9
$UCSBASE
  2

  9
$UCSNAME
  2

  9
$UCSORG
 10
0.0
 20
0.0
 30
0.0
  9
$UCSXDIR
 10
1.0
 20
0.0
 30
0.0
  9
$UCSYDIR
 10
0.0
 20
1.0
 30
0.0
  9
$UCSORTHOREF
  2

  9
$UCSORTHOVIEW
 70
     0
  9
$UCSORGTOP
 10
0.0
 20
0.0
 30
0.0
  9
$UCSORGBOTTOM
 10
0.0
 20
0.0
 30
0.0
  9
$UCSORGLEFT
 10
0.0
 20
0.0
 30
0.0
  9
$UCSORGRIGHT
 10
0.0
 20
0.0
 30
0.0
  9
$UCSORGFRONT
 10
0.0
 20
0.0
 30
0.0
  9
$UCSORGBACK
 10
0.0
 20
0.0
 30
0.0
  9
$PUCSBASE
  2

  9
$PUCSNAME
  2

  9
$PUCSORG
 10
0.0
 20
0.0
 30
0.0
  9
$PUCSXDIR
 10
1.0
 20
0.0
 30
0.0
  9
$PUCSYDIR
 10
0.0
 20
1.0
 30
0.0
  9
$PUCSORTHOREF
  2

  9
$PUCSORTHOVIEW
 70
     0
  9
$PUCSORGTOP
 10
0.0
 20
0.0
 30
0.0
  9
$PUCSORGBOTTOM
 10
0.0
 20
0.0
 30
0.0
  9
$PUCSORGLEFT
 10
0.0
 20
0.0
 30
0.0
  9
$PUCSORGRIGHT
 10
0.0
 20
0.0
 30
0.0
  9
$PUCSORGFRONT
 10
0.0
 20
0.0
 30
0.0
  9
$PUCSORGBACK
 10
0.0
 20
0.0
 30
0.0
  9
$USERI1
 70
     0
  9
$USERI2
 70
     0
  9
$USERI3
 70
     0
  9
$USERI4
 70
     0
  9
$USERI5
 70
     0
  9
$USERR1
 40
0.0
  9
$USERR2
 40
0.0
  9
$USERR3
 40
0.0
  9
$USERR4
 40
0.0
  9
$USERR5
 40
0.0
  9
$WORLDVIEW
 70
     1
  9
$SHADEDGE
 70
     3
  9
$SHADEDIF
 70
    70
  9
$TILEMODE
 70
     1
  9
$MAXACTVP
 70
    64
  9
$PINSBASE
 10
0.0
 20
0.0
 30
0.0
  9
$PLIMCHECK
 70
     0
  9
$PEXTMIN
 10
1.000000000000000E+20
 20
1.000000000000000E+20
 30
1.000000000000000E+20
  9
$PEXTMAX
 10
-1.000000000000000E+20
 20
-1.000000000000000E+20
 30
-1.000000000000000E+20
  9
$PLIMMIN
 10
0.0
 20
0.0
  9
$PLIMMAX
 10
420.0
 20
297.0
  9
$UNITMODE
 70
     0
  9
$VISRETAIN
 70
     1
  9
$PLINEGEN
 70
     0
  9
$PSLTSCALE
 70
     1
  9
$TREEDEPTH
 70
  3020
  9
$CMLSTYLE
  2
Standard
  9
$CMLJUST
 70
     0
  9
$CMLSCALE
 40
20.0
  9
$PROXYGRAPHICS
 70
     1
  9
$MEASUREMENT
 70
     1
  9
$CELWEIGHT
370
    -1
  9
$ENDCAPS
280
     0
  9
$JOINSTYLE
280
     0
  9
$LWDISPLAY
290
     0
  9
$INSUNITS
 70
     4
  9
$HYPERLINKBASE
  1

  9
$STYLESHEET
  1

  9
$XEDIT
290
     1
  9
$CEPSNTYPE
380
     0
  9
$PSTYLEMODE
290
     1
  9
$FINGERPRINTGUID
  2
{BE0331FC-D6AB-490A-A49A-55B63C9AB197}
  9
$VERSIONGUID
  2
{FAEB1C32-E019-11D5-929B-00C0DF256EC4}
  9
$EXTNAMES
290
     1
  9
$PSVPSCALE
 40
0.0
  9
$OLESTARTUP
290
     0
  9
$SORTENTS
280
   127
  9
$INDEXCTL
280
     0
  9
$HIDETEXT
280
     1
  9
$XCLIPFRAME
290
     0
  9
$HALOGAP
280
     0
  9
$OBSCOLOR
 70
   257
  9
$OBSLTYPE
280
     0
  9
$INTERSECTIONDISPLAY
280
     0
  9
$INTERSECTIONCOLOR
 70
   257
  9
$DIMASSOC
280
     2
  9
$PROJECTNAME
  1

  0
ENDSEC
  0
SECTION
  2
CLASSES
  0
CLASS
  1
ACDBDICTIONARYWDFLT
  2
AcDbDictionaryWithDefault
  3
ObjectDBX Classes
 90
        0
 91
        4
280
     0
281
     0
  0
CLASS
  1
VISUALSTYLE
  2
AcDbVisualStyle
  3
ObjectDBX Classes
 90
     4095
 91
        4
280
     0
281
     0
  0
ENDSEC
  0
SECTION
  2
TABLES
  0
TABLE
  2
VPORT
  5
8
330
0
100
AcDbSymbolTable
 70
     1
  0
VPORT
  5
29
330
8
100
AcDbSymbolTableRecord
100
AcDbViewportTableRecord
  2
*Active
 70
     0
 10
0.0
 20
0.0
 11
1.0
 21
1.0
 12
0.0
 22
0.0
 13
0.0
 23
0.0
 14
10.0
 24
10.0
 15
10.0
 25
10.0
 16
0.0
 26
0.0
 36
1.0
 17
0.0
 27
0.0
 37
0.0
 40
1633.5
 41
1.414141414141414
 42
50.0
 43
0.0
 44
0.0
 50
0.0
 51
0.0
 71
     0
 72
 10000
 73
     1
 74
     3
 75
     0
 76
     0
 77
     0
 78
     0
281
     0
 65
     1
110
0.0
120
0.0
130
0.0
111
1.0
121
0.0
131
0.0
112
0.0
122
1.0
132
0.0
 79
     0
146
0.0
  0
ENDTAB
  0
TABLE
  2
LTYPE
  5
5
330
0
100
AcDbSymbolTable
 70
     2
  0
LTYPE
  5
14
330
5
100
AcDbSymbolTableRecord
100
AcDbLinetypeTableRecord
  2
ByBlock
 70
     0
  3

 72
    65
 73
     0
 40
0.0
  0
LTYPE
  5
15
330
5
100
AcDbSymbolTableRecord
100
AcDbLinetypeTableRecord
  2
ByLayer
 70
     0
  3

 72
    65
 73
     0
 40
0.0
  0
LTYPE
  5
16
330
5
100
AcDbSymbolTableRecord
100
AcDbLinetypeTableRecord
  2
Continuous
 70
     0
  3
Solid line
 72
    65
 73
     0
 40
0.0
  0
LTYPE
  5
3C
330
5
100
AcDbSymbolTableRecord
100
AcDbLinetypeTableRecord
  2
JWW_CENTER2
 70
     0
  3
-------------  --  -------------
 72
    65
 73
     4
 40
13.54666666666667
 49
11.00666666666667
 74
     0
 49
-0.8466666666666667
 74
     0
 49
0.8466666666666667
 74
     0
 49
-0.8466666666666667
 74
     0
  0
ENDTAB
  0
TABLE
  2
LAYER
  5
2
330
0
100
AcDbSymbolTable
 70
     9
  0
LAYER
  5
10
330
2
100
AcDbSymbolTableRecord
100
AcDbLayerTableRecord
  2
0
 70
     0
 62
     7
  6
Continuous
370
    -3
390
F
  0
LAYER
  5
3D
330
2
100
AcDbSymbolTableRecord
100
AcDbLayerTableRecord
  2
0-1
 70
     0
 62
     7
  6
Continuous
370
    -3
390
F
  0
LAYER
  5
3E
330
2
100
AcDbSymbolTableRecord
100
AcDbLayerTableRecord
  2
0-2
 70
     0
 62
     7
  6
Continuous
370
    -3
390
F
  0
LAYER
  5
3F
330
2
100
AcDbSymbolTableRecord
100
AcDbLayerTableRecord
  2
0-3
 70
     0
 62
     7
  6
Continuous
370
    -3
390
F
  0
LAYER
  5
40
330
2
100
AcDbSymbolTableRecord
100
AcDbLayerTableRecord
  2
0-4
 70
     0
 62
     7
  6
Continuous
370
    -3
390
F
  0
LAYER
  5
41
330
2
100
AcDbSymbolTableRecord
100
AcDbLayerTableRecord
  2
0-0
 70
     0
 62
     7
  6
Continuous
370
    -3
390
F
  0
LAYER
  5
42
330
2
100
AcDbSymbolTableRecord
100
AcDbLayerTableRecord
  2
0-5
 70
     0
 62
     7
  6
Continuous
370
    -3
390
F
  0
LAYER
  5
43
330
2
100
AcDbSymbolTableRecord
100
AcDbLayerTableRecord
  2
0-F
 70
     0
 62
     7
  6
Continuous
370
    -3
390
F
  0
LAYER
  5
44
330
2
100
AcDbSymbolTableRecord
100
AcDbLayerTableRecord
  2
F-5
 70
     0
 62
     7
  6
Continuous
370
    -3
390
F
  0
ENDTAB
  0
TABLE
  2
STYLE
  5
3
330
0
100
AcDbSymbolTable
 70
     2
  0
STYLE
  5
11
330
3
100
AcDbSymbolTableRecord
100
AcDbTextStyleTableRecord
  2
Standard
 70
     0
 40
0.0
 41
1.0
 50
0.0
 71
     0
 42
2.5
  3
txt
  4

1001
ACAD
1000

1071
        0
  0
STYLE
  5
3B
330
3
100
AcDbSymbolTableRecord
100
AcDbTextStyleTableRecord
  2
ＭＳ ゴシック
 70
     0
 40
1.0
 41
1.0
 50
0.0
 71
     0
 42
10.0
  3

  4

1001
ACAD
1000
MS Gothic
1071
    32817
  0
ENDTAB
  0
TABLE
  2
VIEW
  5
6
330
0
100
AcDbSymbolTable
 70
     0
  0
ENDTAB
  0
TABLE
  2
UCS
  5
7
330
0
100
AcDbSymbolTable
 70
     0
  0
ENDTAB
  0
TABLE
  2
APPID
  5
9
330
0
100
AcDbSymbolTable
 70
     1
  0
APPID
  5
12
330
9
100
AcDbSymbolTableRecord
100
AcDbRegAppTableRecord
  2
ACAD
 70
     0
  0
ENDTAB
  0
TABLE
  2
DIMSTYLE
  5
A
330
0
100
AcDbSymbolTable
 70
     1
100
AcDbDimStyleTable
  0
DIMSTYLE
105
27
330
A
100
AcDbSymbolTableRecord
100
AcDbDimStyleTableRecord
  2
ISO-25
 70
     0
 41
2.5
 42
0.625
 43
3.75
 44
1.25
 73
     0
 74
     0
 77
     1
 78
     8
140
2.5
141
2.5
143
0.03937007874016
147
0.625
171
     3
172
     1
271
     2
272
     2
274
     3
278
    44
283
     0
284
     8
340
11
  0
ENDTAB
  0
TABLE
  2
BLOCK_RECORD
  5
1
330
0
100
AcDbSymbolTable
 70
     1
  0
BLOCK_RECORD
  5
1F
330
1
100
AcDbSymbolTableRecord
100
AcDbBlockTableRecord
  2
*Model_Space
340
22
  0
BLOCK_RECORD
  5
1B
330
1
100
AcDbSymbolTableRecord
100
AcDbBlockTableRecord
  2
*Paper_Space
340
1E
  0
BLOCK_RECORD
  5
23
330
1
100
AcDbSymbolTableRecord
100
AcDbBlockTableRecord
  2
*Paper_Space0
340
26
  0
ENDTAB
  0
ENDSEC
  0
SECTION
  2
BLOCKS
  0
BLOCK
  5
20
330
1F
100
AcDbEntity
  8
0
100
AcDbBlockBegin
  2
*Model_Space
 70
     0
 10
0.0
 20
0.0
 30
0.0
  3
*Model_Space
  1

  0
ENDBLK
  5
21
330
1F
100
AcDbEntity
  8
0
100
AcDbBlockEnd
  0
BLOCK
  5
1C
330
1B
100
AcDbEntity
 67
     1
  8
0
100
AcDbBlockBegin
  2
*Paper_Space
 70
     0
 10
0.0
 20
0.0
 30
0.0
  3
*Paper_Space
  1

  0
ENDBLK
  5
1D
330
1B
100
AcDbEntity
 67
     1
  8
0
100
AcDbBlockEnd
  0
BLOCK
  5
24
330
23
100
AcDbEntity
  8
0
100
AcDbBlockBegin
  2
*Paper_Space0
 70
     0
 10
0.0
 20
0.0
 30
0.0
  3
*Paper_Space0
  1

  0
ENDBLK
  5
25
330
23
100
AcDbEntity
  8
0
100
AcDbBlockEnd
  0
ENDSEC
  0
SECTION
  2
ENTITIES
  0
LINE
  5
45
330
1F
100
AcDbEntity
  8
0-1
  6
Continuous
 62
     4
370
    13
100
AcDbLine
 10
105.4054054054055
 20
46.33784526103256
 30
0.0
 11
105.4054054054055
 21
-55.66216958535676
 31
0.0
  0
LINE
  5
46
330
1F
100
AcDbEntity
  8
0-2
  6
Continuous
 62
     3
370
    13
100
AcDbLine
 10
-594.5945533546242
 20
46.33784526103256
 30
0.0
 11
-594.5945533546242
 21
-55.66216958535676
 31
0.0
  0
LINE
  5
47
330
1F
100
AcDbEntity
  8
0-1
  6
Continuous
 62
     4
370
    13
100
AcDbLine
 10
-589.5945368586359
 20
46.33784526103256
 30
0.0
 11
105.4054054054055
 21
46.33784526103256
 31
0.0
  0
LINE
  5
48
330
1F
100
AcDbEntity
  8
0-1
  6
Continuous
 62
     4
370
    13
100
AcDbLine
 10
-589.5945368586359
 20
46.33784526103256
 30
0.0
 11
-589.5945368586359
 21
-55.66216958535676
 31
0.0
  0
LINE
  5
49
330
1F
100
AcDbEntity
  8
0-1
  6
Continuous
 62
     4
370
    13
100
AcDbLine
 10
-589.5945368586359
 20
-55.66216958535676
 30
0.0
 11
105.4054054054055
 21
-55.66216958535676
 31
0.0
  0
LINE
  5
4A
330
1F
100
AcDbEntity
  8
0-1
  6
Continuous
 62
     4
370
    13
100
AcDbLine
 10
-594.5945533546242
 20
42.08781886745143
 30
0.0
 11
-589.5945368586359
 21
42.08781886745143
 31
0.0
  0
LINE
  5
4B
330
1F
100
AcDbEntity
  8
0-1
  6
Continuous
 62
     4
370
    13
100
AcDbLine
 10
-594.5945533546242
 20
-51.41214319177578
 30
0.0
 11
-589.5945368586359
 21
-51.41214319177578
 31
0.0
  0
LINE
  5
4C
330
1F
100
AcDbEntity
  8
0-3
  6
Continuous
 62
     2
370
    13
100
AcDbLine
 10
105.4054054054055
 20
33.4878622519004
 30
0.0
 11
405.4054054054055
 21
33.4878622519004
 31
0.0
  0
LINE
  5
4D
330
1F
100
AcDbEntity
  8
0-3
  6
Continuous
 62
     2
370
    13
100
AcDbLine
 10
405.4054054054055
 20
33.4878622519004
 30
0.0
 11
405.4054054054055
 21
-42.8121865762246
 31
0.0
  0
LINE
  5
4E
330
1F
100
AcDbEntity
  8
0-3
  6
Continuous
 62
     2
370
    13
100
AcDbLine
 10
105.4054054054055
 20
-42.8121865762246
 30
0.0
 11
405.4054054054055
 21
-42.8121865762246
 31
0.0
  0
LINE
  5
4F
330
1F
100
AcDbEntity
  8
0-4
  6
Continuous
 62
     7
370
    13
100
AcDbLine
 10
270.4054548933701
 20
132.8377965978675
 30
0.0
 11
269.4054268501901
 21
131.8377685546875
 31
0.0
  0
LINE
  5
50
330
1F
100
AcDbEntity
  8
0-4
  6
Continuous
 62
     7
370
    13
100
AcDbLine
 10
280.4054878853464
 20
132.8377965978675
 30
0.0
 11
281.4055159285263
 21
131.8377685546875
 31
0.0
  0
LINE
  5
51
330
1F
100
AcDbEntity
  8
0-4
  6
Continuous
 62
     7
370
    13
100
AcDbLine
 10
270.4054548933701
 20
132.8377965978675
 30
0.0
 11
280.4054878853464
 21
132.8377965978675
 31
0.0
  0
LINE
  5
52
330
1F
100
AcDbEntity
  8
0-4
  6
Continuous
 62
     7
370
    13
100
AcDbLine
 10
269.4054268501901
 20
131.8377685546875
 30
0.0
 11
281.4055159285263
 21
131.8377685546875
 31
0.0
  0
LINE
  5
53
330
1F
100
AcDbEntity
  8
0-4
  6
Continuous
 62
     7
370
    13
100
AcDbLine
 10
270.4054548933701
 20
-142.1621209221917
 30
0.0
 11
269.4055505701013
 21
-141.1620928790118
 31
0.0
  0
LINE
  5
54
330
1F
100
AcDbEntity
  8
0-4
  6
Continuous
 62
     7
370
    13
100
AcDbLine
 10
280.4054878853464
 20
-142.1621209221917
 30
0.0
 11
281.4053922086148
 21
-141.1620928790118
 31
0.0
  0
LINE
  5
55
330
1F
100
AcDbEntity
  8
0-4
  6
Continuous
 62
     7
370
    13
100
AcDbLine
 10
270.4054548933701
 20
-142.1621209221917
 30
0.0
 11
280.4054878853464
 21
-142.1621209221917
 31
0.0
  0
LINE
  5
56
330
1F
100
AcDbEntity
  8
0-4
  6
Continuous
 62
     7
370
    13
100
AcDbLine
 10
269.4055505701013
 20
-141.1620928790118
 30
0.0
 11
281.4053922086148
 21
-141.1620928790118
 31
0.0
  0
LINE
  5
57
330
1F
100
AcDbEntity
  8
0-0
  6
JWW_CENTER2
 62
     7
370
    13
100
AcDbLine
 10
275.4054713893581
 20
142.8377677298882
 30
0.0
 11
275.4054713893581
 21
-152.1620920542124
 31
0.0
  0
LINE
  5
58
330
1F
100
AcDbEntity
  8
0-4
  6
Continuous
 62
     7
370
    13
100
AcDbLine
 10
286.3554258604307
 20
40.51905039194466
 30
0.0
 11
284.6774127032307
 21
41.48783915751693
 31
0.0
  0
LINE
  5
59
330
1F
100
AcDbEntity
  8
0-4
  6
Continuous
 62
     7
370
    13
100
AcDbLine
 10
264.4555169182854
 20
40.51905039194466
 30
0.0
 11
266.1335300754857
 21
41.48783915751693
 31
0.0
  0
LINE
  5
5A
330
1F
100
AcDbEntity
  8
0-4
  6
Continuous
 62
     7
370
    13
100
AcDbLine
 10
284.6774127032307
 20
41.48783915751693
 30
0.0
 11
266.1335300754857
 21
41.48783915751693
 31
0.0
  0
LINE
  5
5B
330
1F
100
AcDbEntity
  8
0-4
  6
Continuous
 62
     7
370
    13
100
AcDbLine
 10
286.3554258604307
 20
40.51905039194466
 30
0.0
 11
286.3554258604307
 21
33.4878622519004
 31
0.0
  0
LINE
  5
5C
330
1F
100
AcDbEntity
  8
0-4
  6
Continuous
 62
     7
370
    13
100
AcDbLine
 10
264.4555169182854
 20
40.51905039194466
 30
0.0
 11
264.4555169182854
 21
33.4878622519004
 31
0.0
  0
LINE
  5
5D
330
1F
100
AcDbEntity
  8
0-4
  6
Continuous
 62
     7
370
    13
100
AcDbLine
 10
269.4054268501901
 20
40.51905039194466
 30
0.0
 11
269.4054268501901
 21
33.4878622519004
 31
0.0
  0
LINE
  5
5E
330
1F
100
AcDbEntity
  8
0-4
  6
Continuous
 62
     7
370
    13
100
AcDbLine
 10
281.4055159285263
 20
40.51905039194466
 30
0.0
 11
281.4055159285263
 21
33.4878622519004
 31
0.0
  0
LINE
  5
5F
330
1F
100
AcDbEntity
  8
0-4
  6
Continuous
 62
     7
370
    13
100
AcDbLine
 10
269.4054268501901
 20
131.8377685546875
 30
0.0
 11
269.4054268501901
 21
41.48783915751693
 31
0.0
  0
LINE
  5
60
330
1F
100
AcDbEntity
  8
0-4
  6
Continuous
 62
     7
370
    13
100
AcDbLine
 10
270.4054548933701
 20
132.8377965978675
 30
0.0
 11
270.4054548933701
 21
41.48783915751693
 31
0.0
  0
LINE
  5
61
330
1F
100
AcDbEntity
  8
0-4
  6
Continuous
 62
     7
370
    13
100
AcDbLine
 10
280.4054878853464
 20
132.8377965978675
 30
0.0
 11
280.4054878853464
 21
41.48783915751693
 31
0.0
  0
LINE
  5
62
330
1F
100
AcDbEntity
  8
0-4
  6
Continuous
 62
     7
370
    13
100
AcDbLine
 10
281.4055159285263
 20
131.8377685546875
 30
0.0
 11
281.4055159285263
 21
41.48783915751693
 31
0.0
  0
LINE
  5
63
330
1F
100
AcDbEntity
  8
0-4
  6
Continuous
 62
     7
370
    13
100
AcDbLine
 10
264.4555169182854
 20
33.4878622519004
 30
0.0
 11
286.3554258604307
 21
33.4878622519004
 31
0.0
  0
LINE
  5
64
330
1F
100
AcDbEntity
  8
0-4
  6
Continuous
 62
     7
370
    13
100
AcDbLine
 10
286.3554258604307
 20
-49.84337471626901
 30
0.0
 11
284.6774127032307
 21
-50.81216348184114
 31
0.0
  0
LINE
  5
65
330
1F
100
AcDbEntity
  8
0-4
  6
Continuous
 62
     7
370
    13
100
AcDbLine
 10
264.4555169182854
 20
-49.84337471626901
 30
0.0
 11
266.1335300754857
 21
-50.81216348184114
 31
0.0
  0
LINE
  5
66
330
1F
100
AcDbEntity
  8
0-4
  6
Continuous
 62
     7
370
    13
100
AcDbLine
 10
284.6774127032307
 20
-50.81216348184114
 30
0.0
 11
266.1335300754857
 21
-50.81216348184114
 31
0.0
  0
LINE
  5
67
330
1F
100
AcDbEntity
  8
0-4
  6
Continuous
 62
     7
370
    13
100
AcDbLine
 10
286.3554258604307
 20
-49.84337471626901
 30
0.0
 11
286.3554258604307
 21
-42.8121865762246
 31
0.0
  0
LINE
  5
68
330
1F
100
AcDbEntity
  8
0-4
  6
Continuous
 62
     7
370
    13
100
AcDbLine
 10
264.4555169182854
 20
-49.84337471626901
 30
0.0
 11
264.4555169182854
 21
-42.8121865762246
 31
0.0
  0
LINE
  5
69
330
1F
100
AcDbEntity
  8
0-4
  6
Continuous
 62
     7
370
    13
100
AcDbLine
 10
269.4054268501901
 20
-49.84337471626901
 30
0.0
 11
269.4054268501901
 21
-42.8121865762246
 31
0.0
  0
LINE
  5
6A
330
1F
100
AcDbEntity
  8
0-4
  6
Continuous
 62
     7
370
    13
100
AcDbLine
 10
281.4055159285263
 20
-49.84337471626901
 30
0.0
 11
281.4055159285263
 21
-42.8121865762246
 31
0.0
  0
LINE
  5
6B
330
1F
100
AcDbEntity
  8
0-4
  6
Continuous
 62
     7
370
    13
100
AcDbLine
 10
264.4555169182854
 20
-42.8121865762246
 30
0.0
 11
286.3554258604307
 21
-42.8121865762246
 31
0.0
  0
LINE
  5
6C
330
1F
100
AcDbEntity
  8
0-4
  6
Continuous
 62
     7
370
    13
100
AcDbLine
 10
270.4054548933701
 20
-142.1621209221917
 30
0.0
 11
270.4054548933701
 21
-50.81216348184114
 31
0.0
  0
LINE
  5
6D
330
1F
100
AcDbEntity
  8
0-4
  6
Continuous
 62
     7
370
    13
100
AcDbLine
 10
269.4055505701013
 20
-141.1620928790118
 30
0.0
 11
269.4055505701013
 21
-50.81216348184114
 31
0.0
  0
LINE
  5
6E
330
1F
100
AcDbEntity
  8
0-4
  6
Continuous
 62
     7
370
    13
100
AcDbLine
 10
280.4054878853464
 20
-142.1621209221917
 30
0.0
 11
280.4054878853464
 21
-50.81216348184114
 31
0.0
  0
LINE
  5
6F
330
1F
100
AcDbEntity
  8
0-4
  6
Continuous
 62
     7
370
    13
100
AcDbLine
 10
281.4053922086148
 20
-141.1620928790118
 30
0.0
 11
281.4053922086148
 21
-50.81216348184114
 31
0.0
  0
LINE
  5
70
330
1F
100
AcDbEntity
  8
0-4
  6
Continuous
 62
     7
370
    13
100
AcDbLine
 10
295.4055373733109
 20
-15.61217849319036
 30
0.0
 11
285.9055802628802
 21
-10.12736552470429
 31
0.0
  0
LINE
  5
71
330
1F
100
AcDbEntity
  8
0-4
  6
Continuous
 62
     7
370
    13
100
AcDbLine
 10
285.9055802628802
 20
0.8029793404244856
 30
0.0
 11
285.9055802628802
 21
-10.12736552470429
 31
0.0
  0
LINE
  5
72
330
1F
100
AcDbEntity
  8
0-4
  6
Continuous
 62
     7
370
    13
100
AcDbLine
 10
295.4055373733109
 20
-15.61217849319036
 30
0.0
 11
304.9054944837417
 21
-10.12736552470429
 31
0.0
  0
LINE
  5
73
330
1F
100
AcDbEntity
  8
0-4
  6
Continuous
 62
     7
370
    13
100
AcDbLine
 10
295.4055373733109
 20
6.287854168866147
 30
0.0
 11
304.9054944837417
 21
0.8029793404244856
 31
0.0
  0
LINE
  5
74
330
1F
100
AcDbEntity
  8
0-4
  6
Continuous
 62
     7
370
    13
100
AcDbLine
 10
304.9054944837417
 20
0.8029793404244856
 30
0.0
 11
304.9054944837417
 21
-10.12736552470429
 31
0.0
  0
LINE
  5
75
330
1F
100
AcDbEntity
  8
0-4
  6
Continuous
 62
     7
370
    13
100
AcDbLine
 10
295.4055373733109
 20
6.287854168866147
 30
0.0
 11
285.9055802628802
 21
0.8029793404244856
 31
0.0
  0
LINE
  5
76
330
1F
100
AcDbEntity
  8
0-0
  6
JWW_CENTER2
 62
     7
370
    13
100
AcDbLine
 10
295.4055373733109
 20
-20.61219498917865
 30
0.0
 11
295.4055373733109
 21
11.2878706648543
 31
0.0
  0
LINE
  5
77
330
1F
100
AcDbEntity
  8
0-5
  6
Continuous
 62
     6
370
    13
100
AcDbLine
 10
105.4054054054055
 20
-179.6621209221917
 30
0.0
 11
405.4054054054055
 21
-179.6621209221917
 31
0.0
  0
LINE
  5
78
330
1F
100
AcDbEntity
  8
0-5
  6
Continuous
 62
     6
370
    13
100
AcDbLine
 10
105.4054054054055
 20
170.3377965978675
 30
0.0
 11
405.4054054054055
 21
170.3377965978675
 31
0.0
  0
LINE
  5
79
330
1F
100
AcDbEntity
  8
0-5
  6
Continuous
 62
     6
370
    13
100
AcDbLine
 10
605.4053229254646
 20
-279.6621415421769
 30
0.0
 11
605.4053229254646
 21
270.3378172178527
 31
0.0
  0
LINE
  5
7A
330
1F
100
AcDbEntity
  8
0-5
  6
Continuous
 62
     6
370
    13
100
AcDbLine
 10
405.4054054054055
 20
220.3378378378379
 30
0.0
 11
505.4053641654352
 21
220.3378378378379
 31
0.0
  0
LINE
  5
7B
330
1F
100
AcDbEntity
  8
0-5
  6
Continuous
 62
     6
370
    13
100
AcDbLine
 10
105.4054054054055
 20
-55.66216958535676
 30
0.0
 11
105.4054054054055
 21
-379.6621003022065
 31
0.0
  0
LINE
  5
7C
330
1F
100
AcDbEntity
  8
0-5
  6
Continuous
 62
     6
370
    13
100
AcDbLine
 10
105.4054054054055
 20
-100.7820170634501
 30
0.0
 11
184.285509264147
 21
-179.6621209221917
 31
0.0
  0
LINE
  5
7D
330
1F
100
AcDbEntity
  8
0-5
  6
Continuous
 62
     6
370
    13
100
AcDbLine
 10
105.4054054054055
 20
-96.53941386454804
 30
0.0
 11
188.5281124630491
 21
-179.6621209221917
 31
0.0
  0
LINE
  5
7E
330
1F
100
AcDbEntity
  8
0-5
  6
Continuous
 62
     6
370
    13
100
AcDbLine
 10
105.4054054054055
 20
-92.29681066564609
 30
0.0
 11
192.770715661951
 21
-179.6621209221917
 31
0.0
  0
LINE
  5
7F
330
1F
100
AcDbEntity
  8
0-5
  6
Continuous
 62
     6
370
    13
100
AcDbLine
 10
326.4315218538852
 20
170.3377965978675
 30
0.0
 11
405.4054054054055
 21
91.36391304634714
 31
0.0
  0
LINE
  5
80
330
1F
100
AcDbEntity
  8
0-5
  6
Continuous
 62
     6
370
    13
100
AcDbLine
 10
334.9167282516893
 20
170.3377965978675
 30
0.0
 11
405.4054054054055
 21
99.84911944415117
 31
0.0
  0
LINE
  5
81
330
1F
100
AcDbEntity
  8
0-5
  6
Continuous
 62
     6
370
    13
100
AcDbLine
 10
330.6741250527872
 20
170.3377965978675
 30
0.0
 11
405.4054054054055
 21
95.60651624524922
 31
0.0
  0
LINE
  5
82
330
1F
100
AcDbEntity
  8
0-5
  6
Continuous
 62
     6
370
    13
100
AcDbLine
 10
170.8680848817568
 20
170.3377965978675
 30
0.0
 11
269.4054268501901
 21
71.80045462943411
 31
0.0
  0
LINE
  5
83
330
1F
100
AcDbEntity
  8
0-5
  6
Continuous
 62
     6
370
    13
100
AcDbLine
 10
166.6254816828548
 20
170.3377965978675
 30
0.0
 11
269.4054268501901
 21
67.55785143053217
 31
0.0
  0
LINE
  5
84
330
1F
100
AcDbEntity
  8
0-5
  6
Continuous
 62
     6
370
    13
100
AcDbLine
 10
162.3828784839527
 20
170.3377965978675
 30
0.0
 11
269.4054268501901
 21
63.31518637167449
 31
0.0
  0
LINE
  5
85
330
1F
100
AcDbEntity
  8
0-5
  6
Continuous
 62
     6
370
    13
100
AcDbLine
 10
281.4055159285263
 20
51.31509729333828
 30
0.0
 11
299.2328128299198
 21
33.4878622519004
 31
0.0
  0
LINE
  5
86
330
1F
100
AcDbEntity
  8
0-5
  6
Continuous
 62
     6
370
    13
100
AcDbLine
 10
281.4055159285263
 20
55.55776235219597
 30
0.0
 11
303.4754160288219
 21
33.4878622519004
 31
0.0
  0
LINE
  5
87
330
1F
100
AcDbEntity
  8
0-5
  6
Continuous
 62
     6
370
    13
100
AcDbLine
 10
281.4055159285263
 20
59.80036555109805
 30
0.0
 11
307.718019227724
 21
33.4878622519004
 31
0.0
  0
LINE
  5
88
330
1F
100
AcDbEntity
  8
0-5
  6
Continuous
 62
     6
370
    13
100
AcDbLine
 10
375.5328616580448
 20
-42.8121865762246
 30
0.0
 11
405.4054054054055
 21
-72.68473032358528
 31
0.0
  0
LINE
  5
89
330
1F
100
AcDbEntity
  8
0-5
  6
Continuous
 62
     6
370
    13
100
AcDbLine
 10
384.018068055849
 20
-42.8121865762246
 30
0.0
 11
405.4054054054055
 21
-64.19952392578125
 31
0.0
  0
LINE
  5
8A
330
1F
100
AcDbEntity
  8
0-5
  6
Continuous
 62
     6
370
    13
100
AcDbLine
 10
379.7754648569469
 20
-42.8121865762246
 30
0.0
 11
405.4054054054055
 21
-68.4421271246832
 31
0.0
  0
LINE
  5
8B
330
1F
100
AcDbEntity
  8
0-5
  6
Continuous
 62
     6
370
    13
100
AcDbLine
 10
105.4054054054055
 20
63.26662630648229
 30
0.0
 11
135.1841694599874
 21
33.4878622519004
 31
0.0
  0
LINE
  5
8C
330
1F
100
AcDbEntity
  8
0-5
  6
Continuous
 62
     6
370
    13
100
AcDbLine
 10
105.4054054054055
 20
67.50922950538438
 30
0.0
 11
139.4267726588895
 21
33.4878622519004
 31
0.0
  0
LINE
  5
8D
330
1F
100
AcDbEntity
  8
0-5
  6
Continuous
 62
     6
370
    13
100
AcDbLine
 10
105.4054054054055
 20
71.75183270428633
 30
0.0
 11
143.6693758577914
 21
33.4878622519004
 31
0.0
  0
LINE
  5
8E
330
1F
100
AcDbEntity
  8
0-5
  6
Continuous
 62
     6
370
    13
100
AcDbLine
 10
211.4842182881124
 20
-42.8121865762246
 30
0.0
 11
269.4055505701013
 21
-100.7335188582137
 31
0.0
  0
LINE
  5
8F
330
1F
100
AcDbEntity
  8
0-5
  6
Continuous
 62
     6
370
    13
100
AcDbLine
 10
215.7268214870145
 20
-42.8121865762246
 30
0.0
 11
269.4055505701013
 21
-96.49085379935599
 31
0.0
  0
LINE
  5
90
330
1F
100
AcDbEntity
  8
0-5
  6
Continuous
 62
     6
370
    13
100
AcDbLine
 10
219.9694246859164
 20
-42.8121865762246
 30
0.0
 11
269.4055505701013
 21
-92.24831246040964
 31
0.0
  0
LINE
  5
91
330
1F
100
AcDbEntity
  8
0-5
  6
Continuous
 62
     6
370
    13
100
AcDbLine
 10
281.4053922086148
 20
-104.2481540989231
 30
0.0
 11
356.8193590318836
 21
-179.6621209221917
 31
0.0
  0
LINE
  5
92
330
1F
100
AcDbEntity
  8
0-5
  6
Continuous
 62
     6
370
    13
100
AcDbLine
 10
281.4053922086148
 20
-112.7333604967271
 30
0.0
 11
348.3341526340794
 21
-179.6621209221917
 31
0.0
  0
LINE
  5
93
330
1F
100
AcDbEntity
  8
0-5
  6
Continuous
 62
     6
370
    13
100
AcDbLine
 10
281.4053922086148
 20
-108.4906954378695
 30
0.0
 11
352.5767558329815
 21
-179.6621209221917
 31
0.0
  0
LINE
  5
94
330
1F
100
AcDbEntity
  8
0-5
  6
Continuous
 62
     6
370
    13
100
AcDbLine
 10
405.4054054054055
 20
-229.6621621621621
 30
0.0
 11
405.4054054054055
 21
-42.8121865762246
 31
0.0
  0
LINE
  5
95
330
1F
100
AcDbEntity
  8
0-5
  6
Continuous
 62
     6
370
    13
100
AcDbLine
 10
405.4054054054055
 20
-229.6621621621621
 30
0.0
 11
505.4053641654352
 21
-229.6621621621621
 31
0.0
  0
LINE
  5
96
330
1F
100
AcDbEntity
  8
0-5
  6
Continuous
 62
     6
370
    13
100
AcDbLine
 10
505.4053641654352
 20
270.3378172178527
 30
0.0
 11
605.4053229254646
 21
270.3378172178527
 31
0.0
  0
LINE
  5
97
330
1F
100
AcDbEntity
  8
0-5
  6
Continuous
 62
     6
370
    13
100
AcDbLine
 10
505.4053641654352
 20
-279.6621415421769
 30
0.0
 11
605.4053229254646
 21
-279.6621415421769
 31
0.0
  0
LINE
  5
98
330
1F
100
AcDbEntity
  8
0-5
  6
Continuous
 62
     6
370
    13
100
AcDbLine
 10
585.4053806614231
 20
-279.6621415421769
 30
0.0
 11
505.4053641654352
 21
-233.4740963497677
 31
0.0
  0
LINE
  5
99
330
1F
100
AcDbEntity
  8
0-5
  6
Continuous
 62
     6
370
    13
100
AcDbLine
 10
605.4053229254646
 20
-268.11505291913
 30
0.0
 11
585.4053806614231
 21
-279.6621415421769
 31
0.0
  0
LINE
  5
9A
330
1F
100
AcDbEntity
  8
0-5
  6
Continuous
 62
     6
370
    13
100
AcDbLine
 10
505.4053641654352
 20
-233.4740963497677
 30
0.0
 11
525.4053064294762
 21
-221.9270695866765
 31
0.0
  0
LINE
  5
9B
330
1F
100
AcDbEntity
  8
0-5
  6
Continuous
 62
     6
370
    13
100
AcDbLine
 10
505.4053641654352
 20
-256.5681498759501
 30
0.0
 11
525.4053064294762
 21
-245.0210612529033
 31
0.0
  0
LINE
  5
9C
330
1F
100
AcDbEntity
  8
0-5
  6
Continuous
 62
     6
370
    13
100
AcDbLine
 10
505.4053641654352
 20
-279.6621415421769
 30
0.0
 11
525.4053064294762
 21
-268.1151147790857
 31
0.0
  0
LINE
  5
9D
330
1F
100
AcDbEntity
  8
0-5
  6
Continuous
 62
     6
370
    13
100
AcDbLine
 10
545.4053724134292
 20
-279.6621415421769
 30
0.0
 11
505.4053641654352
 21
-256.5681189459723
 31
0.0
  0
LINE
  5
9E
330
1F
100
AcDbEntity
  8
0-5
  6
Continuous
 62
     6
370
    13
100
AcDbLine
 10
605.4053229254646
 20
-268.11505291913
 30
0.0
 11
505.4053641654352
 21
-210.3801046835409
 31
0.0
  0
LINE
  5
9F
330
1F
100
AcDbEntity
  8
0-5
  6
Continuous
 62
     6
370
    13
100
AcDbLine
 10
605.4053229254646
 20
-245.0211231128589
 30
0.0
 11
585.4053806614231
 21
-256.5681498759501
 31
0.0
  0
LINE
  5
A0
330
1F
100
AcDbEntity
  8
0-5
  6
Continuous
 62
     6
370
    13
100
AcDbLine
 10
505.4053641654352
 20
-210.3801046835409
 30
0.0
 11
525.4053064294762
 21
-198.8330779204497
 31
0.0
  0
LINE
  5
A1
330
1F
100
AcDbEntity
  8
0-5
  6
Continuous
 62
     6
370
    13
100
AcDbLine
 10
605.4053229254646
 20
-245.0211231128589
 30
0.0
 11
505.4053641654352
 21
-187.2861130173142
 31
0.0
  0
LINE
  5
A2
330
1F
100
AcDbEntity
  8
0-5
  6
Continuous
 62
     6
370
    13
100
AcDbLine
 10
605.4053229254646
 20
-198.8330160604941
 30
0.0
 11
585.4053806614231
 21
-210.3801046835409
 31
0.0
  0
LINE
  5
A3
330
1F
100
AcDbEntity
  8
0-5
  6
Continuous
 62
     6
370
    13
100
AcDbLine
 10
505.4053641654352
 20
-164.1920594911317
 30
0.0
 11
525.4053064294762
 21
-152.6450327280405
 31
0.0
  0
LINE
  5
A4
330
1F
100
AcDbEntity
  8
0-5
  6
Continuous
 62
     6
370
    13
100
AcDbLine
 10
505.4053641654352
 20
-187.2861130173142
 30
0.0
 11
525.4053064294762
 21
-175.7390243942673
 31
0.0
  0
LINE
  5
A5
330
1F
100
AcDbEntity
  8
0-5
  6
Continuous
 62
     6
370
    13
100
AcDbLine
 10
605.4053229254646
 20
-198.8330160604941
 30
0.0
 11
505.4053641654352
 21
-141.0980678249049
 31
0.0
  0
LINE
  5
A6
330
1F
100
AcDbEntity
  8
0-5
  6
Continuous
 62
     6
370
    13
100
AcDbLine
 10
605.4053229254646
 20
-175.7390862542229
 30
0.0
 11
585.4053806614231
 21
-187.2861130173142
 31
0.0
  0
LINE
  5
A7
330
1F
100
AcDbEntity
  8
0-5
  6
Continuous
 62
     6
370
    13
100
AcDbLine
 10
505.4053641654352
 20
-141.0980678249049
 30
0.0
 11
525.4053064294762
 21
-129.5510410618137
 31
0.0
  0
LINE
  5
A8
330
1F
100
AcDbEntity
  8
0-5
  6
Continuous
 62
     6
370
    13
100
AcDbLine
 10
605.4053229254646
 20
-175.7390862542229
 30
0.0
 11
505.4053641654352
 21
-118.0040761586782
 31
0.0
  0
LINE
  5
A9
330
1F
100
AcDbEntity
  8
0-5
  6
Continuous
 62
     6
370
    13
100
AcDbLine
 10
605.4053229254646
 20
-221.9270695866765
 30
0.0
 11
505.4053641654352
 21
-164.1920594911317
 31
0.0
  0
LINE
  5
AA
330
1F
100
AcDbEntity
  8
0-5
  6
Continuous
 62
     6
370
    13
100
AcDbLine
 10
605.4053229254646
 20
-129.5509792018581
 30
0.0
 11
585.4053806614231
 21
-141.0980678249049
 31
0.0
  0
LINE
  5
AB
330
1F
100
AcDbEntity
  8
0-5
  6
Continuous
 62
     6
370
    13
100
AcDbLine
 10
505.4053641654352
 20
-94.9100226324957
 30
0.0
 11
525.4053064294762
 21
-83.36299586940456
 31
0.0
  0
LINE
  5
AC
330
1F
100
AcDbEntity
  8
0-5
  6
Continuous
 62
     6
370
    13
100
AcDbLine
 10
505.4053641654352
 20
-118.0040761586782
 30
0.0
 11
525.4053064294762
 21
-106.4569875356313
 31
0.0
  0
LINE
  5
AD
330
1F
100
AcDbEntity
  8
0-5
  6
Continuous
 62
     6
370
    13
100
AcDbLine
 10
605.4053229254646
 20
-129.5509792018581
 30
0.0
 11
505.4053641654352
 21
-71.81603096626901
 31
0.0
  0
LINE
  5
AE
330
1F
100
AcDbEntity
  8
0-5
  6
Continuous
 62
     6
370
    13
100
AcDbLine
 10
605.4053229254646
 20
-106.457049395587
 30
0.0
 11
585.4053806614231
 21
-118.0040761586782
 31
0.0
  0
LINE
  5
AF
330
1F
100
AcDbEntity
  8
0-5
  6
Continuous
 62
     6
370
    13
100
AcDbLine
 10
605.4053229254646
 20
-152.6450327280405
 30
0.0
 11
505.4053641654352
 21
-94.9100226324957
 31
0.0
  0
LINE
  5
B0
330
1F
100
AcDbEntity
  8
0-5
  6
Continuous
 62
     6
370
    13
100
AcDbLine
 10
605.4053229254646
 20
74.03879526499153
 30
0.0
 11
585.4053806614231
 21
62.49170664194466
 31
0.0
  0
LINE
  5
B1
330
1F
100
AcDbEntity
  8
0-5
  6
Continuous
 62
     6
370
    13
100
AcDbLine
 10
505.4053641654352
 20
108.6797518343539
 30
0.0
 11
525.4053064294762
 21
120.2267785974452
 31
0.0
  0
LINE
  5
B2
330
1F
100
AcDbEntity
  8
0-5
  6
Continuous
 62
     6
370
    13
100
AcDbLine
 10
605.4053229254646
 20
74.03879526499153
 30
0.0
 11
505.4053641654352
 21
131.7737435005807
 31
0.0
  0
LINE
  5
B3
330
1F
100
AcDbEntity
  8
0-5
  6
Continuous
 62
     6
370
    13
100
AcDbLine
 10
605.4053229254646
 20
97.13272507126277
 30
0.0
 11
585.4053806614231
 21
85.58569830817149
 31
0.0
  0
LINE
  5
B4
330
1F
100
AcDbEntity
  8
0-5
  6
Continuous
 62
     6
370
    13
100
AcDbLine
 10
505.4053641654352
 20
131.7737435005807
 30
0.0
 11
525.4053064294762
 21
143.3207702636719
 31
0.0
  0
LINE
  5
B5
330
1F
100
AcDbEntity
  8
0-5
  6
Continuous
 62
     6
370
    13
100
AcDbLine
 10
605.4053229254646
 20
97.13272507126277
 30
0.0
 11
505.4053641654352
 21
154.8677351668074
 31
0.0
  0
LINE
  5
B6
330
1F
100
AcDbEntity
  8
0-5
  6
Continuous
 62
     6
370
    13
100
AcDbLine
 10
605.4053229254646
 20
143.3208321236276
 30
0.0
 11
585.4053806614231
 21
131.7737435005807
 31
0.0
  0
LINE
  5
B7
330
1F
100
AcDbEntity
  8
0-5
  6
Continuous
 62
     6
370
    13
100
AcDbLine
 10
505.4053641654352
 20
177.96178869299
 30
0.0
 11
525.4053064294762
 21
189.5088154560811
 31
0.0
  0
LINE
  5
B8
330
1F
100
AcDbEntity
  8
0-5
  6
Continuous
 62
     6
370
    13
100
AcDbLine
 10
505.4053641654352
 20
154.8677351668074
 30
0.0
 11
525.4053064294762
 21
166.4148237898543
 31
0.0
  0
LINE
  5
B9
330
1F
100
AcDbEntity
  8
0-5
  6
Continuous
 62
     6
370
    13
100
AcDbLine
 10
605.4053229254646
 20
143.3208321236276
 30
0.0
 11
505.4053641654352
 21
201.0557803592167
 31
0.0
  0
LINE
  5
BA
330
1F
100
AcDbEntity
  8
0-5
  6
Continuous
 62
     6
370
    13
100
AcDbLine
 10
605.4053229254646
 20
166.4147619298987
 30
0.0
 11
585.4053806614231
 21
154.8677351668074
 31
0.0
  0
LINE
  5
BB
330
1F
100
AcDbEntity
  8
0-5
  6
Continuous
 62
     6
370
    13
100
AcDbLine
 10
505.4053641654352
 20
201.0557803592167
 30
0.0
 11
525.4053064294762
 21
212.602807122308
 31
0.0
  0
LINE
  5
BC
330
1F
100
AcDbEntity
  8
0-5
  6
Continuous
 62
     6
370
    13
100
AcDbLine
 10
605.4053229254646
 20
166.4147619298987
 30
0.0
 11
505.4053641654352
 21
224.1497720254435
 31
0.0
  0
LINE
  5
BD
330
1F
100
AcDbEntity
  8
0-5
  6
Continuous
 62
     6
370
    13
100
AcDbLine
 10
605.4053229254646
 20
120.2267785974452
 30
0.0
 11
505.4053641654352
 21
177.96178869299
 31
0.0
  0
LINE
  5
BE
330
1F
100
AcDbEntity
  8
0-5
  6
Continuous
 62
     6
370
    13
100
AcDbLine
 10
605.4053229254646
 20
212.6028689822635
 30
0.0
 11
585.4053806614231
 21
201.0557803592167
 31
0.0
  0
LINE
  5
BF
330
1F
100
AcDbEntity
  8
0-5
  6
Continuous
 62
     6
370
    13
100
AcDbLine
 10
505.4053641654352
 20
247.2438255516259
 30
0.0
 11
525.4053064294762
 21
258.7908523147171
 31
0.0
  0
LINE
  5
C0
330
1F
100
AcDbEntity
  8
0-5
  6
Continuous
 62
     6
370
    13
100
AcDbLine
 10
505.4053641654352
 20
224.1497720254435
 30
0.0
 11
525.4053064294762
 21
235.6968606484904
 31
0.0
  0
LINE
  5
C1
330
1F
100
AcDbEntity
  8
0-5
  6
Continuous
 62
     6
370
    13
100
AcDbLine
 10
605.4053229254646
 20
212.6028689822635
 30
0.0
 11
505.4053641654352
 21
270.3378172178527
 31
0.0
  0
LINE
  5
C2
330
1F
100
AcDbEntity
  8
0-5
  6
Continuous
 62
     6
370
    13
100
AcDbLine
 10
605.4053229254646
 20
235.6967987885346
 30
0.0
 11
585.4053806614231
 21
224.1497720254435
 31
0.0
  0
LINE
  5
C3
330
1F
100
AcDbEntity
  8
0-5
  6
Continuous
 62
     6
370
    13
100
AcDbLine
 10
605.4053229254646
 20
189.5088154560811
 30
0.0
 11
505.4053641654352
 21
247.2438255516259
 31
0.0
  0
LINE
  5
C4
330
1F
100
AcDbEntity
  8
0-5
  6
Continuous
 62
     6
370
    13
100
AcDbLine
 10
585.4053806614231
 20
-164.1921213510874
 30
0.0
 11
605.4053229254646
 21
-152.6450327280405
 31
0.0
  0
LINE
  5
C5
330
1F
100
AcDbEntity
  8
0-5
  6
Continuous
 62
     6
370
    13
100
AcDbLine
 10
585.4053806614231
 20
247.2438255516259
 30
0.0
 11
605.4053229254646
 21
258.7909760346284
 31
0.0
  0
LINE
  5
C6
330
1F
100
AcDbEntity
  8
0-5
  6
Continuous
 62
     6
370
    13
100
AcDbLine
 10
605.4053229254646
 20
258.7909760346284
 30
0.0
 11
585.4055043813346
 21
270.3378172178527
 31
0.0
  0
LINE
  5
C7
330
1F
100
AcDbEntity
  8
0-5
  6
Continuous
 62
     6
370
    13
100
AcDbLine
 10
605.4053229254646
 20
235.696922508446
 30
0.0
 11
545.4053724134292
 21
270.3378172178527
 31
0.0
  0
LINE
  5
C8
330
1F
100
AcDbEntity
  8
0-5
  6
Continuous
 62
     6
370
    13
100
AcDbLine
 10
505.4053641654352
 20
39.39771497571797
 30
0.0
 11
525.4053064294762
 21
50.94474173880911
 31
0.0
  0
LINE
  5
C9
330
1F
100
AcDbEntity
  8
0-5
  6
Continuous
 62
     6
370
    13
100
AcDbLine
 10
605.4053229254646
 20
4.756758406355601
 30
0.0
 11
505.4053641654352
 21
62.49170664194466
 31
0.0
  0
LINE
  5
CA
330
1F
100
AcDbEntity
  8
0-5
  6
Continuous
 62
     6
370
    13
100
AcDbLine
 10
605.4053229254646
 20
27.85068821262669
 30
0.0
 11
585.4053806614231
 21
16.30366144953555
 31
0.0
  0
LINE
  5
CB
330
1F
100
AcDbEntity
  8
0-5
  6
Continuous
 62
     6
370
    13
100
AcDbLine
 10
505.4053641654352
 20
62.49170664194466
 30
0.0
 11
525.4053064294762
 21
74.03873340503594
 31
0.0
  0
LINE
  5
CC
330
1F
100
AcDbEntity
  8
0-5
  6
Continuous
 62
     6
370
    13
100
AcDbLine
 10
605.4053229254646
 20
27.85068821262669
 30
0.0
 11
505.4053641654352
 21
85.58569830817149
 31
0.0
  0
LINE
  5
CD
330
1F
100
AcDbEntity
  8
0-5
  6
Continuous
 62
     6
370
    13
100
AcDbLine
 10
505.4053641654352
 20
85.58569830817149
 30
0.0
 11
525.4053064294762
 21
97.13278693121836
 31
0.0
  0
LINE
  5
CE
330
1F
100
AcDbEntity
  8
0-5
  6
Continuous
 62
     6
370
    13
100
AcDbLine
 10
605.4053229254646
 20
50.94474173880911
 30
0.0
 11
505.4053641654352
 21
108.6797518343539
 31
0.0
  0
LINE
  5
CF
330
1F
100
AcDbEntity
  8
0-5
  6
Continuous
 62
     6
370
    13
100
AcDbLine
 10
585.4053806614231
 20
39.39765311576224
 30
0.0
 11
605.4053229254646
 21
50.94474173880911
 31
0.0
  0
LINE
  5
D0
330
1F
100
AcDbEntity
  8
0-5
  6
Continuous
 62
     6
370
    13
100
AcDbLine
 10
505.4053641654352
 20
-279.6621415421769
 30
0.0
 11
505.4053641654352
 21
270.3378172178527
 31
0.0
  0
LINE
  5
D1
330
1F
100
AcDbEntity
  8
0-F
  6
Continuous
 62
     7
370
    13
100
AcDbLine
 10
420.2770336254224
 20
478.3799619932433
 30
0.0
 11
390.5337771853885
 21
482.2956971864443
 31
0.0
  0
LINE
  5
D2
330
1F
100
AcDbEntity
  8
0-F
  6
Continuous
 62
     7
370
    13
100
AcDbLine
 10
420.2770336254224
 20
482.2956971864443
 30
0.0
 11
390.5337771853885
 21
478.3799619932433
 31
0.0
  0
LINE
  5
D3
330
1F
100
AcDbEntity
  8
0-F
  6
Continuous
 62
     7
370
    13
100
AcDbLine
 10
520.2769923854519
 20
478.3799619932433
 30
0.0
 11
490.5337359454182
 21
482.2956971864443
 31
0.0
  0
LINE
  5
D4
330
1F
100
AcDbEntity
  8
0-F
  6
Continuous
 62
     7
370
    13
100
AcDbLine
 10
520.2769923854519
 20
482.2956971864443
 30
0.0
 11
490.5337359454182
 21
478.3799619932433
 31
0.0
  0
LINE
  5
D5
330
1F
100
AcDbEntity
  8
0-F
  6
Continuous
 62
     7
370
    13
100
AcDbLine
 10
605.4053229254646
 20
480.3378295898438
 30
0.0
 11
590.5336947054477
 21
482.2956971864443
 31
0.0
  0
LINE
  5
D6
330
1F
100
AcDbEntity
  8
0-F
  6
Continuous
 62
     7
370
    13
100
AcDbLine
 10
605.4053229254646
 20
480.3378295898438
 30
0.0
 11
590.5336947054477
 21
478.3799619932433
 31
0.0
  0
LINE
  5
D7
330
1F
100
AcDbEntity
  8
0-F
  6
Continuous
 62
     7
370
    13
100
AcDbLine
 10
505.4053641654352
 20
280.3377883498733
 30
0.0
 11
505.4053641654352
 21
481.8378097946579
 31
0.0
  0
LINE
  5
D8
330
1F
100
AcDbEntity
  8
0-F
  6
Continuous
 62
     7
370
    13
100
AcDbLine
 10
605.4053229254646
 20
280.3377883498733
 30
0.0
 11
605.4053229254646
 21
481.8378097946579
 31
0.0
  0
LINE
  5
D9
330
1F
100
AcDbEntity
  8
0-F
  6
Continuous
 62
     7
370
    13
100
AcDbLine
 10
105.4054054054055
 20
380.3378708298142
 30
0.0
 11
105.4054054054055
 21
481.8378097946579
 31
0.0
  0
LINE
  5
DA
330
1F
100
AcDbEntity
  8
0-F
  6
Continuous
 62
     7
370
    13
100
AcDbLine
 10
-564.5602767531936
 20
138.2379232870566
 30
0.0
 11
-394.1593891865497
 21
138.2379232870566
 31
0.0
  0
LINE
  5
DB
330
1F
100
AcDbEntity
  8
0-F
  6
Continuous
 62
     7
370
    13
100
AcDbLine
 10
-564.5602767531936
 20
138.2379232870566
 30
0.0
 11
-615.3963552938925
 21
43.82806314004441
 31
0.0
  0
LINE
  5
DC
330
1F
100
AcDbEntity
  8
0-F
  6
Continuous
 62
     7
370
    13
100
AcDbLine
 10
-260.8838467984586
 20
140.9521525614971
 30
0.0
 11
-311.7199253391574
 21
46.5422924144849
 31
0.0
  0
LINE
  5
DD
330
1F
100
AcDbEntity
  8
0-F
  6
Continuous
 62
     7
370
    13
100
AcDbLine
 10
69.21275370829818
 20
-225.3143351786845
 30
0.0
 11
269.4055505701013
 21
-109.8184575261296
 31
0.0
  0
LINE
  5
DE
330
1F
100
AcDbEntity
  8
0-F
  6
Continuous
 62
     7
370
    13
100
AcDbLine
 10
269.4055505701013
 20
-109.8184575261296
 30
0.0
 11
257.5023341823268
 21
-118.9460177034945
 31
0.0
  0
LINE
  5
DF
330
1F
100
AcDbEntity
  8
0-F
  6
Continuous
 62
     7
370
    13
100
AcDbLine
 10
269.4055505701013
 20
-109.8184575261296
 30
0.0
 11
255.5455800649284
 21
-115.554298194679
 31
0.0
  0
LINE
  5
E0
330
1F
100
AcDbEntity
  8
0-F
  6
Continuous
 62
     7
370
    13
100
AcDbLine
 10
-615.3963552938925
 20
43.82806314004441
 30
0.0
 11
-610.0694707922033
 21
57.85035416886615
 31
0.0
  0
LINE
  5
E1
330
1F
100
AcDbEntity
  8
0-F
  6
Continuous
 62
     7
370
    13
100
AcDbLine
 10
-615.3963552938925
 20
43.82806314004441
 30
0.0
 11
-606.621891743428
 21
55.9939368995461
 31
0.0
  0
LINE
  5
E2
330
1F
100
AcDbEntity
  8
0-F
  6
Continuous
 62
     7
370
    13
100
AcDbLine
 10
-311.7199253391574
 20
46.5422924144849
 30
0.0
 11
-306.393102697424
 21
60.56458344330665
 31
0.0
  0
LINE
  5
E3
330
1F
100
AcDbEntity
  8
0-F
  6
Continuous
 62
     7
370
    13
100
AcDbLine
 10
-311.7199253391574
 20
46.5422924144849
 30
0.0
 11
-302.945461788693
 21
58.7081661739866
 31
0.0
  0
LINE
  5
E4
330
1F
100
AcDbEntity
  8
0-F
  6
Continuous
 62
     7
370
    13
100
AcDbLine
 10
-180.6501852499471
 20
-133.6097346125422
 30
0.0
 11
14.40941063133451
 21
-133.6097346125422
 31
0.0
  0
LINE
  5
E5
330
1F
100
AcDbEntity
  8
0-F
  6
Continuous
 62
     7
370
    13
100
AcDbLine
 10
105.4054054054055
 20
292.8377058699324
 30
0.0
 11
324.7329711914062
 21
292.8377058699324
 31
0.0
  0
LINE
  5
E6
330
1F
100
AcDbEntity
  8
0-F
  6
Continuous
 62
     7
370
    13
100
AcDbLine
 10
105.4054054054055
 20
292.8377058699324
 30
0.0
 11
120.2770336254224
 21
294.7955734665329
 31
0.0
  0
LINE
  5
E7
330
1F
100
AcDbEntity
  8
0-F
  6
Continuous
 62
     7
370
    13
100
AcDbLine
 10
105.4054054054055
 20
292.8377058699324
 30
0.0
 11
120.2770336254224
 21
290.879838273332
 31
0.0
  0
LINE
  5
E8
330
1F
100
AcDbEntity
  8
0-F
  6
Continuous
 62
     7
370
    13
100
AcDbLine
 10
275.4054713893581
 20
292.8377058699324
 30
0.0
 11
260.5338431693414
 21
294.7955734665329
 31
0.0
  0
LINE
  5
E9
330
1F
100
AcDbEntity
  8
0-F
  6
Continuous
 62
     7
370
    13
100
AcDbLine
 10
275.4054713893581
 20
292.8377058699324
 30
0.0
 11
260.5338431693414
 21
290.879838273332
 31
0.0
  0
LINE
  5
EA
330
1F
100
AcDbEntity
  8
0-F
  6
Continuous
 62
     7
370
    13
100
AcDbLine
 10
14.40941063133451
 20
-133.6097346125422
 30
0.0
 11
171.7919014595651
 21
-42.8121865762246
 31
0.0
  0
LINE
  5
EB
330
1F
100
AcDbEntity
  8
0-F
  6
Continuous
 62
     7
370
    13
100
AcDbLine
 10
171.7919014595651
 20
-42.8121865762246
 30
0.0
 11
159.8886850717906
 21
-51.93974675358945
 31
0.0
  0
LINE
  5
EC
330
1F
100
AcDbEntity
  8
0-F
  6
Continuous
 62
     7
370
    13
100
AcDbLine
 10
171.7919014595651
 20
-42.8121865762246
 30
0.0
 11
157.9319309543919
 21
-48.54802724477409
 31
0.0
  0
LINE
  5
ED
330
1F
100
AcDbEntity
  8
0-5
  6
Continuous
 62
     6
370
    13
100
AcDbLine
 10
105.4054054054055
 20
46.33784526103256
 30
0.0
 11
105.4054054054055
 21
370.3378378378379
 31
0.0
  0
LINE
  5
EE
330
1F
100
AcDbEntity
  8
0-5
  6
Continuous
 62
     6
370
    13
100
AcDbLine
 10
405.4054054054055
 20
33.4878622519004
 30
0.0
 11
405.4054054054055
 21
220.3378378378379
 31
0.0
  0
LINE
  5
EF
330
1F
100
AcDbEntity
  8
0-F
  6
Continuous
 62
     7
370
    13
100
AcDbLine
 10
-720.5945607778187
 20
-55.66216958535676
 30
0.0
 11
-720.5945607778187
 21
46.33784526103256
 31
0.0
  0
LINE
  5
F0
330
1F
100
AcDbEntity
  8
0-F
  6
Continuous
 62
     7
370
    13
100
AcDbLine
 10
-720.5945607778187
 20
-55.66216958535676
 30
0.0
 11
-722.5524283744193
 21
-40.79047950538424
 31
0.0
  0
LINE
  5
F1
330
1F
100
AcDbEntity
  8
0-F
  6
Continuous
 62
     7
370
    13
100
AcDbLine
 10
-720.5945607778187
 20
-55.66216958535676
 30
0.0
 11
-718.6368169011297
 21
-40.79047950538424
 31
0.0
  0
LINE
  5
F2
330
1F
100
AcDbEntity
  8
0-F
  6
Continuous
 62
     7
370
    13
100
AcDbLine
 10
-720.5945607778187
 20
46.33784526103256
 30
0.0
 11
-722.5524283744193
 21
31.46615518106003
 31
0.0
  0
LINE
  5
F3
330
1F
100
AcDbEntity
  8
0-F
  6
Continuous
 62
     7
370
    13
100
AcDbLine
 10
-720.5945607778187
 20
46.33784526103256
 30
0.0
 11
-718.6368169011297
 21
31.46615518106003
 31
0.0
  0
LINE
  5
F4
330
1F
100
AcDbEntity
  8
0-F
  6
Continuous
 62
     7
370
    13
100
AcDbLine
 10
-218.0265890585409
 20
-225.3143351786845
 30
0.0
 11
69.21275370829818
 21
-225.3143351786845
 31
0.0
  0
LINE
  5
F5
330
1F
100
AcDbEntity
  8
0-F
  6
Continuous
 62
     7
370
    13
100
AcDbLine
 10
475.4053889094172
 20
-42.8121865762246
 30
0.0
 11
475.4053889094172
 21
33.4878622519004
 31
0.0
  0
LINE
  5
F6
330
1F
100
AcDbEntity
  8
0-F
  6
Continuous
 62
     7
370
    13
100
AcDbLine
 10
415.4054383973818
 20
-42.8121865762246
 30
0.0
 11
476.9053691142315
 21
-42.8121865762246
 31
0.0
  0
LINE
  5
F7
330
1F
100
AcDbEntity
  8
0-F
  6
Continuous
 62
     7
370
    13
100
AcDbLine
 10
415.4054383973818
 20
33.4878622519004
 30
0.0
 11
476.9053691142315
 21
33.4878622519004
 31
0.0
  0
LINE
  5
F8
330
1F
100
AcDbEntity
  8
0-F
  6
Continuous
 62
     7
370
    13
100
AcDbLine
 10
475.4053889094172
 20
-42.8121865762246
 30
0.0
 11
473.4475213128169
 21
-27.94049649625208
 31
0.0
  0
LINE
  5
F9
330
1F
100
AcDbEntity
  8
0-F
  6
Continuous
 62
     7
370
    13
100
AcDbLine
 10
475.4053889094172
 20
-42.8121865762246
 30
0.0
 11
477.3632565060177
 21
-27.94049649625208
 31
0.0
  0
LINE
  5
FA
330
1F
100
AcDbEntity
  8
0-F
  6
Continuous
 62
     7
370
    13
100
AcDbLine
 10
475.4053889094172
 20
33.4878622519004
 30
0.0
 11
473.4475213128169
 21
18.61617217192787
 31
0.0
  0
LINE
  5
FB
330
1F
100
AcDbEntity
  8
0-F
  6
Continuous
 62
     7
370
    13
100
AcDbLine
 10
475.4053889094172
 20
33.4878622519004
 30
0.0
 11
477.3632565060177
 21
18.61617217192787
 31
0.0
  0
LINE
  5
FC
330
1F
100
AcDbEntity
  8
0-F
  6
Continuous
 62
     7
370
    13
100
AcDbLine
 10
405.4054054054055
 20
230.3378089698586
 30
0.0
 11
405.4054054054055
 21
481.8378097946579
 31
0.0
  0
LINE
  5
FD
330
1F
100
AcDbEntity
  8
0-F
  6
Continuous
 62
     7
370
    13
100
AcDbLine
 10
295.4055373733109
 20
292.8377058699324
 30
0.0
 11
310.2771655933279
 21
294.7955734665329
 31
0.0
  0
LINE
  5
FE
330
1F
100
AcDbEntity
  8
0-F
  6
Continuous
 62
     7
370
    13
100
AcDbLine
 10
295.4055373733109
 20
292.8377058699324
 30
0.0
 11
310.2771655933279
 21
290.879838273332
 31
0.0
  0
LINE
  5
FF
330
1F
100
AcDbEntity
  8
0-F
  6
Continuous
 62
     7
370
    13
100
AcDbLine
 10
275.4054713893581
 20
152.8377388619089
 30
0.0
 11
275.4054713893581
 21
294.3376860747466
 31
0.0
  0
LINE
  5
100
330
1F
100
AcDbEntity
  8
0-F
  6
Continuous
 62
     7
370
    13
100
AcDbLine
 10
295.4055373733109
 20
20.14139123865078
 30
0.0
 11
295.4055373733109
 21
294.3376860747466
 31
0.0
  0
LINE
  5
101
330
1F
100
AcDbEntity
  8
0-5
  6
Continuous
 62
     6
370
    13
100
AcDbLine
 10
505.4053641654352
 20
-68.20013097814609
 30
0.0
 11
405.4054054054055
 21
-168.2000897381756
 31
0.0
  0
LINE
  5
102
330
1F
100
AcDbEntity
  8
0-5
  6
Continuous
 62
     6
370
    13
100
AcDbLine
 10
505.4053641654352
 20
-72.44273417704804
 30
0.0
 11
405.4054054054055
 21
-172.4426929370777
 31
0.0
  0
LINE
  5
103
330
1F
100
AcDbEntity
  8
0-5
  6
Continuous
 62
     6
370
    13
100
AcDbLine
 10
505.4053641654352
 20
-76.68533737595013
 30
0.0
 11
405.4054054054055
 21
-176.6853579959354
 31
0.0
  0
LINE
  5
104
330
1F
100
AcDbEntity
  8
0-5
  6
Continuous
 62
     6
370
    13
100
AcDbLine
 10
505.4053641654352
 20
178.7348525588577
 30
0.0
 11
405.4054054054055
 21
78.73489379882812
 31
0.0
  0
LINE
  5
105
330
1F
100
AcDbEntity
  8
0-5
  6
Continuous
 62
     6
370
    13
100
AcDbLine
 10
505.4053641654352
 20
174.4922493599557
 30
0.0
 11
405.4054054054055
 21
74.49229059992618
 31
0.0
  0
LINE
  5
106
330
1F
100
AcDbEntity
  8
0-5
  6
Continuous
 62
     6
370
    13
100
AcDbLine
 10
505.4053641654352
 20
170.2496461610536
 30
0.0
 11
405.4054054054055
 21
70.24968740102409
 31
0.0
  0
LINE
  5
107
330
1F
100
AcDbEntity
  8
0-F
  6
Continuous
 62
     7
370
    13
100
AcDbLine
 10
685.4053394214529
 20
-179.6621209221917
 30
0.0
 11
685.4053394214529
 21
170.3377965978675
 31
0.0
  0
LINE
  5
108
330
1F
100
AcDbEntity
  8
0-F
  6
Continuous
 62
     7
370
    13
100
AcDbLine
 10
615.4053559174408
 20
-179.6621209221917
 30
0.0
 11
686.9053196262669
 21
-179.6621209221917
 31
0.0
  0
LINE
  5
109
330
1F
100
AcDbEntity
  8
0-F
  6
Continuous
 62
     7
370
    13
100
AcDbLine
 10
615.4053559174408
 20
170.3377965978675
 30
0.0
 11
686.9053196262669
 21
170.3377965978675
 31
0.0
  0
LINE
  5
10A
330
1F
100
AcDbEntity
  8
0-F
  6
Continuous
 62
     7
370
    13
100
AcDbLine
 10
685.4053394214529
 20
-179.6621209221917
 30
0.0
 11
683.4474718248523
 21
-164.7904308422191
 31
0.0
  0
LINE
  5
10B
330
1F
100
AcDbEntity
  8
0-F
  6
Continuous
 62
     7
370
    13
100
AcDbLine
 10
685.4053394214529
 20
-179.6621209221917
 30
0.0
 11
687.3632070180533
 21
-164.7904308422191
 31
0.0
  0
LINE
  5
10C
330
1F
100
AcDbEntity
  8
0-F
  6
Continuous
 62
     7
370
    13
100
AcDbLine
 10
685.4053394214529
 20
170.3377965978675
 30
0.0
 11
683.4474718248523
 21
155.4661065178949
 31
0.0
  0
LINE
  5
10D
330
1F
100
AcDbEntity
  8
0-F
  6
Continuous
 62
     7
370
    13
100
AcDbLine
 10
685.4053394214529
 20
170.3377965978675
 30
0.0
 11
687.3632070180533
 21
155.4661065178949
 31
0.0
  0
LINE
  5
10E
330
1F
100
AcDbEntity
  8
0-F
  6
Continuous
 62
     7
370
    13
100
AcDbLine
 10
745.4052899334883
 20
-229.6621621621621
 30
0.0
 11
745.4052899334883
 21
220.3378378378379
 31
0.0
  0
LINE
  5
10F
330
1F
100
AcDbEntity
  8
0-F
  6
Continuous
 62
     7
370
    13
100
AcDbLine
 10
745.4052899334883
 20
-229.6621621621621
 30
0.0
 11
743.4474223368877
 21
-214.7904720821896
 31
0.0
  0
LINE
  5
110
330
1F
100
AcDbEntity
  8
0-F
  6
Continuous
 62
     7
370
    13
100
AcDbLine
 10
745.4052899334883
 20
-229.6621621621621
 30
0.0
 11
747.3631575300888
 21
-214.7904720821896
 31
0.0
  0
LINE
  5
111
330
1F
100
AcDbEntity
  8
0-F
  6
Continuous
 62
     7
370
    13
100
AcDbLine
 10
745.4052899334883
 20
220.3378378378379
 30
0.0
 11
743.4474223368877
 21
205.4661477578654
 31
0.0
  0
LINE
  5
112
330
1F
100
AcDbEntity
  8
0-F
  6
Continuous
 62
     7
370
    13
100
AcDbLine
 10
745.4052899334883
 20
220.3378378378379
 30
0.0
 11
747.3631575300888
 21
205.4661477578654
 31
0.0
  0
LINE
  5
113
330
1F
100
AcDbEntity
  8
0-F
  6
Continuous
 62
     7
370
    13
100
AcDbLine
 10
805.4052404455238
 20
-279.6621415421769
 30
0.0
 11
805.4052404455238
 21
270.3378172178527
 31
0.0
  0
LINE
  5
114
330
1F
100
AcDbEntity
  8
0-F
  6
Continuous
 62
     7
370
    13
100
AcDbLine
 10
805.4052404455238
 20
-279.6621415421769
 30
0.0
 11
803.4473728489231
 21
-264.7904514622044
 31
0.0
  0
LINE
  5
115
330
1F
100
AcDbEntity
  8
0-F
  6
Continuous
 62
     7
370
    13
100
AcDbLine
 10
805.4052404455238
 20
-279.6621415421769
 30
0.0
 11
807.3631080421242
 21
-264.7904514622044
 31
0.0
  0
LINE
  5
116
330
1F
100
AcDbEntity
  8
0-F
  6
Continuous
 62
     7
370
    13
100
AcDbLine
 10
805.4052404455238
 20
270.3378172178527
 30
0.0
 11
803.4473728489231
 21
255.4661271378801
 31
0.0
  0
LINE
  5
117
330
1F
100
AcDbEntity
  8
0-F
  6
Continuous
 62
     7
370
    13
100
AcDbLine
 10
805.4052404455238
 20
270.3378172178527
 30
0.0
 11
807.3631080421242
 21
255.4661271378801
 31
0.0
  0
LINE
  5
118
330
1F
100
AcDbEntity
  8
0-F
  6
Continuous
 62
     7
370
    13
100
AcDbLine
 10
615.4053559174408
 20
270.3378172178527
 30
0.0
 11
806.905220650338
 21
270.3378172178527
 31
0.0
  0
LINE
  5
119
330
1F
100
AcDbEntity
  8
0-F
  6
Continuous
 62
     7
370
    13
100
AcDbLine
 10
615.4053559174408
 20
-279.6621415421769
 30
0.0
 11
806.905220650338
 21
-279.6621415421769
 31
0.0
  0
LINE
  5
11A
330
1F
100
AcDbEntity
  8
0-F
  6
Continuous
 62
     7
370
    13
100
AcDbLine
 10
615.4053559174408
 20
220.3378378378379
 30
0.0
 11
746.9052701383023
 21
220.3378378378379
 31
0.0
  0
LINE
  5
11B
330
1F
100
AcDbEntity
  8
0-F
  6
Continuous
 62
     7
370
    13
100
AcDbLine
 10
615.4053559174408
 20
-229.6621621621621
 30
0.0
 11
746.9052701383023
 21
-229.6621621621621
 31
0.0
  0
LINE
  5
11C
330
1F
100
AcDbEntity
  8
0-2
  6
Continuous
 62
     3
370
    13
100
AcDbLine
 10
-599.5945389206345
 20
46.33784526103256
 30
0.0
 11
-594.5945533546242
 21
46.33784526103256
 31
0.0
  0
LINE
  5
11D
330
1F
100
AcDbEntity
  8
0-2
  6
Continuous
 62
     3
370
    13
100
AcDbLine
 10
-599.5945389206345
 20
-55.66216958535676
 30
0.0
 11
-594.5945533546242
 21
-55.66216958535676
 31
0.0
  0
LINE
  5
11E
330
1F
100
AcDbEntity
  8
0-F
  6
Continuous
 62
     7
370
    13
100
AcDbLine
 10
90.53377718538854
 20
478.3799619932433
 30
0.0
 11
120.2770336254224
 21
482.2956971864443
 31
0.0
  0
LINE
  5
11F
330
1F
100
AcDbEntity
  8
0-F
  6
Continuous
 62
     7
370
    13
100
AcDbLine
 10
-650.5945154138512
 20
480.3378295898438
 30
0.0
 11
605.4053229254646
 21
480.3378295898438
 31
0.0
  0
LINE
  5
120
330
1F
100
AcDbEntity
  8
0-F
  6
Continuous
 62
     7
370
    13
100
AcDbLine
 10
90.53377718538854
 20
482.2956971864443
 30
0.0
 11
120.2770336254224
 21
478.3799619932433
 31
0.0
  0
LINE
  5
121
330
1F
100
AcDbEntity
  8
0-0
  6
JWW_CENTER2
 62
     7
370
    13
100
AcDbLine
 10
-680.5945525298248
 20
-4.662162162162105
 30
0.0
 11
435.4053806614232
 21
-4.662162162162105
 31
0.0
  0
LINE
  5
122
330
1F
100
AcDbEntity
  8
0-F
  6
Continuous
 62
     7
370
    13
100
AcDbLine
 10
-604.5945554166226
 20
46.33784526103256
 30
0.0
 11
-722.0946647025443
 21
46.33784526103256
 31
0.0
  0
LINE
  5
123
330
1F
100
AcDbEntity
  8
0-F
  6
Continuous
 62
     7
370
    13
100
AcDbLine
 10
-604.5945554166226
 20
-55.66216958535676
 30
0.0
 11
-722.0946647025443
 21
-55.66216958535676
 31
0.0
  0
LINE
  5
124
330
1F
100
AcDbEntity
  8
0-F
  6
Continuous
 62
     7
370
    13
100
AcDbLine
 10
-650.5945463438292
 20
5.3378089698586
 30
0.0
 11
-650.5945463438292
 21
481.8378097946579
 31
0.0
  0
LINE
  5
125
330
1F
100
AcDbEntity
  8
0-F
  6
Continuous
 62
     7
370
    13
100
AcDbLine
 10
-650.5945463438292
 20
480.3378295898438
 30
0.0
 11
-635.7228562638567
 21
482.2956971864443
 31
0.0
  0
LINE
  5
126
330
1F
100
AcDbEntity
  8
0-F
  6
Continuous
 62
     7
370
    13
100
AcDbLine
 10
-650.5945463438292
 20
480.3378295898438
 30
0.0
 11
-635.7228562638567
 21
478.3799619932433
 31
0.0
  0
LINE
  5
127
330
1F
100
AcDbEntity
  8
0-5
  6
Continuous
 62
     6
370
    13
100
AcDbLine
 10
605.4053229254646
 20
189.5088154560811
 30
0.0
 11
585.4053806614231
 21
177.96178869299
 31
0.0
  0
LINE
  5
128
330
1F
100
AcDbEntity
  8
0-5
  6
Continuous
 62
     6
370
    13
100
AcDbLine
 10
605.4053229254646
 20
120.2267785974452
 30
0.0
 11
585.4053806614231
 21
108.6796899743983
 31
0.0
  0
LINE
  5
129
330
1F
100
AcDbEntity
  8
0-5
  6
Continuous
 62
     6
370
    13
100
AcDbLine
 10
605.4053229254646
 20
-221.9270695866765
 30
0.0
 11
585.4053806614231
 21
-233.4741582097234
 31
0.0
  0
LINE
  5
12A
330
1F
100
AcDbEntity
  8
0-1
  6
Continuous
 62
     4
370
    13
100
AcDbLine
 10
-589.5945368586359
 20
45.26915266707135
 30
0.0
 11
105.4054054054055
 21
45.26915266707135
 31
0.0
  0
LINE
  5
12B
330
1F
100
AcDbEntity
  8
0-1
  6
Continuous
 62
     4
370
    13
100
AcDbLine
 10
-589.5945368586359
 20
40.22379282358528
 30
0.0
 11
105.4054054054055
 21
40.22379282358528
 31
0.0
  0
LINE
  5
12C
330
1F
100
AcDbEntity
  8
0-1
  6
Continuous
 62
     4
370
    13
100
AcDbLine
 10
-589.5945368586359
 20
29.85099173880911
 30
0.0
 11
105.4054054054055
 21
29.85099173880911
 31
0.0
  0
LINE
  5
12D
330
1F
100
AcDbEntity
  8
0-1
  6
Continuous
 62
     4
370
    13
100
AcDbLine
 10
-589.5945368586359
 20
29.29784001530834
 30
0.0
 11
105.4054054054055
 21
29.29784001530834
 31
0.0
  0
LINE
  5
12E
330
1F
100
AcDbEntity
  8
0-1
  6
Continuous
 62
     4
370
    13
100
AcDbLine
 10
-589.5945368586359
 20
11.30921234955665
 30
0.0
 11
105.4054054054055
 21
11.30921234955665
 31
0.0
  0
LINE
  5
12F
330
1F
100
AcDbEntity
  8
0-1
  6
Continuous
 62
     4
370
    13
100
AcDbLine
 10
-589.5945368586359
 20
5.710638922614066
 30
0.0
 11
105.4054054054055
 21
5.710638922614066
 31
0.0
  0
LINE
  5
130
330
1F
100
AcDbEntity
  8
0-1
  6
Continuous
 62
     4
370
    13
100
AcDbLine
 10
-589.5945368586359
 20
-54.5934769913957
 30
0.0
 11
105.4054054054055
 21
-54.5934769913957
 31
0.0
  0
LINE
  5
131
330
1F
100
AcDbEntity
  8
0-1
  6
Continuous
 62
     4
370
    13
100
AcDbLine
 10
-589.5945368586359
 20
-49.54811714790964
 30
0.0
 11
105.4054054054055
 21
-49.54811714790964
 31
0.0
  0
LINE
  5
132
330
1F
100
AcDbEntity
  8
0-1
  6
Continuous
 62
     4
370
    13
100
AcDbLine
 10
-589.5945368586359
 20
-39.17531606313347
 30
0.0
 11
105.4054054054055
 21
-39.17531606313347
 31
0.0
  0
LINE
  5
133
330
1F
100
AcDbEntity
  8
0-1
  6
Continuous
 62
     4
370
    13
100
AcDbLine
 10
-589.5945368586359
 20
-38.62216433963255
 30
0.0
 11
105.4054054054055
 21
-38.62216433963255
 31
0.0
  0
LINE
  5
134
330
1F
100
AcDbEntity
  8
0-1
  6
Continuous
 62
     4
370
    13
100
AcDbLine
 10
-589.5945368586359
 20
-20.63353667388085
 30
0.0
 11
105.4054054054055
 21
-20.63353667388085
 31
0.0
  0
LINE
  5
135
330
1F
100
AcDbEntity
  8
0-1
  6
Continuous
 62
     4
370
    13
100
AcDbLine
 10
-589.5945368586359
 20
-15.03496324693828
 30
0.0
 11
105.4054054054055
 21
-15.03496324693828
 31
0.0
  0
ARC
  5
136
330
1F
100
AcDbEntity
  8
0-4
  6
Continuous
 62
     7
370
    13
100
AcDbCircle
 10
275.4054713893581
 20
23.48789111987969
 30
0.0
 40
18.05717622911608
100
AcDbArc
 50
70.59292602539062
 51
109.4070739746094
  0
ARC
  5
137
330
1F
100
AcDbEntity
  8
0-4
  6
Continuous
 62
     7
370
    13
100
AcDbCircle
 10
266.6221000052789
 20
37.12844436233112
 30
0.0
 40
4.386721913878983
100
AcDbArc
 50
50.61749267578125
 51
96.39555358886719
  0
ARC
  5
138
330
1F
100
AcDbEntity
  8
0-4
  6
Continuous
 62
     7
370
    13
100
AcDbCircle
 10
284.3752886797932
 20
36.49846257390209
 30
0.0
 40
4.998536206580497
100
AcDbArc
 50
86.53479003906251
 51
126.4519348144532
  0
ARC
  5
139
330
1F
100
AcDbEntity
  8
0-4
  6
Continuous
 62
     7
370
    13
100
AcDbCircle
 10
275.4054713893581
 20
-32.8122154442039
 30
0.0
 40
18.05717622911608
100
AcDbArc
 50
250.5929260253907
 51
289.4070739746094
  0
ARC
  5
13A
330
1F
100
AcDbEntity
  8
0-4
  6
Continuous
 62
     7
370
    13
100
AcDbCircle
 10
266.6221000052789
 20
-46.45276868665533
 30
0.0
 40
4.386721913878983
100
AcDbArc
 50
263.6044464111328
 51
309.3825073242188
  0
ARC
  5
13B
330
1F
100
AcDbEntity
  8
0-4
  6
Continuous
 62
     7
370
    13
100
AcDbCircle
 10
284.3752886797932
 20
-45.8227868982263
 30
0.0
 40
4.998536206580497
100
AcDbArc
 50
233.5480651855469
 51
273.4652099609375
  0
CIRCLE
  5
13C
330
1F
100
AcDbEntity
  8
0-4
  6
Continuous
 62
     7
370
    13
100
AcDbCircle
 10
295.4055373733109
 20
-4.662162162162105
 30
0.0
 40
9.499999639150259
  0
CIRCLE
  5
13D
330
1F
100
AcDbEntity
  8
0-4
  6
Continuous
 62
     7
370
    13
100
AcDbCircle
 10
295.4055373733109
 20
-4.662162162162105
 30
0.0
 40
5.999999594044041
  0
CIRCLE
  5
13E
330
1F
100
AcDbEntity
  8
0-4
  6
Continuous
 62
     7
370
    13
100
AcDbCircle
 10
295.4055373733109
 20
-4.662162162162105
 30
0.0
 40
4.99999958115655
  0
ARC
  5
13F
330
1F
100
AcDbEntity
  8
0-2
  6
Continuous
 62
     3
370
    13
100
AcDbCircle
 10
-599.5945389206345
 20
-4.662162162162105
 30
0.0
 40
51.00000742319467
100
AcDbArc
 50
90.0
 51
270.0
  0
TEXT
  5
140
330
1F
100
AcDbEntity
  8
0-F
  6
Continuous
 62
     2
370
    13
100
AcDbText
 10
239.1554054054055
 20
485.6578378378379
 30
0.0
 40
15.24
  1
300
 41
1.083333333333333
  7
ＭＳ ゴシック
100
AcDbText
  0
TEXT
  5
141
330
1F
100
AcDbEntity
  8
0-F
  6
Continuous
 62
     2
370
    13
100
AcDbText
 10
439.1553229254646
 20
485.6578378378379
 30
0.0
 40
15.24
  1
100
 41
1.083333333333333
  7
ＭＳ ゴシック
100
AcDbText
  0
TEXT
  5
142
330
1F
100
AcDbEntity
  8
0-F
  6
Continuous
 62
     2
370
    13
100
AcDbText
 10
539.1552816854942
 20
485.6578378378379
 30
0.0
 40
15.24
  1
100
 41
1.083333333333333
  7
ＭＳ ゴシック
100
AcDbText
  0
TEXT
  5
143
330
1F
100
AcDbEntity
  8
0-F
  6
Continuous
 62
     7
370
    13
100
AcDbText
 10
-556.7182355313687
 20
148.4610313951647
 30
0.0
 40
11.43
  1
トップ：ＦＣ２００
 41
1.148148148148148
  7
ＭＳ ゴシック
100
AcDbText
  0
TEXT
  5
144
330
1F
100
AcDbEntity
  8
0-F
  6
Continuous
 62
     7
370
    13
100
AcDbText
 10
-253.0417261896906
 20
151.1752606696052
 30
0.0
 40
11.43
  1
本体：ＦＣ２００
 41
1.145833333333333
  7
ＭＳ ゴシック
100
AcDbText
  0
TEXT
  5
145
330
1F
100
AcDbEntity
  8
0-F
  6
Continuous
 62
     7
370
    13
100
AcDbText
 10
-175.5905233847128
 20
-123.3866265044341
 30
0.0
 40
11.43
  1
埋設管：６５Ａ
 41
1.142857142857143
  7
ＭＳ ゴシック
100
AcDbText
  0
TEXT
  5
146
330
1F
100
AcDbEntity
  8
0-F
  6
Continuous
 62
     7
370
    13
100
AcDbText
 10
-203.485534255569
 20
-245.4848790844066
 30
0.0
 40
11.43
  1
ＳＳ４００，防錆塗装
 41
1.15
  7
ＭＳ ゴシック
100
AcDbText
  0
TEXT
  5
147
330
1F
100
AcDbEntity
  8
0-F
  6
Continuous
 62
     2
370
    13
100
AcDbText
 10
174.1554383973818
 20
298.1577141179266
 30
0.0
 40
15.24
  1
170
 41
1.083333333333333
  7
ＭＳ ゴシック
100
AcDbText
  0
TEXT
  5
148
330
1F
100
AcDbEntity
  8
0-F
  6
Continuous
 62
     2
370
    13
100
AcDbText
 10
-725.9146927457242
 20
-34.10768869760865
 30
0.0
 40
15.24
  1
φ102
 50
90.0
 41
1.1
  7
ＭＳ ゴシック
100
AcDbText
  0
TEXT
  5
149
330
1F
100
AcDbEntity
  8
0-F
  6
Continuous
 62
     7
370
    13
100
AcDbText
 10
-203.4855136355838
 20
-215.0912270705764
 30
0.0
 40
11.43
  1
アンカーボルト：Ｍ１２×２７５
 41
1.155555555555555
  7
ＭＳ ゴシック
100
AcDbText
  0
TEXT
  5
14A
330
1F
100
AcDbEntity
  8
0-F
  6
Continuous
 62
     2
370
    13
100
AcDbText
 10
470.0853806614232
 20
-39.49709505648222
 30
0.0
 40
15.24
  1
φ76.3
 50
90.0
 41
1.104166666666667
  7
ＭＳ ゴシック
100
AcDbText
  0
TEXT
  5
14B
330
1F
100
AcDbEntity
  8
0-F
  6
Continuous
 62
     2
370
    13
100
AcDbText
 10
274.7805662412902
 20
298.1577141179266
 30
0.0
 40
15.24
  1
20
 41
1.0625
  7
ＭＳ ゴシック
100
AcDbText
  0
TEXT
  5
14C
330
1F
100
AcDbEntity
  8
0-F
  6
Continuous
 62
     2
370
    13
100
AcDbText
 10
680.0853311734585
 20
-20.91216216216218
 30
0.0
 40
15.24
  1
350
 50
90.0
 41
1.083333333333333
  7
ＭＳ ゴシック
100
AcDbText
  0
TEXT
  5
14D
330
1F
100
AcDbEntity
  8
0-F
  6
Continuous
 62
     2
370
    13
100
AcDbText
 10
740.0852816854942
 20
-20.91216216216218
 30
0.0
 40
15.24
  1
450
 50
90.0
 41
1.083333333333333
  7
ＭＳ ゴシック
100
AcDbText
  0
TEXT
  5
14E
330
1F
100
AcDbEntity
  8
0-F
  6
Continuous
 62
     2
370
    13
100
AcDbText
 10
800.0852321975296
 20
-20.91216216216218
 30
0.0
 40
15.24
  1
550
 50
90.0
 41
1.083333333333333
  7
ＭＳ ゴシック
100
AcDbText
  0
TEXT
  5
14F
330
1F
100
AcDbEntity
  8
0-F
  6
Continuous
 62
     2
370
    13
100
AcDbText
 10
-288.844555004223
 20
485.6578378378379
 30
0.0
 40
15.24
  1
756
 41
1.083333333333333
  7
ＭＳ ゴシック
100
AcDbText
  0
TEXT
  5
150
330
1F
100
AcDbEntity
  8
F-5
  6
Continuous
 62
     2
370
    13
100
AcDbText
 10
-406.2501443398965
 20
-673.7341478749868
 30
0.0
 40
15.24
  1
固定式　鋳鉄製ストライプ型　車止め　Ｃ１０７０Ｒ
 41
1.119791666666667
  7
ＭＳ ゴシック
100
AcDbText
  0
TEXT
  5
151
330
1F
100
AcDbEntity
  8
0-F
  6
Continuous
 62
     7
370
    13
100
AcDbText
 10
-175.5905625626847
 20
-153.7802785182643
 30
0.0
 40
11.43
  1
ＳＧＰ，溶融亜鉛めっき
 41
1.151515151515152
  7
ＭＳ ゴシック
100
AcDbText
  0
TEXT
  5
152
330
1F
100
AcDbEntity
  8
0-F
  6
Continuous
 62
     7
370
    13
100
AcDbText
 10
-556.7182582133524
 20
118.0673793813345
 30
0.0
 40
11.43
  1
亜鉛溶射＋焼付塗装
 41
1.148148148148148
  7
ＭＳ ゴシック
100
AcDbText
  0
TEXT
  5
153
330
1F
100
AcDbEntity
  8
0-F
  6
Continuous
 62
     7
370
    13
100
AcDbText
 10
-253.0417488716743
 20
120.781608655775
 30
0.0
 40
11.43
  1
亜鉛溶射＋焼付塗装
 41
1.148148148148148
  7
ＭＳ ゴシック
100
AcDbText
  0
LINE
  5
154
330
1F
100
AcDbEntity
  8
0-F
  6
Continuous
 62
     7
370
    13
100
AcDbLine
 10
-260.8838467984586
 20
140.9521525614971
 30
0.0
 11
-97.97083333333333
 21
140.9521525614971
 31
0.0
  0
ENDSEC
  0
SECTION
  2
OBJECTS
  0
DICTIONARY
  5
C
330
0
100
AcDbDictionary
281
     1
  3
ACAD_GROUP
350
D
  3
ACAD_LAYOUT
350
1A
  3
ACAD_MLEADERSTYLE
350
156
  3
ACAD_MLINESTYLE
350
17
  3
ACAD_PLOTSETTINGS
350
19
  3
ACAD_PLOTSTYLENAME
350
E
  3
ACAD_TABLESTYLE
350
155
  3
ACAD_VISUALSTYLE
350
2A
  0
DICTIONARY
  5
D
102
{ACAD_REACTORS
330
C
102
}
330
C
100
AcDbDictionary
281
     1
  0
DICTIONARY
  5
1A
102
{ACAD_REACTORS
330
C
102
}
330
C
100
AcDbDictionary
281
     1
  3
Layout1
350
1E
  3
Layout2
350
26
  3
Model
350
22
  0
DICTIONARY
  5
156
102
{ACAD_REACTORS
330
C
102
}
330
C
100
AcDbDictionary
281
     1
  0
DICTIONARY
  5
17
102
{ACAD_REACTORS
330
C
102
}
330
C
100
AcDbDictionary
281
     1
  3
Standard
350
18
  0
DICTIONARY
  5
19
102
{ACAD_REACTORS
330
C
102
}
330
C
100
AcDbDictionary
281
     1
  0
ACDBDICTIONARYWDFLT
  5
E
102
{ACAD_REACTORS
330
C
102
}
330
C
100
AcDbDictionary
281
     1
  3
Normal
350
F
100
AcDbDictionaryWithDefault
340
F
  0
DICTIONARY
  5
155
102
{ACAD_REACTORS
330
C
102
}
330
C
100
AcDbDictionary
281
     1
  0
DICTIONARY
  5
2A
102
{ACAD_REACTORS
330
C
102
}
330
C
100
AcDbDictionary
281
     1
  3
2dWireframe
350
2F
  3
3D Hidden
350
31
  3
3dWireframe
350
30
  3
Basic
350
32
  3
Brighten
350
36
  3
ColorChange
350
3A
  3
Conceptual
350
34
  3
Dim
350
35
  3
Facepattern
350
39
  3
Flat
350
2B
  3
FlatWithEdges
350
2C
  3
Gouraud
350
2D
  3
GouraudWithEdges
350
2E
  3
Linepattern
350
38
  3
Realistic
350
33
  3
Thicken
350
37
  0
LAYOUT
  5
1E
102
{ACAD_REACTORS
330
1A
102
}
330
1A
100
AcDbPlotSettings
  1

  2
none_device
  4

  6

 40
0.0
 41
0.0
 42
0.0
 43
0.0
 44
0.0
 45
0.0
 46
0.0
 47
0.0
 48
0.0
 49
0.0
140
0.0
141
0.0
142
1.0
143
1.0
 70
   688
 72
     0
 73
     0
 74
     5
  7

 75
    16
 76
     0
 77
     5
 78
   300
147
1.0
148
0.0
149
0.0
100
AcDbLayout
  1
Layout1
 70
     1
 71
     1
 10
0.0
 20
0.0
 11
420.0
 21
297.0
 12
0.0
 22
0.0
 32
0.0
 14
1.000000000000000E+20
 24
1.000000000000000E+20
 34
1.000000000000000E+20
 15
-1.000000000000000E+20
 25
-1.000000000000000E+20
 35
-1.000000000000000E+20
146
0.0
 13
0.0
 23
0.0
 33
0.0
 16
1.0
 26
0.0
 36
0.0
 17
0.0
 27
1.0
 37
0.0
 76
     0
330
1B
  0
LAYOUT
  5
26
102
{ACAD_REACTORS
330
1A
102
}
330
1A
100
AcDbPlotSettings
  1

  2
none_device
  4

  6

 40
0.0
 41
0.0
 42
0.0
 43
0.0
 44
0.0
 45
0.0
 46
0.0
 47
0.0
 48
0.0
 49
0.0
140
0.0
141
0.0
142
1.0
143
1.0
 70
   688
 72
     0
 73
     0
 74
     5
  7

 75
    16
 76
     0
 77
     5
 78
   300
147
1.0
148
0.0
149
0.0
100
AcDbLayout
  1
Layout2
 70
     1
 71
     2
 10
0.0
 20
0.0
 11
0.0
 21
0.0
 12
0.0
 22
0.0
 32
0.0
 14
0.0
 24
0.0
 34
0.0
 15
0.0
 25
0.0
 35
0.0
146
0.0
 13
0.0
 23
0.0
 33
0.0
 16
1.0
 26
0.0
 36
0.0
 17
0.0
 27
1.0
 37
0.0
 76
     0
330
23
  0
LAYOUT
  5
22
102
{ACAD_REACTORS
330
1A
102
}
330
1A
100
AcDbPlotSettings
  1

  2
none_device
  4

  6

 40
0.0
 41
0.0
 42
0.0
 43
0.0
 44
0.0
 45
0.0
 46
0.0
 47
0.0
 48
0.0
 49
0.0
140
0.0
141
0.0
142
1.0
143
1.0
 70
  1712
 72
     0
 73
     0
 74
     0
  7

 75
     0
 76
     0
 77
     5
 78
   300
147
1.0
148
0.0
149
0.0
100
AcDbLayout
  1
Model
 70
     1
 71
     0
 10
-1050.0
 20
-742.5
 11
1050.0
 21
742.5
 12
0.0
 22
0.0
 32
0.0
 14
-1050.0
 24
-742.5
 34
0.0
 15
1050.0
 25
742.5
 35
0.0
146
0.0
 13
0.0
 23
0.0
 33
0.0
 16
1.0
 26
0.0
 36
0.0
 17
0.0
 27
1.0
 37
0.0
 76
     0
330
1F
331
29
  0
MLINESTYLE
  5
18
102
{ACAD_REACTORS
330
17
102
}
330
17
100
AcDbMlineStyle
  2
Standard
 70
     0
  3

 62
   256
 51
90.0
 52
90.0
 71
     2
 49
0.5
 62
   256
  6
BYLAYER
 49
-0.5
 62
   256
  6
BYLAYER
  0
ACDBPLACEHOLDER
  5
F
102
{ACAD_REACTORS
330
E
102
}
330
E
  0
VISUALSTYLE
  5
2F
102
{ACAD_REACTORS
330
2A
102
}
330
2A
100
AcDbVisualStyle
  2
2dWireframe
 70
     4
 71
     0
 72
     2
 73
     0
 90
        0
 40
-0.6
 41
-30.0
 62
     5
 63
     7
421
 16777215
 74
     1
 91
        4
 64
     7
 65
   257
 75
     1
175
     1
 42
1.0
 92
        0
 66
   257
 43
1.0
 76
     1
 77
     6
 78
     2
 67
     7
 79
     5
170
     0
171
     0
290
     0
174
     0
 93
        1
 44
0.0
173
     0
291
     0
 45
0.0
1001
ACAD
1000
AcDbSavedByObjectVersion
1070
     0
  0
VISUALSTYLE
  5
31
102
{ACAD_REACTORS
330
2A
102
}
330
2A
100
AcDbVisualStyle
  2
3D Hidden
 70
     6
 71
     1
 72
     2
 73
     2
 90
        0
 40
-0.6
 41
-30.0
 62
     5
 63
     7
421
 16777215
 74
     2
 91
        2
 64
     7
 65
   257
 75
     2
175
     1
 42
40.0
 92
        0
 66
   257
 43
1.0
 76
     1
 77
     6
 78
     2
 67
     7
 79
     3
170
     0
171
     0
290
     0
174
     0
 93
        1
 44
0.0
173
     0
291
     0
 45
0.0
1001
ACAD
1000
AcDbSavedByObjectVersion
1070
     0
  0
VISUALSTYLE
  5
30
102
{ACAD_REACTORS
330
2A
102
}
330
2A
100
AcDbVisualStyle
  2
3dWireframe
 70
     5
 71
     0
 72
     2
 73
     0
 90
        0
 40
-0.6
 41
-30.0
 62
     5
 63
     7
421
 16777215
 74
     1
 91
        4
 64
     7
 65
   257
 75
     1
175
     1
 42
1.0
 92
        0
 66
   257
 43
1.0
 76
     1
 77
     6
 78
     2
 67
     7
 79
     5
170
     0
171
     0
290
     0
174
     0
 93
        1
 44
0.0
173
     0
291
     0
 45
0.0
1001
ACAD
1000
AcDbSavedByObjectVersion
1070
     0
  0
VISUALSTYLE
  5
32
102
{ACAD_REACTORS
330
2A
102
}
330
2A
100
AcDbVisualStyle
  2
Basic
 70
     7
 71
     1
 72
     0
 73
     1
 90
        0
 40
-0.6
 41
-30.0
 62
     5
 63
     7
421
 16777215
 74
     0
 91
        4
 64
     7
 65
   257
 75
     1
175
     1
 42
1.0
 92
        8
 66
     7
 43
1.0
 76
     1
 77
     6
 78
     2
 67
     7
 79
     5
170
     0
171
     0
290
     0
174
     0
 93
        1
 44
0.0
173
     0
291
     1
 45
0.0
1001
ACAD
1000
AcDbSavedByObjectVersion
1070
     0
  0
VISUALSTYLE
  5
36
102
{ACAD_REACTORS
330
2A
102
}
330
2A
100
AcDbVisualStyle
  2
Brighten
 70
    12
 71
     2
 72
     2
 73
     0
 90
        0
 40
-0.6
 41
-30.0
 62
     5
 63
     7
421
 16777215
 74
     1
 91
        4
 64
     7
 65
   257
 75
     1
175
     1
 42
1.0
 92
        8
 66
     7
 43
1.0
 76
     1
 77
     6
 78
     2
 67
     7
 79
     5
170
     0
171
     0
290
     0
174
     0
 93
        1
 44
50.0
173
     0
291
     1
 45
0.0
1001
ACAD
1000
AcDbSavedByObjectVersion
1070
     0
  0
VISUALSTYLE
  5
3A
102
{ACAD_REACTORS
330
2A
102
}
330
2A
100
AcDbVisualStyle
  2
ColorChange
 70
    16
 71
     2
 72
     2
 73
     3
 90
        0
 40
-0.6
 41
-30.0
 62
     5
 63
     8
421
  8421504
 74
     1
 91
        4
 64
     7
 65
   257
 75
     1
175
     1
 42
1.0
 92
        8
 66
     8
424
  8421504
 43
1.0
 76
     1
 77
     6
 78
     2
 67
     7
 79
     5
170
     0
171
     0
290
     0
174
     0
 93
        1
 44
0.0
173
     0
291
     1
 45
0.0
1001
ACAD
1000
AcDbSavedByObjectVersion
1070
     0
  0
VISUALSTYLE
  5
34
102
{ACAD_REACTORS
330
2A
102
}
330
2A
100
AcDbVisualStyle
  2
Conceptual
 70
     9
 71
     3
 72
     2
 73
     0
 90
        0
 40
-0.6
 41
-30.0
 62
     5
 63
     7
421
 16777215
 74
     2
 91
        2
 64
     7
 65
   257
 75
     1
175
     1
 42
40.0
 92
        8
 66
     7
 43
1.0
 76
     1
 77
     6
 78
     2
 67
     7
 79
     3
170
     0
171
     0
290
     0
174
     0
 93
        1
 44
0.0
173
     0
291
     0
 45
0.0
1001
ACAD
1000
AcDbSavedByObjectVersion
1070
     0
  0
VISUALSTYLE
  5
35
102
{ACAD_REACTORS
330
2A
102
}
330
2A
100
AcDbVisualStyle
  2
Dim
 70
    11
 71
     2
 72
     2
 73
     0
 90
        0
 40
-0.6
 41
-30.0
 62
     5
 63
     7
421
 16777215
 74
     1
 91
        4
 64
     7
 65
   257
 75
     1
175
     1
 42
1.0
 92
        8
 66
     7
 43
1.0
 76
     1
 77
     6
 78
     2
 67
     7
 79
     5
170
     0
171
     0
290
     0
174
     0
 93
        1
 44
-50.0
173
     0
291
     1
 45
0.0
1001
ACAD
1000
AcDbSavedByObjectVersion
1070
     0
  0
VISUALSTYLE
  5
39
102
{ACAD_REACTORS
330
2A
102
}
330
2A
100
AcDbVisualStyle
  2
Facepattern
 70
    15
 71
     2
 72
     2
 73
     0
 90
        0
 40
-0.6
 41
-30.0
 62
     5
 63
     7
421
 16777215
 74
     1
 91
        4
 64
     7
 65
   257
 75
     1
175
     1
 42
1.0
 92
        8
 66
     7
 43
1.0
 76
     1
 77
     6
 78
     2
 67
     7
 79
     5
170
     0
171
     0
290
     0
174
     0
 93
        1
 44
0.0
173
     0
291
     1
 45
0.0
1001
ACAD
1000
AcDbSavedByObjectVersion
1070
     0
  0
VISUALSTYLE
  5
2B
102
{ACAD_REACTORS
330
2A
102
}
330
2A
100
AcDbVisualStyle
  2
Flat
 70
     0
 71
     2
 72
     1
 73
     1
 90
        2
 40
-0.6
 41
30.0
 62
     5
 63
     7
421
 16777215
 74
     0
 91
        4
 64
     7
 65
   257
 75
     1
175
     1
 42
1.0
 92
        8
 66
     7
 43
1.0
 76
     1
 77
     6
 78
     2
 67
     7
 79
     5
170
     0
171
     0
290
     0
174
     0
 93
       13
 44
0.0
173
     0
291
     1
 45
0.0
1001
ACAD
1000
AcDbSavedByObjectVersion
1070
     0
  0
VISUALSTYLE
  5
2C
102
{ACAD_REACTORS
330
2A
102
}
330
2A
100
AcDbVisualStyle
  2
FlatWithEdges
 70
     1
 71
     2
 72
     1
 73
     1
 90
        2
 40
-0.6
 41
30.0
 62
     5
 63
     7
421
 16777215
 74
     1
 91
        4
 64
     7
 65
   257
 75
     1
175
     1
 42
1.0
 92
        0
 66
   257
 43
1.0
 76
     1
 77
     6
 78
     2
 67
     7
 79
     5
170
     0
171
     0
290
     0
174
     0
 93
       13
 44
0.0
173
     0
291
     1
 45
0.0
1001
ACAD
1000
AcDbSavedByObjectVersion
1070
     0
  0
VISUALSTYLE
  5
2D
102
{ACAD_REACTORS
330
2A
102
}
330
2A
100
AcDbVisualStyle
  2
Gouraud
 70
     2
 71
     2
 72
     2
 73
     1
 90
        2
 40
-0.6
 41
30.0
 62
     5
 63
     7
421
 16777215
 74
     0
 91
        4
 64
     7
 65
   257
 75
     1
175
     1
 42
1.0
 92
        0
 66
     7
 43
1.0
 76
     1
 77
     6
 78
     2
 67
     7
 79
     5
170
     0
171
     0
290
     0
174
     0
 93
       13
 44
0.0
173
     0
291
     1
 45
0.0
1001
ACAD
1000
AcDbSavedByObjectVersion
1070
     0
  0
VISUALSTYLE
  5
2E
102
{ACAD_REACTORS
330
2A
102
}
330
2A
100
AcDbVisualStyle
  2
GouraudWithEdges
 70
     3
 71
     2
 72
     2
 73
     1
 90
        2
 40
-0.6
 41
30.0
 62
     5
 63
     7
421
 16777215
 74
     1
 91
        4
 64
     7
 65
   257
 75
     1
175
     1
 42
1.0
 92
        0
 66
   257
 43
1.0
 76
     1
 77
     6
 78
     2
 67
     7
 79
     5
170
     0
171
     0
290
     0
174
     0
 93
       13
 44
0.0
173
     0
291
     1
 45
0.0
1001
ACAD
1000
AcDbSavedByObjectVersion
1070
     0
  0
VISUALSTYLE
  5
38
102
{ACAD_REACTORS
330
2A
102
}
330
2A
100
AcDbVisualStyle
  2
Linepattern
 70
    14
 71
     2
 72
     2
 73
     0
 90
        0
 40
-0.6
 41
-30.0
 62
     5
 63
     7
421
 16777215
 74
     1
 91
        4
 64
     7
 65
   257
 75
     7
175
     7
 42
1.0
 92
        8
 66
     7
 43
1.0
 76
     1
 77
     6
 78
     2
 67
     7
 79
     5
170
     0
171
     0
290
     0
174
     0
 93
        1
 44
0.0
173
     0
291
     1
 45
0.0
1001
ACAD
1000
AcDbSavedByObjectVersion
1070
     0
  0
VISUALSTYLE
  5
33
102
{ACAD_REACTORS
330
2A
102
}
330
2A
100
AcDbVisualStyle
  2
Realistic
 70
     8
 71
     2
 72
     2
 73
     0
 90
        0
 40
-0.6
 41
-30.0
 62
     5
 63
     7
421
 16777215
 74
     1
 91
        0
 64
     7
 65
   257
 75
     1
175
     1
 42
1.0
 92
        8
 66
     8
424
  7895160
 43
1.0
 76
     1
 77
     6
 78
     2
 67
     7
 79
     5
170
     0
171
     0
290
     0
174
     0
 93
       13
 44
0.0
173
     0
291
     0
 45
0.0
1001
ACAD
1000
AcDbSavedByObjectVersion
1070
     0
  0
VISUALSTYLE
  5
37
102
{ACAD_REACTORS
330
2A
102
}
330
2A
100
AcDbVisualStyle
  2
Thicken
 70
    13
 71
     2
 72
     2
 73
     0
 90
        0
 40
-0.6
 41
-30.0
 62
     5
 63
     7
421
 16777215
 74
     1
 91
        4
 64
     7
 65
   257
 75
     1
175
     1
 42
1.0
 92
       12
 66
     7
 43
1.0
 76
     1
 77
     6
 78
     2
 67
     7
 79
     5
170
     0
171
     0
290
     0
174
     0
 93
        1
 44
0.0
173
     0
291
     1
 45
0.0
1001
ACAD
1000
AcDbSavedByObjectVersion
1070
     0
  0
ENDSEC
  0
EOF
