  0
SECTION
  2
HEADER
  9
$ACADVER
  1
AC1018
  9
$ACADMAINTVER
 70
     0
  9
$DWGCODEPAGE
  3
ANSI_932
  9
$INSBASE
 10
0.0
 20
0.0
 30
0.0
  9
$EXTMIN
 10
-630.0
 20
-445.5
 30
0.0
  9
$EXTMAX
 10
630.0
 20
445.5
 30
0.0
  9
$LIMMIN
 10
-630.0
 20
-445.5
  9
$LIMMAX
 10
630.0
 20
445.5
  9
$ORTHOMODE
 70
     0
  9
$REGENMODE
 70
     1
  9
$FILLMODE
 70
     1
  9
$QTEXTMODE
 70
     0
  9
$MIRRTEXT
 70
     1
  9
$LTSCALE
 40
3.0
  9
$ATTMODE
 70
     1
  9
$TEXTSIZE
 40
2.5
  9
$TRACEWID
 40
1.0
  9
$TEXTSTYLE
  7
Standard
  9
$CLAYER
  8
0
  9
$CELTYPE
  6
ByLayer
  9
$CECOLOR
 62
   256
  9
$CELTSCALE
 40
1.0
  9
$DISPSILH
 70
     0
  9
$DIMSCALE
 40
1.0
  9
$DIMASZ
 40
2.5
  9
$DIMEXO
 40
0.625
  9
$DIMDLI
 40
3.75
  9
$DIMRND
 40
0.0
  9
$DIMDLE
 40
0.0
  9
$DIMEXE
 40
1.25
  9
$DIMTP
 40
0.0
  9
$DIMTM
 40
0.0
  9
$DIMTXT
 40
2.5
  9
$DIMCEN
 40
2.5
  9
$DIMTSZ
 40
0.0
  9
$DIMTOL
 70
     0
  9
$DIMLIM
 70
     0
  9
$DIMTIH
 70
     0
  9
$DIMTOH
 70
     0
  9
$DIMSE1
 70
     0
  9
$DIMSE2
 70
     0
  9
$DIMTAD
 70
     1
  9
$DIMZIN
 70
     8
  9
$DIMBLK
  1

  9
$DIMASO
 70
     1
  9
$DIMSHO
 70
     1
  9
$DIMPOST
  1

  9
$DIMAPOST
  1

  9
$DIMALT
 70
     0
  9
$DIMALTD
 70
     3
  9
$DIMALTF
 40
0.03937007874016
  9
$DIMLFAC
 40
1.0
  9
$DIMTOFL
 70
     1
  9
$DIMTVP
 40
0.0
  9
$DIMTIX
 70
     0
  9
$DIMSOXD
 70
     0
  9
$DIMSAH
 70
     0
  9
$DIMBLK1
  1

  9
$DIMBLK2
  1

  9
$DIMSTYLE
  2
ISO-25
  9
$DIMCLRD
 70
     0
  9
$DIMCLRE
 70
     0
  9
$DIMCLRT
 70
     0
  9
$DIMTFAC
 40
1.0
  9
$DIMGAP
 40
0.625
  9
$DIMJUST
 70
     0
  9
$DIMSD1
 70
     0
  9
$DIMSD2
 70
     0
  9
$DIMTOLJ
 70
     0
  9
$DIMTZIN
 70
     8
  9
$DIMALTZ
 70
     0
  9
$DIMALTTZ
 70
     0
  9
$DIMUPT
 70
     0
  9
$DIMDEC
 70
     2
  9
$DIMTDEC
 70
     2
  9
$DIMALTU
 70
     2
  9
$DIMALTTD
 70
     3
  9
$DIMTXSTY
  7
Standard
  9
$DIMAUNIT
 70
     0
  9
$DIMADEC
 70
     0
  9
$DIMALTRND
 40
0.0
  9
$DIMAZIN
 70
     0
  9
$DIMDSEP
 70
    44
  9
$DIMATFIT
 70
     3
  9
$DIMFRAC
 70
     0
  9
$DIMLDRBLK
  1

  9
$DIMLUNIT
 70
     2
  9
$DIMLWD
 70
    -2
  9
$DIMLWE
 70
    -2
  9
$DIMTMOVE
 70
     0
  9
$LUNITS
 70
     2
  9
$LUPREC
 70
     4
  9
$SKETCHINC
 40
1.0
  9
$FILLETRAD
 40
10.0
  9
$AUNITS
 70
     0
  9
$AUPREC
 70
     0
  9
$MENU
  1
.
  9
$ELEVATION
 40
0.0
  9
$PELEVATION
 40
0.0
  9
$THICKNESS
 40
0.0
  9
$LIMCHECK
 70
     0
  9
$CHAMFERA
 40
10.0
  9
$CHAMFERB
 40
10.0
  9
$CHAMFERC
 40
20.0
  9
$CHAMFERD
 40
0.0
  9
$SKPOLY
 70
     0
  9
$TDCREATE
 40
2457372.406683218
  9
$TDUCREATE
 40
2457372.031683218
  9
$TDUPDATE
 40
2457372.406683229
  9
$TDUUPDATE
 40
2457372.031683229
  9
$TDINDWG
 40
0.0000000116
  9
$TDUSRTIMER
 40
0.0000000116
  9
$USRTIMER
 70
     1
  9
$ANGBASE
 50
0.0
  9
$ANGDIR
 70
     0
  9
$PDMODE
 70
     0
  9
$PDSIZE
 40
0.0
  9
$PLINEWID
 40
0.0
  9
$SPLFRAME
 70
     0
  9
$SPLINETYPE
 70
     6
  9
$SPLINESEGS
 70
     8
  9
$HANDSEED
  5
2D3
  9
$SURFTAB1
 70
     6
  9
$SURFTAB2
 70
     6
  9
$SURFTYPE
 70
     6
  9
$SURFU
 70
     6
  9
$SURFV
 70
     6
  9
$UCSBASE
  2

  9
$UCSNAME
  2

  9
$UCSORG
 10
0.0
 20
0.0
 30
0.0
  9
$UCSXDIR
 10
1.0
 20
0.0
 30
0.0
  9
$UCSYDIR
 10
0.0
 20
1.0
 30
0.0
  9
$UCSORTHOREF
  2

  9
$UCSORTHOVIEW
 70
     0
  9
$UCSORGTOP
 10
0.0
 20
0.0
 30
0.0
  9
$UCSORGBOTTOM
 10
0.0
 20
0.0
 30
0.0
  9
$UCSORGLEFT
 10
0.0
 20
0.0
 30
0.0
  9
$UCSORGRIGHT
 10
0.0
 20
0.0
 30
0.0
  9
$UCSORGFRONT
 10
0.0
 20
0.0
 30
0.0
  9
$UCSORGBACK
 10
0.0
 20
0.0
 30
0.0
  9
$PUCSBASE
  2

  9
$PUCSNAME
  2

  9
$PUCSORG
 10
0.0
 20
0.0
 30
0.0
  9
$PUCSXDIR
 10
1.0
 20
0.0
 30
0.0
  9
$PUCSYDIR
 10
0.0
 20
1.0
 30
0.0
  9
$PUCSORTHOREF
  2

  9
$PUCSORTHOVIEW
 70
     0
  9
$PUCSORGTOP
 10
0.0
 20
0.0
 30
0.0
  9
$PUCSORGBOTTOM
 10
0.0
 20
0.0
 30
0.0
  9
$PUCSORGLEFT
 10
0.0
 20
0.0
 30
0.0
  9
$PUCSORGRIGHT
 10
0.0
 20
0.0
 30
0.0
  9
$PUCSORGFRONT
 10
0.0
 20
0.0
 30
0.0
  9
$PUCSORGBACK
 10
0.0
 20
0.0
 30
0.0
  9
$USERI1
 70
     0
  9
$USERI2
 70
     0
  9
$USERI3
 70
     0
  9
$USERI4
 70
     0
  9
$USERI5
 70
     0
  9
$USERR1
 40
0.0
  9
$USERR2
 40
0.0
  9
$USERR3
 40
0.0
  9
$USERR4
 40
0.0
  9
$USERR5
 40
0.0
  9
$WORLDVIEW
 70
     1
  9
$SHADEDGE
 70
     3
  9
$SHADEDIF
 70
    70
  9
$TILEMODE
 70
     1
  9
$MAXACTVP
 70
    64
  9
$PINSBASE
 10
0.0
 20
0.0
 30
0.0
  9
$PLIMCHECK
 70
     0
  9
$PEXTMIN
 10
1.000000000000000E+20
 20
1.000000000000000E+20
 30
1.000000000000000E+20
  9
$PEXTMAX
 10
-1.000000000000000E+20
 20
-1.000000000000000E+20
 30
-1.000000000000000E+20
  9
$PLIMMIN
 10
0.0
 20
0.0
  9
$PLIMMAX
 10
420.0
 20
297.0
  9
$UNITMODE
 70
     0
  9
$VISRETAIN
 70
     1
  9
$PLINEGEN
 70
     0
  9
$PSLTSCALE
 70
     1
  9
$TREEDEPTH
 70
  3020
  9
$CMLSTYLE
  2
Standard
  9
$CMLJUST
 70
     0
  9
$CMLSCALE
 40
20.0
  9
$PROXYGRAPHICS
 70
     1
  9
$MEASUREMENT
 70
     1
  9
$CELWEIGHT
370
    -1
  9
$ENDCAPS
280
     0
  9
$JOINSTYLE
280
     0
  9
$LWDISPLAY
290
     0
  9
$INSUNITS
 70
     4
  9
$HYPERLINKBASE
  1

  9
$STYLESHEET
  1

  9
$XEDIT
290
     1
  9
$CEPSNTYPE
380
     0
  9
$PSTYLEMODE
290
     1
  9
$FINGERPRINTGUID
  2
{E7BB45D8-1092-48AB-8BB0-89D1A69389CE}
  9
$VERSIONGUID
  2
{FAEB1C32-E019-11D5-929B-00C0DF256EC4}
  9
$EXTNAMES
290
     1
  9
$PSVPSCALE
 40
0.0
  9
$OLESTARTUP
290
     0
  9
$SORTENTS
280
   127
  9
$INDEXCTL
280
     0
  9
$HIDETEXT
280
     1
  9
$XCLIPFRAME
290
     0
  9
$HALOGAP
280
     0
  9
$OBSCOLOR
 70
   257
  9
$OBSLTYPE
280
     0
  9
$INTERSECTIONDISPLAY
280
     0
  9
$INTERSECTIONCOLOR
 70
   257
  9
$DIMASSOC
280
     2
  9
$PROJECTNAME
  1

  0
ENDSEC
  0
SECTION
  2
CLASSES
  0
CLASS
  1
ACDBDICTIONARYWDFLT
  2
AcDbDictionaryWithDefault
  3
ObjectDBX Classes
 90
        0
 91
        4
280
     0
281
     0
  0
CLASS
  1
VISUALSTYLE
  2
AcDbVisualStyle
  3
ObjectDBX Classes
 90
     4095
 91
        4
280
     0
281
     0
  0
ENDSEC
  0
SECTION
  2
TABLES
  0
TABLE
  2
VPORT
  5
8
330
0
100
AcDbSymbolTable
 70
     1
  0
VPORT
  5
29
330
8
100
AcDbSymbolTableRecord
100
AcDbViewportTableRecord
  2
*Active
 70
     0
 10
0.0
 20
0.0
 11
1.0
 21
1.0
 12
0.0
 22
0.0
 13
0.0
 23
0.0
 14
10.0
 24
10.0
 15
10.0
 25
10.0
 16
0.0
 26
0.0
 36
1.0
 17
0.0
 27
0.0
 37
0.0
 40
980.1
 41
1.414141414141414
 42
50.0
 43
0.0
 44
0.0
 50
0.0
 51
0.0
 71
     0
 72
 10000
 73
     1
 74
     3
 75
     0
 76
     0
 77
     0
 78
     0
281
     0
 65
     1
110
0.0
120
0.0
130
0.0
111
1.0
121
0.0
131
0.0
112
0.0
122
1.0
132
0.0
 79
     0
146
0.0
  0
ENDTAB
  0
TABLE
  2
LTYPE
  5
5
330
0
100
AcDbSymbolTable
 70
     4
  0
LTYPE
  5
14
330
5
100
AcDbSymbolTableRecord
100
AcDbLinetypeTableRecord
  2
ByBlock
 70
     0
  3

 72
    65
 73
     0
 40
0.0
  0
LTYPE
  5
15
330
5
100
AcDbSymbolTableRecord
100
AcDbLinetypeTableRecord
  2
ByLayer
 70
     0
  3

 72
    65
 73
     0
 40
0.0
  0
LTYPE
  5
16
330
5
100
AcDbSymbolTableRecord
100
AcDbLinetypeTableRecord
  2
Continuous
 70
     0
  3
Solid line
 72
    65
 73
     0
 40
0.0
  0
LTYPE
  5
3C
330
5
100
AcDbSymbolTableRecord
100
AcDbLinetypeTableRecord
  2
JWW_CENTER1
 70
     0
  3
-----  --  ----------  --  -----
 72
    65
 73
     4
 40
6.773333333333333
 49
4.233333333333333
 74
     0
 49
-0.8466666666666667
 74
     0
 49
0.8466666666666667
 74
     0
 49
-0.8466666666666667
 74
     0
  0
LTYPE
  5
3D
330
5
100
AcDbSymbolTableRecord
100
AcDbLinetypeTableRecord
  2
JWW_HOJO
 70
     0
  3
  -   -   -   -   -   -   -   - 
 72
    65
 73
     2
 40
1.693333333333333
 49
-1.27
 74
     0
 49
0.4233333333333333
 74
     0
  0
LTYPE
  5
3E
330
5
100
AcDbSymbolTableRecord
100
AcDbLinetypeTableRecord
  2
JWW_DASHED1
 70
     0
  3
-  --  --  --  --  --  --  --  -
 72
    65
 73
     2
 40
1.693333333333333
 49
0.8466666666666667
 74
     0
 49
-0.8466666666666667
 74
     0
  0
ENDTAB
  0
TABLE
  2
LAYER
  5
2
330
0
100
AcDbSymbolTable
 70
    18
  0
LAYER
  5
10
330
2
100
AcDbSymbolTableRecord
100
AcDbLayerTableRecord
  2
0
 70
     0
 62
     7
  6
Continuous
370
    -3
390
F
  0
LAYER
  5
3F
330
2
100
AcDbSymbolTableRecord
100
AcDbLayerTableRecord
  2
021
 70
     0
 62
     7
  6
Continuous
370
    -3
390
F
  0
LAYER
  5
40
330
2
100
AcDbSymbolTableRecord
100
AcDbLayerTableRecord
  2
F-5ﾚｲﾔ
 70
     0
 62
     7
  6
Continuous
370
    -3
390
F
  0
LAYER
  5
41
330
2
100
AcDbSymbolTableRecord
100
AcDbLayerTableRecord
  2
1-5ﾚｲﾔ
 70
     0
 62
     7
  6
Continuous
370
    -3
390
F
  0
LAYER
  5
42
330
2
100
AcDbSymbolTableRecord
100
AcDbLayerTableRecord
  2
051
 70
     0
 62
     7
  6
Continuous
370
    -3
390
F
  0
LAYER
  5
43
330
2
100
AcDbSymbolTableRecord
100
AcDbLayerTableRecord
  2
090
 70
     0
 62
     7
  6
Continuous
370
    -3
390
F
  0
LAYER
  5
44
330
2
100
AcDbSymbolTableRecord
100
AcDbLayerTableRecord
  2
躯体
 70
     0
 62
     7
  6
Continuous
370
    -3
390
F
  0
LAYER
  5
45
330
2
100
AcDbSymbolTableRecord
100
AcDbLayerTableRecord
  2
061
 70
     0
 62
     7
  6
Continuous
370
    -3
390
F
  0
LAYER
  5
46
330
2
100
AcDbSymbolTableRecord
100
AcDbLayerTableRecord
  2
041
 70
     0
 62
     7
  6
Continuous
370
    -3
390
F
  0
LAYER
  5
47
330
2
100
AcDbSymbolTableRecord
100
AcDbLayerTableRecord
  2
通り芯
 70
     0
 62
     7
  6
Continuous
370
    -3
390
F
  0
LAYER
  5
48
330
2
100
AcDbSymbolTableRecord
100
AcDbLayerTableRecord
  2
087
 70
     0
 62
     7
  6
Continuous
370
    -3
390
F
  0
LAYER
  5
49
330
2
100
AcDbSymbolTableRecord
100
AcDbLayerTableRecord
  2
084
 70
     0
 62
     7
  6
Continuous
370
    -3
390
F
  0
LAYER
  5
4A
330
2
100
AcDbSymbolTableRecord
100
AcDbLayerTableRecord
  2
仕上
 70
     0
 62
     7
  6
Continuous
370
    -3
390
F
  0
LAYER
  5
4B
330
2
100
AcDbSymbolTableRecord
100
AcDbLayerTableRecord
  2
建具
 70
     0
 62
     7
  6
Continuous
370
    -3
390
F
  0
LAYER
  5
4C
330
2
100
AcDbSymbolTableRecord
100
AcDbLayerTableRecord
  2
寸法
 70
     0
 62
     7
  6
Continuous
370
    -3
390
F
  0
LAYER
  5
4D
330
2
100
AcDbSymbolTableRecord
100
AcDbLayerTableRecord
  2
062
 70
     0
 62
     7
  6
Continuous
370
    -3
390
F
  0
LAYER
  5
4E
330
2
100
AcDbSymbolTableRecord
100
AcDbLayerTableRecord
  2
その他
 70
     0
 62
     7
  6
Continuous
370
    -3
390
F
  0
LAYER
  5
4F
330
2
100
AcDbSymbolTableRecord
100
AcDbLayerTableRecord
  2
ハッチ
 70
     0
 62
     7
  6
Continuous
370
    -3
390
F
  0
ENDTAB
  0
TABLE
  2
STYLE
  5
3
330
0
100
AcDbSymbolTable
 70
     2
  0
STYLE
  5
11
330
3
100
AcDbSymbolTableRecord
100
AcDbTextStyleTableRecord
  2
Standard
 70
     0
 40
0.0
 41
1.0
 50
0.0
 71
     0
 42
2.5
  3
txt
  4

1001
ACAD
1000

1071
        0
  0
STYLE
  5
3B
330
3
100
AcDbSymbolTableRecord
100
AcDbTextStyleTableRecord
  2
ＭＳ ゴシック
 70
     0
 40
1.0
 41
1.0
 50
0.0
 71
     0
 42
10.0
  3

  4

1001
ACAD
1000
MS Gothic
1071
    32817
  0
ENDTAB
  0
TABLE
  2
VIEW
  5
6
330
0
100
AcDbSymbolTable
 70
     0
  0
ENDTAB
  0
TABLE
  2
UCS
  5
7
330
0
100
AcDbSymbolTable
 70
     0
  0
ENDTAB
  0
TABLE
  2
APPID
  5
9
330
0
100
AcDbSymbolTable
 70
     1
  0
APPID
  5
12
330
9
100
AcDbSymbolTableRecord
100
AcDbRegAppTableRecord
  2
ACAD
 70
     0
  0
ENDTAB
  0
TABLE
  2
DIMSTYLE
  5
A
330
0
100
AcDbSymbolTable
 70
     1
100
AcDbDimStyleTable
  0
DIMSTYLE
105
27
330
A
100
AcDbSymbolTableRecord
100
AcDbDimStyleTableRecord
  2
ISO-25
 70
     0
 41
2.5
 42
0.625
 43
3.75
 44
1.25
 73
     0
 74
     0
 77
     1
 78
     8
140
2.5
141
2.5
143
0.03937007874016
147
0.625
171
     3
172
     1
271
     2
272
     2
274
     3
278
    44
283
     0
284
     8
340
11
  0
ENDTAB
  0
TABLE
  2
BLOCK_RECORD
  5
1
330
0
100
AcDbSymbolTable
 70
     1
  0
BLOCK_RECORD
  5
1F
330
1
100
AcDbSymbolTableRecord
100
AcDbBlockTableRecord
  2
*Model_Space
340
22
  0
BLOCK_RECORD
  5
1B
330
1
100
AcDbSymbolTableRecord
100
AcDbBlockTableRecord
  2
*Paper_Space
340
1E
  0
BLOCK_RECORD
  5
23
330
1
100
AcDbSymbolTableRecord
100
AcDbBlockTableRecord
  2
*Paper_Space0
340
26
  0
ENDTAB
  0
ENDSEC
  0
SECTION
  2
BLOCKS
  0
BLOCK
  5
20
330
1F
100
AcDbEntity
  8
0
100
AcDbBlockBegin
  2
*Model_Space
 70
     0
 10
0.0
 20
0.0
 30
0.0
  3
*Model_Space
  1

  0
ENDBLK
  5
21
330
1F
100
AcDbEntity
  8
0
100
AcDbBlockEnd
  0
BLOCK
  5
1C
330
1B
100
AcDbEntity
 67
     1
  8
0
100
AcDbBlockBegin
  2
*Paper_Space
 70
     0
 10
0.0
 20
0.0
 30
0.0
  3
*Paper_Space
  1

  0
ENDBLK
  5
1D
330
1B
100
AcDbEntity
 67
     1
  8
0
100
AcDbBlockEnd
  0
BLOCK
  5
24
330
23
100
AcDbEntity
  8
0
100
AcDbBlockBegin
  2
*Paper_Space0
 70
     0
 10
0.0
 20
0.0
 30
0.0
  3
*Paper_Space0
  1

  0
ENDBLK
  5
25
330
23
100
AcDbEntity
  8
0
100
AcDbBlockEnd
  0
ENDSEC
  0
SECTION
  2
ENTITIES
  0
LINE
  5
50
330
1F
100
AcDbEntity
  8
021
  6
Continuous
 62
     6
370
     9
100
AcDbLine
 10
-39.48580570885275
 20
-110.0995856344665
 30
0.0
 11
-39.48580570885275
 21
-156.599562445774
 31
0.0
  0
TEXT
  5
51
330
1F
100
AcDbEntity
  8
F-5ﾚｲﾔ
  6
Continuous
 62
     2
370
     9
100
AcDbText
 10
-243.7501051619246
 20
-404.2404895226635
 30
0.0
 40
9.144
  1
複数回使用抜型　よこ引き排水用　ＣＷ－７５－５０
 41
1.119791666666667
  7
ＭＳ ゴシック
100
AcDbText
  0
LINE
  5
52
330
1F
100
AcDbEntity
  8
1-5ﾚｲﾔ
  6
Continuous
 62
     7
370
     9
100
AcDbLine
 10
-41.21627504942023
 20
-140.6233602520579
 30
0.0
 11
-36.65056433185481
 21
-134.6732101998736
 31
0.0
  0
LINE
  5
53
330
1F
100
AcDbEntity
  8
1-5ﾚｲﾔ
  6
Continuous
 62
     7
370
     9
100
AcDbLine
 10
11.51410960192225
 20
-159.1213705247591
 30
0.0
 11
14.38423534466045
 21
-166.0504670185938
 31
0.0
  0
LINE
  5
54
330
1F
100
AcDbEntity
  8
1-5ﾚｲﾔ
  6
Continuous
 62
     7
370
     9
100
AcDbLine
 10
11.51410960192225
 20
-159.1213705247591
 30
0.0
 11
16.07982031948767
 21
-165.0715205769434
 31
0.0
  0
LINE
  5
55
330
1F
100
AcDbEntity
  8
051
  6
Continuous
 62
     6
370
     9
100
AcDbLine
 10
54.51429706704511
 20
-186.5995534318948
 30
0.0
 11
60.51412550876802
 21
-186.5995534318948
 31
0.0
  0
LINE
  5
56
330
1F
100
AcDbEntity
  8
051
  6
Continuous
 62
     6
370
     9
100
AcDbLine
 10
52.51429706704505
 20
-171.5995286879126
 30
0.0
 11
52.51429706704505
 21
-184.5995534318948
 31
0.0
  0
LINE
  5
57
330
1F
100
AcDbEntity
  8
090
  6
Continuous
 62
     4
370
     9
100
AcDbLine
 10
52.51429706704505
 20
-180.5995286879126
 30
0.0
 11
58.51412550876796
 21
-180.5995286879126
 31
0.0
  0
ARC
  5
58
330
1F
100
AcDbEntity
  8
090
  6
Continuous
 62
     4
370
     9
100
AcDbCircle
 10
58.51412550876796
 20
-182.5995286879126
 30
0.0
 40
2.0
100
AcDbArc
 50
0.0
 51
90.0
  0
ARC
  5
59
330
1F
100
AcDbEntity
  8
090
  6
Continuous
 62
     4
370
     9
100
AcDbCircle
 10
54.51429706704511
 20
-184.5995534318948
 30
0.0
 40
2.0
100
AcDbArc
 50
180.0
 51
270.0
  0
LINE
  5
5A
330
1F
100
AcDbEntity
  8
躯体
  6
Continuous
 62
     2
370
     9
100
AcDbLine
 10
95.51410418181183
 20
-136.5995436815875
 30
0.0
 11
86.76422448469708
 21
-171.5995083919557
 31
0.0
  0
LINE
  5
5B
330
1F
100
AcDbEntity
  8
061
  6
Continuous
 62
     2
370
     9
100
AcDbLine
 10
-42.48577038976379
 20
-103.4696232228859
 30
0.0
 11
-54.48575165503439
 21
-103.4696232228859
 31
0.0
  0
LINE
  5
5C
330
1F
100
AcDbEntity
  8
041
  6
Continuous
 62
     3
370
     9
100
AcDbLine
 10
-140.3660255108255
 20
-205.9057920260972
 30
0.0
 11
-144.3550199471999
 21
-206.4871131679919
 31
0.0
  0
LINE
  5
5D
330
1F
100
AcDbEntity
  8
041
  6
Continuous
 62
     3
370
     9
100
AcDbLine
 10
-144.3550199471999
 20
-206.4871131679919
 30
0.0
 11
-144.2684863234273
 21
-210.7362411046313
 31
0.0
  0
LINE
  5
5E
330
1F
100
AcDbEntity
  8
041
  6
Continuous
 62
     3
370
     9
100
AcDbLine
 10
-142.3715592962589
 20
-107.4261680474346
 30
0.0
 11
-146.3809174998079
 21
-107.007769429657
 31
0.0
  0
LINE
  5
5F
330
1F
100
AcDbEntity
  8
041
  6
Continuous
 62
     3
370
     9
100
AcDbLine
 10
-146.3809174998079
 20
-107.007769429657
 30
0.0
 11
-146.4674511235808
 21
-102.7586291062979
 31
0.0
  0
LINE
  5
60
330
1F
100
AcDbEntity
  8
041
  6
Continuous
 62
     3
370
     9
100
AcDbLine
 10
-154.4857959290883
 20
-101.9394457861457
 30
0.0
 11
-154.4858207025277
 21
-212.2025314349659
 31
0.0
  0
LINE
  5
61
330
1F
100
AcDbEntity
  8
041
  6
Continuous
 62
     3
370
     9
100
AcDbLine
 10
-140.4484962905389
 20
-201.856622905456
 30
0.0
 11
-153.4857912748632
 21
-200.621827979457
 31
0.0
  0
LINE
  5
62
330
1F
100
AcDbEntity
  8
041
  6
Continuous
 62
     3
370
     9
100
AcDbLine
 10
-148.4041395209625
 20
-204.1165427532168
 30
0.0
 11
-148.3192161707498
 21
-208.2868292190126
 31
0.0
  0
LINE
  5
63
330
1F
100
AcDbEntity
  8
041
  6
Continuous
 62
     3
370
     9
100
AcDbLine
 10
-148.4041395209625
 20
-204.1165427532168
 30
0.0
 11
-153.4857665014236
 21
-203.6352567595598
 31
0.0
  0
LINE
  5
64
330
1F
100
AcDbEntity
  8
041
  6
Continuous
 62
     3
370
     9
100
AcDbLine
 10
-148.3192161707498
 20
-208.2868292190126
 30
0.0
 11
-154.4857959290883
 21
-209.171773634013
 31
0.0
  0
LINE
  5
65
330
1F
100
AcDbEntity
  8
041
  6
Continuous
 62
     3
370
     9
100
AcDbLine
 10
-150.4150986896212
 20
-105.3709635160338
 30
0.0
 11
-154.4858207025277
 21
-104.9550670156341
 31
0.0
  0
LINE
  5
66
330
1F
100
AcDbEntity
  8
041
  6
JWW_CENTER1
 62
     3
370
     9
100
AcDbLine
 10
-138.9462844730958
 20
-124.1727405640342
 30
0.0
 11
-159.8724582687001
 21
-124.1727157905949
 31
0.0
  0
LINE
  5
67
330
1F
100
AcDbEntity
  8
041
  6
Continuous
 62
     3
370
     9
100
AcDbLine
 10
-141.9795939383054
 20
-126.6726778792792
 30
0.0
 11
-153.4857665014236
 21
-126.6727026527186
 31
0.0
  0
LINE
  5
68
330
1F
100
AcDbEntity
  8
041
  6
Continuous
 62
     3
370
     9
100
AcDbLine
 10
-142.0814127741788
 20
-121.6727289284711
 30
0.0
 11
-153.4857665014236
 21
-121.6727041550318
 31
0.0
  0
LINE
  5
69
330
1F
100
AcDbEntity
  8
041
  6
Continuous
 62
     6
370
     9
100
AcDbLine
 10
-147.707436085131
 20
-164.1659653965764
 30
0.0
 11
-153.4857912748632
 21
-164.1659901700158
 31
0.0
  0
LINE
  5
6A
330
1F
100
AcDbEntity
  8
041
  6
Continuous
 62
     6
370
     9
100
AcDbLine
 10
-147.7074608585704
 20
-149.1659946769554
 30
0.0
 11
-153.4857665014236
 21
-149.1659946769554
 31
0.0
  0
LINE
  5
6B
330
1F
100
AcDbEntity
  8
041
  6
Continuous
 62
     6
370
     9
100
AcDbLine
 10
-153.4857912748632
 20
-164.1659901700158
 30
0.0
 11
-153.4857665014236
 21
-149.1659946769554
 31
0.0
  0
LINE
  5
6C
330
1F
100
AcDbEntity
  8
041
  6
Continuous
 62
     6
370
     9
100
AcDbLine
 10
-147.7074113116915
 20
-160.4132352516191
 30
0.0
 11
-153.4857665014236
 21
-160.4132352516191
 31
0.0
  0
LINE
  5
6D
330
1F
100
AcDbEntity
  8
041
  6
Continuous
 62
     6
370
     9
100
AcDbLine
 10
-147.7074113116915
 20
-152.9187248219127
 30
0.0
 11
-153.4857912748632
 21
-152.9187248219127
 31
0.0
  0
LINE
  5
6E
330
1F
100
AcDbEntity
  8
041
  6
Continuous
 62
     6
370
     9
100
AcDbLine
 10
-146.9857610223991
 20
-162.2896250975371
 30
0.0
 11
-146.9857857958384
 21
-151.0423845228734
 31
0.0
  0
LINE
  5
6F
330
1F
100
AcDbEntity
  8
041
  6
Continuous
 62
     3
370
     9
100
AcDbLine
 10
-142.4606445842883
 20
-152.1659838661917
 30
0.0
 11
-146.9858105692778
 21
-152.1659838661917
 31
0.0
  0
LINE
  5
70
330
1F
100
AcDbEntity
  8
041
  6
Continuous
 62
     3
370
     9
100
AcDbLine
 10
-142.2773459062768
 20
-161.1659762073401
 30
0.0
 11
-146.9857610223991
 21
-161.1660009807795
 31
0.0
  0
LINE
  5
71
330
1F
100
AcDbEntity
  8
041
  6
Continuous
 62
     3
370
     9
100
AcDbLine
 10
-142.4606445842883
 20
-152.1659838661917
 30
0.0
 11
-141.4812018847527
 21
-151.1458384057462
 31
0.0
  0
LINE
  5
72
330
1F
100
AcDbEntity
  8
041
  6
Continuous
 62
     3
370
     9
100
AcDbLine
 10
-142.2773459062768
 20
-161.1659762073401
 30
0.0
 11
-141.2572004458312
 21
-162.1453941334361
 31
0.0
  0
LINE
  5
73
330
1F
100
AcDbEntity
  8
041
  6
Continuous
 62
     3
370
     9
100
AcDbLine
 10
-153.4857912748632
 20
-116.1727281036717
 30
0.0
 11
-153.4857665014236
 21
-203.6352567595598
 31
0.0
  0
LINE
  5
74
330
1F
100
AcDbEntity
  8
041
  6
Continuous
 62
     3
370
     9
100
AcDbLine
 10
-140.9073499348327
 20
-179.3242631673085
 30
0.0
 11
-153.4857665014236
 21
-180.5806233722924
 31
0.0
  0
LINE
  5
75
330
1F
100
AcDbEntity
  8
041
  6
Continuous
 62
     3
370
     9
100
AcDbLine
 10
-145.1991501208132
 20
-115.9226897799564
 30
0.0
 11
-153.4857912748632
 21
-116.1727281036717
 31
0.0
  0
LINE
  5
76
330
1F
100
AcDbEntity
  8
041
  6
Continuous
 62
     3
370
     9
100
AcDbLine
 10
-144.8631231889916
 20
-132.422717027794
 30
0.0
 11
-153.4857912748632
 21
-132.1727282509574
 31
0.0
  0
LINE
  5
77
330
1F
100
AcDbEntity
  8
041
  6
Continuous
 62
     3
370
     9
100
AcDbLine
 10
-144.8631231889916
 20
-132.422717027794
 30
0.0
 11
-144.6188570766529
 21
-144.4159849561052
 31
0.0
  0
LINE
  5
78
330
1F
100
AcDbEntity
  8
041
  6
Continuous
 62
     3
370
     9
100
AcDbLine
 10
-144.6188570766529
 20
-144.4159849561052
 30
0.0
 11
-153.4857912748632
 21
-144.6659737329418
 31
0.0
  0
LINE
  5
79
330
1F
100
AcDbEntity
  8
041
  6
Continuous
 62
     3
370
     9
100
AcDbLine
 10
-146.4674511235808
 20
-102.7586291062979
 30
0.0
 11
-154.4857959290883
 21
-101.9394457861457
 31
0.0
  0
LINE
  5
7A
330
1F
100
AcDbEntity
  8
041
  6
Continuous
 62
     3
370
     9
100
AcDbLine
 10
-144.2684863234273
 20
-210.7362411046313
 30
0.0
 11
-154.4858207025277
 21
-212.2025314349659
 31
0.0
  0
LINE
  5
7B
330
1F
100
AcDbEntity
  8
041
  6
Continuous
 62
     3
370
     9
100
AcDbLine
 10
-145.2964849641578
 20
-111.1426546505712
 30
0.0
 11
-145.1991501208132
 21
-115.9226897799564
 31
0.0
  0
LINE
  5
7C
330
1F
100
AcDbEntity
  8
041
  6
Continuous
 62
     3
370
     9
100
AcDbLine
 10
-145.2964849641578
 20
-111.1426546505712
 30
0.0
 11
-150.3082012986739
 21
-110.6195634779516
 31
0.0
  0
LINE
  5
7D
330
1F
100
AcDbEntity
  8
041
  6
Continuous
 62
     3
370
     9
100
AcDbLine
 10
-150.3082012986739
 20
-110.6195634779516
 30
0.0
 11
-150.4150986896212
 21
-105.3709635160338
 31
0.0
  0
LINE
  5
7E
330
1F
100
AcDbEntity
  8
通り芯
  6
Continuous
 62
     3
370
     9
100
AcDbLine
 10
60.51408992456487
 20
-188.5995131934665
 30
0.0
 11
60.51408992456487
 21
-196.5995999741471
 31
0.0
  0
LINE
  5
7F
330
1F
100
AcDbEntity
  8
通り芯
  6
Continuous
 62
     3
370
     9
100
AcDbLine
 10
55.26073346228509
 20
-195.2051154578708
 30
0.0
 11
55.51416574719627
 21
-196.5995999741471
 31
0.0
  0
LINE
  5
80
330
1F
100
AcDbEntity
  8
通り芯
  6
Continuous
 62
     3
370
     9
100
AcDbLine
 10
18.24401259844205
 20
-191.0995000555901
 30
0.0
 11
50.34122386916107
 21
-191.0995000555901
 31
0.0
  0
LINE
  5
81
330
1F
100
AcDbEntity
  8
通り芯
  6
Continuous
 62
     3
370
     9
100
AcDbLine
 10
5.932356427151603
 20
-201.2486331560631
 30
0.0
 11
16.63339221024916
 21
-192.2694009571195
 31
0.0
  0
LINE
  5
82
330
1F
100
AcDbEntity
  8
通り芯
  6
Continuous
 62
     3
370
     9
100
AcDbLine
 10
-4.718042445842627
 20
-200.380274558731
 30
0.0
 11
-5.07785187947394
 21
-198.491993461908
 31
0.0
  0
LINE
  5
83
330
1F
100
AcDbEntity
  8
通り芯
  6
Continuous
 62
     3
370
     9
100
AcDbLine
 10
60.51408992456487
 20
-196.5995999741471
 30
0.0
 11
11.47288659878529
 21
-196.5995999741471
 31
0.0
  0
LINE
  5
84
330
1F
100
AcDbEntity
  8
通り芯
  6
Continuous
 62
     3
370
     9
100
AcDbLine
 10
-48.19146481666485
 20
-87.69538702248698
 30
0.0
 11
-39.48580570885275
 21
-81.59953543359339
 31
0.0
  0
LINE
  5
85
330
1F
100
AcDbEntity
  8
通り芯
  6
Continuous
 62
     3
370
     9
100
AcDbLine
 10
44.41834043405538
 20
-180.3052913669647
 30
0.0
 11
50.51424156982767
 21
-171.5995579388344
 31
0.0
  0
LINE
  5
86
330
1F
100
AcDbEntity
  8
通り芯
  6
Continuous
 62
     3
370
     9
100
AcDbLine
 10
-46.48578874155072
 20
-92.94185646861769
 30
0.0
 11
-39.48580570885275
 21
-84.59952462282972
 31
0.0
  0
LINE
  5
87
330
1F
100
AcDbEntity
  8
通り芯
  6
Continuous
 62
     3
370
     9
100
AcDbLine
 10
58.51408061611448
 20
-186.5995534318948
 30
0.0
 11
47.69502416778562
 21
-186.5995534318948
 31
0.0
  0
LINE
  5
88
330
1F
100
AcDbEntity
  8
通り芯
  6
Continuous
 62
     3
370
     9
100
AcDbLine
 10
4.968273260034948
 20
-201.5995736983945
 30
0.0
 11
-3.244617364965166
 21
-201.5995736983945
 31
0.0
  0
LINE
  5
89
330
1F
100
AcDbEntity
  8
通り芯
  6
Continuous
 62
     3
370
     9
100
AcDbLine
 10
9.662245460995678
 20
-197.3841252525994
 30
0.0
 11
16.31564807669383
 21
-191.801430687132
 31
0.0
  0
LINE
  5
8A
330
1F
100
AcDbEntity
  8
通り芯
  6
Continuous
 62
     3
370
     9
100
AcDbLine
 10
-36.50811261506311
 20
-199.1891799798076
 30
0.0
 11
7.808597632433305
 21
-198.0850649465658
 31
0.0
  0
LINE
  5
8B
330
1F
100
AcDbEntity
  8
通り芯
  6
Continuous
 62
     3
370
     9
100
AcDbLine
 10
-56.485835283803
 20
-71.5995879850986
 30
0.0
 11
-64.48584774416548
 21
-71.5995879850986
 31
0.0
  0
LINE
  5
8C
330
1F
100
AcDbEntity
  8
通り芯
  6
Continuous
 62
     3
370
     9
100
AcDbLine
 10
-60.32913712315286
 20
-81.05714575169263
 30
0.0
 11
-64.48584774416548
 21
-76.599561709346
 31
0.0
  0
LINE
  5
8D
330
1F
100
AcDbEntity
  8
通り芯
  6
Continuous
 62
     3
370
     9
100
AcDbLine
 10
-54.48580120191303
 20
-84.41872806219612
 30
0.0
 11
-54.48580120191303
 21
-73.5995477466703
 31
0.0
  0
LINE
  5
8E
330
1F
100
AcDbEntity
  8
通り芯
  6
Continuous
 62
     3
370
     9
100
AcDbLine
 10
-58.98589646624492
 20
-100.0582498929869
 30
0.0
 11
-58.98589646624492
 21
-84.4671601361943
 31
0.0
  0
LINE
  5
8F
330
1F
100
AcDbEntity
  8
通り芯
  6
Continuous
 62
     3
370
     9
100
AcDbLine
 10
-64.48584774416548
 20
-71.5995879850986
 30
0.0
 11
-64.48584774416548
 21
-104.0896069107102
 31
0.0
  0
LINE
  5
90
330
1F
100
AcDbEntity
  8
通り芯
  6
Continuous
 62
     3
370
     9
100
AcDbLine
 10
-46.48578874155072
 20
-110.5995960858071
 30
0.0
 11
-54.48580120191303
 21
-120.1335799129046
 31
0.0
  0
LINE
  5
91
330
1F
100
AcDbEntity
  8
通り芯
  6
Continuous
 62
     3
370
     9
100
AcDbLine
 10
-42.20924899423147
 20
-200.4696447413134
 30
0.0
 11
-52.64870203086008
 21
-205.0934090150562
 31
0.0
  0
LINE
  5
92
330
1F
100
AcDbEntity
  8
通り芯
  6
Continuous
 62
     3
370
     9
100
AcDbLine
 10
-69.231125738093
 20
-197.6726986612785
 30
0.0
 11
-68.97563725771295
 21
-198.502311599412
 31
0.0
  0
LINE
  5
93
330
1F
100
AcDbEntity
  8
通り芯
  6
Continuous
 62
     3
370
     9
100
AcDbLine
 10
-69.50090849299852
 20
-132.0189842861325
 30
0.0
 11
-69.91321284468728
 21
-111.7784649723938
 31
0.0
  0
LINE
  5
94
330
1F
100
AcDbEntity
  8
通り芯
  6
Continuous
 62
     3
370
     9
100
AcDbLine
 10
-60.78013758716139
 20
-114.0185289084874
 30
0.0
 11
-61.05499889714082
 21
-113.1255950592853
 31
0.0
  0
LINE
  5
95
330
1F
100
AcDbEntity
  8
通り芯
  6
Continuous
 62
     3
370
     9
100
AcDbLine
 10
-59.07495698083488
 20
-197.3774859708441
 30
0.0
 11
-59.31984242915797
 21
-198.3056724242915
 31
0.0
  0
LINE
  5
96
330
1F
100
AcDbEntity
  8
通り芯
  6
Continuous
 62
     3
370
     9
100
AcDbLine
 10
-64.95939203801453
 20
-110.3034048445169
 30
0.0
 11
-66.9245698906895
 21
-110.3434139491242
 31
0.0
  0
LINE
  5
97
330
1F
100
AcDbEntity
  8
通り芯
  6
Continuous
 62
     3
370
     9
100
AcDbLine
 10
-63.10609103760368
 20
-201.2844927095732
 30
0.0
 11
-65.07129366371788
 21
-201.3245018141804
 31
0.0
  0
LINE
  5
98
330
1F
100
AcDbEntity
  8
通り芯
  6
Continuous
 62
     3
370
     9
100
AcDbLine
 10
-89.48586500603881
 20
-106.099030126127
 30
0.0
 11
-82.48726928594641
 21
-105.9565085293436
 31
0.0
  0
LINE
  5
99
330
1F
100
AcDbEntity
  8
通り芯
  6
Continuous
 62
     3
370
     9
100
AcDbLine
 10
-87.47017411045755
 20
-205.0785325647054
 30
0.0
 11
-80.47157839036515
 21
-204.9359366476039
 31
0.0
  0
LINE
  5
9A
330
1F
100
AcDbEntity
  8
通り芯
  6
Continuous
 62
     3
370
     9
100
AcDbLine
 10
-87.58331440812987
 20
-199.5216890832365
 30
0.0
 11
-86.13592621204634
 21
-197.977139457884
 31
0.0
  0
LINE
  5
9B
330
1F
100
AcDbEntity
  8
通り芯
  6
Continuous
 62
     3
370
     9
100
AcDbLine
 10
-89.37274948180573
 20
-111.6558859943156
 30
0.0
 11
-87.86357632789532
 21
-113.1403848025983
 31
0.0
  0
LINE
  5
9C
330
1F
100
AcDbEntity
  8
通り芯
  6
Continuous
 62
     3
370
     9
100
AcDbLine
 10
-89.37274948180573
 20
-111.6558859943156
 30
0.0
 11
-69.87305509944389
 21
-111.7311724766074
 31
0.0
  0
LINE
  5
9D
330
1F
100
AcDbEntity
  8
通り芯
  6
Continuous
 62
     3
370
     9
100
AcDbLine
 10
-87.58331440812987
 20
-199.5216890832365
 30
0.0
 11
-68.91320819046217
 21
-198.6887565042254
 31
0.0
  0
LINE
  5
9E
330
1F
100
AcDbEntity
  8
通り芯
  6
Continuous
 62
     3
370
     9
100
AcDbLine
 10
-80.44108228648196
 20
-206.4357330547069
 30
0.0
 11
-80.47157839036515
 21
-204.9359366476039
 31
0.0
  0
LINE
  5
9F
330
1F
100
AcDbEntity
  8
通り芯
  6
Continuous
 62
     3
370
     9
100
AcDbLine
 10
-56.49480326886049
 20
-205.9480431269688
 30
0.0
 11
-80.44108228648196
 21
-206.4357330547069
 31
0.0
  0
LINE
  5
A0
330
1F
100
AcDbEntity
  8
通り芯
  6
Continuous
 62
     3
370
     9
100
AcDbLine
 10
-82.48726928594641
 20
-105.9565085293436
 30
0.0
 11
-82.51786448358723
 21
-104.4569226964753
 31
0.0
  0
LINE
  5
A1
330
1F
100
AcDbEntity
  8
通り芯
  6
Continuous
 62
     3
370
     9
100
AcDbLine
 10
-62.90436092068961
 20
-104.0575005332669
 30
0.0
 11
-82.51786448358723
 21
-104.4569226964753
 31
0.0
  0
LINE
  5
A2
330
1F
100
AcDbEntity
  8
通り芯
  6
Continuous
 62
     3
370
     9
100
AcDbLine
 10
-87.86357632789532
 20
-113.1403848025983
 30
0.0
 11
-70.67843961385847
 21
-113.2066289795144
 31
0.0
  0
LINE
  5
A3
330
1F
100
AcDbEntity
  8
通り芯
  6
Continuous
 62
     3
370
     9
100
AcDbLine
 10
-69.42790116713019
 20
-197.2317438269407
 30
0.0
 11
-86.13585189172812
 21
-197.977139457884
 31
0.0
  0
LINE
  5
A4
330
1F
100
AcDbEntity
  8
087
  6
Continuous
 62
     4
370
     9
100
AcDbLine
 10
-80.46144605365657
 20
-205.4359761348755
 30
0.0
 11
-80.40032997869315
 21
-208.4353707615666
 31
0.0
  0
LINE
  5
A5
330
1F
100
AcDbEntity
  8
087
  6
Continuous
 62
     4
370
     9
100
AcDbLine
 10
-144.288850090602
 20
-209.7364717980803
 30
0.0
 11
-144.3499166186866
 21
-206.7370771713892
 31
0.0
  0
LINE
  5
A6
330
1F
100
AcDbEntity
  8
087
  6
Continuous
 62
     4
370
     9
100
AcDbLine
 10
-146.447087356406
 20
-103.7584107995687
 30
0.0
 11
-146.385996054882
 21
-106.7577806528204
 31
0.0
  0
LINE
  5
A7
330
1F
100
AcDbEntity
  8
通り芯
  6
Continuous
 62
     3
370
     9
100
AcDbLine
 10
-54.48575165503439
 20
-107.959664064596
 30
0.0
 11
-54.48575165503439
 21
-103.2396054319626
 31
0.0
  0
LINE
  5
A8
330
1F
100
AcDbEntity
  8
通り芯
  6
Continuous
 62
     3
370
     9
100
AcDbLine
 10
-55.48578108269891
 20
-107.959664064596
 30
0.0
 11
-55.48578108269891
 21
-103.2396054319626
 31
0.0
  0
LINE
  5
A9
330
1F
100
AcDbEntity
  8
通り芯
  6
Continuous
 62
     3
370
     9
100
AcDbLine
 10
-55.48578108269891
 20
-103.2396054319626
 30
0.0
 11
-56.84827070200919
 21
-105.5995975881203
 31
0.0
  0
LINE
  5
AA
330
1F
100
AcDbEntity
  8
通り芯
  6
Continuous
 62
     3
370
     9
100
AcDbLine
 10
-55.48578108269891
 20
-107.959664064596
 30
0.0
 11
-56.84827070200919
 21
-105.5995975881203
 31
0.0
  0
LINE
  5
AB
330
1F
100
AcDbEntity
  8
041
  6
Continuous
 62
     3
370
     9
100
AcDbLine
 10
-142.4606445842883
 20
-152.1659838661917
 30
0.0
 11
-142.4500167787919
 21
-152.6871674839787
 31
0.0
  0
LINE
  5
AC
330
1F
100
AcDbEntity
  8
041
  6
Continuous
 62
     3
370
     9
100
AcDbLine
 10
-142.3715592962589
 20
-107.4261680474346
 30
0.0
 11
-141.4502350855211
 21
-152.6668037168041
 31
0.0
  0
LINE
  5
AD
330
1F
100
AcDbEntity
  8
041
  6
Continuous
 62
     3
370
     9
100
AcDbLine
 10
-142.2871314148339
 20
-160.685495350463
 30
0.0
 11
-142.2773459062768
 21
-161.1659762073401
 31
0.0
  0
LINE
  5
AE
330
1F
100
AcDbEntity
  8
041
  6
Continuous
 62
     3
370
     9
100
AcDbLine
 10
-141.2873497215631
 20
-160.6651315832884
 30
0.0
 11
-140.3660255108255
 21
-205.9057920260972
 31
0.0
  0
LINE
  5
AF
330
1F
100
AcDbEntity
  8
通り芯
  6
Continuous
 62
     3
370
     9
100
AcDbLine
 10
-89.48586500603881
 20
-106.099030126127
 30
0.0
 11
-88.5594622402271
 21
-151.5897041192119
 31
0.0
  0
LINE
  5
B0
330
1F
100
AcDbEntity
  8
通り芯
  6
Continuous
 62
     3
370
     9
100
AcDbLine
 10
-87.86357632789532
 20
-113.1403848025983
 30
0.0
 11
-87.08115679179082
 21
-151.5595796169195
 31
0.0
  0
LINE
  5
B1
330
1F
100
AcDbEntity
  8
通り芯
  6
Continuous
 62
     3
370
     9
100
AcDbLine
 10
-88.39657687626908
 20
-159.5880072122568
 30
0.0
 11
-87.47017411045755
 21
-205.0785325647054
 31
0.0
  0
LINE
  5
B2
330
1F
100
AcDbEntity
  8
通り芯
  6
Continuous
 62
     3
370
     9
100
AcDbLine
 10
-86.91827142783262
 20
-159.5579074834037
 30
0.0
 11
-86.13585189172812
 21
-197.977139457884
 31
0.0
  0
LINE
  5
B3
330
1F
100
AcDbEntity
  8
通り芯
  6
Continuous
 62
     3
370
     9
100
AcDbLine
 10
-69.67253888105955
 20
-197.2426565269899
 30
0.0
 11
-70.44703091656078
 21
-159.2224751141274
 31
0.0
  0
LINE
  5
B4
330
1F
100
AcDbEntity
  8
通り芯
  6
Continuous
 62
     3
370
     9
100
AcDbLine
 10
-70.60996582739762
 20
-151.2241472476431
 30
0.0
 11
-71.38448263633825
 21
-113.2039039011821
 31
0.0
  0
LINE
  5
B5
330
1F
100
AcDbEntity
  8
084
  6
Continuous
 62
     6
370
     9
100
AcDbLine
 10
11.51401050816469
 20
-218.5995413397463
 30
0.0
 11
11.51401050816469
 21
-224.599556878378
 31
0.0
  0
LINE
  5
B6
330
1F
100
AcDbEntity
  8
084
  6
Continuous
 62
     6
370
     9
100
AcDbLine
 10
5.513982582813355
 20
-218.5995289530266
 30
0.0
 11
11.51401050816469
 21
-218.5995289530266
 31
0.0
  0
LINE
  5
B7
330
1F
100
AcDbEntity
  8
084
  6
Continuous
 62
     6
370
     9
100
AcDbLine
 10
-2.486054650988535
 20
-216.5996187383337
 30
0.0
 11
-2.486054650988535
 21
-203.5995706201253
 31
0.0
  0
LINE
  5
B8
330
1F
100
AcDbEntity
  8
084
  6
Continuous
 62
     6
370
     9
100
AcDbLine
 10
5.513982582813355
 20
-224.599556878378
 30
0.0
 11
11.51401050816469
 21
-224.599556878378
 31
0.0
  0
LINE
  5
B9
330
1F
100
AcDbEntity
  8
084
  6
JWW_CENTER1
 62
     6
370
     9
100
AcDbLine
 10
5.514180770328437
 20
-221.5995429157024
 30
0.0
 11
14.51402447084052
 21
-221.5995429157024
 31
0.0
  0
LINE
  5
BA
330
1F
100
AcDbEntity
  8
084
  6
Continuous
 62
     6
370
     9
100
AcDbLine
 10
3.514072368120424
 20
-216.5996187383337
 30
0.0
 11
3.514072368120424
 21
-203.5995706201253
 31
0.0
  0
LINE
  5
BB
330
1F
100
AcDbEntity
  8
084
  6
Continuous
 62
     6
370
     9
100
AcDbLine
 10
-2.660955133048503
 20
-203.5995706201253
 30
0.0
 11
3.688923303301578
 21
-203.5995706201253
 31
0.0
  0
LINE
  5
BC
330
1F
100
AcDbEntity
  8
084
  6
Continuous
 62
     6
370
     9
100
AcDbLine
 10
2.874124881920523
 20
-203.5995706201253
 30
0.0
 11
2.874124881920523
 21
-201.5995736983945
 31
0.0
  0
LINE
  5
BD
330
1F
100
AcDbEntity
  8
084
  6
Continuous
 62
     6
370
     9
100
AcDbLine
 10
-1.845809883515926
 20
-203.5995706201253
 30
0.0
 11
-1.845809883515926
 21
-201.5995736983945
 31
0.0
  0
LINE
  5
BE
330
1F
100
AcDbEntity
  8
084
  6
Continuous
 62
     6
370
     9
100
AcDbLine
 10
-2.660955133048503
 20
-203.5995706201253
 30
0.0
 11
-2.660955133048503
 21
-201.5995736983945
 31
0.0
  0
LINE
  5
BF
330
1F
100
AcDbEntity
  8
084
  6
Continuous
 62
     6
370
     9
100
AcDbLine
 10
3.688923303301578
 20
-203.5995706201253
 30
0.0
 11
3.688923303301578
 21
-201.5995736983945
 31
0.0
  0
LINE
  5
C0
330
1F
100
AcDbEntity
  8
084
  6
JWW_CENTER1
 62
     6
370
     9
100
AcDbLine
 10
0.5141079523233998
 20
-216.5996187383337
 30
0.0
 11
0.5141079523233998
 21
-199.6205351063837
 31
0.0
  0
LINE
  5
C1
330
1F
100
AcDbEntity
  8
仕上
  6
Continuous
 62
     6
370
     9
100
AcDbLine
 10
60.51408992456487
 20
-186.5995534318948
 30
0.0
 11
60.51408992456487
 21
-196.5994637202305
 31
0.0
  0
LINE
  5
C2
330
1F
100
AcDbEntity
  8
仕上
  6
Continuous
 62
     6
370
     9
100
AcDbLine
 10
60.5141890183225
 20
-171.5995083919557
 30
0.0
 11
60.5141890183225
 21
-180.599500733104
 31
0.0
  0
LINE
  5
C3
330
1F
100
AcDbEntity
  8
仕上
  6
JWW_HOJO
 62
     6
370
     9
100
AcDbLine
 10
69.6943338106804
 20
-194.7985213839602
 30
0.0
 11
69.51418135947085
 21
-196.5994637202305
 31
0.0
  0
LINE
  5
C4
330
1F
100
AcDbEntity
  8
仕上
  6
JWW_HOJO
 62
     6
370
     9
100
AcDbLine
 10
69.51418135947085
 20
-196.5994637202305
 30
0.0
 11
67.70423387798411
 21
-196.5994637202305
 31
0.0
  0
LINE
  5
C5
330
1F
100
AcDbEntity
  8
仕上
  6
Continuous
 62
     6
370
     9
100
AcDbLine
 10
70.33408310936522
 20
-188.4005577017635
 30
0.0
 11
69.6943338106804
 21
-194.7984966105209
 31
0.0
  0
LINE
  5
C6
330
1F
100
AcDbEntity
  8
仕上
  6
JWW_HOJO
 62
     6
370
     9
100
AcDbLine
 10
70.51423556057478
 20
-186.5995534318948
 30
0.0
 11
70.33418220312285
 21
-188.4005577017635
 31
0.0
  0
LINE
  5
C7
330
1F
100
AcDbEntity
  8
仕上
  6
JWW_HOJO
 62
     6
370
     9
100
AcDbLine
 10
72.32418304206169
 20
-186.5995534318948
 30
0.0
 11
70.51423556057478
 21
-186.5995534318948
 31
0.0
  0
LINE
  5
C8
330
1F
100
AcDbEntity
  8
仕上
  6
Continuous
 62
     6
370
     9
100
AcDbLine
 10
81.00212067120174
 20
-186.5995534318948
 30
0.0
 11
72.32418304206169
 21
-186.5995534318948
 31
0.0
  0
LINE
  5
C9
330
1F
100
AcDbEntity
  8
仕上
  6
JWW_HOJO
 62
     6
370
     9
100
AcDbLine
 10
82.51409322376253
 20
-186.5995534318948
 30
0.0
 11
81.00212067120174
 21
-186.5995534318948
 31
0.0
  0
LINE
  5
CA
330
1F
100
AcDbEntity
  8
仕上
  6
JWW_HOJO
 62
     6
370
     9
100
AcDbLine
 10
82.51409322376253
 20
-186.5995534318948
 30
0.0
 11
82.92632325513324
 21
-185.1447827508744
 31
0.0
  0
LINE
  5
CB
330
1F
100
AcDbEntity
  8
躯体
  6
Continuous
 62
     2
370
     9
100
AcDbLine
 10
12.51401516238997
 20
-171.5995579388344
 30
0.0
 11
12.51401516238997
 21
-136.5994941347087
 31
0.0
  0
LINE
  5
CC
330
1F
100
AcDbEntity
  8
躯体
  6
Continuous
 62
     2
370
     9
100
AcDbLine
 10
2.514117260773958
 20
-171.5995331653951
 30
0.0
 11
2.514117260773958
 21
-136.5995436815875
 31
0.0
  0
LINE
  5
CD
330
1F
100
AcDbEntity
  8
仕上
  6
Continuous
 62
     6
370
     9
100
AcDbLine
 10
67.70423387798411
 20
-196.5994637202305
 30
0.0
 11
60.51408992456487
 21
-196.5994637202305
 31
0.0
  0
LINE
  5
CE
330
1F
100
AcDbEntity
  8
仕上
  6
Continuous
 62
     6
370
     9
100
AcDbLine
 10
60.51408992456487
 20
-186.5995534318948
 30
0.0
 11
58.51408061611448
 21
-186.5995534318948
 31
0.0
  0
LINE
  5
CF
330
1F
100
AcDbEntity
  8
仕上
  6
Continuous
 62
     6
370
     9
100
AcDbLine
 10
82.92632325513324
 20
-185.144757977435
 30
0.0
 11
86.76422448469708
 21
-171.5995083919557
 31
0.0
  0
LINE
  5
D0
330
1F
100
AcDbEntity
  8
躯体
  6
Continuous
 62
     2
370
     9
100
AcDbLine
 10
95.51410418181183
 20
-136.5995436815875
 30
0.0
 11
11.51410960192231
 21
-136.5995436815875
 31
0.0
  0
LINE
  5
D1
330
1F
100
AcDbEntity
  8
仕上
  6
Continuous
 62
     6
370
     9
100
AcDbLine
 10
-12.86216200310918
 20
-171.5995083919557
 30
0.0
 11
3.514072368120424
 21
-171.5995083919557
 31
0.0
  0
LINE
  5
D2
330
1F
100
AcDbEntity
  8
仕上
  6
Continuous
 62
     6
370
     9
100
AcDbLine
 10
11.51410960192231
 20
-171.5995083919557
 30
0.0
 11
86.76422448469708
 21
-171.5995083919557
 31
0.0
  0
LINE
  5
D3
330
1F
100
AcDbEntity
  8
躯体
  6
Continuous
 62
     2
370
     9
100
AcDbLine
 10
11.51410960192231
 20
-171.5995331653951
 30
0.0
 11
86.76422448469708
 21
-171.5995083919557
 31
0.0
  0
LINE
  5
D4
330
1F
100
AcDbEntity
  8
通り芯
  6
Continuous
 62
     3
370
     9
100
AcDbLine
 10
11.51410960192231
 20
-171.5995579388344
 30
0.0
 11
50.51424156982767
 21
-171.5995579388344
 31
0.0
  0
LINE
  5
D5
330
1F
100
AcDbEntity
  8
建具
  6
Continuous
 62
     6
370
     9
100
AcDbLine
 10
-4.485964865681467
 20
-136.5995436815875
 30
0.0
 11
-6.785930978208626
 21
-136.5995436815875
 31
0.0
  0
LINE
  5
D6
330
1F
100
AcDbEntity
  8
建具
  6
Continuous
 62
     6
370
     9
100
AcDbLine
 10
21.81401385449374
 20
-136.5995436815875
 30
0.0
 11
19.51404774196658
 21
-136.5995436815875
 31
0.0
  0
LINE
  5
D7
330
1F
100
AcDbEntity
  8
建具
  6
Continuous
 62
     6
370
     9
100
AcDbLine
 10
-4.485964865681467
 20
-131.3995987546223
 30
0.0
 11
-4.485964865681467
 21
-136.5995436815875
 31
0.0
  0
LINE
  5
D8
330
1F
100
AcDbEntity
  8
建具
  6
Continuous
 62
     6
370
     9
100
AcDbLine
 10
19.51404774196658
 20
-131.3995987546223
 30
0.0
 11
19.51404774196658
 21
-136.5995436815875
 31
0.0
  0
LINE
  5
D9
330
1F
100
AcDbEntity
  8
建具
  6
Continuous
 62
     6
370
     9
100
AcDbLine
 10
-6.785930978208626
 20
-131.7996402538154
 30
0.0
 11
-6.785930978208626
 21
-136.5995436815875
 31
0.0
  0
LINE
  5
DA
330
1F
100
AcDbEntity
  8
建具
  6
Continuous
 62
     6
370
     9
100
AcDbLine
 10
21.81401385449374
 20
-131.7996402538154
 30
0.0
 11
21.81401385449374
 21
-136.5995436815875
 31
0.0
  0
LINE
  5
DB
330
1F
100
AcDbEntity
  8
建具
  6
Continuous
 62
     6
370
     9
100
AcDbLine
 10
3.264058817844443
 20
-128.5996055415431
 30
0.0
 11
3.264058817844443
 21
-130.8995716540703
 31
0.0
  0
LINE
  5
DC
330
1F
100
AcDbEntity
  8
建具
  6
Continuous
 62
     6
370
     9
100
AcDbLine
 10
11.76402405844067
 20
-128.5996055415431
 30
0.0
 11
11.76402405844067
 21
-130.8995716540703
 31
0.0
  0
LINE
  5
DD
330
1F
100
AcDbEntity
  8
建具
  6
Continuous
 62
     6
370
     9
100
AcDbLine
 10
19.01402064141462
 20
-130.8995716540703
 30
0.0
 11
11.51410960192231
 21
-130.8995716540703
 31
0.0
  0
LINE
  5
DE
330
1F
100
AcDbEntity
  8
建具
  6
Continuous
 62
     6
370
     9
100
AcDbLine
 10
3.514072368120424
 20
-130.8995716540703
 30
0.0
 11
-3.985937765129506
 21
-130.8995716540703
 31
0.0
  0
LINE
  5
DF
330
1F
100
AcDbEntity
  8
建具
  6
Continuous
 62
     6
370
     9
100
AcDbLine
 10
18.61402868910034
 20
-128.5996055415431
 30
0.0
 11
11.51410960192231
 21
-128.5996055415431
 31
0.0
  0
LINE
  5
E0
330
1F
100
AcDbEntity
  8
建具
  6
Continuous
 62
     6
370
     9
100
AcDbLine
 10
3.514072368120424
 20
-128.5996055415431
 30
0.0
 11
-3.585945812815226
 21
-128.5996055415431
 31
0.0
  0
LINE
  5
E1
330
1F
100
AcDbEntity
  8
090
  6
Continuous
 62
     2
370
     9
100
AcDbLine
 10
-3.474019413672636
 20
-117.5995791185049
 30
0.0
 11
-6.485875080374399
 21
-117.5995791185049
 31
0.0
  0
LINE
  5
E2
330
1F
100
AcDbEntity
  8
090
  6
Continuous
 62
     2
370
     9
100
AcDbLine
 10
-0.0898684998890644
 20
-119.467100073123
 30
0.0
 11
2.514117260773958
 21
-123.5995574969776
 31
0.0
  0
LINE
  5
E3
330
1F
100
AcDbEntity
  8
090
  6
Continuous
 62
     2
370
     9
100
AcDbLine
 10
2.514117260773958
 20
-125.4995812040692
 30
0.0
 11
2.514117260773958
 21
-127.3996049111608
 31
0.0
  0
LINE
  5
E4
330
1F
100
AcDbEntity
  8
090
  6
Continuous
 62
     2
370
     9
100
AcDbLine
 10
3.714142664595784
 20
-125.4995812040692
 30
0.0
 11
3.714142664595784
 21
-127.3996049111608
 31
0.0
  0
LINE
  5
E5
330
1F
100
AcDbEntity
  8
090
  6
Continuous
 62
     2
370
     9
100
AcDbLine
 10
18.50230047747283
 20
-117.5995791185049
 30
0.0
 11
21.51415614417459
 21
-117.5995791185049
 31
0.0
  0
LINE
  5
E6
330
1F
100
AcDbEntity
  8
090
  6
Continuous
 62
     2
370
     9
100
AcDbLine
 10
15.11814956368926
 20
-119.467100073123
 30
0.0
 11
12.51416380302624
 21
-123.5995574969776
 31
0.0
  0
LINE
  5
E7
330
1F
100
AcDbEntity
  8
090
  6
Continuous
 62
     2
370
     9
100
AcDbLine
 10
12.51416380302624
 20
-125.4995812040692
 30
0.0
 11
12.51416380302624
 21
-127.3996049111608
 31
0.0
  0
LINE
  5
E8
330
1F
100
AcDbEntity
  8
090
  6
Continuous
 62
     2
370
     9
100
AcDbLine
 10
11.31413839920441
 20
-125.4995812040692
 30
0.0
 11
11.31413839920441
 21
-127.3996049111608
 31
0.0
  0
LINE
  5
E9
330
1F
100
AcDbEntity
  8
090
  6
Continuous
 62
     2
370
     9
100
AcDbLine
 10
2.514117260773958
 20
-125.4995812040692
 30
0.0
 11
3.714142664595784
 21
-125.4995812040692
 31
0.0
  0
LINE
  5
EA
330
1F
100
AcDbEntity
  8
090
  6
Continuous
 62
     2
370
     9
100
AcDbLine
 10
11.31413839920441
 20
-125.4995812040692
 30
0.0
 11
12.51416380302624
 21
-125.4995812040692
 31
0.0
  0
LINE
  5
EB
330
1F
100
AcDbEntity
  8
090
  6
Continuous
 62
     2
370
     9
100
AcDbLine
 10
2.514117260773958
 20
-123.5995574969776
 30
0.0
 11
3.514121914999237
 21
-123.5995574969776
 31
0.0
  0
LINE
  5
EC
330
1F
100
AcDbEntity
  8
090
  6
Continuous
 62
     2
370
     9
100
AcDbLine
 10
11.51410960192231
 20
-123.5995574969776
 30
0.0
 11
12.51416380302624
 21
-123.5995574969776
 31
0.0
  0
LINE
  5
ED
330
1F
100
AcDbEntity
  8
090
  6
Continuous
 62
     2
370
     9
100
AcDbLine
 10
13.31414770765497
 20
-128.5995807681038
 30
0.0
 11
12.51416380302624
 21
-128.5995807681038
 31
0.0
  0
LINE
  5
EE
330
1F
100
AcDbEntity
  8
090
  6
Continuous
 62
     2
370
     9
100
AcDbLine
 10
2.514117260773958
 20
-128.5995807681038
 30
0.0
 11
1.714133356145226
 21
-128.5995807681038
 31
0.0
  0
LINE
  5
EF
330
1F
100
AcDbEntity
  8
021
  6
Continuous
 62
     6
370
     9
100
AcDbLine
 10
-39.55943237070574
 20
-79.81991064191416
 30
0.0
 11
-49.05184636651489
 21
-86.46659965553893
 31
0.0
  0
LINE
  5
F0
330
1F
100
AcDbEntity
  8
021
  6
Continuous
 62
     6
370
     9
100
AcDbLine
 10
-53.96367619342954
 20
-86.39463281412475
 30
0.0
 11
-52.83712881082425
 21
-85.26801111120145
 31
0.0
  0
LINE
  5
F1
330
1F
100
AcDbEntity
  8
021
  6
Continuous
 62
     6
370
     9
100
AcDbLine
 10
-39.48580570885275
 20
-82.82465633151246
 30
0.0
 11
-37.98584827439373
 21
-81.32469889705337
 31
0.0
  0
LINE
  5
F2
330
1F
100
AcDbEntity
  8
021
  6
Continuous
 62
     6
370
     9
100
AcDbLine
 10
-44.83389580334182
 20
-85.34436285138682
 30
0.0
 11
-39.14066215133732
 21
-79.65112919938241
 31
0.0
  0
LINE
  5
F3
330
1F
100
AcDbEntity
  8
021
  6
Continuous
 62
     6
370
     9
100
AcDbLine
 10
-50.72928072072995
 20
-88.41131464728149
 30
0.0
 11
-48.160349376797
 21
-85.84235852990923
 31
0.0
  0
LINE
  5
F4
330
1F
100
AcDbEntity
  8
021
  6
Continuous
 62
     6
370
     9
100
AcDbLine
 10
-52.81622002798321
 20
-87.6698208330414
 30
0.0
 11
-51.73225818768128
 21
-86.58585899273955
 31
0.0
  0
LINE
  5
F5
330
1F
100
AcDbEntity
  8
通り芯
  6
Continuous
 62
     3
370
     9
100
AcDbLine
 10
32.4258900292437
 20
-184.2600241366694
 30
0.0
 11
47.51412851339438
 21
-171.5995579388344
 31
0.0
  0
LINE
  5
F6
330
1F
100
AcDbEntity
  8
087
  6
Continuous
 62
     4
370
     9
100
AcDbLine
 10
-82.55856724449723
 20
-102.4573345364944
 30
0.0
 11
-82.49747594297321
 21
-105.4567043897461
 31
0.0
  0
ARC
  5
F7
330
1F
100
AcDbEntity
  8
041
  6
Continuous
 62
     6
370
     9
100
AcDbCircle
 10
-149.7859524229933
 20
-162.2896003240977
 30
0.0
 40
2.800173401142179
100
AcDbArc
 50
317.9253082275391
 51
42.07437133789064
  0
ARC
  5
F8
330
1F
100
AcDbEntity
  8
041
  6
Continuous
 62
     6
370
     9
100
AcDbCircle
 10
-157.0751901339533
 20
-156.6659800367659
 30
0.0
 40
10.08940975730484
100
AcDbArc
 50
338.1978912353515
 51
21.80216979980466
  0
ARC
  5
F9
330
1F
100
AcDbEntity
  8
041
  6
Continuous
 62
     6
370
     9
100
AcDbCircle
 10
-149.7859524229933
 20
-151.0423845228734
 30
0.0
 40
2.800189271626786
100
AcDbArc
 50
317.9256591796875
 51
42.07421874999999
  0
ARC
  5
FA
330
1F
100
AcDbEntity
  8
通り芯
  6
Continuous
 62
     3
370
     9
100
AcDbCircle
 10
18.24401259844205
 20
-194.0995511784249
 30
0.0
 40
3.000000027616052
100
AcDbArc
 50
90.0
 51
129.9998779296875
  0
ARC
  5
FB
330
1F
100
AcDbEntity
  8
通り芯
  6
Continuous
 62
     3
370
     9
100
AcDbCircle
 10
58.51408061611448
 20
-188.5995131934665
 30
0.0
 40
2.000000018410701
100
AcDbArc
 50
0.0
 51
90.0
  0
ARC
  5
FC
330
1F
100
AcDbEntity
  8
通り芯
  6
Continuous
 62
     3
370
     9
100
AcDbCircle
 10
50.34122386916107
 20
-196.0995357134361
 30
0.0
 40
5.000000046026752
100
AcDbArc
 50
10.30488586425781
 51
89.99998474121092
  0
ARC
  5
FD
330
1F
100
AcDbEntity
  8
通り芯
  6
Continuous
 62
     3
370
     9
100
AcDbCircle
 10
19.84734959545591
 20
-196.0995357134361
 30
0.0
 40
5.000000046026752
100
AcDbArc
 50
90.0
 51
130.0001678466797
  0
ARC
  5
FE
330
1F
100
AcDbEntity
  8
通り芯
  6
Continuous
 62
     3
370
     9
100
AcDbCircle
 10
-3.244617364965166
 20
-200.0995295568976
 30
0.0
 40
1.500000013808026
100
AcDbArc
 50
190.7844543457031
 51
270.0
  0
ARC
  5
FF
330
1F
100
AcDbEntity
  8
通り芯
  6
Continuous
 62
     3
370
     9
100
AcDbCircle
 10
4.968273260034948
 20
-200.0995295568976
 30
0.0
 40
1.500000013808026
100
AcDbArc
 50
270.0
 51
310.0000305175781
  0
ARC
  5
100
330
1F
100
AcDbEntity
  8
通り芯
  6
Continuous
 62
     3
370
     9
100
AcDbCircle
 10
-50.48588167876972
 20
-84.41872806219612
 30
0.0
 40
4.000000036821402
100
AcDbArc
 50
180.0
 51
305.0001373291016
  0
ARC
  5
101
330
1F
100
AcDbEntity
  8
通り芯
  6
Continuous
 62
     3
370
     9
100
AcDbCircle
 10
47.69502416778562
 20
-182.5995595884332
 30
0.0
 40
4.000000036821402
100
AcDbArc
 50
144.9998626708984
 51
270.0
  0
ARC
  5
102
330
1F
100
AcDbEntity
  8
通り芯
  6
Continuous
 62
     3
370
     9
100
AcDbCircle
 10
7.733880939247285
 20
-195.0860171480261
 30
0.0
 40
3.000000027616052
100
AcDbArc
 50
271.4271240234375
 51
309.9997253417969
  0
ARC
  5
103
330
1F
100
AcDbEntity
  8
通り芯
  6
Continuous
 62
     3
370
     9
100
AcDbCircle
 10
-56.485835283803
 20
-73.5995477466703
 30
0.0
 40
2.000000018410701
100
AcDbArc
 50
0.0
 51
90.0
  0
ARC
  5
104
330
1F
100
AcDbEntity
  8
通り芯
  6
Continuous
 62
     3
370
     9
100
AcDbCircle
 10
-63.98584541705276
 20
-84.4671601361943
 30
0.0
 40
5.000000046026752
100
AcDbArc
 50
0.0
 51
43.00007629394532
  0
ARC
  5
105
330
1F
100
AcDbEntity
  8
通り芯
  6
Continuous
 62
     3
370
     9
100
AcDbCircle
 10
-36.1346777897698
 20
-214.1845552264226
 30
0.0
 40
14.9999985897403
100
AcDbArc
 50
91.4271240234375
 51
113.8893432617188
  0
ARC
  5
106
330
1F
100
AcDbEntity
  8
通り芯
  6
Continuous
 62
     3
370
     9
100
AcDbCircle
 10
-62.98581598938824
 20
-100.0582498929869
 30
0.0
 40
4.000000036821402
100
AcDbArc
 50
271.1664733886719
 51
0.0
  0
ARC
  5
107
330
1F
100
AcDbEntity
  8
通り芯
  6
Continuous
 62
     3
370
     9
100
AcDbCircle
 10
-56.69831707341029
 20
-195.9501147137838
 30
0.0
 40
10.0000000920535
100
AcDbArc
 50
271.1667022705078
 51
293.8893280029297
  0
ARC
  5
108
330
1F
100
AcDbEntity
  8
通り芯
  6
Continuous
 62
     3
370
     9
100
AcDbCircle
 10
-64.8779617427553
 20
-114.3025811644788
 30
0.0
 40
4.000000036821402
100
AcDbArc
 50
17.11225891113281
 51
91.16648864746094
  0
ARC
  5
109
330
1F
100
AcDbEntity
  8
通り芯
  6
Continuous
 62
     3
370
     9
100
AcDbCircle
 10
-58.86866855107377
 20
-113.4300606293301
 30
0.0
 40
2.000000018410701
100
AcDbArc
 50
197.1109161376953
 51
271.1668395996094
  0
ARC
  5
10A
330
1F
100
AcDbEntity
  8
通り芯
  6
Continuous
 62
     3
370
     9
100
AcDbCircle
 10
-57.14111752898242
 20
-197.8876082479456
 30
0.0
 40
2.000000018410701
100
AcDbArc
 50
91.88746643066406
 51
165.2227172851562
  0
ARC
  5
10B
330
1F
100
AcDbEntity
  8
通り芯
  6
Continuous
 62
     3
370
     9
100
AcDbCircle
 10
-63.1875213328629
 20
-197.2853163896113
 30
0.0
 40
4.000000036821402
100
AcDbArc
 50
271.1668243408203
 51
345.2213287353516
  0
ARC
  5
10C
330
1F
100
AcDbEntity
  8
通り芯
  6
Continuous
 62
     3
370
     9
100
AcDbCircle
 10
-65.15274873241651
 20
-197.3253378809382
 30
0.0
 40
4.000000036821402
100
AcDbArc
 50
197.1123809814453
 51
271.1668395996094
  0
ARC
  5
10D
330
1F
100
AcDbEntity
  8
通り芯
  6
Continuous
 62
     3
370
     9
100
AcDbCircle
 10
-12.86216200310918
 20
-173.0996144670511
 30
0.0
 40
1.500000013808026
100
AcDbArc
 50
0.0
 51
90.0
  0
ARC
  5
10E
330
1F
100
AcDbEntity
  8
通り芯
  6
Continuous
 62
     3
370
     9
100
AcDbCircle
 10
-66.8431395954301
 20
-114.342590269086
 30
0.0
 40
4.000000036821402
100
AcDbArc
 50
91.16683959960939
 51
163.50146484375
  0
ARC
  5
10F
330
1F
100
AcDbEntity
  8
通り芯
  6
Continuous
 62
     3
370
     9
100
AcDbCircle
 10
-71.14252045386257
 20
-198.2613651279511
 30
0.0
 40
2.000000018410701
100
AcDbArc
 50
17.11697387695312
 51
30.98463439941407
  0
ARC
  5
110
330
1F
100
AcDbEntity
  8
084
  6
Continuous
 62
     6
370
     9
100
AcDbCircle
 10
5.513982582813355
 20
-216.5996187383337
 30
0.0
 40
2.000000018410701
100
AcDbArc
 50
180.0
 51
270.0
  0
ARC
  5
111
330
1F
100
AcDbEntity
  8
084
  6
Continuous
 62
     6
370
     9
100
AcDbCircle
 10
5.513982582813355
 20
-216.5996187383337
 30
0.0
 40
8.000000073642804
100
AcDbArc
 50
180.0
 51
270.0
  0
ARC
  5
112
330
1F
100
AcDbEntity
  8
084
  6
JWW_CENTER1
 62
     6
370
     9
100
AcDbCircle
 10
5.514180770328437
 20
-216.5996187383337
 30
0.0
 40
5.000000046026752
100
AcDbArc
 50
180.0
 51
270.0
  0
ARC
  5
113
330
1F
100
AcDbEntity
  8
仕上
  6
Continuous
 62
     6
370
     9
100
AcDbCircle
 10
67.70423387798411
 20
-194.5994791852195
 30
0.0
 40
2.000000018410701
100
AcDbArc
 50
270.0
 51
354.2891998291016
  0
ARC
  5
114
330
1F
100
AcDbEntity
  8
仕上
  6
Continuous
 62
     6
370
     9
100
AcDbCircle
 10
72.32418304206169
 20
-188.5995627403452
 30
0.0
 40
2.000000018410701
100
AcDbArc
 50
90.0
 51
174.2891998291016
  0
ARC
  5
115
330
1F
100
AcDbEntity
  8
仕上
  6
Continuous
 62
     6
370
     9
100
AcDbCircle
 10
81.00212067120174
 20
-184.5995441234443
 30
0.0
 40
2.000000018410701
100
AcDbArc
 50
270.0
 51
344.1806030273438
  0
ARC
  5
116
330
1F
100
AcDbEntity
  8
建具
  6
Continuous
 62
     6
370
     9
100
AcDbCircle
 10
-3.985937765129506
 20
-131.3995987546223
 30
0.0
 40
0.5000000046026752
100
AcDbArc
 50
90.0
 51
180.0
  0
ARC
  5
117
330
1F
100
AcDbEntity
  8
建具
  6
Continuous
 62
     6
370
     9
100
AcDbCircle
 10
19.01402064141462
 20
-131.3995987546223
 30
0.0
 40
0.5000000046026752
100
AcDbArc
 50
0.0
 51
90.0
  0
ARC
  5
118
330
1F
100
AcDbEntity
  8
建具
  6
Continuous
 62
     6
370
     9
100
AcDbCircle
 10
-3.585945812815226
 20
-131.7996402538154
 30
0.0
 40
3.20000006816562
100
AcDbArc
 50
90.0
 51
180.0
  0
ARC
  5
119
330
1F
100
AcDbEntity
  8
建具
  6
Continuous
 62
     6
370
     9
100
AcDbCircle
 10
18.61402868910034
 20
-131.7996402538154
 30
0.0
 40
3.20000006816562
100
AcDbArc
 50
0.0
 51
90.0
  0
ARC
  5
11A
330
1F
100
AcDbEntity
  8
090
  6
Continuous
 62
     2
370
     9
100
AcDbCircle
 10
-3.474019413672636
 20
-121.5995977354059
 30
0.0
 40
4.000000036821402
100
AcDbArc
 50
32.21649169921875
 51
90.0
  0
ARC
  5
11B
330
1F
100
AcDbEntity
  8
090
  6
Continuous
 62
     2
370
     9
100
AcDbCircle
 10
5.03902620291916
 20
-117.5646485689717
 30
0.0
 40
11.52495470102229
100
AcDbArc
 50
180.1736297607422
 51
253.2320861816407
  0
ARC
  5
11C
330
1F
100
AcDbEntity
  8
090
  6
Continuous
 62
     2
370
     9
100
AcDbCircle
 10
2.514117260773958
 20
-127.3996049111608
 30
0.0
 40
1.200000049754919
100
AcDbArc
 50
270.0
 51
0.0
  0
ARC
  5
11D
330
1F
100
AcDbEntity
  8
090
  6
Continuous
 62
     2
370
     9
100
AcDbCircle
 10
5.03902620291916
 20
-117.5646485689717
 30
0.0
 40
10.32495484480987
100
AcDbArc
 50
180.1736297607422
 51
255.4090576171875
  0
ARC
  5
11E
330
1F
100
AcDbEntity
  8
090
  6
Continuous
 62
     2
370
     9
100
AcDbCircle
 10
2.314146058056224
 20
-127.3996049111608
 30
0.0
 40
0.2000000042603513
100
AcDbArc
 50
308.2657165527344
 51
0.0
  0
ARC
  5
11F
330
1F
100
AcDbEntity
  8
090
  6
Continuous
 62
     2
370
     9
100
AcDbCircle
 10
18.50230047747283
 20
-121.5995977354059
 30
0.0
 40
4.000000036821402
100
AcDbArc
 50
90.0
 51
147.7835083007812
  0
ARC
  5
120
330
1F
100
AcDbEntity
  8
090
  6
Continuous
 62
     2
370
     9
100
AcDbCircle
 10
9.989254860881033
 20
-117.5646485689717
 30
0.0
 40
11.52495470102229
100
AcDbArc
 50
286.7679138183594
 51
359.8263702392579
  0
ARC
  5
121
330
1F
100
AcDbEntity
  8
090
  6
Continuous
 62
     2
370
     9
100
AcDbCircle
 10
12.51416380302624
 20
-127.3996049111608
 30
0.0
 40
1.200000049754919
100
AcDbArc
 50
180.0
 51
270.0
  0
ARC
  5
122
330
1F
100
AcDbEntity
  8
090
  6
Continuous
 62
     2
370
     9
100
AcDbCircle
 10
9.989254860881033
 20
-117.5646485689717
 30
0.0
 40
10.32495484480987
100
AcDbArc
 50
284.5909423828125
 51
359.8263702392578
  0
ARC
  5
123
330
1F
100
AcDbEntity
  8
090
  6
Continuous
 62
     2
370
     9
100
AcDbCircle
 10
12.71413500574414
 20
-127.3996049111608
 30
0.0
 40
0.2000000042603513
100
AcDbArc
 50
180.0
 51
231.7342834472656
  0
ARC
  5
124
330
1F
100
AcDbEntity
  8
021
  6
Continuous
 62
     6
370
     9
100
AcDbCircle
 10
-38.98580338174003
 20
-80.63906918862702
 30
0.0
 40
1.00000000920535
100
AcDbArc
 50
0.0
 51
125.000732421875
  0
ARC
  5
125
330
1F
100
AcDbEntity
  8
021
  6
Continuous
 62
     6
370
     9
100
AcDbCircle
 10
-50.4858073584515
 20
-84.41875283563552
 30
0.0
 40
2.500000023013376
100
AcDbArc
 50
199.8594055175781
 51
305.0001373291016
  0
LINE
  5
126
330
1F
100
AcDbEntity
  8
061
  6
Continuous
 62
     2
370
     9
100
AcDbLine
 10
-54.48575165503439
 20
-102.5995410304465
 30
0.0
 11
-54.48575165503439
 21
-108.5995491606121
 31
0.0
  0
LINE
  5
127
330
1F
100
AcDbEntity
  8
061
  6
Continuous
 62
     2
370
     9
100
AcDbLine
 10
-42.48577038976379
 20
-102.5995410304465
 30
0.0
 11
-54.48575165503439
 21
-102.5995410304465
 31
0.0
  0
LINE
  5
128
330
1F
100
AcDbEntity
  8
061
  6
Continuous
 62
     2
370
     9
100
AcDbLine
 10
-42.48577038976379
 20
-107.7296419434759
 30
0.0
 11
-54.48575165503439
 21
-107.7296419434759
 31
0.0
  0
LINE
  5
129
330
1F
100
AcDbEntity
  8
061
  6
Continuous
 62
     2
370
     9
100
AcDbLine
 10
-42.48577038976379
 20
-108.5995491606121
 30
0.0
 11
-54.48575165503439
 21
-108.5995491606121
 31
0.0
  0
ARC
  5
12A
330
1F
100
AcDbEntity
  8
061
  6
Continuous
 62
     2
370
     9
100
AcDbCircle
 10
-40.68575165503432
 20
-102.6995450955293
 30
0.0
 40
2.0
100
AcDbArc
 50
0.0
 51
90.0
  0
ARC
  5
12B
330
1F
100
AcDbEntity
  8
061
  6
Continuous
 62
     2
370
     9
100
AcDbCircle
 10
-40.68575165503432
 20
-108.4995450955294
 30
0.0
 40
2.0
100
AcDbArc
 50
270.0
 51
0.0
  0
LINE
  5
12C
330
1F
100
AcDbEntity
  8
061
  6
Continuous
 62
     2
370
     9
100
AcDbLine
 10
-40.18575165503427
 20
-106.2495450955294
 30
0.0
 11
-40.18575165503427
 21
-104.9495450955293
 31
0.0
  0
LINE
  5
12D
330
1F
100
AcDbEntity
  8
061
  6
Continuous
 62
     2
370
     9
100
AcDbLine
 10
-40.18575165503427
 20
-104.9495450955293
 30
0.0
 11
-38.68575165503427
 21
-104.9495450955293
 31
0.0
  0
LINE
  5
12E
330
1F
100
AcDbEntity
  8
061
  6
Continuous
 62
     2
370
     9
100
AcDbLine
 10
-38.68575165503427
 20
-104.9495450955293
 30
0.0
 11
-38.68575165503427
 21
-102.6995450955293
 31
0.0
  0
LINE
  5
12F
330
1F
100
AcDbEntity
  8
061
  6
Continuous
 62
     2
370
     9
100
AcDbLine
 10
-40.18575165503427
 20
-106.2495450955294
 30
0.0
 11
-38.68575165503427
 21
-106.2495450955294
 31
0.0
  0
LINE
  5
130
330
1F
100
AcDbEntity
  8
061
  6
Continuous
 62
     2
370
     9
100
AcDbLine
 10
-38.68575165503427
 20
-108.4995450955294
 30
0.0
 11
-38.68575165503427
 21
-106.2495450955294
 31
0.0
  0
LINE
  5
131
330
1F
100
AcDbEntity
  8
061
  6
Continuous
 62
     2
370
     9
100
AcDbLine
 10
-40.68575165503432
 20
-100.6995450955293
 30
0.0
 11
-42.48577038976379
 21
-100.6995450955293
 31
0.0
  0
LINE
  5
132
330
1F
100
AcDbEntity
  8
061
  6
Continuous
 62
     2
370
     9
100
AcDbLine
 10
-42.48577038976379
 20
-100.6995450955293
 30
0.0
 11
-42.48577038976379
 21
-110.4995450955293
 31
0.0
  0
LINE
  5
133
330
1F
100
AcDbEntity
  8
061
  6
Continuous
 62
     2
370
     9
100
AcDbLine
 10
-40.68575165503432
 20
-110.4995450955293
 30
0.0
 11
-42.48577038976379
 21
-110.4995450955293
 31
0.0
  0
LINE
  5
134
330
1F
100
AcDbEntity
  8
通り芯
  6
Continuous
 62
     3
370
     9
100
AcDbLine
 10
-54.48575165503439
 20
-107.959664064596
 30
0.0
 11
-55.48578108269891
 21
-107.959664064596
 31
0.0
  0
LINE
  5
135
330
1F
100
AcDbEntity
  8
通り芯
  6
Continuous
 62
     3
370
     9
100
AcDbLine
 10
-54.48575165503439
 20
-103.2394261264626
 30
0.0
 11
-55.48578108269891
 21
-103.2394261264626
 31
0.0
  0
LINE
  5
136
330
1F
100
AcDbEntity
  8
通り芯
  6
JWW_CENTER1
 62
     3
370
     9
100
AcDbLine
 10
-57.45521996694805
 20
-105.5995975881203
 30
0.0
 11
-37.77637946126185
 21
-105.5995975881203
 31
0.0
  0
LINE
  5
137
330
1F
100
AcDbEntity
  8
通り芯
  6
Continuous
 62
     3
370
     9
100
AcDbLine
 10
-58.82791624328496
 20
-115.429648789311
 30
0.0
 11
-54.48580120191303
 21
-115.3412313752342
 31
0.0
  0
LINE
  5
138
330
1F
100
AcDbEntity
  8
躯体
  6
Continuous
 62
     2
370
     9
100
AcDbLine
 10
-35.48583048229222
 20
-136.5995436815875
 30
0.0
 11
-26.73595078517729
 21
-171.5995083919557
 31
0.0
  0
LINE
  5
139
330
1F
100
AcDbEntity
  8
寸法
  6
Continuous
 62
     6
370
     9
100
AcDbLine
 10
-39.48583048229216
 20
-156.599562445774
 30
0.0
 11
-38.68586519456443
 21
-156.599562445774
 31
0.0
  0
LINE
  5
13A
330
1F
100
AcDbEntity
  8
021
  6
Continuous
 62
     6
370
     9
100
AcDbLine
 10
-39.48580570885275
 20
-85.65308945300586
 30
0.0
 11
-37.98584827439373
 21
-84.1531320185468
 31
0.0
  0
LINE
  5
13B
330
1F
100
AcDbEntity
  8
021
  6
Continuous
 62
     6
370
     9
100
AcDbLine
 10
-39.48580570885275
 20
-88.48152257449931
 30
0.0
 11
-37.98584827439373
 21
-86.98156514004026
 31
0.0
  0
LINE
  5
13C
330
1F
100
AcDbEntity
  8
021
  6
Continuous
 62
     6
370
     9
100
AcDbLine
 10
-39.48580570885275
 20
-91.30995569599273
 30
0.0
 11
-37.98584827439373
 21
-89.80999826153365
 31
0.0
  0
LINE
  5
13D
330
1F
100
AcDbEntity
  8
021
  6
Continuous
 62
     6
370
     9
100
AcDbLine
 10
-39.48580570885275
 20
-99.79525506047293
 30
0.0
 11
-38.68586519456443
 21
-98.99531454618457
 31
0.0
  0
LINE
  5
13E
330
1F
100
AcDbEntity
  8
021
  6
Continuous
 62
     6
370
     9
100
AcDbLine
 10
-39.48580570885275
 20
-111.1089379995679
 30
0.0
 11
-38.68586519456443
 21
-110.3089974852796
 31
0.0
  0
LINE
  5
13F
330
1F
100
AcDbEntity
  8
021
  6
Continuous
 62
     6
370
     9
100
AcDbLine
 10
-39.48580570885275
 20
-113.9373711210613
 30
0.0
 11
-38.68586519456443
 21
-113.1374306067729
 31
0.0
  0
LINE
  5
140
330
1F
100
AcDbEntity
  8
021
  6
Continuous
 62
     6
370
     9
100
AcDbLine
 10
-39.48580570885275
 20
-116.7658042425547
 30
0.0
 11
-38.68586519456443
 21
-115.9658637282664
 31
0.0
  0
LINE
  5
141
330
1F
100
AcDbEntity
  8
021
  6
Continuous
 62
     6
370
     9
100
AcDbLine
 10
-39.48580570885275
 20
-119.5942125906087
 30
0.0
 11
-38.68586519456443
 21
-118.7942720763204
 31
0.0
  0
LINE
  5
142
330
1F
100
AcDbEntity
  8
021
  6
Continuous
 62
     6
370
     9
100
AcDbLine
 10
-39.48580570885275
 20
-122.4226209386628
 30
0.0
 11
-38.68586519456443
 21
-121.6226804243745
 31
0.0
  0
LINE
  5
143
330
1F
100
AcDbEntity
  8
021
  6
Continuous
 62
     6
370
     9
100
AcDbLine
 10
-39.48580570885275
 20
-84.59952462282972
 30
0.0
 11
-39.48580570885275
 21
-101.0995045565922
 31
0.0
  0
LINE
  5
144
330
1F
100
AcDbEntity
  8
021
  6
Continuous
 62
     6
370
     9
100
AcDbLine
 10
-39.48580570885275
 20
-125.2510292867169
 30
0.0
 11
-38.68586519456443
 21
-124.4510887724286
 31
0.0
  0
LINE
  5
145
330
1F
100
AcDbEntity
  8
021
  6
Continuous
 62
     6
370
     9
100
AcDbLine
 10
-39.48580570885275
 20
-128.0794376347709
 30
0.0
 11
-38.68586519456443
 21
-127.2794971204826
 31
0.0
  0
LINE
  5
146
330
1F
100
AcDbEntity
  8
021
  6
Continuous
 62
     6
370
     9
100
AcDbLine
 10
-39.48580570885275
 20
-130.907845982825
 30
0.0
 11
-38.68586519456443
 21
-130.1079054685366
 31
0.0
  0
LINE
  5
147
330
1F
100
AcDbEntity
  8
021
  6
Continuous
 62
     6
370
     9
100
AcDbLine
 10
-39.48580570885275
 20
-133.736254330879
 30
0.0
 11
-38.68586519456443
 21
-132.9363138165907
 31
0.0
  0
LINE
  5
148
330
1F
100
AcDbEntity
  8
021
  6
Continuous
 62
     6
370
     9
100
AcDbLine
 10
-39.48580570885275
 20
-136.564662678933
 30
0.0
 11
-38.68586519456443
 21
-135.7647221646447
 31
0.0
  0
LINE
  5
149
330
1F
100
AcDbEntity
  8
021
  6
Continuous
 62
     6
370
     9
100
AcDbLine
 10
-39.48580570885275
 20
-139.3930710269871
 30
0.0
 11
-38.68586519456443
 21
-138.5931305126987
 31
0.0
  0
LINE
  5
14A
330
1F
100
AcDbEntity
  8
021
  6
Continuous
 62
     6
370
     9
100
AcDbLine
 10
-39.48580570885275
 20
-142.2214793750411
 30
0.0
 11
-38.68586519456443
 21
-141.4215388607528
 31
0.0
  0
LINE
  5
14B
330
1F
100
AcDbEntity
  8
021
  6
Continuous
 62
     6
370
     9
100
AcDbLine
 10
-39.48580570885275
 20
-145.0498877230951
 30
0.0
 11
-38.68586519456443
 21
-144.2499472088068
 31
0.0
  0
LINE
  5
14C
330
1F
100
AcDbEntity
  8
021
  6
Continuous
 62
     6
370
     9
100
AcDbLine
 10
-39.48580570885275
 20
-147.8782960711492
 30
0.0
 11
-38.68586519456443
 21
-147.0783555568609
 31
0.0
  0
LINE
  5
14D
330
1F
100
AcDbEntity
  8
021
  6
Continuous
 62
     6
370
     9
100
AcDbLine
 10
-39.48580570885275
 20
-150.7067044192032
 30
0.0
 11
-38.68586519456443
 21
-149.9067639049149
 31
0.0
  0
LINE
  5
14E
330
1F
100
AcDbEntity
  8
021
  6
Continuous
 62
     6
370
     9
100
AcDbLine
 10
-39.48580570885275
 20
-153.5351127672573
 30
0.0
 11
-38.68586519456443
 21
-152.7351722529689
 31
0.0
  0
LINE
  5
14F
330
1F
100
AcDbEntity
  8
021
  6
Continuous
 62
     6
370
     9
100
AcDbLine
 10
-39.48580570885275
 20
-156.3635211153113
 30
0.0
 11
-38.68586519456443
 21
-155.563580601023
 31
0.0
  0
LINE
  5
150
330
1F
100
AcDbEntity
  8
躯体
  6
Continuous
 62
     2
370
     9
100
AcDbLine
 10
3.514072368120424
 20
-136.5995436815875
 30
0.0
 11
-35.48583048229222
 21
-136.5995436815875
 31
0.0
  0
LINE
  5
151
330
1F
100
AcDbEntity
  8
通り芯
  6
Continuous
 62
     3
370
     9
100
AcDbLine
 10
-46.48578874155072
 20
-110.5995960858071
 30
0.0
 11
-46.48578874155072
 21
-107.7296419434759
 31
0.0
  0
LINE
  5
152
330
1F
100
AcDbEntity
  8
通り芯
  6
Continuous
 62
     3
370
     9
100
AcDbLine
 10
-46.48578874155072
 20
-103.4696232228859
 30
0.0
 11
-46.48578874155072
 21
-92.94185646861769
 31
0.0
  0
LINE
  5
153
330
1F
100
AcDbEntity
  8
通り芯
  6
Continuous
 62
     3
370
     9
100
AcDbLine
 10
34.4047654282042
 20
-182.5995595884332
 30
0.0
 11
21.51410659729578
 21
-182.5995595884332
 31
0.0
  0
ARC
  5
154
330
1F
100
AcDbEntity
  8
通り芯
  6
Continuous
 62
     3
370
     9
100
AcDbCircle
 10
16.60614142692532
 20
-189.5995426211311
 30
0.0
 40
3.000000027616052
100
AcDbArc
 50
90.1712188720703
 51
130.0000305175781
  0
LINE
  5
155
330
1F
100
AcDbEntity
  8
通り芯
  6
Continuous
 62
     3
370
     9
100
AcDbLine
 10
7.17211842774725
 20
-193.599524077873
 30
0.0
 11
15.51412821882326
 21
-186.5995534318948
 31
0.0
  0
ARC
  5
156
330
1F
100
AcDbEntity
  8
通り芯
  6
Continuous
 62
     3
370
     9
100
AcDbCircle
 10
6.047800654686853
 20
-190.6266494180438
 30
0.0
 40
3.000000027616052
100
AcDbArc
 50
271.4271392822266
 51
310.0000305175781
  0
LINE
  5
157
330
1F
100
AcDbEntity
  8
通り芯
  6
Continuous
 62
     3
370
     9
100
AcDbLine
 10
-24.4858102157923
 20
-193.599561238032
 30
0.0
 11
6.122517766865542
 21
-193.599561238032
 31
0.0
  0
LINE
  5
158
330
1F
100
AcDbEntity
  8
通り芯
  6
Continuous
 62
     3
370
     9
100
AcDbLine
 10
7.172120445634675
 20
-193.5995808300883
 30
0.0
 11
-57.20701487774721
 21
-195.8886518106691
 31
0.0
  0
ARC
  5
159
330
1F
100
AcDbEntity
  8
通り芯
  6
Continuous
 62
     3
370
     9
100
AcDbCircle
 10
25.99804957914841
 20
-176.5995812099605
 30
0.0
 40
10.0000000920535
100
AcDbArc
 50
270.1352717606857
 51
310.0000610351562
  0
LINE
  5
15A
330
1F
100
AcDbEntity
  8
通り芯
  6
Continuous
 62
     3
370
     9
100
AcDbLine
 10
26.02165893352179
 20
-186.5995534318948
 30
0.0
 11
-24.48580120191303
 21
-186.5995534318948
 31
0.0
  0
LINE
  5
15B
330
1F
100
AcDbEntity
  8
041
  6
Continuous
 62
     2
370
     9
100
AcDbLine
 10
0.764204925168201
 20
-181.2995435343019
 30
0.0
 11
-0.2358478619938182
 21
-184.2995534318948
 31
0.0
  0
LINE
  5
15C
330
1F
100
AcDbEntity
  8
041
  6
Continuous
 62
     2
370
     9
100
AcDbLine
 10
0.764204925168201
 20
-184.2995534318948
 30
0.0
 11
0.764204925168201
 21
-178.299533636709
 31
0.0
  0
LINE
  5
15D
330
1F
100
AcDbEntity
  8
041
  6
Continuous
 62
     2
370
     9
100
AcDbLine
 10
5.821083092398055
 20
-178.299533636709
 30
0.0
 11
5.821083092398055
 21
-184.2995534318948
 31
0.0
  0
LINE
  5
15E
330
1F
100
AcDbEntity
  8
041
  6
Continuous
 62
     2
370
     9
100
AcDbLine
 10
0.764204925168201
 20
-178.299533636709
 30
0.0
 11
14.26415048840727
 21
-178.299533636709
 31
0.0
  0
LINE
  5
15F
330
1F
100
AcDbEntity
  8
041
  6
Continuous
 62
     2
370
     9
100
AcDbLine
 10
9.207346553124296
 20
-178.299533636709
 30
0.0
 11
9.207346553124296
 21
-184.2995534318948
 31
0.0
  0
LINE
  5
160
330
1F
100
AcDbEntity
  8
041
  6
Continuous
 62
     2
370
     9
100
AcDbLine
 10
14.26415048840727
 20
-184.2995534318948
 30
0.0
 11
14.26415048840727
 21
-178.299533636709
 31
0.0
  0
LINE
  5
161
330
1F
100
AcDbEntity
  8
041
  6
Continuous
 62
     2
370
     9
100
AcDbLine
 10
14.26415048840727
 20
-181.2995435343019
 30
0.0
 11
15.26412904362257
 21
-184.2995534318948
 31
0.0
  0
LINE
  5
162
330
1F
100
AcDbEntity
  8
087
  6
Continuous
 62
     6
370
     9
100
AcDbLine
 10
18.51419879808691
 20
-184.2995534318948
 30
0.0
 11
18.51419879808691
 21
-186.5995534318948
 31
0.0
  0
LINE
  5
163
330
1F
100
AcDbEntity
  8
087
  6
Continuous
 62
     6
370
     9
100
AcDbLine
 10
-24.48580120191303
 20
-186.5995534318948
 30
0.0
 11
18.51419879808691
 21
-186.5995534318948
 31
0.0
  0
LINE
  5
164
330
1F
100
AcDbEntity
  8
087
  6
Continuous
 62
     6
370
     9
100
AcDbLine
 10
18.51419879808691
 20
-184.2995534318948
 30
0.0
 11
-24.50849651395475
 21
-184.2995534318948
 31
0.0
  0
LINE
  5
165
330
1F
100
AcDbEntity
  8
087
  6
Continuous
 62
     6
370
     9
100
AcDbLine
 10
-52.18580120191308
 20
-126.5995632116593
 30
0.0
 11
-54.48580120191303
 21
-126.5995632116593
 31
0.0
  0
LINE
  5
166
330
1F
100
AcDbEntity
  8
087
  6
Continuous
 62
     6
370
     9
100
AcDbLine
 10
-52.18580120191308
 20
-148.5995632116593
 30
0.0
 11
-54.48580120191303
 21
-148.5995632116593
 31
0.0
  0
LINE
  5
167
330
1F
100
AcDbEntity
  8
087
  6
Continuous
 62
     6
370
     9
100
AcDbLine
 10
-51.8954802096506
 20
-160.5995632116593
 30
0.0
 11
-54.21793738083232
 21
-160.5995632116593
 31
0.0
  0
LINE
  5
168
330
1F
100
AcDbEntity
  8
051
  6
Continuous
 62
     2
370
     9
100
AcDbLine
 10
-44.26637490158811
 20
-150.687609218496
 30
0.0
 11
-44.10348953763008
 21
-158.6859370849803
 31
0.0
  0
LINE
  5
169
330
1F
100
AcDbEntity
  8
051
  6
Continuous
 62
     2
370
     9
100
AcDbLine
 10
-44.10348953763008
 20
-158.6859370849803
 30
0.0
 11
-43.44087435439263
 21
-157.9958233840253
 31
0.0
  0
LINE
  5
16A
330
1F
100
AcDbEntity
  8
051
  6
Continuous
 62
     2
370
     9
100
AcDbLine
 10
-43.44087435439263
 20
-157.9958233840253
 30
0.0
 11
-43.57623642719369
 21
-151.3501996282941
 31
0.0
  0
LINE
  5
16B
330
1F
100
AcDbEntity
  8
051
  6
Continuous
 62
     2
370
     9
100
AcDbLine
 10
-43.57623642719369
 20
-151.3501996282941
 30
0.0
 11
-44.26637490158811
 21
-150.687609218496
 31
0.0
  0
LINE
  5
16C
330
1F
100
AcDbEntity
  8
051
  6
Continuous
 62
     2
370
     9
100
AcDbLine
 10
-43.57623642719369
 20
-151.3501996282941
 30
0.0
 11
-146.9857857958384
 21
-153.4561350424971
 31
0.0
  0
LINE
  5
16D
330
1F
100
AcDbEntity
  8
051
  6
Continuous
 62
     2
370
     9
100
AcDbLine
 10
-44.26632535470929
 20
-150.6876587653748
 30
0.0
 11
-146.9857857958384
 21
-152.7795476394463
 31
0.0
  0
LINE
  5
16E
330
1F
100
AcDbEntity
  8
051
  6
Continuous
 62
     2
370
     9
100
AcDbLine
 10
-43.44087435439263
 20
-157.9958233840253
 30
0.0
 11
-146.9857610223991
 21
-160.10450865
 31
0.0
  0
LINE
  5
16F
330
1F
100
AcDbEntity
  8
051
  6
Continuous
 62
     2
370
     9
100
AcDbLine
 10
-44.1035390845089
 20
-158.6859866318591
 30
0.0
 11
-146.9857610223991
 21
-160.7811703733689
 31
0.0
  0
LINE
  5
170
330
1F
100
AcDbEntity
  8
062
  6
Continuous
 62
     2
370
     9
100
AcDbLine
 10
-41.15485384832454
 20
-143.6345018250364
 30
0.0
 11
-41.21626720456067
 21
-140.6230920802435
 31
0.0
  0
LINE
  5
171
330
1F
100
AcDbEntity
  8
062
  6
Continuous
 62
     2
370
     9
100
AcDbLine
 10
-42.9530339461034
 20
-147.0560110854129
 30
0.0
 11
-47.0317082330526
 21
-149.7436815243193
 31
0.0
  0
LINE
  5
172
330
1F
100
AcDbEntity
  8
062
  6
Continuous
 62
     2
370
     9
100
AcDbLine
 10
-40.70742075958748
 20
-165.6061643095773
 30
0.0
 11
-40.64595785647253
 21
-168.617425413734
 31
0.0
  0
LINE
  5
173
330
1F
100
AcDbEntity
  8
062
  6
Continuous
 62
     2
370
     9
100
AcDbLine
 10
-42.64348982098448
 20
-162.2609572425075
 30
0.0
 11
-46.82807056130576
 21
-159.7415480039057
 31
0.0
  0
LINE
  5
174
330
1F
100
AcDbEntity
  8
062
  6
Continuous
 62
     2
370
     9
100
AcDbLine
 10
-46.03195131322121
 20
-149.7231691165083
 30
0.0
 11
-50.8309381237359
 21
-149.8210242020801
 31
0.0
  0
LINE
  5
175
330
1F
100
AcDbEntity
  8
062
  6
Continuous
 62
     2
370
     9
100
AcDbLine
 10
-46.00747515510852
 20
-150.9230954265726
 30
0.0
 11
-50.80656105938084
 21
-151.0207523246292
 31
0.0
  0
LINE
  5
176
330
1F
100
AcDbEntity
  8
062
  6
Continuous
 62
     2
370
     9
100
AcDbLine
 10
-45.85274025270809
 20
-158.5214561141819
 30
0.0
 11
-50.65170228978371
 21
-158.6191625591173
 31
0.0
  0
LINE
  5
177
330
1F
100
AcDbEntity
  8
062
  6
Continuous
 62
     2
370
     9
100
AcDbLine
 10
-45.82833841491362
 20
-159.7210355960948
 30
0.0
 11
-50.62730045198924
 21
-159.8188906816665
 31
0.0
  0
LINE
  5
178
330
1F
100
AcDbEntity
  8
062
  6
Continuous
 62
     2
370
     9
100
AcDbLine
 10
-51.81077719830165
 20
-160.6431525568928
 30
0.0
 11
-51.86161229592022
 21
-158.1437602573143
 31
0.0
  0
LINE
  5
179
330
1F
100
AcDbEntity
  8
062
  6
Continuous
 62
     2
370
     9
100
AcDbLine
 10
-51.99605775146392
 20
-151.5451564895364
 30
0.0
 11
-52.04709103659758
 21
-149.0456155493216
 31
0.0
  0
LINE
  5
17A
330
1F
100
AcDbEntity
  8
062
  6
Continuous
 62
     2
370
     9
100
AcDbLine
 10
-45.82833841491362
 20
-159.7210355960948
 30
0.0
 11
-45.86282304253785
 21
-158.0215776542662
 31
0.0
  0
LINE
  5
17B
330
1F
100
AcDbEntity
  8
062
  6
Continuous
 62
     2
370
     9
100
AcDbLine
 10
-45.99736759183935
 20
-151.4231225271245
 30
0.0
 11
-46.03195131322121
 21
-149.7231691165083
 31
0.0
  0
ARC
  5
17C
330
1F
100
AcDbEntity
  8
062
  6
Continuous
 62
     2
370
     9
100
AcDbCircle
 10
-45.15417880892278
 20
-143.7157091593413
 30
0.0
 40
3.999999649736412
100
AcDbArc
 50
303.3834838867188
 51
1.166992187500014
  0
ARC
  5
17D
330
1F
100
AcDbEntity
  8
062
  6
Continuous
 62
     2
370
     9
100
AcDbCircle
 10
-40.94663309029141
 20
-152.1450700976897
 30
0.0
 40
11.52495392685231
100
AcDbArc
 50
91.34062194824219
 51
164.3990783691407
  0
ARC
  5
17E
330
1F
100
AcDbEntity
  8
062
  6
Continuous
 62
     2
370
     9
100
AcDbCircle
 10
-50.8309381237359
 20
-149.8210242020801
 30
0.0
 40
1.200000049754919
100
AcDbArc
 50
181.1669921875
 51
271.1669921875
  0
ARC
  5
17F
330
1F
100
AcDbEntity
  8
062
  6
Continuous
 62
     2
370
     9
100
AcDbCircle
 10
-40.94663309029141
 20
-152.1450700976897
 30
0.0
 40
10.32495407063989
100
AcDbArc
 50
91.34062194824219
 51
166.5760498046875
  0
ARC
  5
180
330
1F
100
AcDbEntity
  8
062
  6
Continuous
 62
     2
370
     9
100
AcDbCircle
 10
-50.83500096779517
 20
-149.620904358726
 30
0.0
 40
0.1999999921639453
100
AcDbArc
 50
219.4327087402344
 51
271.1669921875
  0
ARC
  5
181
330
1F
100
AcDbEntity
  8
062
  6
Continuous
 62
     2
370
     9
100
AcDbCircle
 10
-44.70647321235242
 20
-165.6876689251548
 30
0.0
 40
3.999999649736412
100
AcDbArc
 50
1.1669921875
 51
58.95050048828125
  0
ARC
  5
182
330
1F
100
AcDbEntity
  8
062
  6
Continuous
 62
     2
370
     9
100
AcDbCircle
 10
-40.84582996543298
 20
-157.0942582711973
 30
0.0
 40
11.52495392685231
100
AcDbArc
 50
197.9349060058593
 51
270.9933624267578
  0
ARC
  5
183
330
1F
100
AcDbEntity
  8
062
  6
Continuous
 62
     2
370
     9
100
AcDbCircle
 10
-50.62730045198924
 20
-159.8188906816665
 30
0.0
 40
1.200000049754919
100
AcDbArc
 50
91.1669921875
 51
181.1669921875
  0
ARC
  5
184
330
1F
100
AcDbEntity
  8
062
  6
Continuous
 62
     2
370
     9
100
AcDbCircle
 10
-40.84582996543298
 20
-157.0942582711973
 30
0.0
 40
10.32495407063989
100
AcDbArc
 50
195.7579345703125
 51
270.9933624267578
  0
ARC
  5
185
330
1F
100
AcDbEntity
  8
062
  6
Continuous
 62
     2
370
     9
100
AcDbCircle
 10
-50.62323760792998
 20
-160.0188618843843
 30
0.0
 40
0.1999999921639453
100
AcDbArc
 50
91.1669921875
 51
142.9012756347656
  0
LINE
  5
186
330
1F
100
AcDbEntity
  8
通り芯
  6
JWW_CENTER1
 62
     3
370
     9
100
AcDbLine
 10
-157.4769162270247
 20
-156.9939803742267
 30
0.0
 11
-42.67582757201802
 21
-154.6560138991021
 31
0.0
  0
LINE
  5
187
330
1F
100
AcDbEntity
  8
通り芯
  6
Continuous
 62
     3
370
     9
100
AcDbLine
 10
-69.11030099722257
 20
-151.1936080374123
 30
0.0
 11
-69.50090849299852
 21
-132.0189842861325
 31
0.0
  0
LINE
  5
188
330
1F
100
AcDbEntity
  8
通り芯
  6
Continuous
 62
     3
370
     9
100
AcDbLine
 10
-61.11194409233315
 20
-151.0307209491397
 30
0.0
 11
-61.91486020476367
 21
-111.6156043818752
 31
0.0
  0
LINE
  5
189
330
1F
100
AcDbEntity
  8
通り芯
  6
Continuous
 62
     3
370
     9
100
AcDbLine
 10
-59.61226036440144
 20
-151.0001797869138
 30
0.0
 11
-60.35021932006958
 21
-114.7735985675106
 31
0.0
  0
LINE
  5
18A
330
1F
100
AcDbEntity
  8
通り芯
  6
Continuous
 62
     3
370
     9
100
AcDbLine
 10
-60.11744808360572
 20
-199.8494788464625
 30
0.0
 11
-60.9489978491593
 21
-159.0290423188103
 31
0.0
  0
LINE
  5
18B
330
1F
100
AcDbEntity
  8
通り芯
  6
Continuous
 62
     3
370
     9
100
AcDbLine
 10
-58.68306594319955
 20
-196.6138199283542
 30
0.0
 11
-59.44936202970354
 21
-158.9985024205857
 31
0.0
  0
LINE
  5
18C
330
1F
100
AcDbEntity
  8
通り芯
  6
Continuous
 62
     3
370
     9
100
AcDbLine
 10
-68.1158007235295
 20
-200.0123394369812
 30
0.0
 11
-68.94733490682955
 21
-159.1919274650163
 31
0.0
  0
LINE
  5
18D
330
1F
100
AcDbEntity
  8
通り芯
  6
Continuous
 62
     3
370
     9
100
AcDbLine
 10
-54.48580120191303
 20
-126.5995632116593
 30
0.0
 11
-54.48580120191303
 21
-115.3412313752342
 31
0.0
  0
ARC
  5
18E
330
1F
100
AcDbEntity
  8
通り芯
  6
Continuous
 62
     3
370
     9
100
AcDbCircle
 10
-24.4858102157923
 20
-163.5995207050325
 30
0.0
 40
29.99999717948059
100
AcDbArc
 50
180.0368163040694
 51
270.0
  0
ARC
  5
18F
330
1F
100
AcDbEntity
  8
087
  6
Continuous
 62
     6
370
     9
100
AcDbCircle
 10
-24.4858102157923
 20
-156.5995624457741
 30
0.0
 40
27.70000027616052
100
AcDbArc
 50
184.6573707384871
 51
270.0
  0
LINE
  5
190
330
1F
100
AcDbEntity
  8
087
  6
Continuous
 62
     6
370
     9
100
AcDbLine
 10
-52.18580120191308
 20
-150.8489394354844
 30
0.0
 11
-52.18580120191308
 21
-126.5995632116593
 31
0.0
  0
LINE
  5
191
330
1F
100
AcDbEntity
  8
087
  6
Continuous
 62
     6
370
     9
100
AcDbLine
 10
-54.48580120191303
 20
-150.8957790936145
 30
0.0
 11
-54.48580120191303
 21
-126.5995632116593
 31
0.0
  0
LINE
  5
192
330
1F
100
AcDbEntity
  8
その他
  6
Continuous
 62
     2
370
     9
100
AcDbLine
 10
3.514072368120424
 20
-105.2995085392412
 30
0.0
 11
11.51410960192231
 21
-105.2995085392412
 31
0.0
  0
LINE
  5
193
330
1F
100
AcDbEntity
  8
その他
  6
Continuous
 62
     2
370
     9
100
AcDbLine
 10
4.514126569224345
 20
-104.2995534318948
 30
0.0
 11
3.514072368120424
 21
-105.2995085392412
 31
0.0
  0
LINE
  5
194
330
1F
100
AcDbEntity
  8
その他
  6
Continuous
 62
     2
370
     9
100
AcDbLine
 10
4.514126569224345
 20
-104.2995534318948
 30
0.0
 11
10.51405540081822
 21
-104.2995534318948
 31
0.0
  0
LINE
  5
195
330
1F
100
AcDbEntity
  8
その他
  6
Continuous
 62
     2
370
     9
100
AcDbLine
 10
10.51405540081822
 20
-104.2995534318948
 30
0.0
 11
11.51410960192231
 21
-105.2995085392412
 31
0.0
  0
LINE
  5
196
330
1F
100
AcDbEntity
  8
その他
  6
Continuous
 62
     2
370
     9
100
AcDbLine
 10
4.514126569224345
 20
-104.2995534318948
 30
0.0
 11
4.514126569224345
 21
-178.299533636709
 31
0.0
  0
LINE
  5
197
330
1F
100
AcDbEntity
  8
その他
  6
Continuous
 62
     2
370
     9
100
AcDbLine
 10
3.514072368120424
 20
-105.2995085392412
 30
0.0
 11
3.514072368120424
 21
-178.299533636709
 31
0.0
  0
LINE
  5
198
330
1F
100
AcDbEntity
  8
その他
  6
Continuous
 62
     2
370
     9
100
AcDbLine
 10
10.51405540081822
 20
-104.2995534318948
 30
0.0
 11
10.51405540081822
 21
-178.299533636709
 31
0.0
  0
LINE
  5
199
330
1F
100
AcDbEntity
  8
その他
  6
Continuous
 62
     2
370
     9
100
AcDbLine
 10
11.51410960192231
 20
-105.2995085392412
 30
0.0
 11
11.51410960192231
 21
-178.299533636709
 31
0.0
  0
LINE
  5
19A
330
1F
100
AcDbEntity
  8
087
  6
JWW_CENTER1
 62
     6
370
     9
100
AcDbLine
 10
7.514190078778824
 20
-102.7201800649889
 30
0.0
 11
7.514190078778824
 21
-185.2533801033395
 31
0.0
  0
LINE
  5
19B
330
1F
100
AcDbEntity
  8
ハッチ
  6
Continuous
 62
     4
370
     9
100
AcDbLine
 10
29.51417476107565
 20
-178.2077395629597
 30
0.0
 11
29.51417476107565
 21
-181.4077247283532
 31
0.0
  0
LINE
  5
19C
330
1F
100
AcDbEntity
  8
ハッチ
  6
Continuous
 62
     4
370
     9
100
AcDbLine
 10
-35.48583048229222
 20
-93.20774032884492
 30
0.0
 11
-35.48583048229222
 21
-178.2077395629597
 31
0.0
  0
LINE
  5
19D
330
1F
100
AcDbEntity
  8
ハッチ
  6
Continuous
 62
     4
370
     9
100
AcDbLine
 10
3.714223141452237
 20
-25.31134841975009
 30
0.0
 11
0.94291757118134
 21
-23.71135583705333
 31
0.0
  0
LINE
  5
19E
330
1F
100
AcDbEntity
  8
ハッチ
  6
Continuous
 62
     4
370
     9
100
AcDbLine
 10
-35.48583048229222
 20
-93.20774032884492
 30
0.0
 11
3.714223141452237
 21
-25.31134841975009
 31
0.0
  0
LINE
  5
19F
330
1F
100
AcDbEntity
  8
ハッチ
  6
Continuous
 62
     4
370
     9
100
AcDbLine
 10
-10.48581322041872
 20
-178.2077395629597
 30
0.0
 11
-10.48581322041872
 21
-181.4077247283532
 31
0.0
  0
ARC
  5
1A0
330
1F
100
AcDbEntity
  8
ハッチ
  6
Continuous
 62
     4
370
     9
100
AcDbCircle
 10
-35.48583048229222
 20
-178.2077395629597
 30
0.0
 40
3.20000006816562
100
AcDbArc
 50
180.0
 51
270.0
  0
LINE
  5
1A1
330
1F
100
AcDbEntity
  8
ハッチ
  6
Continuous
 62
     4
370
     9
100
AcDbLine
 10
-38.28394079401079
 20
-91.65420353844021
 30
0.0
 11
0.94291757118134
 21
-23.71135583705333
 31
0.0
  0
LINE
  5
1A2
330
1F
100
AcDbEntity
  8
ハッチ
  6
Continuous
 62
     4
370
     9
100
AcDbLine
 10
-38.68586519456443
 20
-93.15420459829369
 30
0.0
 11
-38.68586519456443
 21
-178.2077395629597
 31
0.0
  0
ARC
  5
1A3
330
1F
100
AcDbEntity
  8
ハッチ
  6
Continuous
 62
     4
370
     9
100
AcDbCircle
 10
-35.68586519456443
 20
-93.15420459829369
 30
0.0
 40
3.0
100
AcDbArc
 50
149.9999766268836
 51
180.0
  0
LINE
  5
1A4
330
1F
100
AcDbEntity
  8
ハッチ
  6
Continuous
 62
     4
370
     9
100
AcDbLine
 10
3.514072368120424
 20
-178.2077395629597
 30
0.0
 11
-35.48583048229222
 21
-178.2077395629597
 31
0.0
  0
LINE
  5
1A5
330
1F
100
AcDbEntity
  8
ハッチ
  6
Continuous
 62
     4
370
     9
100
AcDbLine
 10
29.51417476107565
 20
-178.2077395629597
 30
0.0
 11
11.51410960192231
 21
-178.2077395629597
 31
0.0
  0
LINE
  5
1A6
330
1F
100
AcDbEntity
  8
仕上
  6
Continuous
 62
     6
370
     9
100
AcDbLine
 10
-11.23633072313345
 20
-171.5995083919557
 30
0.0
 11
-11.23627522896948
 21
-178.2077395629597
 31
0.0
  0
LINE
  5
1A7
330
1F
100
AcDbEntity
  8
仕上
  6
Continuous
 62
     6
370
     9
100
AcDbLine
 10
-11.23624835634712
 20
-181.4077247283532
 30
0.0
 11
-11.23622407154051
 21
-184.2995534318948
 31
0.0
  0
LINE
  5
1A8
330
1F
100
AcDbEntity
  8
通り芯
  6
Continuous
 62
     3
370
     9
100
AcDbLine
 10
-11.36217979521058
 20
-173.0996144670511
 30
0.0
 11
-11.36217979521058
 21
-178.2077395629597
 31
0.0
  0
LINE
  5
1A9
330
1F
100
AcDbEntity
  8
通り芯
  6
Continuous
 62
     3
370
     9
100
AcDbLine
 10
-11.36217979521058
 20
-181.4077247283532
 30
0.0
 11
-11.36217979521058
 21
-184.2995534318948
 31
0.0
  0
LINE
  5
1AA
330
1F
100
AcDbEntity
  8
仕上
  6
Continuous
 62
     6
370
     9
100
AcDbLine
 10
3.514072368120424
 20
-175.7242860496007
 30
0.0
 11
0.5339505963872284
 21
-178.2077395629597
 31
0.0
  0
LINE
  5
1AB
330
1F
100
AcDbEntity
  8
仕上
  6
Continuous
 62
     6
370
     9
100
AcDbLine
 10
-3.306002682107646
 20
-181.4077247283532
 30
0.0
 11
-6.776170991354888
 21
-184.2995534318948
 31
0.0
  0
LINE
  5
1AC
330
1F
100
AcDbEntity
  8
通り芯
  6
Continuous
 62
     3
370
     9
100
AcDbLine
 10
3.514072368120424
 20
-175.7951380862426
 30
0.0
 11
0.6388576097659779
 21
-178.2077395629597
 31
0.0
  0
LINE
  5
1AD
330
1F
100
AcDbEntity
  8
通り芯
  6
Continuous
 62
     3
370
     9
100
AcDbLine
 10
-3.251759855040689
 20
-181.4723685489024
 30
0.0
 11
-6.621053863447401
 21
-184.2995534318948
 31
0.0
  0
LINE
  5
1AE
330
1F
100
AcDbEntity
  8
ハッチ
  6
Continuous
 62
     4
370
     9
100
AcDbLine
 10
-35.48583048229222
 20
-181.4077247283532
 30
0.0
 11
0.7281427426012215
 21
-181.4077247283532
 31
0.0
  0
LINE
  5
1AF
330
1F
100
AcDbEntity
  8
ハッチ
  6
Continuous
 62
     4
370
     9
100
AcDbLine
 10
14.30020999414938
 20
-181.4077247283532
 30
0.0
 11
29.51417476107565
 21
-181.4077247283532
 31
0.0
  0
LINE
  5
1B0
330
1F
100
AcDbEntity
  8
通り芯
  6
Continuous
 62
     3
370
     9
100
AcDbLine
 10
21.51410659729578
 20
-182.5995595884332
 30
0.0
 11
18.51419879808691
 21
-185.116735251268
 31
0.0
  0
LINE
  5
1B1
330
1F
100
AcDbEntity
  8
仕上
  6
Continuous
 62
     6
370
     9
100
AcDbLine
 10
28.51413917687256
 20
-186.5995534318948
 30
0.0
 11
28.51413917687256
 21
-181.4077247283532
 31
0.0
  0
LINE
  5
1B2
330
1F
100
AcDbEntity
  8
仕上
  6
Continuous
 62
     6
370
     9
100
AcDbLine
 10
28.51413917687256
 20
-178.2077395629597
 30
0.0
 11
28.51413917687256
 21
-171.5995083919557
 31
0.0
  0
LINE
  5
1B3
330
1F
100
AcDbEntity
  8
021
  6
Continuous
 62
     6
370
     9
100
AcDbLine
 10
-37.98584827439373
 20
-91.1378926355197
 30
0.0
 11
-37.98584827439373
 21
-80.63906918862702
 31
0.0
  0
LINE
  5
1B4
330
1F
100
AcDbEntity
  8
021
  6
Continuous
 62
     6
370
     9
100
AcDbLine
 10
-39.48580570885275
 20
-94.13838881748606
 30
0.0
 11
-38.68586519456443
 21
-93.33844830319774
 31
0.0
  0
LINE
  5
1B5
330
1F
100
AcDbEntity
  8
021
  6
Continuous
 62
     6
370
     9
100
AcDbLine
 10
-39.48580570885275
 20
-96.96682193897948
 30
0.0
 11
-38.68586519456443
 21
-96.16688142469116
 31
0.0
  0
LINE
  5
1B6
330
1F
100
AcDbEntity
  8
087
  6
Continuous
 62
     4
370
     9
100
AcDbLine
 10
-7.535695978554543
 20
-44.79675690891865
 30
0.0
 11
-10.30699724808579
 21
-43.19676152779533
 31
0.0
  0
LINE
  5
1B7
330
1F
100
AcDbEntity
  8
087
  6
Continuous
 62
     4
370
     9
100
AcDbLine
 10
-20.0356013332958
 20
-66.4474466467194
 30
0.0
 11
-22.80690260282705
 21
-64.84745126559608
 31
0.0
  0
LINE
  5
1B8
330
1F
100
AcDbEntity
  8
087
  6
JWW_CENTER1
 62
     4
370
     9
100
AcDbLine
 10
-11.26446172180016
 20
-57.0776950378874
 30
0.0
 11
-17.95384037260527
 21
-53.21561946294156
 31
0.0
  0
LINE
  5
1B9
330
1F
100
AcDbEntity
  8
通り芯
  6
Continuous
 62
     3
370
     9
100
AcDbLine
 10
-54.48580120191303
 20
-163.6187976736264
 30
0.0
 11
-54.48580120191303
 21
-158.8974201174385
 31
0.0
  0
ARC
  5
1BA
330
1F
100
AcDbEntity
  8
087
  6
Continuous
 62
     6
370
     9
100
AcDbCircle
 10
-24.48580120191303
 20
-156.5995534318948
 30
0.0
 40
30.0
100
AcDbArc
 50
184.3894721415931
 51
270.0
  0
ARC
  5
1BB
330
1F
100
AcDbEntity
  8
通り芯
  6
Continuous
 62
     3
370
     9
100
AcDbCircle
 10
-24.48580120191303
 20
-156.5995534318948
 30
0.0
 40
30.0
100
AcDbArc
 50
184.3894721415931
 51
270.0
  0
LINE
  5
1BC
330
1F
100
AcDbEntity
  8
躯体
  6
JWW_DASHED1
 62
     2
370
     9
100
AcDbLine
 10
-35.48583048229222
 20
-136.5995436815875
 30
0.0
 11
-54.48580120191303
 21
-136.5995436815875
 31
0.0
  0
LINE
  5
1BD
330
1F
100
AcDbEntity
  8
仕上
  6
JWW_DASHED1
 62
     6
370
     9
100
AcDbLine
 10
-54.4857764284738
 20
-171.5995083919557
 30
0.0
 11
-12.86216200310918
 21
-171.5995083919557
 31
0.0
  0
ARC
  5
1BE
330
1F
100
AcDbEntity
  8
仕上
  6
JWW_DASHED1
 62
     6
370
     9
100
AcDbCircle
 10
-24.48576066891349
 20
-156.5995872192134
 30
0.0
 40
30.00000027616051
100
AcDbArc
 50
209.9998931884765
 51
241.7488847681529
  0
ARC
  5
1BF
330
1F
100
AcDbEntity
  8
仕上
  6
JWW_DASHED1
 62
     6
370
     9
100
AcDbCircle
 10
-24.48576066891349
 20
-156.5995872192134
 30
0.0
 40
40.00000036821402
100
AcDbArc
 50
221.4096374511719
 51
270.0
  0
LINE
  5
1C0
330
1F
100
AcDbEntity
  8
仕上
  6
JWW_DASHED1
 62
     6
370
     9
100
AcDbLine
 10
-50.94337278389713
 20
-186.5995534318948
 30
0.0
 11
-54.4857764284738
 21
-186.5995534318948
 31
0.0
  0
LINE
  5
1C1
330
1F
100
AcDbEntity
  8
仕上
  6
JWW_DASHED1
 62
     6
370
     9
100
AcDbLine
 10
-54.4857764284738
 20
-171.5995083919557
 30
0.0
 11
-54.4857764284738
 21
-186.5995534318948
 31
0.0
  0
LINE
  5
1C2
330
1F
100
AcDbEntity
  8
仕上
  6
JWW_DASHED1
 62
     6
370
     9
100
AcDbLine
 10
60.51408992456487
 20
-196.5994637202305
 30
0.0
 11
-24.48576066891349
 21
-196.5994637202305
 31
0.0
  0
LINE
  5
1C3
330
1F
100
AcDbEntity
  8
仕上
  6
JWW_DASHED1
 62
     6
370
     9
100
AcDbLine
 10
3.514072368120424
 20
-186.5995534318948
 30
0.0
 11
-24.48576066891349
 21
-186.5995534318948
 31
0.0
  0
LINE
  5
1C4
330
1F
100
AcDbEntity
  8
仕上
  6
JWW_DASHED1
 62
     6
370
     9
100
AcDbLine
 10
58.51408061611448
 20
-186.5995534318948
 30
0.0
 11
11.51410960192231
 21
-186.5995534318948
 31
0.0
  0
LINE
  5
1C5
330
1F
100
AcDbEntity
  8
仕上
  6
Continuous
 62
     6
370
     9
100
AcDbLine
 10
60.51412550876802
 20
-186.5995534318948
 30
0.0
 11
60.51412550876802
 21
-171.5995170338516
 31
0.0
  0
LINE
  5
1C6
330
1F
100
AcDbEntity
  8
その他
  6
Continuous
 62
     7
370
     9
100
AcDbLine
 10
-54.48580120191303
 20
-14.20923021966292
 30
0.0
 11
60.51408063452519
 21
-14.20923021966292
 31
0.0
  0
LINE
  5
1C7
330
1F
100
AcDbEntity
  8
その他
  6
Continuous
 62
     7
370
     9
100
AcDbLine
 10
-54.48580120191303
 20
-14.20923021966292
 30
0.0
 11
-47.04996474160946
 21
-13.23028377801253
 31
0.0
  0
LINE
  5
1C8
330
1F
100
AcDbEntity
  8
その他
  6
Continuous
 62
     7
370
     9
100
AcDbLine
 10
-54.48580120191303
 20
-14.20923021966292
 30
0.0
 11
-47.04996474160946
 21
-15.18817666131331
 31
0.0
  0
LINE
  5
1C9
330
1F
100
AcDbEntity
  8
その他
  6
Continuous
 62
     7
370
     9
100
AcDbLine
 10
60.51408063452519
 20
-14.20923021966292
 30
0.0
 11
53.07824417422161
 21
-13.23028377801253
 31
0.0
  0
LINE
  5
1CA
330
1F
100
AcDbEntity
  8
その他
  6
Continuous
 62
     7
370
     9
100
AcDbLine
 10
60.51408063452519
 20
-14.20923021966292
 30
0.0
 11
53.07824417422161
 21
-15.18817666131331
 31
0.0
  0
TEXT
  5
1CB
330
1F
100
AcDbEntity
  8
その他
  6
Continuous
 62
     2
370
   211
100
AcDbText
 10
-6.735860283693917
 20
-10.71723021966292
 30
0.0
 40
9.144
  1
115
 41
1.083333333333333
  7
ＭＳ ゴシック
100
AcDbText
  0
LINE
  5
1CC
330
1F
100
AcDbEntity
  8
その他
  6
Continuous
 62
     7
370
     9
100
AcDbLine
 10
60.51408063452519
 20
-13.30923021966292
 30
0.0
 11
60.51408063452519
 21
-160.9984648126372
 31
0.0
  0
LINE
  5
1CD
330
1F
100
AcDbEntity
  8
その他
  6
Continuous
 62
     7
370
     9
100
AcDbLine
 10
128.3794596561502
 20
-186.5995534318948
 30
0.0
 11
128.3794596561502
 21
-136.5995436815875
 31
0.0
  0
LINE
  5
1CE
330
1F
100
AcDbEntity
  8
その他
  6
Continuous
 62
     7
370
     9
100
AcDbLine
 10
128.3794596561502
 20
-186.5995534318948
 30
0.0
 11
127.4005132144998
 21
-179.1637169715912
 31
0.0
  0
LINE
  5
1CF
330
1F
100
AcDbEntity
  8
その他
  6
Continuous
 62
     7
370
     9
100
AcDbLine
 10
128.3794596561502
 20
-186.5995534318948
 30
0.0
 11
129.3584060978006
 21
-179.1637169715912
 31
0.0
  0
LINE
  5
1D0
330
1F
100
AcDbEntity
  8
その他
  6
Continuous
 62
     7
370
     9
100
AcDbLine
 10
128.3794596561502
 20
-136.5995436815875
 30
0.0
 11
127.4005132144998
 21
-144.0353801418911
 31
0.0
  0
LINE
  5
1D1
330
1F
100
AcDbEntity
  8
その他
  6
Continuous
 62
     7
370
     9
100
AcDbLine
 10
128.3794596561502
 20
-136.5995436815875
 30
0.0
 11
129.3584060978006
 21
-144.0353801418911
 31
0.0
  0
LINE
  5
1D2
330
1F
100
AcDbEntity
  8
その他
  6
Continuous
 62
     7
370
     9
100
AcDbLine
 10
129.2794596561502
 20
-136.5995436815875
 30
0.0
 11
101.5141041818118
 21
-136.5995436815875
 31
0.0
  0
TEXT
  5
1D3
330
1F
100
AcDbEntity
  8
その他
  6
Continuous
 62
     2
370
   211
100
AcDbText
 10
124.8874596561502
 20
-167.9745485567412
 30
0.0
 40
9.144
  1
50
 50
90.0
 41
1.0625
  7
ＭＳ ゴシック
100
AcDbText
  0
LINE
  5
1D4
330
1F
100
AcDbEntity
  8
その他
  6
Continuous
 62
     7
370
     9
100
AcDbLine
 10
155.5617606978561
 20
-186.5995534318948
 30
0.0
 11
155.5617606978561
 21
-71.59954772825961
 31
0.0
  0
LINE
  5
1D5
330
1F
100
AcDbEntity
  8
その他
  6
Continuous
 62
     7
370
     9
100
AcDbLine
 10
155.5617606978561
 20
-186.5995534318948
 30
0.0
 11
154.5828142562057
 21
-179.1637169715912
 31
0.0
  0
LINE
  5
1D6
330
1F
100
AcDbEntity
  8
その他
  6
Continuous
 62
     7
370
     9
100
AcDbLine
 10
155.5617606978561
 20
-186.5995534318948
 30
0.0
 11
156.5407071395065
 21
-179.1637169715912
 31
0.0
  0
LINE
  5
1D7
330
1F
100
AcDbEntity
  8
その他
  6
Continuous
 62
     7
370
     9
100
AcDbLine
 10
155.5617606978561
 20
-71.59954772825961
 30
0.0
 11
154.5828142562057
 21
-79.03538418856317
 31
0.0
  0
LINE
  5
1D8
330
1F
100
AcDbEntity
  8
その他
  6
Continuous
 62
     7
370
     9
100
AcDbLine
 10
155.5617606978561
 20
-71.59954772825961
 30
0.0
 11
156.5407071395065
 21
-79.03538418856317
 31
0.0
  0
LINE
  5
1D9
330
1F
100
AcDbEntity
  8
その他
  6
Continuous
 62
     7
370
     9
100
AcDbLine
 10
156.4617606978561
 20
-71.59954772825961
 30
0.0
 11
-50.48583528380302
 21
-71.59954772825958
 31
0.0
  0
TEXT
  5
1DA
330
1F
100
AcDbEntity
  8
その他
  6
Continuous
 62
     2
370
   211
100
AcDbText
 10
152.0697606978561
 20
-138.8495505800772
 30
0.0
 40
9.144
  1
115
 50
90.0
 41
1.083333333333333
  7
ＭＳ ゴシック
100
AcDbText
  0
LINE
  5
1DB
330
1F
100
AcDbEntity
  8
その他
  6
Continuous
 62
     7
370
     9
100
AcDbLine
 10
156.4617606978561
 20
-186.5995534318948
 30
0.0
 11
88.51409322376253
 21
-186.5995534318948
 31
0.0
  0
LINE
  5
1DC
330
1F
100
AcDbEntity
  8
その他
  6
Continuous
 62
     7
370
     9
100
AcDbLine
 10
-54.48580120191303
 20
15.4768790770751
 30
0.0
 11
95.51410418181185
 21
15.4768790770751
 31
0.0
  0
LINE
  5
1DD
330
1F
100
AcDbEntity
  8
その他
  6
Continuous
 62
     7
370
     9
100
AcDbLine
 10
-54.48580120191303
 20
15.4768790770751
 30
0.0
 11
-47.04996474160946
 21
16.45582551872548
 31
0.0
  0
LINE
  5
1DE
330
1F
100
AcDbEntity
  8
その他
  6
Continuous
 62
     7
370
     9
100
AcDbLine
 10
-54.48580120191303
 20
15.4768790770751
 30
0.0
 11
-47.04996474160946
 21
14.49793263542471
 31
0.0
  0
LINE
  5
1DF
330
1F
100
AcDbEntity
  8
その他
  6
Continuous
 62
     7
370
     9
100
AcDbLine
 10
95.51410418181185
 20
15.4768790770751
 30
0.0
 11
88.07826772150827
 21
16.45582551872548
 31
0.0
  0
LINE
  5
1E0
330
1F
100
AcDbEntity
  8
その他
  6
Continuous
 62
     7
370
     9
100
AcDbLine
 10
95.51410418181185
 20
15.4768790770751
 30
0.0
 11
88.07826772150827
 21
14.49793263542471
 31
0.0
  0
LINE
  5
1E1
330
1F
100
AcDbEntity
  8
その他
  6
Continuous
 62
     7
370
     9
100
AcDbLine
 10
95.51410418181185
 20
16.3768790770751
 30
0.0
 11
95.51410418181185
 21
-130.5995436815875
 31
0.0
  0
TEXT
  5
1E2
330
1F
100
AcDbEntity
  8
その他
  6
Continuous
 62
     2
370
   211
100
AcDbText
 10
10.7641514899494
 20
18.96887907707509
 30
0.0
 40
9.144
  1
150
 41
1.083333333333333
  7
ＭＳ ゴシック
100
AcDbText
  0
LINE
  5
1E3
330
1F
100
AcDbEntity
  8
その他
  6
Continuous
 62
     7
370
     9
100
AcDbLine
 10
-54.48580120191303
 20
16.3768790770751
 30
0.0
 11
-54.48580120191303
 21
-67.5995477466703
 31
0.0
  0
LINE
  5
1E4
330
1F
100
AcDbEntity
  8
通り芯
  6
Continuous
 62
     3
370
     9
100
AcDbLine
 10
-64.48587251760489
 20
161.5664805652808
 30
0.0
 11
-64.48587251760489
 21
341.5665751226414
 31
0.0
  0
LINE
  5
1E5
330
1F
100
AcDbEntity
  8
通り芯
  6
Continuous
 62
     3
370
     9
100
AcDbLine
 10
-56.28680547178186
 20
340.7466733727471
 30
0.0
 11
-64.48587251760489
 21
341.5665751226414
 31
0.0
  0
LINE
  5
1E6
330
1F
100
AcDbEntity
  8
通り芯
  6
Continuous
 62
     3
370
     9
100
AcDbLine
 10
-56.28680547178186
 20
162.3863823151752
 30
0.0
 11
-64.48587251760489
 21
161.5664805652808
 31
0.0
  0
LINE
  5
1E7
330
1F
100
AcDbEntity
  8
通り芯
  6
Continuous
 62
     3
370
     9
100
AcDbLine
 10
-69.4858710152917
 20
182.3939569783742
 30
0.0
 11
-69.4858710152917
 21
190.739038675934
 31
0.0
  0
LINE
  5
1E8
330
1F
100
AcDbEntity
  8
通り芯
  6
Continuous
 62
     3
370
     9
100
AcDbLine
 10
-68.67298014874325
 20
191.7213550944381
 30
0.0
 11
-64.48587251760489
 21
192.518911202007
 31
0.0
  0
LINE
  5
1E9
330
1F
100
AcDbEntity
  8
通り芯
  6
Continuous
 62
     3
370
     9
100
AcDbLine
 10
-68.67298014874325
 20
181.4116901067488
 30
0.0
 11
-64.48587251760489
 21
180.6141339991799
 31
0.0
  0
LINE
  5
1EA
330
1F
100
AcDbEntity
  8
通り芯
  6
Continuous
 62
     3
370
     9
100
AcDbLine
 10
-69.4858710152917
 20
320.7390491626692
 30
0.0
 11
-69.4858710152917
 21
312.3939674651094
 31
0.0
  0
LINE
  5
1EB
330
1F
100
AcDbEntity
  8
通り芯
  6
Continuous
 62
     3
370
     9
100
AcDbLine
 10
-68.67298014874325
 20
311.4116510466054
 30
0.0
 11
-64.48587251760489
 21
310.6141444859152
 31
0.0
  0
LINE
  5
1EC
330
1F
100
AcDbEntity
  8
通り芯
  6
Continuous
 62
     3
370
     9
100
AcDbLine
 10
-68.67298014874325
 20
321.7213655811734
 30
0.0
 11
-64.48587251760489
 21
322.5189216887424
 31
0.0
  0
LINE
  5
1ED
330
1F
100
AcDbEntity
  8
寸法
  6
Continuous
 62
     2
370
     9
100
AcDbLine
 10
-71.4859050971815
 20
313.3913956816386
 30
0.0
 11
-71.4859050971815
 21
319.7413732117462
 31
0.0
  0
LINE
  5
1EE
330
1F
100
AcDbEntity
  8
寸法
  6
Continuous
 62
     2
370
     9
100
AcDbLine
 10
-71.4859050971815
 20
318.9265252434864
 30
0.0
 11
-69.4858710152917
 21
318.9265252434864
 31
0.0
  0
LINE
  5
1EF
330
1F
100
AcDbEntity
  8
寸法
  6
Continuous
 62
     2
370
     9
100
AcDbLine
 10
-71.4859050971815
 20
319.7413732117462
 30
0.0
 11
-69.4858710152917
 21
319.7413732117462
 31
0.0
  0
LINE
  5
1F0
330
1F
100
AcDbEntity
  8
寸法
  6
Continuous
 62
     2
370
     9
100
AcDbLine
 10
-71.4859050971815
 20
314.206540931171
 30
0.0
 11
-69.4858710152917
 21
314.206540931171
 31
0.0
  0
LINE
  5
1F1
330
1F
100
AcDbEntity
  8
寸法
  6
Continuous
 62
     2
370
     9
100
AcDbLine
 10
-71.4859050971815
 20
313.3913956816386
 30
0.0
 11
-69.4858710152917
 21
313.3913956816386
 31
0.0
  0
LINE
  5
1F2
330
1F
100
AcDbEntity
  8
寸法
  6
Continuous
 62
     2
370
     9
100
AcDbLine
 10
-89.4858402325994
 20
313.5663952574561
 30
0.0
 11
-71.4859050971815
 21
313.5663952574561
 31
0.0
  0
LINE
  5
1F3
330
1F
100
AcDbEntity
  8
寸法
  6
Continuous
 62
     2
370
     9
100
AcDbLine
 10
-89.4858402325994
 20
319.5663736359288
 30
0.0
 11
-71.4859050971815
 21
319.5663736359288
 31
0.0
  0
LINE
  5
1F4
330
1F
100
AcDbEntity
  8
寸法
  6
JWW_CENTER1
 62
     2
370
     9
100
AcDbLine
 10
-89.4858402325994
 20
311.5050964599665
 30
0.0
 11
-89.4858402325994
 21
321.9389754727334
 31
0.0
  0
LINE
  5
1F5
330
1F
100
AcDbEntity
  8
寸法
  6
Continuous
 62
     2
370
     9
100
AcDbLine
 10
-71.4859050971815
 20
189.7416104594048
 30
0.0
 11
-71.4859050971815
 21
183.3916329292972
 31
0.0
  0
LINE
  5
1F6
330
1F
100
AcDbEntity
  8
寸法
  6
Continuous
 62
     2
370
     9
100
AcDbLine
 10
-71.4859050971815
 20
184.2064808975571
 30
0.0
 11
-69.4858710152917
 21
184.2064808975571
 31
0.0
  0
LINE
  5
1F7
330
1F
100
AcDbEntity
  8
寸法
  6
Continuous
 62
     2
370
     9
100
AcDbLine
 10
-71.4859050971815
 20
183.3916329292972
 30
0.0
 11
-69.4858710152917
 21
183.3916329292972
 31
0.0
  0
LINE
  5
1F8
330
1F
100
AcDbEntity
  8
寸法
  6
Continuous
 62
     2
370
     9
100
AcDbLine
 10
-71.4859050971815
 20
188.9264652098723
 30
0.0
 11
-69.4858710152917
 21
188.9264652098723
 31
0.0
  0
LINE
  5
1F9
330
1F
100
AcDbEntity
  8
寸法
  6
Continuous
 62
     2
370
     9
100
AcDbLine
 10
-71.4859050971815
 20
189.7416104594048
 30
0.0
 11
-69.4858710152917
 21
189.7416104594048
 31
0.0
  0
LINE
  5
1FA
330
1F
100
AcDbEntity
  8
寸法
  6
Continuous
 62
     2
370
     9
100
AcDbLine
 10
-89.4858402325994
 20
189.5666108835873
 30
0.0
 11
-71.4859050971815
 21
189.5666108835873
 31
0.0
  0
LINE
  5
1FB
330
1F
100
AcDbEntity
  8
寸法
  6
Continuous
 62
     2
370
     9
100
AcDbLine
 10
-89.4858402325994
 20
183.5666325051147
 30
0.0
 11
-71.4859050971815
 21
183.5666325051147
 31
0.0
  0
LINE
  5
1FC
330
1F
100
AcDbEntity
  8
寸法
  6
JWW_CENTER1
 62
     2
370
     9
100
AcDbLine
 10
-89.4858402325994
 20
191.6279096810769
 30
0.0
 11
-89.4858402325994
 21
181.1940306683099
 31
0.0
  0
LINE
  5
1FD
330
1F
100
AcDbEntity
  8
寸法
  6
JWW_CENTER1
 62
     2
370
     9
100
AcDbLine
 10
-94.24236536800794
 20
316.5664587670105
 30
0.0
 11
-67.87948688523358
 21
316.5664587670105
 31
0.0
  0
LINE
  5
1FE
330
1F
100
AcDbEntity
  8
寸法
  6
JWW_CENTER1
 62
     2
370
     9
100
AcDbLine
 10
-94.24236536800794
 20
186.5665473740328
 30
0.0
 11
-67.68211689365114
 21
186.5665473740328
 31
0.0
  0
LINE
  5
1FF
330
1F
100
AcDbEntity
  8
041
  6
Continuous
 62
     3
370
     9
100
AcDbLine
 10
-146.447087356406
 20
197.5664994767528
 30
0.0
 11
-146.447087356406
 21
198.5665289044175
 31
0.0
  0
LINE
  5
200
330
1F
100
AcDbEntity
  8
041
  6
Continuous
 62
     3
370
     9
100
AcDbLine
 10
-146.447087356406
 20
304.5665020100653
 30
0.0
 11
-146.447087356406
 21
305.5665562111693
 31
0.0
  0
LINE
  5
201
330
1F
100
AcDbEntity
  8
建具
  6
Continuous
 62
     4
370
     9
100
AcDbLine
 10
-146.447087356406
 20
198.5665289044175
 30
0.0
 11
-146.447087356406
 21
304.5665020100653
 31
0.0
  0
LINE
  5
202
330
1F
100
AcDbEntity
  8
041
  6
Continuous
 62
     3
370
     9
100
AcDbLine
 10
-146.447087356406
 20
305.5665562111693
 30
0.0
 11
-154.4857959290883
 21
306.5535795831566
 31
0.0
  0
LINE
  5
203
330
1F
100
AcDbEntity
  8
041
  6
Continuous
 62
     3
370
     9
100
AcDbLine
 10
-154.4857959290883
 20
196.5794265578867
 30
0.0
 11
-154.4857959290883
 21
306.5535795831566
 31
0.0
  0
LINE
  5
204
330
1F
100
AcDbEntity
  8
041
  6
Continuous
 62
     3
370
     9
100
AcDbLine
 10
-146.447087356406
 20
197.5664994767528
 30
0.0
 11
-154.4857959290883
 21
196.5794265578867
 31
0.0
  0
LINE
  5
205
330
1F
100
AcDbEntity
  8
躯体
  6
Continuous
 62
     2
370
     9
100
AcDbLine
 10
-54.48590029567066
 20
333.5665874357184
 30
0.0
 11
-54.48590029567066
 21
376.5665398330096
 31
0.0
  0
LINE
  5
206
330
1F
100
AcDbEntity
  8
躯体
  6
Continuous
 62
     2
370
     9
100
AcDbLine
 10
50.51409292919141
 20
376.5665398330096
 30
0.0
 11
-54.48590029567066
 21
376.5665398330096
 31
0.0
  0
LINE
  5
207
330
1F
100
AcDbEntity
  8
躯体
  6
Continuous
 62
     2
370
     9
100
AcDbLine
 10
-54.48590029567066
 20
169.5664187053251
 30
0.0
 11
-54.48590029567066
 21
126.5664663080338
 31
0.0
  0
LINE
  5
208
330
1F
100
AcDbEntity
  8
躯体
  6
Continuous
 62
     2
370
     9
100
AcDbLine
 10
50.51409292919141
 20
126.5664663080338
 30
0.0
 11
-54.48590029567066
 21
126.5664663080338
 31
0.0
  0
LINE
  5
209
330
1F
100
AcDbEntity
  8
062
  6
Continuous
 62
     2
370
     9
100
AcDbLine
 10
11.01418159512781
 20
241.0665285214749
 30
0.0
 11
11.01418159512781
 21
243.0928967694313
 31
0.0
  0
LINE
  5
20A
330
1F
100
AcDbEntity
  8
062
  6
Continuous
 62
     2
370
     9
100
AcDbLine
 10
11.01418159512781
 20
262.0664776195684
 30
0.0
 11
11.01418159512781
 21
260.0401093716121
 31
0.0
  0
LINE
  5
20B
330
1F
100
AcDbEntity
  8
062
  6
Continuous
 62
     2
370
     9
100
AcDbLine
 10
9.814156191305983
 20
262.0664776195684
 30
0.0
 11
9.814156191305983
 21
260.0401093716121
 31
0.0
  0
LINE
  5
20C
330
1F
100
AcDbEntity
  8
062
  6
Continuous
 62
     2
370
     9
100
AcDbLine
 10
9.814156191305983
 20
241.0665285214749
 30
0.0
 11
9.814156191305983
 21
243.0928967694313
 31
0.0
  0
LINE
  5
20D
330
1F
100
AcDbEntity
  8
通り芯
  6
Continuous
 62
     3
370
     9
100
AcDbLine
 10
-54.69107392065933
 20
341.5665751226414
 30
0.0
 11
-64.48587251760489
 21
341.5665751226414
 31
0.0
  0
LINE
  5
20E
330
1F
100
AcDbEntity
  8
通り芯
  6
Continuous
 62
     3
370
     9
100
AcDbLine
 10
-54.69107392065933
 20
340.5664218277799
 30
0.0
 11
-55.63506582843451
 21
340.5664218277799
 31
0.0
  0
LINE
  5
20F
330
1F
100
AcDbEntity
  8
躯体
  6
Continuous
 62
     2
370
     9
100
AcDbLine
 10
95.51410418181183
 20
331.5664790335103
 30
0.0
 11
95.51410418181183
 21
171.5665271075331
 31
0.0
  0
LINE
  5
210
330
1F
100
AcDbEntity
  8
通り芯
  6
Continuous
 62
     3
370
     9
100
AcDbLine
 10
-54.48590029567066
 20
161.5664805652808
 30
0.0
 11
-64.48587251760489
 21
161.5664805652808
 31
0.0
  0
LINE
  5
211
330
1F
100
AcDbEntity
  8
通り芯
  6
Continuous
 62
     3
370
     9
100
AcDbLine
 10
-54.48590029567066
 20
162.5665347663847
 30
0.0
 11
-55.63499150811646
 21
162.5665347663847
 31
0.0
  0
LINE
  5
212
330
1F
100
AcDbEntity
  8
021
  6
Continuous
 62
     6
370
     9
100
AcDbLine
 10
-52.83712881082425
 20
173.0665093154316
 30
0.0
 11
-52.83712881082425
 21
330.0666454662482
 31
0.0
  0
LINE
  5
213
330
1F
100
AcDbEntity
  8
通り芯
  6
JWW_CENTER1
 62
     3
370
     9
100
AcDbLine
 10
108.2126719294213
 20
251.5665030705217
 30
0.0
 11
-165.7861755312334
 21
251.5665030705217
 31
0.0
  0
LINE
  5
214
330
1F
100
AcDbEntity
  8
通り芯
  6
Continuous
 62
     3
370
     9
100
AcDbLine
 10
-64.48587251760489
 20
200.5665134394286
 30
0.0
 11
-82.47867290247984
 21
200.5665134394286
 31
0.0
  0
LINE
  5
215
330
1F
100
AcDbEntity
  8
通り芯
  6
Continuous
 62
     3
370
     9
100
AcDbLine
 10
-64.48587251760489
 20
302.5664927016148
 30
0.0
 11
-82.47867290247984
 21
302.5664927016148
 31
0.0
  0
ARC
  5
216
330
1F
100
AcDbEntity
  8
通り芯
  6
Continuous
 62
     3
370
     9
100
AcDbCircle
 10
-56.48588483068164
 20
338.7564743462931
 30
0.0
 40
2.000000018410701
100
AcDbArc
 50
0.0
 51
84.28884887695314
  0
ARC
  5
217
330
1F
100
AcDbEntity
  8
通り芯
  6
Continuous
 62
     3
370
     9
100
AcDbCircle
 10
-56.48588483068164
 20
164.3764327009928
 30
0.0
 40
2.000000018410701
100
AcDbArc
 50
275.7112274169922
 51
0.0
  0
ARC
  5
218
330
1F
100
AcDbEntity
  8
通り芯
  6
Continuous
 62
     3
370
     9
100
AcDbCircle
 10
-68.48584158762702
 20
190.739038675934
 30
0.0
 40
1.00000000920535
100
AcDbArc
 50
100.7846374511719
 51
180.0
  0
ARC
  5
219
330
1F
100
AcDbEntity
  8
通り芯
  6
Continuous
 62
     3
370
     9
100
AcDbCircle
 10
-68.48584158762702
 20
182.3939569783742
 30
0.0
 40
1.00000000920535
100
AcDbArc
 50
180.0
 51
259.2153625488281
  0
ARC
  5
21A
330
1F
100
AcDbEntity
  8
通り芯
  6
Continuous
 62
     3
370
     9
100
AcDbCircle
 10
-68.48584158762702
 20
312.3939674651094
 30
0.0
 40
1.00000000920535
100
AcDbArc
 50
180.0
 51
259.2153625488281
  0
ARC
  5
21B
330
1F
100
AcDbEntity
  8
通り芯
  6
Continuous
 62
     3
370
     9
100
AcDbCircle
 10
-68.48584158762702
 20
320.7390491626692
 30
0.0
 40
1.00000000920535
100
AcDbArc
 50
100.7846374511719
 51
180.0
  0
CIRCLE
  5
21C
330
1F
100
AcDbEntity
  8
寸法
  6
Continuous
 62
     2
370
     9
100
AcDbCircle
 10
-89.4858402325994
 20
316.5664587670105
 30
0.0
 40
3.000112475805761
  0
CIRCLE
  5
21D
330
1F
100
AcDbEntity
  8
寸法
  6
Continuous
 62
     2
370
     9
100
AcDbCircle
 10
-89.4858402325994
 20
186.5665473740328
 30
0.0
 40
3.000112475805761
  0
ARC
  5
21E
330
1F
100
AcDbEntity
  8
躯体
  6
Continuous
 62
     2
370
     9
100
AcDbCircle
 10
50.51409292919141
 20
331.5664790335103
 30
0.0
 40
44.99999886590081
100
AcDbArc
 50
0.0
 51
90.0
  0
ARC
  5
21F
330
1F
100
AcDbEntity
  8
躯体
  6
Continuous
 62
     2
370
     9
100
AcDbCircle
 10
50.51409292919141
 20
171.5665271075331
 30
0.0
 40
44.99999886590081
100
AcDbArc
 50
270.0
 51
0.0
  0
ARC
  5
220
330
1F
100
AcDbEntity
  8
062
  6
Continuous
 62
     2
370
     9
100
AcDbCircle
 10
12.21410790519201
 20
243.0928967694313
 30
0.0
 40
1.200000049754919
100
AcDbArc
 50
126.0319366455078
 51
180.0
  0
ARC
  5
221
330
1F
100
AcDbEntity
  8
062
  6
Continuous
 62
     2
370
     9
100
AcDbCircle
 10
12.21410790519201
 20
260.0401093716121
 30
0.0
 40
1.200000049754919
100
AcDbArc
 50
180.0
 51
233.9680633544922
  0
ARC
  5
222
330
1F
100
AcDbEntity
  8
062
  6
Continuous
 62
     2
370
     9
100
AcDbCircle
 10
7.514090985021369
 20
251.5665030705217
 30
0.0
 40
8.500000078245478
100
AcDbArc
 50
298.0275573730469
 51
61.97244262695312
  0
ARC
  5
223
330
1F
100
AcDbEntity
  8
062
  6
Continuous
 62
     2
370
     9
100
AcDbCircle
 10
12.21410790519201
 20
243.0928967694313
 30
0.0
 40
2.400000099509839
100
AcDbArc
 50
122.0298156738281
 51
180.0
  0
ARC
  5
224
330
1F
100
AcDbEntity
  8
062
  6
Continuous
 62
     2
370
     9
100
AcDbCircle
 10
7.514090985021369
 20
251.5665030705217
 30
0.0
 40
7.300000996203035
100
AcDbArc
 50
298.0275573730469
 51
61.97244262695312
  0
ARC
  5
225
330
1F
100
AcDbEntity
  8
062
  6
Continuous
 62
     2
370
     9
100
AcDbCircle
 10
12.21410790519201
 20
260.0401093716121
 30
0.0
 40
2.400000099509839
100
AcDbArc
 50
180.0
 51
237.9701843261718
  0
ARC
  5
226
330
1F
100
AcDbEntity
  8
建具
  6
Continuous
 62
     4
370
     9
100
AcDbCircle
 10
-1383.349242109513
 20
251.5665030705217
 30
0.0
 40
1301.869904978395
100
AcDbArc
 50
357.6668090820312
 51
2.333190917968759
  0
LINE
  5
227
330
1F
100
AcDbEntity
  8
062
  6
JWW_CENTER1
 62
     2
370
     9
100
AcDbLine
 10
7.514090985021369
 20
235.7829601527864
 30
0.0
 11
7.514090985021369
 21
267.2263505780064
 31
0.0
  0
LINE
  5
228
330
1F
100
AcDbEntity
  8
通り芯
  6
Continuous
 62
     3
370
     9
100
AcDbLine
 10
-49.98336364906078
 20
172.0167706122071
 30
0.0
 11
-39.48585525573156
 21
173.0665093154316
 31
0.0
  0
ARC
  5
229
330
1F
100
AcDbEntity
  8
通り芯
  6
Continuous
 62
     3
370
     9
100
AcDbCircle
 10
-49.48585074879196
 20
167.0415840916768
 30
0.0
 40
5.0
100
AcDbArc
 50
95.7105275540095
 51
180.0
  0
LINE
  5
22A
330
1F
100
AcDbEntity
  8
通り芯
  6
Continuous
 62
     3
370
     9
100
AcDbLine
 10
-54.48585074879185
 20
164.3764327009928
 30
0.0
 11
-54.48585074879185
 21
338.7564743462931
 31
0.0
  0
ARC
  5
22B
330
1F
100
AcDbEntity
  8
通り芯
  6
Continuous
 62
     3
370
     9
100
AcDbCircle
 10
-49.48585074879196
 20
336.0914220493667
 30
0.0
 40
5.0
100
AcDbArc
 50
180.0
 51
264.2894724459905
  0
LINE
  5
22C
330
1F
100
AcDbEntity
  8
通り芯
  6
Continuous
 62
     3
370
     9
100
AcDbLine
 10
-50.008533165215
 20
331.1188167873775
 30
0.0
 11
-39.48585525573156
 21
330.0665959193694
 31
0.0
  0
ELLIPSE
  5
22D
330
1F
100
AcDbEntity
  8
087
  6
Continuous
 62
     4
370
     9
100
AcDbEllipse
 10
-11.56618732534935
 20
251.5665030705217
 30
0.0
 11
-4.785736151986796E-15
 21
12.5
 31
0.0
210
0.0
220
0.0
230
1.0
 40
0.4999962141896511
 41
0.0
 42
6.283185307179586
  0
ELLIPSE
  5
22E
330
1F
100
AcDbEntity
  8
087
  6
Continuous
 62
     4
370
     9
100
AcDbEllipse
 10
-8.794886055818097
 20
251.5665030705217
 30
0.0
 11
-4.785736151986796E-15
 21
12.5
 31
0.0
210
0.0
220
0.0
230
1.0
 40
0.4999962141896511
 41
0.2235634380068019
 42
2.91802921558299
  0
ARC
  5
22F
330
1F
100
AcDbEntity
  8
087
  6
Continuous
 62
     4
370
     9
100
AcDbCircle
 10
5.704983915217952
 20
273.5665014209229
 30
0.0
 40
3.000000038662472
100
AcDbArc
 50
0.0
 51
90.0
  0
LINE
  5
230
330
1F
100
AcDbEntity
  8
087
  6
Continuous
 62
     4
370
     9
100
AcDbLine
 10
8.704981440819665
 20
273.5665014209229
 30
0.0
 11
8.704981440819665
 21
229.5665047201205
 31
0.0
  0
ARC
  5
231
330
1F
100
AcDbEntity
  8
087
  6
Continuous
 62
     4
370
     9
100
AcDbCircle
 10
2.933682645686702
 20
273.5665014209229
 30
0.0
 40
3.000000038662472
100
AcDbArc
 50
0.0
 51
90.0
  0
LINE
  5
232
330
1F
100
AcDbEntity
  8
087
  6
Continuous
 62
     4
370
     9
100
AcDbLine
 10
5.933680171288415
 20
273.5665014209229
 30
0.0
 11
5.933680171288415
 21
229.5665047201205
 31
0.0
  0
ARC
  5
233
330
1F
100
AcDbEntity
  8
087
  6
Continuous
 62
     4
370
     9
100
AcDbCircle
 10
2.933682645686702
 20
229.5665047201205
 30
0.0
 40
3.000000038662472
100
AcDbArc
 50
270.0
 51
0.0
  0
ARC
  5
234
330
1F
100
AcDbEntity
  8
087
  6
Continuous
 62
     4
370
     9
100
AcDbCircle
 10
5.704983915217952
 20
229.5665047201205
 30
0.0
 40
3.000000038662472
100
AcDbArc
 50
270.0
 51
0.0
  0
LINE
  5
235
330
1F
100
AcDbEntity
  8
躯体
  6
Continuous
 62
     2
370
     9
100
AcDbLine
 10
-53.80154422420503
 20
169.5664187053251
 30
0.0
 11
-35.48592957604967
 21
169.5664187053251
 31
0.0
  0
LINE
  5
236
330
1F
100
AcDbEntity
  8
躯体
  6
Continuous
 62
     2
370
     9
100
AcDbLine
 10
-53.80154422420503
 20
333.5665874357184
 30
0.0
 11
-35.48592957604967
 21
333.5665874357184
 31
0.0
  0
LINE
  5
237
330
1F
100
AcDbEntity
  8
087
  6
Continuous
 62
     4
370
     9
100
AcDbLine
 10
5.704983915217952
 20
276.5665113185157
 30
0.0
 11
-38.68586519456443
 21
276.5665113185157
 31
0.0
  0
LINE
  5
238
330
1F
100
AcDbEntity
  8
087
  6
Continuous
 62
     4
370
     9
100
AcDbLine
 10
-38.68586519456443
 20
226.5665195665099
 30
0.0
 11
-38.68586519456443
 21
276.5665113185157
 31
0.0
  0
LINE
  5
239
330
1F
100
AcDbEntity
  8
087
  6
Continuous
 62
     4
370
     9
100
AcDbLine
 10
5.714434316823542
 20
226.5665195665099
 30
0.0
 11
-38.68586519456443
 21
226.5665195665099
 31
0.0
  0
LINE
  5
23A
330
1F
100
AcDbEntity
  8
021
  6
Continuous
 62
     6
370
     9
100
AcDbLine
 10
-38.68586519456443
 20
276.5665113185157
 30
0.0
 11
-37.98584827439373
 21
279.5665113185157
 31
0.0
  0
LINE
  5
23B
330
1F
100
AcDbEntity
  8
021
  6
Continuous
 62
     6
370
     9
100
AcDbLine
 10
-38.68586519456443
 20
226.5664948225276
 30
0.0
 11
-37.98584827439373
 21
223.5664948225276
 31
0.0
  0
LINE
  5
23C
330
1F
100
AcDbEntity
  8
021
  6
Continuous
 62
     6
370
     9
100
AcDbLine
 10
-37.98584827439373
 20
173.0665093154316
 30
0.0
 11
-37.98584827439373
 21
223.5664948225276
 31
0.0
  0
LINE
  5
23D
330
1F
100
AcDbEntity
  8
躯体
  6
Continuous
 62
     2
370
     9
100
AcDbLine
 10
-35.48592957604967
 20
333.5665874357184
 30
0.0
 11
-35.48592957604967
 21
276.5665113185157
 31
0.0
  0
LINE
  5
23E
330
1F
100
AcDbEntity
  8
躯体
  6
Continuous
 62
     2
370
     9
100
AcDbLine
 10
-35.48592957604967
 20
226.5665195665099
 30
0.0
 11
-35.48592957604967
 21
169.5664187053251
 31
0.0
  0
LINE
  5
23F
330
1F
100
AcDbEntity
  8
021
  6
Continuous
 62
     6
370
     9
100
AcDbLine
 10
-39.33659928560434
 20
331.5591516655413
 30
0.0
 11
-49.85928417642577
 21
332.611373231652
 31
0.0
  0
LINE
  5
240
330
1F
100
AcDbEntity
  8
021
  6
Continuous
 62
     6
370
     9
100
AcDbLine
 10
-37.98584827439373
 20
330.0665952212668
 30
0.0
 11
-37.98584827439373
 21
279.5665113185157
 31
0.0
  0
ARC
  5
241
330
1F
100
AcDbEntity
  8
021
  6
Continuous
 62
     6
370
     9
100
AcDbCircle
 10
-39.48584827439373
 20
330.0665952212668
 30
0.0
 40
1.5
100
AcDbArc
 50
0.0
 51
84.28965982747407
  0
LINE
  5
242
330
1F
100
AcDbEntity
  8
通り芯
  6
Continuous
 62
     3
370
     9
100
AcDbLine
 10
-35.48592957604967
 20
331.5665285803891
 30
0.0
 11
-39.41037172375809
 21
331.5665285803891
 31
0.0
  0
LINE
  5
243
330
1F
100
AcDbEntity
  8
021
  6
Continuous
 62
     6
370
     9
100
AcDbLine
 10
-51.90973403264121
 20
333.5665874357184
 30
0.0
 11
-52.94854115429069
 21
332.4845154584406
 31
0.0
  0
ARC
  5
244
330
1F
100
AcDbEntity
  8
021
  6
Continuous
 62
     6
370
     9
100
AcDbCircle
 10
-49.48585074879196
 20
336.0914220493667
 30
0.0
 40
3.5
100
AcDbArc
 50
226.1686426919995
 51
264.2894724459905
  0
LINE
  5
245
330
1F
100
AcDbEntity
  8
021
  6
Continuous
 62
     6
370
     9
100
AcDbLine
 10
-51.90973403264104
 20
169.5664187053251
 30
0.0
 11
-52.94854115429069
 21
170.6484906826029
 31
0.0
  0
ARC
  5
246
330
1F
100
AcDbEntity
  8
021
  6
Continuous
 62
     6
370
     9
100
AcDbCircle
 10
-49.48585074879196
 20
167.0415840916768
 30
0.0
 40
3.5
100
AcDbArc
 50
95.7105275540095
 51
133.8313573080005
  0
LINE
  5
247
330
1F
100
AcDbEntity
  8
021
  6
Continuous
 62
     6
370
     9
100
AcDbLine
 10
-39.33659928560434
 20
171.5738544755021
 30
0.0
 11
-49.85928417642577
 21
170.5216329093914
 31
0.0
  0
ARC
  5
248
330
1F
100
AcDbEntity
  8
021
  6
Continuous
 62
     6
370
     9
100
AcDbCircle
 10
-39.48584827439373
 20
173.0664109197767
 30
0.0
 40
1.5
100
AcDbArc
 50
275.7103401725259
 51
0.0
  0
LINE
  5
249
330
1F
100
AcDbEntity
  8
通り芯
  6
Continuous
 62
     3
370
     9
100
AcDbLine
 10
-35.48592957604967
 20
171.5665271075331
 30
0.0
 11
-39.40987623287504
 21
171.5665271075331
 31
0.0
  0
ARC
  5
24A
330
1F
100
AcDbEntity
  8
062
  6
Continuous
 62
     2
370
     9
100
AcDbCircle
 10
7.514090985021369
 20
262.0664776195684
 30
0.0
 40
2.299999208293826
100
AcDbArc
 50
0.0
 51
58.8166355118305
  0
ARC
  5
24B
330
1F
100
AcDbEntity
  8
062
  6
Continuous
 62
     2
370
     9
100
AcDbCircle
 10
7.514090985021369
 20
262.0664776195684
 30
0.0
 40
3.499999258048746
100
AcDbArc
 50
0.0
 51
70.10762038805703
  0
ARC
  5
24C
330
1F
100
AcDbEntity
  8
062
  6
Continuous
 62
     2
370
     9
100
AcDbCircle
 10
7.514090985021369
 20
241.0665285214749
 30
0.0
 40
2.299999208293826
100
AcDbArc
 50
301.1833644881695
 51
0.0
  0
ARC
  5
24D
330
1F
100
AcDbEntity
  8
062
  6
Continuous
 62
     2
370
     9
100
AcDbCircle
 10
7.514090985021369
 20
241.0665285214749
 30
0.0
 40
3.499999258048746
100
AcDbArc
 50
289.8923796119431
 51
0.0
  0
LINE
  5
24E
330
1F
100
AcDbEntity
  8
その他
  6
Continuous
 62
     6
370
     9
100
AcDbLine
 10
21.81421204200882
 20
371.5665030705216
 30
0.0
 11
-6.78583188445117
 21
371.5665030705216
 31
0.0
  0
LINE
  5
24F
330
1F
100
AcDbEntity
  8
その他
  6
Continuous
 62
     6
370
     9
100
AcDbLine
 10
-6.78583188445117
 20
371.5665030705216
 30
0.0
 11
-6.78583188445117
 21
276.5665113185157
 31
0.0
  0
LINE
  5
250
330
1F
100
AcDbEntity
  8
その他
  6
Continuous
 62
     6
370
     9
100
AcDbLine
 10
21.81421204200882
 20
131.5665030705217
 30
0.0
 11
-6.78583188445117
 21
131.5665030705217
 31
0.0
  0
LINE
  5
251
330
1F
100
AcDbEntity
  8
その他
  6
Continuous
 62
     6
370
     9
100
AcDbLine
 10
-6.78583188445117
 20
226.5665195665099
 30
0.0
 11
-6.78583188445117
 21
131.5665030705217
 31
0.0
  0
LINE
  5
252
330
1F
100
AcDbEntity
  8
その他
  6
Continuous
 62
     6
370
     9
100
AcDbLine
 10
21.81421204200882
 20
371.5665030705216
 30
0.0
 11
21.81421204200882
 21
131.5665030705217
 31
0.0
  0
LINE
  5
253
330
1F
100
AcDbEntity
  8
通り芯
  6
JWW_DASHED1
 62
     3
370
     9
100
AcDbLine
 10
60.51408992456487
 20
171.5665271075331
 30
0.0
 11
60.51408992456487
 21
331.5665285803891
 31
0.0
  0
LINE
  5
254
330
1F
100
AcDbEntity
  8
通り芯
  6
JWW_DASHED1
 62
     3
370
     9
100
AcDbLine
 10
50.51414247607022
 20
341.5665751226414
 30
0.0
 11
-54.69107392065933
 21
341.5665751226414
 31
0.0
  0
LINE
  5
255
330
1F
100
AcDbEntity
  8
通り芯
  6
JWW_DASHED1
 62
     3
370
     9
100
AcDbLine
 10
50.51414247607022
 20
340.5664218277799
 30
0.0
 11
-54.69107392065933
 21
340.5664218277799
 31
0.0
  0
ARC
  5
256
330
1F
100
AcDbEntity
  8
通り芯
  6
JWW_DASHED1
 62
     3
370
     9
100
AcDbCircle
 10
50.51414247607022
 20
330.5665734730427
 30
0.0
 40
10.0000000920535
100
AcDbArc
 50
0.0
 51
90.0
  0
ARC
  5
257
330
1F
100
AcDbEntity
  8
通り芯
  6
JWW_DASHED1
 62
     3
370
     9
100
AcDbCircle
 10
50.51414247607022
 20
331.5665285803891
 30
0.0
 40
10.0000000920535
100
AcDbArc
 50
0.0
 51
90.0
  0
ARC
  5
258
330
1F
100
AcDbEntity
  8
通り芯
  6
JWW_DASHED1
 62
     3
370
     9
100
AcDbCircle
 10
50.51414247607022
 20
172.5664822148796
 30
0.0
 40
10.0000000920535
100
AcDbArc
 50
270.0
 51
0.0
  0
ARC
  5
259
330
1F
100
AcDbEntity
  8
通り芯
  6
JWW_DASHED1
 62
     3
370
     9
100
AcDbCircle
 10
50.51414247607022
 20
171.5665271075331
 30
0.0
 40
10.0000000920535
100
AcDbArc
 50
270.0
 51
0.0
  0
LINE
  5
25A
330
1F
100
AcDbEntity
  8
通り芯
  6
JWW_DASHED1
 62
     3
370
     9
100
AcDbLine
 10
50.51414247607022
 20
162.5665347663847
 30
0.0
 11
-54.48590029567066
 21
162.5665347663847
 31
0.0
  0
LINE
  5
25B
330
1F
100
AcDbEntity
  8
通り芯
  6
JWW_DASHED1
 62
     3
370
     9
100
AcDbLine
 10
50.51414247607022
 20
161.5664805652808
 30
0.0
 11
-54.48590029567066
 21
161.5664805652808
 31
0.0
  0
LINE
  5
25C
330
1F
100
AcDbEntity
  8
建具
  6
JWW_DASHED1
 62
     6
370
     9
100
AcDbLine
 10
-4.485964865681467
 20
371.5665030705216
 30
0.0
 11
-4.485964865681467
 21
276.5665113185157
 31
0.0
  0
LINE
  5
25D
330
1F
100
AcDbEntity
  8
建具
  6
JWW_DASHED1
 62
     6
370
     9
100
AcDbLine
 10
-4.485964865681467
 20
226.5665195665099
 30
0.0
 11
-4.485964865681467
 21
131.5665030705217
 31
0.0
  0
LINE
  5
25E
330
1F
100
AcDbEntity
  8
建具
  6
JWW_DASHED1
 62
     6
370
     9
100
AcDbLine
 10
19.51404774196658
 20
371.5665030705216
 30
0.0
 11
19.51404774196658
 21
131.5665030705217
 31
0.0
  0
LINE
  5
25F
330
1F
100
AcDbEntity
  8
087
  6
JWW_DASHED1
 62
     4
370
     9
100
AcDbLine
 10
-35.48583048229222
 20
226.5665195665099
 30
0.0
 11
-35.48583048229222
 21
276.5665113185157
 31
0.0
  0
LINE
  5
260
330
1F
100
AcDbEntity
  8
021
  6
Continuous
 62
     6
370
     9
100
AcDbLine
 10
-37.98584827439373
 20
330.0666454662482
 30
0.0
 11
-53.96367619342954
 21
330.0666454662482
 31
0.0
  0
LINE
  5
261
330
1F
100
AcDbEntity
  8
021
  6
Continuous
 62
     6
370
     9
100
AcDbLine
 10
-53.96367619342954
 20
173.0665093154316
 30
0.0
 11
-53.96367619342954
 21
330.0666454662482
 31
0.0
  0
LINE
  5
262
330
1F
100
AcDbEntity
  8
021
  6
Continuous
 62
     6
370
     9
100
AcDbLine
 10
-53.96367619342954
 20
173.0665093154316
 30
0.0
 11
-37.98584827439373
 21
173.0665093154316
 31
0.0
  0
LINE
  5
263
330
1F
100
AcDbEntity
  8
その他
  6
Continuous
 62
     7
370
     9
100
AcDbLine
 10
161.4064114778353
 20
126.5665282416323
 30
0.0
 11
161.4064114778353
 21
376.5665398330096
 31
0.0
  0
LINE
  5
264
330
1F
100
AcDbEntity
  8
その他
  6
Continuous
 62
     7
370
     9
100
AcDbLine
 10
161.4064114778353
 20
126.5665282416323
 30
0.0
 11
160.4274650361849
 21
134.0023647019359
 31
0.0
  0
LINE
  5
265
330
1F
100
AcDbEntity
  8
その他
  6
Continuous
 62
     7
370
     9
100
AcDbLine
 10
161.4064114778353
 20
126.5665282416323
 30
0.0
 11
162.3853579194856
 21
134.0023647019359
 31
0.0
  0
LINE
  5
266
330
1F
100
AcDbEntity
  8
その他
  6
Continuous
 62
     7
370
     9
100
AcDbLine
 10
161.4064114778353
 20
376.5665398330096
 30
0.0
 11
160.4274650361849
 21
369.1307033727061
 31
0.0
  0
LINE
  5
267
330
1F
100
AcDbEntity
  8
その他
  6
Continuous
 62
     7
370
     9
100
AcDbLine
 10
161.4064114778353
 20
376.5665398330096
 30
0.0
 11
162.3853579194856
 21
369.1307033727061
 31
0.0
  0
TEXT
  5
268
330
1F
100
AcDbEntity
  8
その他
  6
Continuous
 62
     2
370
   211
100
AcDbText
 10
157.9144114778352
 20
241.8165340373209
 30
0.0
 40
9.144
  1
250
 50
90.0
 41
1.083333333333333
  7
ＭＳ ゴシック
100
AcDbText
  0
LINE
  5
269
330
1F
100
AcDbEntity
  8
その他
  6
Continuous
 62
     7
370
     9
100
AcDbLine
 10
132.2833241448736
 20
161.5664805652808
 30
0.0
 11
132.2833241448736
 21
341.5665751226414
 31
0.0
  0
LINE
  5
26A
330
1F
100
AcDbEntity
  8
その他
  6
Continuous
 62
     7
370
     9
100
AcDbLine
 10
132.2833241448736
 20
161.5664805652808
 30
0.0
 11
131.3043777032232
 21
169.0023170255843
 31
0.0
  0
LINE
  5
26B
330
1F
100
AcDbEntity
  8
その他
  6
Continuous
 62
     7
370
     9
100
AcDbLine
 10
132.2833241448736
 20
161.5664805652808
 30
0.0
 11
133.262270586524
 21
169.0023170255843
 31
0.0
  0
LINE
  5
26C
330
1F
100
AcDbEntity
  8
その他
  6
Continuous
 62
     7
370
     9
100
AcDbLine
 10
132.2833241448736
 20
341.5665751226414
 30
0.0
 11
131.3043777032232
 21
334.1307386623379
 31
0.0
  0
LINE
  5
26D
330
1F
100
AcDbEntity
  8
その他
  6
Continuous
 62
     7
370
     9
100
AcDbLine
 10
132.2833241448736
 20
341.5665751226414
 30
0.0
 11
133.262270586524
 21
334.1307386623379
 31
0.0
  0
LINE
  5
26E
330
1F
100
AcDbEntity
  8
その他
  6
Continuous
 62
     7
370
     9
100
AcDbLine
 10
133.1833241448736
 20
161.5664805652808
 30
0.0
 11
56.51414247607022
 21
161.5664805652808
 31
0.0
  0
LINE
  5
26F
330
1F
100
AcDbEntity
  8
その他
  6
Continuous
 62
     7
370
     9
100
AcDbLine
 10
133.1833241448736
 20
341.5665751226414
 30
0.0
 11
56.51414247607021
 21
341.5665751226414
 31
0.0
  0
TEXT
  5
270
330
1F
100
AcDbEntity
  8
その他
  6
Continuous
 62
     2
370
   211
100
AcDbText
 10
128.7913241448736
 20
241.8165278439611
 30
0.0
 40
9.144
  1
180
 50
90.0
 41
1.083333333333333
  7
ＭＳ ゴシック
100
AcDbText
  0
LINE
  5
271
330
1F
100
AcDbEntity
  8
1-5ﾚｲﾔ
  6
Continuous
 62
     7
370
     9
100
AcDbLine
 10
-5.559467347707999
 20
-34.97380627667138
 30
0.0
 11
-10.12517806527359
 21
-29.02365622448709
 31
0.0
  0
LINE
  5
272
330
1F
100
AcDbEntity
  8
1-5ﾚｲﾔ
  6
Continuous
 62
     7
370
     9
100
AcDbLine
 10
-5.559467347707999
 20
-34.97380627667138
 30
0.0
 11
-8.429593090446195
 21
-28.04470978283668
 31
0.0
  0
LINE
  5
273
330
1F
100
AcDbEntity
  8
1-5ﾚｲﾔ
  6
Continuous
 62
     7
370
     9
100
AcDbLine
 10
-48.37840532989082
 20
39.19076983461014
 30
0.0
 11
-5.559467347707999
 21
-34.97380627667138
 31
0.0
  0
LINE
  5
274
330
1F
100
AcDbEntity
  8
1-5ﾚｲﾔ
  6
Continuous
 62
     7
370
     9
100
AcDbLine
 10
-48.37840532989082
 20
39.19076983461014
 30
0.0
 11
-131.5807278291188
 21
39.19076983461014
 31
0.0
  0
TEXT
  5
275
330
1F
100
AcDbEntity
  8
1-5ﾚｲﾔ
  6
Continuous
 62
     7
370
     9
100
AcDbText
 10
-131.5807278291188
 20
42.77785368775761
 30
0.0
 40
6.858000000000001
  1
引き上げハンドル
 41
1.145833333333333
  7
ＭＳ ゴシック
100
AcDbText
  0
TEXT
  5
276
330
1F
100
AcDbEntity
  8
1-5ﾚｲﾔ
  6
Continuous
 62
     7
370
     9
100
AcDbText
 10
-131.5807278291188
 20
30.2066819969156
 30
0.0
 40
6.858000000000001
  1
ＳＰＨＣ
 41
1.125
  7
ＭＳ ゴシック
100
AcDbText
  0
LINE
  5
277
330
1F
100
AcDbEntity
  8
1-5ﾚｲﾔ
  6
Continuous
 62
     7
370
     9
100
AcDbLine
 10
-42.99296958113161
 20
-82.22410983344597
 30
0.0
 11
-47.55868029869703
 21
-76.27395978126167
 31
0.0
  0
LINE
  5
278
330
1F
100
AcDbEntity
  8
1-5ﾚｲﾔ
  6
Continuous
 62
     7
370
     9
100
AcDbLine
 10
-42.99296958113161
 20
-82.22410983344597
 30
0.0
 11
-45.86309532386981
 21
-75.29501333961126
 31
0.0
  0
LINE
  5
279
330
1F
100
AcDbEntity
  8
1-5ﾚｲﾔ
  6
Continuous
 62
     7
370
     9
100
AcDbLine
 10
-154.4857959290883
 20
-101.9394457861457
 30
0.0
 11
-159.0515066466537
 21
-95.98929573396137
 31
0.0
  0
LINE
  5
27A
330
1F
100
AcDbEntity
  8
1-5ﾚｲﾔ
  6
Continuous
 62
     7
370
     9
100
AcDbLine
 10
-154.4857959290883
 20
-101.9394457861457
 30
0.0
 11
-157.3559216718265
 21
-95.01034929231096
 31
0.0
  0
LINE
  5
27B
330
1F
100
AcDbEntity
  8
1-5ﾚｲﾔ
  6
Continuous
 62
     7
370
     9
100
AcDbLine
 10
-183.4192050761998
 20
-51.82531110717031
 30
0.0
 11
-154.4857959290883
 21
-101.9394457861457
 31
0.0
  0
LINE
  5
27C
330
1F
100
AcDbEntity
  8
1-5ﾚｲﾔ
  6
Continuous
 62
     7
370
     9
100
AcDbLine
 10
-183.4192050761998
 20
-51.82531110717031
 30
0.0
 11
-339.5141087700798
 21
-51.82531110717031
 31
0.0
  0
TEXT
  5
27D
330
1F
100
AcDbEntity
  8
1-5ﾚｲﾔ
  6
Continuous
 62
     7
370
     9
100
AcDbText
 10
-339.5141087700798
 20
-60.68492825662377
 30
0.0
 40
6.858000000000001
  1
（別途）
 41
1.125
  7
ＭＳ ゴシック
100
AcDbText
  0
TEXT
  5
27E
330
1F
100
AcDbEntity
  8
1-5ﾚｲﾔ
  6
Continuous
 62
     7
370
     9
100
AcDbText
 10
-339.5141087700798
 20
-49.39648292400616
 30
0.0
 40
6.858000000000001
  1
位置決めプレート：ポリエチレン
 41
1.155555555555555
  7
ＭＳ ゴシック
100
AcDbText
  0
LINE
  5
27F
330
1F
100
AcDbEntity
  8
1-5ﾚｲﾔ
  6
Continuous
 62
     7
370
     9
100
AcDbLine
 10
-85.56510776071863
 20
-8.4870035195583
 30
0.0
 11
-42.99296958113161
 21
-82.22410983344597
 31
0.0
  0
TEXT
  5
280
330
1F
100
AcDbEntity
  8
1-5ﾚｲﾔ
  6
Continuous
 62
     7
370
     9
100
AcDbText
 10
-251.0930321508777
 20
-17.34662066901175
 30
0.0
 40
6.858000000000001
  1
（別途）
 41
1.125
  7
ＭＳ ゴシック
100
AcDbText
  0
LINE
  5
281
330
1F
100
AcDbEntity
  8
1-5ﾚｲﾔ
  6
Continuous
 62
     7
370
     9
100
AcDbLine
 10
-85.56510776071863
 20
-8.4870035195583
 30
0.0
 11
-251.0930321508777
 21
-8.4870035195583
 31
0.0
  0
TEXT
  5
282
330
1F
100
AcDbEntity
  8
1-5ﾚｲﾔ
  6
Continuous
 62
     7
370
     9
100
AcDbText
 10
-251.0930321508777
 20
-5.81579483142888
 30
0.0
 40
6.858000000000001
  1
養生シート：ポリエチレンフォーム
 41
1.15625
  7
ＭＳ ゴシック
100
AcDbText
  0
LINE
  5
283
330
1F
100
AcDbEntity
  8
1-5ﾚｲﾔ
  6
Continuous
 62
     7
370
     9
100
AcDbLine
 10
-134.9075486124702
 20
-209.5454198797613
 30
0.0
 11
-137.7776743552084
 21
-216.4745163735959
 31
0.0
  0
LINE
  5
284
330
1F
100
AcDbEntity
  8
1-5ﾚｲﾔ
  6
Continuous
 62
     7
370
     9
100
AcDbLine
 10
-134.9075486124702
 20
-209.5454198797613
 30
0.0
 11
-139.4732593300357
 21
-215.4955699319455
 31
0.0
  0
LINE
  5
285
330
1F
100
AcDbEntity
  8
1-5ﾚｲﾔ
  6
Continuous
 62
     7
370
     9
100
AcDbLine
 10
-157.7939066017589
 20
-249.1857547174191
 30
0.0
 11
-134.9075486124702
 21
-209.5454198797613
 31
0.0
  0
LINE
  5
286
330
1F
100
AcDbEntity
  8
1-5ﾚｲﾔ
  6
Continuous
 62
     7
370
     9
100
AcDbLine
 10
71.33135096595316
 20
-262.7278717358712
 30
0.0
 11
11.51410960192225
 21
-159.1213705247591
 31
0.0
  0
TEXT
  5
287
330
1F
100
AcDbEntity
  8
1-5ﾚｲﾔ
  6
Continuous
 62
     7
370
     9
100
AcDbText
 10
72.21904060238904
 20
-260.2036747675838
 30
0.0
 40
6.858000000000001
  1
長ネジボルトＢ：ＳＷＲＭ
 41
1.152777777777777
  7
ＭＳ ゴシック
100
AcDbText
  0
TEXT
  5
288
330
1F
100
AcDbEntity
  8
1-5ﾚｲﾔ
  6
Continuous
 62
     7
370
     9
100
AcDbText
 10
72.21904060238904
 20
-272.0251566282363
 30
0.0
 40
6.858000000000001
  1
（別途）
 41
1.125
  7
ＭＳ ゴシック
100
AcDbText
  0
LINE
  5
289
330
1F
100
AcDbEntity
  8
1-5ﾚｲﾔ
  6
Continuous
 62
     7
370
     9
100
AcDbLine
 10
71.33135096595316
 20
-262.7278717358712
 30
0.0
 11
196.719040602389
 21
-262.7278717358712
 31
0.0
  0
TEXT
  5
28A
330
1F
100
AcDbEntity
  8
1-5ﾚｲﾔ
  6
Continuous
 62
     7
370
     9
100
AcDbText
 10
96.9308248838646
 20
-228.9673281653003
 30
0.0
 40
6.858000000000001
  1
クロロプレンゴム
 41
1.145833333333333
  7
ＭＳ ゴシック
100
AcDbText
  0
LINE
  5
28B
330
1F
100
AcDbEntity
  8
1-5ﾚｲﾔ
  6
Continuous
 62
     7
370
     9
100
AcDbLine
 10
95.67812465771925
 20
-219.5344524279187
 30
0.0
 11
179.4308248838646
 21
-219.5344524279187
 31
0.0
  0
LINE
  5
28C
330
1F
100
AcDbEntity
  8
1-5ﾚｲﾔ
  6
Continuous
 62
     7
370
     9
100
AcDbLine
 10
76.66315185663171
 20
-186.5995534318948
 30
0.0
 11
81.22886257419714
 21
-192.549703484079
 31
0.0
  0
LINE
  5
28D
330
1F
100
AcDbEntity
  8
1-5ﾚｲﾔ
  6
Continuous
 62
     7
370
     9
100
AcDbLine
 10
76.66315185663171
 20
-186.5995534318948
 30
0.0
 11
79.53327759936991
 21
-193.5286499257294
 31
0.0
  0
LINE
  5
28E
330
1F
100
AcDbEntity
  8
1-5ﾚｲﾔ
  6
Continuous
 62
     7
370
     9
100
AcDbLine
 10
95.67812465771925
 20
-219.5344524279187
 30
0.0
 11
76.66315185663171
 21
-186.5995534318948
 31
0.0
  0
LINE
  5
28F
330
1F
100
AcDbEntity
  8
1-5ﾚｲﾔ
  6
Continuous
 62
     7
370
     9
100
AcDbLine
 10
21.81401385449374
 20
-134.1995919677015
 30
0.0
 11
27.76416390667805
 21
-129.633881250136
 31
0.0
  0
LINE
  5
290
330
1F
100
AcDbEntity
  8
1-5ﾚｲﾔ
  6
Continuous
 62
     7
370
     9
100
AcDbLine
 10
21.81401385449374
 20
-134.1995919677015
 30
0.0
 11
26.37972457205933
 21
-128.2494419155171
 31
0.0
  0
LINE
  5
291
330
1F
100
AcDbEntity
  8
1-5ﾚｲﾔ
  6
Continuous
 62
     7
370
     9
100
AcDbLine
 10
148.8434239943613
 20
-7.17018182783389
 30
0.0
 11
21.81401385449374
 21
-134.1995919677015
 31
0.0
  0
TEXT
  5
292
330
1F
100
AcDbEntity
  8
1-5ﾚｲﾔ
  6
Continuous
 62
     7
370
     9
100
AcDbText
 10
148.9835257398987
 20
-4.991772591909347
 30
0.0
 40
6.858000000000001
  1
固定プレートＢ
 41
1.142857142857143
  7
ＭＳ ゴシック
100
AcDbText
  0
LINE
  5
293
330
1F
100
AcDbEntity
  8
1-5ﾚｲﾔ
  6
Continuous
 62
     7
370
     9
100
AcDbLine
 10
148.8434239943613
 20
-7.17018182783389
 30
0.0
 11
220.9835257398987
 21
-7.17018182783389
 31
0.0
  0
TEXT
  5
294
330
1F
100
AcDbEntity
  8
1-5ﾚｲﾔ
  6
Continuous
 62
     7
370
     9
100
AcDbText
 10
148.9835257398987
 20
-16.5250752465742
 30
0.0
 40
6.858000000000001
  1
ＳＰＨＣ
 41
1.125
  7
ＭＳ ゴシック
100
AcDbText
  0
LINE
  5
295
330
1F
100
AcDbEntity
  8
1-5ﾚｲﾔ
  6
Continuous
 62
     7
370
     9
100
AcDbLine
 10
21.51415667824022
 20
-117.5995964266512
 30
0.0
 11
26.95446446083243
 21
-112.436937108948
 31
0.0
  0
LINE
  5
296
330
1F
100
AcDbEntity
  8
1-5ﾚｲﾔ
  6
Continuous
 62
     7
370
     9
100
AcDbLine
 10
21.51415667824022
 20
-117.5995964266512
 30
0.0
 11
25.43289591360968
 21
-111.2047951939955
 31
0.0
  0
TEXT
  5
297
330
1F
100
AcDbEntity
  8
1-5ﾚｲﾔ
  6
Continuous
 62
     7
370
     9
100
AcDbText
 10
187.7440755112416
 20
-35.96153779117839
 30
0.0
 40
6.858000000000001
  1
抜型本体
 41
1.125
  7
ＭＳ ゴシック
100
AcDbText
  0
TEXT
  5
298
330
1F
100
AcDbEntity
  8
1-5ﾚｲﾔ
  6
Continuous
 62
     7
370
     9
100
AcDbText
 10
187.7440755112416
 20
-47.32296061103161
 30
0.0
 40
6.858000000000001
  1
特殊発泡樹脂
 41
1.138888888888889
  7
ＭＳ ゴシック
100
AcDbText
  0
LINE
  5
299
330
1F
100
AcDbEntity
  8
1-5ﾚｲﾔ
  6
Continuous
 62
     7
370
     9
100
AcDbLine
 10
187.6892249926619
 20
-38.05322537135662
 30
0.0
 11
249.2440755112416
 21
-38.05322537135662
 31
0.0
  0
LINE
  5
29A
330
1F
100
AcDbEntity
  8
1-5ﾚｲﾔ
  6
Continuous
 62
     7
370
     9
100
AcDbLine
 10
146.0296554598511
 20
36.16423896330382
 30
0.0
 11
21.51415667824022
 21
-117.5995964266512
 31
0.0
  0
TEXT
  5
29B
330
1F
100
AcDbEntity
  8
1-5ﾚｲﾔ
  6
Continuous
 62
     7
370
     9
100
AcDbText
 10
146.1942605908023
 20
38.32216020936681
 30
0.0
 40
6.858000000000001
  1
蝶ナット：ＳＰＨＣ
 41
1.148148148148148
  7
ＭＳ ゴシック
100
AcDbText
  0
TEXT
  5
29C
330
1F
100
AcDbEntity
  8
1-5ﾚｲﾔ
  6
Continuous
 62
     7
370
     9
100
AcDbText
 10
146.1942605908023
 20
27.07487518555979
 30
0.0
 40
6.858000000000001
  1
（別途）
 41
1.125
  7
ＭＳ ゴシック
100
AcDbText
  0
LINE
  5
29D
330
1F
100
AcDbEntity
  8
1-5ﾚｲﾔ
  6
Continuous
 62
     7
370
     9
100
AcDbLine
 10
146.0296554598511
 20
36.16423896330382
 30
0.0
 11
239.1942605908023
 21
36.16423896330382
 31
0.0
  0
LINE
  5
29E
330
1F
100
AcDbEntity
  8
1-5ﾚｲﾔ
  6
Continuous
 62
     7
370
     9
100
AcDbLine
 10
-41.21627504942023
 20
-140.6233602520579
 30
0.0
 11
-38.34614930668204
 21
-133.6942637582231
 31
0.0
  0
LINE
  5
29F
330
1F
100
AcDbEntity
  8
1-5ﾚｲﾔ
  6
Continuous
 62
     7
370
     9
100
AcDbLine
 10
78.4780340273067
 20
66.6932644456859
 30
0.0
 11
-41.21627504942023
 21
-140.6233602520579
 31
0.0
  0
TEXT
  5
2A0
330
1F
100
AcDbEntity
  8
1-5ﾚｲﾔ
  6
Continuous
 62
     7
370
     9
100
AcDbText
 10
78.64263915825791
 20
68.8511856917489
 30
0.0
 40
6.858000000000001
  1
蝶ナット：ＳＰＨＣ
 41
1.148148148148148
  7
ＭＳ ゴシック
100
AcDbText
  0
TEXT
  5
2A1
330
1F
100
AcDbEntity
  8
1-5ﾚｲﾔ
  6
Continuous
 62
     7
370
     9
100
AcDbText
 10
78.64263915825791
 20
57.60390066794186
 30
0.0
 40
6.858000000000001
  1
（別途）
 41
1.125
  7
ＭＳ ゴシック
100
AcDbText
  0
LINE
  5
2A2
330
1F
100
AcDbEntity
  8
1-5ﾚｲﾔ
  6
Continuous
 62
     7
370
     9
100
AcDbLine
 10
78.4780340273067
 20
66.6932644456859
 30
0.0
 11
171.6426391582579
 21
66.6932644456859
 31
0.0
  0
LINE
  5
2A3
330
1F
100
AcDbEntity
  8
1-5ﾚｲﾔ
  6
Continuous
 62
     7
370
     9
100
AcDbLine
 10
-12.26108225095702
 20
-185.4563939688973
 30
0.0
 11
-15.13120799369522
 21
-192.385490462732
 31
0.0
  0
LINE
  5
2A4
330
1F
100
AcDbEntity
  8
1-5ﾚｲﾔ
  6
Continuous
 62
     7
370
     9
100
AcDbLine
 10
-12.26108225095702
 20
-185.4563939688973
 30
0.0
 11
-16.82679296852244
 21
-191.4065440210816
 31
0.0
  0
LINE
  5
2A5
330
1F
100
AcDbEntity
  8
1-5ﾚｲﾔ
  6
Continuous
 62
     7
370
     9
100
AcDbLine
 10
-45.30486958359094
 20
-242.6899125035203
 30
0.0
 11
-12.26108225095702
 21
-185.4563939688973
 31
0.0
  0
TEXT
  5
2A6
330
1F
100
AcDbEntity
  8
1-5ﾚｲﾔ
  6
Continuous
 62
     7
370
     9
100
AcDbText
 10
-117.7791981867417
 20
-240.4371194554904
 30
0.0
 40
6.858000000000001
  1
固定プレートＡ
 41
1.142857142857143
  7
ＭＳ ゴシック
100
AcDbText
  0
LINE
  5
2A7
330
1F
100
AcDbEntity
  8
1-5ﾚｲﾔ
  6
Continuous
 62
     7
370
     9
100
AcDbLine
 10
-45.30486958359094
 20
-242.6899125035203
 30
0.0
 11
-117.7791981867417
 21
-242.6899125035203
 31
0.0
  0
TEXT
  5
2A8
330
1F
100
AcDbEntity
  8
1-5ﾚｲﾔ
  6
Continuous
 62
     7
370
     9
100
AcDbText
 10
-117.7791981867417
 20
-251.7526701778624
 30
0.0
 40
6.858000000000001
  1
ＳＰＨＣ
 41
1.125
  7
ＭＳ ゴシック
100
AcDbText
  0
LINE
  5
2A9
330
1F
100
AcDbEntity
  8
1-5ﾚｲﾔ
  6
Continuous
 62
     7
370
     9
100
AcDbLine
 10
-26.95182727382334
 20
-284.3103467178938
 30
0.0
 11
-123.7510407420832
 21
-284.3103467178938
 31
0.0
  0
TEXT
  5
2AA
330
1F
100
AcDbEntity
  8
1-5ﾚｲﾔ
  6
Continuous
 62
     7
370
     9
100
AcDbText
 10
-123.7510407420832
 20
-293.8014397846054
 30
0.0
 40
6.858000000000001
  1
（別途）
 41
1.125
  7
ＭＳ ゴシック
100
AcDbText
  0
TEXT
  5
2AB
330
1F
100
AcDbEntity
  8
1-5ﾚｲﾔ
  6
Continuous
 62
     7
370
     9
100
AcDbText
 10
-123.7510407420832
 20
-280.792488081725
 30
0.0
 40
6.858000000000001
  1
ルーフドレイン本体
 41
1.148148148148148
  7
ＭＳ ゴシック
100
AcDbText
  0
LINE
  5
2AC
330
1F
100
AcDbEntity
  8
寸法
  6
Continuous
 62
     7
370
     9
100
AcDbLine
 10
-26.95182727382329
 20
-284.3103467178938
 30
0.0
 11
-4.237703556813873
 21
-199.5400829566094
 31
0.0
  0
LINE
  5
2AD
330
1F
100
AcDbEntity
  8
寸法
  6
Continuous
 62
     7
370
     9
100
AcDbLine
 10
-4.237703556813873
 20
-199.5400829566094
 30
0.0
 11
-5.216649998464249
 21
-206.975919416913
 31
0.0
  0
LINE
  5
2AE
330
1F
100
AcDbEntity
  8
寸法
  6
Continuous
 62
     7
370
     9
100
AcDbLine
 10
-4.237703556813873
 20
-199.5400829566094
 30
0.0
 11
-7.107829299552076
 21
-206.469179450444
 31
0.0
  0
LINE
  5
2AF
330
1F
100
AcDbEntity
  8
寸法
  6
Continuous
 62
     7
370
     9
100
AcDbLine
 10
187.6892249926619
 20
-38.05322537135662
 30
0.0
 11
89.14290668243095
 21
-136.5995436815875
 31
0.0
  0
LINE
  5
2B0
330
1F
100
AcDbEntity
  8
寸法
  6
Continuous
 62
     7
370
     9
100
AcDbLine
 10
89.14290668243095
 20
-136.5995436815875
 30
0.0
 11
93.70861739999637
 21
-130.6493936294032
 31
0.0
  0
LINE
  5
2B1
330
1F
100
AcDbEntity
  8
寸法
  6
Continuous
 62
     7
370
     9
100
AcDbLine
 10
89.14290668243095
 20
-136.5995436815875
 30
0.0
 11
95.09305673461526
 21
-132.0338329640221
 31
0.0
  0
LINE
  5
2B2
330
1F
100
AcDbEntity
  8
建具
  6
Continuous
 62
     4
370
     9
100
AcDbLine
 10
-82.55856724449723
 20
304.5665020100653
 30
0.0
 11
-146.447087356406
 21
304.5665020100653
 31
0.0
  0
LINE
  5
2B3
330
1F
100
AcDbEntity
  8
建具
  6
Continuous
 62
     4
370
     9
100
AcDbLine
 10
-82.55856724449723
 20
198.5665289044175
 30
0.0
 11
-146.447087356406
 21
198.5665289044175
 31
0.0
  0
LINE
  5
2B4
330
1F
100
AcDbEntity
  8
087
  6
Continuous
 62
     4
370
     9
100
AcDbLine
 10
-146.385996054882
 20
-106.7577806528204
 30
0.0
 11
-113.2849736630656
 21
-106.0836643799377
 31
0.0
  0
LINE
  5
2B5
330
1F
100
AcDbEntity
  8
087
  6
Continuous
 62
     4
370
     9
100
AcDbLine
 10
-146.447087356406
 20
-103.7584107995687
 30
0.0
 11
-118.3897180534917
 21
-103.1870405132214
 31
0.0
  0
LINE
  5
2B6
330
1F
100
AcDbEntity
  8
087
  6
Continuous
 62
     4
370
     9
100
AcDbLine
 10
-82.55856724449723
 20
-102.4573345364944
 30
0.0
 11
-118.3897180517204
 21
-103.1870405131854
 31
0.0
  0
LINE
  5
2B7
330
1F
100
AcDbEntity
  8
087
  6
Continuous
 62
     4
370
     9
100
AcDbLine
 10
-82.49747594297321
 20
-105.4567043897461
 30
0.0
 11
-113.2849736697336
 21
-106.0836643800735
 31
0.0
  0
LINE
  5
2B8
330
1F
100
AcDbEntity
  8
087
  6
Continuous
 62
     4
370
     9
100
AcDbLine
 10
-144.3499166186866
 20
-206.7370771713892
 30
0.0
 11
-108.3722133893295
 21
-206.0043785524998
 31
0.0
  0
LINE
  5
2B9
330
1F
100
AcDbEntity
  8
087
  6
Continuous
 62
     4
370
     9
100
AcDbLine
 10
-80.46144605365657
 20
-205.4359761348755
 30
0.0
 11
-108.3722134343573
 21
-206.0043785534168
 31
0.0
  0
LINE
  5
2BA
330
1F
100
AcDbEntity
  8
087
  6
Continuous
 62
     4
370
     9
100
AcDbLine
 10
-80.40032997869315
 20
-208.4353707615666
 30
0.0
 11
-144.2888467369104
 21
-209.7364678608834
 31
0.0
  0
LINE
  5
2BB
330
1F
100
AcDbEntity
  8
通り芯
  6
Continuous
 62
     3
370
     9
100
AcDbLine
 10
-24.48580570885275
 20
-171.5995579388344
 30
0.0
 11
-12.86216200310918
 21
-171.5995579388344
 31
0.0
  0
ARC
  5
2BC
330
1F
100
AcDbEntity
  8
通り芯
  6
Continuous
 62
     3
370
     9
100
AcDbCircle
 10
-24.48580570885275
 20
-156.5995579388344
 30
0.0
 40
15.0
100
AcDbArc
 50
180.0
 51
198.7961998440835
  0
ARC
  5
2BD
330
1F
100
AcDbEntity
  8
通り芯
  6
Continuous
 62
     3
370
     9
100
AcDbCircle
 10
-24.48580570885275
 20
-156.5995579388344
 30
0.0
 40
15.0
100
AcDbArc
 50
222.8332888809375
 51
261.2020580360393
  0
LINE
  5
2BE
330
1F
100
AcDbEntity
  8
1-5ﾚｲﾔ
  6
Continuous
 62
     7
370
     9
100
AcDbLine
 10
-301.3220446755777
 20
-209.757053251448
 30
0.0
 11
-174.7742643530759
 21
-209.757053251448
 31
0.0
  0
TEXT
  5
2BF
330
1F
100
AcDbEntity
  8
1-5ﾚｲﾔ
  6
Continuous
 62
     7
370
     9
100
AcDbText
 10
-301.3220446755777
 20
-218.6166704009014
 30
0.0
 40
6.858000000000001
  1
（別途）
 41
1.125
  7
ＭＳ ゴシック
100
AcDbText
  0
TEXT
  5
2C0
330
1F
100
AcDbEntity
  8
1-5ﾚｲﾔ
  6
Continuous
 62
     7
370
     9
100
AcDbText
 10
-300.4343550391418
 20
-207.2328562831606
 30
0.0
 40
6.858000000000001
  1
長ネジボルトＡ：ＳＷＲＭ
 41
1.152777777777777
  7
ＭＳ ゴシック
100
AcDbText
  0
LINE
  5
2C1
330
1F
100
AcDbEntity
  8
1-5ﾚｲﾔ
  6
Continuous
 62
     7
370
     9
100
AcDbLine
 10
-174.7742643530759
 20
-209.757053251448
 30
0.0
 11
-125.357933437756
 21
-160.340722336128
 31
0.0
  0
LINE
  5
2C2
330
1F
100
AcDbEntity
  8
1-5ﾚｲﾔ
  6
Continuous
 62
     7
370
     9
100
AcDbLine
 10
-125.357933437756
 20
-160.340722336128
 30
0.0
 11
-129.9236441553214
 21
-166.2908723883124
 31
0.0
  0
LINE
  5
2C3
330
1F
100
AcDbEntity
  8
1-5ﾚｲﾔ
  6
Continuous
 62
     7
370
     9
100
AcDbLine
 10
-125.357933437756
 20
-160.340722336128
 30
0.0
 11
-131.3080834899403
 21
-164.9064330536935
 31
0.0
  0
LINE
  5
2C4
330
1F
100
AcDbEntity
  8
その他
  6
Continuous
 62
     7
370
     9
100
AcDbLine
 10
162.3064114778352
 20
376.5665398330096
 30
0.0
 11
71.76603666817564
 21
376.5665398330096
 31
0.0
  0
LINE
  5
2C5
330
1F
100
AcDbEntity
  8
その他
  6
Continuous
 62
     7
370
     9
100
AcDbLine
 10
162.3064114778352
 20
126.5665282416323
 30
0.0
 11
71.76603666817564
 21
126.5665282416323
 31
0.0
  0
ARC
  5
2C6
330
1F
100
AcDbEntity
  8
062
  6
Continuous
 62
     2
370
     9
100
AcDbCircle
 10
7.514090985021369
 20
251.5665030705217
 30
0.0
 40
5.000000046026752
100
AcDbArc
 50
283.7790346118746
 51
76.22096538812536
  0
ARC
  5
2C7
330
1F
100
AcDbEntity
  8
062
  6
Continuous
 62
     2
370
     9
100
AcDbCircle
 10
7.514090985021369
 20
251.5665030705217
 30
0.0
 40
3.799999802729337
100
AcDbArc
 50
288.2637821337359
 51
71.73621786626408
  0
LINE
  5
2C8
330
1F
100
AcDbEntity
  8
躯体
  6
JWW_DASHED1
 62
     2
370
     9
100
AcDbLine
 10
-54.48580120191303
 20
-171.5995579388344
 30
0.0
 11
-54.48580120191303
 21
-136.5995436815875
 31
0.0
  0
LINE
  5
2C9
330
1F
100
AcDbEntity
  8
躯体
  6
Continuous
 62
     2
370
     9
100
AcDbLine
 10
-26.73594185690789
 20
-171.5995441054883
 30
0.0
 11
3.514072368120424
 21
-171.5995331653951
 31
0.0
  0
LINE
  5
2CA
330
1F
100
AcDbEntity
  8
躯体
  6
JWW_DASHED1
 62
     2
370
     9
100
AcDbLine
 10
-54.48580120191303
 20
-171.5995579388344
 30
0.0
 11
-26.73594201679977
 21
-171.5995434659126
 31
0.0
  0
LINE
  5
2CB
330
1F
100
AcDbEntity
  8
通り芯
  6
Continuous
 62
     3
370
     9
100
AcDbLine
 10
-39.48580570885275
 20
-156.5995579388344
 30
0.0
 11
-39.48580570885275
 21
-110.0995856344665
 31
0.0
  0
LINE
  5
2CC
330
1F
100
AcDbEntity
  8
通り芯
  6
Continuous
 62
     3
370
     9
100
AcDbLine
 10
-39.48580570885275
 20
-101.0995045565922
 30
0.0
 11
-39.48580570885275
 21
-81.59953543359339
 31
0.0
  0
LINE
  5
2CD
330
1F
100
AcDbEntity
  8
1-5ﾚｲﾔ
  6
Continuous
 62
     7
370
     9
100
AcDbLine
 10
-157.7939066017589
 20
-249.1857547174191
 30
0.0
 11
-326.5448548107412
 21
-249.1857547174191
 31
0.0
  0
TEXT
  5
2CE
330
1F
100
AcDbEntity
  8
1-5ﾚｲﾔ
  6
Continuous
 62
     7
370
     9
100
AcDbText
 10
-326.5448548107412
 20
-258.0453718668725
 30
0.0
 40
6.858000000000001
  1
（別途）
 41
1.125
  7
ＭＳ ゴシック
100
AcDbText
  0
TEXT
  5
2CF
330
1F
100
AcDbEntity
  8
1-5ﾚｲﾔ
  6
Continuous
 62
     7
370
     9
100
AcDbText
 10
-326.5448548107412
 20
-246.8098933347917
 30
0.0
 40
6.858000000000001
  1
スペーサー：硬質ポリ塩化ビニル管
 41
1.15625
  7
ＭＳ ゴシック
100
AcDbText
  0
TEXT
  5
2D0
330
1F
100
AcDbEntity
  8
1-5ﾚｲﾔ
  6
Continuous
 62
     7
370
     9
100
AcDbText
 10
96.9308248838646
 20
-216.6805489341606
 30
0.0
 40
6.858000000000001
  1
ゴム部材
 41
1.125
  7
ＭＳ ゴシック
100
AcDbText
  0
ENDSEC
  0
SECTION
  2
OBJECTS
  0
DICTIONARY
  5
C
330
0
100
AcDbDictionary
281
     1
  3
ACAD_GROUP
350
D
  3
ACAD_LAYOUT
350
1A
  3
ACAD_MLEADERSTYLE
350
2D2
  3
ACAD_MLINESTYLE
350
17
  3
ACAD_PLOTSETTINGS
350
19
  3
ACAD_PLOTSTYLENAME
350
E
  3
ACAD_TABLESTYLE
350
2D1
  3
ACAD_VISUALSTYLE
350
2A
  0
DICTIONARY
  5
D
102
{ACAD_REACTORS
330
C
102
}
330
C
100
AcDbDictionary
281
     1
  0
DICTIONARY
  5
1A
102
{ACAD_REACTORS
330
C
102
}
330
C
100
AcDbDictionary
281
     1
  3
Layout1
350
1E
  3
Layout2
350
26
  3
Model
350
22
  0
DICTIONARY
  5
2D2
102
{ACAD_REACTORS
330
C
102
}
330
C
100
AcDbDictionary
281
     1
  0
DICTIONARY
  5
17
102
{ACAD_REACTORS
330
C
102
}
330
C
100
AcDbDictionary
281
     1
  3
Standard
350
18
  0
DICTIONARY
  5
19
102
{ACAD_REACTORS
330
C
102
}
330
C
100
AcDbDictionary
281
     1
  0
ACDBDICTIONARYWDFLT
  5
E
102
{ACAD_REACTORS
330
C
102
}
330
C
100
AcDbDictionary
281
     1
  3
Normal
350
F
100
AcDbDictionaryWithDefault
340
F
  0
DICTIONARY
  5
2D1
102
{ACAD_REACTORS
330
C
102
}
330
C
100
AcDbDictionary
281
     1
  0
DICTIONARY
  5
2A
102
{ACAD_REACTORS
330
C
102
}
330
C
100
AcDbDictionary
281
     1
  3
2dWireframe
350
2F
  3
3D Hidden
350
31
  3
3dWireframe
350
30
  3
Basic
350
32
  3
Brighten
350
36
  3
ColorChange
350
3A
  3
Conceptual
350
34
  3
Dim
350
35
  3
Facepattern
350
39
  3
Flat
350
2B
  3
FlatWithEdges
350
2C
  3
Gouraud
350
2D
  3
GouraudWithEdges
350
2E
  3
Linepattern
350
38
  3
Realistic
350
33
  3
Thicken
350
37
  0
LAYOUT
  5
1E
102
{ACAD_REACTORS
330
1A
102
}
330
1A
100
AcDbPlotSettings
  1

  2
none_device
  4

  6

 40
0.0
 41
0.0
 42
0.0
 43
0.0
 44
0.0
 45
0.0
 46
0.0
 47
0.0
 48
0.0
 49
0.0
140
0.0
141
0.0
142
1.0
143
1.0
 70
   688
 72
     0
 73
     0
 74
     5
  7

 75
    16
 76
     0
 77
     5
 78
   300
147
1.0
148
0.0
149
0.0
100
AcDbLayout
  1
Layout1
 70
     1
 71
     1
 10
0.0
 20
0.0
 11
420.0
 21
297.0
 12
0.0
 22
0.0
 32
0.0
 14
1.000000000000000E+20
 24
1.000000000000000E+20
 34
1.000000000000000E+20
 15
-1.000000000000000E+20
 25
-1.000000000000000E+20
 35
-1.000000000000000E+20
146
0.0
 13
0.0
 23
0.0
 33
0.0
 16
1.0
 26
0.0
 36
0.0
 17
0.0
 27
1.0
 37
0.0
 76
     0
330
1B
  0
LAYOUT
  5
26
102
{ACAD_REACTORS
330
1A
102
}
330
1A
100
AcDbPlotSettings
  1

  2
none_device
  4

  6

 40
0.0
 41
0.0
 42
0.0
 43
0.0
 44
0.0
 45
0.0
 46
0.0
 47
0.0
 48
0.0
 49
0.0
140
0.0
141
0.0
142
1.0
143
1.0
 70
   688
 72
     0
 73
     0
 74
     5
  7

 75
    16
 76
     0
 77
     5
 78
   300
147
1.0
148
0.0
149
0.0
100
AcDbLayout
  1
Layout2
 70
     1
 71
     2
 10
0.0
 20
0.0
 11
0.0
 21
0.0
 12
0.0
 22
0.0
 32
0.0
 14
0.0
 24
0.0
 34
0.0
 15
0.0
 25
0.0
 35
0.0
146
0.0
 13
0.0
 23
0.0
 33
0.0
 16
1.0
 26
0.0
 36
0.0
 17
0.0
 27
1.0
 37
0.0
 76
     0
330
23
  0
LAYOUT
  5
22
102
{ACAD_REACTORS
330
1A
102
}
330
1A
100
AcDbPlotSettings
  1

  2
none_device
  4

  6

 40
0.0
 41
0.0
 42
0.0
 43
0.0
 44
0.0
 45
0.0
 46
0.0
 47
0.0
 48
0.0
 49
0.0
140
0.0
141
0.0
142
1.0
143
1.0
 70
  1712
 72
     0
 73
     0
 74
     0
  7

 75
     0
 76
     0
 77
     5
 78
   300
147
1.0
148
0.0
149
0.0
100
AcDbLayout
  1
Model
 70
     1
 71
     0
 10
-630.0
 20
-445.5
 11
630.0
 21
445.5
 12
0.0
 22
0.0
 32
0.0
 14
-630.0
 24
-445.5
 34
0.0
 15
630.0
 25
445.5
 35
0.0
146
0.0
 13
0.0
 23
0.0
 33
0.0
 16
1.0
 26
0.0
 36
0.0
 17
0.0
 27
1.0
 37
0.0
 76
     0
330
1F
331
29
  0
MLINESTYLE
  5
18
102
{ACAD_REACTORS
330
17
102
}
330
17
100
AcDbMlineStyle
  2
Standard
 70
     0
  3

 62
   256
 51
90.0
 52
90.0
 71
     2
 49
0.5
 62
   256
  6
BYLAYER
 49
-0.5
 62
   256
  6
BYLAYER
  0
ACDBPLACEHOLDER
  5
F
102
{ACAD_REACTORS
330
E
102
}
330
E
  0
VISUALSTYLE
  5
2F
102
{ACAD_REACTORS
330
2A
102
}
330
2A
100
AcDbVisualStyle
  2
2dWireframe
 70
     4
 71
     0
 72
     2
 73
     0
 90
        0
 40
-0.6
 41
-30.0
 62
     5
 63
     7
421
 16777215
 74
     1
 91
        4
 64
     7
 65
   257
 75
     1
175
     1
 42
1.0
 92
        0
 66
   257
 43
1.0
 76
     1
 77
     6
 78
     2
 67
     7
 79
     5
170
     0
171
     0
290
     0
174
     0
 93
        1
 44
0.0
173
     0
291
     0
 45
0.0
1001
ACAD
1000
AcDbSavedByObjectVersion
1070
     0
  0
VISUALSTYLE
  5
31
102
{ACAD_REACTORS
330
2A
102
}
330
2A
100
AcDbVisualStyle
  2
3D Hidden
 70
     6
 71
     1
 72
     2
 73
     2
 90
        0
 40
-0.6
 41
-30.0
 62
     5
 63
     7
421
 16777215
 74
     2
 91
        2
 64
     7
 65
   257
 75
     2
175
     1
 42
40.0
 92
        0
 66
   257
 43
1.0
 76
     1
 77
     6
 78
     2
 67
     7
 79
     3
170
     0
171
     0
290
     0
174
     0
 93
        1
 44
0.0
173
     0
291
     0
 45
0.0
1001
ACAD
1000
AcDbSavedByObjectVersion
1070
     0
  0
VISUALSTYLE
  5
30
102
{ACAD_REACTORS
330
2A
102
}
330
2A
100
AcDbVisualStyle
  2
3dWireframe
 70
     5
 71
     0
 72
     2
 73
     0
 90
        0
 40
-0.6
 41
-30.0
 62
     5
 63
     7
421
 16777215
 74
     1
 91
        4
 64
     7
 65
   257
 75
     1
175
     1
 42
1.0
 92
        0
 66
   257
 43
1.0
 76
     1
 77
     6
 78
     2
 67
     7
 79
     5
170
     0
171
     0
290
     0
174
     0
 93
        1
 44
0.0
173
     0
291
     0
 45
0.0
1001
ACAD
1000
AcDbSavedByObjectVersion
1070
     0
  0
VISUALSTYLE
  5
32
102
{ACAD_REACTORS
330
2A
102
}
330
2A
100
AcDbVisualStyle
  2
Basic
 70
     7
 71
     1
 72
     0
 73
     1
 90
        0
 40
-0.6
 41
-30.0
 62
     5
 63
     7
421
 16777215
 74
     0
 91
        4
 64
     7
 65
   257
 75
     1
175
     1
 42
1.0
 92
        8
 66
     7
 43
1.0
 76
     1
 77
     6
 78
     2
 67
     7
 79
     5
170
     0
171
     0
290
     0
174
     0
 93
        1
 44
0.0
173
     0
291
     1
 45
0.0
1001
ACAD
1000
AcDbSavedByObjectVersion
1070
     0
  0
VISUALSTYLE
  5
36
102
{ACAD_REACTORS
330
2A
102
}
330
2A
100
AcDbVisualStyle
  2
Brighten
 70
    12
 71
     2
 72
     2
 73
     0
 90
        0
 40
-0.6
 41
-30.0
 62
     5
 63
     7
421
 16777215
 74
     1
 91
        4
 64
     7
 65
   257
 75
     1
175
     1
 42
1.0
 92
        8
 66
     7
 43
1.0
 76
     1
 77
     6
 78
     2
 67
     7
 79
     5
170
     0
171
     0
290
     0
174
     0
 93
        1
 44
50.0
173
     0
291
     1
 45
0.0
1001
ACAD
1000
AcDbSavedByObjectVersion
1070
     0
  0
VISUALSTYLE
  5
3A
102
{ACAD_REACTORS
330
2A
102
}
330
2A
100
AcDbVisualStyle
  2
ColorChange
 70
    16
 71
     2
 72
     2
 73
     3
 90
        0
 40
-0.6
 41
-30.0
 62
     5
 63
     8
421
  8421504
 74
     1
 91
        4
 64
     7
 65
   257
 75
     1
175
     1
 42
1.0
 92
        8
 66
     8
424
  8421504
 43
1.0
 76
     1
 77
     6
 78
     2
 67
     7
 79
     5
170
     0
171
     0
290
     0
174
     0
 93
        1
 44
0.0
173
     0
291
     1
 45
0.0
1001
ACAD
1000
AcDbSavedByObjectVersion
1070
     0
  0
VISUALSTYLE
  5
34
102
{ACAD_REACTORS
330
2A
102
}
330
2A
100
AcDbVisualStyle
  2
Conceptual
 70
     9
 71
     3
 72
     2
 73
     0
 90
        0
 40
-0.6
 41
-30.0
 62
     5
 63
     7
421
 16777215
 74
     2
 91
        2
 64
     7
 65
   257
 75
     1
175
     1
 42
40.0
 92
        8
 66
     7
 43
1.0
 76
     1
 77
     6
 78
     2
 67
     7
 79
     3
170
     0
171
     0
290
     0
174
     0
 93
        1
 44
0.0
173
     0
291
     0
 45
0.0
1001
ACAD
1000
AcDbSavedByObjectVersion
1070
     0
  0
VISUALSTYLE
  5
35
102
{ACAD_REACTORS
330
2A
102
}
330
2A
100
AcDbVisualStyle
  2
Dim
 70
    11
 71
     2
 72
     2
 73
     0
 90
        0
 40
-0.6
 41
-30.0
 62
     5
 63
     7
421
 16777215
 74
     1
 91
        4
 64
     7
 65
   257
 75
     1
175
     1
 42
1.0
 92
        8
 66
     7
 43
1.0
 76
     1
 77
     6
 78
     2
 67
     7
 79
     5
170
     0
171
     0
290
     0
174
     0
 93
        1
 44
-50.0
173
     0
291
     1
 45
0.0
1001
ACAD
1000
AcDbSavedByObjectVersion
1070
     0
  0
VISUALSTYLE
  5
39
102
{ACAD_REACTORS
330
2A
102
}
330
2A
100
AcDbVisualStyle
  2
Facepattern
 70
    15
 71
     2
 72
     2
 73
     0
 90
        0
 40
-0.6
 41
-30.0
 62
     5
 63
     7
421
 16777215
 74
     1
 91
        4
 64
     7
 65
   257
 75
     1
175
     1
 42
1.0
 92
        8
 66
     7
 43
1.0
 76
     1
 77
     6
 78
     2
 67
     7
 79
     5
170
     0
171
     0
290
     0
174
     0
 93
        1
 44
0.0
173
     0
291
     1
 45
0.0
1001
ACAD
1000
AcDbSavedByObjectVersion
1070
     0
  0
VISUALSTYLE
  5
2B
102
{ACAD_REACTORS
330
2A
102
}
330
2A
100
AcDbVisualStyle
  2
Flat
 70
     0
 71
     2
 72
     1
 73
     1
 90
        2
 40
-0.6
 41
30.0
 62
     5
 63
     7
421
 16777215
 74
     0
 91
        4
 64
     7
 65
   257
 75
     1
175
     1
 42
1.0
 92
        8
 66
     7
 43
1.0
 76
     1
 77
     6
 78
     2
 67
     7
 79
     5
170
     0
171
     0
290
     0
174
     0
 93
       13
 44
0.0
173
     0
291
     1
 45
0.0
1001
ACAD
1000
AcDbSavedByObjectVersion
1070
     0
  0
VISUALSTYLE
  5
2C
102
{ACAD_REACTORS
330
2A
102
}
330
2A
100
AcDbVisualStyle
  2
FlatWithEdges
 70
     1
 71
     2
 72
     1
 73
     1
 90
        2
 40
-0.6
 41
30.0
 62
     5
 63
     7
421
 16777215
 74
     1
 91
        4
 64
     7
 65
   257
 75
     1
175
     1
 42
1.0
 92
        0
 66
   257
 43
1.0
 76
     1
 77
     6
 78
     2
 67
     7
 79
     5
170
     0
171
     0
290
     0
174
     0
 93
       13
 44
0.0
173
     0
291
     1
 45
0.0
1001
ACAD
1000
AcDbSavedByObjectVersion
1070
     0
  0
VISUALSTYLE
  5
2D
102
{ACAD_REACTORS
330
2A
102
}
330
2A
100
AcDbVisualStyle
  2
Gouraud
 70
     2
 71
     2
 72
     2
 73
     1
 90
        2
 40
-0.6
 41
30.0
 62
     5
 63
     7
421
 16777215
 74
     0
 91
        4
 64
     7
 65
   257
 75
     1
175
     1
 42
1.0
 92
        0
 66
     7
 43
1.0
 76
     1
 77
     6
 78
     2
 67
     7
 79
     5
170
     0
171
     0
290
     0
174
     0
 93
       13
 44
0.0
173
     0
291
     1
 45
0.0
1001
ACAD
1000
AcDbSavedByObjectVersion
1070
     0
  0
VISUALSTYLE
  5
2E
102
{ACAD_REACTORS
330
2A
102
}
330
2A
100
AcDbVisualStyle
  2
GouraudWithEdges
 70
     3
 71
     2
 72
     2
 73
     1
 90
        2
 40
-0.6
 41
30.0
 62
     5
 63
     7
421
 16777215
 74
     1
 91
        4
 64
     7
 65
   257
 75
     1
175
     1
 42
1.0
 92
        0
 66
   257
 43
1.0
 76
     1
 77
     6
 78
     2
 67
     7
 79
     5
170
     0
171
     0
290
     0
174
     0
 93
       13
 44
0.0
173
     0
291
     1
 45
0.0
1001
ACAD
1000
AcDbSavedByObjectVersion
1070
     0
  0
VISUALSTYLE
  5
38
102
{ACAD_REACTORS
330
2A
102
}
330
2A
100
AcDbVisualStyle
  2
Linepattern
 70
    14
 71
     2
 72
     2
 73
     0
 90
        0
 40
-0.6
 41
-30.0
 62
     5
 63
     7
421
 16777215
 74
     1
 91
        4
 64
     7
 65
   257
 75
     7
175
     7
 42
1.0
 92
        8
 66
     7
 43
1.0
 76
     1
 77
     6
 78
     2
 67
     7
 79
     5
170
     0
171
     0
290
     0
174
     0
 93
        1
 44
0.0
173
     0
291
     1
 45
0.0
1001
ACAD
1000
AcDbSavedByObjectVersion
1070
     0
  0
VISUALSTYLE
  5
33
102
{ACAD_REACTORS
330
2A
102
}
330
2A
100
AcDbVisualStyle
  2
Realistic
 70
     8
 71
     2
 72
     2
 73
     0
 90
        0
 40
-0.6
 41
-30.0
 62
     5
 63
     7
421
 16777215
 74
     1
 91
        0
 64
     7
 65
   257
 75
     1
175
     1
 42
1.0
 92
        8
 66
     8
424
  7895160
 43
1.0
 76
     1
 77
     6
 78
     2
 67
     7
 79
     5
170
     0
171
     0
290
     0
174
     0
 93
       13
 44
0.0
173
     0
291
     0
 45
0.0
1001
ACAD
1000
AcDbSavedByObjectVersion
1070
     0
  0
VISUALSTYLE
  5
37
102
{ACAD_REACTORS
330
2A
102
}
330
2A
100
AcDbVisualStyle
  2
Thicken
 70
    13
 71
     2
 72
     2
 73
     0
 90
        0
 40
-0.6
 41
-30.0
 62
     5
 63
     7
421
 16777215
 74
     1
 91
        4
 64
     7
 65
   257
 75
     1
175
     1
 42
1.0
 92
       12
 66
     7
 43
1.0
 76
     1
 77
     6
 78
     2
 67
     7
 79
     5
170
     0
171
     0
290
     0
174
     0
 93
        1
 44
0.0
173
     0
291
     1
 45
0.0
1001
ACAD
1000
AcDbSavedByObjectVersion
1070
     0
  0
ENDSEC
  0
EOF
