  0
SECTION
  2
HEADER
  9
$ACADVER
  1
AC1018
  9
$ACADMAINTVER
 70
     0
  9
$DWGCODEPAGE
  3
ANSI_932
  9
$INSBASE
 10
0.0
 20
0.0
 30
0.0
  9
$EXTMIN
 10
-2100.0
 20
-1485.0
 30
0.0
  9
$EXTMAX
 10
2100.0
 20
1485.0
 30
0.0
  9
$LIMMIN
 10
-2100.0
 20
-1485.0
  9
$LIMMAX
 10
2100.0
 20
1485.0
  9
$ORTHOMODE
 70
     0
  9
$REGENMODE
 70
     1
  9
$FILLMODE
 70
     1
  9
$QTEXTMODE
 70
     0
  9
$MIRRTEXT
 70
     1
  9
$LTSCALE
 40
10.0
  9
$ATTMODE
 70
     1
  9
$TEXTSIZE
 40
2.5
  9
$TRACEWID
 40
1.0
  9
$TEXTSTYLE
  7
Standard
  9
$CLAYER
  8
0
  9
$CELTYPE
  6
ByLayer
  9
$CECOLOR
 62
   256
  9
$CELTSCALE
 40
1.0
  9
$DISPSILH
 70
     0
  9
$DIMSCALE
 40
1.0
  9
$DIMASZ
 40
2.5
  9
$DIMEXO
 40
0.625
  9
$DIMDLI
 40
3.75
  9
$DIMRND
 40
0.0
  9
$DIMDLE
 40
0.0
  9
$DIMEXE
 40
1.25
  9
$DIMTP
 40
0.0
  9
$DIMTM
 40
0.0
  9
$DIMTXT
 40
2.5
  9
$DIMCEN
 40
2.5
  9
$DIMTSZ
 40
0.0
  9
$DIMTOL
 70
     0
  9
$DIMLIM
 70
     0
  9
$DIMTIH
 70
     0
  9
$DIMTOH
 70
     0
  9
$DIMSE1
 70
     0
  9
$DIMSE2
 70
     0
  9
$DIMTAD
 70
     1
  9
$DIMZIN
 70
     8
  9
$DIMBLK
  1

  9
$DIMASO
 70
     1
  9
$DIMSHO
 70
     1
  9
$DIMPOST
  1

  9
$DIMAPOST
  1

  9
$DIMALT
 70
     0
  9
$DIMALTD
 70
     3
  9
$DIMALTF
 40
0.03937007874016
  9
$DIMLFAC
 40
1.0
  9
$DIMTOFL
 70
     1
  9
$DIMTVP
 40
0.0
  9
$DIMTIX
 70
     0
  9
$DIMSOXD
 70
     0
  9
$DIMSAH
 70
     0
  9
$DIMBLK1
  1

  9
$DIMBLK2
  1

  9
$DIMSTYLE
  2
ISO-25
  9
$DIMCLRD
 70
     0
  9
$DIMCLRE
 70
     0
  9
$DIMCLRT
 70
     0
  9
$DIMTFAC
 40
1.0
  9
$DIMGAP
 40
0.625
  9
$DIMJUST
 70
     0
  9
$DIMSD1
 70
     0
  9
$DIMSD2
 70
     0
  9
$DIMTOLJ
 70
     0
  9
$DIMTZIN
 70
     8
  9
$DIMALTZ
 70
     0
  9
$DIMALTTZ
 70
     0
  9
$DIMUPT
 70
     0
  9
$DIMDEC
 70
     2
  9
$DIMTDEC
 70
     2
  9
$DIMALTU
 70
     2
  9
$DIMALTTD
 70
     3
  9
$DIMTXSTY
  7
Standard
  9
$DIMAUNIT
 70
     0
  9
$DIMADEC
 70
     0
  9
$DIMALTRND
 40
0.0
  9
$DIMAZIN
 70
     0
  9
$DIMDSEP
 70
    44
  9
$DIMATFIT
 70
     3
  9
$DIMFRAC
 70
     0
  9
$DIMLDRBLK
  1

  9
$DIMLUNIT
 70
     2
  9
$DIMLWD
 70
    -2
  9
$DIMLWE
 70
    -2
  9
$DIMTMOVE
 70
     0
  9
$LUNITS
 70
     2
  9
$LUPREC
 70
     4
  9
$SKETCHINC
 40
1.0
  9
$FILLETRAD
 40
10.0
  9
$AUNITS
 70
     0
  9
$AUPREC
 70
     0
  9
$MENU
  1
.
  9
$ELEVATION
 40
0.0
  9
$PELEVATION
 40
0.0
  9
$THICKNESS
 40
0.0
  9
$LIMCHECK
 70
     0
  9
$CHAMFERA
 40
10.0
  9
$CHAMFERB
 40
10.0
  9
$CHAMFERC
 40
20.0
  9
$CHAMFERD
 40
0.0
  9
$SKPOLY
 70
     0
  9
$TDCREATE
 40
2456498.818920532
  9
$TDUCREATE
 40
2456498.443920532
  9
$TDUPDATE
 40
2456498.818920544
  9
$TDUUPDATE
 40
2456498.443920544
  9
$TDINDWG
 40
0.0000000116
  9
$TDUSRTIMER
 40
0.0000000116
  9
$USRTIMER
 70
     1
  9
$ANGBASE
 50
0.0
  9
$ANGDIR
 70
     0
  9
$PDMODE
 70
     0
  9
$PDSIZE
 40
0.0
  9
$PLINEWID
 40
0.0
  9
$SPLFRAME
 70
     0
  9
$SPLINETYPE
 70
     6
  9
$SPLINESEGS
 70
     8
  9
$HANDSEED
  5
626
  9
$SURFTAB1
 70
     6
  9
$SURFTAB2
 70
     6
  9
$SURFTYPE
 70
     6
  9
$SURFU
 70
     6
  9
$SURFV
 70
     6
  9
$UCSBASE
  2

  9
$UCSNAME
  2

  9
$UCSORG
 10
0.0
 20
0.0
 30
0.0
  9
$UCSXDIR
 10
1.0
 20
0.0
 30
0.0
  9
$UCSYDIR
 10
0.0
 20
1.0
 30
0.0
  9
$UCSORTHOREF
  2

  9
$UCSORTHOVIEW
 70
     0
  9
$UCSORGTOP
 10
0.0
 20
0.0
 30
0.0
  9
$UCSORGBOTTOM
 10
0.0
 20
0.0
 30
0.0
  9
$UCSORGLEFT
 10
0.0
 20
0.0
 30
0.0
  9
$UCSORGRIGHT
 10
0.0
 20
0.0
 30
0.0
  9
$UCSORGFRONT
 10
0.0
 20
0.0
 30
0.0
  9
$UCSORGBACK
 10
0.0
 20
0.0
 30
0.0
  9
$PUCSBASE
  2

  9
$PUCSNAME
  2

  9
$PUCSORG
 10
0.0
 20
0.0
 30
0.0
  9
$PUCSXDIR
 10
1.0
 20
0.0
 30
0.0
  9
$PUCSYDIR
 10
0.0
 20
1.0
 30
0.0
  9
$PUCSORTHOREF
  2

  9
$PUCSORTHOVIEW
 70
     0
  9
$PUCSORGTOP
 10
0.0
 20
0.0
 30
0.0
  9
$PUCSORGBOTTOM
 10
0.0
 20
0.0
 30
0.0
  9
$PUCSORGLEFT
 10
0.0
 20
0.0
 30
0.0
  9
$PUCSORGRIGHT
 10
0.0
 20
0.0
 30
0.0
  9
$PUCSORGFRONT
 10
0.0
 20
0.0
 30
0.0
  9
$PUCSORGBACK
 10
0.0
 20
0.0
 30
0.0
  9
$USERI1
 70
     0
  9
$USERI2
 70
     0
  9
$USERI3
 70
     0
  9
$USERI4
 70
     0
  9
$USERI5
 70
     0
  9
$USERR1
 40
0.0
  9
$USERR2
 40
0.0
  9
$USERR3
 40
0.0
  9
$USERR4
 40
0.0
  9
$USERR5
 40
0.0
  9
$WORLDVIEW
 70
     1
  9
$SHADEDGE
 70
     3
  9
$SHADEDIF
 70
    70
  9
$TILEMODE
 70
     1
  9
$MAXACTVP
 70
    64
  9
$PINSBASE
 10
0.0
 20
0.0
 30
0.0
  9
$PLIMCHECK
 70
     0
  9
$PEXTMIN
 10
1.000000000000000E+20
 20
1.000000000000000E+20
 30
1.000000000000000E+20
  9
$PEXTMAX
 10
-1.000000000000000E+20
 20
-1.000000000000000E+20
 30
-1.000000000000000E+20
  9
$PLIMMIN
 10
0.0
 20
0.0
  9
$PLIMMAX
 10
420.0
 20
297.0
  9
$UNITMODE
 70
     0
  9
$VISRETAIN
 70
     1
  9
$PLINEGEN
 70
     0
  9
$PSLTSCALE
 70
     1
  9
$TREEDEPTH
 70
  3020
  9
$CMLSTYLE
  2
Standard
  9
$CMLJUST
 70
     0
  9
$CMLSCALE
 40
20.0
  9
$PROXYGRAPHICS
 70
     1
  9
$MEASUREMENT
 70
     1
  9
$CELWEIGHT
370
    -1
  9
$ENDCAPS
280
     0
  9
$JOINSTYLE
280
     0
  9
$LWDISPLAY
290
     0
  9
$INSUNITS
 70
     4
  9
$HYPERLINKBASE
  1

  9
$STYLESHEET
  1

  9
$XEDIT
290
     1
  9
$CEPSNTYPE
380
     0
  9
$PSTYLEMODE
290
     1
  9
$FINGERPRINTGUID
  2
{C43D9655-97E1-497F-B7E0-1672C735CB5E}
  9
$VERSIONGUID
  2
{FAEB1C32-E019-11D5-929B-00C0DF256EC4}
  9
$EXTNAMES
290
     1
  9
$PSVPSCALE
 40
0.0
  9
$OLESTARTUP
290
     0
  9
$SORTENTS
280
   127
  9
$INDEXCTL
280
     0
  9
$HIDETEXT
280
     1
  9
$XCLIPFRAME
290
     0
  9
$HALOGAP
280
     0
  9
$OBSCOLOR
 70
   257
  9
$OBSLTYPE
280
     0
  9
$INTERSECTIONDISPLAY
280
     0
  9
$INTERSECTIONCOLOR
 70
   257
  9
$DIMASSOC
280
     2
  9
$PROJECTNAME
  1

  0
ENDSEC
  0
SECTION
  2
CLASSES
  0
CLASS
  1
ACDBDICTIONARYWDFLT
  2
AcDbDictionaryWithDefault
  3
ObjectDBX Classes
 90
        0
 91
        4
280
     0
281
     0
  0
CLASS
  1
VISUALSTYLE
  2
AcDbVisualStyle
  3
ObjectDBX Classes
 90
     4095
 91
        4
280
     0
281
     0
  0
ENDSEC
  0
SECTION
  2
TABLES
  0
TABLE
  2
VPORT
  5
8
330
0
100
AcDbSymbolTable
 70
     1
  0
VPORT
  5
29
330
8
100
AcDbSymbolTableRecord
100
AcDbViewportTableRecord
  2
*Active
 70
     0
 10
0.0
 20
0.0
 11
1.0
 21
1.0
 12
0.0
 22
0.0
 13
0.0
 23
0.0
 14
10.0
 24
10.0
 15
10.0
 25
10.0
 16
0.0
 26
0.0
 36
1.0
 17
0.0
 27
0.0
 37
0.0
 40
3267.0
 41
1.414141414141414
 42
50.0
 43
0.0
 44
0.0
 50
0.0
 51
0.0
 71
     0
 72
 10000
 73
     1
 74
     3
 75
     0
 76
     0
 77
     0
 78
     0
281
     0
 65
     1
110
0.0
120
0.0
130
0.0
111
1.0
121
0.0
131
0.0
112
0.0
122
1.0
132
0.0
 79
     0
146
0.0
  0
ENDTAB
  0
TABLE
  2
LTYPE
  5
5
330
0
100
AcDbSymbolTable
 70
     5
  0
LTYPE
  5
14
330
5
100
AcDbSymbolTableRecord
100
AcDbLinetypeTableRecord
  2
ByBlock
 70
     0
  3

 72
    65
 73
     0
 40
0.0
  0
LTYPE
  5
15
330
5
100
AcDbSymbolTableRecord
100
AcDbLinetypeTableRecord
  2
ByLayer
 70
     0
  3

 72
    65
 73
     0
 40
0.0
  0
LTYPE
  5
16
330
5
100
AcDbSymbolTableRecord
100
AcDbLinetypeTableRecord
  2
Continuous
 70
     0
  3
Solid line
 72
    65
 73
     0
 40
0.0
  0
LTYPE
  5
3C
330
5
100
AcDbSymbolTableRecord
100
AcDbLinetypeTableRecord
  2
JWW_CENTER1
 70
     0
  3
-----  --  ----------  --  -----
 72
    65
 73
     4
 40
6.773333333333333
 49
4.233333333333333
 74
     0
 49
-0.8466666666666667
 74
     0
 49
0.8466666666666667
 74
     0
 49
-0.8466666666666667
 74
     0
  0
LTYPE
  5
3D
330
5
100
AcDbSymbolTableRecord
100
AcDbLinetypeTableRecord
  2
JWW_CENTER2
 70
     0
  3
-------------  --  -------------
 72
    65
 73
     4
 40
13.54666666666667
 49
11.00666666666667
 74
     0
 49
-0.8466666666666667
 74
     0
 49
0.8466666666666667
 74
     0
 49
-0.8466666666666667
 74
     0
  0
LTYPE
  5
3E
330
5
100
AcDbSymbolTableRecord
100
AcDbLinetypeTableRecord
  2
JWW_DASHED1
 70
     0
  3
-  --  --  --  --  --  --  --  -
 72
    65
 73
     2
 40
1.693333333333333
 49
0.8466666666666667
 74
     0
 49
-0.8466666666666667
 74
     0
  0
LTYPE
  5
3F
330
5
100
AcDbSymbolTableRecord
100
AcDbLinetypeTableRecord
  2
JWW_DASHED3
 70
     0
  3
---  ------  ------  ------  ---
 72
    65
 73
     2
 40
3.386666666666667
 49
2.54
 74
     0
 49
-0.8466666666666667
 74
     0
  0
ENDTAB
  0
TABLE
  2
LAYER
  5
2
330
0
100
AcDbSymbolTable
 70
    14
  0
LAYER
  5
10
330
2
100
AcDbSymbolTableRecord
100
AcDbLayerTableRecord
  2
0
 70
     0
 62
     7
  6
Continuous
370
    -3
390
F
  0
LAYER
  5
40
330
2
100
AcDbSymbolTableRecord
100
AcDbLayerTableRecord
  2
1-4
 70
     0
 62
     7
  6
Continuous
370
    -3
390
F
  0
LAYER
  5
41
330
2
100
AcDbSymbolTableRecord
100
AcDbLayerTableRecord
  2
D-4
 70
     0
 62
     7
  6
Continuous
370
    -3
390
F
  0
LAYER
  5
42
330
2
100
AcDbSymbolTableRecord
100
AcDbLayerTableRecord
  2
2-4
 70
     0
 62
     7
  6
Continuous
370
    -3
390
F
  0
LAYER
  5
43
330
2
100
AcDbSymbolTableRecord
100
AcDbLayerTableRecord
  2
1-1
 70
     0
 62
     7
  6
Continuous
370
    -3
390
F
  0
LAYER
  5
44
330
2
100
AcDbSymbolTableRecord
100
AcDbLayerTableRecord
  2
1-2
 70
     0
 62
     7
  6
Continuous
370
    -3
390
F
  0
LAYER
  5
45
330
2
100
AcDbSymbolTableRecord
100
AcDbLayerTableRecord
  2
D-1
 70
     0
 62
     7
  6
Continuous
370
    -3
390
F
  0
LAYER
  5
46
330
2
100
AcDbSymbolTableRecord
100
AcDbLayerTableRecord
  2
D-2
 70
     0
 62
     7
  6
Continuous
370
    -3
390
F
  0
LAYER
  5
47
330
2
100
AcDbSymbolTableRecord
100
AcDbLayerTableRecord
  2
D-A
 70
     0
 62
     7
  6
Continuous
370
    -3
390
F
  0
LAYER
  5
48
330
2
100
AcDbSymbolTableRecord
100
AcDbLayerTableRecord
  2
2-1
 70
     0
 62
     7
  6
Continuous
370
    -3
390
F
  0
LAYER
  5
49
330
2
100
AcDbSymbolTableRecord
100
AcDbLayerTableRecord
  2
2-2
 70
     0
 62
     7
  6
Continuous
370
    -3
390
F
  0
LAYER
  5
4A
330
2
100
AcDbSymbolTableRecord
100
AcDbLayerTableRecord
  2
2-C
 70
     0
 62
     7
  6
Continuous
370
    -3
390
F
  0
LAYER
  5
4B
330
2
100
AcDbSymbolTableRecord
100
AcDbLayerTableRecord
  2
2-5
 70
     0
 62
     7
  6
Continuous
370
    -3
390
F
  0
LAYER
  5
4C
330
2
100
AcDbSymbolTableRecord
100
AcDbLayerTableRecord
  2
F-4
 70
     0
 62
     7
  6
Continuous
370
    -3
390
F
  0
ENDTAB
  0
TABLE
  2
STYLE
  5
3
330
0
100
AcDbSymbolTable
 70
     2
  0
STYLE
  5
11
330
3
100
AcDbSymbolTableRecord
100
AcDbTextStyleTableRecord
  2
Standard
 70
     0
 40
0.0
 41
1.0
 50
0.0
 71
     0
 42
2.5
  3
txt
  4

1001
ACAD
1000

1071
        0
  0
STYLE
  5
3B
330
3
100
AcDbSymbolTableRecord
100
AcDbTextStyleTableRecord
  2
ＭＳ ゴシック
 70
     0
 40
1.0
 41
1.0
 50
0.0
 71
     0
 42
10.0
  3

  4

1001
ACAD
1000
MS Gothic
1071
    32817
  0
ENDTAB
  0
TABLE
  2
VIEW
  5
6
330
0
100
AcDbSymbolTable
 70
     0
  0
ENDTAB
  0
TABLE
  2
UCS
  5
7
330
0
100
AcDbSymbolTable
 70
     0
  0
ENDTAB
  0
TABLE
  2
APPID
  5
9
330
0
100
AcDbSymbolTable
 70
     1
  0
APPID
  5
12
330
9
100
AcDbSymbolTableRecord
100
AcDbRegAppTableRecord
  2
ACAD
 70
     0
  0
ENDTAB
  0
TABLE
  2
DIMSTYLE
  5
A
330
0
100
AcDbSymbolTable
 70
     1
100
AcDbDimStyleTable
  0
DIMSTYLE
105
27
330
A
100
AcDbSymbolTableRecord
100
AcDbDimStyleTableRecord
  2
ISO-25
 70
     0
 41
2.5
 42
0.625
 43
3.75
 44
1.25
 73
     0
 74
     0
 77
     1
 78
     8
140
2.5
141
2.5
143
0.03937007874016
147
0.625
171
     3
172
     1
271
     2
272
     2
274
     3
278
    44
283
     0
284
     8
340
11
  0
ENDTAB
  0
TABLE
  2
BLOCK_RECORD
  5
1
330
0
100
AcDbSymbolTable
 70
     1
  0
BLOCK_RECORD
  5
1F
330
1
100
AcDbSymbolTableRecord
100
AcDbBlockTableRecord
  2
*Model_Space
340
22
  0
BLOCK_RECORD
  5
1B
330
1
100
AcDbSymbolTableRecord
100
AcDbBlockTableRecord
  2
*Paper_Space
340
1E
  0
BLOCK_RECORD
  5
23
330
1
100
AcDbSymbolTableRecord
100
AcDbBlockTableRecord
  2
*Paper_Space0
340
26
  0
ENDTAB
  0
ENDSEC
  0
SECTION
  2
BLOCKS
  0
BLOCK
  5
20
330
1F
100
AcDbEntity
  8
0
100
AcDbBlockBegin
  2
*Model_Space
 70
     0
 10
0.0
 20
0.0
 30
0.0
  3
*Model_Space
  1

  0
ENDBLK
  5
21
330
1F
100
AcDbEntity
  8
0
100
AcDbBlockEnd
  0
BLOCK
  5
1C
330
1B
100
AcDbEntity
 67
     1
  8
0
100
AcDbBlockBegin
  2
*Paper_Space
 70
     0
 10
0.0
 20
0.0
 30
0.0
  3
*Paper_Space
  1

  0
ENDBLK
  5
1D
330
1B
100
AcDbEntity
 67
     1
  8
0
100
AcDbBlockEnd
  0
BLOCK
  5
24
330
23
100
AcDbEntity
  8
0
100
AcDbBlockBegin
  2
*Paper_Space0
 70
     0
 10
0.0
 20
0.0
 30
0.0
  3
*Paper_Space0
  1

  0
ENDBLK
  5
25
330
23
100
AcDbEntity
  8
0
100
AcDbBlockEnd
  0
ENDSEC
  0
SECTION
  2
ENTITIES
  0
LWPOLYLINE
  5
4D
330
1F
100
AcDbEntity
  8
1-4
  6
Continuous
 62
     7
370
     5
100
AcDbPolyline
 90
        4
 70
     1
 43
1.0
 10
-1608.854050095017
 20
-381.1862924936655
 42
0.4142135623731
 10
-1609.354050095017
 20
-380.6862924936655
 42
0.4142135623731
 10
-1609.854050095017
 20
-381.1862924936655
 42
0.4142135623731
 10
-1609.354050095017
 20
-381.6862924936655
 42
0.4142135623731
  0
LWPOLYLINE
  5
4E
330
1F
100
AcDbEntity
  8
1-4
  6
Continuous
 62
     7
370
     5
100
AcDbPolyline
 90
        4
 70
     1
 43
1.0
 10
59.14595980257604
 20
-381.1862924936655
 42
0.4142135623731
 10
58.64595980257604
 20
-380.6862924936655
 42
0.4142135623731
 10
58.14595980257604
 20
-381.1862924936655
 42
0.4142135623731
 10
58.64595980257604
 20
-381.6862924936655
 42
0.4142135623731
  0
LWPOLYLINE
  5
4F
330
1F
100
AcDbEntity
  8
1-4
  6
Continuous
 62
     7
370
     5
100
AcDbPolyline
 90
        4
 70
     1
 43
1.0
 10
293.1463359111065
 20
1100.813450168919
 42
0.4142135623731
 10
292.6463359111065
 20
1101.313450168919
 42
0.4142135623731
 10
292.1463359111065
 20
1100.813450168919
 42
0.4142135623731
 10
292.6463359111065
 20
1100.313450168919
 42
0.4142135623731
  0
LWPOLYLINE
  5
50
330
1F
100
AcDbEntity
  8
1-4
  6
Continuous
 62
     7
370
     5
100
AcDbPolyline
 90
        4
 70
     1
 43
1.0
 10
293.1463359111065
 20
-67.18614732896953
 42
0.4142135623731
 10
292.6463359111065
 20
-66.68614732896953
 42
0.4142135623731
 10
292.1463359111065
 20
-67.18614732896953
 42
0.4142135623731
 10
292.6463359111065
 20
-67.68614732896953
 42
0.4142135623731
  0
LWPOLYLINE
  5
51
330
1F
100
AcDbEntity
  8
D-4
  6
Continuous
 62
     7
370
     5
100
AcDbPolyline
 90
        4
 70
     1
 43
1.0
 10
811.3870222761828
 20
467.7877807617188
 42
0.4142135623731
 10
810.8870222761828
 20
468.2877807617188
 42
0.4142135623731
 10
810.3870222761828
 20
467.7877807617188
 42
0.4142135623731
 10
810.8870222761828
 20
467.2877807617188
 42
0.4142135623731
  0
LWPOLYLINE
  5
52
330
1F
100
AcDbEntity
  8
2-4
  6
Continuous
 62
     7
370
     5
100
AcDbPolyline
 90
        4
 70
     1
 43
1.0
 10
659.7897982210729
 20
-536.5859243032094
 42
0.4142135623731
 10
659.2897982210729
 20
-536.0859243032094
 42
0.4142135623731
 10
658.7897982210729
 20
-536.5859243032094
 42
0.4142135623731
 10
659.2897982210729
 20
-537.0859243032094
 42
0.4142135623731
  0
LWPOLYLINE
  5
53
330
1F
100
AcDbEntity
  8
2-4
  6
Continuous
 62
     7
370
     5
100
AcDbPolyline
 90
        4
 70
     1
 43
1.0
 10
719.7895012932854
 20
-536.5859243032094
 42
0.4142135623731
 10
719.2895012932854
 20
-536.0859243032094
 42
0.4142135623731
 10
718.7895012932854
 20
-536.5859243032094
 42
0.4142135623731
 10
719.2895012932854
 20
-537.0859243032094
 42
0.4142135623731
  0
LWPOLYLINE
  5
54
330
1F
100
AcDbEntity
  8
2-4
  6
Continuous
 62
     7
370
     5
100
AcDbPolyline
 90
        4
 70
     1
 43
1.0
 10
789.7894847972974
 20
-536.5859243032094
 42
0.4142135623731
 10
789.2894847972974
 20
-536.0859243032094
 42
0.4142135623731
 10
788.7894847972974
 20
-536.5859243032094
 42
0.4142135623731
 10
789.2894847972974
 20
-537.0859243032094
 42
0.4142135623731
  0
LWPOLYLINE
  5
55
330
1F
100
AcDbEntity
  8
2-4
  6
Continuous
 62
     7
370
     5
100
AcDbPolyline
 90
        4
 70
     1
 43
1.0
 10
849.7894353093328
 20
-536.5859243032094
 42
0.4142135623731
 10
849.2894353093328
 20
-536.0859243032094
 42
0.4142135623731
 10
848.7894353093328
 20
-536.5859243032094
 42
0.4142135623731
 10
849.2894353093328
 20
-537.0859243032094
 42
0.4142135623731
  0
LWPOLYLINE
  5
56
330
1F
100
AcDbEntity
  8
2-4
  6
Continuous
 62
     7
370
     5
100
AcDbPolyline
 90
        4
 70
     1
 43
1.0
 10
-1543.90258129223
 20
-871.9948103621199
 42
0.4142135623731
 10
-1544.40258129223
 20
-871.49481036212
 42
0.4142135623731
 10
-1544.90258129223
 20
-871.9948103621199
 42
0.4142135623731
 10
-1544.40258129223
 20
-872.4948103621199
 42
0.4142135623731
  0
LWPOLYLINE
  5
57
330
1F
100
AcDbEntity
  8
2-4
  6
Continuous
 62
     7
370
     5
100
AcDbPolyline
 90
        4
 70
     1
 43
1.0
 10
-1543.90258129223
 20
-831.9946783942145
 42
0.4142135623731
 10
-1544.40258129223
 20
-831.4946783942145
 42
0.4142135623731
 10
-1544.90258129223
 20
-831.9946783942145
 42
0.4142135623731
 10
-1544.40258129223
 20
-832.4946783942144
 42
0.4142135623731
  0
LWPOLYLINE
  5
58
330
1F
100
AcDbEntity
  8
2-4
  6
Continuous
 62
     7
370
     5
100
AcDbPolyline
 90
        4
 70
     1
 43
1.0
 10
-1543.90258129223
 20
-751.994167018581
 42
0.4142135623731
 10
-1544.40258129223
 20
-751.494167018581
 42
0.4142135623731
 10
-1544.90258129223
 20
-751.994167018581
 42
0.4142135623731
 10
-1544.40258129223
 20
-752.4941670185809
 42
0.4142135623731
  0
LWPOLYLINE
  5
59
330
1F
100
AcDbEntity
  8
2-4
  6
Continuous
 62
     7
370
     5
100
AcDbPolyline
 90
        4
 70
     1
 43
1.0
 10
-1543.90258129223
 20
-741.99462890625
 42
0.4142135623731
 10
-1544.40258129223
 20
-741.49462890625
 42
0.4142135623731
 10
-1544.90258129223
 20
-741.99462890625
 42
0.4142135623731
 10
-1544.40258129223
 20
-742.49462890625
 42
0.4142135623731
  0
LWPOLYLINE
  5
5A
330
1F
100
AcDbEntity
  8
2-4
  6
Continuous
 62
     7
370
     5
100
AcDbPolyline
 90
        4
 70
     1
 43
1.0
 10
-1543.90258129223
 20
-661.9948598500844
 42
0.4142135623731
 10
-1544.40258129223
 20
-661.4948598500844
 42
0.4142135623731
 10
-1544.90258129223
 20
-661.9948598500844
 42
0.4142135623731
 10
-1544.40258129223
 20
-662.4948598500844
 42
0.4142135623731
  0
LWPOLYLINE
  5
5B
330
1F
100
AcDbEntity
  8
2-4
  6
Continuous
 62
     7
370
     5
100
AcDbPolyline
 90
        4
 70
     1
 43
1.0
 10
-1543.90258129223
 20
-621.9947278821791
 42
0.4142135623731
 10
-1544.40258129223
 20
-621.4947278821791
 42
0.4142135623731
 10
-1544.90258129223
 20
-621.9947278821791
 42
0.4142135623731
 10
-1544.40258129223
 20
-622.494727882179
 42
0.4142135623731
  0
LWPOLYLINE
  5
5C
330
1F
100
AcDbEntity
  8
2-4
  6
Continuous
 62
     7
370
     5
100
AcDbPolyline
 90
        4
 70
     1
 43
1.0
 10
-1329.737476245777
 20
-798.4509937183276
 42
0.4142135623731
 10
-1330.237476245777
 20
-797.9509937183276
 42
0.4142135623731
 10
-1330.737476245777
 20
-798.4509937183276
 42
0.4142135623731
 10
-1330.237476245777
 20
-798.9509937183276
 42
0.4142135623731
  0
LWPOLYLINE
  5
5D
330
1F
100
AcDbEntity
  8
2-4
  6
Continuous
 62
     7
370
     5
100
AcDbPolyline
 90
        4
 70
     1
 43
1.0
 10
-1328.300840635557
 20
-793.661548511402
 42
0.4142135623731
 10
-1328.800840635557
 20
-793.161548511402
 42
0.4142135623731
 10
-1329.300840635558
 20
-793.661548511402
 42
0.4142135623731
 10
-1328.800840635557
 20
-794.1615485114019
 42
0.4142135623731
  0
LWPOLYLINE
  5
5E
330
1F
100
AcDbEntity
  8
2-4
  6
Continuous
 62
     7
370
     5
100
AcDbPolyline
 90
        4
 70
     1
 43
1.0
 10
-1472.189077016469
 20
-529.3770125105574
 42
0.4142135623731
 10
-1472.68907701647
 20
-528.8770125105575
 42
0.4142135623731
 10
-1473.18907701647
 20
-529.3770125105574
 42
0.4142135623731
 10
-1472.68907701647
 20
-529.8770125105574
 42
0.4142135623731
  0
LWPOLYLINE
  5
5F
330
1F
100
AcDbEntity
  8
2-4
  6
Continuous
 62
     7
370
     5
100
AcDbPolyline
 90
        4
 70
     1
 43
1.0
 10
-1412.188879064611
 20
-529.3770125105574
 42
0.4142135623731
 10
-1412.688879064611
 20
-528.8770125105575
 42
0.4142135623731
 10
-1413.188879064612
 20
-529.3770125105574
 42
0.4142135623731
 10
-1412.688879064611
 20
-529.8770125105574
 42
0.4142135623731
  0
LWPOLYLINE
  5
60
330
1F
100
AcDbEntity
  8
1-4
  6
Continuous
 62
     7
370
     5
100
AcDbPolyline
 90
        4
 70
     1
 43
1.0
 10
-1604.85418536212
 20
-381.1862924936655
 42
0.4142135623731
 10
-1605.35418536212
 20
-380.6862924936655
 42
0.4142135623731
 10
-1605.85418536212
 20
-381.1862924936655
 42
0.4142135623731
 10
-1605.35418536212
 20
-381.6862924936655
 42
0.4142135623731
  0
LWPOLYLINE
  5
61
330
1F
100
AcDbEntity
  8
1-4
  6
Continuous
 62
     7
370
     5
100
AcDbPolyline
 90
        4
 70
     1
 43
1.0
 10
-1624.85400390625
 20
-381.1862924936655
 42
0.4142135623731
 10
-1625.35400390625
 20
-380.6862924936655
 42
0.4142135623731
 10
-1625.85400390625
 20
-381.1862924936655
 42
0.4142135623731
 10
-1625.35400390625
 20
-381.6862924936655
 42
0.4142135623731
  0
LWPOLYLINE
  5
62
330
1F
100
AcDbEntity
  8
1-4
  6
Continuous
 62
     7
370
     5
100
AcDbPolyline
 90
        4
 70
     1
 43
1.0
 10
-1624.85400390625
 20
-461.1863089896536
 42
0.4142135623731
 10
-1625.35400390625
 20
-460.6863089896536
 42
0.4142135623731
 10
-1625.85400390625
 20
-461.1863089896536
 42
0.4142135623731
 10
-1625.35400390625
 20
-461.6863089896536
 42
0.4142135623731
  0
LWPOLYLINE
  5
63
330
1F
100
AcDbEntity
  8
1-4
  6
Continuous
 62
     7
370
     5
100
AcDbPolyline
 90
        4
 70
     1
 43
1.0
 10
-1544.853739970439
 20
-301.1862759976773
 42
0.4142135623731
 10
-1545.353739970439
 20
-300.6862759976773
 42
0.4142135623731
 10
-1545.853739970439
 20
-301.1862759976773
 42
0.4142135623731
 10
-1545.353739970439
 20
-301.6862759976773
 42
0.4142135623731
  0
LWPOLYLINE
  5
64
330
1F
100
AcDbEntity
  8
1-4
  6
Continuous
 62
     7
370
     5
100
AcDbPolyline
 90
        4
 70
     1
 43
1.0
 10
-1248.853852143159
 20
-301.1862759976773
 42
0.4142135623731
 10
-1249.353852143159
 20
-300.6862759976773
 42
0.4142135623731
 10
-1249.853852143159
 20
-301.1862759976773
 42
0.4142135623731
 10
-1249.353852143159
 20
-301.6862759976773
 42
0.4142135623731
  0
LWPOLYLINE
  5
65
330
1F
100
AcDbEntity
  8
1-4
  6
Continuous
 62
     7
370
     5
100
AcDbPolyline
 90
        4
 70
     1
 43
1.0
 10
-640.8541226773649
 20
-221.1862595016891
 42
0.4142135623731
 10
-641.3541226773648
 20
-220.6862595016891
 42
0.4142135623731
 10
-641.8541226773648
 20
-221.1862595016891
 42
0.4142135623731
 10
-641.3541226773648
 20
-221.6862595016891
 42
0.4142135623731
  0
LWPOLYLINE
  5
66
330
1F
100
AcDbEntity
  8
1-4
  6
Continuous
 62
     7
370
     5
100
AcDbPolyline
 90
        4
 70
     1
 43
1.0
 10
-300.8539907094594
 20
-221.1862595016891
 42
0.4142135623731
 10
-301.3539907094594
 20
-220.6862595016891
 42
0.4142135623731
 10
-301.8539907094594
 20
-221.1862595016891
 42
0.4142135623731
 10
-301.3539907094594
 20
-221.6862595016891
 42
0.4142135623731
  0
LWPOLYLINE
  5
67
330
1F
100
AcDbEntity
  8
1-4
  6
Continuous
 62
     7
370
     5
100
AcDbPolyline
 90
        4
 70
     1
 43
1.0
 10
-300.8539907094594
 20
-301.1862759976773
 42
0.4142135623731
 10
-301.3539907094594
 20
-300.6862759976773
 42
0.4142135623731
 10
-301.8539907094594
 20
-301.1862759976773
 42
0.4142135623731
 10
-301.3539907094594
 20
-301.6862759976773
 42
0.4142135623731
  0
LWPOLYLINE
  5
68
330
1F
100
AcDbEntity
  8
1-4
  6
Continuous
 62
     7
370
     5
100
AcDbPolyline
 90
        4
 70
     1
 43
1.0
 10
-4.854102882178893
 20
-301.1862759976773
 42
0.4142135623731
 10
-5.354102882178893
 20
-300.6862759976773
 42
0.4142135623731
 10
-5.854102882178893
 20
-301.1862759976773
 42
0.4142135623731
 10
-5.354102882178893
 20
-301.6862759976773
 42
0.4142135623731
  0
LWPOLYLINE
  5
69
330
1F
100
AcDbEntity
  8
1-4
  6
Continuous
 62
     7
370
     5
100
AcDbPolyline
 90
        4
 70
     1
 43
1.0
 10
55.14584762985652
 20
-381.1862924936655
 42
0.4142135623731
 10
54.64584762985652
 20
-380.6862924936655
 42
0.4142135623731
 10
54.14584762985652
 20
-381.1862924936655
 42
0.4142135623731
 10
54.64584762985652
 20
-381.6862924936655
 42
0.4142135623731
  0
LWPOLYLINE
  5
6A
330
1F
100
AcDbEntity
  8
1-4
  6
Continuous
 62
     7
370
     5
100
AcDbPolyline
 90
        4
 70
     1
 43
1.0
 10
75.14566617398674
 20
-381.1862924936655
 42
0.4142135623731
 10
74.64566617398674
 20
-380.6862924936655
 42
0.4142135623731
 10
74.14566617398674
 20
-381.1862924936655
 42
0.4142135623731
 10
74.64566617398674
 20
-381.6862924936655
 42
0.4142135623731
  0
LWPOLYLINE
  5
6B
330
1F
100
AcDbEntity
  8
1-4
  6
Continuous
 62
     7
370
     5
100
AcDbPolyline
 90
        4
 70
     1
 43
1.0
 10
75.14566617398674
 20
-461.1863089896536
 42
0.4142135623731
 10
74.64566617398674
 20
-460.6863089896536
 42
0.4142135623731
 10
74.14566617398674
 20
-461.1863089896536
 42
0.4142135623731
 10
74.64566617398674
 20
-461.6863089896536
 42
0.4142135623731
  0
LWPOLYLINE
  5
6C
330
1F
100
AcDbEntity
  8
1-4
  6
Continuous
 62
     7
370
     5
100
AcDbPolyline
 90
        4
 70
     1
 43
1.0
 10
293.1463359111065
 20
-83.1861011402026
 42
0.4142135623731
 10
292.6463359111065
 20
-82.6861011402026
 42
0.4142135623731
 10
292.1463359111065
 20
-83.1861011402026
 42
0.4142135623731
 10
292.6463359111065
 20
-83.6861011402026
 42
0.4142135623731
  0
LWPOLYLINE
  5
6D
330
1F
100
AcDbEntity
  8
1-4
  6
Continuous
 62
     7
370
     5
100
AcDbPolyline
 90
        4
 70
     1
 43
1.0
 10
293.1463359111065
 20
-63.18628259607266
 42
0.4142135623731
 10
292.6463359111065
 20
-62.68628259607266
 42
0.4142135623731
 10
292.1463359111065
 20
-63.18628259607266
 42
0.4142135623731
 10
292.6463359111065
 20
-63.68628259607266
 42
0.4142135623731
  0
LWPOLYLINE
  5
6E
330
1F
100
AcDbEntity
  8
1-4
  6
Continuous
 62
     7
370
     5
100
AcDbPolyline
 90
        4
 70
     1
 43
1.0
 10
373.1461049672721
 20
-83.1861011402026
 42
0.4142135623731
 10
372.6461049672722
 20
-82.6861011402026
 42
0.4142135623731
 10
372.1461049672722
 20
-83.1861011402026
 42
0.4142135623731
 10
372.6461049672722
 20
-83.6861011402026
 42
0.4142135623731
  0
LWPOLYLINE
  5
6F
330
1F
100
AcDbEntity
  8
1-4
  6
Continuous
 62
     7
370
     5
100
AcDbPolyline
 90
        4
 70
     1
 43
1.0
 10
293.1463359111065
 20
1116.813651419975
 42
0.4142135623731
 10
292.6463359111065
 20
1117.313651419975
 42
0.4142135623731
 10
292.1463359111065
 20
1116.813651419975
 42
0.4142135623731
 10
292.6463359111065
 20
1116.313651419975
 42
0.4142135623731
  0
LWPOLYLINE
  5
70
330
1F
100
AcDbEntity
  8
1-4
  6
Continuous
 62
     7
370
     5
100
AcDbPolyline
 90
        4
 70
     1
 43
1.0
 10
373.1461049672721
 20
1116.813651419975
 42
0.4142135623731
 10
372.6461049672722
 20
1117.313651419975
 42
0.4142135623731
 10
372.1461049672722
 20
1116.813651419975
 42
0.4142135623731
 10
372.6461049672722
 20
1116.313651419975
 42
0.4142135623731
  0
LWPOLYLINE
  5
71
330
1F
100
AcDbEntity
  8
1-4
  6
Continuous
 62
     7
370
     5
100
AcDbPolyline
 90
        4
 70
     1
 43
1.0
 10
293.1463359111065
 20
1096.813585436022
 42
0.4142135623731
 10
292.6463359111065
 20
1097.313585436022
 42
0.4142135623731
 10
292.1463359111065
 20
1096.813585436022
 42
0.4142135623731
 10
292.6463359111065
 20
1096.313585436022
 42
0.4142135623731
  0
LWPOLYLINE
  5
72
330
1F
100
AcDbEntity
  8
D-4
  6
Continuous
 62
     7
370
     5
100
AcDbPolyline
 90
        4
 70
     1
 43
1.0
 10
811.3870222761828
 20
477.7876900337839
 42
0.4142135623731
 10
810.8870222761828
 20
478.2876900337839
 42
0.4142135623731
 10
810.3870222761828
 20
477.7876900337839
 42
0.4142135623731
 10
810.8870222761828
 20
477.2876900337839
 42
0.4142135623731
  0
LWPOLYLINE
  5
73
330
1F
100
AcDbEntity
  8
D-4
  6
Continuous
 62
     7
370
     5
100
AcDbPolyline
 90
        4
 70
     1
 43
1.0
 10
811.3870222761828
 20
427.7877725137247
 42
0.4142135623731
 10
810.8870222761828
 20
428.2877725137247
 42
0.4142135623731
 10
810.3870222761828
 20
427.7877725137247
 42
0.4142135623731
 10
810.8870222761828
 20
427.2877725137248
 42
0.4142135623731
  0
LWPOLYLINE
  5
74
330
1F
100
AcDbEntity
  8
D-4
  6
Continuous
 62
     7
370
     5
100
AcDbPolyline
 90
        4
 70
     1
 43
1.0
 10
1568.221062737542
 20
182.7878302496833
 42
0.4142135623731
 10
1567.721062737542
 20
183.2878302496833
 42
0.4142135623731
 10
1567.221062737542
 20
182.7878302496833
 42
0.4142135623731
 10
1567.721062737542
 20
182.2878302496833
 42
0.4142135623731
  0
LWPOLYLINE
  5
75
330
1F
100
AcDbEntity
  8
D-4
  6
Continuous
 62
     7
370
     5
100
AcDbPolyline
 90
        4
 70
     1
 43
1.0
 10
1813.221128721495
 20
427.7877725137247
 42
0.4142135623731
 10
1812.721128721495
 20
428.2877725137247
 42
0.4142135623731
 10
1812.221128721495
 20
427.7877725137247
 42
0.4142135623731
 10
1812.721128721495
 20
427.2877725137248
 42
0.4142135623731
  0
LWPOLYLINE
  5
76
330
1F
100
AcDbEntity
  8
2-4
  6
Continuous
 62
     7
370
     5
100
AcDbPolyline
 90
        4
 70
     1
 43
1.0
 10
589.789814717061
 20
-536.5859243032094
 42
0.4142135623731
 10
589.289814717061
 20
-536.0859243032094
 42
0.4142135623731
 10
588.789814717061
 20
-536.5859243032094
 42
0.4142135623731
 10
589.289814717061
 20
-537.0859243032094
 42
0.4142135623731
  0
LWPOLYLINE
  5
77
330
1F
100
AcDbEntity
  8
2-4
  6
Continuous
 62
     7
370
     5
100
AcDbPolyline
 90
        4
 70
     1
 43
1.0
 10
919.7894188133448
 20
-536.5859243032094
 42
0.4142135623731
 10
919.2894188133448
 20
-536.0859243032094
 42
0.4142135623731
 10
918.7894188133448
 20
-536.5859243032094
 42
0.4142135623731
 10
919.2894188133448
 20
-537.0859243032094
 42
0.4142135623731
  0
LWPOLYLINE
  5
78
330
1F
100
AcDbEntity
  8
2-4
  6
Continuous
 62
     7
370
     5
100
AcDbPolyline
 90
        4
 70
     1
 43
1.0
 10
1109.78955078125
 20
-536.5859243032094
 42
0.4142135623731
 10
1109.28955078125
 20
-536.0859243032094
 42
0.4142135623731
 10
1108.78955078125
 20
-536.5859243032094
 42
0.4142135623731
 10
1109.28955078125
 20
-537.0859243032094
 42
0.4142135623731
  0
LWPOLYLINE
  5
79
330
1F
100
AcDbEntity
  8
2-4
  6
Continuous
 62
     7
370
     5
100
AcDbPolyline
 90
        4
 70
     1
 43
1.0
 10
1129.789616765203
 20
-536.5859243032094
 42
0.4142135623731
 10
1129.289616765203
 20
-536.0859243032094
 42
0.4142135623731
 10
1128.789616765203
 20
-536.5859243032094
 42
0.4142135623731
 10
1129.289616765203
 20
-537.0859243032094
 42
0.4142135623731
  0
LWPOLYLINE
  5
7A
330
1F
100
AcDbEntity
  8
2-4
  6
Continuous
 62
     7
370
     5
100
AcDbPolyline
 90
        4
 70
     1
 43
1.0
 10
1209.789633261191
 20
-536.5859243032094
 42
0.4142135623731
 10
1209.289633261191
 20
-536.0859243032094
 42
0.4142135623731
 10
1208.789633261191
 20
-536.5859243032094
 42
0.4142135623731
 10
1209.289633261191
 20
-537.0859243032094
 42
0.4142135623731
  0
LWPOLYLINE
  5
7B
330
1F
100
AcDbEntity
  8
2-4
  6
Continuous
 62
     7
370
     5
100
AcDbPolyline
 90
        4
 70
     1
 43
1.0
 10
1209.789633261191
 20
-456.5861552470438
 42
0.4142135623731
 10
1209.289633261191
 20
-456.0861552470439
 42
0.4142135623731
 10
1208.789633261191
 20
-456.5861552470438
 42
0.4142135623731
 10
1209.289633261191
 20
-457.0861552470438
 42
0.4142135623731
  0
LWPOLYLINE
  5
7C
330
1F
100
AcDbEntity
  8
2-4
  6
Continuous
 62
     7
370
     5
100
AcDbPolyline
 90
        4
 70
     1
 43
1.0
 10
1499.789600269215
 20
-456.5861552470438
 42
0.4142135623731
 10
1499.289600269215
 20
-456.0861552470439
 42
0.4142135623731
 10
1498.789600269215
 20
-456.5861552470438
 42
0.4142135623731
 10
1499.289600269215
 20
-457.0861552470438
 42
0.4142135623731
  0
LWPOLYLINE
  5
7D
330
1F
100
AcDbEntity
  8
2-4
  6
Continuous
 62
     7
370
     5
100
AcDbPolyline
 90
        4
 70
     1
 43
1.0
 10
1579.789616765203
 20
-890.6322252428208
 42
0.4142135623731
 10
1579.289616765203
 20
-890.1322252428208
 42
0.4142135623731
 10
1578.789616765203
 20
-890.6322252428208
 42
0.4142135623731
 10
1579.289616765203
 20
-891.1322252428208
 42
0.4142135623731
  0
LWPOLYLINE
  5
7E
330
1F
100
AcDbEntity
  8
2-4
  6
Continuous
 62
     7
370
     5
100
AcDbPolyline
 90
        4
 70
     1
 43
1.0
 10
1579.789616765203
 20
-790.6321427628801
 42
0.4142135623731
 10
1579.289616765203
 20
-790.1321427628801
 42
0.4142135623731
 10
1578.789616765203
 20
-790.6321427628801
 42
0.4142135623731
 10
1579.289616765203
 20
-791.13214276288
 42
0.4142135623731
  0
LWPOLYLINE
  5
7F
330
1F
100
AcDbEntity
  8
2-4
  6
Continuous
 62
     7
370
     5
100
AcDbPolyline
 90
        4
 70
     1
 43
1.0
 10
1579.789616765203
 20
-616.5861882390202
 42
0.4142135623731
 10
1579.289616765203
 20
-616.0861882390202
 42
0.4142135623731
 10
1578.789616765203
 20
-616.5861882390202
 42
0.4142135623731
 10
1579.289616765203
 20
-617.0861882390202
 42
0.4142135623731
  0
LWPOLYLINE
  5
80
330
1F
100
AcDbEntity
  8
2-4
  6
Continuous
 62
     7
370
     5
100
AcDbPolyline
 90
        4
 70
     1
 43
1.0
 10
17.52287003800677
 20
-865.63214276288
 42
0.4142135623731
 10
17.02287003800677
 20
-865.13214276288
 42
0.4142135623731
 10
16.52287003800677
 20
-865.63214276288
 42
0.4142135623731
 10
17.02287003800677
 20
-866.1321427628799
 42
0.4142135623731
  0
LWPOLYLINE
  5
81
330
1F
100
AcDbEntity
  8
2-4
  6
Continuous
 62
     7
370
     5
100
AcDbPolyline
 90
        4
 70
     1
 43
1.0
 10
97.52288653399506
 20
-765.6323077227619
 42
0.4142135623731
 10
97.02288653399506
 20
-765.1323077227619
 42
0.4142135623731
 10
96.52288653399506
 20
-765.6323077227619
 42
0.4142135623731
 10
97.02288653399506
 20
-766.1323077227619
 42
0.4142135623731
  0
LWPOLYLINE
  5
82
330
1F
100
AcDbEntity
  8
2-4
  6
Continuous
 62
     7
370
     5
100
AcDbPolyline
 90
        4
 70
     1
 43
1.0
 10
97.52288653399506
 20
-615.6323077227617
 42
0.4142135623731
 10
97.02288653399506
 20
-615.1323077227618
 42
0.4142135623731
 10
96.52288653399506
 20
-615.6323077227617
 42
0.4142135623731
 10
97.02288653399506
 20
-616.1323077227617
 42
0.4142135623731
  0
LWPOLYLINE
  5
83
330
1F
100
AcDbEntity
  8
2-4
  6
Continuous
 62
     7
370
     5
100
AcDbPolyline
 90
        4
 70
     1
 43
1.0
 10
17.52287003800677
 20
-615.6323077227617
 42
0.4142135623731
 10
17.02287003800677
 20
-615.1323077227618
 42
0.4142135623731
 10
16.52287003800677
 20
-615.6323077227617
 42
0.4142135623731
 10
17.02287003800677
 20
-616.1323077227617
 42
0.4142135623731
  0
LWPOLYLINE
  5
84
330
1F
100
AcDbEntity
  8
2-4
  6
Continuous
 62
     7
370
     5
100
AcDbPolyline
 90
        4
 70
     1
 43
1.0
 10
679.7896167652026
 20
-844.8857982738598
 42
0.4142135623731
 10
679.2896167652026
 20
-844.3857982738598
 42
0.4142135623731
 10
678.7896167652026
 20
-844.8857982738598
 42
0.4142135623731
 10
679.2896167652026
 20
-845.3857982738598
 42
0.4142135623731
  0
LWPOLYLINE
  5
85
330
1F
100
AcDbEntity
  8
2-4
  6
Continuous
 62
     7
370
     5
100
AcDbPolyline
 90
        4
 70
     1
 43
1.0
 10
699.7896827491558
 20
-844.8857982738598
 42
0.4142135623731
 10
699.2896827491558
 20
-844.3857982738598
 42
0.4142135623731
 10
698.7896827491558
 20
-844.8857982738598
 42
0.4142135623731
 10
699.2896827491558
 20
-845.3857982738598
 42
0.4142135623731
  0
LWPOLYLINE
  5
86
330
1F
100
AcDbEntity
  8
1-4
  6
Continuous
 62
     7
370
     5
100
AcDbPolyline
 90
        4
 70
     1
 43
1.0
 10
-1604.85418536212
 20
-301.1862759976773
 42
0.4142135623731
 10
-1605.35418536212
 20
-300.6862759976773
 42
0.4142135623731
 10
-1605.85418536212
 20
-301.1862759976773
 42
0.4142135623731
 10
-1605.35418536212
 20
-301.6862759976773
 42
0.4142135623731
  0
LWPOLYLINE
  5
87
330
1F
100
AcDbEntity
  8
1-4
  6
Continuous
 62
     7
370
     5
100
AcDbPolyline
 90
        4
 70
     1
 43
1.0
 10
55.14510531038854
 20
-301.1862759976773
 42
0.4142135623731
 10
54.64510531038854
 20
-300.6862759976773
 42
0.4142135623731
 10
54.14510531038854
 20
-301.1862759976773
 42
0.4142135623731
 10
54.64510531038854
 20
-301.6862759976773
 42
0.4142135623731
  0
LINE
  5
88
330
1F
100
AcDbEntity
  8
1-1
  6
Continuous
 62
    40
370
     9
100
AcDbLine
 10
-210.7538996516047
 20
1176.81360193201
 30
0.0
 11
-210.7538996516047
 21
1116.813651419975
 31
0.0
  0
LINE
  5
89
330
1F
100
AcDbEntity
  8
1-1
  6
Continuous
 62
    40
370
     9
100
AcDbLine
 10
-191.3536277977195
 20
1126.813684411951
 30
0.0
 11
-210.7538996516047
 21
1126.813684411951
 31
0.0
  0
LINE
  5
8A
330
1F
100
AcDbEntity
  8
1-1
  6
Continuous
 62
    40
370
     9
100
AcDbLine
 10
-185.3537069784628
 20
1170.813681112754
 30
0.0
 11
-185.3537069784628
 21
1132.813605231208
 31
0.0
  0
LINE
  5
8B
330
1F
100
AcDbEntity
  8
1-1
  6
Continuous
 62
    40
370
     9
100
AcDbLine
 10
-1315.353970914273
 20
1136.813717403928
 30
0.0
 11
-1310.753817171664
 21
1136.813717403928
 31
0.0
  0
LINE
  5
8C
330
1F
100
AcDbEntity
  8
1-1
  6
Continuous
 62
    40
370
     9
100
AcDbLine
 10
-1315.353970914273
 20
1116.813651419975
 30
0.0
 11
-1315.353970914273
 21
1176.81360193201
 31
0.0
  0
LINE
  5
8D
330
1F
100
AcDbEntity
  8
1-1
  6
Continuous
 62
    40
370
     9
100
AcDbLine
 10
-1315.353970914273
 20
1176.81360193201
 30
0.0
 11
-1291.353792757601
 21
1176.81360193201
 31
0.0
  0
LINE
  5
8E
330
1F
100
AcDbEntity
  8
1-1
  6
Continuous
 62
    40
370
     9
100
AcDbLine
 10
-1285.353624498522
 20
1170.813681112754
 30
0.0
 11
-1285.353624498522
 21
1132.813605231208
 31
0.0
  0
LINE
  5
8F
330
1F
100
AcDbEntity
  8
1-1
  6
Continuous
 62
    40
370
     9
100
AcDbLine
 10
-1685.353954418285
 20
831.4133432749156
 30
0.0
 11
-1625.35400390625
 21
831.4133432749156
 31
0.0
  0
LINE
  5
90
330
1F
100
AcDbEntity
  8
1-1
  6
Continuous
 62
    40
370
     9
100
AcDbLine
 10
-1635.353789458404
 20
850.8136151288008
 30
0.0
 11
-1635.353789458404
 21
831.4133432749156
 31
0.0
  0
LINE
  5
91
330
1F
100
AcDbEntity
  8
1-1
  6
Continuous
 62
    40
370
     9
100
AcDbLine
 10
-1679.353786159206
 20
856.8135359480575
 30
0.0
 11
-1641.353957717483
 21
856.8135359480575
 31
0.0
  0
LINE
  5
92
330
1F
100
AcDbEntity
  8
1-1
  6
Continuous
 62
    40
370
     9
100
AcDbLine
 10
-1645.35382245038
 20
226.8134369721284
 30
0.0
 11
-1645.35382245038
 21
231.4133432749156
 31
0.0
  0
LINE
  5
93
330
1F
100
AcDbEntity
  8
1-1
  6
Continuous
 62
    40
370
     9
100
AcDbLine
 10
-1625.35400390625
 20
226.8134369721284
 30
0.0
 11
-1685.353954418285
 21
226.8134369721284
 31
0.0
  0
LINE
  5
94
330
1F
100
AcDbEntity
  8
1-1
  6
Continuous
 62
    40
370
     9
100
AcDbLine
 10
-1685.353954418285
 20
226.8134369721284
 30
0.0
 11
-1685.353954418285
 21
250.8133676889781
 31
0.0
  0
LINE
  5
95
330
1F
100
AcDbEntity
  8
1-1
  6
Continuous
 62
    40
370
     9
100
AcDbLine
 10
-1339.953943201014
 20
-143.1862990920607
 30
0.0
 11
-1339.953943201014
 21
-83.18659601984791
 31
0.0
  0
LINE
  5
96
330
1F
100
AcDbEntity
  8
1-1
  6
Continuous
 62
    40
370
     9
100
AcDbLine
 10
-1359.353720175253
 20
-93.18662901182421
 30
0.0
 11
-1339.953943201014
 21
-93.18662901182421
 31
0.0
  0
LINE
  5
97
330
1F
100
AcDbEntity
  8
1-1
  6
Continuous
 62
    40
370
     9
100
AcDbLine
 10
-235.3538719383445
 20
-103.1864145639778
 30
0.0
 11
-239.9537782411318
 21
-103.1864145639778
 31
0.0
  0
LINE
  5
98
330
1F
100
AcDbEntity
  8
1-1
  6
Continuous
 62
    40
370
     9
100
AcDbLine
 10
-235.3538719383445
 20
-83.18659601984791
 30
0.0
 11
-235.3538719383445
 21
-143.1862990920607
 31
0.0
  0
LINE
  5
99
330
1F
100
AcDbEntity
  8
1-1
  6
Continuous
 62
    40
370
     9
100
AcDbLine
 10
-235.3538719383445
 20
-143.1862990920607
 30
0.0
 11
-259.3535552153716
 21
-143.1862990920607
 31
0.0
  0
LINE
  5
9A
330
1F
100
AcDbEntity
  8
1-1
  6
Continuous
 62
    40
370
     9
100
AcDbLine
 10
-265.3539709142734
 20
-137.1863782728039
 30
0.0
 11
-265.3539709142734
 21
-99.18654983108098
 31
0.0
  0
LINE
  5
9B
330
1F
100
AcDbEntity
  8
1-1
  6
Continuous
 62
    40
370
     9
100
AcDbLine
 10
-259.3535552153716
 20
-93.18662901182421
 30
0.0
 11
-239.9537782411318
 21
-93.18662901182421
 31
0.0
  0
LINE
  5
9C
330
1F
100
AcDbEntity
  8
1-1
  6
Continuous
 62
    40
370
     9
100
AcDbLine
 10
-239.9537782411318
 20
-143.1862990920607
 30
0.0
 11
-239.9537782411318
 21
-83.18659601984791
 31
0.0
  0
LINE
  5
9D
330
1F
100
AcDbEntity
  8
1-1
  6
Continuous
 62
    40
370
     9
100
AcDbLine
 10
74.64616105363177
 20
1116.813651419975
 30
0.0
 11
74.64616105363177
 21
586.3692330025339
 31
0.0
  0
LINE
  5
9E
330
1F
100
AcDbEntity
  8
1-1
  6
Continuous
 62
    40
370
     9
100
AcDbLine
 10
74.64616105363177
 20
-83.18659601984791
 30
0.0
 11
-848.091579127956
 21
-83.18659601984791
 31
0.0
  0
LINE
  5
9F
330
1F
100
AcDbEntity
  8
1-1
  6
Continuous
 62
    40
370
     9
100
AcDbLine
 10
-1625.35400390625
 20
-83.18659601984791
 30
0.0
 11
-1625.35400390625
 21
471.3533886058912
 31
0.0
  0
LINE
  5
A0
330
1F
100
AcDbEntity
  8
1-1
  6
Continuous
 62
    40
370
     9
100
AcDbLine
 10
-1609.353802655194
 20
-67.18664220861484
 30
0.0
 11
-1609.353802655194
 21
472.2851232580237
 31
0.0
  0
LINE
  5
A1
330
1F
100
AcDbEntity
  8
1-1
  6
Continuous
 62
    40
370
     9
100
AcDbLine
 10
58.6462072423987
 20
-67.18664220861484
 30
0.0
 11
-846.6306944151182
 21
-67.18664220861484
 31
0.0
  0
LINE
  5
A2
330
1F
100
AcDbEntity
  8
1-1
  6
Continuous
 62
    40
370
     9
100
AcDbLine
 10
58.6462072423987
 20
1100.813697608742
 30
0.0
 11
58.6462072423987
 21
585.4374983504013
 31
0.0
  0
LINE
  5
A3
330
1F
100
AcDbEntity
  8
1-1
  6
Continuous
 62
    40
370
     9
100
AcDbLine
 10
-1625.35400390625
 20
1116.813651419975
 30
0.0
 11
-1609.353802655194
 21
1100.813697608742
 31
0.0
  0
LINE
  5
A4
330
1F
100
AcDbEntity
  8
1-1
  6
Continuous
 62
    40
370
     9
100
AcDbLine
 10
-1609.353802655194
 20
-67.18664220861484
 30
0.0
 11
-1625.35400390625
 21
-83.18659601984791
 31
0.0
  0
LINE
  5
A5
330
1F
100
AcDbEntity
  8
1-1
  6
Continuous
 62
    40
370
     9
100
AcDbLine
 10
58.6462072423987
 20
-67.18664220861484
 30
0.0
 11
74.64616105363177
 21
-83.18659601984791
 31
0.0
  0
LINE
  5
A6
330
1F
100
AcDbEntity
  8
1-1
  6
Continuous
 62
    40
370
     9
100
AcDbLine
 10
74.64616105363177
 20
1116.813651419975
 30
0.0
 11
58.6462072423987
 21
1100.813697608742
 31
0.0
  0
LINE
  5
A7
330
1F
100
AcDbEntity
  8
1-2
  6
Continuous
 62
    92
370
     5
100
AcDbLine
 10
54.64609506967918
 20
-51.18644095755911
 30
0.0
 11
54.64609506967918
 21
-63.18653003589532
 31
0.0
  0
LINE
  5
A8
330
1F
100
AcDbEntity
  8
1-1
  6
Continuous
 62
    40
370
     9
100
AcDbLine
 10
-1365.353888434333
 20
-137.1863782728039
 30
0.0
 11
-1365.353888434333
 21
-99.18654983108098
 31
0.0
  0
LINE
  5
A9
330
1F
100
AcDbEntity
  8
1-1
  6
JWW_CENTER1
 62
    40
370
     9
100
AcDbLine
 10
-225.3538389463682
 20
-98.27250712626693
 30
0.0
 11
-225.3538389463682
 21
-73.61710831925677
 31
0.0
  0
LINE
  5
AA
330
1F
100
AcDbEntity
  8
1-1
  6
Continuous
 62
    40
370
     9
100
AcDbLine
 10
134.6461115656675
 20
202.2134646853885
 30
0.0
 11
74.64616105363177
 21
202.2134646853885
 31
0.0
  0
LINE
  5
AB
330
1F
100
AcDbEntity
  8
1-1
  6
Continuous
 62
    40
370
     9
100
AcDbLine
 10
84.64619404560835
 20
182.813440271326
 30
0.0
 11
84.64619404560835
 21
202.2134646853885
 31
0.0
  0
LINE
  5
AC
330
1F
100
AcDbEntity
  8
1-1
  6
Continuous
 62
    40
370
     9
100
AcDbLine
 10
128.6461907464107
 20
176.8135194520693
 30
0.0
 11
90.64611486486513
 21
176.8135194520693
 31
0.0
  0
LINE
  5
AD
330
1F
100
AcDbEntity
  8
1-1
  6
Continuous
 62
    40
370
     9
100
AcDbLine
 10
134.6461115656675
 20
206.8133709881758
 30
0.0
 11
134.6461115656675
 21
182.813440271326
 31
0.0
  0
LINE
  5
AE
330
1F
100
AcDbEntity
  8
1-1
  6
Continuous
 62
    40
370
     9
100
AcDbLine
 10
74.64616105363177
 20
206.8133709881758
 30
0.0
 11
134.6461115656675
 21
206.8133709881758
 31
0.0
  0
LINE
  5
AF
330
1F
100
AcDbEntity
  8
1-1
  6
JWW_CENTER1
 62
    40
370
     9
100
AcDbLine
 10
91.26817857896981
 20
216.8135277000636
 30
0.0
 11
61.67882970861513
 21
216.8135277000636
 31
0.0
  0
LINE
  5
B0
330
1F
100
AcDbEntity
  8
1-1
  6
Continuous
 62
    40
370
     9
100
AcDbLine
 10
94.64622703758465
 20
206.8133709881758
 30
0.0
 11
94.64622703758465
 21
202.2134646853885
 31
0.0
  0
LINE
  5
B1
330
1F
100
AcDbEntity
  8
1-1
  6
JWW_CENTER1
 62
    40
370
     9
100
AcDbLine
 10
-782.0098052153717
 20
816.7094792546453
 30
0.0
 11
-752.3793813344594
 21
1141.299059068834
 31
0.0
  0
LINE
  5
B2
330
1F
100
AcDbEntity
  8
1-1
  6
JWW_CENTER1
 62
    40
370
     9
100
AcDbLine
 10
-766.0761652766047
 20
815.2547805373734
 30
0.0
 11
-736.4452465160471
 21
1139.844607791385
 31
0.0
  0
LINE
  5
B3
330
1F
100
AcDbEntity
  8
1-1
  6
JWW_CENTER1
 62
    40
370
     9
100
AcDbLine
 10
-86.82762352195937
 20
576.967014622044
 30
0.0
 11
104.1721653293919
 21
588.0886923300255
 31
0.0
  0
LINE
  5
B4
330
1F
100
AcDbEntity
  8
1-1
  6
JWW_CENTER1
 62
    40
370
     9
100
AcDbLine
 10
-85.89774466849661
 20
560.9940317514781
 30
0.0
 11
105.102044182855
 21
572.1157094594596
 31
0.0
  0
LINE
  5
B5
330
1F
100
AcDbEntity
  8
1-1
  6
Continuous
 62
    40
370
     9
100
AcDbLine
 10
94.64622703758465
 20
806.8136184279984
 30
0.0
 11
94.64622703758465
 21
802.2134646853885
 31
0.0
  0
LINE
  5
B6
330
1F
100
AcDbEntity
  8
1-1
  6
Continuous
 62
    40
370
     9
100
AcDbLine
 10
74.64616105363177
 20
806.8136184279984
 30
0.0
 11
134.6461115656675
 21
806.8136184279984
 31
0.0
  0
LINE
  5
B7
330
1F
100
AcDbEntity
  8
1-1
  6
JWW_CENTER1
 62
    40
370
     9
100
AcDbLine
 10
-865.9970670133023
 20
-103.3341361380911
 30
0.0
 11
-811.6402290962835
 21
492.1194045608109
 31
0.0
  0
LINE
  5
B8
330
1F
100
AcDbEntity
  8
1-1
  6
JWW_CENTER1
 62
    40
370
     9
100
AcDbLine
 10
-1661.444339236698
 20
469.2520059121622
 30
0.0
 11
-1466.92273938978
 21
480.5786875131969
 31
0.0
  0
LINE
  5
B9
330
1F
100
AcDbEntity
  8
1-1
  6
JWW_CENTER1
 62
    40
370
     9
100
AcDbLine
 10
-1662.374465529983
 20
485.2248650628169
 30
0.0
 11
-1467.852618243243
 21
496.5516703837628
 31
0.0
  0
LINE
  5
BA
330
1F
100
AcDbEntity
  8
1-1
  6
JWW_CENTER1
 62
    40
370
     9
100
AcDbLine
 10
91.32113070101354
 20
816.8136514199748
 30
0.0
 11
65.43595597550677
 21
816.8136514199748
 31
0.0
  0
LINE
  5
BB
330
1F
100
AcDbEntity
  8
1-1
  6
Continuous
 62
    40
370
     9
100
AcDbLine
 10
134.6461115656675
 20
806.8136184279984
 30
0.0
 11
134.6461115656675
 21
782.813440271326
 31
0.0
  0
LINE
  5
BC
330
1F
100
AcDbEntity
  8
1-1
  6
Continuous
 62
    40
370
     9
100
AcDbLine
 10
128.6461907464107
 20
776.8135194520693
 30
0.0
 11
90.64611486486513
 21
776.8135194520693
 31
0.0
  0
LINE
  5
BD
330
1F
100
AcDbEntity
  8
1-1
  6
Continuous
 62
    40
370
     9
100
AcDbLine
 10
74.64616105363177
 20
570.342060810811
 30
0.0
 11
74.64616105363177
 21
-83.18659601984791
 31
0.0
  0
LINE
  5
BE
330
1F
100
AcDbEntity
  8
1-1
  6
Continuous
 62
    40
370
     9
100
AcDbLine
 10
58.6462072423987
 20
569.4106973184123
 30
0.0
 11
58.6462072423987
 21
-67.18664220861484
 31
0.0
  0
LINE
  5
BF
330
1F
100
AcDbEntity
  8
1-1
  6
Continuous
 62
    40
370
     9
100
AcDbLine
 10
-1625.35400390625
 20
487.3805607976141
 30
0.0
 11
-1625.35400390625
 21
1116.813651419975
 31
0.0
  0
LINE
  5
C0
330
1F
100
AcDbEntity
  8
1-1
  6
Continuous
 62
    40
370
     9
100
AcDbLine
 10
-1609.353802655194
 20
488.3121717298354
 30
0.0
 11
-1609.353802655194
 21
1100.813697608742
 31
0.0
  0
LINE
  5
C1
330
1F
100
AcDbEntity
  8
1-1
  6
Continuous
 62
    40
370
     9
100
AcDbLine
 10
84.64619404560835
 20
782.813440271326
 30
0.0
 11
84.64619404560835
 21
802.2134646853885
 31
0.0
  0
LINE
  5
C2
330
1F
100
AcDbEntity
  8
1-1
  6
Continuous
 62
    40
370
     9
100
AcDbLine
 10
134.6461115656675
 20
802.2134646853885
 30
0.0
 11
74.64616105363177
 21
802.2134646853885
 31
0.0
  0
LINE
  5
C3
330
1F
100
AcDbEntity
  8
1-1
  6
Continuous
 62
    40
370
     9
100
AcDbLine
 10
-215.3538059543916
 20
1176.81360193201
 30
0.0
 11
-191.3536277977195
 21
1176.81360193201
 31
0.0
  0
LINE
  5
C4
330
1F
100
AcDbEntity
  8
1-1
  6
JWW_CENTER1
 62
    40
370
     9
100
AcDbLine
 10
-225.3538389463682
 20
1140.322661528716
 30
0.0
 11
-225.3538389463682
 21
1105.953270164696
 31
0.0
  0
LINE
  5
C5
330
1F
100
AcDbEntity
  8
1-1
  6
Continuous
 62
    40
370
     9
100
AcDbLine
 10
-215.3538059543916
 20
1116.813651419975
 30
0.0
 11
-215.3538059543916
 21
1176.81360193201
 31
0.0
  0
LINE
  5
C6
330
1F
100
AcDbEntity
  8
1-1
  6
Continuous
 62
    40
370
     9
100
AcDbLine
 10
-215.3538059543916
 20
1136.813717403928
 30
0.0
 11
-210.7538996516047
 21
1136.813717403928
 31
0.0
  0
LINE
  5
C7
330
1F
100
AcDbEntity
  8
1-1
  6
Continuous
 62
    40
370
     9
100
AcDbLine
 10
-1291.353792757601
 20
1126.813684411951
 30
0.0
 11
-1310.753817171664
 21
1126.813684411951
 31
0.0
  0
LINE
  5
C8
330
1F
100
AcDbEntity
  8
1-1
  6
JWW_CENTER1
 62
    40
370
     9
100
AcDbLine
 10
-1325.353756466427
 20
1133.028135557433
 30
0.0
 11
-1325.353756466427
 21
1108.920815957559
 31
0.0
  0
LINE
  5
C9
330
1F
100
AcDbEntity
  8
1-1
  6
Continuous
 62
    40
370
     9
100
AcDbLine
 10
-1310.753817171664
 20
1176.81360193201
 30
0.0
 11
-1310.753817171664
 21
1116.813651419975
 31
0.0
  0
LINE
  5
CA
330
1F
100
AcDbEntity
  8
1-1
  6
Continuous
 62
    40
370
     9
100
AcDbLine
 10
-1685.353954418285
 20
826.8134369721283
 30
0.0
 11
-1685.353954418285
 21
850.8136151288008
 31
0.0
  0
LINE
  5
CB
330
1F
100
AcDbEntity
  8
1-1
  6
Continuous
 62
    40
370
     9
100
AcDbLine
 10
-1625.35400390625
 20
826.8134369721283
 30
0.0
 11
-1685.353954418285
 21
826.8134369721283
 31
0.0
  0
LINE
  5
CC
330
1F
100
AcDbEntity
  8
1-1
  6
JWW_CENTER1
 62
    40
370
     9
100
AcDbLine
 10
-1645.799461570946
 20
816.8136514199748
 30
0.0
 11
-1617.477994351774
 21
816.8136514199748
 31
0.0
  0
LINE
  5
CD
330
1F
100
AcDbEntity
  8
1-1
  6
Continuous
 62
    40
370
     9
100
AcDbLine
 10
-1645.35382245038
 20
826.8134369721283
 30
0.0
 11
-1645.35382245038
 21
831.4133432749156
 31
0.0
  0
LINE
  5
CE
330
1F
100
AcDbEntity
  8
1-1
  6
Continuous
 62
    40
370
     9
100
AcDbLine
 10
-1679.353786159206
 20
256.8135359480576
 30
0.0
 11
-1641.353957717483
 21
256.8135359480576
 31
0.0
  0
LINE
  5
CF
330
1F
100
AcDbEntity
  8
1-1
  6
Continuous
 62
    40
370
     9
100
AcDbLine
 10
-1635.353789458404
 20
250.8133676889781
 30
0.0
 11
-1635.353789458404
 21
231.4133432749156
 31
0.0
  0
LINE
  5
D0
330
1F
100
AcDbEntity
  8
1-1
  6
JWW_CENTER1
 62
    40
370
     9
100
AcDbLine
 10
-1646.637292810389
 20
216.8135277000636
 30
0.0
 11
-1614.020517710093
 21
216.8135277000636
 31
0.0
  0
LINE
  5
D1
330
1F
100
AcDbEntity
  8
1-1
  6
Continuous
 62
    40
370
     9
100
AcDbLine
 10
-1685.353954418285
 20
231.4133432749156
 30
0.0
 11
-1625.35400390625
 21
231.4133432749156
 31
0.0
  0
LINE
  5
D2
330
1F
100
AcDbEntity
  8
1-1
  6
Continuous
 62
    40
370
     9
100
AcDbLine
 10
-1335.353789458404
 20
-143.1862990920607
 30
0.0
 11
-1359.353720175253
 21
-143.1862990920607
 31
0.0
  0
LINE
  5
D3
330
1F
100
AcDbEntity
  8
1-1
  6
Continuous
 62
    40
370
     9
100
AcDbLine
 10
-1335.353789458404
 20
-83.18659601984791
 30
0.0
 11
-1335.353789458404
 21
-143.1862990920607
 31
0.0
  0
LINE
  5
D4
330
1F
100
AcDbEntity
  8
1-1
  6
Continuous
 62
    40
370
     9
100
AcDbLine
 10
-1335.353789458404
 20
-103.1864145639778
 30
0.0
 11
-1339.953943201014
 21
-103.1864145639778
 31
0.0
  0
LINE
  5
D5
330
1F
100
AcDbEntity
  8
1-1
  6
JWW_CENTER1
 62
    40
370
     9
100
AcDbLine
 10
-1325.353756466427
 20
-94.10067171663854
 30
0.0
 11
-1325.353756466427
 21
-73.67055532094582
 31
0.0
  0
LINE
  5
D6
330
1F
100
AcDbEntity
  8
1-2
  6
Continuous
 62
    92
370
     5
100
AcDbLine
 10
54.64609506967918
 20
-25.18645415434946
 30
0.0
 11
54.64609506967918
 21
-37.18654323268566
 31
0.0
  0
LINE
  5
D7
330
1F
100
AcDbEntity
  8
1-2
  6
Continuous
 62
    92
370
     5
100
AcDbLine
 10
-1605.35418536212
 20
-63.18653003589532
 30
0.0
 11
-1605.35418536212
 21
-51.18644095755911
 31
0.0
  0
LINE
  5
D8
330
1F
100
AcDbEntity
  8
1-2
  6
Continuous
 62
    92
370
     5
100
AcDbLine
 10
-1605.35418536212
 20
-37.18654323268566
 30
0.0
 11
-1605.35418536212
 21
-25.18645415434946
 31
0.0
  0
LINE
  5
D9
330
1F
100
AcDbEntity
  8
1-2
  6
Continuous
 62
    92
370
     5
100
AcDbLine
 10
54.64609506967918
 20
0.8135326488599048
 30
0.0
 11
54.64609506967918
 21
-11.1865564294763
 31
0.0
  0
LINE
  5
DA
330
1F
100
AcDbEntity
  8
1-2
  6
Continuous
 62
    92
370
     5
100
AcDbLine
 10
-1605.35418536212
 20
-11.1865564294763
 30
0.0
 11
-1605.35418536212
 21
0.8135326488599048
 31
0.0
  0
LINE
  5
DB
330
1F
100
AcDbEntity
  8
1-2
  6
Continuous
 62
    92
370
     5
100
AcDbLine
 10
54.64609506967918
 20
26.81351945206927
 30
0.0
 11
54.64609506967918
 21
14.81343037373307
 31
0.0
  0
LINE
  5
DC
330
1F
100
AcDbEntity
  8
1-2
  6
Continuous
 62
    92
370
     5
100
AcDbLine
 10
-1605.35418536212
 20
14.81343037373307
 30
0.0
 11
-1605.35418536212
 21
26.81351945206927
 31
0.0
  0
LINE
  5
DD
330
1F
100
AcDbEntity
  8
1-2
  6
Continuous
 62
    92
370
     5
100
AcDbLine
 10
54.64609506967918
 20
52.81350625527892
 30
0.0
 11
54.64609506967918
 21
40.81341717694272
 31
0.0
  0
LINE
  5
DE
330
1F
100
AcDbEntity
  8
1-2
  6
Continuous
 62
    92
370
     5
100
AcDbLine
 10
-1605.35418536212
 20
40.81341717694272
 30
0.0
 11
-1605.35418536212
 21
52.81350625527892
 31
0.0
  0
LINE
  5
DF
330
1F
100
AcDbEntity
  8
1-2
  6
Continuous
 62
    92
370
     5
100
AcDbLine
 10
54.64609506967918
 20
78.81349305848829
 30
0.0
 11
54.64609506967918
 21
66.81340398015209
 31
0.0
  0
LINE
  5
E0
330
1F
100
AcDbEntity
  8
1-2
  6
Continuous
 62
    92
370
     5
100
AcDbLine
 10
-1605.35418536212
 20
66.81340398015209
 30
0.0
 11
-1605.35418536212
 21
78.81349305848829
 31
0.0
  0
LINE
  5
E1
330
1F
100
AcDbEntity
  8
1-2
  6
Continuous
 62
    92
370
     5
100
AcDbLine
 10
54.64609506967918
 20
104.8134798616977
 30
0.0
 11
54.64609506967918
 21
92.81363822318411
 31
0.0
  0
LINE
  5
E2
330
1F
100
AcDbEntity
  8
1-2
  6
Continuous
 62
    92
370
     5
100
AcDbLine
 10
-1605.35418536212
 20
92.81363822318411
 30
0.0
 11
-1605.35418536212
 21
104.8134798616977
 31
0.0
  0
LINE
  5
E3
330
1F
100
AcDbEntity
  8
1-2
  6
Continuous
 62
    92
370
     5
100
AcDbLine
 10
54.64609506967918
 20
130.8135903848185
 30
0.0
 11
54.64609506967918
 21
118.8136250263938
 31
0.0
  0
LINE
  5
E4
330
1F
100
AcDbEntity
  8
1-2
  6
Continuous
 62
    92
370
     5
100
AcDbLine
 10
-1605.35418536212
 20
118.8136250263938
 30
0.0
 11
-1605.35418536212
 21
130.8135903848185
 31
0.0
  0
LINE
  5
E5
330
1F
100
AcDbEntity
  8
1-2
  6
Continuous
 62
    92
370
     5
100
AcDbLine
 10
54.64609506967918
 20
156.8135771880279
 30
0.0
 11
54.64609506967918
 21
144.8136118296031
 31
0.0
  0
LINE
  5
E6
330
1F
100
AcDbEntity
  8
1-2
  6
Continuous
 62
    92
370
     5
100
AcDbLine
 10
-1605.35418536212
 20
144.8136118296031
 30
0.0
 11
-1605.35418536212
 21
156.8135771880279
 31
0.0
  0
LINE
  5
E7
330
1F
100
AcDbEntity
  8
1-2
  6
Continuous
 62
    92
370
     5
100
AcDbLine
 10
54.64609506967918
 20
182.8135639912375
 30
0.0
 11
54.64609506967918
 21
170.8135986328125
 31
0.0
  0
LINE
  5
E8
330
1F
100
AcDbEntity
  8
1-2
  6
Continuous
 62
    92
370
     5
100
AcDbLine
 10
-1605.35418536212
 20
170.8135986328125
 30
0.0
 11
-1605.35418536212
 21
182.8135639912375
 31
0.0
  0
LINE
  5
E9
330
1F
100
AcDbEntity
  8
1-2
  6
Continuous
 62
    92
370
     5
100
AcDbLine
 10
54.64609506967918
 20
208.8135507944469
 30
0.0
 11
54.64609506967918
 21
196.8135854360222
 31
0.0
  0
LINE
  5
EA
330
1F
100
AcDbEntity
  8
1-2
  6
Continuous
 62
    92
370
     5
100
AcDbLine
 10
-1605.35418536212
 20
196.8135854360222
 30
0.0
 11
-1605.35418536212
 21
208.8135507944469
 31
0.0
  0
LINE
  5
EB
330
1F
100
AcDbEntity
  8
1-2
  6
Continuous
 62
    92
370
     5
100
AcDbLine
 10
54.64609506967918
 20
234.8135375976562
 30
0.0
 11
54.64609506967918
 21
222.8135722392315
 31
0.0
  0
LINE
  5
EC
330
1F
100
AcDbEntity
  8
1-2
  6
Continuous
 62
    92
370
     5
100
AcDbLine
 10
-1605.35418536212
 20
222.8135722392315
 30
0.0
 11
-1605.35418536212
 21
234.8135375976562
 31
0.0
  0
LINE
  5
ED
330
1F
100
AcDbEntity
  8
1-2
  6
Continuous
 62
    92
370
     5
100
AcDbLine
 10
54.64609506967918
 20
260.8135244008659
 30
0.0
 11
54.64609506967918
 21
248.8135590424409
 31
0.0
  0
LINE
  5
EE
330
1F
100
AcDbEntity
  8
1-2
  6
Continuous
 62
    92
370
     5
100
AcDbLine
 10
-1605.35418536212
 20
248.8135590424409
 30
0.0
 11
-1605.35418536212
 21
260.8135244008659
 31
0.0
  0
LINE
  5
EF
330
1F
100
AcDbEntity
  8
1-2
  6
Continuous
 62
    92
370
     5
100
AcDbLine
 10
54.64609506967918
 20
286.8135112040753
 30
0.0
 11
54.64609506967918
 21
274.8135458456505
 31
0.0
  0
LINE
  5
F0
330
1F
100
AcDbEntity
  8
1-2
  6
Continuous
 62
    92
370
     5
100
AcDbLine
 10
-1605.35418536212
 20
274.8135458456505
 30
0.0
 11
-1605.35418536212
 21
286.8135112040753
 31
0.0
  0
LINE
  5
F1
330
1F
100
AcDbEntity
  8
1-2
  6
Continuous
 62
    92
370
     5
100
AcDbLine
 10
54.64609506967918
 20
312.8134980072846
 30
0.0
 11
54.64609506967918
 21
300.8135326488599
 31
0.0
  0
LINE
  5
F2
330
1F
100
AcDbEntity
  8
1-2
  6
Continuous
 62
    92
370
     5
100
AcDbLine
 10
-1605.35418536212
 20
300.8135326488599
 30
0.0
 11
-1605.35418536212
 21
312.8134980072846
 31
0.0
  0
LINE
  5
F3
330
1F
100
AcDbEntity
  8
1-2
  6
Continuous
 62
    92
370
     5
100
AcDbLine
 10
54.64609506967918
 20
338.8133610905828
 30
0.0
 11
54.64609506967918
 21
326.8135194520693
 31
0.0
  0
LINE
  5
F4
330
1F
100
AcDbEntity
  8
1-2
  6
Continuous
 62
    92
370
     5
100
AcDbLine
 10
-1605.35418536212
 20
326.8135194520693
 30
0.0
 11
-1605.35418536212
 21
338.8133610905828
 31
0.0
  0
LINE
  5
F5
330
1F
100
AcDbEntity
  8
1-2
  6
Continuous
 62
    92
370
     5
100
AcDbLine
 10
54.64609506967918
 20
364.8134716137037
 30
0.0
 11
54.64609506967918
 21
352.8135062552789
 31
0.0
  0
LINE
  5
F6
330
1F
100
AcDbEntity
  8
1-2
  6
Continuous
 62
    92
370
     5
100
AcDbLine
 10
54.64609506967918
 20
390.813458416913
 30
0.0
 11
54.64609506967918
 21
378.8134930584883
 31
0.0
  0
LINE
  5
F7
330
1F
100
AcDbEntity
  8
1-2
  6
Continuous
 62
    92
370
     5
100
AcDbLine
 10
54.64609506967918
 20
416.8134452201227
 30
0.0
 11
54.64609506967918
 21
404.8134798616977
 31
0.0
  0
LINE
  5
F8
330
1F
100
AcDbEntity
  8
1-2
  6
Continuous
 62
    92
370
     5
100
AcDbLine
 10
54.64609506967918
 20
442.813432023332
 30
0.0
 11
54.64609506967918
 21
430.8134666649073
 31
0.0
  0
LINE
  5
F9
330
1F
100
AcDbEntity
  8
1-2
  6
Continuous
 62
    92
370
     5
100
AcDbLine
 10
54.64609506967918
 20
468.8134188265414
 30
0.0
 11
54.64609506967918
 21
456.8134534681167
 31
0.0
  0
LINE
  5
FA
330
1F
100
AcDbEntity
  8
1-2
  6
Continuous
 62
    92
370
     5
100
AcDbLine
 10
54.64609506967918
 20
430.8134666649073
 30
0.0
 11
-519.9683112067144
 21
430.8134666649073
 31
0.0
  0
LINE
  5
FB
330
1F
100
AcDbEntity
  8
1-2
  6
Continuous
 62
    92
370
     5
100
AcDbLine
 10
54.64609506967918
 20
456.8134534681167
 30
0.0
 11
-187.9684035842482
 21
456.8134534681167
 31
0.0
  0
LINE
  5
FC
330
1F
100
AcDbEntity
  8
1-2
  6
Continuous
 62
    92
370
     5
100
AcDbLine
 10
-1605.35418536212
 20
1084.813743797508
 30
0.0
 11
-1605.35418536212
 21
1096.813832875845
 31
0.0
  0
LINE
  5
FD
330
1F
100
AcDbEntity
  8
1-2
  6
Continuous
 62
    92
370
     5
100
AcDbLine
 10
-1605.35418536212
 20
1058.813756994299
 30
0.0
 11
-1605.35418536212
 21
1070.813846072635
 31
0.0
  0
LINE
  5
FE
330
1F
100
AcDbEntity
  8
1-2
  6
Continuous
 62
    92
370
     5
100
AcDbLine
 10
54.64609506967918
 20
1096.813832875845
 30
0.0
 11
54.64609506967918
 21
1084.813743797508
 31
0.0
  0
LINE
  5
FF
330
1F
100
AcDbEntity
  8
1-2
  6
Continuous
 62
    92
370
     5
100
AcDbLine
 10
54.64609506967918
 20
1070.813846072635
 30
0.0
 11
54.64609506967918
 21
1058.813756994299
 31
0.0
  0
LINE
  5
100
330
1F
100
AcDbEntity
  8
1-2
  6
Continuous
 62
    92
370
     5
100
AcDbLine
 10
-1605.35418536212
 20
1032.81377019109
 30
0.0
 11
-1605.35418536212
 21
1044.813859269426
 31
0.0
  0
LINE
  5
101
330
1F
100
AcDbEntity
  8
1-2
  6
Continuous
 62
    92
370
     5
100
AcDbLine
 10
54.64609506967918
 20
1044.813859269426
 30
0.0
 11
54.64609506967918
 21
1032.81377019109
 31
0.0
  0
LINE
  5
102
330
1F
100
AcDbEntity
  8
1-2
  6
Continuous
 62
    92
370
     5
100
AcDbLine
 10
-1605.35418536212
 20
1006.81378338788
 30
0.0
 11
-1605.35418536212
 21
1018.813872466216
 31
0.0
  0
LINE
  5
103
330
1F
100
AcDbEntity
  8
1-2
  6
Continuous
 62
    92
370
     5
100
AcDbLine
 10
54.64609506967918
 20
1018.813872466216
 30
0.0
 11
54.64609506967918
 21
1006.81378338788
 31
0.0
  0
LINE
  5
104
330
1F
100
AcDbEntity
  8
1-2
  6
Continuous
 62
    92
370
     5
100
AcDbLine
 10
-1605.35418536212
 20
980.8137965846709
 30
0.0
 11
-1605.35418536212
 21
992.8138856630068
 31
0.0
  0
LINE
  5
105
330
1F
100
AcDbEntity
  8
1-2
  6
Continuous
 62
    92
370
     5
100
AcDbLine
 10
54.64609506967918
 20
992.8138856630068
 30
0.0
 11
54.64609506967918
 21
980.8137965846709
 31
0.0
  0
LINE
  5
106
330
1F
100
AcDbEntity
  8
1-2
  6
Continuous
 62
    92
370
     5
100
AcDbLine
 10
-1605.35418536212
 20
954.8138097814613
 30
0.0
 11
-1605.35418536212
 21
966.8138988597974
 31
0.0
  0
LINE
  5
107
330
1F
100
AcDbEntity
  8
1-2
  6
Continuous
 62
    92
370
     5
100
AcDbLine
 10
54.64609506967918
 20
966.8138988597974
 30
0.0
 11
54.64609506967918
 21
954.8138097814613
 31
0.0
  0
LINE
  5
108
330
1F
100
AcDbEntity
  8
1-2
  6
Continuous
 62
    92
370
     5
100
AcDbLine
 10
-1605.35418536212
 20
928.8138229782519
 30
0.0
 11
-1605.35418536212
 21
940.8136646167654
 31
0.0
  0
LINE
  5
109
330
1F
100
AcDbEntity
  8
1-2
  6
Continuous
 62
    92
370
     5
100
AcDbLine
 10
54.64609506967918
 20
940.8136646167654
 30
0.0
 11
54.64609506967918
 21
928.8138229782519
 31
0.0
  0
LINE
  5
10A
330
1F
100
AcDbEntity
  8
1-2
  6
Continuous
 62
    92
370
     5
100
AcDbLine
 10
-1605.35418536212
 20
902.8135887352198
 30
0.0
 11
-1605.35418536212
 21
914.8136778135561
 31
0.0
  0
LINE
  5
10B
330
1F
100
AcDbEntity
  8
1-2
  6
Continuous
 62
    92
370
     5
100
AcDbLine
 10
54.64609506967918
 20
914.8136778135561
 30
0.0
 11
54.64609506967918
 21
902.8135887352198
 31
0.0
  0
LINE
  5
10C
330
1F
100
AcDbEntity
  8
1-2
  6
Continuous
 62
    92
370
     5
100
AcDbLine
 10
-1605.35418536212
 20
876.8136019320102
 30
0.0
 11
-1605.35418536212
 21
888.8136910103464
 31
0.0
  0
LINE
  5
10D
330
1F
100
AcDbEntity
  8
1-2
  6
Continuous
 62
    92
370
     5
100
AcDbLine
 10
-1605.35418536212
 20
850.8136151288008
 30
0.0
 11
-1605.35418536212
 21
862.813704207137
 31
0.0
  0
LINE
  5
10E
330
1F
100
AcDbEntity
  8
1-2
  6
Continuous
 62
    92
370
     5
100
AcDbLine
 10
-1605.35418536212
 20
824.8136283255915
 30
0.0
 11
-1605.35418536212
 21
836.8137174039276
 31
0.0
  0
LINE
  5
10F
330
1F
100
AcDbEntity
  8
1-2
  6
Continuous
 62
    92
370
     5
100
AcDbLine
 10
54.64609506967918
 20
-63.18653003589532
 30
0.0
 11
-846.2654732369087
 21
-63.18653003589532
 31
0.0
  0
LINE
  5
110
330
1F
100
AcDbEntity
  8
1-2
  6
Continuous
 62
    92
370
     5
100
AcDbLine
 10
54.64609506967918
 20
-51.18644095755911
 30
0.0
 11
-845.1703045819256
 21
-51.18644095755911
 31
0.0
  0
LINE
  5
111
330
1F
100
AcDbEntity
  8
1-2
  6
Continuous
 62
    92
370
     5
100
AcDbLine
 10
54.64609506967918
 20
-37.18654323268566
 30
0.0
 11
-843.8920304581925
 21
-37.18654323268566
 31
0.0
  0
LINE
  5
112
330
1F
100
AcDbEntity
  8
1-2
  6
Continuous
 62
    92
370
     5
100
AcDbLine
 10
54.64609506967918
 20
-25.18645415434946
 30
0.0
 11
-842.7968618032094
 21
-25.18645415434946
 31
0.0
  0
LINE
  5
113
330
1F
100
AcDbEntity
  8
1-2
  6
Continuous
 62
    92
370
     5
100
AcDbLine
 10
54.64609506967918
 20
-11.1865564294763
 30
0.0
 11
-841.518835119299
 21
-11.1865564294763
 31
0.0
  0
LINE
  5
114
330
1F
100
AcDbEntity
  8
1-2
  6
Continuous
 62
    92
370
     5
100
AcDbLine
 10
54.64609506967918
 20
0.8135326488599048
 30
0.0
 11
-840.4234190244932
 21
0.8135326488599048
 31
0.0
  0
LINE
  5
115
330
1F
100
AcDbEntity
  8
1-2
  6
Continuous
 62
    92
370
     5
100
AcDbLine
 10
54.64609506967918
 20
14.81343037373307
 30
0.0
 11
-839.14514490076
 21
14.81343037373307
 31
0.0
  0
LINE
  5
116
330
1F
100
AcDbEntity
  8
1-2
  6
Continuous
 62
    92
370
     5
100
AcDbLine
 10
54.64609506967918
 20
26.81351945206927
 30
0.0
 11
-838.049976245777
 21
26.81351945206927
 31
0.0
  0
LINE
  5
117
330
1F
100
AcDbEntity
  8
1-2
  6
Continuous
 62
    92
370
     5
100
AcDbLine
 10
54.64609506967918
 20
40.81341717694272
 30
0.0
 11
-836.772197001689
 21
40.81341717694272
 31
0.0
  0
LINE
  5
118
330
1F
100
AcDbEntity
  8
1-2
  6
Continuous
 62
    92
370
     5
100
AcDbLine
 10
54.64609506967918
 20
52.81350625527892
 30
0.0
 11
-835.6765334670608
 21
52.81350625527892
 31
0.0
  0
LINE
  5
119
330
1F
100
AcDbEntity
  8
1-2
  6
Continuous
 62
    92
370
     5
100
AcDbLine
 10
54.64609506967918
 20
66.81340398015209
 30
0.0
 11
-834.3985067831502
 21
66.81340398015209
 31
0.0
  0
LINE
  5
11A
330
1F
100
AcDbEntity
  8
1-2
  6
Continuous
 62
    92
370
     5
100
AcDbLine
 10
54.64609506967918
 20
78.81349305848829
 30
0.0
 11
-833.3030906883446
 21
78.81349305848829
 31
0.0
  0
LINE
  5
11B
330
1F
100
AcDbEntity
  8
1-2
  6
Continuous
 62
    92
370
     5
100
AcDbLine
 10
54.64609506967918
 20
92.81363822318411
 30
0.0
 11
-832.0250640044342
 21
92.81363822318411
 31
0.0
  0
LINE
  5
11C
330
1F
100
AcDbEntity
  8
1-2
  6
Continuous
 62
    92
370
     5
100
AcDbLine
 10
54.64609506967918
 20
104.8134798616977
 30
0.0
 11
-830.9296479096282
 21
104.8134798616977
 31
0.0
  0
LINE
  5
11D
330
1F
100
AcDbEntity
  8
1-2
  6
Continuous
 62
    92
370
     5
100
AcDbLine
 10
54.64609506967918
 20
118.8136250263938
 30
0.0
 11
-829.6516212257178
 21
118.8136250263938
 31
0.0
  0
LINE
  5
11E
330
1F
100
AcDbEntity
  8
1-2
  6
Continuous
 62
    92
370
     5
100
AcDbLine
 10
54.64609506967918
 20
130.8135903848185
 30
0.0
 11
-828.5562051309121
 21
130.8135903848185
 31
0.0
  0
LINE
  5
11F
330
1F
100
AcDbEntity
  8
1-2
  6
Continuous
 62
    92
370
     5
100
AcDbLine
 10
54.64609506967918
 20
144.8136118296031
 30
0.0
 11
-827.2779310071791
 21
144.8136118296031
 31
0.0
  0
LINE
  5
120
330
1F
100
AcDbEntity
  8
1-2
  6
Continuous
 62
    92
370
     5
100
AcDbLine
 10
54.64609506967918
 20
156.8135771880279
 30
0.0
 11
-826.1827623521958
 21
156.8135771880279
 31
0.0
  0
LINE
  5
121
330
1F
100
AcDbEntity
  8
1-2
  6
Continuous
 62
    92
370
     5
100
AcDbLine
 10
54.64609506967918
 20
170.8135986328125
 30
0.0
 11
-824.9047356682854
 21
170.8135986328125
 31
0.0
  0
LINE
  5
122
330
1F
100
AcDbEntity
  8
1-2
  6
Continuous
 62
    92
370
     5
100
AcDbLine
 10
54.64609506967918
 20
182.8135639912375
 30
0.0
 11
-823.8093195734797
 21
182.8135639912375
 31
0.0
  0
LINE
  5
123
330
1F
100
AcDbEntity
  8
1-2
  6
Continuous
 62
    92
370
     5
100
AcDbLine
 10
54.64609506967918
 20
196.8135854360222
 30
0.0
 11
-822.5312928895692
 21
196.8135854360222
 31
0.0
  0
LINE
  5
124
330
1F
100
AcDbEntity
  8
1-2
  6
Continuous
 62
    92
370
     5
100
AcDbLine
 10
54.64609506967918
 20
208.8135507944469
 30
0.0
 11
-821.4358767947634
 21
208.8135507944469
 31
0.0
  0
LINE
  5
125
330
1F
100
AcDbEntity
  8
1-2
  6
Continuous
 62
    92
370
     5
100
AcDbLine
 10
54.64609506967918
 20
222.8135722392315
 30
0.0
 11
-820.157850110853
 21
222.8135722392315
 31
0.0
  0
LINE
  5
126
330
1F
100
AcDbEntity
  8
1-2
  6
Continuous
 62
    92
370
     5
100
AcDbLine
 10
54.64609506967918
 20
234.8135375976562
 30
0.0
 11
-819.0624340160471
 21
234.8135375976562
 31
0.0
  0
LINE
  5
127
330
1F
100
AcDbEntity
  8
1-2
  6
Continuous
 62
    92
370
     5
100
AcDbLine
 10
54.64609506967918
 20
248.8135590424409
 30
0.0
 11
-817.7844073321367
 21
248.8135590424409
 31
0.0
  0
LINE
  5
128
330
1F
100
AcDbEntity
  8
1-2
  6
Continuous
 62
    92
370
     5
100
AcDbLine
 10
54.64609506967918
 20
260.8135244008659
 30
0.0
 11
-816.688991237331
 21
260.8135244008659
 31
0.0
  0
LINE
  5
129
330
1F
100
AcDbEntity
  8
1-2
  6
Continuous
 62
    92
370
     5
100
AcDbLine
 10
54.64609506967918
 20
274.8135458456505
 30
0.0
 11
-815.4109645534206
 21
274.8135458456505
 31
0.0
  0
LINE
  5
12A
330
1F
100
AcDbEntity
  8
1-2
  6
Continuous
 62
    92
370
     5
100
AcDbLine
 10
54.64609506967918
 20
286.8135112040753
 30
0.0
 11
-814.3155484586148
 21
286.8135112040753
 31
0.0
  0
LINE
  5
12B
330
1F
100
AcDbEntity
  8
1-2
  6
Continuous
 62
    92
370
     5
100
AcDbLine
 10
54.64609506967918
 20
300.8135326488599
 30
0.0
 11
-813.0375217747044
 21
300.8135326488599
 31
0.0
  0
LINE
  5
12C
330
1F
100
AcDbEntity
  8
1-2
  6
Continuous
 62
    92
370
     5
100
AcDbLine
 10
54.64609506967918
 20
312.8134980072846
 30
0.0
 11
-811.9421056798988
 21
312.8134980072846
 31
0.0
  0
LINE
  5
12D
330
1F
100
AcDbEntity
  8
1-2
  6
Continuous
 62
    92
370
     5
100
AcDbLine
 10
54.64609506967918
 20
326.8135194520693
 30
0.0
 11
-810.664078995988
 21
326.8135194520693
 31
0.0
  0
LINE
  5
12E
330
1F
100
AcDbEntity
  8
1-2
  6
Continuous
 62
    92
370
     5
100
AcDbLine
 10
54.64609506967918
 20
338.8133610905828
 30
0.0
 11
-809.5686629011823
 21
338.8133610905828
 31
0.0
  0
LINE
  5
12F
330
1F
100
AcDbEntity
  8
1-2
  6
Continuous
 62
    92
370
     5
100
AcDbLine
 10
54.64609506967918
 20
352.8135062552789
 30
0.0
 11
-808.2906362172719
 21
352.8135062552789
 31
0.0
  0
LINE
  5
130
330
1F
100
AcDbEntity
  8
1-2
  6
Continuous
 62
    92
370
     5
100
AcDbLine
 10
54.64609506967918
 20
364.8134716137037
 30
0.0
 11
-807.1952201224661
 21
364.8134716137037
 31
0.0
  0
LINE
  5
131
330
1F
100
AcDbEntity
  8
1-2
  6
Continuous
 62
    92
370
     5
100
AcDbLine
 10
54.64609506967918
 20
378.8134930584883
 30
0.0
 11
-805.9171934385557
 21
378.8134930584883
 31
0.0
  0
LINE
  5
132
330
1F
100
AcDbEntity
  8
1-2
  6
Continuous
 62
    92
370
     5
100
AcDbLine
 10
54.64609506967918
 20
390.813458416913
 30
0.0
 11
-804.82177734375
 21
390.813458416913
 31
0.0
  0
LINE
  5
133
330
1F
100
AcDbEntity
  8
1-2
  6
Continuous
 62
    92
370
     5
100
AcDbLine
 10
54.64609506967918
 20
404.8134798616977
 30
0.0
 11
-803.5437506598396
 21
404.8134798616977
 31
0.0
  0
LINE
  5
134
330
1F
100
AcDbEntity
  8
1-1
  6
Continuous
 62
    40
370
     9
100
AcDbLine
 10
-862.6974569784627
 20
-67.18664220861484
 30
0.0
 11
-1609.353802655194
 21
-67.18664220861484
 31
0.0
  0
LINE
  5
135
330
1F
100
AcDbEntity
  8
1-2
  6
Continuous
 62
    92
370
     5
100
AcDbLine
 10
-862.3322358002532
 20
-63.18653003589532
 30
0.0
 11
-1605.35418536212
 21
-63.18653003589532
 31
0.0
  0
LINE
  5
136
330
1F
100
AcDbEntity
  8
1-1
  6
Continuous
 62
    40
370
     9
100
AcDbLine
 10
-864.1578468116553
 20
-83.18659601984791
 30
0.0
 11
-1625.35400390625
 21
-83.18659601984791
 31
0.0
  0
LINE
  5
137
330
1F
100
AcDbEntity
  8
1-2
  6
Continuous
 62
    92
370
     5
100
AcDbLine
 10
-861.236572265625
 20
-51.18644095755911
 30
0.0
 11
-1605.35418536212
 21
-51.18644095755911
 31
0.0
  0
LINE
  5
138
330
1F
100
AcDbEntity
  8
1-2
  6
Continuous
 62
    92
370
     5
100
AcDbLine
 10
-859.9587930215371
 20
-37.18654323268566
 30
0.0
 11
-1605.35418536212
 21
-37.18654323268566
 31
0.0
  0
LINE
  5
139
330
1F
100
AcDbEntity
  8
1-2
  6
Continuous
 62
    92
370
     5
100
AcDbLine
 10
-858.8631294869087
 20
-25.18645415434946
 30
0.0
 11
-1605.35418536212
 21
-25.18645415434946
 31
0.0
  0
LINE
  5
13A
330
1F
100
AcDbEntity
  8
1-2
  6
Continuous
 62
    92
370
     5
100
AcDbLine
 10
-857.5853502428208
 20
-11.1865564294763
 30
0.0
 11
-1605.35418536212
 21
-11.1865564294763
 31
0.0
  0
LINE
  5
13B
330
1F
100
AcDbEntity
  8
1-2
  6
Continuous
 62
    92
370
     5
100
AcDbLine
 10
-856.4896867081925
 20
0.8135326488599048
 30
0.0
 11
-1605.35418536212
 21
0.8135326488599048
 31
0.0
  0
LINE
  5
13C
330
1F
100
AcDbEntity
  8
1-2
  6
Continuous
 62
    92
370
     5
100
AcDbLine
 10
-855.2119074641047
 20
14.81343037373307
 30
0.0
 11
-1605.35418536212
 21
14.81343037373307
 31
0.0
  0
LINE
  5
13D
330
1F
100
AcDbEntity
  8
1-2
  6
Continuous
 62
    92
370
     5
100
AcDbLine
 10
-854.1162439294762
 20
26.81351945206927
 30
0.0
 11
-1605.35418536212
 21
26.81351945206927
 31
0.0
  0
LINE
  5
13E
330
1F
100
AcDbEntity
  8
1-2
  6
Continuous
 62
    92
370
     5
100
AcDbLine
 10
-852.8384646853884
 20
40.81341717694272
 30
0.0
 11
-1605.35418536212
 21
40.81341717694272
 31
0.0
  0
LINE
  5
13F
330
1F
100
AcDbEntity
  8
1-2
  6
Continuous
 62
    92
370
     5
100
AcDbLine
 10
-851.74280115076
 20
52.81350625527892
 30
0.0
 11
-1605.35418536212
 21
52.81350625527892
 31
0.0
  0
LINE
  5
140
330
1F
100
AcDbEntity
  8
1-2
  6
Continuous
 62
    92
370
     5
100
AcDbLine
 10
-850.4650219066723
 20
66.81340398015209
 30
0.0
 11
-1605.35418536212
 21
66.81340398015209
 31
0.0
  0
LINE
  5
141
330
1F
100
AcDbEntity
  8
1-2
  6
Continuous
 62
    92
370
     5
100
AcDbLine
 10
-849.3696058118666
 20
78.81349305848829
 30
0.0
 11
-1605.35418536212
 21
78.81349305848829
 31
0.0
  0
LINE
  5
142
330
1F
100
AcDbEntity
  8
1-2
  6
Continuous
 62
    92
370
     5
100
AcDbLine
 10
-848.091579127956
 20
92.81363822318411
 30
0.0
 11
-1605.35418536212
 21
92.81363822318411
 31
0.0
  0
LINE
  5
143
330
1F
100
AcDbEntity
  8
1-2
  6
Continuous
 62
    92
370
     5
100
AcDbLine
 10
-846.9959155933276
 20
104.8134798616977
 30
0.0
 11
-1605.35418536212
 21
104.8134798616977
 31
0.0
  0
LINE
  5
144
330
1F
100
AcDbEntity
  8
1-2
  6
Continuous
 62
    92
370
     5
100
AcDbLine
 10
-845.7181363492398
 20
118.8136250263938
 30
0.0
 11
-1605.35418536212
 21
118.8136250263938
 31
0.0
  0
LINE
  5
145
330
1F
100
AcDbEntity
  8
1-2
  6
Continuous
 62
    92
370
     5
100
AcDbLine
 10
-844.6224728146115
 20
130.8135903848185
 30
0.0
 11
-1605.35418536212
 21
130.8135903848185
 31
0.0
  0
LINE
  5
146
330
1F
100
AcDbEntity
  8
1-2
  6
Continuous
 62
    92
370
     5
100
AcDbLine
 10
-843.3446935705235
 20
144.8136118296031
 30
0.0
 11
-1605.35418536212
 21
144.8136118296031
 31
0.0
  0
LINE
  5
147
330
1F
100
AcDbEntity
  8
1-2
  6
Continuous
 62
    92
370
     5
100
AcDbLine
 10
-842.2490300358952
 20
156.8135771880279
 30
0.0
 11
-1605.35418536212
 21
156.8135771880279
 31
0.0
  0
LINE
  5
148
330
1F
100
AcDbEntity
  8
1-2
  6
Continuous
 62
    92
370
     5
100
AcDbLine
 10
-840.9712507918074
 20
170.8135986328125
 30
0.0
 11
-1605.35418536212
 21
170.8135986328125
 31
0.0
  0
LINE
  5
149
330
1F
100
AcDbEntity
  8
1-2
  6
Continuous
 62
    92
370
     5
100
AcDbLine
 10
-839.8755872571791
 20
182.8135639912375
 30
0.0
 11
-1605.35418536212
 21
182.8135639912375
 31
0.0
  0
LINE
  5
14A
330
1F
100
AcDbEntity
  8
1-2
  6
Continuous
 62
    92
370
     5
100
AcDbLine
 10
-838.5978080130911
 20
196.8135854360222
 30
0.0
 11
-1605.35418536212
 21
196.8135854360222
 31
0.0
  0
LINE
  5
14B
330
1F
100
AcDbEntity
  8
1-2
  6
Continuous
 62
    92
370
     5
100
AcDbLine
 10
-837.5021444784627
 20
208.8135507944469
 30
0.0
 11
-1605.35418536212
 21
208.8135507944469
 31
0.0
  0
LINE
  5
14C
330
1F
100
AcDbEntity
  8
1-2
  6
Continuous
 62
    92
370
     5
100
AcDbLine
 10
-836.224365234375
 20
222.8135722392315
 30
0.0
 11
-1605.35418536212
 21
222.8135722392315
 31
0.0
  0
LINE
  5
14D
330
1F
100
AcDbEntity
  8
1-2
  6
Continuous
 62
    92
370
     5
100
AcDbLine
 10
-835.1287016997467
 20
234.8135375976562
 30
0.0
 11
-1605.35418536212
 21
234.8135375976562
 31
0.0
  0
LINE
  5
14E
330
1F
100
AcDbEntity
  8
1-2
  6
Continuous
 62
    92
370
     5
100
AcDbLine
 10
-833.8509224556587
 20
248.8135590424409
 30
0.0
 11
-1605.35418536212
 21
248.8135590424409
 31
0.0
  0
LINE
  5
14F
330
1F
100
AcDbEntity
  8
1-2
  6
Continuous
 62
    92
370
     5
100
AcDbLine
 10
-832.7552589210303
 20
260.8135244008659
 30
0.0
 11
-1605.35418536212
 21
260.8135244008659
 31
0.0
  0
LINE
  5
150
330
1F
100
AcDbEntity
  8
1-2
  6
Continuous
 62
    92
370
     5
100
AcDbLine
 10
-831.4774796769425
 20
274.8135458456505
 30
0.0
 11
-1605.35418536212
 21
274.8135458456505
 31
0.0
  0
LINE
  5
151
330
1F
100
AcDbEntity
  8
1-2
  6
Continuous
 62
    92
370
     5
100
AcDbLine
 10
-830.3820635821367
 20
286.8135112040753
 30
0.0
 11
-1605.35418536212
 21
286.8135112040753
 31
0.0
  0
LINE
  5
152
330
1F
100
AcDbEntity
  8
1-2
  6
Continuous
 62
    92
370
     5
100
AcDbLine
 10
-829.1040368982262
 20
300.8135326488599
 30
0.0
 11
-1605.35418536212
 21
300.8135326488599
 31
0.0
  0
LINE
  5
153
330
1F
100
AcDbEntity
  8
1-2
  6
Continuous
 62
    92
370
     5
100
AcDbLine
 10
-828.0083733635979
 20
312.8134980072846
 30
0.0
 11
-1605.35418536212
 21
312.8134980072846
 31
0.0
  0
LINE
  5
154
330
1F
100
AcDbEntity
  8
1-2
  6
Continuous
 62
    92
370
     5
100
AcDbLine
 10
-826.73059411951
 20
326.8135194520693
 30
0.0
 11
-1605.35418536212
 21
326.8135194520693
 31
0.0
  0
LINE
  5
155
330
1F
100
AcDbEntity
  8
1-2
  6
Continuous
 62
    92
370
     5
100
AcDbLine
 10
-825.6349305848817
 20
338.8133610905828
 30
0.0
 11
-1605.35418536212
 21
338.8133610905828
 31
0.0
  0
LINE
  5
156
330
1F
100
AcDbEntity
  8
1-2
  6
Continuous
 62
    92
370
     5
100
AcDbLine
 10
-821.9837085620776
 20
378.8134930584883
 30
0.0
 11
-1183.96837389147
 21
378.8134930584883
 31
0.0
  0
LINE
  5
157
330
1F
100
AcDbEntity
  8
1-1
  6
Continuous
 62
    40
370
     9
100
AcDbLine
 10
-1625.35400390625
 20
1116.813651419975
 30
0.0
 11
-754.6142578125
 21
1116.813651419975
 31
0.0
  0
LINE
  5
158
330
1F
100
AcDbEntity
  8
1-1
  6
Continuous
 62
    40
370
     9
100
AcDbLine
 10
-1609.353802655194
 20
1100.813697608742
 30
0.0
 11
-756.0748950855151
 21
1100.813697608742
 31
0.0
  0
LINE
  5
159
330
1F
100
AcDbEntity
  8
1-2
  6
Continuous
 62
    92
370
     5
100
AcDbLine
 10
-1605.35418536212
 20
1096.813832875845
 30
0.0
 11
-756.4401162637245
 21
1096.813832875845
 31
0.0
  0
LINE
  5
15A
330
1F
100
AcDbEntity
  8
1-2
  6
Continuous
 62
    92
370
     5
100
AcDbLine
 10
-1605.35418536212
 20
1084.813743797508
 30
0.0
 11
-757.5355323585302
 21
1084.813743797508
 31
0.0
  0
LINE
  5
15B
330
1F
100
AcDbEntity
  8
1-2
  6
Continuous
 62
    92
370
     5
100
AcDbLine
 10
-1605.35418536212
 20
1070.813846072635
 30
0.0
 11
-758.8133116026182
 21
1070.813846072635
 31
0.0
  0
LINE
  5
15C
330
1F
100
AcDbEntity
  8
1-2
  6
Continuous
 62
    92
370
     5
100
AcDbLine
 10
-1605.35418536212
 20
1044.813859269426
 30
0.0
 11
-761.1870018211571
 21
1044.813859269426
 31
0.0
  0
LINE
  5
15D
330
1F
100
AcDbEntity
  8
1-2
  6
Continuous
 62
    92
370
     5
100
AcDbLine
 10
-1605.35418536212
 20
1032.81377019109
 30
0.0
 11
-762.2824179159627
 21
1032.81377019109
 31
0.0
  0
LINE
  5
15E
330
1F
100
AcDbEntity
  8
1-2
  6
Continuous
 62
    92
370
     5
100
AcDbLine
 10
-1605.35418536212
 20
1018.813872466216
 30
0.0
 11
-763.5604445998731
 21
1018.813872466216
 31
0.0
  0
LINE
  5
15F
330
1F
100
AcDbEntity
  8
1-2
  6
Continuous
 62
    92
370
     5
100
AcDbLine
 10
-1605.35418536212
 20
1006.81378338788
 30
0.0
 11
-764.655860694679
 21
1006.81378338788
 31
0.0
  0
LINE
  5
160
330
1F
100
AcDbEntity
  8
1-2
  6
Continuous
 62
    92
370
     5
100
AcDbLine
 10
-1605.35418536212
 20
992.8138856630068
 30
0.0
 11
-765.9338873785896
 21
992.8138856630068
 31
0.0
  0
LINE
  5
161
330
1F
100
AcDbEntity
  8
1-2
  6
Continuous
 62
    92
370
     5
100
AcDbLine
 10
-1605.35418536212
 20
980.8137965846709
 30
0.0
 11
-767.0293034733953
 21
980.8137965846709
 31
0.0
  0
LINE
  5
162
330
1F
100
AcDbEntity
  8
1-2
  6
Continuous
 62
    92
370
     5
100
AcDbLine
 10
-1605.35418536212
 20
966.8138988597974
 30
0.0
 11
-768.3073301573057
 21
966.8138988597974
 31
0.0
  0
LINE
  5
163
330
1F
100
AcDbEntity
  8
1-2
  6
Continuous
 62
    92
370
     5
100
AcDbLine
 10
-1605.35418536212
 20
954.8138097814613
 30
0.0
 11
-769.4027462521115
 21
954.8138097814613
 31
0.0
  0
LINE
  5
164
330
1F
100
AcDbEntity
  8
1-2
  6
Continuous
 62
    92
370
     5
100
AcDbLine
 10
-1605.35418536212
 20
940.8136646167654
 30
0.0
 11
-770.6807729360219
 21
940.8136646167654
 31
0.0
  0
LINE
  5
165
330
1F
100
AcDbEntity
  8
1-2
  6
Continuous
 62
    92
370
     5
100
AcDbLine
 10
-1605.35418536212
 20
928.8138229782519
 30
0.0
 11
-771.7761890308276
 21
928.8138229782519
 31
0.0
  0
LINE
  5
166
330
1F
100
AcDbEntity
  8
1-2
  6
Continuous
 62
    92
370
     5
100
AcDbLine
 10
-1605.35418536212
 20
914.8136778135561
 30
0.0
 11
-773.054215714738
 21
914.8136778135561
 31
0.0
  0
LINE
  5
167
330
1F
100
AcDbEntity
  8
1-2
  6
Continuous
 62
    92
370
     5
100
AcDbLine
 10
-1605.35418536212
 20
902.8135887352198
 30
0.0
 11
-774.1496318095437
 21
902.8135887352198
 31
0.0
  0
LINE
  5
168
330
1F
100
AcDbEntity
  8
1-2
  6
Continuous
 62
    92
370
     5
100
AcDbLine
 10
-1605.35418536212
 20
888.8136910103464
 30
0.0
 11
-775.4276584934544
 21
888.8136910103464
 31
0.0
  0
LINE
  5
169
330
1F
100
AcDbEntity
  8
1-2
  6
Continuous
 62
    92
370
     5
100
AcDbLine
 10
-1605.35418536212
 20
876.8136019320102
 30
0.0
 11
-776.5230745882602
 21
876.8136019320102
 31
0.0
  0
LINE
  5
16A
330
1F
100
AcDbEntity
  8
1-2
  6
Continuous
 62
    92
370
     5
100
AcDbLine
 10
-1605.35418536212
 20
862.813704207137
 30
0.0
 11
-777.8011012721706
 21
862.813704207137
 31
0.0
  0
LINE
  5
16B
330
1F
100
AcDbEntity
  8
1-2
  6
Continuous
 62
    92
370
     5
100
AcDbLine
 10
-1605.35418536212
 20
850.8136151288008
 30
0.0
 11
-778.8965173669762
 21
850.8136151288008
 31
0.0
  0
LINE
  5
16C
330
1F
100
AcDbEntity
  8
1-2
  6
Continuous
 62
    92
370
     5
100
AcDbLine
 10
-1605.35418536212
 20
836.8137174039276
 30
0.0
 11
-780.1747914907094
 21
836.8137174039276
 31
0.0
  0
LINE
  5
16D
330
1F
100
AcDbEntity
  8
1-2
  6
Continuous
 62
    92
370
     5
100
AcDbLine
 10
-1605.35418536212
 20
798.8136415223818
 30
0.0
 11
-1605.35418536212
 21
810.8137306007179
 31
0.0
  0
LINE
  5
16E
330
1F
100
AcDbEntity
  8
1-2
  6
Continuous
 62
    92
370
     5
100
AcDbLine
 10
-1605.35418536212
 20
772.8136547191724
 30
0.0
 11
-1605.35418536212
 21
784.8137437975086
 31
0.0
  0
LINE
  5
16F
330
1F
100
AcDbEntity
  8
1-2
  6
Continuous
 62
    92
370
     5
100
AcDbLine
 10
-1605.35418536212
 20
772.8136547191724
 30
0.0
 11
-1515.969023833404
 21
772.8136547191724
 31
0.0
  0
LINE
  5
170
330
1F
100
AcDbEntity
  8
1-2
  6
Continuous
 62
    92
370
     5
100
AcDbLine
 10
-1605.35418536212
 20
798.8136415223818
 30
0.0
 11
-1183.968868771115
 21
798.8136415223818
 31
0.0
  0
LINE
  5
171
330
1F
100
AcDbEntity
  8
1-1
  6
Continuous
 62
    40
370
     9
100
AcDbLine
 10
-740.0083799619932
 20
1100.813697608742
 30
0.0
 11
58.6462072423987
 21
1100.813697608742
 31
0.0
  0
LINE
  5
172
330
1F
100
AcDbEntity
  8
1-1
  6
Continuous
 62
    40
370
     9
100
AcDbLine
 10
-738.5477426889779
 20
1116.813651419975
 30
0.0
 11
74.64616105363177
 21
1116.813651419975
 31
0.0
  0
LINE
  5
173
330
1F
100
AcDbEntity
  8
1-2
  6
Continuous
 62
    92
370
     5
100
AcDbLine
 10
-740.3736011402026
 20
1096.813832875845
 30
0.0
 11
54.64609506967918
 21
1096.813832875845
 31
0.0
  0
LINE
  5
174
330
1F
100
AcDbEntity
  8
1-2
  6
Continuous
 62
    92
370
     5
100
AcDbLine
 10
-741.4687697951856
 20
1084.813743797508
 30
0.0
 11
54.64609506967918
 21
1084.813743797508
 31
0.0
  0
LINE
  5
175
330
1F
100
AcDbEntity
  8
1-2
  6
Continuous
 62
    92
370
     5
100
AcDbLine
 10
-742.7470439189187
 20
1070.813846072635
 30
0.0
 11
54.64609506967918
 21
1070.813846072635
 31
0.0
  0
LINE
  5
176
330
1F
100
AcDbEntity
  8
1-2
  6
Continuous
 62
    92
370
     5
100
AcDbLine
 10
-743.8424600137245
 20
1058.813756994299
 30
0.0
 11
54.64609506967918
 21
1058.813756994299
 31
0.0
  0
LINE
  5
177
330
1F
100
AcDbEntity
  8
1-2
  6
Continuous
 62
    92
370
     5
100
AcDbLine
 10
-745.1204866976352
 20
1044.813859269426
 30
0.0
 11
54.64609506967918
 21
1044.813859269426
 31
0.0
  0
LINE
  5
178
330
1F
100
AcDbEntity
  8
1-2
  6
Continuous
 62
    92
370
     5
100
AcDbLine
 10
-746.2159027924408
 20
1032.81377019109
 30
0.0
 11
54.64609506967918
 21
1032.81377019109
 31
0.0
  0
LINE
  5
179
330
1F
100
AcDbEntity
  8
1-2
  6
Continuous
 62
    92
370
     5
100
AcDbLine
 10
-747.4939294763512
 20
1018.813872466216
 30
0.0
 11
54.64609506967918
 21
1018.813872466216
 31
0.0
  0
LINE
  5
17A
330
1F
100
AcDbEntity
  8
1-2
  6
Continuous
 62
    92
370
     5
100
AcDbLine
 10
-748.5893455711571
 20
1006.81378338788
 30
0.0
 11
54.64609506967918
 21
1006.81378338788
 31
0.0
  0
LINE
  5
17B
330
1F
100
AcDbEntity
  8
1-2
  6
Continuous
 62
    92
370
     5
100
AcDbLine
 10
-749.8673722550675
 20
992.8138856630068
 30
0.0
 11
54.64609506967918
 21
992.8138856630068
 31
0.0
  0
LINE
  5
17C
330
1F
100
AcDbEntity
  8
1-2
  6
Continuous
 62
    92
370
     5
100
AcDbLine
 10
-750.9627883498731
 20
980.8137965846709
 30
0.0
 11
54.64609506967918
 21
980.8137965846709
 31
0.0
  0
LINE
  5
17D
330
1F
100
AcDbEntity
  8
1-2
  6
Continuous
 62
    92
370
     5
100
AcDbLine
 10
-752.2408150337835
 20
966.8138988597974
 30
0.0
 11
54.64609506967918
 21
966.8138988597974
 31
0.0
  0
LINE
  5
17E
330
1F
100
AcDbEntity
  8
1-2
  6
Continuous
 62
    92
370
     5
100
AcDbLine
 10
-753.3362311285896
 20
954.8138097814613
 30
0.0
 11
54.64609506967918
 21
954.8138097814613
 31
0.0
  0
LINE
  5
17F
330
1F
100
AcDbEntity
  8
1-2
  6
Continuous
 62
    92
370
     5
100
AcDbLine
 10
-754.6142578125
 20
940.8136646167654
 30
0.0
 11
54.64609506967918
 21
940.8136646167654
 31
0.0
  0
LINE
  5
180
330
1F
100
AcDbEntity
  8
1-2
  6
Continuous
 62
    92
370
     5
100
AcDbLine
 10
-755.7096739073057
 20
928.8138229782519
 30
0.0
 11
54.64609506967918
 21
928.8138229782519
 31
0.0
  0
LINE
  5
181
330
1F
100
AcDbEntity
  8
1-2
  6
Continuous
 62
    92
370
     5
100
AcDbLine
 10
-756.9877005912161
 20
914.8136778135561
 30
0.0
 11
54.64609506967918
 21
914.8136778135561
 31
0.0
  0
LINE
  5
182
330
1F
100
AcDbEntity
  8
1-2
  6
Continuous
 62
    92
370
     5
100
AcDbLine
 10
-758.0831166860219
 20
902.8135887352198
 30
0.0
 11
54.64609506967918
 21
902.8135887352198
 31
0.0
  0
LINE
  5
183
330
1F
100
AcDbEntity
  8
1-2
  6
Continuous
 62
    92
370
     5
100
AcDbLine
 10
-762.8300022434544
 20
850.8136151288008
 30
0.0
 11
-519.968558646537
 21
850.8136151288008
 31
0.0
  0
LINE
  5
184
330
1F
100
AcDbEntity
  8
1-2
  6
Continuous
 62
    92
370
     5
100
AcDbLine
 10
-760.456559464738
 20
876.8136019320102
 30
0.0
 11
-187.9684035842482
 21
876.8136019320102
 31
0.0
  0
LINE
  5
185
330
1F
100
AcDbEntity
  8
1-2
  6
Continuous
 62
    92
370
     5
100
AcDbLine
 10
-1605.35418536212
 20
784.8137437975086
 30
0.0
 11
-1515.969023833404
 21
784.8137437975086
 31
0.0
  0
LINE
  5
186
330
1F
100
AcDbEntity
  8
1-2
  6
Continuous
 62
    92
370
     5
100
AcDbLine
 10
-1605.35418536212
 20
810.8137306007179
 30
0.0
 11
-1183.968868771115
 21
810.8137306007179
 31
0.0
  0
LINE
  5
187
330
1F
100
AcDbEntity
  8
1-2
  6
Continuous
 62
    92
370
     5
100
AcDbLine
 10
-1605.35418536212
 20
824.8136283255915
 30
0.0
 11
-781.2699601456925
 21
824.8136283255915
 31
0.0
  0
LINE
  5
188
330
1F
100
AcDbEntity
  8
1-2
  6
Continuous
 62
    92
370
     5
100
AcDbLine
 10
-761.7345861486488
 20
862.813704207137
 30
0.0
 11
-519.968558646537
 21
862.813704207137
 31
0.0
  0
LINE
  5
189
330
1F
100
AcDbEntity
  8
1-2
  6
Continuous
 62
    92
370
     5
100
AcDbLine
 10
-759.3611433699323
 20
888.8136910103464
 30
0.0
 11
-187.9684035842482
 21
888.8136910103464
 31
0.0
  0
LINE
  5
18A
330
1F
100
AcDbEntity
  8
1-2
  6
Continuous
 62
    92
370
     5
100
AcDbLine
 10
-824.3573987806166
 20
352.8135062552789
 30
0.0
 11
-1515.968281513936
 21
352.8135062552789
 31
0.0
  0
LINE
  5
18B
330
1F
100
AcDbEntity
  8
1-2
  6
Continuous
 62
    92
370
     5
100
AcDbLine
 10
-823.2614878061655
 20
364.8134716137037
 30
0.0
 11
-1515.968281513936
 21
364.8134716137037
 31
0.0
  0
LINE
  5
18C
330
1F
100
AcDbEntity
  8
1-2
  6
Continuous
 62
    92
370
     5
100
AcDbLine
 10
-820.8880450274492
 20
390.813458416913
 30
0.0
 11
-1183.96837389147
 21
390.813458416913
 31
0.0
  0
LINE
  5
18D
330
1F
100
AcDbEntity
  8
1-1
  6
JWW_CENTER1
 62
    40
370
     9
100
AcDbLine
 10
-850.0631796347127
 20
-104.7885874155403
 30
0.0
 11
-795.7065891575169
 21
490.6649532833615
 31
0.0
  0
LINE
  5
18E
330
1F
100
AcDbEntity
  8
1-2
  6
Continuous
 62
    92
370
     5
100
AcDbLine
 10
54.64609506967918
 20
416.8134452201227
 30
0.0
 11
-802.4483345650335
 21
416.8134452201227
 31
0.0
  0
LINE
  5
18F
330
1F
100
AcDbEntity
  8
1-2
  6
Continuous
 62
    92
370
     5
100
AcDbLine
 10
54.64609506967918
 20
442.813432023332
 30
0.0
 11
-519.9683112067144
 21
442.813432023332
 31
0.0
  0
LINE
  5
190
330
1F
100
AcDbEntity
  8
1-2
  6
Continuous
 62
    92
370
     5
100
AcDbLine
 10
54.64609506967918
 20
468.8134188265414
 30
0.0
 11
-187.9684035842482
 21
468.8134188265414
 31
0.0
  0
LINE
  5
191
330
1F
100
AcDbEntity
  8
D-1
  6
Continuous
 62
    40
370
     9
100
AcDbLine
 10
1527.721425649282
 20
1077.787937473607
 30
0.0
 11
1527.721425649282
 21
467.7879044816302
 31
0.0
  0
LINE
  5
192
330
1F
100
AcDbEntity
  8
D-1
  6
Continuous
 62
    40
370
     9
100
AcDbLine
 10
1567.721062737542
 20
1077.787937473607
 30
0.0
 11
1567.721062737542
 21
427.7877725137247
 31
0.0
  0
LINE
  5
193
330
1F
100
AcDbEntity
  8
D-2
  6
Continuous
 62
    92
370
     5
100
AcDbLine
 10
1517.721145217483
 20
672.787591057855
 30
0.0
 11
890.8870387721709
 21
672.787591057855
 31
0.0
  0
LINE
  5
194
330
1F
100
AcDbEntity
  8
D-2
  6
Continuous
 62
    92
370
     5
100
AcDbLine
 10
1517.721145217483
 20
702.7879374736065
 30
0.0
 11
890.8870387721709
 21
702.7879374736065
 31
0.0
  0
LINE
  5
195
330
1F
100
AcDbEntity
  8
D-2
  6
Continuous
 62
    92
370
     5
100
AcDbLine
 10
1517.721145217483
 20
702.7879374736065
 30
0.0
 11
1517.721145217483
 21
672.787591057855
 31
0.0
  0
LINE
  5
196
330
1F
100
AcDbEntity
  8
D-2
  6
Continuous
 62
    92
370
     5
100
AcDbLine
 10
1517.721145217483
 20
767.7879044816302
 30
0.0
 11
1517.721145217483
 21
737.7880529455238
 31
0.0
  0
LINE
  5
197
330
1F
100
AcDbEntity
  8
D-2
  6
Continuous
 62
    92
370
     5
100
AcDbLine
 10
1517.721145217483
 20
802.7877725137248
 30
0.0
 11
890.8870387721709
 21
802.7877725137248
 31
0.0
  0
LINE
  5
198
330
1F
100
AcDbEntity
  8
D-2
  6
Continuous
 62
    92
370
     5
100
AcDbLine
 10
1517.721145217483
 20
832.787871489654
 30
0.0
 11
890.8870387721709
 21
832.787871489654
 31
0.0
  0
LINE
  5
199
330
1F
100
AcDbEntity
  8
D-2
  6
Continuous
 62
    92
370
     5
100
AcDbLine
 10
1517.721145217483
 20
832.787871489654
 30
0.0
 11
1517.721145217483
 21
802.7877725137248
 31
0.0
  0
LINE
  5
19A
330
1F
100
AcDbEntity
  8
D-2
  6
Continuous
 62
    92
370
     5
100
AcDbLine
 10
1517.721145217483
 20
897.7878384976776
 30
0.0
 11
1517.721145217483
 21
867.787986961571
 31
0.0
  0
LINE
  5
19B
330
1F
100
AcDbEntity
  8
D-2
  6
Continuous
 62
    92
370
     5
100
AcDbLine
 10
1517.721145217483
 20
897.7878384976776
 30
0.0
 11
890.8870387721709
 21
897.7878384976776
 31
0.0
  0
LINE
  5
19C
330
1F
100
AcDbEntity
  8
D-2
  6
Continuous
 62
    92
370
     5
100
AcDbLine
 10
1517.721145217483
 20
867.787986961571
 30
0.0
 11
890.8870387721709
 21
867.787986961571
 31
0.0
  0
LINE
  5
19D
330
1F
100
AcDbEntity
  8
D-2
  6
Continuous
 62
    92
370
     5
100
AcDbLine
 10
1517.721145217483
 20
932.7879539695948
 30
0.0
 11
890.8870387721709
 21
932.7879539695948
 31
0.0
  0
LINE
  5
19E
330
1F
100
AcDbEntity
  8
D-2
  6
Continuous
 62
    92
370
     5
100
AcDbLine
 10
1517.721145217483
 20
962.787805505701
 30
0.0
 11
890.8870387721709
 21
962.787805505701
 31
0.0
  0
LINE
  5
19F
330
1F
100
AcDbEntity
  8
D-2
  6
Continuous
 62
    92
370
     5
100
AcDbLine
 10
1517.721145217483
 20
962.787805505701
 30
0.0
 11
1517.721145217483
 21
932.7879539695948
 31
0.0
  0
LINE
  5
1A0
330
1F
100
AcDbEntity
  8
D-2
  6
Continuous
 62
    92
370
     5
100
AcDbLine
 10
1517.721145217483
 20
1027.787772513725
 30
0.0
 11
1517.721145217483
 21
997.7879209776186
 31
0.0
  0
LINE
  5
1A1
330
1F
100
AcDbEntity
  8
D-2
  6
Continuous
 62
    92
370
     5
100
AcDbLine
 10
1517.721145217483
 20
1027.787772513725
 30
0.0
 11
890.8870387721709
 21
1027.787772513725
 31
0.0
  0
LINE
  5
1A2
330
1F
100
AcDbEntity
  8
D-2
  6
Continuous
 62
    92
370
     5
100
AcDbLine
 10
1517.721145217483
 20
637.7877230257602
 30
0.0
 11
1517.721145217483
 21
607.787871489654
 31
0.0
  0
LINE
  5
1A3
330
1F
100
AcDbEntity
  8
D-2
  6
Continuous
 62
    92
370
     5
100
AcDbLine
 10
1517.721145217483
 20
637.7877230257602
 30
0.0
 11
890.8870387721709
 21
637.7877230257602
 31
0.0
  0
LINE
  5
1A4
330
1F
100
AcDbEntity
  8
D-2
  6
Continuous
 62
    92
370
     5
100
AcDbLine
 10
1517.721145217483
 20
607.787871489654
 30
0.0
 11
890.8870387721709
 21
607.787871489654
 31
0.0
  0
LINE
  5
1A5
330
1F
100
AcDbEntity
  8
D-2
  6
Continuous
 62
    92
370
     5
100
AcDbLine
 10
1517.721145217483
 20
542.7879044816302
 30
0.0
 11
890.8870387721709
 21
542.7879044816302
 31
0.0
  0
LINE
  5
1A6
330
1F
100
AcDbEntity
  8
D-2
  6
Continuous
 62
    92
370
     5
100
AcDbLine
 10
1517.721145217483
 20
572.7878797376479
 30
0.0
 11
890.8870387721709
 21
572.7878797376479
 31
0.0
  0
LINE
  5
1A7
330
1F
100
AcDbEntity
  8
D-2
  6
Continuous
 62
    92
370
     5
100
AcDbLine
 10
1517.721145217483
 20
572.7878797376479
 30
0.0
 11
1517.721145217483
 21
542.7879044816302
 31
0.0
  0
LINE
  5
1A8
330
1F
100
AcDbEntity
  8
D-2
  6
Continuous
 62
    92
370
     5
100
AcDbLine
 10
1517.721145217483
 20
507.7879127296242
 30
0.0
 11
1517.721145217483
 21
477.7879374736065
 31
0.0
  0
LINE
  5
1A9
330
1F
100
AcDbEntity
  8
D-2
  6
Continuous
 62
    92
370
     5
100
AcDbLine
 10
1517.721145217483
 20
507.7879127296242
 30
0.0
 11
890.8870387721709
 21
507.7879127296242
 31
0.0
  0
LINE
  5
1AA
330
1F
100
AcDbEntity
  8
D-2
  6
Continuous
 62
    92
370
     5
100
AcDbLine
 10
1517.721145217483
 20
477.7879374736065
 30
0.0
 11
890.8870387721709
 21
477.7879374736065
 31
0.0
  0
LINE
  5
1AB
330
1F
100
AcDbEntity
  8
D-1
  6
Continuous
 62
    40
370
     9
100
AcDbLine
 10
1527.721425649282
 20
467.7879044816302
 30
0.0
 11
1567.721062737542
 21
427.7877725137247
 31
0.0
  0
LINE
  5
1AC
330
1F
100
AcDbEntity
  8
D-1
  6
Continuous
 62
    40
370
     9
100
AcDbLine
 10
1527.721425649282
 20
467.7879044816302
 30
0.0
 11
890.8870387721709
 21
467.7879044816302
 31
0.0
  0
LINE
  5
1AD
330
1F
100
AcDbEntity
  8
D-1
  6
Continuous
 62
    40
370
     9
100
AcDbLine
 10
1567.721062737542
 20
427.7877725137247
 30
0.0
 11
890.8870387721709
 21
427.7877725137247
 31
0.0
  0
LINE
  5
1AE
330
1F
100
AcDbEntity
  8
D-1
  6
Continuous
 62
    40
370
     9
100
AcDbLine
 10
1582.721112225507
 20
645.287871489654
 30
0.0
 11
1582.721112225507
 21
610.2877560177367
 31
0.0
  0
LINE
  5
1AF
330
1F
100
AcDbEntity
  8
D-1
  6
Continuous
 62
    40
370
     9
100
AcDbLine
 10
1582.721112225507
 20
637.7877230257602
 30
0.0
 11
1567.721062737542
 21
637.7877230257602
 31
0.0
  0
LINE
  5
1B0
330
1F
100
AcDbEntity
  8
D-1
  6
Continuous
 62
    40
370
     9
100
AcDbLine
 10
1582.721112225507
 20
617.7879044816302
 30
0.0
 11
1567.721062737542
 21
617.7879044816302
 31
0.0
  0
LINE
  5
1B1
330
1F
100
AcDbEntity
  8
D-1
  6
Continuous
 62
    40
370
     9
100
AcDbLine
 10
1582.721112225507
 20
467.7879044816302
 30
0.0
 11
1567.721062737542
 21
467.7879044816302
 31
0.0
  0
LINE
  5
1B2
330
1F
100
AcDbEntity
  8
D-1
  6
Continuous
 62
    40
370
     9
100
AcDbLine
 10
1582.721112225507
 20
487.7879704655828
 30
0.0
 11
1567.721062737542
 21
487.7879704655828
 31
0.0
  0
LINE
  5
1B3
330
1F
100
AcDbEntity
  8
D-1
  6
Continuous
 62
    40
370
     9
100
AcDbLine
 10
1582.721112225507
 20
495.2878714896539
 30
0.0
 11
1582.721112225507
 21
460.2878797376479
 31
0.0
  0
LINE
  5
1B4
330
1F
100
AcDbEntity
  8
D-1
  6
Continuous
 62
    40
370
     9
100
AcDbLine
 10
1535.221079233531
 20
412.7878467456716
 30
0.0
 11
1500.220963761614
 21
412.7878467456716
 31
0.0
  0
LINE
  5
1B5
330
1F
100
AcDbEntity
  8
D-1
  6
Continuous
 62
    40
370
     9
100
AcDbLine
 10
1527.721425649282
 20
412.7878467456716
 30
0.0
 11
1527.721425649282
 21
427.7877725137247
 31
0.0
  0
LINE
  5
1B6
330
1F
100
AcDbEntity
  8
D-1
  6
Continuous
 62
    40
370
     9
100
AcDbLine
 10
1507.721112225507
 20
412.7878467456716
 30
0.0
 11
1507.721112225507
 21
427.7877725137247
 31
0.0
  0
LINE
  5
1B7
330
1F
100
AcDbEntity
  8
D-1
  6
Continuous
 62
    40
370
     9
100
AcDbLine
 10
1357.721112225507
 20
412.7878467456716
 30
0.0
 11
1357.721112225507
 21
427.7877725137247
 31
0.0
  0
LINE
  5
1B8
330
1F
100
AcDbEntity
  8
D-1
  6
Continuous
 62
    40
370
     9
100
AcDbLine
 10
1377.721425649282
 20
412.7878467456716
 30
0.0
 11
1377.721425649282
 21
427.7877725137247
 31
0.0
  0
LINE
  5
1B9
330
1F
100
AcDbEntity
  8
D-1
  6
Continuous
 62
    40
370
     9
100
AcDbLine
 10
1385.221079233531
 20
412.7878467456716
 30
0.0
 11
1350.220963761614
 21
412.7878467456716
 31
0.0
  0
LINE
  5
1BA
330
1F
100
AcDbEntity
  8
D-1
  6
JWW_CENTER1
 62
    40
370
     9
100
AcDbLine
 10
1567.721062737542
 20
627.7879374736065
 30
0.0
 11
1603.533523147171
 21
627.7879374736065
 31
0.0
  0
LINE
  5
1BB
330
1F
100
AcDbEntity
  8
D-1
  6
JWW_CENTER1
 62
    40
370
     9
100
AcDbLine
 10
1367.721145217483
 20
393.0758007152662
 30
0.0
 11
1367.721145217483
 21
427.7877725137247
 31
0.0
  0
LINE
  5
1BC
330
1F
100
AcDbEntity
  8
D-1
  6
JWW_CENTER1
 62
    40
370
     9
100
AcDbLine
 10
1517.721145217483
 20
393.0758007152662
 30
0.0
 11
1517.721145217483
 21
427.7877725137247
 31
0.0
  0
LINE
  5
1BD
330
1F
100
AcDbEntity
  8
D-1
  6
JWW_CENTER1
 62
    40
370
     9
100
AcDbLine
 10
1567.721062737542
 20
477.7879374736065
 30
0.0
 11
1603.533523147171
 21
477.7879374736065
 31
0.0
  0
LINE
  5
1BE
330
1F
100
AcDbEntity
  8
D-1
  6
Continuous
 62
    40
370
     9
100
AcDbLine
 10
1350.220963761614
 20
412.7878467456716
 30
0.0
 11
1350.483497413429
 21
409.7878863360432
 31
0.0
  0
LINE
  5
1BF
330
1F
100
AcDbEntity
  8
D-1
  6
Continuous
 62
    40
370
     9
100
AcDbLine
 10
1385.221079233531
 20
412.7878467456716
 30
0.0
 11
1384.958545581715
 21
409.7878863360432
 31
0.0
  0
LINE
  5
1C0
330
1F
100
AcDbEntity
  8
D-1
  6
Continuous
 62
    40
370
     9
100
AcDbLine
 10
1500.220963761614
 20
412.7878467456716
 30
0.0
 11
1500.483497413429
 21
409.7878863360432
 31
0.0
  0
LINE
  5
1C1
330
1F
100
AcDbEntity
  8
D-1
  6
Continuous
 62
    40
370
     9
100
AcDbLine
 10
1534.958545581715
 20
409.7878863360432
 30
0.0
 11
1535.221079233531
 21
412.7878467456716
 31
0.0
  0
LINE
  5
1C2
330
1F
100
AcDbEntity
  8
D-1
  6
Continuous
 62
    40
370
     9
100
AcDbLine
 10
1582.721112225507
 20
460.2878797376479
 30
0.0
 11
1585.721320074958
 21
460.5504133894638
 31
0.0
  0
LINE
  5
1C3
330
1F
100
AcDbEntity
  8
D-1
  6
Continuous
 62
    40
370
     9
100
AcDbLine
 10
1585.721320074958
 20
495.0254615577492
 30
0.0
 11
1582.721112225507
 21
495.2878714896539
 31
0.0
  0
LINE
  5
1C4
330
1F
100
AcDbEntity
  8
D-1
  6
Continuous
 62
    40
370
     9
100
AcDbLine
 10
1585.721320074958
 20
610.550537109375
 30
0.0
 11
1582.721112225507
 21
610.2877560177367
 31
0.0
  0
LINE
  5
1C5
330
1F
100
AcDbEntity
  8
D-1
  6
Continuous
 62
    40
370
     9
100
AcDbLine
 10
1582.721112225507
 20
645.287871489654
 30
0.0
 11
1585.721320074958
 21
645.025337837838
 31
0.0
  0
LINE
  5
1C6
330
1F
100
AcDbEntity
  8
D-A
  6
Continuous
 62
   200
370
    13
100
AcDbLine
 10
1255.143943992821
 20
542.7879044816302
 30
0.0
 11
1262.643845016892
 21
572.7878797376479
 31
0.0
  0
LINE
  5
1C7
330
1F
100
AcDbEntity
  8
D-A
  6
Continuous
 62
   200
370
    13
100
AcDbLine
 10
1272.79803301837
 20
572.7878797376479
 30
0.0
 11
1280.297934042441
 21
542.7879044816302
 31
0.0
  0
LINE
  5
1C8
330
1F
100
AcDbEntity
  8
D-A
  6
Continuous
 62
   200
370
    13
100
AcDbLine
 10
1257.721029745566
 20
542.7879044816302
 30
0.0
 11
1265.221425649282
 21
572.7878797376479
 31
0.0
  0
LINE
  5
1C9
330
1F
100
AcDbEntity
  8
D-A
  6
Continuous
 62
   200
370
    13
100
AcDbLine
 10
1270.22144214527
 20
572.7878797376479
 30
0.0
 11
1277.721095729519
 21
542.7879044816302
 31
0.0
  0
LINE
  5
1CA
330
1F
100
AcDbEntity
  8
D-A
  6
Continuous
 62
   200
370
    13
100
AcDbLine
 10
1375.221046241554
 20
572.7878797376479
 30
0.0
 11
1382.72144214527
 21
542.7879044816302
 31
0.0
  0
LINE
  5
1CB
330
1F
100
AcDbEntity
  8
D-A
  6
Continuous
 62
   200
370
    13
100
AcDbLine
 10
1362.721128721495
 20
542.7879044816302
 30
0.0
 11
1370.221029745566
 21
572.7878797376479
 31
0.0
  0
LINE
  5
1CC
330
1F
100
AcDbEntity
  8
D-A
  6
Continuous
 62
   200
370
    13
100
AcDbLine
 10
1377.797884554477
 20
572.7878797376479
 30
0.0
 11
1385.29803301837
 21
542.7879044816302
 31
0.0
  0
LINE
  5
1CD
330
1F
100
AcDbEntity
  8
D-A
  6
Continuous
 62
   200
370
    13
100
AcDbLine
 10
1360.14404296875
 20
542.7879044816302
 30
0.0
 11
1367.643943992821
 21
572.7878797376479
 31
0.0
  0
LINE
  5
1CE
330
1F
100
AcDbEntity
  8
D-A
  6
Continuous
 62
   200
370
    13
100
AcDbLine
 10
1330.221145217483
 20
572.7878797376479
 30
0.0
 11
1322.72099675359
 21
542.7879044816302
 31
0.0
  0
LINE
  5
1CF
330
1F
100
AcDbEntity
  8
D-A
  6
Continuous
 62
   200
370
    13
100
AcDbLine
 10
1310.221079233531
 20
572.7878797376479
 30
0.0
 11
1317.720980257602
 21
542.7879044816302
 31
0.0
  0
LINE
  5
1D0
330
1F
100
AcDbEntity
  8
D-A
  6
Continuous
 62
   200
370
    13
100
AcDbLine
 10
1470.221112225507
 20
507.7879127296242
 30
0.0
 11
1477.721013249578
 21
477.7879374736065
 31
0.0
  0
LINE
  5
1D1
330
1F
100
AcDbEntity
  8
D-A
  6
Continuous
 62
   200
370
    13
100
AcDbLine
 10
1457.72144214527
 20
477.7879374736065
 30
0.0
 11
1465.221095729519
 21
507.7879127296242
 31
0.0
  0
LINE
  5
1D2
330
1F
100
AcDbEntity
  8
D-A
  6
Continuous
 62
   200
370
    13
100
AcDbLine
 10
1472.797950538429
 20
507.7879127296242
 30
0.0
 11
1480.2978515625
 21
477.7879374736065
 31
0.0
  0
LINE
  5
1D3
330
1F
100
AcDbEntity
  8
D-A
  6
Continuous
 62
   200
370
    13
100
AcDbLine
 10
1455.14386151288
 20
477.7879374736065
 30
0.0
 11
1462.644257416596
 21
507.7879127296242
 31
0.0
  0
LINE
  5
1D4
330
1F
100
AcDbEntity
  8
D-A
  6
Continuous
 62
   200
370
    13
100
AcDbLine
 10
1425.220963761614
 20
507.7879127296242
 30
0.0
 11
1417.721062737542
 21
477.7879374736065
 31
0.0
  0
LINE
  5
1D5
330
1F
100
AcDbEntity
  8
D-A
  6
Continuous
 62
   200
370
    13
100
AcDbLine
 10
1405.221145217483
 20
507.7879127296242
 30
0.0
 11
1412.721046241554
 21
477.7879374736065
 31
0.0
  0
LINE
  5
1D6
330
1F
100
AcDbEntity
  8
D-A
  6
Continuous
 62
   200
370
    13
100
AcDbLine
 10
1427.798049514358
 20
507.7879127296242
 30
0.0
 11
1420.297901050465
 21
477.7879374736065
 31
0.0
  0
LINE
  5
1D7
330
1F
100
AcDbEntity
  8
D-A
  6
Continuous
 62
   200
370
    13
100
AcDbLine
 10
1402.643812024916
 20
507.7879127296242
 30
0.0
 11
1410.143713048986
 21
477.7879374736065
 31
0.0
  0
LINE
  5
1D8
330
1F
100
AcDbEntity
  8
D-A
  6
Continuous
 62
   200
370
    13
100
AcDbLine
 10
1297.643713048986
 20
507.7879127296242
 30
0.0
 11
1305.14386151288
 21
477.7879374736065
 31
0.0
  0
LINE
  5
1D9
330
1F
100
AcDbEntity
  8
D-A
  6
Continuous
 62
   200
370
    13
100
AcDbLine
 10
1322.797950538429
 20
507.7879127296242
 30
0.0
 11
1315.298049514358
 21
477.7879374736065
 31
0.0
  0
LINE
  5
1DA
330
1F
100
AcDbEntity
  8
D-A
  6
Continuous
 62
   200
370
    13
100
AcDbLine
 10
1300.221046241554
 20
507.7879127296242
 30
0.0
 11
1307.72144214527
 21
477.7879374736065
 31
0.0
  0
LINE
  5
1DB
330
1F
100
AcDbEntity
  8
D-A
  6
Continuous
 62
   200
370
    13
100
AcDbLine
 10
1320.221112225507
 20
507.7879127296242
 30
0.0
 11
1312.720963761614
 21
477.7879374736065
 31
0.0
  0
LINE
  5
1DC
330
1F
100
AcDbEntity
  8
D-A
  6
Continuous
 62
   200
370
    13
100
AcDbLine
 10
1350.144257416596
 20
477.7879374736065
 30
0.0
 11
1357.643911000845
 21
507.7879127296242
 31
0.0
  0
LINE
  5
1DD
330
1F
100
AcDbEntity
  8
D-A
  6
Continuous
 62
   200
370
    13
100
AcDbLine
 10
1367.798346442145
 20
507.7879127296242
 30
0.0
 11
1375.298000026394
 21
477.7879374736065
 31
0.0
  0
LINE
  5
1DE
330
1F
100
AcDbEntity
  8
D-2
  6
Continuous
 62
    92
370
     5
100
AcDbLine
 10
1517.721145217483
 20
997.7879209776186
 30
0.0
 11
890.8870387721709
 21
997.7879209776186
 31
0.0
  0
LINE
  5
1DF
330
1F
100
AcDbEntity
  8
D-A
  6
Continuous
 62
   200
370
    13
100
AcDbLine
 10
1352.721095729519
 20
477.7879374736065
 30
0.0
 11
1360.22099675359
 21
507.7879127296242
 31
0.0
  0
LINE
  5
1E0
330
1F
100
AcDbEntity
  8
D-A
  6
Continuous
 62
   200
370
    13
100
AcDbLine
 10
1365.221013249578
 20
507.7879127296242
 30
0.0
 11
1372.721161713471
 21
477.7879374736065
 31
0.0
  0
LINE
  5
1E1
330
1F
100
AcDbEntity
  8
D-A
  6
Continuous
 62
   200
370
    13
100
AcDbLine
 10
1260.221161713471
 20
507.7879127296242
 30
0.0
 11
1267.721062737542
 21
477.7879374736065
 31
0.0
  0
LINE
  5
1E2
330
1F
100
AcDbEntity
  8
D-A
  6
Continuous
 62
   200
370
    13
100
AcDbLine
 10
1247.72099675359
 20
477.7879374736065
 30
0.0
 11
1255.221145217483
 21
507.7879127296242
 31
0.0
  0
LINE
  5
1E3
330
1F
100
AcDbEntity
  8
D-A
  6
Continuous
 62
   200
370
    13
100
AcDbLine
 10
1262.798000026394
 20
507.7879127296242
 30
0.0
 11
1270.297901050465
 21
477.7879374736065
 31
0.0
  0
LINE
  5
1E4
330
1F
100
AcDbEntity
  8
D-A
  6
Continuous
 62
   200
370
    13
100
AcDbLine
 10
1245.143911000845
 20
477.7879374736065
 30
0.0
 11
1252.643812024916
 21
507.7879127296242
 31
0.0
  0
LINE
  5
1E5
330
1F
100
AcDbEntity
  8
D-A
  6
Continuous
 62
   200
370
    13
100
AcDbLine
 10
1215.221013249578
 20
507.7879127296242
 30
0.0
 11
1207.721112225507
 21
477.7879374736065
 31
0.0
  0
LINE
  5
1E6
330
1F
100
AcDbEntity
  8
D-A
  6
Continuous
 62
   200
370
    13
100
AcDbLine
 10
1195.22144214527
 20
507.7879127296242
 30
0.0
 11
1202.721095729519
 21
477.7879374736065
 31
0.0
  0
LINE
  5
1E7
330
1F
100
AcDbEntity
  8
D-A
  6
Continuous
 62
   200
370
    13
100
AcDbLine
 10
1217.798346442145
 20
507.7879127296242
 30
0.0
 11
1210.297950538429
 21
477.7879374736065
 31
0.0
  0
LINE
  5
1E8
330
1F
100
AcDbEntity
  8
D-A
  6
Continuous
 62
   200
370
    13
100
AcDbLine
 10
1192.64386151288
 20
507.7879127296242
 30
0.0
 11
1200.144009976774
 21
477.7879374736065
 31
0.0
  0
LINE
  5
1E9
330
1F
100
AcDbEntity
  8
D-A
  6
Continuous
 62
   200
370
    13
100
AcDbLine
 10
1332.797983530406
 20
572.7878797376479
 30
0.0
 11
1325.298329946157
 21
542.7879044816302
 31
0.0
  0
LINE
  5
1EA
330
1F
100
AcDbEntity
  8
D-A
  6
Continuous
 62
   200
370
    13
100
AcDbLine
 10
1307.644240920608
 20
572.7878797376479
 30
0.0
 11
1315.143894504857
 21
542.7879044816302
 31
0.0
  0
LINE
  5
1EB
330
1F
100
AcDbEntity
  8
D-A
  6
Continuous
 62
   200
370
    13
100
AcDbLine
 10
1412.643845016892
 20
572.7878797376479
 30
0.0
 11
1420.144240920608
 21
542.7879044816302
 31
0.0
  0
LINE
  5
1EC
330
1F
100
AcDbEntity
  8
D-A
  6
Continuous
 62
   200
370
    13
100
AcDbLine
 10
1437.798329946157
 20
572.7878797376479
 30
0.0
 11
1430.297934042441
 21
542.7879044816302
 31
0.0
  0
LINE
  5
1ED
330
1F
100
AcDbEntity
  8
D-A
  6
Continuous
 62
   200
370
    13
100
AcDbLine
 10
1140.144059464739
 20
477.7879374736065
 30
0.0
 11
1147.643713048986
 21
507.7879127296242
 31
0.0
  0
LINE
  5
1EE
330
1F
100
AcDbEntity
  8
D-A
  6
Continuous
 62
   200
370
    13
100
AcDbLine
 10
1157.797901050465
 20
507.7879127296242
 30
0.0
 11
1165.298049514358
 21
477.7879374736065
 31
0.0
  0
LINE
  5
1EF
330
1F
100
AcDbEntity
  8
D-A
  6
Continuous
 62
   200
370
    13
100
AcDbLine
 10
1142.721145217483
 20
477.7879374736065
 30
0.0
 11
1150.221046241554
 21
507.7879127296242
 31
0.0
  0
LINE
  5
1F0
330
1F
100
AcDbEntity
  8
D-A
  6
Continuous
 62
   200
370
    13
100
AcDbLine
 10
1155.221062737542
 20
507.7879127296242
 30
0.0
 11
1162.720963761614
 21
477.7879374736065
 31
0.0
  0
LINE
  5
1F1
330
1F
100
AcDbEntity
  8
D-A
  6
Continuous
 62
   200
370
    13
100
AcDbLine
 10
1415.221425649282
 20
572.7878797376479
 30
0.0
 11
1422.721079233531
 21
542.7879044816302
 31
0.0
  0
LINE
  5
1F2
330
1F
100
AcDbEntity
  8
D-A
  6
Continuous
 62
   200
370
    13
100
AcDbLine
 10
1435.22099675359
 20
572.7878797376479
 30
0.0
 11
1427.721095729519
 21
542.7879044816302
 31
0.0
  0
LINE
  5
1F3
330
1F
100
AcDbEntity
  8
D-A
  6
Continuous
 62
   200
370
    13
100
AcDbLine
 10
1465.143894504857
 20
542.7879044816302
 30
0.0
 11
1472.64404296875
 21
572.7878797376479
 31
0.0
  0
LINE
  5
1F4
330
1F
100
AcDbEntity
  8
D-A
  6
Continuous
 62
   200
370
    13
100
AcDbLine
 10
1482.797983530406
 20
572.7878797376479
 30
0.0
 11
1490.297884554477
 21
542.7879044816302
 31
0.0
  0
LINE
  5
1F5
330
1F
100
AcDbEntity
  8
D-A
  6
Continuous
 62
   200
370
    13
100
AcDbLine
 10
1467.720980257602
 20
542.7879044816302
 30
0.0
 11
1475.221128721495
 21
572.7878797376479
 31
0.0
  0
LINE
  5
1F6
330
1F
100
AcDbEntity
  8
D-A
  6
Continuous
 62
   200
370
    13
100
AcDbLine
 10
1480.221145217483
 20
572.7878797376479
 30
0.0
 11
1487.721046241554
 21
542.7879044816302
 31
0.0
  0
LINE
  5
1F7
330
1F
100
AcDbEntity
  8
D-A
  6
Continuous
 62
   200
370
    13
100
AcDbLine
 10
1202.643894504857
 20
572.7878797376479
 30
0.0
 11
1210.14404296875
 21
542.7879044816302
 31
0.0
  0
LINE
  5
1F8
330
1F
100
AcDbEntity
  8
D-A
  6
Continuous
 62
   200
370
    13
100
AcDbLine
 10
1227.797884554477
 20
572.7878797376479
 30
0.0
 11
1220.297983530406
 21
542.7879044816302
 31
0.0
  0
LINE
  5
1F9
330
1F
100
AcDbEntity
  8
D-A
  6
Continuous
 62
   200
370
    13
100
AcDbLine
 10
1205.220980257602
 20
572.7878797376479
 30
0.0
 11
1212.721128721495
 21
542.7879044816302
 31
0.0
  0
LINE
  5
1FA
330
1F
100
AcDbEntity
  8
D-A
  6
Continuous
 62
   200
370
    13
100
AcDbLine
 10
1225.221046241554
 20
572.7878797376479
 30
0.0
 11
1217.721145217483
 21
542.7879044816302
 31
0.0
  0
LINE
  5
1FB
330
1F
100
AcDbEntity
  8
D-A
  6
Continuous
 62
   200
370
    13
100
AcDbLine
 10
1484.22100995038
 20
637.7877230257602
 30
0.0
 11
1491.721405854096
 21
607.787871489654
 31
0.0
  0
LINE
  5
1FC
330
1F
100
AcDbEntity
  8
D-A
  6
Continuous
 62
   200
370
    13
100
AcDbLine
 10
1471.721092430321
 20
607.787871489654
 30
0.0
 11
1479.220993454392
 21
637.7877230257602
 31
0.0
  0
LINE
  5
1FD
330
1F
100
AcDbEntity
  8
D-A
  6
Continuous
 62
   200
370
    13
100
AcDbLine
 10
1486.798095703125
 20
637.7877230257602
 30
0.0
 11
1494.297996727196
 21
607.787871489654
 31
0.0
  0
LINE
  5
1FE
330
1F
100
AcDbEntity
  8
D-A
  6
Continuous
 62
   200
370
    13
100
AcDbLine
 10
1469.144006677576
 20
607.787871489654
 30
0.0
 11
1476.64415514147
 21
637.7877230257602
 31
0.0
  0
LINE
  5
1FF
330
1F
100
AcDbEntity
  8
D-A
  6
Continuous
 62
   200
370
    13
100
AcDbLine
 10
1439.220861486486
 20
637.7877230257602
 30
0.0
 11
1431.720960462416
 21
607.787871489654
 31
0.0
  0
LINE
  5
200
330
1F
100
AcDbEntity
  8
D-A
  6
Continuous
 62
   200
370
    13
100
AcDbLine
 10
1419.221042942357
 20
637.7877230257602
 30
0.0
 11
1426.72119140625
 21
607.787871489654
 31
0.0
  0
LINE
  5
201
330
1F
100
AcDbEntity
  8
D-A
  6
Continuous
 62
   200
370
    13
100
AcDbLine
 10
1441.797947239232
 20
637.7877230257602
 30
0.0
 11
1434.298293654983
 21
607.787871489654
 31
0.0
  0
LINE
  5
202
330
1F
100
AcDbEntity
  8
D-A
  6
Continuous
 62
   200
370
    13
100
AcDbLine
 10
1416.643957189611
 20
637.7877230257602
 30
0.0
 11
1424.143858213683
 21
607.787871489654
 31
0.0
  0
LINE
  5
203
330
1F
100
AcDbEntity
  8
D-A
  6
Continuous
 62
   200
370
    13
100
AcDbLine
 10
1311.643858213683
 20
637.7877230257602
 30
0.0
 11
1319.144006677576
 21
607.787871489654
 31
0.0
  0
LINE
  5
204
330
1F
100
AcDbEntity
  8
D-A
  6
Continuous
 62
   200
370
    13
100
AcDbLine
 10
1336.798095703125
 20
637.7877230257602
 30
0.0
 11
1329.297947239232
 21
607.787871489654
 31
0.0
  0
LINE
  5
205
330
1F
100
AcDbEntity
  8
D-A
  6
Continuous
 62
   200
370
    13
100
AcDbLine
 10
1314.22119140625
 20
637.7877230257602
 30
0.0
 11
1321.721092430321
 21
607.787871489654
 31
0.0
  0
LINE
  5
206
330
1F
100
AcDbEntity
  8
D-A
  6
Continuous
 62
   200
370
    13
100
AcDbLine
 10
1334.22100995038
 20
637.7877230257602
 30
0.0
 11
1326.720861486486
 21
607.787871489654
 31
0.0
  0
LINE
  5
207
330
1F
100
AcDbEntity
  8
D-A
  6
Continuous
 62
   200
370
    13
100
AcDbLine
 10
1364.14415514147
 20
607.787871489654
 30
0.0
 11
1371.643808725718
 21
637.7877230257602
 31
0.0
  0
LINE
  5
208
330
1F
100
AcDbEntity
  8
D-A
  6
Continuous
 62
   200
370
    13
100
AcDbLine
 10
1381.797996727196
 20
637.7877230257602
 30
0.0
 11
1389.297897751267
 21
607.787871489654
 31
0.0
  0
LINE
  5
209
330
1F
100
AcDbEntity
  8
D-A
  6
Continuous
 62
   200
370
    13
100
AcDbLine
 10
1366.720993454392
 20
607.787871489654
 30
0.0
 11
1374.221389358108
 21
637.7877230257602
 31
0.0
  0
LINE
  5
20A
330
1F
100
AcDbEntity
  8
D-A
  6
Continuous
 62
   200
370
    13
100
AcDbLine
 10
1379.221405854096
 20
637.7877230257602
 30
0.0
 11
1386.721059438345
 21
607.787871489654
 31
0.0
  0
LINE
  5
20B
330
1F
100
AcDbEntity
  8
D-A
  6
Continuous
 62
   200
370
    13
100
AcDbLine
 10
1274.221059438345
 20
637.7877230257602
 30
0.0
 11
1281.720960462416
 21
607.787871489654
 31
0.0
  0
LINE
  5
20C
330
1F
100
AcDbEntity
  8
D-A
  6
Continuous
 62
   200
370
    13
100
AcDbLine
 10
1261.721389358108
 20
607.787871489654
 30
0.0
 11
1269.221042942357
 21
637.7877230257602
 31
0.0
  0
LINE
  5
20D
330
1F
100
AcDbEntity
  8
D-A
  6
Continuous
 62
   200
370
    13
100
AcDbLine
 10
1276.797897751267
 20
637.7877230257602
 30
0.0
 11
1284.298293654983
 21
607.787871489654
 31
0.0
  0
LINE
  5
20E
330
1F
100
AcDbEntity
  8
D-A
  6
Continuous
 62
   200
370
    13
100
AcDbLine
 10
1259.144056165541
 20
607.787871489654
 30
0.0
 11
1266.643957189611
 21
637.7877230257602
 31
0.0
  0
LINE
  5
20F
330
1F
100
AcDbEntity
  8
D-A
  6
Continuous
 62
   200
370
    13
100
AcDbLine
 10
1050.221458641259
 20
507.7879127296242
 30
0.0
 11
1057.721112225507
 21
477.7879374736065
 31
0.0
  0
LINE
  5
210
330
1F
100
AcDbEntity
  8
D-A
  6
Continuous
 62
   200
370
    13
100
AcDbLine
 10
1037.721046241554
 20
477.7879374736065
 30
0.0
 11
1045.22144214527
 21
507.7879127296242
 31
0.0
  0
LINE
  5
211
330
1F
100
AcDbEntity
  8
D-A
  6
Continuous
 62
   200
370
    13
100
AcDbLine
 10
1052.798049514358
 20
507.7879127296242
 30
0.0
 11
1060.297950538429
 21
477.7879374736065
 31
0.0
  0
LINE
  5
212
330
1F
100
AcDbEntity
  8
D-A
  6
Continuous
 62
   200
370
    13
100
AcDbLine
 10
1035.143713048986
 20
477.7879374736065
 30
0.0
 11
1042.64386151288
 21
507.7879127296242
 31
0.0
  0
LINE
  5
213
330
1F
100
AcDbEntity
  8
D-A
  6
Continuous
 62
   200
370
    13
100
AcDbLine
 10
1087.644009976774
 20
507.7879127296242
 30
0.0
 11
1095.143911000845
 21
477.7879374736065
 31
0.0
  0
LINE
  5
214
330
1F
100
AcDbEntity
  8
D-A
  6
Continuous
 62
   200
370
    13
100
AcDbLine
 10
1112.798000026394
 20
507.7879127296242
 30
0.0
 11
1105.298346442145
 21
477.7879374736065
 31
0.0
  0
LINE
  5
215
330
1F
100
AcDbEntity
  8
D-A
  6
Continuous
 62
   200
370
    13
100
AcDbLine
 10
1090.221095729519
 20
507.7879127296242
 30
0.0
 11
1097.72099675359
 21
477.7879374736065
 31
0.0
  0
LINE
  5
216
330
1F
100
AcDbEntity
  8
D-A
  6
Continuous
 62
   200
370
    13
100
AcDbLine
 10
1110.220914273649
 20
507.7879127296242
 30
0.0
 11
1102.721013249578
 21
477.7879374736065
 31
0.0
  0
LINE
  5
217
330
1F
100
AcDbEntity
  8
D-A
  6
Continuous
 62
   200
370
    13
100
AcDbLine
 10
1120.22144214527
 20
572.7878797376479
 30
0.0
 11
1112.721046241554
 21
542.7879044816302
 31
0.0
  0
LINE
  5
218
330
1F
100
AcDbEntity
  8
D-A
  6
Continuous
 62
   200
370
    13
100
AcDbLine
 10
1100.221128721495
 20
572.7878797376479
 30
0.0
 11
1107.721029745566
 21
542.7879044816302
 31
0.0
  0
LINE
  5
219
330
1F
100
AcDbEntity
  8
D-A
  6
Continuous
 62
   200
370
    13
100
AcDbLine
 10
1122.79803301837
 20
572.7878797376479
 30
0.0
 11
1115.297884554477
 21
542.7879044816302
 31
0.0
  0
LINE
  5
21A
330
1F
100
AcDbEntity
  8
D-A
  6
Continuous
 62
   200
370
    13
100
AcDbLine
 10
1097.64404296875
 20
572.7878797376479
 30
0.0
 11
1105.143943992821
 21
542.7879044816302
 31
0.0
  0
LINE
  5
21B
330
1F
100
AcDbEntity
  8
D-A
  6
Continuous
 62
   200
370
    13
100
AcDbLine
 10
1165.221095729519
 20
572.7878797376479
 30
0.0
 11
1172.72099675359
 21
542.7879044816302
 31
0.0
  0
LINE
  5
21C
330
1F
100
AcDbEntity
  8
D-A
  6
Continuous
 62
   200
370
    13
100
AcDbLine
 10
1152.721425649282
 20
542.7879044816302
 30
0.0
 11
1160.221079233531
 21
572.7878797376479
 31
0.0
  0
LINE
  5
21D
330
1F
100
AcDbEntity
  8
D-A
  6
Continuous
 62
   200
370
    13
100
AcDbLine
 10
1167.797934042441
 20
572.7878797376479
 30
0.0
 11
1175.298329946157
 21
542.7879044816302
 31
0.0
  0
LINE
  5
21E
330
1F
100
AcDbEntity
  8
D-A
  6
Continuous
 62
   200
370
    13
100
AcDbLine
 10
1150.143845016892
 20
542.7879044816302
 30
0.0
 11
1157.644240920608
 21
572.7878797376479
 31
0.0
  0
LINE
  5
21F
330
1F
100
AcDbEntity
  8
D-A
  6
Continuous
 62
   200
370
    13
100
AcDbLine
 10
1154.143957189611
 20
607.787871489654
 30
0.0
 11
1161.643858213683
 21
637.7877230257602
 31
0.0
  0
LINE
  5
220
330
1F
100
AcDbEntity
  8
D-A
  6
Continuous
 62
   200
370
    13
100
AcDbLine
 10
1171.798293654983
 20
637.7877230257602
 30
0.0
 11
1179.297947239232
 21
607.787871489654
 31
0.0
  0
LINE
  5
221
330
1F
100
AcDbEntity
  8
D-A
  6
Continuous
 62
   200
370
    13
100
AcDbLine
 10
1156.721042942357
 20
607.787871489654
 30
0.0
 11
1164.22119140625
 21
637.7877230257602
 31
0.0
  0
LINE
  5
222
330
1F
100
AcDbEntity
  8
D-A
  6
Continuous
 62
   200
370
    13
100
AcDbLine
 10
1169.221207902239
 20
637.7877230257602
 30
0.0
 11
1176.720861486486
 21
607.787871489654
 31
0.0
  0
LINE
  5
223
330
1F
100
AcDbEntity
  8
D-A
  6
Continuous
 62
   200
370
    13
100
AcDbLine
 10
1229.221158414274
 20
637.7877230257602
 30
0.0
 11
1221.72100995038
 21
607.787871489654
 31
0.0
  0
LINE
  5
224
330
1F
100
AcDbEntity
  8
D-A
  6
Continuous
 62
   200
370
    13
100
AcDbLine
 10
1209.221092430321
 20
637.7877230257602
 30
0.0
 11
1216.720993454392
 21
607.787871489654
 31
0.0
  0
LINE
  5
225
330
1F
100
AcDbEntity
  8
D-A
  6
Continuous
 62
   200
370
    13
100
AcDbLine
 10
1231.797996727196
 20
637.7877230257602
 30
0.0
 11
1224.298095703125
 21
607.787871489654
 31
0.0
  0
LINE
  5
226
330
1F
100
AcDbEntity
  8
D-A
  6
Continuous
 62
   200
370
    13
100
AcDbLine
 10
1206.644006677576
 20
637.7877230257602
 30
0.0
 11
1214.14415514147
 21
607.787871489654
 31
0.0
  0
LINE
  5
227
330
1F
100
AcDbEntity
  8
D-A
  6
Continuous
 62
   200
370
    13
100
AcDbLine
 10
1222.643713048986
 20
702.7879374736065
 30
0.0
 11
1230.14386151288
 21
672.787591057855
 31
0.0
  0
LINE
  5
228
330
1F
100
AcDbEntity
  8
D-A
  6
Continuous
 62
   200
370
    13
100
AcDbLine
 10
1247.797950538429
 20
702.7879374736065
 30
0.0
 11
1240.298049514358
 21
672.787591057855
 31
0.0
  0
LINE
  5
229
330
1F
100
AcDbEntity
  8
D-A
  6
Continuous
 62
   200
370
    13
100
AcDbLine
 10
1225.221046241554
 20
702.7879374736065
 30
0.0
 11
1232.72144214527
 21
672.787591057855
 31
0.0
  0
LINE
  5
22A
330
1F
100
AcDbEntity
  8
D-A
  6
Continuous
 62
   200
370
    13
100
AcDbLine
 10
1245.221112225507
 20
702.7879374736065
 30
0.0
 11
1237.720963761614
 21
672.787591057855
 31
0.0
  0
LINE
  5
22B
330
1F
100
AcDbEntity
  8
D-A
  6
Continuous
 62
   200
370
    13
100
AcDbLine
 10
1275.144257416596
 20
672.787591057855
 30
0.0
 11
1282.643911000845
 21
702.7879374736065
 31
0.0
  0
LINE
  5
22C
330
1F
100
AcDbEntity
  8
D-A
  6
Continuous
 62
   200
370
    13
100
AcDbLine
 10
1292.798346442145
 20
702.7879374736065
 30
0.0
 11
1300.298000026394
 21
672.787591057855
 31
0.0
  0
LINE
  5
22D
330
1F
100
AcDbEntity
  8
D-A
  6
Continuous
 62
   200
370
    13
100
AcDbLine
 10
1277.721095729519
 20
672.787591057855
 30
0.0
 11
1285.22099675359
 21
702.7879374736065
 31
0.0
  0
LINE
  5
22E
330
1F
100
AcDbEntity
  8
D-A
  6
Continuous
 62
   200
370
    13
100
AcDbLine
 10
1290.221013249578
 20
702.7879374736065
 30
0.0
 11
1297.721161713471
 21
672.787591057855
 31
0.0
  0
LINE
  5
22F
330
1F
100
AcDbEntity
  8
D-A
  6
Continuous
 62
   200
370
    13
100
AcDbLine
 10
1395.221112225507
 20
702.7879374736065
 30
0.0
 11
1402.721013249578
 21
672.787591057855
 31
0.0
  0
LINE
  5
230
330
1F
100
AcDbEntity
  8
D-A
  6
Continuous
 62
   200
370
    13
100
AcDbLine
 10
1382.72144214527
 20
672.787591057855
 30
0.0
 11
1390.221095729519
 21
702.7879374736065
 31
0.0
  0
LINE
  5
231
330
1F
100
AcDbEntity
  8
D-A
  6
Continuous
 62
   200
370
    13
100
AcDbLine
 10
1397.797950538429
 20
702.7879374736065
 30
0.0
 11
1405.298346442145
 21
672.787591057855
 31
0.0
  0
LINE
  5
232
330
1F
100
AcDbEntity
  8
D-A
  6
Continuous
 62
   200
370
    13
100
AcDbLine
 10
1380.14386151288
 20
672.787591057855
 30
0.0
 11
1387.644257416596
 21
702.7879374736065
 31
0.0
  0
LINE
  5
233
330
1F
100
AcDbEntity
  8
D-A
  6
Continuous
 62
   200
370
    13
100
AcDbLine
 10
1350.220963761614
 20
702.7879374736065
 30
0.0
 11
1342.721062737542
 21
672.787591057855
 31
0.0
  0
LINE
  5
234
330
1F
100
AcDbEntity
  8
D-A
  6
Continuous
 62
   200
370
    13
100
AcDbLine
 10
1330.221145217483
 20
702.7879374736065
 30
0.0
 11
1337.721046241554
 21
672.787591057855
 31
0.0
  0
LINE
  5
235
330
1F
100
AcDbEntity
  8
D-A
  6
Continuous
 62
   200
370
    13
100
AcDbLine
 10
1352.798049514358
 20
702.7879374736065
 30
0.0
 11
1345.297901050465
 21
672.787591057855
 31
0.0
  0
LINE
  5
236
330
1F
100
AcDbEntity
  8
D-A
  6
Continuous
 62
   200
370
    13
100
AcDbLine
 10
1327.643812024916
 20
702.7879374736065
 30
0.0
 11
1335.143713048986
 21
672.787591057855
 31
0.0
  0
LINE
  5
237
330
1F
100
AcDbEntity
  8
D-A
  6
Continuous
 62
   200
370
    13
100
AcDbLine
 10
1432.643911000845
 20
702.7879374736065
 30
0.0
 11
1440.143812024916
 21
672.787591057855
 31
0.0
  0
LINE
  5
238
330
1F
100
AcDbEntity
  8
D-A
  6
Continuous
 62
   200
370
    13
100
AcDbLine
 10
1457.797901050465
 20
702.7879374736065
 30
0.0
 11
1450.298000026394
 21
672.787591057855
 31
0.0
  0
LINE
  5
239
330
1F
100
AcDbEntity
  8
D-A
  6
Continuous
 62
   200
370
    13
100
AcDbLine
 10
1435.22099675359
 20
702.7879374736065
 30
0.0
 11
1442.721145217483
 21
672.787591057855
 31
0.0
  0
LINE
  5
23A
330
1F
100
AcDbEntity
  8
D-A
  6
Continuous
 62
   200
370
    13
100
AcDbLine
 10
1455.221062737542
 20
702.7879374736065
 30
0.0
 11
1447.721161713471
 21
672.787591057855
 31
0.0
  0
LINE
  5
23B
330
1F
100
AcDbEntity
  8
D-A
  6
Continuous
 62
   200
370
    13
100
AcDbLine
 10
1485.143713048986
 20
672.787591057855
 30
0.0
 11
1492.64386151288
 21
702.7879374736065
 31
0.0
  0
LINE
  5
23C
330
1F
100
AcDbEntity
  8
D-A
  6
Continuous
 62
   200
370
    13
100
AcDbLine
 10
1502.798049514358
 20
702.7879374736065
 30
0.0
 11
1510.297950538429
 21
672.787591057855
 31
0.0
  0
LINE
  5
23D
330
1F
100
AcDbEntity
  8
D-A
  6
Continuous
 62
   200
370
    13
100
AcDbLine
 10
1487.721046241554
 20
672.787591057855
 30
0.0
 11
1495.220947265625
 21
702.7879374736065
 31
0.0
  0
LINE
  5
23E
330
1F
100
AcDbEntity
  8
D-A
  6
Continuous
 62
   200
370
    13
100
AcDbLine
 10
1500.220963761614
 20
702.7879374736065
 30
0.0
 11
1507.721112225507
 21
672.787591057855
 31
0.0
  0
LINE
  5
23F
330
1F
100
AcDbEntity
  8
D-A
  6
Continuous
 62
   200
370
    13
100
AcDbLine
 10
1492.220739416174
 20
767.7879044816302
 30
0.0
 11
1499.721135319891
 21
737.7880529455238
 31
0.0
  0
LINE
  5
240
330
1F
100
AcDbEntity
  8
D-A
  6
Continuous
 62
   200
370
    13
100
AcDbLine
 10
1479.721069335938
 20
737.7880529455238
 30
0.0
 11
1487.220970360009
 21
767.7879044816302
 31
0.0
  0
LINE
  5
241
330
1F
100
AcDbEntity
  8
D-A
  6
Continuous
 62
   200
370
    13
100
AcDbLine
 10
1494.798072608742
 20
767.7879044816302
 30
0.0
 11
1502.297973632812
 21
737.7880529455238
 31
0.0
  0
LINE
  5
242
330
1F
100
AcDbEntity
  8
D-A
  6
Continuous
 62
   200
370
    13
100
AcDbLine
 10
1477.143983583193
 20
737.7880529455238
 30
0.0
 11
1484.643884607264
 21
767.7879044816302
 31
0.0
  0
LINE
  5
243
330
1F
100
AcDbEntity
  8
D-A
  6
Continuous
 62
   200
370
    13
100
AcDbLine
 10
1447.221085831926
 20
767.7879044816302
 30
0.0
 11
1439.721184807855
 21
737.7880529455238
 31
0.0
  0
LINE
  5
244
330
1F
100
AcDbEntity
  8
D-A
  6
Continuous
 62
   200
370
    13
100
AcDbLine
 10
1427.221267287796
 20
767.7879044816302
 30
0.0
 11
1434.721168311867
 21
737.7880529455238
 31
0.0
  0
LINE
  5
245
330
1F
100
AcDbEntity
  8
D-A
  6
Continuous
 62
   200
370
    13
100
AcDbLine
 10
1449.798171584671
 20
767.7879044816302
 30
0.0
 11
1442.298023120777
 21
737.7880529455238
 31
0.0
  0
LINE
  5
246
330
1F
100
AcDbEntity
  8
D-A
  6
Continuous
 62
   200
370
    13
100
AcDbLine
 10
1424.643934095228
 20
767.7879044816302
 30
0.0
 11
1432.143835119299
 21
737.7880529455238
 31
0.0
  0
LINE
  5
247
330
1F
100
AcDbEntity
  8
D-A
  6
Continuous
 62
   200
370
    13
100
AcDbLine
 10
1319.643835119299
 20
767.7879044816302
 30
0.0
 11
1327.143983583193
 21
737.7880529455238
 31
0.0
  0
LINE
  5
248
330
1F
100
AcDbEntity
  8
D-A
  6
Continuous
 62
   200
370
    13
100
AcDbLine
 10
1344.798072608742
 20
767.7879044816302
 30
0.0
 11
1337.298171584671
 21
737.7880529455238
 31
0.0
  0
LINE
  5
249
330
1F
100
AcDbEntity
  8
D-A
  6
Continuous
 62
   200
370
    13
100
AcDbLine
 10
1322.221168311867
 20
767.7879044816302
 30
0.0
 11
1329.721069335938
 21
737.7880529455238
 31
0.0
  0
LINE
  5
24A
330
1F
100
AcDbEntity
  8
D-A
  6
Continuous
 62
   200
370
    13
100
AcDbLine
 10
1342.220739416174
 20
767.7879044816302
 30
0.0
 11
1334.721085831926
 21
737.7880529455238
 31
0.0
  0
LINE
  5
24B
330
1F
100
AcDbEntity
  8
D-A
  6
Continuous
 62
   200
370
    13
100
AcDbLine
 10
1372.143884607264
 20
737.7880529455238
 30
0.0
 11
1379.644033071157
 21
767.7879044816302
 31
0.0
  0
LINE
  5
24C
330
1F
100
AcDbEntity
  8
D-A
  6
Continuous
 62
   200
370
    13
100
AcDbLine
 10
1389.797973632812
 20
767.7879044816302
 30
0.0
 11
1397.297874656884
 21
737.7880529455238
 31
0.0
  0
LINE
  5
24D
330
1F
100
AcDbEntity
  8
D-A
  6
Continuous
 62
   200
370
    13
100
AcDbLine
 10
1374.720970360009
 20
737.7880529455238
 30
0.0
 11
1382.221118823902
 21
767.7879044816302
 31
0.0
  0
LINE
  5
24E
330
1F
100
AcDbEntity
  8
D-A
  6
Continuous
 62
   200
370
    13
100
AcDbLine
 10
1387.221135319891
 20
767.7879044816302
 30
0.0
 11
1394.721283783784
 21
737.7880529455238
 31
0.0
  0
LINE
  5
24F
330
1F
100
AcDbEntity
  8
D-A
  6
Continuous
 62
   200
370
    13
100
AcDbLine
 10
1282.221283783784
 20
767.7879044816302
 30
0.0
 11
1289.721184807855
 21
737.7880529455238
 31
0.0
  0
LINE
  5
250
330
1F
100
AcDbEntity
  8
D-A
  6
Continuous
 62
   200
370
    13
100
AcDbLine
 10
1269.721118823902
 20
737.7880529455238
 30
0.0
 11
1277.221267287796
 21
767.7879044816302
 31
0.0
  0
LINE
  5
251
330
1F
100
AcDbEntity
  8
D-A
  6
Continuous
 62
   200
370
    13
100
AcDbLine
 10
1284.797874656884
 20
767.7879044816302
 30
0.0
 11
1292.298023120777
 21
737.7880529455238
 31
0.0
  0
LINE
  5
252
330
1F
100
AcDbEntity
  8
D-A
  6
Continuous
 62
   200
370
    13
100
AcDbLine
 10
1267.144033071157
 20
737.7880529455238
 30
0.0
 11
1274.643934095228
 21
767.7879044816302
 31
0.0
  0
LINE
  5
253
330
1F
100
AcDbEntity
  8
D-A
  6
Continuous
 62
   200
370
    13
100
AcDbLine
 10
1377.221102327914
 20
832.787871489654
 30
0.0
 11
1384.721250791808
 21
802.7877725137248
 31
0.0
  0
LINE
  5
254
330
1F
100
AcDbEntity
  8
D-A
  6
Continuous
 62
   200
370
    13
100
AcDbLine
 10
1364.721184807855
 20
802.7877725137248
 30
0.0
 11
1372.221085831926
 21
832.787871489654
 31
0.0
  0
LINE
  5
255
330
1F
100
AcDbEntity
  8
D-A
  6
Continuous
 62
   200
370
    13
100
AcDbLine
 10
1379.798188080659
 20
832.787871489654
 30
0.0
 11
1387.29808910473
 21
802.7877725137248
 31
0.0
  0
LINE
  5
256
330
1F
100
AcDbEntity
  8
D-A
  6
Continuous
 62
   200
370
    13
100
AcDbLine
 10
1362.143851615288
 20
802.7877725137248
 30
0.0
 11
1369.644000079181
 21
832.787871489654
 31
0.0
  0
LINE
  5
257
330
1F
100
AcDbEntity
  8
D-A
  6
Continuous
 62
   200
370
    13
100
AcDbLine
 10
1332.221201303843
 20
832.787871489654
 30
0.0
 11
1324.72105283995
 21
802.7877725137248
 31
0.0
  0
LINE
  5
258
330
1F
100
AcDbEntity
  8
D-A
  6
Continuous
 62
   200
370
    13
100
AcDbLine
 10
1312.221135319891
 20
832.787871489654
 30
0.0
 11
1319.721283783784
 21
802.7877725137248
 31
0.0
  0
LINE
  5
259
330
1F
100
AcDbEntity
  8
D-A
  6
Continuous
 62
   200
370
    13
100
AcDbLine
 10
1334.798039616766
 20
832.787871489654
 30
0.0
 11
1327.297643713049
 21
802.7877725137248
 31
0.0
  0
LINE
  5
25A
330
1F
100
AcDbEntity
  8
D-A
  6
Continuous
 62
   200
370
    13
100
AcDbLine
 10
1309.644049567145
 20
832.787871489654
 30
0.0
 11
1317.143950591216
 21
802.7877725137248
 31
0.0
  0
LINE
  5
25B
330
1F
100
AcDbEntity
  8
D-A
  6
Continuous
 62
   200
370
    13
100
AcDbLine
 10
1414.643901103252
 20
832.787871489654
 30
0.0
 11
1422.144049567145
 21
802.7877725137248
 31
0.0
  0
LINE
  5
25C
330
1F
100
AcDbEntity
  8
D-A
  6
Continuous
 62
   200
370
    13
100
AcDbLine
 10
1439.797643713049
 20
832.787871489654
 30
0.0
 11
1432.297990128801
 21
802.7877725137248
 31
0.0
  0
LINE
  5
25D
330
1F
100
AcDbEntity
  8
D-A
  6
Continuous
 62
   200
370
    13
100
AcDbLine
 10
1417.220739416174
 20
832.787871489654
 30
0.0
 11
1424.721135319891
 21
802.7877725137248
 31
0.0
  0
LINE
  5
25E
330
1F
100
AcDbEntity
  8
D-A
  6
Continuous
 62
   200
370
    13
100
AcDbLine
 10
1437.22105283995
 20
832.787871489654
 30
0.0
 11
1429.721151815879
 21
802.7877725137248
 31
0.0
  0
LINE
  5
25F
330
1F
100
AcDbEntity
  8
D-A
  6
Continuous
 62
   200
370
    13
100
AcDbLine
 10
1467.143950591216
 20
802.7877725137248
 30
0.0
 11
1474.643851615288
 21
832.787871489654
 31
0.0
  0
LINE
  5
260
330
1F
100
AcDbEntity
  8
D-A
  6
Continuous
 62
   200
370
    13
100
AcDbLine
 10
1484.798039616766
 20
832.787871489654
 30
0.0
 11
1492.298188080659
 21
802.7877725137248
 31
0.0
  0
LINE
  5
261
330
1F
100
AcDbEntity
  8
D-A
  6
Continuous
 62
   200
370
    13
100
AcDbLine
 10
1469.721283783784
 20
802.7877725137248
 30
0.0
 11
1477.221184807855
 21
832.787871489654
 31
0.0
  0
LINE
  5
262
330
1F
100
AcDbEntity
  8
D-A
  6
Continuous
 62
   200
370
    13
100
AcDbLine
 10
1482.22095386402
 20
832.787871489654
 30
0.0
 11
1489.721102327914
 21
802.7877725137248
 31
0.0
  0
LINE
  5
263
330
1F
100
AcDbEntity
  8
D-A
  6
Continuous
 62
   200
370
    13
100
AcDbLine
 10
1488.2211221231
 20
897.7878384976776
 30
0.0
 11
1495.721023147171
 21
867.787986961571
 31
0.0
  0
LINE
  5
264
330
1F
100
AcDbEntity
  8
D-A
  6
Continuous
 62
   200
370
    13
100
AcDbLine
 10
1475.720957163218
 20
867.787986961571
 30
0.0
 11
1483.221105627111
 21
897.7878384976776
 31
0.0
  0
LINE
  5
265
330
1F
100
AcDbEntity
  8
D-A
  6
Continuous
 62
   200
370
    13
100
AcDbLine
 10
1490.798207875845
 20
897.7878384976776
 30
0.0
 11
1498.297861460093
 21
867.787986961571
 31
0.0
  0
LINE
  5
266
330
1F
100
AcDbEntity
  8
D-A
  6
Continuous
 62
   200
370
    13
100
AcDbLine
 10
1473.144118850296
 20
867.787986961571
 30
0.0
 11
1480.644019874367
 21
897.7878384976776
 31
0.0
  0
LINE
  5
267
330
1F
100
AcDbEntity
  8
D-A
  6
Continuous
 62
   200
370
    13
100
AcDbLine
 10
1443.220973659206
 20
897.7878384976776
 30
0.0
 11
1435.721320074958
 21
867.787986961571
 31
0.0
  0
LINE
  5
268
330
1F
100
AcDbEntity
  8
D-A
  6
Continuous
 62
   200
370
    13
100
AcDbLine
 10
1423.221155115076
 20
897.7878384976776
 30
0.0
 11
1430.72130357897
 21
867.787986961571
 31
0.0
  0
LINE
  5
269
330
1F
100
AcDbEntity
  8
D-A
  6
Continuous
 62
   200
370
    13
100
AcDbLine
 10
1445.798059411951
 20
897.7878384976776
 30
0.0
 11
1438.297910948058
 21
867.787986961571
 31
0.0
  0
LINE
  5
26A
330
1F
100
AcDbEntity
  8
D-A
  6
Continuous
 62
   200
370
    13
100
AcDbLine
 10
1420.643821922509
 20
897.7878384976776
 30
0.0
 11
1428.143970386402
 21
867.787986961571
 31
0.0
  0
LINE
  5
26B
330
1F
100
AcDbEntity
  8
D-A
  6
Continuous
 62
   200
370
    13
100
AcDbLine
 10
1368.144019874367
 20
867.787986961571
 30
0.0
 11
1375.643920898438
 21
897.7878384976776
 31
0.0
  0
LINE
  5
26C
330
1F
100
AcDbEntity
  8
D-A
  6
Continuous
 62
   200
370
    13
100
AcDbLine
 10
1385.797861460093
 20
897.7878384976776
 30
0.0
 11
1393.298009923986
 21
867.787986961571
 31
0.0
  0
LINE
  5
26D
330
1F
100
AcDbEntity
  8
D-A
  6
Continuous
 62
   200
370
    13
100
AcDbLine
 10
1370.721105627111
 20
867.787986961571
 30
0.0
 11
1378.221006651183
 21
897.7878384976776
 31
0.0
  0
LINE
  5
26E
330
1F
100
AcDbEntity
  8
D-A
  6
Continuous
 62
   200
370
    13
100
AcDbLine
 10
1383.221023147171
 20
897.7878384976776
 30
0.0
 11
1390.721171611065
 21
867.787986961571
 31
0.0
  0
LINE
  5
26F
330
1F
100
AcDbEntity
  8
D-A
  6
Continuous
 62
   200
370
    13
100
AcDbLine
 10
1424.643934095228
 20
962.787805505701
 30
0.0
 11
1432.143835119299
 21
932.7879539695948
 31
0.0
  0
LINE
  5
270
330
1F
100
AcDbEntity
  8
D-A
  6
Continuous
 62
   200
370
    13
100
AcDbLine
 10
1449.798171584671
 20
962.787805505701
 30
0.0
 11
1442.298023120777
 21
932.7879539695948
 31
0.0
  0
LINE
  5
271
330
1F
100
AcDbEntity
  8
D-A
  6
Continuous
 62
   200
370
    13
100
AcDbLine
 10
1427.221267287796
 20
962.787805505701
 30
0.0
 11
1434.721168311867
 21
932.7879539695948
 31
0.0
  0
LINE
  5
272
330
1F
100
AcDbEntity
  8
D-A
  6
Continuous
 62
   200
370
    13
100
AcDbLine
 10
1447.221085831926
 20
962.787805505701
 30
0.0
 11
1439.721184807855
 21
932.7879539695948
 31
0.0
  0
LINE
  5
273
330
1F
100
AcDbEntity
  8
D-A
  6
Continuous
 62
   200
370
    13
100
AcDbLine
 10
1477.143983583193
 20
932.7879539695948
 30
0.0
 11
1484.643884607264
 21
962.787805505701
 31
0.0
  0
LINE
  5
274
330
1F
100
AcDbEntity
  8
D-A
  6
Continuous
 62
   200
370
    13
100
AcDbLine
 10
1494.798072608742
 20
962.787805505701
 30
0.0
 11
1502.297973632812
 21
932.7879539695948
 31
0.0
  0
LINE
  5
275
330
1F
100
AcDbEntity
  8
D-A
  6
Continuous
 62
   200
370
    13
100
AcDbLine
 10
1479.721069335938
 20
932.7879539695948
 30
0.0
 11
1487.220970360009
 21
962.787805505701
 31
0.0
  0
LINE
  5
276
330
1F
100
AcDbEntity
  8
D-A
  6
Continuous
 62
   200
370
    13
100
AcDbLine
 10
1492.220739416174
 20
962.787805505701
 30
0.0
 11
1499.721135319891
 21
932.7879539695948
 31
0.0
  0
LINE
  5
277
330
1F
100
AcDbEntity
  8
2-1
  6
Continuous
 62
    40
370
     9
100
AcDbLine
 10
1199.289600269215
 20
-625.6323407147381
 30
0.0
 11
1199.289600269215
 21
-690.6323077227619
 31
0.0
  0
LINE
  5
278
330
1F
100
AcDbEntity
  8
2-2
  6
Continuous
 62
    92
370
     5
100
AcDbLine
 10
979.2896167652026
 20
-630.6323572107262
 30
0.0
 11
979.2896167652026
 21
-615.6323077227617
 31
0.0
  0
LINE
  5
279
330
1F
100
AcDbEntity
  8
2-2
  6
Continuous
 62
    92
370
     5
100
AcDbLine
 10
964.289814717061
 20
-635.6326211465371
 30
0.0
 11
974.2896002692146
 21
-635.6326211465371
 31
0.0
  0
LINE
  5
27A
330
1F
100
AcDbEntity
  8
2-2
  6
Continuous
 62
    92
370
     5
100
AcDbLine
 10
959.2897982210729
 20
-755.6322747307854
 30
0.0
 11
959.2897982210729
 21
-640.6323902027026
 31
0.0
  0
LINE
  5
27B
330
1F
100
AcDbEntity
  8
2-2
  6
Continuous
 62
    92
370
     5
100
AcDbLine
 10
939.2894847972974
 20
-640.6323902027026
 30
0.0
 11
939.2894847972974
 21
-755.6322747307854
 31
0.0
  0
LINE
  5
27C
330
1F
100
AcDbEntity
  8
2-2
  6
Continuous
 62
    92
370
     5
100
AcDbLine
 10
924.2894353093328
 20
-635.6326211465371
 30
0.0
 11
934.2894683013094
 21
-635.6326211465371
 31
0.0
  0
LINE
  5
27D
330
1F
100
AcDbEntity
  8
2-2
  6
Continuous
 62
    92
370
     5
100
AcDbLine
 10
919.2894188133448
 20
-615.6323077227617
 30
0.0
 11
919.2894188133448
 21
-630.6323572107262
 31
0.0
  0
LINE
  5
27E
330
1F
100
AcDbEntity
  8
2-2
  6
Continuous
 62
    92
370
     5
100
AcDbLine
 10
789.2894847972974
 20
-615.6323077227617
 30
0.0
 11
789.2894847972974
 21
-630.6323572107262
 31
0.0
  0
LINE
  5
27F
330
1F
100
AcDbEntity
  8
2-2
  6
Continuous
 62
    92
370
     5
100
AcDbLine
 10
794.2895012932854
 20
-635.6326211465371
 30
0.0
 11
804.2892868454396
 21
-635.6326211465371
 31
0.0
  0
LINE
  5
280
330
1F
100
AcDbEntity
  8
2-2
  6
Continuous
 62
    92
370
     5
100
AcDbLine
 10
809.28955078125
 20
-640.6323902027026
 30
0.0
 11
809.28955078125
 21
-755.6322747307854
 31
0.0
  0
LINE
  5
281
330
1F
100
AcDbEntity
  8
2-2
  6
Continuous
 62
    92
370
     5
100
AcDbLine
 10
829.2896167652026
 20
-755.6322747307854
 30
0.0
 11
829.2896167652026
 21
-640.6323902027026
 31
0.0
  0
LINE
  5
282
330
1F
100
AcDbEntity
  8
2-2
  6
Continuous
 62
    92
370
     5
100
AcDbLine
 10
834.2896332611912
 20
-635.6326211465371
 30
0.0
 11
844.2894188133448
 21
-635.6326211465371
 31
0.0
  0
LINE
  5
283
330
1F
100
AcDbEntity
  8
2-2
  6
Continuous
 62
    92
370
     5
100
AcDbLine
 10
849.2894353093328
 20
-630.6323572107262
 30
0.0
 11
849.2894353093328
 21
-615.6323077227617
 31
0.0
  0
LINE
  5
284
330
1F
100
AcDbEntity
  8
2-2
  6
Continuous
 62
    92
370
     5
100
AcDbLine
 10
719.2895012932854
 20
-630.6323572107262
 30
0.0
 11
719.2895012932854
 21
-615.6323077227617
 31
0.0
  0
LINE
  5
285
330
1F
100
AcDbEntity
  8
2-2
  6
Continuous
 62
    92
370
     5
100
AcDbLine
 10
704.2894518053208
 20
-635.6326211465371
 30
0.0
 11
714.2894847972974
 21
-635.6326211465371
 31
0.0
  0
LINE
  5
286
330
1F
100
AcDbEntity
  8
2-2
  6
Continuous
 62
    92
370
     5
100
AcDbLine
 10
699.2891878695104
 20
-755.6322747307854
 30
0.0
 11
699.2891878695104
 21
-640.6323902027026
 31
0.0
  0
LINE
  5
287
330
1F
100
AcDbEntity
  8
2-2
  6
Continuous
 62
    92
370
     5
100
AcDbLine
 10
679.2896167652026
 20
-640.6323902027026
 30
0.0
 11
679.2896167652026
 21
-755.6322747307854
 31
0.0
  0
LINE
  5
288
330
1F
100
AcDbEntity
  8
2-2
  6
Continuous
 62
    92
370
     5
100
AcDbLine
 10
664.289814717061
 20
-635.6326211465371
 30
0.0
 11
674.2896002692146
 21
-635.6326211465371
 31
0.0
  0
LINE
  5
289
330
1F
100
AcDbEntity
  8
2-2
  6
Continuous
 62
    92
370
     5
100
AcDbLine
 10
659.2897982210729
 20
-615.6323077227617
 30
0.0
 11
659.2897982210729
 21
-630.6323572107262
 31
0.0
  0
LINE
  5
28A
330
1F
100
AcDbEntity
  8
2-2
  6
Continuous
 62
    92
370
     5
100
AcDbLine
 10
529.2896167652026
 20
-615.6323077227617
 30
0.0
 11
529.2896167652026
 21
-630.6323572107262
 31
0.0
  0
LINE
  5
28B
330
1F
100
AcDbEntity
  8
2-2
  6
Continuous
 62
    92
370
     5
100
AcDbLine
 10
534.2896332611912
 20
-635.6326211465371
 30
0.0
 11
544.2894188133448
 21
-635.6326211465371
 31
0.0
  0
LINE
  5
28C
330
1F
100
AcDbEntity
  8
2-2
  6
Continuous
 62
    92
370
     5
100
AcDbLine
 10
549.2894353093328
 20
-640.6323902027026
 30
0.0
 11
549.2894353093328
 21
-755.6322747307854
 31
0.0
  0
LINE
  5
28D
330
1F
100
AcDbEntity
  8
2-2
  6
Continuous
 62
    92
370
     5
100
AcDbLine
 10
569.2895012932854
 20
-755.6322747307854
 30
0.0
 11
569.2895012932854
 21
-640.6323902027026
 31
0.0
  0
LINE
  5
28E
330
1F
100
AcDbEntity
  8
2-2
  6
Continuous
 62
    92
370
     5
100
AcDbLine
 10
574.289517789274
 20
-635.6326211465371
 30
0.0
 11
584.2897982210729
 21
-635.6326211465371
 31
0.0
  0
LINE
  5
28F
330
1F
100
AcDbEntity
  8
2-2
  6
Continuous
 62
    92
370
     5
100
AcDbLine
 10
589.289814717061
 20
-630.6323572107262
 30
0.0
 11
589.289814717061
 21
-615.6323077227617
 31
0.0
  0
LINE
  5
290
330
1F
100
AcDbEntity
  8
2-2
  6
Continuous
 62
    92
370
     5
100
AcDbLine
 10
459.2896332611909
 20
-630.6323572107262
 30
0.0
 11
459.2896332611909
 21
-615.6323077227617
 31
0.0
  0
LINE
  5
291
330
1F
100
AcDbEntity
  8
2-2
  6
Continuous
 62
    92
370
     5
100
AcDbLine
 10
444.2895837732266
 20
-635.6326211465371
 30
0.0
 11
454.2896167652029
 21
-635.6326211465371
 31
0.0
  0
LINE
  5
292
330
1F
100
AcDbEntity
  8
2-2
  6
Continuous
 62
    92
370
     5
100
AcDbLine
 10
439.2895672772383
 20
-755.6322747307854
 30
0.0
 11
439.2895672772383
 21
-640.6323902027026
 31
0.0
  0
LINE
  5
293
330
1F
100
AcDbEntity
  8
2-2
  6
Continuous
 62
    92
370
     5
100
AcDbLine
 10
419.2895012932857
 20
-640.6323902027026
 30
0.0
 11
419.2895012932857
 21
-755.6322747307854
 31
0.0
  0
LINE
  5
294
330
1F
100
AcDbEntity
  8
2-2
  6
Continuous
 62
    92
370
     5
100
AcDbLine
 10
404.2894518053211
 20
-635.6326211465371
 30
0.0
 11
414.2894847972974
 21
-635.6326211465371
 31
0.0
  0
LINE
  5
295
330
1F
100
AcDbEntity
  8
2-2
  6
Continuous
 62
    92
370
     5
100
AcDbLine
 10
399.2894353093328
 20
-615.6323077227617
 30
0.0
 11
399.2894353093328
 21
-630.6323572107262
 31
0.0
  0
LINE
  5
296
330
1F
100
AcDbEntity
  8
2-2
  6
Continuous
 62
    92
370
     5
100
AcDbLine
 10
269.2895012932857
 20
-615.6323077227617
 30
0.0
 11
269.2895012932857
 21
-630.6323572107262
 31
0.0
  0
LINE
  5
297
330
1F
100
AcDbEntity
  8
2-2
  6
Continuous
 62
    92
370
     5
100
AcDbLine
 10
274.2895177892737
 20
-635.6326211465371
 30
0.0
 11
284.28955078125
 21
-635.6326211465371
 31
0.0
  0
LINE
  5
298
330
1F
100
AcDbEntity
  8
2-2
  6
Continuous
 62
    92
370
     5
100
AcDbLine
 10
289.2895672772383
 20
-640.6323902027026
 30
0.0
 11
289.2895672772383
 21
-755.6322747307854
 31
0.0
  0
LINE
  5
299
330
1F
100
AcDbEntity
  8
2-2
  6
Continuous
 62
    92
370
     5
100
AcDbLine
 10
309.2896332611909
 20
-755.6322747307854
 30
0.0
 11
309.2896332611909
 21
-640.6323902027026
 31
0.0
  0
LINE
  5
29A
330
1F
100
AcDbEntity
  8
2-2
  6
Continuous
 62
    92
370
     5
100
AcDbLine
 10
314.2896497571792
 20
-635.6326211465371
 30
0.0
 11
324.2894353093328
 21
-635.6326211465371
 31
0.0
  0
LINE
  5
29B
330
1F
100
AcDbEntity
  8
2-2
  6
Continuous
 62
    92
370
     5
100
AcDbLine
 10
329.2894518053211
 20
-630.6323572107262
 30
0.0
 11
329.2894518053211
 21
-615.6323077227617
 31
0.0
  0
LINE
  5
29C
330
1F
100
AcDbEntity
  8
2-1
  6
Continuous
 62
    40
370
     9
100
AcDbLine
 10
1139.289649757179
 20
-724.6322714315877
 30
0.0
 11
1176.289573875634
 21
-724.6322714315877
 31
0.0
  0
LINE
  5
29D
330
1F
100
AcDbEntity
  8
2-1
  6
Continuous
 62
    40
370
     9
100
AcDbLine
 10
1139.289649757179
 20
-756.6324264938767
 30
0.0
 11
1176.289573875634
 21
-756.6324264938767
 31
0.0
  0
LINE
  5
29E
330
1F
100
AcDbEntity
  8
2-1
  6
Continuous
 62
    40
370
     9
100
AcDbLine
 10
1235.289867504223
 20
-756.6324264938767
 30
0.0
 11
1235.289867504223
 21
-724.6322714315877
 31
0.0
  0
LINE
  5
29F
330
1F
100
AcDbEntity
  8
2-1
  6
Continuous
 62
    40
370
     9
100
AcDbLine
 10
1143.289514490076
 20
-760.6322912267735
 30
0.0
 11
1143.289514490076
 21
-720.6324066986908
 31
0.0
  0
LINE
  5
2A0
330
1F
100
AcDbEntity
  8
2-1
  6
Continuous
 62
    40
370
     9
100
AcDbLine
 10
1209.289633261191
 20
-810.6322087468327
 30
0.0
 11
1209.289633261191
 21
-860.6323737067146
 31
0.0
  0
LINE
  5
2A1
330
1F
100
AcDbEntity
  8
2-1
  6
Continuous
 62
    40
370
     9
100
AcDbLine
 10
1129.289616765203
 20
-860.6323737067146
 30
0.0
 11
1129.289616765203
 21
-620.63232421875
 31
0.0
  0
LINE
  5
2A2
330
1F
100
AcDbEntity
  8
2-1
  6
Continuous
 62
    40
370
     9
100
AcDbLine
 10
1134.289633261191
 20
-615.6323077227617
 30
0.0
 11
1204.289616765203
 21
-615.6323077227617
 31
0.0
  0
LINE
  5
2A3
330
1F
100
AcDbEntity
  8
2-1
  6
Continuous
 62
    40
370
     9
100
AcDbLine
 10
1209.289633261191
 20
-620.63232421875
 30
0.0
 11
1209.289633261191
 21
-670.6322417388092
 31
0.0
  0
LINE
  5
2A4
330
1F
100
AcDbEntity
  8
2-1
  6
Continuous
 62
    40
370
     9
100
AcDbLine
 10
1139.289649757179
 20
-855.6323572107262
 30
0.0
 11
1139.289649757179
 21
-625.6323407147381
 31
0.0
  0
LINE
  5
2A5
330
1F
100
AcDbEntity
  8
2-1
  6
Continuous
 62
    40
370
     9
100
AcDbLine
 10
1139.289649757179
 20
-625.6323407147381
 30
0.0
 11
1199.289600269215
 21
-625.6323407147381
 31
0.0
  0
LINE
  5
2A6
330
1F
100
AcDbEntity
  8
2-1
  6
Continuous
 62
    40
370
     9
100
AcDbLine
 10
1199.289600269215
 20
-790.6321427628801
 30
0.0
 11
1199.289600269215
 21
-855.6323572107262
 31
0.0
  0
LINE
  5
2A7
330
1F
100
AcDbEntity
  8
2-1
  6
Continuous
 62
    40
370
     9
100
AcDbLine
 10
1199.289600269215
 20
-855.6323572107262
 30
0.0
 11
1139.289649757179
 21
-855.6323572107262
 31
0.0
  0
LINE
  5
2A8
330
1F
100
AcDbEntity
  8
2-1
  6
Continuous
 62
    40
370
     9
100
AcDbLine
 10
1199.289600269215
 20
-810.6322087468327
 30
0.0
 11
1209.289633261191
 21
-810.6322087468327
 31
0.0
  0
LINE
  5
2A9
330
1F
100
AcDbEntity
  8
2-1
  6
Continuous
 62
    40
370
     9
100
AcDbLine
 10
1199.289600269215
 20
-670.6322417388092
 30
0.0
 11
1209.289633261191
 21
-670.6322417388092
 31
0.0
  0
LINE
  5
2AA
330
1F
100
AcDbEntity
  8
2-1
  6
JWW_CENTER2
 62
    40
370
     9
100
AcDbLine
 10
1129.289616765203
 20
-740.6322252428209
 30
0.0
 11
1272.461267419764
 21
-740.6322252428209
 31
0.0
  0
LINE
  5
2AB
330
1F
100
AcDbEntity
  8
2-1
  6
Continuous
 62
    40
370
     9
100
AcDbLine
 10
1143.289514490076
 20
-720.6324066986908
 30
0.0
 11
1176.289573875634
 21
-720.6324066986908
 31
0.0
  0
LINE
  5
2AC
330
1F
100
AcDbEntity
  8
2-1
  6
Continuous
 62
    40
370
     9
100
AcDbLine
 10
1143.289514490076
 20
-760.6322912267735
 30
0.0
 11
1176.289573875634
 21
-760.6322912267735
 31
0.0
  0
LINE
  5
2AD
330
1F
100
AcDbEntity
  8
2-1
  6
Continuous
 62
    40
370
     9
100
AcDbLine
 10
1239.28973223712
 20
-775.6323407147381
 30
0.0
 11
1239.28973223712
 21
-705.6323572107262
 31
0.0
  0
LINE
  5
2AE
330
1F
100
AcDbEntity
  8
2-1
  6
Continuous
 62
    40
370
     9
100
AcDbLine
 10
1245.289653056377
 20
-706.1571770745354
 30
0.0
 11
1239.28973223712
 21
-705.6323572107262
 31
0.0
  0
LINE
  5
2AF
330
1F
100
AcDbEntity
  8
2-1
  6
Continuous
 62
    40
370
     9
100
AcDbLine
 10
1245.289653056377
 20
-775.1072734111063
 30
0.0
 11
1239.28973223712
 21
-775.6323407147381
 31
0.0
  0
LINE
  5
2B0
330
1F
100
AcDbEntity
  8
2-1
  6
Continuous
 62
    40
370
     9
100
AcDbLine
 10
1143.289514490076
 20
-720.6324066986908
 30
0.0
 11
1139.289649757179
 21
-724.6322714315877
 31
0.0
  0
LINE
  5
2B1
330
1F
100
AcDbEntity
  8
2-1
  6
Continuous
 62
    40
370
     9
100
AcDbLine
 10
1139.289649757179
 20
-756.6324264938767
 30
0.0
 11
1143.289514490076
 21
-760.6322912267735
 31
0.0
  0
LINE
  5
2B2
330
1F
100
AcDbEntity
  8
2-1
  6
Continuous
 62
    40
370
     9
100
AcDbLine
 10
1239.28973223712
 20
-720.6324066986908
 30
0.0
 11
1235.289867504223
 21
-724.6322714315877
 31
0.0
  0
LINE
  5
2B3
330
1F
100
AcDbEntity
  8
2-1
  6
Continuous
 62
    40
370
     9
100
AcDbLine
 10
1235.289867504223
 20
-756.6324264938767
 30
0.0
 11
1239.28973223712
 21
-760.6322912267735
 31
0.0
  0
LINE
  5
2B4
330
1F
100
AcDbEntity
  8
2-1
  6
Continuous
 62
    40
370
     9
100
AcDbLine
 10
1199.289600269215
 20
-756.6324264938767
 30
0.0
 11
1235.289867504223
 21
-756.6324264938767
 31
0.0
  0
LINE
  5
2B5
330
1F
100
AcDbEntity
  8
2-1
  6
Continuous
 62
    40
370
     9
100
AcDbLine
 10
1199.289600269215
 20
-760.6322912267735
 30
0.0
 11
1239.28973223712
 21
-760.6322912267735
 31
0.0
  0
LINE
  5
2B6
330
1F
100
AcDbEntity
  8
2-1
  6
Continuous
 62
    40
370
     9
100
AcDbLine
 10
1199.289600269215
 20
-724.6322714315877
 30
0.0
 11
1235.289867504223
 21
-724.6322714315877
 31
0.0
  0
LINE
  5
2B7
330
1F
100
AcDbEntity
  8
2-1
  6
Continuous
 62
    40
370
     9
100
AcDbLine
 10
1199.289600269215
 20
-720.6324066986908
 30
0.0
 11
1239.28973223712
 21
-720.6324066986908
 31
0.0
  0
LINE
  5
2B8
330
1F
100
AcDbEntity
  8
2-1
  6
JWW_DASHED1
 62
    40
370
     9
100
AcDbLine
 10
1176.289573875634
 20
-760.6322912267735
 30
0.0
 11
1199.289600269215
 21
-760.6322912267735
 31
0.0
  0
LINE
  5
2B9
330
1F
100
AcDbEntity
  8
2-1
  6
JWW_DASHED1
 62
    40
370
     9
100
AcDbLine
 10
1176.289573875634
 20
-756.6324264938767
 30
0.0
 11
1199.289600269215
 21
-756.6324264938767
 31
0.0
  0
LINE
  5
2BA
330
1F
100
AcDbEntity
  8
2-1
  6
JWW_DASHED1
 62
    40
370
     9
100
AcDbLine
 10
1176.289573875634
 20
-724.6322714315877
 30
0.0
 11
1199.289600269215
 21
-724.6322714315877
 31
0.0
  0
LINE
  5
2BB
330
1F
100
AcDbEntity
  8
2-1
  6
JWW_DASHED1
 62
    40
370
     9
100
AcDbLine
 10
1176.289573875634
 20
-720.6324066986908
 30
0.0
 11
1199.289600269215
 21
-720.6324066986908
 31
0.0
  0
LINE
  5
2BC
330
1F
100
AcDbEntity
  8
2-1
  6
Continuous
 62
    40
370
     9
100
AcDbLine
 10
177.2896431587839
 20
-595.9393145586992
 30
0.0
 11
177.2896431587839
 21
-888.1714362067146
 31
0.0
  0
LINE
  5
2BD
330
1F
100
AcDbEntity
  8
2-1
  6
Continuous
 62
    40
370
     9
100
AcDbLine
 10
1176.289573875634
 20
-630.6323572107262
 30
0.0
 11
1176.289573875634
 21
-855.6323572107262
 31
0.0
  0
LINE
  5
2BE
330
1F
100
AcDbEntity
  8
2-1
  6
Continuous
 62
    40
370
     9
100
AcDbLine
 10
1199.289600269215
 20
-630.6323572107262
 30
0.0
 11
1176.289573875634
 21
-630.6323572107262
 31
0.0
  0
LINE
  5
2BF
330
1F
100
AcDbEntity
  8
2-1
  6
Continuous
 62
    40
370
     9
100
AcDbLine
 10
1199.289600269215
 20
-690.6323077227619
 30
0.0
 11
1284.644956846495
 21
-775.9879117398648
 31
0.0
  0
LINE
  5
2C0
330
1F
100
AcDbEntity
  8
2-1
  6
Continuous
 62
    40
370
     9
100
AcDbLine
 10
1320.000395903716
 20
-790.6321427628801
 30
0.0
 11
1479.289781725085
 21
-790.6321427628801
 31
0.0
  0
LINE
  5
2C1
330
1F
100
AcDbEntity
  8
2-1
  6
Continuous
 62
    40
370
     9
100
AcDbLine
 10
1499.289600269215
 20
-890.6322252428208
 30
0.0
 11
1249.289765229096
 21
-890.6322252428208
 31
0.0
  0
LINE
  5
2C2
330
1F
100
AcDbEntity
  8
2-1
  6
Continuous
 62
    40
370
     9
100
AcDbLine
 10
1243.431627428209
 20
-834.7744173616977
 30
0.0
 11
1199.289600269215
 21
-790.6321427628801
 31
0.0
  0
LINE
  5
2C3
330
1F
100
AcDbEntity
  8
2-1
  6
Continuous
 62
    40
370
     9
100
AcDbLine
 10
1499.289600269215
 20
-867.6321988492398
 30
0.0
 11
1249.289765229096
 21
-867.6321988492398
 31
0.0
  0
LINE
  5
2C4
330
1F
100
AcDbEntity
  8
2-1
  6
JWW_DASHED3
 62
    40
370
     9
100
AcDbLine
 10
1199.289600269215
 20
-790.6321427628801
 30
0.0
 11
1199.289600269215
 21
-690.6323077227619
 31
0.0
  0
LINE
  5
2C5
330
1F
100
AcDbEntity
  8
2-1
  6
Continuous
 62
    40
370
     9
100
AcDbLine
 10
1204.289616765203
 20
-865.63214276288
 30
0.0
 11
177.2896431587839
 21
-865.63214276288
 31
0.0
  0
LINE
  5
2C6
330
1F
100
AcDbEntity
  8
1-4
  6
Continuous
 62
     7
370
     5
100
AcDbLine
 10
-452.7906263196789
 20
936.8135524440459
 30
0.0
 11
-452.7906263196789
 21
1179.039570576436
 31
0.0
  0
LINE
  5
2C7
330
1F
100
AcDbEntity
  8
1-4
  6
Continuous
 62
     7
370
     5
100
AcDbLine
 10
-452.7906263196789
 20
1169.039537584459
 30
0.0
 11
-392.7904283678208
 21
1169.039537584459
 31
0.0
  0
LINE
  5
2C8
330
1F
100
AcDbEntity
  8
1-4
  6
Continuous
 62
     7
370
     5
100
AcDbLine
 10
-452.7906263196789
 20
1169.039537584459
 30
0.0
 11
-428.0043318464948
 21
1172.302773965372
 31
0.0
  0
LINE
  5
2C9
330
1F
100
AcDbEntity
  8
1-4
  6
Continuous
 62
     7
370
     5
100
AcDbLine
 10
-452.7906263196789
 20
1169.039537584459
 30
0.0
 11
-428.0043318464948
 21
1165.776301203548
 31
0.0
  0
LINE
  5
2CA
330
1F
100
AcDbEntity
  8
1-4
  6
Continuous
 62
     7
370
     5
100
AcDbLine
 10
136.7456384607266
 20
-208.4020336254223
 30
0.0
 11
209.1450459248313
 21
-208.4020336254223
 31
0.0
  0
LINE
  5
2CB
330
1F
100
AcDbEntity
  8
1-4
  6
Continuous
 62
     7
370
     5
100
AcDbLine
 10
136.7456384607266
 20
-208.4020336254223
 30
0.0
 11
100.9942956872891
 21
-163.7119272592903
 31
0.0
  0
LINE
  5
2CC
330
1F
100
AcDbEntity
  8
1-4
  6
Continuous
 62
     7
370
     5
100
AcDbLine
 10
100.9942956872891
 20
-163.7119272592903
 30
0.0
 11
119.0257304423565
 21
-181.0285083667651
 31
0.0
  0
LINE
  5
2CD
330
1F
100
AcDbEntity
  8
1-4
  6
Continuous
 62
     7
370
     5
100
AcDbLine
 10
100.9942956872891
 20
-163.7119272592903
 30
0.0
 11
113.9294598553633
 21
-185.1053268845016
 31
0.0
  0
LINE
  5
2CE
330
1F
100
AcDbEntity
  8
1-4
  6
Continuous
 62
     7
370
     5
100
AcDbLine
 10
-641.3541226773648
 20
-221.1862595016891
 30
0.0
 11
-301.3539907094594
 21
-221.1862595016891
 31
0.0
  0
LINE
  5
2CF
330
1F
100
AcDbEntity
  8
1-4
  6
Continuous
 62
     7
370
     5
100
AcDbLine
 10
-641.3541226773648
 20
-78.18633208403696
 30
0.0
 11
-641.3541226773648
 21
-224.1862199113174
 31
0.0
  0
LINE
  5
2D0
330
1F
100
AcDbEntity
  8
1-4
  6
Continuous
 62
     7
370
     5
100
AcDbLine
 10
-301.3539907094594
 20
-78.18633208403696
 30
0.0
 11
-301.3539907094594
 21
-304.1862364073057
 31
0.0
  0
LINE
  5
2D1
330
1F
100
AcDbEntity
  8
1-4
  6
Continuous
 62
     7
370
     5
100
AcDbLine
 10
-1545.353739970439
 20
-301.1862759976773
 30
0.0
 11
-5.354102882178893
 21
-301.1862759976773
 31
0.0
  0
LINE
  5
2D2
330
1F
100
AcDbEntity
  8
1-4
  6
Continuous
 62
     7
370
     5
100
AcDbLine
 10
-1545.353739970439
 20
-78.18633208403696
 30
0.0
 11
-1545.353739970439
 21
-304.1862364073057
 31
0.0
  0
LINE
  5
2D3
330
1F
100
AcDbEntity
  8
1-4
  6
Continuous
 62
     7
370
     5
100
AcDbLine
 10
-1249.353852143159
 20
-78.18633208403696
 30
0.0
 11
-1249.353852143159
 21
-304.1862364073057
 31
0.0
  0
LINE
  5
2D4
330
1F
100
AcDbEntity
  8
1-4
  6
Continuous
 62
     7
370
     5
100
AcDbLine
 10
-5.354102882178893
 20
-78.18633208403696
 30
0.0
 11
-5.354102882178893
 21
-304.1862364073057
 31
0.0
  0
LINE
  5
2D5
330
1F
100
AcDbEntity
  8
1-4
  6
Continuous
 62
     7
370
     5
100
AcDbLine
 10
-1625.35400390625
 20
-108.1864310599661
 30
0.0
 11
-1625.35400390625
 21
-464.186269399282
 31
0.0
  0
LINE
  5
2D6
330
1F
100
AcDbEntity
  8
1-4
  6
Continuous
 62
     7
370
     5
100
AcDbLine
 10
-1609.354050095017
 20
-92.18622980891041
 30
0.0
 11
-1609.354050095017
 21
-384.1862529032938
 31
0.0
  0
LINE
  5
2D7
330
1F
100
AcDbEntity
  8
1-4
  6
Continuous
 62
     7
370
     5
100
AcDbLine
 10
-1683.835416226774
 20
-381.1862924936655
 30
0.0
 11
135.5250178156675
 21
-381.1862924936655
 31
0.0
  0
LINE
  5
2D8
330
1F
100
AcDbEntity
  8
1-4
  6
Continuous
 62
     7
370
     5
100
AcDbLine
 10
-1605.35418536212
 20
-88.18636507601354
 30
0.0
 11
-1605.35418536212
 21
-384.1862529032938
 31
0.0
  0
LINE
  5
2D9
330
1F
100
AcDbEntity
  8
1-4
  6
Continuous
 62
     7
370
     5
100
AcDbLine
 10
54.64584762985652
 20
-88.18636507601354
 30
0.0
 11
54.64584762985652
 21
-384.1862529032938
 31
0.0
  0
LINE
  5
2DA
330
1F
100
AcDbEntity
  8
1-4
  6
Continuous
 62
     7
370
     5
100
AcDbLine
 10
58.64595980257604
 20
-92.18622980891041
 30
0.0
 11
58.64595980257604
 21
-384.1862529032938
 31
0.0
  0
LINE
  5
2DB
330
1F
100
AcDbEntity
  8
1-4
  6
Continuous
 62
     7
370
     5
100
AcDbLine
 10
74.64566617398674
 20
-108.1864310599661
 30
0.0
 11
74.64566617398674
 21
-464.186269399282
 31
0.0
  0
LINE
  5
2DC
330
1F
100
AcDbEntity
  8
1-4
  6
Continuous
 62
     7
370
     5
100
AcDbLine
 10
-1625.35400390625
 20
-461.1863089896536
 30
0.0
 11
74.64566617398674
 21
-461.1863089896536
 31
0.0
  0
LINE
  5
2DD
330
1F
100
AcDbEntity
  8
1-4
  6
Continuous
 62
     7
370
     5
100
AcDbLine
 10
99.64624353357266
 20
-83.1861011402026
 30
0.0
 11
375.6460653769005
 21
-83.1861011402026
 31
0.0
  0
LINE
  5
2DE
330
1F
100
AcDbEntity
  8
1-4
  6
Continuous
 62
     7
370
     5
100
AcDbLine
 10
83.64628972233959
 20
-67.18614732896953
 30
0.0
 11
295.6462963207349
 21
-67.18614732896953
 31
0.0
  0
LINE
  5
2DF
330
1F
100
AcDbEntity
  8
1-4
  6
Continuous
 62
     7
370
     5
100
AcDbLine
 10
79.64617754962006
 20
-63.18628259607266
 30
0.0
 11
295.6462963207349
 21
-63.18628259607266
 31
0.0
  0
LINE
  5
2E0
330
1F
100
AcDbEntity
  8
1-4
  6
Continuous
 62
     7
370
     5
100
AcDbLine
 10
292.6463359111065
 20
-139.6776024070945
 30
0.0
 11
292.6463359111065
 21
1163.332832955025
 31
0.0
  0
LINE
  5
2E1
330
1F
100
AcDbEntity
  8
1-4
  6
Continuous
 62
     7
370
     5
100
AcDbLine
 10
79.64617754962006
 20
1096.813585436022
 30
0.0
 11
295.6462963207349
 21
1096.813585436022
 31
0.0
  0
LINE
  5
2E2
330
1F
100
AcDbEntity
  8
1-4
  6
Continuous
 62
     7
370
     5
100
AcDbLine
 10
83.64628972233959
 20
1100.813450168919
 30
0.0
 11
295.6462963207349
 21
1100.813450168919
 31
0.0
  0
LINE
  5
2E3
330
1F
100
AcDbEntity
  8
1-4
  6
Continuous
 62
     7
370
     5
100
AcDbLine
 10
99.64624353357266
 20
1116.813651419975
 30
0.0
 11
375.6460653769005
 21
1116.813651419975
 31
0.0
  0
LINE
  5
2E4
330
1F
100
AcDbEntity
  8
1-4
  6
Continuous
 62
     7
370
     5
100
AcDbLine
 10
372.6461049672722
 20
-83.1861011402026
 30
0.0
 11
372.6461049672722
 21
1116.813651419975
 31
0.0
  0
LINE
  5
2E5
330
1F
100
AcDbEntity
  8
2-4
  6
Continuous
 62
    40
370
     9
100
AcDbLine
 10
-1047.107428473395
 20
-683.3118005701012
 30
0.0
 11
-1047.107428473395
 21
-618.3123284417229
 31
0.0
  0
LINE
  5
2E6
330
1F
100
AcDbEntity
  8
2-4
  6
Continuous
 62
    40
370
     9
100
AcDbLine
 10
-1047.107428473395
 20
-618.3123284417229
 30
0.0
 11
-503.6004143792229
 21
-618.3123284417229
 31
0.0
  0
LINE
  5
2E7
330
1F
100
AcDbEntity
  8
2-4
  6
Continuous
 62
    40
370
     9
100
AcDbLine
 10
-503.6004143792229
 20
-618.3123284417229
 30
0.0
 11
-503.6004143792229
 21
-683.3118005701012
 31
0.0
  0
LINE
  5
2E8
330
1F
100
AcDbEntity
  8
2-4
  6
Continuous
 62
    40
370
     9
100
AcDbLine
 10
-503.6004143792229
 20
-683.3118005701012
 30
0.0
 11
-1047.107428473395
 21
-683.3118005701012
 31
0.0
  0
LINE
  5
2E9
330
1F
100
AcDbEntity
  8
D-1
  6
Continuous
 62
    40
370
     9
100
AcDbLine
 10
1239.304083746833
 20
1057.787624049831
 30
0.0
 11
1219.30401776288
 21
1097.787756017736
 31
0.0
  0
LINE
  5
2EA
330
1F
100
AcDbEntity
  8
D-1
  6
Continuous
 62
    40
370
     9
100
AcDbLine
 10
910.8871047561234
 20
762.7878879856419
 30
0.0
 11
870.8869727882183
 21
742.7878220016894
 31
0.0
  0
LINE
  5
2EB
330
1F
100
AcDbEntity
  8
D-4
  6
Continuous
 62
     7
370
     5
100
AcDbLine
 10
890.8870387721709
 20
182.7878302496833
 30
0.0
 11
1567.721062737542
 21
182.7878302496833
 31
0.0
  0
LINE
  5
2EC
330
1F
100
AcDbEntity
  8
D-4
  6
Continuous
 62
     7
370
     5
100
AcDbLine
 10
1567.721062737542
 20
402.7878137536953
 30
0.0
 11
1567.721062737542
 21
179.787869840055
 31
0.0
  0
LINE
  5
2ED
330
1F
100
AcDbEntity
  8
D-4
  6
Continuous
 62
     7
370
     5
100
AcDbLine
 10
1812.721128721495
 20
427.7877725137247
 30
0.0
 11
1812.721128721495
 21
1077.787690033784
 31
0.0
  0
LINE
  5
2EE
330
1F
100
AcDbEntity
  8
D-4
  6
Continuous
 62
     7
370
     5
100
AcDbLine
 10
1592.721145217483
 20
427.7877725137247
 30
0.0
 11
1815.721089131123
 21
427.7877725137247
 31
0.0
  0
LINE
  5
2EF
330
1F
100
AcDbEntity
  8
D-4
  6
Continuous
 62
     7
370
     5
100
AcDbLine
 10
954.988056904561
 20
1013.338276631123
 30
0.0
 11
943.117378853463
 21
1035.34062565984
 31
0.0
  0
LINE
  5
2F0
330
1F
100
AcDbEntity
  8
D-4
  6
Continuous
 62
     7
370
     5
100
AcDbLine
 10
954.988056904561
 20
1013.338276631123
 30
0.0
 11
949.2165230415964
 21
1037.663095835093
 31
0.0
  0
LINE
  5
2F1
330
1F
100
AcDbEntity
  8
D-4
  6
Continuous
 62
     7
370
     5
100
AcDbLine
 10
865.8869562922297
 20
427.7877725137247
 30
0.0
 11
807.8870618665542
 21
427.7877725137247
 31
0.0
  0
LINE
  5
2F2
330
1F
100
AcDbEntity
  8
D-4
  6
Continuous
 62
     7
370
     5
100
AcDbLine
 10
865.8869562922297
 20
467.7877807617188
 30
0.0
 11
807.8870618665542
 21
467.7877807617188
 31
0.0
  0
LINE
  5
2F3
330
1F
100
AcDbEntity
  8
D-4
  6
Continuous
 62
     7
370
     5
100
AcDbLine
 10
865.8869562922297
 20
477.7876900337839
 30
0.0
 11
807.8870618665542
 21
477.7876900337839
 31
0.0
  0
LINE
  5
2F4
330
1F
100
AcDbEntity
  8
D-4
  6
Continuous
 62
     7
370
     5
100
AcDbLine
 10
899.9153755806589
 20
1157.954480970228
 30
0.0
 11
954.988056904561
 21
1013.338276631123
 31
0.0
  0
LINE
  5
2F5
330
1F
100
AcDbEntity
  8
D-4
  6
Continuous
 62
     7
370
     5
100
AcDbLine
 10
498.117395349451
 20
1157.954480970228
 30
0.0
 11
899.9153755806589
 21
1157.954480970228
 31
0.0
  0
LINE
  5
2F6
330
1F
100
AcDbEntity
  8
D-4
  6
Continuous
 62
    40
370
     9
100
AcDbLine
 10
895.7222603462839
 20
14.72064044024506
 30
0.0
 11
895.7222603462839
 21
79.72011256862345
 31
0.0
  0
LINE
  5
2F7
330
1F
100
AcDbEntity
  8
D-4
  6
Continuous
 62
    40
370
     9
100
AcDbLine
 10
895.7222603462839
 20
79.72011256862345
 30
0.0
 11
1562.885841163429
 21
79.72011256862345
 31
0.0
  0
LINE
  5
2F8
330
1F
100
AcDbEntity
  8
D-4
  6
Continuous
 62
    40
370
     9
100
AcDbLine
 10
1562.885841163429
 20
79.72011256862345
 30
0.0
 11
1562.885841163429
 21
14.72064044024506
 31
0.0
  0
LINE
  5
2F9
330
1F
100
AcDbEntity
  8
D-4
  6
Continuous
 62
    40
370
     9
100
AcDbLine
 10
1562.885841163429
 20
14.72064044024506
 30
0.0
 11
895.7222603462839
 21
14.72064044024506
 31
0.0
  0
LINE
  5
2FA
330
1F
100
AcDbEntity
  8
D-2
  6
Continuous
 62
    92
370
     5
100
AcDbLine
 10
1517.721145217483
 20
767.7879044816302
 30
0.0
 11
905.8870882601354
 21
767.7879044816302
 31
0.0
  0
LINE
  5
2FB
330
1F
100
AcDbEntity
  8
D-2
  6
Continuous
 62
    92
370
     5
100
AcDbLine
 10
1517.721145217483
 20
737.7880529455238
 30
0.0
 11
875.8867418443839
 21
737.7880529455238
 31
0.0
  0
LINE
  5
2FC
330
1F
100
AcDbEntity
  8
D-1
  6
Continuous
 62
    40
370
     9
100
AcDbLine
 10
1219.30401776288
 20
1097.787756017736
 30
0.0
 11
1199.30419921875
 21
1077.787937473607
 31
0.0
  0
LINE
  5
2FD
330
1F
100
AcDbEntity
  8
D-1
  6
Continuous
 62
    40
370
     9
100
AcDbLine
 10
865.6024004961995
 20
1077.787937473607
 30
0.0
 11
1199.30419921875
 21
1077.787937473607
 31
0.0
  0
LINE
  5
2FE
330
1F
100
AcDbEntity
  8
D-1
  6
Continuous
 62
    40
370
     9
100
AcDbLine
 10
1239.304083746833
 20
1057.787624049831
 30
0.0
 11
1259.304397170608
 21
1077.787937473607
 31
0.0
  0
LINE
  5
2FF
330
1F
100
AcDbEntity
  8
D-1
  6
Continuous
 62
    40
370
     9
100
AcDbLine
 10
1592.209934543919
 20
1077.787937473607
 30
0.0
 11
1259.304397170608
 21
1077.787937473607
 31
0.0
  0
LINE
  5
300
330
1F
100
AcDbEntity
  8
D-1
  6
Continuous
 62
    40
370
     9
100
AcDbLine
 10
910.8871047561234
 20
762.7878879856419
 30
0.0
 11
890.8870387721709
 21
782.7879539695948
 31
0.0
  0
LINE
  5
301
330
1F
100
AcDbEntity
  8
D-1
  6
Continuous
 62
    40
370
     9
100
AcDbLine
 10
890.8870387721709
 20
1095.62933844489
 30
0.0
 11
890.8870387721709
 21
782.7879539695948
 31
0.0
  0
LINE
  5
302
330
1F
100
AcDbEntity
  8
D-1
  6
Continuous
 62
    40
370
     9
100
AcDbLine
 10
870.8869727882183
 20
742.7878220016894
 30
0.0
 11
890.8870387721709
 21
722.7877560177367
 31
0.0
  0
LINE
  5
303
330
1F
100
AcDbEntity
  8
D-1
  6
Continuous
 62
    40
370
     9
100
AcDbLine
 10
890.8870387721709
 20
409.8855013460727
 30
0.0
 11
890.8870387721709
 21
722.7877560177367
 31
0.0
  0
LINE
  5
304
330
1F
100
AcDbEntity
  8
D-2
  6
Continuous
 62
    92
370
     5
100
AcDbLine
 10
1517.721145217483
 20
1077.787937473607
 30
0.0
 11
1517.721145217483
 21
1062.787887985642
 31
0.0
  0
LINE
  5
305
330
1F
100
AcDbEntity
  8
2-4
  6
Continuous
 62
     7
370
     5
100
AcDbLine
 10
177.0229030299834
 20
-456.5861552470438
 30
0.0
 11
1499.289600269215
 21
-456.5861552470438
 31
0.0
  0
LINE
  5
306
330
1F
100
AcDbEntity
  8
2-4
  6
Continuous
 62
     7
370
     5
100
AcDbLine
 10
1209.289633261191
 20
-596.5861222550676
 30
0.0
 11
1209.289633261191
 21
-453.5861948374155
 31
0.0
  0
LINE
  5
307
330
1F
100
AcDbEntity
  8
2-4
  6
Continuous
 62
     7
370
     5
100
AcDbLine
 10
1499.289600269215
 20
-785.6321262668918
 30
0.0
 11
1499.289600269215
 21
-453.5861948374155
 31
0.0
  0
LINE
  5
308
330
1F
100
AcDbEntity
  8
2-4
  6
Continuous
 62
     7
370
     5
100
AcDbLine
 10
1129.289616765203
 20
-596.5861222550676
 30
0.0
 11
1129.289616765203
 21
-533.585963893581
 31
0.0
  0
LINE
  5
309
330
1F
100
AcDbEntity
  8
2-4
  6
Continuous
 62
     7
370
     5
100
AcDbLine
 10
1109.28955078125
 20
-536.5859243032094
 30
0.0
 11
1209.289633261191
 21
-536.5859243032094
 31
0.0
  0
LINE
  5
30A
330
1F
100
AcDbEntity
  8
2-4
  6
Continuous
 62
     7
370
     5
100
AcDbLine
 10
1579.289616765203
 20
-890.6322252428208
 30
0.0
 11
1579.289616765203
 21
-616.5861882390202
 31
0.0
  0
LINE
  5
30B
330
1F
100
AcDbEntity
  8
2-4
  6
Continuous
 62
     7
370
     5
100
AcDbLine
 10
1524.289682749156
 20
-890.6322252428208
 30
0.0
 11
1582.289577174831
 21
-890.6322252428208
 31
0.0
  0
LINE
  5
30C
330
1F
100
AcDbEntity
  8
2-4
  6
Continuous
 62
     7
370
     5
100
AcDbLine
 10
1504.289864205025
 20
-790.6321427628801
 30
0.0
 11
1582.289577174831
 21
-790.6321427628801
 31
0.0
  0
LINE
  5
30D
330
1F
100
AcDbEntity
  8
2-4
  6
Continuous
 62
     7
370
     5
100
AcDbLine
 10
1229.289699245144
 20
-616.5861882390202
 30
0.0
 11
1582.289577174831
 21
-616.5861882390202
 31
0.0
  0
LINE
  5
30E
330
1F
100
AcDbEntity
  8
2-4
  6
Continuous
 62
     7
370
     5
100
AcDbLine
 10
97.02288653399506
 20
-765.6323077227619
 30
0.0
 11
97.02288653399506
 21
-615.6323077227617
 31
0.0
  0
LINE
  5
30F
330
1F
100
AcDbEntity
  8
2-4
  6
Continuous
 62
     7
370
     5
100
AcDbLine
 10
152.289560678843
 20
-615.6323077227617
 30
0.0
 11
14.02290962837839
 21
-615.6323077227617
 31
0.0
  0
LINE
  5
310
330
1F
100
AcDbEntity
  8
2-4
  6
Continuous
 62
     7
370
     5
100
AcDbLine
 10
1296.170951224663
 20
-890.6322252428208
 30
0.0
 11
1311.389984955659
 21
-910.4660116659627
 31
0.0
  0
LINE
  5
311
330
1F
100
AcDbEntity
  8
2-4
  6
Continuous
 62
     7
370
     5
100
AcDbLine
 10
1296.170951224663
 20
-890.6322252428208
 30
0.0
 11
1305.737964527027
 21
-913.729248046875
 31
0.0
  0
LINE
  5
312
330
1F
100
AcDbEntity
  8
2-4
  6
Continuous
 62
     7
370
     5
100
AcDbLine
 10
1296.170951224663
 20
-890.6322252428208
 30
0.0
 11
1353.906085040118
 21
-990.6320602829392
 31
0.0
  0
LINE
  5
313
330
1F
100
AcDbEntity
  8
2-4
  6
Continuous
 62
     7
370
     5
100
AcDbLine
 10
1129.022876636402
 20
-621.5859572951858
 30
0.0
 11
1109.18909021326
 21
-606.3669235641892
 31
0.0
  0
LINE
  5
314
330
1F
100
AcDbEntity
  8
2-4
  6
Continuous
 62
     7
370
     5
100
AcDbLine
 10
1129.022876636402
 20
-621.5859572951858
 30
0.0
 11
1113.803842905406
 21
-601.7521708720438
 31
0.0
  0
LINE
  5
315
330
1F
100
AcDbEntity
  8
2-4
  6
Continuous
 62
     7
370
     5
100
AcDbLine
 10
1129.022876636402
 20
-621.5859572951858
 30
0.0
 11
864.0227446684969
 21
-356.5863202069256
 31
0.0
  0
LINE
  5
316
330
1F
100
AcDbEntity
  8
2-4
  6
Continuous
 62
     7
370
     5
100
AcDbLine
 10
864.0227446684969
 20
-356.5863202069256
 30
0.0
 11
413.027789141681
 21
-356.5863202069256
 31
0.0
  0
LINE
  5
317
330
1F
100
AcDbEntity
  8
2-4
  6
Continuous
 62
     7
370
     5
100
AcDbLine
 10
342.8570721600508
 20
-706.3293951910895
 30
0.0
 11
266.9338741817992
 21
-989.6784272065033
 31
0.0
  0
LINE
  5
318
330
1F
100
AcDbEntity
  8
2-4
  6
Continuous
 62
     7
370
     5
100
AcDbLine
 10
266.9338741817992
 20
-989.6784272065033
 30
0.0
 11
-96.2884851404138
 21
-989.6784272065033
 31
0.0
  0
LINE
  5
319
330
1F
100
AcDbEntity
  8
2-4
  6
Continuous
 62
     7
370
     5
100
AcDbLine
 10
342.8570721600508
 20
-706.3293951910895
 30
0.0
 11
339.5938357791385
 21
-731.1154422244509
 31
0.0
  0
LINE
  5
31A
330
1F
100
AcDbEntity
  8
2-4
  6
Continuous
 62
     7
370
     5
100
AcDbLine
 10
342.8570721600508
 20
-706.3293951910895
 30
0.0
 11
333.2900588576859
 21
-729.4264179951435
 31
0.0
  0
LINE
  5
31B
330
1F
100
AcDbEntity
  8
2-4
  6
Continuous
 62
    40
370
     9
100
AcDbLine
 10
591.8010814769849
 20
-1106.353726773649
 30
0.0
 11
591.8010814769849
 21
-1041.35425464527
 31
0.0
  0
LINE
  5
31C
330
1F
100
AcDbEntity
  8
2-4
  6
Continuous
 62
    40
370
     9
100
AcDbLine
 10
591.8010814769849
 20
-1041.35425464527
 30
0.0
 11
1205.244487040752
 21
-1041.35425464527
 31
0.0
  0
LINE
  5
31D
330
1F
100
AcDbEntity
  8
2-4
  6
Continuous
 62
    40
370
     9
100
AcDbLine
 10
1205.244487040752
 20
-1041.35425464527
 30
0.0
 11
1205.244487040752
 21
-1106.353726773649
 31
0.0
  0
LINE
  5
31E
330
1F
100
AcDbEntity
  8
2-4
  6
Continuous
 62
    40
370
     9
100
AcDbLine
 10
1205.244487040752
 20
-1106.353726773649
 30
0.0
 11
591.8010814769849
 21
-1106.353726773649
 31
0.0
  0
LINE
  5
31F
330
1F
100
AcDbEntity
  8
2-1
  6
Continuous
 62
    40
370
     9
100
AcDbLine
 10
1499.289600269215
 20
-810.6322087468327
 30
0.0
 11
1499.289600269215
 21
-890.6322252428208
 31
0.0
  0
LINE
  5
320
330
1F
100
AcDbEntity
  8
2-4
  6
Continuous
 62
     7
370
     5
100
AcDbLine
 10
589.289814717061
 20
-590.6322252428209
 30
0.0
 11
589.289814717061
 21
-533.585963893581
 31
0.0
  0
LINE
  5
321
330
1F
100
AcDbEntity
  8
2-4
  6
Continuous
 62
     7
370
     5
100
AcDbLine
 10
659.2897982210729
 20
-590.6322252428209
 30
0.0
 11
659.2897982210729
 21
-533.585963893581
 31
0.0
  0
LINE
  5
322
330
1F
100
AcDbEntity
  8
2-4
  6
Continuous
 62
     7
370
     5
100
AcDbLine
 10
589.289814717061
 20
-536.5859243032094
 30
0.0
 11
919.2894188133448
 21
-536.5859243032094
 31
0.0
  0
LINE
  5
323
330
1F
100
AcDbEntity
  8
2-4
  6
Continuous
 62
     7
370
     5
100
AcDbLine
 10
719.2895012932854
 20
-590.6322252428209
 30
0.0
 11
719.2895012932854
 21
-533.585963893581
 31
0.0
  0
LINE
  5
324
330
1F
100
AcDbEntity
  8
2-4
  6
Continuous
 62
     7
370
     5
100
AcDbLine
 10
789.2894847972974
 20
-590.6322252428209
 30
0.0
 11
789.2894847972974
 21
-533.585963893581
 31
0.0
  0
LINE
  5
325
330
1F
100
AcDbEntity
  8
2-4
  6
Continuous
 62
     7
370
     5
100
AcDbLine
 10
849.2894353093328
 20
-590.6322252428209
 30
0.0
 11
849.2894353093328
 21
-533.585963893581
 31
0.0
  0
LINE
  5
326
330
1F
100
AcDbEntity
  8
2-4
  6
Continuous
 62
     7
370
     5
100
AcDbLine
 10
919.2894188133448
 20
-590.6322252428209
 30
0.0
 11
919.2894188133448
 21
-533.585963893581
 31
0.0
  0
LINE
  5
327
330
1F
100
AcDbEntity
  8
D-4
  6
Continuous
 62
     7
370
     5
100
AcDbLine
 10
1507.792869774071
 20
402.4483263170399
 30
0.0
 11
1438.706928974873
 21
282.787789009713
 31
0.0
  0
LINE
  5
328
330
1F
100
AcDbEntity
  8
D-4
  6
Continuous
 62
     7
370
     5
100
AcDbLine
 10
1070.628563133446
 20
282.787789009713
 30
0.0
 11
1438.706928974873
 21
282.787789009713
 31
0.0
  0
LINE
  5
329
330
1F
100
AcDbEntity
  8
D-4
  6
Continuous
 62
     7
370
     5
100
AcDbLine
 10
1507.792869774071
 20
402.4483263170399
 30
0.0
 11
1498.225856471706
 21
379.3513035129857
 31
0.0
  0
LINE
  5
32A
330
1F
100
AcDbEntity
  8
D-4
  6
Continuous
 62
     7
370
     5
100
AcDbLine
 10
1507.792869774071
 20
402.4483263170399
 30
0.0
 11
1492.573836043075
 21
382.6145398938979
 31
0.0
  0
LINE
  5
32B
330
1F
100
AcDbEntity
  8
2-4
  6
Continuous
 62
     7
370
     5
100
AcDbLine
 10
271.0955645586995
 20
-765.6323077227619
 30
0.0
 11
94.02267868454402
 21
-765.6323077227619
 31
0.0
  0
LINE
  5
32C
330
1F
100
AcDbEntity
  8
2-C
  6
Continuous
 62
     7
370
     5
100
AcDbLine
 10
699.2896827491558
 20
-780.6323572107262
 30
0.0
 11
699.2896827491558
 21
-847.8857586834881
 31
0.0
  0
LINE
  5
32D
330
1F
100
AcDbEntity
  8
2-C
  6
Continuous
 62
     7
370
     5
100
AcDbLine
 10
679.2896167652026
 20
-780.6323572107262
 30
0.0
 11
679.2896167652026
 21
-847.8857586834881
 31
0.0
  0
LINE
  5
32E
330
1F
100
AcDbEntity
  8
D-4
  6
Continuous
 62
     7
370
     5
100
AcDbLine
 10
1373.147253088049
 20
1052.605491844384
 30
0.0
 11
1300.873050174198
 21
1177.788019953548
 31
0.0
  0
LINE
  5
32F
330
1F
100
AcDbEntity
  8
D-4
  6
Continuous
 62
     7
370
     5
100
AcDbLine
 10
1373.147253088049
 20
1052.605491844384
 30
0.0
 11
1357.928219357053
 21
1072.439278267525
 31
0.0
  0
LINE
  5
330
330
1F
100
AcDbEntity
  8
D-4
  6
Continuous
 62
     7
370
     5
100
AcDbLine
 10
1373.147253088049
 20
1052.605491844384
 30
0.0
 11
1363.580239785684
 21
1075.702514648438
 31
0.0
  0
LINE
  5
331
330
1F
100
AcDbEntity
  8
2-5
  6
Continuous
 62
     7
370
     5
100
AcDbLine
 10
-1661.43419420397
 20
-991.1947384396115
 30
0.0
 11
-1223.399394267314
 21
-991.1947384396115
 31
0.0
  0
LINE
  5
332
330
1F
100
AcDbEntity
  8
2-5
  6
Continuous
 62
     7
370
     5
100
AcDbLine
 10
-1381.655718829181
 20
-639.1675464527026
 30
0.0
 11
-1135.946985193201
 21
-639.1675464527026
 31
0.0
  0
LINE
  5
333
330
1F
100
AcDbEntity
  8
2-2
  6
Continuous
 62
    92
370
     5
100
AcDbLine
 10
-1472.68907701647
 20
-914.7487001161318
 30
0.0
 11
-1472.68907701647
 21
-575.3929014463682
 31
0.0
  0
LINE
  5
334
330
1F
100
AcDbEntity
  8
2-2
  6
Continuous
 62
    92
370
     5
100
AcDbLine
 10
-1412.688879064611
 20
-928.2336755701012
 30
0.0
 11
-1412.688879064611
 21
-588.8773820206926
 31
0.0
  0
LINE
  5
335
330
1F
100
AcDbEntity
  8
2-2
  6
Continuous
 62
    92
370
     5
100
AcDbLine
 10
-1467.688813080659
 20
-871.9948103621199
 30
0.0
 11
-1467.688813080659
 21
-831.9946783942145
 31
0.0
  0
LINE
  5
336
330
1F
100
AcDbEntity
  8
2-2
  6
Continuous
 62
    92
370
     5
100
AcDbLine
 10
-1467.688813080659
 20
-831.9946783942145
 30
0.0
 11
-1417.689143000423
 21
-846.9949753220016
 31
0.0
  0
LINE
  5
337
330
1F
100
AcDbEntity
  8
2-2
  6
Continuous
 62
    92
370
     5
100
AcDbLine
 10
-1417.689143000423
 20
-856.9945134343328
 30
0.0
 11
-1417.689143000423
 21
-846.9949753220016
 31
0.0
  0
LINE
  5
338
330
1F
100
AcDbEntity
  8
2-2
  6
Continuous
 62
    92
370
     5
100
AcDbLine
 10
-1417.689143000423
 20
-856.9945134343328
 30
0.0
 11
-1467.688813080659
 21
-871.9948103621199
 31
0.0
  0
LINE
  5
339
330
1F
100
AcDbEntity
  8
2-2
  6
Continuous
 62
    92
370
     5
100
AcDbLine
 10
-1412.688879064611
 20
-860.7145237278294
 30
0.0
 11
-1472.68907701647
 21
-878.7152759448901
 31
0.0
  0
LINE
  5
33A
330
1F
100
AcDbEntity
  8
2-2
  6
Continuous
 62
    92
370
     5
100
AcDbLine
 10
-1472.68907701647
 20
-825.2739653716217
 30
0.0
 11
-1412.688879064611
 21
-843.2749650285051
 31
0.0
  0
LINE
  5
33B
330
1F
100
AcDbEntity
  8
2-2
  6
Continuous
 62
    92
370
     5
100
AcDbLine
 10
-1417.689143000423
 20
-766.9944639463682
 30
0.0
 11
-1417.689143000423
 21
-726.9943319784627
 31
0.0
  0
LINE
  5
33C
330
1F
100
AcDbEntity
  8
2-2
  6
Continuous
 62
    92
370
     5
100
AcDbLine
 10
-1417.689143000423
 20
-726.9943319784627
 30
0.0
 11
-1467.688813080659
 21
-741.99462890625
 31
0.0
  0
LINE
  5
33D
330
1F
100
AcDbEntity
  8
2-2
  6
Continuous
 62
    92
370
     5
100
AcDbLine
 10
-1467.688813080659
 20
-751.994167018581
 30
0.0
 11
-1467.688813080659
 21
-741.99462890625
 31
0.0
  0
LINE
  5
33E
330
1F
100
AcDbEntity
  8
2-2
  6
Continuous
 62
    92
370
     5
100
AcDbLine
 10
-1467.688813080659
 20
-751.994167018581
 30
0.0
 11
-1417.689143000423
 21
-766.9944639463682
 31
0.0
  0
LINE
  5
33F
330
1F
100
AcDbEntity
  8
2-2
  6
Continuous
 62
    92
370
     5
100
AcDbLine
 10
-1472.68907701647
 20
-755.7141773120776
 30
0.0
 11
-1412.688879064611
 21
-773.715176968961
 31
0.0
  0
LINE
  5
340
330
1F
100
AcDbEntity
  8
2-2
  6
Continuous
 62
    92
370
     5
100
AcDbLine
 10
-1412.688879064611
 20
-720.2738663956926
 30
0.0
 11
-1472.68907701647
 21
-738.2746186127533
 31
0.0
  0
LINE
  5
341
330
1F
100
AcDbEntity
  8
2-2
  6
Continuous
 62
    92
370
     5
100
AcDbLine
 10
-1467.688813080659
 20
-661.9948598500844
 30
0.0
 11
-1467.688813080659
 21
-621.9947278821791
 31
0.0
  0
LINE
  5
342
330
1F
100
AcDbEntity
  8
2-2
  6
Continuous
 62
    92
370
     5
100
AcDbLine
 10
-1467.688813080659
 20
-621.9947278821791
 30
0.0
 11
-1417.689143000423
 21
-636.9950248099661
 31
0.0
  0
LINE
  5
343
330
1F
100
AcDbEntity
  8
2-2
  6
Continuous
 62
    92
370
     5
100
AcDbLine
 10
-1417.689143000423
 20
-646.9945629222973
 30
0.0
 11
-1417.689143000423
 21
-636.9950248099661
 31
0.0
  0
LINE
  5
344
330
1F
100
AcDbEntity
  8
2-2
  6
Continuous
 62
    92
370
     5
100
AcDbLine
 10
-1417.689143000423
 20
-646.9945629222973
 30
0.0
 11
-1467.688813080659
 21
-661.9948598500844
 31
0.0
  0
LINE
  5
345
330
1F
100
AcDbEntity
  8
2-2
  6
Continuous
 62
    92
370
     5
100
AcDbLine
 10
-1412.688879064611
 20
-650.7145732157938
 30
0.0
 11
-1472.68907701647
 21
-668.7153254328547
 31
0.0
  0
LINE
  5
346
330
1F
100
AcDbEntity
  8
2-2
  6
Continuous
 62
    92
370
     5
100
AcDbLine
 10
-1472.68907701647
 20
-615.2742622994087
 30
0.0
 11
-1412.688879064611
 21
-633.2750145164696
 31
0.0
  0
LINE
  5
347
330
1F
100
AcDbEntity
  8
2-4
  6
Continuous
 62
     7
370
     5
100
AcDbLine
 10
-1544.40258129223
 20
-871.9948103621199
 30
0.0
 11
-1544.40258129223
 21
-621.9947278821791
 31
0.0
  0
LINE
  5
348
330
1F
100
AcDbEntity
  8
2-4
  6
Continuous
 62
     7
370
     5
100
AcDbLine
 10
-1483.939175992399
 20
-871.9948103621199
 30
0.0
 11
-1547.402541701858
 21
-871.9948103621199
 31
0.0
  0
LINE
  5
349
330
1F
100
AcDbEntity
  8
2-4
  6
Continuous
 62
     7
370
     5
100
AcDbLine
 10
-1483.939175992399
 20
-831.9946783942145
 30
0.0
 11
-1547.402541701858
 21
-831.9946783942145
 31
0.0
  0
LINE
  5
34A
330
1F
100
AcDbEntity
  8
2-4
  6
Continuous
 62
     7
370
     5
100
AcDbLine
 10
-1483.939175992399
 20
-751.994167018581
 30
0.0
 11
-1547.402541701858
 21
-751.994167018581
 31
0.0
  0
LINE
  5
34B
330
1F
100
AcDbEntity
  8
2-4
  6
Continuous
 62
     7
370
     5
100
AcDbLine
 10
-1483.939175992399
 20
-741.99462890625
 30
0.0
 11
-1547.402541701858
 21
-741.99462890625
 31
0.0
  0
LINE
  5
34C
330
1F
100
AcDbEntity
  8
2-4
  6
Continuous
 62
     7
370
     5
100
AcDbLine
 10
-1483.939175992399
 20
-661.9948598500844
 30
0.0
 11
-1547.402541701858
 21
-661.9948598500844
 31
0.0
  0
LINE
  5
34D
330
1F
100
AcDbEntity
  8
2-4
  6
Continuous
 62
     7
370
     5
100
AcDbLine
 10
-1483.939175992399
 20
-621.9947278821791
 30
0.0
 11
-1547.402541701858
 21
-621.9947278821791
 31
0.0
  0
LINE
  5
34E
330
1F
100
AcDbEntity
  8
2-4
  6
Continuous
 62
     7
370
     5
100
AcDbLine
 10
-1403.669697529561
 20
-776.4209314294762
 30
0.0
 11
-1327.364205025338
 21
-799.3130740603885
 31
0.0
  0
LINE
  5
34F
330
1F
100
AcDbEntity
  8
2-4
  6
Continuous
 62
     7
370
     5
100
AcDbLine
 10
-1402.232567039696
 20
-771.6317336623733
 30
0.0
 11
-1325.927074535473
 21
-794.5238762932854
 31
0.0
  0
LINE
  5
350
330
1F
100
AcDbEntity
  8
2-4
  6
Continuous
 62
     7
370
     5
100
AcDbLine
 10
-1330.237476245777
 20
-798.4509937183276
 30
0.0
 11
-1308.325690192145
 21
-725.4136863914696
 31
0.0
  0
LINE
  5
351
330
1F
100
AcDbEntity
  8
2-4
  6
Continuous
 62
     7
370
     5
100
AcDbLine
 10
-1472.68907701647
 20
-529.3770125105574
 30
0.0
 11
-1412.688879064611
 21
-529.3770125105574
 31
0.0
  0
LINE
  5
352
330
1F
100
AcDbEntity
  8
2-4
  6
Continuous
 62
     7
370
     5
100
AcDbLine
 10
-1472.68907701647
 20
-568.6521457981418
 30
0.0
 11
-1472.68907701647
 21
-526.3775469805742
 31
0.0
  0
LINE
  5
353
330
1F
100
AcDbEntity
  8
2-4
  6
Continuous
 62
     7
370
     5
100
AcDbLine
 10
-1412.688879064611
 20
-577.5545357369087
 30
0.0
 11
-1412.688879064611
 21
-526.3775469805742
 31
0.0
  0
LINE
  5
354
330
1F
100
AcDbEntity
  8
2-5
  6
Continuous
 62
     7
370
     5
100
AcDbLine
 10
-1438.036119615709
 20
-736.8211570945946
 30
0.0
 11
-1381.655718829181
 21
-639.1675464527026
 31
0.0
  0
LINE
  5
355
330
1F
100
AcDbEntity
  8
2-5
  6
Continuous
 62
     7
370
     5
100
AcDbLine
 10
-1438.036119615709
 20
-736.8211570945946
 30
0.0
 11
-1428.469106313345
 21
-713.7241342905405
 31
0.0
  0
LINE
  5
356
330
1F
100
AcDbEntity
  8
2-5
  6
Continuous
 62
     7
370
     5
100
AcDbLine
 10
-1438.036119615709
 20
-736.8211570945946
 30
0.0
 11
-1422.817333324535
 21
-716.9873706714526
 31
0.0
  0
LINE
  5
357
330
1F
100
AcDbEntity
  8
D-4
  6
Continuous
 62
     7
370
     5
100
AcDbLine
 10
956.5689499313771
 20
1177.788019953548
 30
0.0
 11
1300.873050174198
 21
1177.788019953548
 31
0.0
  0
LINE
  5
358
330
1F
100
AcDbEntity
  8
2-4
  6
Continuous
 62
     7
370
     5
100
AcDbLine
 10
17.02287003800677
 20
-865.63214276288
 30
0.0
 11
17.02287003800677
 21
-615.6323077227617
 31
0.0
  0
LINE
  5
359
330
1F
100
AcDbEntity
  8
2-4
  6
Continuous
 62
     7
370
     5
100
AcDbLine
 10
152.289560678843
 20
-865.63214276288
 30
0.0
 11
14.02290962837839
 21
-865.63214276288
 31
0.0
  0
LINE
  5
35A
330
1F
100
AcDbEntity
  8
2-4
  6
Continuous
 62
     7
370
     5
100
AcDbLine
 10
1353.906085040118
 20
-990.6320602829392
 30
0.0
 11
1886.784816432644
 21
-990.6320602829392
 31
0.0
  0
LINE
  5
35B
330
1F
100
AcDbEntity
  8
D-2
  6
Continuous
 62
    92
370
     5
100
AcDbLine
 10
1517.721145217483
 20
1062.787887985642
 30
0.0
 11
890.8870387721709
 21
1062.787887985642
 31
0.0
  0
LINE
  5
35C
330
1F
100
AcDbEntity
  8
D-2
  6
Continuous
 62
    92
370
     5
100
AcDbLine
 10
1352.971504830025
 20
1027.787772513725
 30
0.0
 11
1352.971504830025
 21
1062.787887985642
 31
0.0
  0
LINE
  5
35D
330
1F
100
AcDbEntity
  8
D-2
  6
Continuous
 62
    92
370
     5
100
AcDbLine
 10
1377.721425649282
 20
1027.787772513725
 30
0.0
 11
1377.721425649282
 21
1062.787887985642
 31
0.0
  0
LINE
  5
35E
330
1F
100
AcDbEntity
  8
D-2
  6
Continuous
 62
    92
370
     5
100
AcDbLine
 10
1402.471346468539
 20
1027.787772513725
 30
0.0
 11
1402.471346468539
 21
1062.787887985642
 31
0.0
  0
LINE
  5
35F
330
1F
100
AcDbEntity
  8
D-2
  6
Continuous
 62
    92
370
     5
100
AcDbLine
 10
1352.971504830025
 20
962.787805505701
 30
0.0
 11
1352.971504830025
 21
997.7879209776186
 31
0.0
  0
LINE
  5
360
330
1F
100
AcDbEntity
  8
D-2
  6
Continuous
 62
    92
370
     5
100
AcDbLine
 10
1377.721425649282
 20
962.787805505701
 30
0.0
 11
1377.721425649282
 21
997.7879209776186
 31
0.0
  0
LINE
  5
361
330
1F
100
AcDbEntity
  8
D-2
  6
Continuous
 62
    92
370
     5
100
AcDbLine
 10
1402.471346468539
 20
962.787805505701
 30
0.0
 11
1402.471346468539
 21
997.7879209776186
 31
0.0
  0
LINE
  5
362
330
1F
100
AcDbEntity
  8
D-2
  6
Continuous
 62
    92
370
     5
100
AcDbLine
 10
1352.971504830025
 20
897.7878384976776
 30
0.0
 11
1352.971504830025
 21
932.7879539695948
 31
0.0
  0
LINE
  5
363
330
1F
100
AcDbEntity
  8
D-2
  6
Continuous
 62
    92
370
     5
100
AcDbLine
 10
1377.721425649282
 20
897.7878384976776
 30
0.0
 11
1377.721425649282
 21
932.7879539695948
 31
0.0
  0
LINE
  5
364
330
1F
100
AcDbEntity
  8
D-2
  6
Continuous
 62
    92
370
     5
100
AcDbLine
 10
1402.471346468539
 20
897.7878384976776
 30
0.0
 11
1402.471346468539
 21
932.7879539695948
 31
0.0
  0
LINE
  5
365
330
1F
100
AcDbEntity
  8
D-2
  6
Continuous
 62
    92
370
     5
100
AcDbLine
 10
1352.971504830025
 20
832.787871489654
 30
0.0
 11
1352.971504830025
 21
867.787986961571
 31
0.0
  0
LINE
  5
366
330
1F
100
AcDbEntity
  8
D-2
  6
Continuous
 62
    92
370
     5
100
AcDbLine
 10
1377.721425649282
 20
832.787871489654
 30
0.0
 11
1377.721425649282
 21
867.787986961571
 31
0.0
  0
LINE
  5
367
330
1F
100
AcDbEntity
  8
D-2
  6
Continuous
 62
    92
370
     5
100
AcDbLine
 10
1402.471346468539
 20
832.787871489654
 30
0.0
 11
1402.471346468539
 21
867.787986961571
 31
0.0
  0
LINE
  5
368
330
1F
100
AcDbEntity
  8
D-2
  6
Continuous
 62
    92
370
     5
100
AcDbLine
 10
1352.971504830025
 20
767.7879044816302
 30
0.0
 11
1352.971504830025
 21
802.7877725137248
 31
0.0
  0
LINE
  5
369
330
1F
100
AcDbEntity
  8
D-2
  6
Continuous
 62
    92
370
     5
100
AcDbLine
 10
1377.721425649282
 20
767.7879044816302
 30
0.0
 11
1377.721425649282
 21
802.7877725137248
 31
0.0
  0
LINE
  5
36A
330
1F
100
AcDbEntity
  8
D-2
  6
Continuous
 62
    92
370
     5
100
AcDbLine
 10
1402.471346468539
 20
767.7879044816302
 30
0.0
 11
1402.471346468539
 21
802.7877725137248
 31
0.0
  0
LINE
  5
36B
330
1F
100
AcDbEntity
  8
D-2
  6
Continuous
 62
    92
370
     5
100
AcDbLine
 10
1352.971504830025
 20
702.7879374736065
 30
0.0
 11
1352.971504830025
 21
737.7880529455238
 31
0.0
  0
LINE
  5
36C
330
1F
100
AcDbEntity
  8
D-2
  6
Continuous
 62
    92
370
     5
100
AcDbLine
 10
1377.721425649282
 20
702.7879374736065
 30
0.0
 11
1377.721425649282
 21
737.7880529455238
 31
0.0
  0
LINE
  5
36D
330
1F
100
AcDbEntity
  8
D-2
  6
Continuous
 62
    92
370
     5
100
AcDbLine
 10
1402.471346468539
 20
702.7879374736065
 30
0.0
 11
1402.471346468539
 21
737.7880529455238
 31
0.0
  0
LINE
  5
36E
330
1F
100
AcDbEntity
  8
D-2
  6
Continuous
 62
    92
370
     5
100
AcDbLine
 10
1352.971504830025
 20
637.7877230257602
 30
0.0
 11
1352.971504830025
 21
672.787591057855
 31
0.0
  0
LINE
  5
36F
330
1F
100
AcDbEntity
  8
D-2
  6
Continuous
 62
    92
370
     5
100
AcDbLine
 10
1377.721425649282
 20
637.7877230257602
 30
0.0
 11
1377.721425649282
 21
672.787591057855
 31
0.0
  0
LINE
  5
370
330
1F
100
AcDbEntity
  8
D-2
  6
Continuous
 62
    92
370
     5
100
AcDbLine
 10
1402.471346468539
 20
637.7877230257602
 30
0.0
 11
1402.471346468539
 21
672.787591057855
 31
0.0
  0
LINE
  5
371
330
1F
100
AcDbEntity
  8
D-2
  6
Continuous
 62
    92
370
     5
100
AcDbLine
 10
1352.971504830025
 20
507.7879127296242
 30
0.0
 11
1352.971504830025
 21
542.7879044816302
 31
0.0
  0
LINE
  5
372
330
1F
100
AcDbEntity
  8
D-2
  6
Continuous
 62
    92
370
     5
100
AcDbLine
 10
1352.971504830025
 20
572.7878797376479
 30
0.0
 11
1352.971504830025
 21
607.787871489654
 31
0.0
  0
LINE
  5
373
330
1F
100
AcDbEntity
  8
D-2
  6
Continuous
 62
    92
370
     5
100
AcDbLine
 10
1377.721425649282
 20
507.7879127296242
 30
0.0
 11
1377.721425649282
 21
542.7879044816302
 31
0.0
  0
LINE
  5
374
330
1F
100
AcDbEntity
  8
D-2
  6
Continuous
 62
    92
370
     5
100
AcDbLine
 10
1377.721425649282
 20
572.7878797376479
 30
0.0
 11
1377.721425649282
 21
607.787871489654
 31
0.0
  0
LINE
  5
375
330
1F
100
AcDbEntity
  8
D-2
  6
Continuous
 62
    92
370
     5
100
AcDbLine
 10
1402.471346468539
 20
507.7879127296242
 30
0.0
 11
1402.471346468539
 21
542.7879044816302
 31
0.0
  0
LINE
  5
376
330
1F
100
AcDbEntity
  8
D-2
  6
Continuous
 62
    92
370
     5
100
AcDbLine
 10
1402.471346468539
 20
572.7878797376479
 30
0.0
 11
1402.471346468539
 21
607.787871489654
 31
0.0
  0
LINE
  5
377
330
1F
100
AcDbEntity
  8
2-4
  6
Continuous
 62
    92
370
     5
100
AcDbLine
 10
1109.28955078125
 20
-755.1324462890625
 30
0.0
 11
1109.28955078125
 21
-656.1322681323901
 31
0.0
  0
LINE
  5
378
330
1F
100
AcDbEntity
  8
2-4
  6
Continuous
 62
    92
370
     5
100
AcDbLine
 10
1109.28955078125
 20
-656.1322681323901
 30
0.0
 11
1089.289484797298
 21
-656.1322681323901
 31
0.0
  0
LINE
  5
379
330
1F
100
AcDbEntity
  8
2-4
  6
Continuous
 62
    92
370
     5
100
AcDbLine
 10
1109.28955078125
 20
-705.6323572107262
 30
0.0
 11
1089.289484797298
 21
-705.6323572107262
 31
0.0
  0
LINE
  5
37A
330
1F
100
AcDbEntity
  8
2-4
  6
Continuous
 62
    92
370
     5
100
AcDbLine
 10
1109.28955078125
 20
-755.1324462890625
 30
0.0
 11
1089.289484797298
 21
-755.1324462890625
 31
0.0
  0
LINE
  5
37B
330
1F
100
AcDbEntity
  8
2-4
  6
Continuous
 62
    92
370
     5
100
AcDbLine
 10
1069.289418813345
 20
-656.1322681323901
 30
0.0
 11
959.2897982210729
 21
-656.1322681323901
 31
0.0
  0
LINE
  5
37C
330
1F
100
AcDbEntity
  8
2-4
  6
Continuous
 62
    92
370
     5
100
AcDbLine
 10
1069.289418813345
 20
-705.6323572107262
 30
0.0
 11
959.2897982210729
 21
-705.6323572107262
 31
0.0
  0
LINE
  5
37D
330
1F
100
AcDbEntity
  8
2-4
  6
Continuous
 62
    92
370
     5
100
AcDbLine
 10
1069.289418813345
 20
-755.1324462890625
 30
0.0
 11
959.2897982210729
 21
-755.1324462890625
 31
0.0
  0
LINE
  5
37E
330
1F
100
AcDbEntity
  8
2-4
  6
Continuous
 62
    92
370
     5
100
AcDbLine
 10
939.2894847972974
 20
-656.1322681323901
 30
0.0
 11
829.2896167652026
 21
-656.1322681323901
 31
0.0
  0
LINE
  5
37F
330
1F
100
AcDbEntity
  8
2-4
  6
Continuous
 62
    92
370
     5
100
AcDbLine
 10
939.2894847972974
 20
-705.6323572107262
 30
0.0
 11
829.2896167652026
 21
-705.6323572107262
 31
0.0
  0
LINE
  5
380
330
1F
100
AcDbEntity
  8
2-4
  6
Continuous
 62
    92
370
     5
100
AcDbLine
 10
939.2894847972974
 20
-755.1324462890625
 30
0.0
 11
829.2896167652026
 21
-755.1324462890625
 31
0.0
  0
LINE
  5
381
330
1F
100
AcDbEntity
  8
2-4
  6
Continuous
 62
    92
370
     5
100
AcDbLine
 10
809.28955078125
 20
-656.1322681323901
 30
0.0
 11
699.2891878695104
 21
-656.1322681323901
 31
0.0
  0
LINE
  5
382
330
1F
100
AcDbEntity
  8
2-4
  6
Continuous
 62
    92
370
     5
100
AcDbLine
 10
809.28955078125
 20
-705.6323572107262
 30
0.0
 11
699.2891878695104
 21
-705.6323572107262
 31
0.0
  0
LINE
  5
383
330
1F
100
AcDbEntity
  8
2-4
  6
Continuous
 62
    92
370
     5
100
AcDbLine
 10
809.28955078125
 20
-755.1324462890625
 30
0.0
 11
699.2891878695104
 21
-755.1324462890625
 31
0.0
  0
LINE
  5
384
330
1F
100
AcDbEntity
  8
2-4
  6
Continuous
 62
    92
370
     5
100
AcDbLine
 10
679.2896167652026
 20
-656.1322681323901
 30
0.0
 11
569.2895012932854
 21
-656.1322681323901
 31
0.0
  0
LINE
  5
385
330
1F
100
AcDbEntity
  8
2-4
  6
Continuous
 62
    92
370
     5
100
AcDbLine
 10
679.2896167652026
 20
-705.6323572107262
 30
0.0
 11
569.2895012932854
 21
-705.6323572107262
 31
0.0
  0
LINE
  5
386
330
1F
100
AcDbEntity
  8
2-4
  6
Continuous
 62
    92
370
     5
100
AcDbLine
 10
679.2896167652026
 20
-755.1324462890625
 30
0.0
 11
569.2895012932854
 21
-755.1324462890625
 31
0.0
  0
LINE
  5
387
330
1F
100
AcDbEntity
  8
2-4
  6
Continuous
 62
    92
370
     5
100
AcDbLine
 10
549.2894353093328
 20
-656.1322681323901
 30
0.0
 11
439.2895672772383
 21
-656.1322681323901
 31
0.0
  0
LINE
  5
388
330
1F
100
AcDbEntity
  8
2-4
  6
Continuous
 62
    92
370
     5
100
AcDbLine
 10
549.2894353093328
 20
-705.6323572107262
 30
0.0
 11
439.2895672772383
 21
-705.6323572107262
 31
0.0
  0
LINE
  5
389
330
1F
100
AcDbEntity
  8
2-4
  6
Continuous
 62
    92
370
     5
100
AcDbLine
 10
549.2894353093328
 20
-755.1324462890625
 30
0.0
 11
439.2895672772383
 21
-755.1324462890625
 31
0.0
  0
LINE
  5
38A
330
1F
100
AcDbEntity
  8
2-4
  6
Continuous
 62
    92
370
     5
100
AcDbLine
 10
419.2895012932857
 20
-656.1322681323901
 30
0.0
 11
309.2896332611909
 21
-656.1322681323901
 31
0.0
  0
LINE
  5
38B
330
1F
100
AcDbEntity
  8
2-4
  6
Continuous
 62
    92
370
     5
100
AcDbLine
 10
419.2895012932857
 20
-705.6323572107262
 30
0.0
 11
309.2896332611909
 21
-705.6323572107262
 31
0.0
  0
LINE
  5
38C
330
1F
100
AcDbEntity
  8
2-4
  6
Continuous
 62
    92
370
     5
100
AcDbLine
 10
419.2895012932857
 20
-755.1324462890625
 30
0.0
 11
309.2896332611909
 21
-755.1324462890625
 31
0.0
  0
LINE
  5
38D
330
1F
100
AcDbEntity
  8
2-4
  6
Continuous
 62
    92
370
     5
100
AcDbLine
 10
289.2895672772383
 20
-656.1322681323901
 30
0.0
 11
177.2896431587839
 21
-656.1322681323901
 31
0.0
  0
LINE
  5
38E
330
1F
100
AcDbEntity
  8
2-4
  6
Continuous
 62
    92
370
     5
100
AcDbLine
 10
289.2895672772383
 20
-705.6323572107262
 30
0.0
 11
177.2896431587839
 21
-705.6323572107262
 31
0.0
  0
LINE
  5
38F
330
1F
100
AcDbEntity
  8
2-4
  6
Continuous
 62
    92
370
     5
100
AcDbLine
 10
289.2895672772383
 20
-755.1324462890625
 30
0.0
 11
177.2896431587839
 21
-755.1324462890625
 31
0.0
  0
LINE
  5
390
330
1F
100
AcDbEntity
  8
1-2
  6
Continuous
 62
    92
370
     5
100
AcDbLine
 10
-1555.253807274071
 20
1084.813743797508
 30
0.0
 11
-1555.253807274071
 21
1070.813846072635
 31
0.0
  0
LINE
  5
391
330
1F
100
AcDbEntity
  8
1-2
  6
Continuous
 62
    92
370
     5
100
AcDbLine
 10
-1545.353739970439
 20
1084.813743797508
 30
0.0
 11
-1545.353739970439
 21
1070.813846072635
 31
0.0
  0
LINE
  5
392
330
1F
100
AcDbEntity
  8
1-2
  6
Continuous
 62
    92
370
     5
100
AcDbLine
 10
-1605.35418536212
 20
1058.813756994299
 30
0.0
 11
-759.9089751372467
 21
1058.813756994299
 31
0.0
  0
LINE
  5
393
330
1F
100
AcDbEntity
  8
1-2
  6
Continuous
 62
    92
370
     5
100
AcDbLine
 10
-1555.253807274071
 20
1058.813756994299
 30
0.0
 11
-1555.253807274071
 21
1044.813859269426
 31
0.0
  0
LINE
  5
394
330
1F
100
AcDbEntity
  8
1-2
  6
Continuous
 62
    92
370
     5
100
AcDbLine
 10
-1545.353739970439
 20
1058.813756994299
 30
0.0
 11
-1545.353739970439
 21
1044.813859269426
 31
0.0
  0
LINE
  5
395
330
1F
100
AcDbEntity
  8
1-2
  6
Continuous
 62
    92
370
     5
100
AcDbLine
 10
-1555.253807274071
 20
1032.81377019109
 30
0.0
 11
-1555.253807274071
 21
1018.813872466216
 31
0.0
  0
LINE
  5
396
330
1F
100
AcDbEntity
  8
1-2
  6
Continuous
 62
    92
370
     5
100
AcDbLine
 10
-1545.353739970439
 20
1032.81377019109
 30
0.0
 11
-1545.353739970439
 21
1018.813872466216
 31
0.0
  0
LINE
  5
397
330
1F
100
AcDbEntity
  8
1-2
  6
Continuous
 62
    92
370
     5
100
AcDbLine
 10
-1535.453672666807
 20
1032.81377019109
 30
0.0
 11
-1535.453672666807
 21
1018.813872466216
 31
0.0
  0
LINE
  5
398
330
1F
100
AcDbEntity
  8
1-2
  6
Continuous
 62
    92
370
     5
100
AcDbLine
 10
-1555.253807274071
 20
1006.81378338788
 30
0.0
 11
-1555.253807274071
 21
992.8138856630068
 31
0.0
  0
LINE
  5
399
330
1F
100
AcDbEntity
  8
1-2
  6
Continuous
 62
    92
370
     5
100
AcDbLine
 10
-1545.353739970439
 20
1006.81378338788
 30
0.0
 11
-1545.353739970439
 21
992.8138856630068
 31
0.0
  0
LINE
  5
39A
330
1F
100
AcDbEntity
  8
1-2
  6
Continuous
 62
    92
370
     5
100
AcDbLine
 10
-1535.453672666807
 20
1006.81378338788
 30
0.0
 11
-1535.453672666807
 21
992.8138856630068
 31
0.0
  0
LINE
  5
39B
330
1F
100
AcDbEntity
  8
1-2
  6
Continuous
 62
    92
370
     5
100
AcDbLine
 10
-1555.253807274071
 20
980.8137965846709
 30
0.0
 11
-1555.253807274071
 21
966.8138988597974
 31
0.0
  0
LINE
  5
39C
330
1F
100
AcDbEntity
  8
1-2
  6
Continuous
 62
    92
370
     5
100
AcDbLine
 10
-1535.453672666807
 20
980.8137965846709
 30
0.0
 11
-1535.453672666807
 21
966.8138988597974
 31
0.0
  0
LINE
  5
39D
330
1F
100
AcDbEntity
  8
1-2
  6
Continuous
 62
    92
370
     5
100
AcDbLine
 10
-1545.353739970439
 20
980.8137965846709
 30
0.0
 11
-1545.353739970439
 21
966.8138988597974
 31
0.0
  0
LINE
  5
39E
330
1F
100
AcDbEntity
  8
1-2
  6
Continuous
 62
    92
370
     5
100
AcDbLine
 10
-1555.253807274071
 20
954.8138097814613
 30
0.0
 11
-1555.253807274071
 21
940.8136646167654
 31
0.0
  0
LINE
  5
39F
330
1F
100
AcDbEntity
  8
1-2
  6
Continuous
 62
    92
370
     5
100
AcDbLine
 10
-1545.353739970439
 20
954.8138097814613
 30
0.0
 11
-1545.353739970439
 21
940.8136646167654
 31
0.0
  0
LINE
  5
3A0
330
1F
100
AcDbEntity
  8
1-2
  6
Continuous
 62
    92
370
     5
100
AcDbLine
 10
-1535.453672666807
 20
954.8138097814613
 30
0.0
 11
-1535.453672666807
 21
940.8136646167654
 31
0.0
  0
LINE
  5
3A1
330
1F
100
AcDbEntity
  8
1-2
  6
Continuous
 62
    92
370
     5
100
AcDbLine
 10
-1555.253807274071
 20
928.8138229782519
 30
0.0
 11
-1555.253807274071
 21
914.8136778135561
 31
0.0
  0
LINE
  5
3A2
330
1F
100
AcDbEntity
  8
1-2
  6
Continuous
 62
    92
370
     5
100
AcDbLine
 10
-1545.353739970439
 20
928.8138229782519
 30
0.0
 11
-1545.353739970439
 21
914.8136778135561
 31
0.0
  0
LINE
  5
3A3
330
1F
100
AcDbEntity
  8
1-2
  6
Continuous
 62
    92
370
     5
100
AcDbLine
 10
-1535.453672666807
 20
928.8138229782519
 30
0.0
 11
-1535.453672666807
 21
914.8136778135561
 31
0.0
  0
LINE
  5
3A4
330
1F
100
AcDbEntity
  8
1-2
  6
Continuous
 62
    92
370
     5
100
AcDbLine
 10
-1555.253807274071
 20
902.8135887352198
 30
0.0
 11
-1555.253807274071
 21
888.8136910103464
 31
0.0
  0
LINE
  5
3A5
330
1F
100
AcDbEntity
  8
1-2
  6
Continuous
 62
    92
370
     5
100
AcDbLine
 10
-1545.353739970439
 20
902.8135887352198
 30
0.0
 11
-1545.353739970439
 21
888.8136910103464
 31
0.0
  0
LINE
  5
3A6
330
1F
100
AcDbEntity
  8
1-2
  6
Continuous
 62
    92
370
     5
100
AcDbLine
 10
-1535.453672666807
 20
902.8135887352198
 30
0.0
 11
-1535.453672666807
 21
888.8136910103464
 31
0.0
  0
LINE
  5
3A7
330
1F
100
AcDbEntity
  8
1-2
  6
Continuous
 62
    92
370
     5
100
AcDbLine
 10
-1555.253807274071
 20
876.8136019320102
 30
0.0
 11
-1555.253807274071
 21
862.813704207137
 31
0.0
  0
LINE
  5
3A8
330
1F
100
AcDbEntity
  8
1-2
  6
Continuous
 62
    92
370
     5
100
AcDbLine
 10
-1545.353739970439
 20
876.8136019320102
 30
0.0
 11
-1545.353739970439
 21
862.813704207137
 31
0.0
  0
LINE
  5
3A9
330
1F
100
AcDbEntity
  8
1-2
  6
Continuous
 62
    92
370
     5
100
AcDbLine
 10
-1535.453672666807
 20
876.8136019320102
 30
0.0
 11
-1535.453672666807
 21
862.813704207137
 31
0.0
  0
LINE
  5
3AA
330
1F
100
AcDbEntity
  8
1-2
  6
Continuous
 62
    92
370
     5
100
AcDbLine
 10
-1555.253807274071
 20
850.8136151288008
 30
0.0
 11
-1555.253807274071
 21
836.8137174039276
 31
0.0
  0
LINE
  5
3AB
330
1F
100
AcDbEntity
  8
1-2
  6
Continuous
 62
    92
370
     5
100
AcDbLine
 10
-1545.353739970439
 20
850.8136151288008
 30
0.0
 11
-1545.353739970439
 21
836.8137174039276
 31
0.0
  0
LINE
  5
3AC
330
1F
100
AcDbEntity
  8
1-2
  6
Continuous
 62
    92
370
     5
100
AcDbLine
 10
-1535.453672666807
 20
850.8136151288008
 30
0.0
 11
-1535.453672666807
 21
836.8137174039276
 31
0.0
  0
LINE
  5
3AD
330
1F
100
AcDbEntity
  8
1-2
  6
Continuous
 62
    92
370
     5
100
AcDbLine
 10
-1555.253807274071
 20
824.8136283255915
 30
0.0
 11
-1555.253807274071
 21
810.8137306007179
 31
0.0
  0
LINE
  5
3AE
330
1F
100
AcDbEntity
  8
1-2
  6
Continuous
 62
    92
370
     5
100
AcDbLine
 10
-1555.253807274071
 20
798.8136415223818
 30
0.0
 11
-1555.253807274071
 21
784.8137437975086
 31
0.0
  0
LINE
  5
3AF
330
1F
100
AcDbEntity
  8
1-2
  6
Continuous
 62
    92
370
     5
100
AcDbLine
 10
-1545.353739970439
 20
824.8136283255915
 30
0.0
 11
-1545.353739970439
 21
810.8137306007179
 31
0.0
  0
LINE
  5
3B0
330
1F
100
AcDbEntity
  8
1-2
  6
Continuous
 62
    92
370
     5
100
AcDbLine
 10
-1545.353739970439
 20
798.8136415223818
 30
0.0
 11
-1545.353739970439
 21
784.8137437975086
 31
0.0
  0
LINE
  5
3B1
330
1F
100
AcDbEntity
  8
1-2
  6
Continuous
 62
    92
370
     5
100
AcDbLine
 10
-1535.453672666807
 20
824.8136283255915
 30
0.0
 11
-1535.453672666807
 21
810.8137306007179
 31
0.0
  0
LINE
  5
3B2
330
1F
100
AcDbEntity
  8
1-2
  6
Continuous
 62
    92
370
     5
100
AcDbLine
 10
-1535.453672666807
 20
798.8136415223818
 30
0.0
 11
-1535.453672666807
 21
784.8137437975086
 31
0.0
  0
LINE
  5
3B3
330
1F
100
AcDbEntity
  8
1-2
  6
Continuous
 62
    92
370
     5
100
AcDbLine
 10
-1535.453672666807
 20
1084.813743797508
 30
0.0
 11
-1535.453672666807
 21
1070.813846072635
 31
0.0
  0
LINE
  5
3B4
330
1F
100
AcDbEntity
  8
1-2
  6
Continuous
 62
    92
370
     5
100
AcDbLine
 10
-1535.453672666807
 20
1058.813756994299
 30
0.0
 11
-1535.453672666807
 21
1044.813859269426
 31
0.0
  0
LINE
  5
3B5
330
1F
100
AcDbEntity
  8
1-2
  6
Continuous
 62
    92
370
     5
100
AcDbLine
 10
-1555.253807274071
 20
352.8135062552789
 30
0.0
 11
-1555.253807274071
 21
338.8133610905828
 31
0.0
  0
LINE
  5
3B6
330
1F
100
AcDbEntity
  8
1-2
  6
Continuous
 62
    92
370
     5
100
AcDbLine
 10
-1545.353739970439
 20
352.8135062552789
 30
0.0
 11
-1545.353739970439
 21
338.8133610905828
 31
0.0
  0
LINE
  5
3B7
330
1F
100
AcDbEntity
  8
1-2
  6
Continuous
 62
    92
370
     5
100
AcDbLine
 10
-1535.453672666807
 20
352.8135062552789
 30
0.0
 11
-1535.453672666807
 21
338.8133610905828
 31
0.0
  0
LINE
  5
3B8
330
1F
100
AcDbEntity
  8
1-2
  6
Continuous
 62
    92
370
     5
100
AcDbLine
 10
-1555.253807274071
 20
326.8135194520693
 30
0.0
 11
-1555.253807274071
 21
312.8134980072846
 31
0.0
  0
LINE
  5
3B9
330
1F
100
AcDbEntity
  8
1-2
  6
Continuous
 62
    92
370
     5
100
AcDbLine
 10
-1545.353739970439
 20
326.8135194520693
 30
0.0
 11
-1545.353739970439
 21
312.8134980072846
 31
0.0
  0
LINE
  5
3BA
330
1F
100
AcDbEntity
  8
1-2
  6
Continuous
 62
    92
370
     5
100
AcDbLine
 10
-1535.453672666807
 20
326.8135194520693
 30
0.0
 11
-1535.453672666807
 21
312.8134980072846
 31
0.0
  0
LINE
  5
3BB
330
1F
100
AcDbEntity
  8
1-2
  6
Continuous
 62
    92
370
     5
100
AcDbLine
 10
-1555.253807274071
 20
300.8135326488599
 30
0.0
 11
-1555.253807274071
 21
286.8135112040753
 31
0.0
  0
LINE
  5
3BC
330
1F
100
AcDbEntity
  8
1-2
  6
Continuous
 62
    92
370
     5
100
AcDbLine
 10
-1545.353739970439
 20
300.8135326488599
 30
0.0
 11
-1545.353739970439
 21
286.8135112040753
 31
0.0
  0
LINE
  5
3BD
330
1F
100
AcDbEntity
  8
1-2
  6
Continuous
 62
    92
370
     5
100
AcDbLine
 10
-1535.453672666807
 20
300.8135326488599
 30
0.0
 11
-1535.453672666807
 21
286.8135112040753
 31
0.0
  0
LINE
  5
3BE
330
1F
100
AcDbEntity
  8
1-2
  6
Continuous
 62
    92
370
     5
100
AcDbLine
 10
-1555.253807274071
 20
274.8135458456505
 30
0.0
 11
-1555.253807274071
 21
260.8135244008659
 31
0.0
  0
LINE
  5
3BF
330
1F
100
AcDbEntity
  8
1-2
  6
Continuous
 62
    92
370
     5
100
AcDbLine
 10
-1545.353739970439
 20
274.8135458456505
 30
0.0
 11
-1545.353739970439
 21
260.8135244008659
 31
0.0
  0
LINE
  5
3C0
330
1F
100
AcDbEntity
  8
1-2
  6
Continuous
 62
    92
370
     5
100
AcDbLine
 10
-1535.453672666807
 20
274.8135458456505
 30
0.0
 11
-1535.453672666807
 21
260.8135244008659
 31
0.0
  0
LINE
  5
3C1
330
1F
100
AcDbEntity
  8
1-2
  6
Continuous
 62
    92
370
     5
100
AcDbLine
 10
-1555.253807274071
 20
248.8135590424409
 30
0.0
 11
-1555.253807274071
 21
234.8135375976562
 31
0.0
  0
LINE
  5
3C2
330
1F
100
AcDbEntity
  8
1-2
  6
Continuous
 62
    92
370
     5
100
AcDbLine
 10
-1545.353739970439
 20
248.8135590424409
 30
0.0
 11
-1545.353739970439
 21
234.8135375976562
 31
0.0
  0
LINE
  5
3C3
330
1F
100
AcDbEntity
  8
1-2
  6
Continuous
 62
    92
370
     5
100
AcDbLine
 10
-1535.453672666807
 20
248.8135590424409
 30
0.0
 11
-1535.453672666807
 21
234.8135375976562
 31
0.0
  0
LINE
  5
3C4
330
1F
100
AcDbEntity
  8
1-2
  6
Continuous
 62
    92
370
     5
100
AcDbLine
 10
-1555.253807274071
 20
222.8135722392315
 30
0.0
 11
-1555.253807274071
 21
208.8135507944469
 31
0.0
  0
LINE
  5
3C5
330
1F
100
AcDbEntity
  8
1-2
  6
Continuous
 62
    92
370
     5
100
AcDbLine
 10
-1545.353739970439
 20
222.8135722392315
 30
0.0
 11
-1545.353739970439
 21
208.8135507944469
 31
0.0
  0
LINE
  5
3C6
330
1F
100
AcDbEntity
  8
1-2
  6
Continuous
 62
    92
370
     5
100
AcDbLine
 10
-1535.453672666807
 20
222.8135722392315
 30
0.0
 11
-1535.453672666807
 21
208.8135507944469
 31
0.0
  0
LINE
  5
3C7
330
1F
100
AcDbEntity
  8
1-2
  6
Continuous
 62
    92
370
     5
100
AcDbLine
 10
-1555.253807274071
 20
196.8135854360222
 30
0.0
 11
-1555.253807274071
 21
182.8135639912375
 31
0.0
  0
LINE
  5
3C8
330
1F
100
AcDbEntity
  8
1-2
  6
Continuous
 62
    92
370
     5
100
AcDbLine
 10
-1545.353739970439
 20
196.8135854360222
 30
0.0
 11
-1545.353739970439
 21
182.8135639912375
 31
0.0
  0
LINE
  5
3C9
330
1F
100
AcDbEntity
  8
1-2
  6
Continuous
 62
    92
370
     5
100
AcDbLine
 10
-1535.453672666807
 20
196.8135854360222
 30
0.0
 11
-1535.453672666807
 21
182.8135639912375
 31
0.0
  0
LINE
  5
3CA
330
1F
100
AcDbEntity
  8
1-2
  6
Continuous
 62
    92
370
     5
100
AcDbLine
 10
-1555.253807274071
 20
170.8135986328125
 30
0.0
 11
-1555.253807274071
 21
156.8135771880279
 31
0.0
  0
LINE
  5
3CB
330
1F
100
AcDbEntity
  8
1-2
  6
Continuous
 62
    92
370
     5
100
AcDbLine
 10
-1545.353739970439
 20
170.8135986328125
 30
0.0
 11
-1545.353739970439
 21
156.8135771880279
 31
0.0
  0
LINE
  5
3CC
330
1F
100
AcDbEntity
  8
1-2
  6
Continuous
 62
    92
370
     5
100
AcDbLine
 10
-1535.453672666807
 20
170.8135986328125
 30
0.0
 11
-1535.453672666807
 21
156.8135771880279
 31
0.0
  0
LINE
  5
3CD
330
1F
100
AcDbEntity
  8
1-2
  6
Continuous
 62
    92
370
     5
100
AcDbLine
 10
-1555.253807274071
 20
144.8136118296031
 30
0.0
 11
-1555.253807274071
 21
130.8135903848185
 31
0.0
  0
LINE
  5
3CE
330
1F
100
AcDbEntity
  8
1-2
  6
Continuous
 62
    92
370
     5
100
AcDbLine
 10
-1545.353739970439
 20
144.8136118296031
 30
0.0
 11
-1545.353739970439
 21
130.8135903848185
 31
0.0
  0
LINE
  5
3CF
330
1F
100
AcDbEntity
  8
1-2
  6
Continuous
 62
    92
370
     5
100
AcDbLine
 10
-1535.453672666807
 20
144.8136118296031
 30
0.0
 11
-1535.453672666807
 21
130.8135903848185
 31
0.0
  0
LINE
  5
3D0
330
1F
100
AcDbEntity
  8
1-2
  6
Continuous
 62
    92
370
     5
100
AcDbLine
 10
-1555.253807274071
 20
118.8136250263938
 30
0.0
 11
-1555.253807274071
 21
104.8134798616977
 31
0.0
  0
LINE
  5
3D1
330
1F
100
AcDbEntity
  8
1-2
  6
Continuous
 62
    92
370
     5
100
AcDbLine
 10
-1545.353739970439
 20
118.8136250263938
 30
0.0
 11
-1545.353739970439
 21
104.8134798616977
 31
0.0
  0
LINE
  5
3D2
330
1F
100
AcDbEntity
  8
1-2
  6
Continuous
 62
    92
370
     5
100
AcDbLine
 10
-1535.453672666807
 20
118.8136250263938
 30
0.0
 11
-1535.453672666807
 21
104.8134798616977
 31
0.0
  0
LINE
  5
3D3
330
1F
100
AcDbEntity
  8
1-2
  6
Continuous
 62
    92
370
     5
100
AcDbLine
 10
-1555.253807274071
 20
92.81363822318411
 30
0.0
 11
-1555.253807274071
 21
78.81349305848829
 31
0.0
  0
LINE
  5
3D4
330
1F
100
AcDbEntity
  8
1-2
  6
Continuous
 62
    92
370
     5
100
AcDbLine
 10
-1545.353739970439
 20
92.81363822318411
 30
0.0
 11
-1545.353739970439
 21
78.81349305848829
 31
0.0
  0
LINE
  5
3D5
330
1F
100
AcDbEntity
  8
1-2
  6
Continuous
 62
    92
370
     5
100
AcDbLine
 10
-1535.453672666807
 20
92.81363822318411
 30
0.0
 11
-1535.453672666807
 21
78.81349305848829
 31
0.0
  0
LINE
  5
3D6
330
1F
100
AcDbEntity
  8
1-2
  6
Continuous
 62
    92
370
     5
100
AcDbLine
 10
-1555.253807274071
 20
66.81340398015209
 30
0.0
 11
-1555.253807274071
 21
52.81350625527892
 31
0.0
  0
LINE
  5
3D7
330
1F
100
AcDbEntity
  8
1-2
  6
Continuous
 62
    92
370
     5
100
AcDbLine
 10
-1545.353739970439
 20
66.81340398015209
 30
0.0
 11
-1545.353739970439
 21
52.81350625527892
 31
0.0
  0
LINE
  5
3D8
330
1F
100
AcDbEntity
  8
1-2
  6
Continuous
 62
    92
370
     5
100
AcDbLine
 10
-1535.453672666807
 20
66.81340398015209
 30
0.0
 11
-1535.453672666807
 21
52.81350625527892
 31
0.0
  0
LINE
  5
3D9
330
1F
100
AcDbEntity
  8
1-2
  6
Continuous
 62
    92
370
     5
100
AcDbLine
 10
-1555.253807274071
 20
40.81341717694272
 30
0.0
 11
-1555.253807274071
 21
26.81351945206927
 31
0.0
  0
LINE
  5
3DA
330
1F
100
AcDbEntity
  8
1-2
  6
Continuous
 62
    92
370
     5
100
AcDbLine
 10
-1545.353739970439
 20
40.81341717694272
 30
0.0
 11
-1545.353739970439
 21
26.81351945206927
 31
0.0
  0
LINE
  5
3DB
330
1F
100
AcDbEntity
  8
1-2
  6
Continuous
 62
    92
370
     5
100
AcDbLine
 10
-1535.453672666807
 20
40.81341717694272
 30
0.0
 11
-1535.453672666807
 21
26.81351945206927
 31
0.0
  0
LINE
  5
3DC
330
1F
100
AcDbEntity
  8
1-2
  6
Continuous
 62
    92
370
     5
100
AcDbLine
 10
-1555.253807274071
 20
14.81343037373307
 30
0.0
 11
-1555.253807274071
 21
0.8135326488599048
 31
0.0
  0
LINE
  5
3DD
330
1F
100
AcDbEntity
  8
1-2
  6
Continuous
 62
    92
370
     5
100
AcDbLine
 10
-1545.353739970439
 20
14.81343037373307
 30
0.0
 11
-1545.353739970439
 21
0.8135326488599048
 31
0.0
  0
LINE
  5
3DE
330
1F
100
AcDbEntity
  8
1-2
  6
Continuous
 62
    92
370
     5
100
AcDbLine
 10
-1535.453672666807
 20
14.81343037373307
 30
0.0
 11
-1535.453672666807
 21
0.8135326488599048
 31
0.0
  0
LINE
  5
3DF
330
1F
100
AcDbEntity
  8
1-2
  6
Continuous
 62
    92
370
     5
100
AcDbLine
 10
-1555.253807274071
 20
-11.1865564294763
 30
0.0
 11
-1555.253807274071
 21
-25.18645415434946
 31
0.0
  0
LINE
  5
3E0
330
1F
100
AcDbEntity
  8
1-2
  6
Continuous
 62
    92
370
     5
100
AcDbLine
 10
-1545.353739970439
 20
-11.1865564294763
 30
0.0
 11
-1545.353739970439
 21
-25.18645415434946
 31
0.0
  0
LINE
  5
3E1
330
1F
100
AcDbEntity
  8
1-2
  6
Continuous
 62
    92
370
     5
100
AcDbLine
 10
-1535.453672666807
 20
-11.1865564294763
 30
0.0
 11
-1535.453672666807
 21
-25.18645415434946
 31
0.0
  0
LINE
  5
3E2
330
1F
100
AcDbEntity
  8
1-2
  6
Continuous
 62
    92
370
     5
100
AcDbLine
 10
-1555.253807274071
 20
-37.18654323268566
 30
0.0
 11
-1555.253807274071
 21
-51.18644095755911
 31
0.0
  0
LINE
  5
3E3
330
1F
100
AcDbEntity
  8
1-2
  6
Continuous
 62
    92
370
     5
100
AcDbLine
 10
-1545.353739970439
 20
-37.18654323268566
 30
0.0
 11
-1545.353739970439
 21
-51.18644095755911
 31
0.0
  0
LINE
  5
3E4
330
1F
100
AcDbEntity
  8
1-2
  6
Continuous
 62
    92
370
     5
100
AcDbLine
 10
-1535.453672666807
 20
-37.18654323268566
 30
0.0
 11
-1535.453672666807
 21
-51.18644095755911
 31
0.0
  0
LINE
  5
3E5
330
1F
100
AcDbEntity
  8
1-2
  6
Continuous
 62
    92
370
     5
100
AcDbLine
 10
-1259.25391944679
 20
1084.813743797508
 30
0.0
 11
-1259.25391944679
 21
1070.813846072635
 31
0.0
  0
LINE
  5
3E6
330
1F
100
AcDbEntity
  8
1-2
  6
Continuous
 62
    92
370
     5
100
AcDbLine
 10
-1249.353852143159
 20
1084.813743797508
 30
0.0
 11
-1249.353852143159
 21
1070.813846072635
 31
0.0
  0
LINE
  5
3E7
330
1F
100
AcDbEntity
  8
1-2
  6
Continuous
 62
    92
370
     5
100
AcDbLine
 10
-1259.25391944679
 20
1058.813756994299
 30
0.0
 11
-1259.25391944679
 21
1044.813859269426
 31
0.0
  0
LINE
  5
3E8
330
1F
100
AcDbEntity
  8
1-2
  6
Continuous
 62
    92
370
     5
100
AcDbLine
 10
-1249.353852143159
 20
1058.813756994299
 30
0.0
 11
-1249.353852143159
 21
1044.813859269426
 31
0.0
  0
LINE
  5
3E9
330
1F
100
AcDbEntity
  8
1-2
  6
Continuous
 62
    92
370
     5
100
AcDbLine
 10
-1259.25391944679
 20
1032.81377019109
 30
0.0
 11
-1259.25391944679
 21
1018.813872466216
 31
0.0
  0
LINE
  5
3EA
330
1F
100
AcDbEntity
  8
1-2
  6
Continuous
 62
    92
370
     5
100
AcDbLine
 10
-1249.353852143159
 20
1032.81377019109
 30
0.0
 11
-1249.353852143159
 21
1018.813872466216
 31
0.0
  0
LINE
  5
3EB
330
1F
100
AcDbEntity
  8
1-2
  6
Continuous
 62
    92
370
     5
100
AcDbLine
 10
-1239.453784839527
 20
1032.81377019109
 30
0.0
 11
-1239.453784839527
 21
1018.813872466216
 31
0.0
  0
LINE
  5
3EC
330
1F
100
AcDbEntity
  8
1-2
  6
Continuous
 62
    92
370
     5
100
AcDbLine
 10
-1259.25391944679
 20
1006.81378338788
 30
0.0
 11
-1259.25391944679
 21
992.8138856630068
 31
0.0
  0
LINE
  5
3ED
330
1F
100
AcDbEntity
  8
1-2
  6
Continuous
 62
    92
370
     5
100
AcDbLine
 10
-1249.353852143159
 20
1006.81378338788
 30
0.0
 11
-1249.353852143159
 21
992.8138856630068
 31
0.0
  0
LINE
  5
3EE
330
1F
100
AcDbEntity
  8
1-2
  6
Continuous
 62
    92
370
     5
100
AcDbLine
 10
-1239.453784839527
 20
1006.81378338788
 30
0.0
 11
-1239.453784839527
 21
992.8138856630068
 31
0.0
  0
LINE
  5
3EF
330
1F
100
AcDbEntity
  8
1-2
  6
Continuous
 62
    92
370
     5
100
AcDbLine
 10
-1259.25391944679
 20
980.8137965846709
 30
0.0
 11
-1259.25391944679
 21
966.8138988597974
 31
0.0
  0
LINE
  5
3F0
330
1F
100
AcDbEntity
  8
1-2
  6
Continuous
 62
    92
370
     5
100
AcDbLine
 10
-1239.453784839527
 20
980.8137965846709
 30
0.0
 11
-1239.453784839527
 21
966.8138988597974
 31
0.0
  0
LINE
  5
3F1
330
1F
100
AcDbEntity
  8
1-2
  6
Continuous
 62
    92
370
     5
100
AcDbLine
 10
-1249.353852143159
 20
980.8137965846709
 30
0.0
 11
-1249.353852143159
 21
966.8138988597974
 31
0.0
  0
LINE
  5
3F2
330
1F
100
AcDbEntity
  8
1-2
  6
Continuous
 62
    92
370
     5
100
AcDbLine
 10
-1259.25391944679
 20
954.8138097814613
 30
0.0
 11
-1259.25391944679
 21
940.8136646167654
 31
0.0
  0
LINE
  5
3F3
330
1F
100
AcDbEntity
  8
1-2
  6
Continuous
 62
    92
370
     5
100
AcDbLine
 10
-1249.353852143159
 20
954.8138097814613
 30
0.0
 11
-1249.353852143159
 21
940.8136646167654
 31
0.0
  0
LINE
  5
3F4
330
1F
100
AcDbEntity
  8
1-2
  6
Continuous
 62
    92
370
     5
100
AcDbLine
 10
-1239.453784839527
 20
954.8138097814613
 30
0.0
 11
-1239.453784839527
 21
940.8136646167654
 31
0.0
  0
LINE
  5
3F5
330
1F
100
AcDbEntity
  8
1-2
  6
Continuous
 62
    92
370
     5
100
AcDbLine
 10
-1259.25391944679
 20
928.8138229782519
 30
0.0
 11
-1259.25391944679
 21
914.8136778135561
 31
0.0
  0
LINE
  5
3F6
330
1F
100
AcDbEntity
  8
1-2
  6
Continuous
 62
    92
370
     5
100
AcDbLine
 10
-1249.353852143159
 20
928.8138229782519
 30
0.0
 11
-1249.353852143159
 21
914.8136778135561
 31
0.0
  0
LINE
  5
3F7
330
1F
100
AcDbEntity
  8
1-2
  6
Continuous
 62
    92
370
     5
100
AcDbLine
 10
-1239.453784839527
 20
928.8138229782519
 30
0.0
 11
-1239.453784839527
 21
914.8136778135561
 31
0.0
  0
LINE
  5
3F8
330
1F
100
AcDbEntity
  8
1-2
  6
Continuous
 62
    92
370
     5
100
AcDbLine
 10
-1259.25391944679
 20
902.8135887352198
 30
0.0
 11
-1259.25391944679
 21
888.8136910103464
 31
0.0
  0
LINE
  5
3F9
330
1F
100
AcDbEntity
  8
1-2
  6
Continuous
 62
    92
370
     5
100
AcDbLine
 10
-1249.353852143159
 20
902.8135887352198
 30
0.0
 11
-1249.353852143159
 21
888.8136910103464
 31
0.0
  0
LINE
  5
3FA
330
1F
100
AcDbEntity
  8
1-2
  6
Continuous
 62
    92
370
     5
100
AcDbLine
 10
-1239.453784839527
 20
902.8135887352198
 30
0.0
 11
-1239.453784839527
 21
888.8136910103464
 31
0.0
  0
LINE
  5
3FB
330
1F
100
AcDbEntity
  8
1-2
  6
Continuous
 62
    92
370
     5
100
AcDbLine
 10
-1259.25391944679
 20
876.8136019320102
 30
0.0
 11
-1259.25391944679
 21
862.813704207137
 31
0.0
  0
LINE
  5
3FC
330
1F
100
AcDbEntity
  8
1-2
  6
Continuous
 62
    92
370
     5
100
AcDbLine
 10
-1249.353852143159
 20
876.8136019320102
 30
0.0
 11
-1249.353852143159
 21
862.813704207137
 31
0.0
  0
LINE
  5
3FD
330
1F
100
AcDbEntity
  8
1-2
  6
Continuous
 62
    92
370
     5
100
AcDbLine
 10
-1239.453784839527
 20
876.8136019320102
 30
0.0
 11
-1239.453784839527
 21
862.813704207137
 31
0.0
  0
LINE
  5
3FE
330
1F
100
AcDbEntity
  8
1-2
  6
Continuous
 62
    92
370
     5
100
AcDbLine
 10
-1259.25391944679
 20
850.8136151288008
 30
0.0
 11
-1259.25391944679
 21
836.8137174039276
 31
0.0
  0
LINE
  5
3FF
330
1F
100
AcDbEntity
  8
1-2
  6
Continuous
 62
    92
370
     5
100
AcDbLine
 10
-1249.353852143159
 20
850.8136151288008
 30
0.0
 11
-1249.353852143159
 21
836.8137174039276
 31
0.0
  0
LINE
  5
400
330
1F
100
AcDbEntity
  8
1-2
  6
Continuous
 62
    92
370
     5
100
AcDbLine
 10
-1239.453784839527
 20
850.8136151288008
 30
0.0
 11
-1239.453784839527
 21
836.8137174039276
 31
0.0
  0
LINE
  5
401
330
1F
100
AcDbEntity
  8
1-2
  6
Continuous
 62
    92
370
     5
100
AcDbLine
 10
-1259.25391944679
 20
824.8136283255915
 30
0.0
 11
-1259.25391944679
 21
810.8137306007179
 31
0.0
  0
LINE
  5
402
330
1F
100
AcDbEntity
  8
1-2
  6
Continuous
 62
    92
370
     5
100
AcDbLine
 10
-1259.25391944679
 20
798.8136415223818
 30
0.0
 11
-1259.25391944679
 21
784.8137437975086
 31
0.0
  0
LINE
  5
403
330
1F
100
AcDbEntity
  8
1-2
  6
Continuous
 62
    92
370
     5
100
AcDbLine
 10
-1249.353852143159
 20
824.8136283255915
 30
0.0
 11
-1249.353852143159
 21
810.8137306007179
 31
0.0
  0
LINE
  5
404
330
1F
100
AcDbEntity
  8
1-2
  6
Continuous
 62
    92
370
     5
100
AcDbLine
 10
-1249.353852143159
 20
798.8136415223818
 30
0.0
 11
-1249.353852143159
 21
784.8137437975086
 31
0.0
  0
LINE
  5
405
330
1F
100
AcDbEntity
  8
1-2
  6
Continuous
 62
    92
370
     5
100
AcDbLine
 10
-1239.453784839527
 20
824.8136283255915
 30
0.0
 11
-1239.453784839527
 21
810.8137306007179
 31
0.0
  0
LINE
  5
406
330
1F
100
AcDbEntity
  8
1-2
  6
Continuous
 62
    92
370
     5
100
AcDbLine
 10
-1239.453784839527
 20
798.8136415223818
 30
0.0
 11
-1239.453784839527
 21
784.8137437975086
 31
0.0
  0
LINE
  5
407
330
1F
100
AcDbEntity
  8
1-2
  6
Continuous
 62
    92
370
     5
100
AcDbLine
 10
-1239.453784839527
 20
1084.813743797508
 30
0.0
 11
-1239.453784839527
 21
1070.813846072635
 31
0.0
  0
LINE
  5
408
330
1F
100
AcDbEntity
  8
1-2
  6
Continuous
 62
    92
370
     5
100
AcDbLine
 10
-1239.453784839527
 20
1058.813756994299
 30
0.0
 11
-1239.453784839527
 21
1044.813859269426
 31
0.0
  0
LINE
  5
409
330
1F
100
AcDbEntity
  8
1-2
  6
Continuous
 62
    92
370
     5
100
AcDbLine
 10
-1259.25391944679
 20
352.8135062552789
 30
0.0
 11
-1259.25391944679
 21
338.8133610905828
 31
0.0
  0
LINE
  5
40A
330
1F
100
AcDbEntity
  8
1-2
  6
Continuous
 62
    92
370
     5
100
AcDbLine
 10
-1249.353852143159
 20
352.8135062552789
 30
0.0
 11
-1249.353852143159
 21
338.8133610905828
 31
0.0
  0
LINE
  5
40B
330
1F
100
AcDbEntity
  8
1-2
  6
Continuous
 62
    92
370
     5
100
AcDbLine
 10
-1239.453784839527
 20
352.8135062552789
 30
0.0
 11
-1239.453784839527
 21
338.8133610905828
 31
0.0
  0
LINE
  5
40C
330
1F
100
AcDbEntity
  8
1-2
  6
Continuous
 62
    92
370
     5
100
AcDbLine
 10
-1259.25391944679
 20
326.8135194520693
 30
0.0
 11
-1259.25391944679
 21
312.8134980072846
 31
0.0
  0
LINE
  5
40D
330
1F
100
AcDbEntity
  8
1-2
  6
Continuous
 62
    92
370
     5
100
AcDbLine
 10
-1249.353852143159
 20
326.8135194520693
 30
0.0
 11
-1249.353852143159
 21
312.8134980072846
 31
0.0
  0
LINE
  5
40E
330
1F
100
AcDbEntity
  8
1-2
  6
Continuous
 62
    92
370
     5
100
AcDbLine
 10
-1239.453784839527
 20
326.8135194520693
 30
0.0
 11
-1239.453784839527
 21
312.8134980072846
 31
0.0
  0
LINE
  5
40F
330
1F
100
AcDbEntity
  8
1-2
  6
Continuous
 62
    92
370
     5
100
AcDbLine
 10
-1259.25391944679
 20
300.8135326488599
 30
0.0
 11
-1259.25391944679
 21
286.8135112040753
 31
0.0
  0
LINE
  5
410
330
1F
100
AcDbEntity
  8
1-2
  6
Continuous
 62
    92
370
     5
100
AcDbLine
 10
-1249.353852143159
 20
300.8135326488599
 30
0.0
 11
-1249.353852143159
 21
286.8135112040753
 31
0.0
  0
LINE
  5
411
330
1F
100
AcDbEntity
  8
1-2
  6
Continuous
 62
    92
370
     5
100
AcDbLine
 10
-1239.453784839527
 20
300.8135326488599
 30
0.0
 11
-1239.453784839527
 21
286.8135112040753
 31
0.0
  0
LINE
  5
412
330
1F
100
AcDbEntity
  8
1-2
  6
Continuous
 62
    92
370
     5
100
AcDbLine
 10
-1259.25391944679
 20
274.8135458456505
 30
0.0
 11
-1259.25391944679
 21
260.8135244008659
 31
0.0
  0
LINE
  5
413
330
1F
100
AcDbEntity
  8
1-2
  6
Continuous
 62
    92
370
     5
100
AcDbLine
 10
-1249.353852143159
 20
274.8135458456505
 30
0.0
 11
-1249.353852143159
 21
260.8135244008659
 31
0.0
  0
LINE
  5
414
330
1F
100
AcDbEntity
  8
1-2
  6
Continuous
 62
    92
370
     5
100
AcDbLine
 10
-1239.453784839527
 20
274.8135458456505
 30
0.0
 11
-1239.453784839527
 21
260.8135244008659
 31
0.0
  0
LINE
  5
415
330
1F
100
AcDbEntity
  8
1-2
  6
Continuous
 62
    92
370
     5
100
AcDbLine
 10
-1259.25391944679
 20
248.8135590424409
 30
0.0
 11
-1259.25391944679
 21
234.8135375976562
 31
0.0
  0
LINE
  5
416
330
1F
100
AcDbEntity
  8
1-2
  6
Continuous
 62
    92
370
     5
100
AcDbLine
 10
-1249.353852143159
 20
248.8135590424409
 30
0.0
 11
-1249.353852143159
 21
234.8135375976562
 31
0.0
  0
LINE
  5
417
330
1F
100
AcDbEntity
  8
1-2
  6
Continuous
 62
    92
370
     5
100
AcDbLine
 10
-1239.453784839527
 20
248.8135590424409
 30
0.0
 11
-1239.453784839527
 21
234.8135375976562
 31
0.0
  0
LINE
  5
418
330
1F
100
AcDbEntity
  8
1-2
  6
Continuous
 62
    92
370
     5
100
AcDbLine
 10
-1259.25391944679
 20
222.8135722392315
 30
0.0
 11
-1259.25391944679
 21
208.8135507944469
 31
0.0
  0
LINE
  5
419
330
1F
100
AcDbEntity
  8
1-2
  6
Continuous
 62
    92
370
     5
100
AcDbLine
 10
-1249.353852143159
 20
222.8135722392315
 30
0.0
 11
-1249.353852143159
 21
208.8135507944469
 31
0.0
  0
LINE
  5
41A
330
1F
100
AcDbEntity
  8
1-2
  6
Continuous
 62
    92
370
     5
100
AcDbLine
 10
-1239.453784839527
 20
222.8135722392315
 30
0.0
 11
-1239.453784839527
 21
208.8135507944469
 31
0.0
  0
LINE
  5
41B
330
1F
100
AcDbEntity
  8
1-2
  6
Continuous
 62
    92
370
     5
100
AcDbLine
 10
-1259.25391944679
 20
196.8135854360222
 30
0.0
 11
-1259.25391944679
 21
182.8135639912375
 31
0.0
  0
LINE
  5
41C
330
1F
100
AcDbEntity
  8
1-2
  6
Continuous
 62
    92
370
     5
100
AcDbLine
 10
-1249.353852143159
 20
196.8135854360222
 30
0.0
 11
-1249.353852143159
 21
182.8135639912375
 31
0.0
  0
LINE
  5
41D
330
1F
100
AcDbEntity
  8
1-2
  6
Continuous
 62
    92
370
     5
100
AcDbLine
 10
-1239.453784839527
 20
196.8135854360222
 30
0.0
 11
-1239.453784839527
 21
182.8135639912375
 31
0.0
  0
LINE
  5
41E
330
1F
100
AcDbEntity
  8
1-2
  6
Continuous
 62
    92
370
     5
100
AcDbLine
 10
-1259.25391944679
 20
170.8135986328125
 30
0.0
 11
-1259.25391944679
 21
156.8135771880279
 31
0.0
  0
LINE
  5
41F
330
1F
100
AcDbEntity
  8
1-2
  6
Continuous
 62
    92
370
     5
100
AcDbLine
 10
-1249.353852143159
 20
170.8135986328125
 30
0.0
 11
-1249.353852143159
 21
156.8135771880279
 31
0.0
  0
LINE
  5
420
330
1F
100
AcDbEntity
  8
1-2
  6
Continuous
 62
    92
370
     5
100
AcDbLine
 10
-1239.453784839527
 20
170.8135986328125
 30
0.0
 11
-1239.453784839527
 21
156.8135771880279
 31
0.0
  0
LINE
  5
421
330
1F
100
AcDbEntity
  8
1-2
  6
Continuous
 62
    92
370
     5
100
AcDbLine
 10
-1259.25391944679
 20
144.8136118296031
 30
0.0
 11
-1259.25391944679
 21
130.8135903848185
 31
0.0
  0
LINE
  5
422
330
1F
100
AcDbEntity
  8
1-2
  6
Continuous
 62
    92
370
     5
100
AcDbLine
 10
-1249.353852143159
 20
144.8136118296031
 30
0.0
 11
-1249.353852143159
 21
130.8135903848185
 31
0.0
  0
LINE
  5
423
330
1F
100
AcDbEntity
  8
1-2
  6
Continuous
 62
    92
370
     5
100
AcDbLine
 10
-1239.453784839527
 20
144.8136118296031
 30
0.0
 11
-1239.453784839527
 21
130.8135903848185
 31
0.0
  0
LINE
  5
424
330
1F
100
AcDbEntity
  8
1-2
  6
Continuous
 62
    92
370
     5
100
AcDbLine
 10
-1259.25391944679
 20
118.8136250263938
 30
0.0
 11
-1259.25391944679
 21
104.8134798616977
 31
0.0
  0
LINE
  5
425
330
1F
100
AcDbEntity
  8
1-2
  6
Continuous
 62
    92
370
     5
100
AcDbLine
 10
-1249.353852143159
 20
118.8136250263938
 30
0.0
 11
-1249.353852143159
 21
104.8134798616977
 31
0.0
  0
LINE
  5
426
330
1F
100
AcDbEntity
  8
1-2
  6
Continuous
 62
    92
370
     5
100
AcDbLine
 10
-1239.453784839527
 20
118.8136250263938
 30
0.0
 11
-1239.453784839527
 21
104.8134798616977
 31
0.0
  0
LINE
  5
427
330
1F
100
AcDbEntity
  8
1-2
  6
Continuous
 62
    92
370
     5
100
AcDbLine
 10
-1259.25391944679
 20
92.81363822318411
 30
0.0
 11
-1259.25391944679
 21
78.81349305848829
 31
0.0
  0
LINE
  5
428
330
1F
100
AcDbEntity
  8
1-2
  6
Continuous
 62
    92
370
     5
100
AcDbLine
 10
-1249.353852143159
 20
92.81363822318411
 30
0.0
 11
-1249.353852143159
 21
78.81349305848829
 31
0.0
  0
LINE
  5
429
330
1F
100
AcDbEntity
  8
1-2
  6
Continuous
 62
    92
370
     5
100
AcDbLine
 10
-1239.453784839527
 20
92.81363822318411
 30
0.0
 11
-1239.453784839527
 21
78.81349305848829
 31
0.0
  0
LINE
  5
42A
330
1F
100
AcDbEntity
  8
1-2
  6
Continuous
 62
    92
370
     5
100
AcDbLine
 10
-1259.25391944679
 20
66.81340398015209
 30
0.0
 11
-1259.25391944679
 21
52.81350625527892
 31
0.0
  0
LINE
  5
42B
330
1F
100
AcDbEntity
  8
1-2
  6
Continuous
 62
    92
370
     5
100
AcDbLine
 10
-1249.353852143159
 20
66.81340398015209
 30
0.0
 11
-1249.353852143159
 21
52.81350625527892
 31
0.0
  0
LINE
  5
42C
330
1F
100
AcDbEntity
  8
1-2
  6
Continuous
 62
    92
370
     5
100
AcDbLine
 10
-1239.453784839527
 20
66.81340398015209
 30
0.0
 11
-1239.453784839527
 21
52.81350625527892
 31
0.0
  0
LINE
  5
42D
330
1F
100
AcDbEntity
  8
1-2
  6
Continuous
 62
    92
370
     5
100
AcDbLine
 10
-1259.25391944679
 20
40.81341717694272
 30
0.0
 11
-1259.25391944679
 21
26.81351945206927
 31
0.0
  0
LINE
  5
42E
330
1F
100
AcDbEntity
  8
1-2
  6
Continuous
 62
    92
370
     5
100
AcDbLine
 10
-1249.353852143159
 20
40.81341717694272
 30
0.0
 11
-1249.353852143159
 21
26.81351945206927
 31
0.0
  0
LINE
  5
42F
330
1F
100
AcDbEntity
  8
1-2
  6
Continuous
 62
    92
370
     5
100
AcDbLine
 10
-1239.453784839527
 20
40.81341717694272
 30
0.0
 11
-1239.453784839527
 21
26.81351945206927
 31
0.0
  0
LINE
  5
430
330
1F
100
AcDbEntity
  8
1-2
  6
Continuous
 62
    92
370
     5
100
AcDbLine
 10
-1259.25391944679
 20
14.81343037373307
 30
0.0
 11
-1259.25391944679
 21
0.8135326488599048
 31
0.0
  0
LINE
  5
431
330
1F
100
AcDbEntity
  8
1-2
  6
Continuous
 62
    92
370
     5
100
AcDbLine
 10
-1249.353852143159
 20
14.81343037373307
 30
0.0
 11
-1249.353852143159
 21
0.8135326488599048
 31
0.0
  0
LINE
  5
432
330
1F
100
AcDbEntity
  8
1-2
  6
Continuous
 62
    92
370
     5
100
AcDbLine
 10
-1239.453784839527
 20
14.81343037373307
 30
0.0
 11
-1239.453784839527
 21
0.8135326488599048
 31
0.0
  0
LINE
  5
433
330
1F
100
AcDbEntity
  8
1-2
  6
Continuous
 62
    92
370
     5
100
AcDbLine
 10
-1259.25391944679
 20
-11.1865564294763
 30
0.0
 11
-1259.25391944679
 21
-25.18645415434946
 31
0.0
  0
LINE
  5
434
330
1F
100
AcDbEntity
  8
1-2
  6
Continuous
 62
    92
370
     5
100
AcDbLine
 10
-1249.353852143159
 20
-11.1865564294763
 30
0.0
 11
-1249.353852143159
 21
-25.18645415434946
 31
0.0
  0
LINE
  5
435
330
1F
100
AcDbEntity
  8
1-2
  6
Continuous
 62
    92
370
     5
100
AcDbLine
 10
-1239.453784839527
 20
-11.1865564294763
 30
0.0
 11
-1239.453784839527
 21
-25.18645415434946
 31
0.0
  0
LINE
  5
436
330
1F
100
AcDbEntity
  8
1-2
  6
Continuous
 62
    92
370
     5
100
AcDbLine
 10
-1259.25391944679
 20
-37.18654323268566
 30
0.0
 11
-1259.25391944679
 21
-51.18644095755911
 31
0.0
  0
LINE
  5
437
330
1F
100
AcDbEntity
  8
1-2
  6
Continuous
 62
    92
370
     5
100
AcDbLine
 10
-1249.353852143159
 20
-37.18654323268566
 30
0.0
 11
-1249.353852143159
 21
-51.18644095755911
 31
0.0
  0
LINE
  5
438
330
1F
100
AcDbEntity
  8
1-2
  6
Continuous
 62
    92
370
     5
100
AcDbLine
 10
-1239.453784839527
 20
-37.18654323268566
 30
0.0
 11
-1239.453784839527
 21
-51.18644095755911
 31
0.0
  0
LINE
  5
439
330
1F
100
AcDbEntity
  8
1-2
  6
Continuous
 62
    92
370
     5
100
AcDbLine
 10
-919.2540349187077
 20
1084.813743797508
 30
0.0
 11
-919.2540349187077
 21
1070.813846072635
 31
0.0
  0
LINE
  5
43A
330
1F
100
AcDbEntity
  8
1-2
  6
Continuous
 62
    92
370
     5
100
AcDbLine
 10
-909.3539676150759
 20
1084.813743797508
 30
0.0
 11
-909.3539676150759
 21
1070.813846072635
 31
0.0
  0
LINE
  5
43B
330
1F
100
AcDbEntity
  8
1-2
  6
Continuous
 62
    92
370
     5
100
AcDbLine
 10
-919.2540349187077
 20
1058.813756994299
 30
0.0
 11
-919.2540349187077
 21
1044.813859269426
 31
0.0
  0
LINE
  5
43C
330
1F
100
AcDbEntity
  8
1-2
  6
Continuous
 62
    92
370
     5
100
AcDbLine
 10
-909.3539676150759
 20
1058.813756994299
 30
0.0
 11
-909.3539676150759
 21
1044.813859269426
 31
0.0
  0
LINE
  5
43D
330
1F
100
AcDbEntity
  8
1-2
  6
Continuous
 62
    92
370
     5
100
AcDbLine
 10
-919.2540349187077
 20
1032.81377019109
 30
0.0
 11
-919.2540349187077
 21
1018.813872466216
 31
0.0
  0
LINE
  5
43E
330
1F
100
AcDbEntity
  8
1-2
  6
Continuous
 62
    92
370
     5
100
AcDbLine
 10
-909.3539676150759
 20
1032.81377019109
 30
0.0
 11
-909.3539676150759
 21
1018.813872466216
 31
0.0
  0
LINE
  5
43F
330
1F
100
AcDbEntity
  8
1-2
  6
Continuous
 62
    92
370
     5
100
AcDbLine
 10
-899.4539003114442
 20
1032.81377019109
 30
0.0
 11
-899.4539003114442
 21
1018.813872466216
 31
0.0
  0
LINE
  5
440
330
1F
100
AcDbEntity
  8
1-2
  6
Continuous
 62
    92
370
     5
100
AcDbLine
 10
-919.2540349187077
 20
1006.81378338788
 30
0.0
 11
-919.2540349187077
 21
992.8138856630068
 31
0.0
  0
LINE
  5
441
330
1F
100
AcDbEntity
  8
1-2
  6
Continuous
 62
    92
370
     5
100
AcDbLine
 10
-909.3539676150759
 20
1006.81378338788
 30
0.0
 11
-909.3539676150759
 21
992.8138856630068
 31
0.0
  0
LINE
  5
442
330
1F
100
AcDbEntity
  8
1-2
  6
Continuous
 62
    92
370
     5
100
AcDbLine
 10
-899.4539003114442
 20
1006.81378338788
 30
0.0
 11
-899.4539003114442
 21
992.8138856630068
 31
0.0
  0
LINE
  5
443
330
1F
100
AcDbEntity
  8
1-2
  6
Continuous
 62
    92
370
     5
100
AcDbLine
 10
-919.2540349187077
 20
980.8137965846709
 30
0.0
 11
-919.2540349187077
 21
966.8138988597974
 31
0.0
  0
LINE
  5
444
330
1F
100
AcDbEntity
  8
1-2
  6
Continuous
 62
    92
370
     5
100
AcDbLine
 10
-899.4539003114442
 20
980.8137965846709
 30
0.0
 11
-899.4539003114442
 21
966.8138988597974
 31
0.0
  0
LINE
  5
445
330
1F
100
AcDbEntity
  8
1-2
  6
Continuous
 62
    92
370
     5
100
AcDbLine
 10
-909.3539676150759
 20
980.8137965846709
 30
0.0
 11
-909.3539676150759
 21
966.8138988597974
 31
0.0
  0
LINE
  5
446
330
1F
100
AcDbEntity
  8
1-2
  6
Continuous
 62
    92
370
     5
100
AcDbLine
 10
-919.2540349187077
 20
954.8138097814613
 30
0.0
 11
-919.2540349187077
 21
940.8136646167654
 31
0.0
  0
LINE
  5
447
330
1F
100
AcDbEntity
  8
1-2
  6
Continuous
 62
    92
370
     5
100
AcDbLine
 10
-909.3539676150759
 20
954.8138097814613
 30
0.0
 11
-909.3539676150759
 21
940.8136646167654
 31
0.0
  0
LINE
  5
448
330
1F
100
AcDbEntity
  8
1-2
  6
Continuous
 62
    92
370
     5
100
AcDbLine
 10
-899.4539003114442
 20
954.8138097814613
 30
0.0
 11
-899.4539003114442
 21
940.8136646167654
 31
0.0
  0
LINE
  5
449
330
1F
100
AcDbEntity
  8
1-2
  6
Continuous
 62
    92
370
     5
100
AcDbLine
 10
-919.2540349187077
 20
928.8138229782519
 30
0.0
 11
-919.2540349187077
 21
914.8136778135561
 31
0.0
  0
LINE
  5
44A
330
1F
100
AcDbEntity
  8
1-2
  6
Continuous
 62
    92
370
     5
100
AcDbLine
 10
-909.3539676150759
 20
928.8138229782519
 30
0.0
 11
-909.3539676150759
 21
914.8136778135561
 31
0.0
  0
LINE
  5
44B
330
1F
100
AcDbEntity
  8
1-2
  6
Continuous
 62
    92
370
     5
100
AcDbLine
 10
-899.4539003114442
 20
928.8138229782519
 30
0.0
 11
-899.4539003114442
 21
914.8136778135561
 31
0.0
  0
LINE
  5
44C
330
1F
100
AcDbEntity
  8
1-2
  6
Continuous
 62
    92
370
     5
100
AcDbLine
 10
-919.2540349187077
 20
902.8135887352198
 30
0.0
 11
-919.2540349187077
 21
888.8136910103464
 31
0.0
  0
LINE
  5
44D
330
1F
100
AcDbEntity
  8
1-2
  6
Continuous
 62
    92
370
     5
100
AcDbLine
 10
-909.3539676150759
 20
902.8135887352198
 30
0.0
 11
-909.3539676150759
 21
888.8136910103464
 31
0.0
  0
LINE
  5
44E
330
1F
100
AcDbEntity
  8
1-2
  6
Continuous
 62
    92
370
     5
100
AcDbLine
 10
-899.4539003114442
 20
902.8135887352198
 30
0.0
 11
-899.4539003114442
 21
888.8136910103464
 31
0.0
  0
LINE
  5
44F
330
1F
100
AcDbEntity
  8
1-2
  6
Continuous
 62
    92
370
     5
100
AcDbLine
 10
-919.2540349187077
 20
876.8136019320102
 30
0.0
 11
-919.2540349187077
 21
862.813704207137
 31
0.0
  0
LINE
  5
450
330
1F
100
AcDbEntity
  8
1-2
  6
Continuous
 62
    92
370
     5
100
AcDbLine
 10
-909.3539676150759
 20
876.8136019320102
 30
0.0
 11
-909.3539676150759
 21
862.813704207137
 31
0.0
  0
LINE
  5
451
330
1F
100
AcDbEntity
  8
1-2
  6
Continuous
 62
    92
370
     5
100
AcDbLine
 10
-899.4539003114442
 20
876.8136019320102
 30
0.0
 11
-899.4539003114442
 21
862.813704207137
 31
0.0
  0
LINE
  5
452
330
1F
100
AcDbEntity
  8
1-2
  6
Continuous
 62
    92
370
     5
100
AcDbLine
 10
-919.2540349187077
 20
850.8136151288008
 30
0.0
 11
-919.2540349187077
 21
836.8137174039276
 31
0.0
  0
LINE
  5
453
330
1F
100
AcDbEntity
  8
1-2
  6
Continuous
 62
    92
370
     5
100
AcDbLine
 10
-909.3539676150759
 20
850.8136151288008
 30
0.0
 11
-909.3539676150759
 21
836.8137174039276
 31
0.0
  0
LINE
  5
454
330
1F
100
AcDbEntity
  8
1-2
  6
Continuous
 62
    92
370
     5
100
AcDbLine
 10
-899.4539003114442
 20
850.8136151288008
 30
0.0
 11
-899.4539003114442
 21
836.8137174039276
 31
0.0
  0
LINE
  5
455
330
1F
100
AcDbEntity
  8
1-2
  6
Continuous
 62
    92
370
     5
100
AcDbLine
 10
-919.2540349187077
 20
824.8136283255915
 30
0.0
 11
-919.2540349187077
 21
810.8137306007179
 31
0.0
  0
LINE
  5
456
330
1F
100
AcDbEntity
  8
1-2
  6
Continuous
 62
    92
370
     5
100
AcDbLine
 10
-909.3539676150759
 20
824.8136283255915
 30
0.0
 11
-909.3539676150759
 21
810.8137306007179
 31
0.0
  0
LINE
  5
457
330
1F
100
AcDbEntity
  8
1-2
  6
Continuous
 62
    92
370
     5
100
AcDbLine
 10
-899.4539003114442
 20
824.8136283255915
 30
0.0
 11
-899.4539003114442
 21
810.8137306007179
 31
0.0
  0
LINE
  5
458
330
1F
100
AcDbEntity
  8
1-2
  6
Continuous
 62
    92
370
     5
100
AcDbLine
 10
-899.4539003114442
 20
1084.813743797508
 30
0.0
 11
-899.4539003114442
 21
1070.813846072635
 31
0.0
  0
LINE
  5
459
330
1F
100
AcDbEntity
  8
1-2
  6
Continuous
 62
    92
370
     5
100
AcDbLine
 10
-899.4539003114442
 20
1058.813756994299
 30
0.0
 11
-899.4539003114442
 21
1044.813859269426
 31
0.0
  0
LINE
  5
45A
330
1F
100
AcDbEntity
  8
1-2
  6
Continuous
 62
    92
370
     5
100
AcDbLine
 10
-919.2540349187077
 20
352.8135062552789
 30
0.0
 11
-919.2540349187077
 21
338.8133610905828
 31
0.0
  0
LINE
  5
45B
330
1F
100
AcDbEntity
  8
1-2
  6
Continuous
 62
    92
370
     5
100
AcDbLine
 10
-909.3539676150759
 20
352.8135062552789
 30
0.0
 11
-909.3539676150759
 21
338.8133610905828
 31
0.0
  0
LINE
  5
45C
330
1F
100
AcDbEntity
  8
1-2
  6
Continuous
 62
    92
370
     5
100
AcDbLine
 10
-899.4539003114442
 20
352.8135062552789
 30
0.0
 11
-899.4539003114442
 21
338.8133610905828
 31
0.0
  0
LINE
  5
45D
330
1F
100
AcDbEntity
  8
1-2
  6
Continuous
 62
    92
370
     5
100
AcDbLine
 10
-919.2540349187077
 20
326.8135194520693
 30
0.0
 11
-919.2540349187077
 21
312.8134980072846
 31
0.0
  0
LINE
  5
45E
330
1F
100
AcDbEntity
  8
1-2
  6
Continuous
 62
    92
370
     5
100
AcDbLine
 10
-909.3539676150759
 20
326.8135194520693
 30
0.0
 11
-909.3539676150759
 21
312.8134980072846
 31
0.0
  0
LINE
  5
45F
330
1F
100
AcDbEntity
  8
1-2
  6
Continuous
 62
    92
370
     5
100
AcDbLine
 10
-899.4539003114442
 20
326.8135194520693
 30
0.0
 11
-899.4539003114442
 21
312.8134980072846
 31
0.0
  0
LINE
  5
460
330
1F
100
AcDbEntity
  8
1-2
  6
Continuous
 62
    92
370
     5
100
AcDbLine
 10
-919.2540349187077
 20
300.8135326488599
 30
0.0
 11
-919.2540349187077
 21
286.8135112040753
 31
0.0
  0
LINE
  5
461
330
1F
100
AcDbEntity
  8
1-2
  6
Continuous
 62
    92
370
     5
100
AcDbLine
 10
-909.3539676150759
 20
300.8135326488599
 30
0.0
 11
-909.3539676150759
 21
286.8135112040753
 31
0.0
  0
LINE
  5
462
330
1F
100
AcDbEntity
  8
1-2
  6
Continuous
 62
    92
370
     5
100
AcDbLine
 10
-899.4539003114442
 20
300.8135326488599
 30
0.0
 11
-899.4539003114442
 21
286.8135112040753
 31
0.0
  0
LINE
  5
463
330
1F
100
AcDbEntity
  8
1-2
  6
Continuous
 62
    92
370
     5
100
AcDbLine
 10
-919.2540349187077
 20
274.8135458456505
 30
0.0
 11
-919.2540349187077
 21
260.8135244008659
 31
0.0
  0
LINE
  5
464
330
1F
100
AcDbEntity
  8
1-2
  6
Continuous
 62
    92
370
     5
100
AcDbLine
 10
-909.3539676150759
 20
274.8135458456505
 30
0.0
 11
-909.3539676150759
 21
260.8135244008659
 31
0.0
  0
LINE
  5
465
330
1F
100
AcDbEntity
  8
1-2
  6
Continuous
 62
    92
370
     5
100
AcDbLine
 10
-899.4539003114442
 20
274.8135458456505
 30
0.0
 11
-899.4539003114442
 21
260.8135244008659
 31
0.0
  0
LINE
  5
466
330
1F
100
AcDbEntity
  8
1-2
  6
Continuous
 62
    92
370
     5
100
AcDbLine
 10
-919.2540349187077
 20
248.8135590424409
 30
0.0
 11
-919.2540349187077
 21
234.8135375976562
 31
0.0
  0
LINE
  5
467
330
1F
100
AcDbEntity
  8
1-2
  6
Continuous
 62
    92
370
     5
100
AcDbLine
 10
-909.3539676150759
 20
248.8135590424409
 30
0.0
 11
-909.3539676150759
 21
234.8135375976562
 31
0.0
  0
LINE
  5
468
330
1F
100
AcDbEntity
  8
1-2
  6
Continuous
 62
    92
370
     5
100
AcDbLine
 10
-899.4539003114442
 20
248.8135590424409
 30
0.0
 11
-899.4539003114442
 21
234.8135375976562
 31
0.0
  0
LINE
  5
469
330
1F
100
AcDbEntity
  8
1-2
  6
Continuous
 62
    92
370
     5
100
AcDbLine
 10
-919.2540349187077
 20
222.8135722392315
 30
0.0
 11
-919.2540349187077
 21
208.8135507944469
 31
0.0
  0
LINE
  5
46A
330
1F
100
AcDbEntity
  8
1-2
  6
Continuous
 62
    92
370
     5
100
AcDbLine
 10
-909.3539676150759
 20
222.8135722392315
 30
0.0
 11
-909.3539676150759
 21
208.8135507944469
 31
0.0
  0
LINE
  5
46B
330
1F
100
AcDbEntity
  8
1-2
  6
Continuous
 62
    92
370
     5
100
AcDbLine
 10
-899.4539003114442
 20
222.8135722392315
 30
0.0
 11
-899.4539003114442
 21
208.8135507944469
 31
0.0
  0
LINE
  5
46C
330
1F
100
AcDbEntity
  8
1-2
  6
Continuous
 62
    92
370
     5
100
AcDbLine
 10
-919.2540349187077
 20
196.8135854360222
 30
0.0
 11
-919.2540349187077
 21
182.8135639912375
 31
0.0
  0
LINE
  5
46D
330
1F
100
AcDbEntity
  8
1-2
  6
Continuous
 62
    92
370
     5
100
AcDbLine
 10
-909.3539676150759
 20
196.8135854360222
 30
0.0
 11
-909.3539676150759
 21
182.8135639912375
 31
0.0
  0
LINE
  5
46E
330
1F
100
AcDbEntity
  8
1-2
  6
Continuous
 62
    92
370
     5
100
AcDbLine
 10
-899.4539003114442
 20
196.8135854360222
 30
0.0
 11
-899.4539003114442
 21
182.8135639912375
 31
0.0
  0
LINE
  5
46F
330
1F
100
AcDbEntity
  8
1-2
  6
Continuous
 62
    92
370
     5
100
AcDbLine
 10
-919.2540349187077
 20
170.8135986328125
 30
0.0
 11
-919.2540349187077
 21
156.8135771880279
 31
0.0
  0
LINE
  5
470
330
1F
100
AcDbEntity
  8
1-2
  6
Continuous
 62
    92
370
     5
100
AcDbLine
 10
-909.3539676150759
 20
170.8135986328125
 30
0.0
 11
-909.3539676150759
 21
156.8135771880279
 31
0.0
  0
LINE
  5
471
330
1F
100
AcDbEntity
  8
1-2
  6
Continuous
 62
    92
370
     5
100
AcDbLine
 10
-899.4539003114442
 20
170.8135986328125
 30
0.0
 11
-899.4539003114442
 21
156.8135771880279
 31
0.0
  0
LINE
  5
472
330
1F
100
AcDbEntity
  8
1-2
  6
Continuous
 62
    92
370
     5
100
AcDbLine
 10
-919.2540349187077
 20
144.8136118296031
 30
0.0
 11
-919.2540349187077
 21
130.8135903848185
 31
0.0
  0
LINE
  5
473
330
1F
100
AcDbEntity
  8
1-2
  6
Continuous
 62
    92
370
     5
100
AcDbLine
 10
-909.3539676150759
 20
144.8136118296031
 30
0.0
 11
-909.3539676150759
 21
130.8135903848185
 31
0.0
  0
LINE
  5
474
330
1F
100
AcDbEntity
  8
1-2
  6
Continuous
 62
    92
370
     5
100
AcDbLine
 10
-899.4539003114442
 20
144.8136118296031
 30
0.0
 11
-899.4539003114442
 21
130.8135903848185
 31
0.0
  0
LINE
  5
475
330
1F
100
AcDbEntity
  8
1-2
  6
Continuous
 62
    92
370
     5
100
AcDbLine
 10
-919.2540349187077
 20
118.8136250263938
 30
0.0
 11
-919.2540349187077
 21
104.8134798616977
 31
0.0
  0
LINE
  5
476
330
1F
100
AcDbEntity
  8
1-2
  6
Continuous
 62
    92
370
     5
100
AcDbLine
 10
-909.3539676150759
 20
118.8136250263938
 30
0.0
 11
-909.3539676150759
 21
104.8134798616977
 31
0.0
  0
LINE
  5
477
330
1F
100
AcDbEntity
  8
1-2
  6
Continuous
 62
    92
370
     5
100
AcDbLine
 10
-899.4539003114442
 20
118.8136250263938
 30
0.0
 11
-899.4539003114442
 21
104.8134798616977
 31
0.0
  0
LINE
  5
478
330
1F
100
AcDbEntity
  8
1-2
  6
Continuous
 62
    92
370
     5
100
AcDbLine
 10
-919.2540349187077
 20
92.81363822318411
 30
0.0
 11
-919.2540349187077
 21
78.81349305848829
 31
0.0
  0
LINE
  5
479
330
1F
100
AcDbEntity
  8
1-2
  6
Continuous
 62
    92
370
     5
100
AcDbLine
 10
-909.3539676150759
 20
92.81363822318411
 30
0.0
 11
-909.3539676150759
 21
78.81349305848829
 31
0.0
  0
LINE
  5
47A
330
1F
100
AcDbEntity
  8
1-2
  6
Continuous
 62
    92
370
     5
100
AcDbLine
 10
-899.4539003114442
 20
92.81363822318411
 30
0.0
 11
-899.4539003114442
 21
78.81349305848829
 31
0.0
  0
LINE
  5
47B
330
1F
100
AcDbEntity
  8
1-2
  6
Continuous
 62
    92
370
     5
100
AcDbLine
 10
-919.2540349187077
 20
66.81340398015209
 30
0.0
 11
-919.2540349187077
 21
52.81350625527892
 31
0.0
  0
LINE
  5
47C
330
1F
100
AcDbEntity
  8
1-2
  6
Continuous
 62
    92
370
     5
100
AcDbLine
 10
-909.3539676150759
 20
66.81340398015209
 30
0.0
 11
-909.3539676150759
 21
52.81350625527892
 31
0.0
  0
LINE
  5
47D
330
1F
100
AcDbEntity
  8
1-2
  6
Continuous
 62
    92
370
     5
100
AcDbLine
 10
-899.4539003114442
 20
66.81340398015209
 30
0.0
 11
-899.4539003114442
 21
52.81350625527892
 31
0.0
  0
LINE
  5
47E
330
1F
100
AcDbEntity
  8
1-2
  6
Continuous
 62
    92
370
     5
100
AcDbLine
 10
-919.2540349187077
 20
40.81341717694272
 30
0.0
 11
-919.2540349187077
 21
26.81351945206927
 31
0.0
  0
LINE
  5
47F
330
1F
100
AcDbEntity
  8
1-2
  6
Continuous
 62
    92
370
     5
100
AcDbLine
 10
-909.3539676150759
 20
40.81341717694272
 30
0.0
 11
-909.3539676150759
 21
26.81351945206927
 31
0.0
  0
LINE
  5
480
330
1F
100
AcDbEntity
  8
1-2
  6
Continuous
 62
    92
370
     5
100
AcDbLine
 10
-899.4539003114442
 20
40.81341717694272
 30
0.0
 11
-899.4539003114442
 21
26.81351945206927
 31
0.0
  0
LINE
  5
481
330
1F
100
AcDbEntity
  8
1-2
  6
Continuous
 62
    92
370
     5
100
AcDbLine
 10
-919.2540349187077
 20
14.81343037373307
 30
0.0
 11
-919.2540349187077
 21
0.8135326488599048
 31
0.0
  0
LINE
  5
482
330
1F
100
AcDbEntity
  8
1-2
  6
Continuous
 62
    92
370
     5
100
AcDbLine
 10
-909.3539676150759
 20
14.81343037373307
 30
0.0
 11
-909.3539676150759
 21
0.8135326488599048
 31
0.0
  0
LINE
  5
483
330
1F
100
AcDbEntity
  8
1-2
  6
Continuous
 62
    92
370
     5
100
AcDbLine
 10
-899.4539003114442
 20
14.81343037373307
 30
0.0
 11
-899.4539003114442
 21
0.8135326488599048
 31
0.0
  0
LINE
  5
484
330
1F
100
AcDbEntity
  8
1-2
  6
Continuous
 62
    92
370
     5
100
AcDbLine
 10
-919.2540349187077
 20
-11.1865564294763
 30
0.0
 11
-919.2540349187077
 21
-25.18645415434946
 31
0.0
  0
LINE
  5
485
330
1F
100
AcDbEntity
  8
1-2
  6
Continuous
 62
    92
370
     5
100
AcDbLine
 10
-909.3539676150759
 20
-11.1865564294763
 30
0.0
 11
-909.3539676150759
 21
-25.18645415434946
 31
0.0
  0
LINE
  5
486
330
1F
100
AcDbEntity
  8
1-2
  6
Continuous
 62
    92
370
     5
100
AcDbLine
 10
-899.4539003114442
 20
-11.1865564294763
 30
0.0
 11
-899.4539003114442
 21
-25.18645415434946
 31
0.0
  0
LINE
  5
487
330
1F
100
AcDbEntity
  8
1-2
  6
Continuous
 62
    92
370
     5
100
AcDbLine
 10
-919.2540349187077
 20
-37.18654323268566
 30
0.0
 11
-919.2540349187077
 21
-51.18644095755911
 31
0.0
  0
LINE
  5
488
330
1F
100
AcDbEntity
  8
1-2
  6
Continuous
 62
    92
370
     5
100
AcDbLine
 10
-909.3539676150759
 20
-37.18654323268566
 30
0.0
 11
-909.3539676150759
 21
-51.18644095755911
 31
0.0
  0
LINE
  5
489
330
1F
100
AcDbEntity
  8
1-2
  6
Continuous
 62
    92
370
     5
100
AcDbLine
 10
-899.4539003114442
 20
-37.18654323268566
 30
0.0
 11
-899.4539003114442
 21
-51.18644095755911
 31
0.0
  0
LINE
  5
48A
330
1F
100
AcDbEntity
  8
1-2
  6
Continuous
 62
    92
370
     5
100
AcDbLine
 10
-651.253942541174
 20
1084.813743797508
 30
0.0
 11
-651.253942541174
 21
1070.813846072635
 31
0.0
  0
LINE
  5
48B
330
1F
100
AcDbEntity
  8
1-2
  6
Continuous
 62
    92
370
     5
100
AcDbLine
 10
-641.3538752375422
 20
1084.813743797508
 30
0.0
 11
-641.3538752375422
 21
1070.813846072635
 31
0.0
  0
LINE
  5
48C
330
1F
100
AcDbEntity
  8
1-2
  6
Continuous
 62
    92
370
     5
100
AcDbLine
 10
-651.253942541174
 20
1058.813756994299
 30
0.0
 11
-651.253942541174
 21
1044.813859269426
 31
0.0
  0
LINE
  5
48D
330
1F
100
AcDbEntity
  8
1-2
  6
Continuous
 62
    92
370
     5
100
AcDbLine
 10
-641.3538752375422
 20
1058.813756994299
 30
0.0
 11
-641.3538752375422
 21
1044.813859269426
 31
0.0
  0
LINE
  5
48E
330
1F
100
AcDbEntity
  8
1-2
  6
Continuous
 62
    92
370
     5
100
AcDbLine
 10
-651.253942541174
 20
1032.81377019109
 30
0.0
 11
-651.253942541174
 21
1018.813872466216
 31
0.0
  0
LINE
  5
48F
330
1F
100
AcDbEntity
  8
1-2
  6
Continuous
 62
    92
370
     5
100
AcDbLine
 10
-641.3538752375422
 20
1032.81377019109
 30
0.0
 11
-641.3538752375422
 21
1018.813872466216
 31
0.0
  0
LINE
  5
490
330
1F
100
AcDbEntity
  8
1-2
  6
Continuous
 62
    92
370
     5
100
AcDbLine
 10
-631.4538079339104
 20
1032.81377019109
 30
0.0
 11
-631.4538079339104
 21
1018.813872466216
 31
0.0
  0
LINE
  5
491
330
1F
100
AcDbEntity
  8
1-2
  6
Continuous
 62
    92
370
     5
100
AcDbLine
 10
-651.253942541174
 20
1006.81378338788
 30
0.0
 11
-651.253942541174
 21
992.8138856630068
 31
0.0
  0
LINE
  5
492
330
1F
100
AcDbEntity
  8
1-2
  6
Continuous
 62
    92
370
     5
100
AcDbLine
 10
-641.3538752375422
 20
1006.81378338788
 30
0.0
 11
-641.3538752375422
 21
992.8138856630068
 31
0.0
  0
LINE
  5
493
330
1F
100
AcDbEntity
  8
1-2
  6
Continuous
 62
    92
370
     5
100
AcDbLine
 10
-631.4538079339104
 20
1006.81378338788
 30
0.0
 11
-631.4538079339104
 21
992.8138856630068
 31
0.0
  0
LINE
  5
494
330
1F
100
AcDbEntity
  8
1-2
  6
Continuous
 62
    92
370
     5
100
AcDbLine
 10
-651.253942541174
 20
980.8137965846709
 30
0.0
 11
-651.253942541174
 21
966.8138988597974
 31
0.0
  0
LINE
  5
495
330
1F
100
AcDbEntity
  8
1-2
  6
Continuous
 62
    92
370
     5
100
AcDbLine
 10
-631.4538079339104
 20
980.8137965846709
 30
0.0
 11
-631.4538079339104
 21
966.8138988597974
 31
0.0
  0
LINE
  5
496
330
1F
100
AcDbEntity
  8
1-2
  6
Continuous
 62
    92
370
     5
100
AcDbLine
 10
-641.3538752375422
 20
980.8137965846709
 30
0.0
 11
-641.3538752375422
 21
966.8138988597974
 31
0.0
  0
LINE
  5
497
330
1F
100
AcDbEntity
  8
1-2
  6
Continuous
 62
    92
370
     5
100
AcDbLine
 10
-651.253942541174
 20
954.8138097814613
 30
0.0
 11
-651.253942541174
 21
940.8136646167654
 31
0.0
  0
LINE
  5
498
330
1F
100
AcDbEntity
  8
1-2
  6
Continuous
 62
    92
370
     5
100
AcDbLine
 10
-641.3538752375422
 20
954.8138097814613
 30
0.0
 11
-641.3538752375422
 21
940.8136646167654
 31
0.0
  0
LINE
  5
499
330
1F
100
AcDbEntity
  8
1-2
  6
Continuous
 62
    92
370
     5
100
AcDbLine
 10
-631.4538079339104
 20
954.8138097814613
 30
0.0
 11
-631.4538079339104
 21
940.8136646167654
 31
0.0
  0
LINE
  5
49A
330
1F
100
AcDbEntity
  8
1-2
  6
Continuous
 62
    92
370
     5
100
AcDbLine
 10
-651.253942541174
 20
928.8138229782519
 30
0.0
 11
-651.253942541174
 21
914.8136778135561
 31
0.0
  0
LINE
  5
49B
330
1F
100
AcDbEntity
  8
1-2
  6
Continuous
 62
    92
370
     5
100
AcDbLine
 10
-641.3538752375422
 20
928.8138229782519
 30
0.0
 11
-641.3538752375422
 21
914.8136778135561
 31
0.0
  0
LINE
  5
49C
330
1F
100
AcDbEntity
  8
1-2
  6
Continuous
 62
    92
370
     5
100
AcDbLine
 10
-631.4538079339104
 20
928.8138229782519
 30
0.0
 11
-631.4538079339104
 21
914.8136778135561
 31
0.0
  0
LINE
  5
49D
330
1F
100
AcDbEntity
  8
1-2
  6
Continuous
 62
    92
370
     5
100
AcDbLine
 10
-651.253942541174
 20
902.8135887352198
 30
0.0
 11
-651.253942541174
 21
888.8136910103464
 31
0.0
  0
LINE
  5
49E
330
1F
100
AcDbEntity
  8
1-2
  6
Continuous
 62
    92
370
     5
100
AcDbLine
 10
-641.3538752375422
 20
902.8135887352198
 30
0.0
 11
-641.3538752375422
 21
888.8136910103464
 31
0.0
  0
LINE
  5
49F
330
1F
100
AcDbEntity
  8
1-2
  6
Continuous
 62
    92
370
     5
100
AcDbLine
 10
-631.4538079339104
 20
902.8135887352198
 30
0.0
 11
-631.4538079339104
 21
888.8136910103464
 31
0.0
  0
LINE
  5
4A0
330
1F
100
AcDbEntity
  8
1-2
  6
Continuous
 62
    92
370
     5
100
AcDbLine
 10
-651.253942541174
 20
876.8136019320102
 30
0.0
 11
-651.253942541174
 21
862.813704207137
 31
0.0
  0
LINE
  5
4A1
330
1F
100
AcDbEntity
  8
1-2
  6
Continuous
 62
    92
370
     5
100
AcDbLine
 10
-641.3538752375422
 20
876.8136019320102
 30
0.0
 11
-641.3538752375422
 21
862.813704207137
 31
0.0
  0
LINE
  5
4A2
330
1F
100
AcDbEntity
  8
1-2
  6
Continuous
 62
    92
370
     5
100
AcDbLine
 10
-631.4538079339104
 20
876.8136019320102
 30
0.0
 11
-631.4538079339104
 21
862.813704207137
 31
0.0
  0
LINE
  5
4A3
330
1F
100
AcDbEntity
  8
1-2
  6
Continuous
 62
    92
370
     5
100
AcDbLine
 10
-651.253942541174
 20
850.8136151288008
 30
0.0
 11
-651.253942541174
 21
836.8137174039276
 31
0.0
  0
LINE
  5
4A4
330
1F
100
AcDbEntity
  8
1-2
  6
Continuous
 62
    92
370
     5
100
AcDbLine
 10
-641.3538752375422
 20
850.8136151288008
 30
0.0
 11
-641.3538752375422
 21
836.8137174039276
 31
0.0
  0
LINE
  5
4A5
330
1F
100
AcDbEntity
  8
1-2
  6
Continuous
 62
    92
370
     5
100
AcDbLine
 10
-631.4538079339104
 20
850.8136151288008
 30
0.0
 11
-631.4538079339104
 21
836.8137174039276
 31
0.0
  0
LINE
  5
4A6
330
1F
100
AcDbEntity
  8
1-2
  6
Continuous
 62
    92
370
     5
100
AcDbLine
 10
-631.4538079339104
 20
1084.813743797508
 30
0.0
 11
-631.4538079339104
 21
1070.813846072635
 31
0.0
  0
LINE
  5
4A7
330
1F
100
AcDbEntity
  8
1-2
  6
Continuous
 62
    92
370
     5
100
AcDbLine
 10
-631.4538079339104
 20
1058.813756994299
 30
0.0
 11
-631.4538079339104
 21
1044.813859269426
 31
0.0
  0
LINE
  5
4A8
330
1F
100
AcDbEntity
  8
1-2
  6
Continuous
 62
    92
370
     5
100
AcDbLine
 10
-651.253942541174
 20
352.8135062552789
 30
0.0
 11
-651.253942541174
 21
338.8133610905828
 31
0.0
  0
LINE
  5
4A9
330
1F
100
AcDbEntity
  8
1-2
  6
Continuous
 62
    92
370
     5
100
AcDbLine
 10
-641.3538752375422
 20
352.8135062552789
 30
0.0
 11
-641.3538752375422
 21
338.8133610905828
 31
0.0
  0
LINE
  5
4AA
330
1F
100
AcDbEntity
  8
1-2
  6
Continuous
 62
    92
370
     5
100
AcDbLine
 10
-631.4538079339104
 20
352.8135062552789
 30
0.0
 11
-631.4538079339104
 21
338.8133610905828
 31
0.0
  0
LINE
  5
4AB
330
1F
100
AcDbEntity
  8
1-2
  6
Continuous
 62
    92
370
     5
100
AcDbLine
 10
-651.253942541174
 20
326.8135194520693
 30
0.0
 11
-651.253942541174
 21
312.8134980072846
 31
0.0
  0
LINE
  5
4AC
330
1F
100
AcDbEntity
  8
1-2
  6
Continuous
 62
    92
370
     5
100
AcDbLine
 10
-641.3538752375422
 20
326.8135194520693
 30
0.0
 11
-641.3538752375422
 21
312.8134980072846
 31
0.0
  0
LINE
  5
4AD
330
1F
100
AcDbEntity
  8
1-2
  6
Continuous
 62
    92
370
     5
100
AcDbLine
 10
-631.4538079339104
 20
326.8135194520693
 30
0.0
 11
-631.4538079339104
 21
312.8134980072846
 31
0.0
  0
LINE
  5
4AE
330
1F
100
AcDbEntity
  8
1-2
  6
Continuous
 62
    92
370
     5
100
AcDbLine
 10
-651.253942541174
 20
300.8135326488599
 30
0.0
 11
-651.253942541174
 21
286.8135112040753
 31
0.0
  0
LINE
  5
4AF
330
1F
100
AcDbEntity
  8
1-2
  6
Continuous
 62
    92
370
     5
100
AcDbLine
 10
-641.3538752375422
 20
300.8135326488599
 30
0.0
 11
-641.3538752375422
 21
286.8135112040753
 31
0.0
  0
LINE
  5
4B0
330
1F
100
AcDbEntity
  8
1-2
  6
Continuous
 62
    92
370
     5
100
AcDbLine
 10
-631.4538079339104
 20
300.8135326488599
 30
0.0
 11
-631.4538079339104
 21
286.8135112040753
 31
0.0
  0
LINE
  5
4B1
330
1F
100
AcDbEntity
  8
1-2
  6
Continuous
 62
    92
370
     5
100
AcDbLine
 10
-651.253942541174
 20
274.8135458456505
 30
0.0
 11
-651.253942541174
 21
260.8135244008659
 31
0.0
  0
LINE
  5
4B2
330
1F
100
AcDbEntity
  8
1-2
  6
Continuous
 62
    92
370
     5
100
AcDbLine
 10
-641.3538752375422
 20
274.8135458456505
 30
0.0
 11
-641.3538752375422
 21
260.8135244008659
 31
0.0
  0
LINE
  5
4B3
330
1F
100
AcDbEntity
  8
1-2
  6
Continuous
 62
    92
370
     5
100
AcDbLine
 10
-631.4538079339104
 20
274.8135458456505
 30
0.0
 11
-631.4538079339104
 21
260.8135244008659
 31
0.0
  0
LINE
  5
4B4
330
1F
100
AcDbEntity
  8
1-2
  6
Continuous
 62
    92
370
     5
100
AcDbLine
 10
-651.253942541174
 20
248.8135590424409
 30
0.0
 11
-651.253942541174
 21
234.8135375976562
 31
0.0
  0
LINE
  5
4B5
330
1F
100
AcDbEntity
  8
1-2
  6
Continuous
 62
    92
370
     5
100
AcDbLine
 10
-641.3538752375422
 20
248.8135590424409
 30
0.0
 11
-641.3538752375422
 21
234.8135375976562
 31
0.0
  0
LINE
  5
4B6
330
1F
100
AcDbEntity
  8
1-2
  6
Continuous
 62
    92
370
     5
100
AcDbLine
 10
-631.4538079339104
 20
248.8135590424409
 30
0.0
 11
-631.4538079339104
 21
234.8135375976562
 31
0.0
  0
LINE
  5
4B7
330
1F
100
AcDbEntity
  8
1-2
  6
Continuous
 62
    92
370
     5
100
AcDbLine
 10
-651.253942541174
 20
222.8135722392315
 30
0.0
 11
-651.253942541174
 21
208.8135507944469
 31
0.0
  0
LINE
  5
4B8
330
1F
100
AcDbEntity
  8
1-2
  6
Continuous
 62
    92
370
     5
100
AcDbLine
 10
-641.3538752375422
 20
222.8135722392315
 30
0.0
 11
-641.3538752375422
 21
208.8135507944469
 31
0.0
  0
LINE
  5
4B9
330
1F
100
AcDbEntity
  8
1-2
  6
Continuous
 62
    92
370
     5
100
AcDbLine
 10
-631.4538079339104
 20
222.8135722392315
 30
0.0
 11
-631.4538079339104
 21
208.8135507944469
 31
0.0
  0
LINE
  5
4BA
330
1F
100
AcDbEntity
  8
1-2
  6
Continuous
 62
    92
370
     5
100
AcDbLine
 10
-651.253942541174
 20
196.8135854360222
 30
0.0
 11
-651.253942541174
 21
182.8135639912375
 31
0.0
  0
LINE
  5
4BB
330
1F
100
AcDbEntity
  8
1-2
  6
Continuous
 62
    92
370
     5
100
AcDbLine
 10
-641.3538752375422
 20
196.8135854360222
 30
0.0
 11
-641.3538752375422
 21
182.8135639912375
 31
0.0
  0
LINE
  5
4BC
330
1F
100
AcDbEntity
  8
1-2
  6
Continuous
 62
    92
370
     5
100
AcDbLine
 10
-631.4538079339104
 20
196.8135854360222
 30
0.0
 11
-631.4538079339104
 21
182.8135639912375
 31
0.0
  0
LINE
  5
4BD
330
1F
100
AcDbEntity
  8
1-2
  6
Continuous
 62
    92
370
     5
100
AcDbLine
 10
-651.253942541174
 20
170.8135986328125
 30
0.0
 11
-651.253942541174
 21
156.8135771880279
 31
0.0
  0
LINE
  5
4BE
330
1F
100
AcDbEntity
  8
1-2
  6
Continuous
 62
    92
370
     5
100
AcDbLine
 10
-641.3538752375422
 20
170.8135986328125
 30
0.0
 11
-641.3538752375422
 21
156.8135771880279
 31
0.0
  0
LINE
  5
4BF
330
1F
100
AcDbEntity
  8
1-2
  6
Continuous
 62
    92
370
     5
100
AcDbLine
 10
-631.4538079339104
 20
170.8135986328125
 30
0.0
 11
-631.4538079339104
 21
156.8135771880279
 31
0.0
  0
LINE
  5
4C0
330
1F
100
AcDbEntity
  8
1-2
  6
Continuous
 62
    92
370
     5
100
AcDbLine
 10
-651.253942541174
 20
144.8136118296031
 30
0.0
 11
-651.253942541174
 21
130.8135903848185
 31
0.0
  0
LINE
  5
4C1
330
1F
100
AcDbEntity
  8
1-2
  6
Continuous
 62
    92
370
     5
100
AcDbLine
 10
-641.3538752375422
 20
144.8136118296031
 30
0.0
 11
-641.3538752375422
 21
130.8135903848185
 31
0.0
  0
LINE
  5
4C2
330
1F
100
AcDbEntity
  8
1-2
  6
Continuous
 62
    92
370
     5
100
AcDbLine
 10
-631.4538079339104
 20
144.8136118296031
 30
0.0
 11
-631.4538079339104
 21
130.8135903848185
 31
0.0
  0
LINE
  5
4C3
330
1F
100
AcDbEntity
  8
1-2
  6
Continuous
 62
    92
370
     5
100
AcDbLine
 10
-651.253942541174
 20
118.8136250263938
 30
0.0
 11
-651.253942541174
 21
104.8134798616977
 31
0.0
  0
LINE
  5
4C4
330
1F
100
AcDbEntity
  8
1-2
  6
Continuous
 62
    92
370
     5
100
AcDbLine
 10
-641.3538752375422
 20
118.8136250263938
 30
0.0
 11
-641.3538752375422
 21
104.8134798616977
 31
0.0
  0
LINE
  5
4C5
330
1F
100
AcDbEntity
  8
1-2
  6
Continuous
 62
    92
370
     5
100
AcDbLine
 10
-631.4538079339104
 20
118.8136250263938
 30
0.0
 11
-631.4538079339104
 21
104.8134798616977
 31
0.0
  0
LINE
  5
4C6
330
1F
100
AcDbEntity
  8
1-2
  6
Continuous
 62
    92
370
     5
100
AcDbLine
 10
-651.253942541174
 20
92.81363822318411
 30
0.0
 11
-651.253942541174
 21
78.81349305848829
 31
0.0
  0
LINE
  5
4C7
330
1F
100
AcDbEntity
  8
1-2
  6
Continuous
 62
    92
370
     5
100
AcDbLine
 10
-641.3538752375422
 20
92.81363822318411
 30
0.0
 11
-641.3538752375422
 21
78.81349305848829
 31
0.0
  0
LINE
  5
4C8
330
1F
100
AcDbEntity
  8
1-2
  6
Continuous
 62
    92
370
     5
100
AcDbLine
 10
-631.4538079339104
 20
92.81363822318411
 30
0.0
 11
-631.4538079339104
 21
78.81349305848829
 31
0.0
  0
LINE
  5
4C9
330
1F
100
AcDbEntity
  8
1-2
  6
Continuous
 62
    92
370
     5
100
AcDbLine
 10
-651.253942541174
 20
66.81340398015209
 30
0.0
 11
-651.253942541174
 21
52.81350625527892
 31
0.0
  0
LINE
  5
4CA
330
1F
100
AcDbEntity
  8
1-2
  6
Continuous
 62
    92
370
     5
100
AcDbLine
 10
-641.3538752375422
 20
66.81340398015209
 30
0.0
 11
-641.3538752375422
 21
52.81350625527892
 31
0.0
  0
LINE
  5
4CB
330
1F
100
AcDbEntity
  8
1-2
  6
Continuous
 62
    92
370
     5
100
AcDbLine
 10
-631.4538079339104
 20
66.81340398015209
 30
0.0
 11
-631.4538079339104
 21
52.81350625527892
 31
0.0
  0
LINE
  5
4CC
330
1F
100
AcDbEntity
  8
1-2
  6
Continuous
 62
    92
370
     5
100
AcDbLine
 10
-651.253942541174
 20
40.81341717694272
 30
0.0
 11
-651.253942541174
 21
26.81351945206927
 31
0.0
  0
LINE
  5
4CD
330
1F
100
AcDbEntity
  8
1-2
  6
Continuous
 62
    92
370
     5
100
AcDbLine
 10
-641.3538752375422
 20
40.81341717694272
 30
0.0
 11
-641.3538752375422
 21
26.81351945206927
 31
0.0
  0
LINE
  5
4CE
330
1F
100
AcDbEntity
  8
1-2
  6
Continuous
 62
    92
370
     5
100
AcDbLine
 10
-631.4538079339104
 20
40.81341717694272
 30
0.0
 11
-631.4538079339104
 21
26.81351945206927
 31
0.0
  0
LINE
  5
4CF
330
1F
100
AcDbEntity
  8
1-2
  6
Continuous
 62
    92
370
     5
100
AcDbLine
 10
-651.253942541174
 20
14.81343037373307
 30
0.0
 11
-651.253942541174
 21
0.8135326488599048
 31
0.0
  0
LINE
  5
4D0
330
1F
100
AcDbEntity
  8
1-2
  6
Continuous
 62
    92
370
     5
100
AcDbLine
 10
-641.3538752375422
 20
14.81343037373307
 30
0.0
 11
-641.3538752375422
 21
0.8135326488599048
 31
0.0
  0
LINE
  5
4D1
330
1F
100
AcDbEntity
  8
1-2
  6
Continuous
 62
    92
370
     5
100
AcDbLine
 10
-631.4538079339104
 20
14.81343037373307
 30
0.0
 11
-631.4538079339104
 21
0.8135326488599048
 31
0.0
  0
LINE
  5
4D2
330
1F
100
AcDbEntity
  8
1-2
  6
Continuous
 62
    92
370
     5
100
AcDbLine
 10
-651.253942541174
 20
-11.1865564294763
 30
0.0
 11
-651.253942541174
 21
-25.18645415434946
 31
0.0
  0
LINE
  5
4D3
330
1F
100
AcDbEntity
  8
1-2
  6
Continuous
 62
    92
370
     5
100
AcDbLine
 10
-641.3538752375422
 20
-11.1865564294763
 30
0.0
 11
-641.3538752375422
 21
-25.18645415434946
 31
0.0
  0
LINE
  5
4D4
330
1F
100
AcDbEntity
  8
1-2
  6
Continuous
 62
    92
370
     5
100
AcDbLine
 10
-631.4538079339104
 20
-11.1865564294763
 30
0.0
 11
-631.4538079339104
 21
-25.18645415434946
 31
0.0
  0
LINE
  5
4D5
330
1F
100
AcDbEntity
  8
1-2
  6
Continuous
 62
    92
370
     5
100
AcDbLine
 10
-651.253942541174
 20
-37.18654323268566
 30
0.0
 11
-651.253942541174
 21
-51.18644095755911
 31
0.0
  0
LINE
  5
4D6
330
1F
100
AcDbEntity
  8
1-2
  6
Continuous
 62
    92
370
     5
100
AcDbLine
 10
-641.3538752375422
 20
-37.18654323268566
 30
0.0
 11
-641.3538752375422
 21
-51.18644095755911
 31
0.0
  0
LINE
  5
4D7
330
1F
100
AcDbEntity
  8
1-2
  6
Continuous
 62
    92
370
     5
100
AcDbLine
 10
-631.4538079339104
 20
-37.18654323268566
 30
0.0
 11
-631.4538079339104
 21
-51.18644095755911
 31
0.0
  0
LINE
  5
4D8
330
1F
100
AcDbEntity
  8
1-2
  6
Continuous
 62
    92
370
     5
100
AcDbLine
 10
-311.2540580130911
 20
1084.813743797508
 30
0.0
 11
-311.2540580130911
 21
1070.813846072635
 31
0.0
  0
LINE
  5
4D9
330
1F
100
AcDbEntity
  8
1-2
  6
Continuous
 62
    92
370
     5
100
AcDbLine
 10
-301.3539907094594
 20
1084.813743797508
 30
0.0
 11
-301.3539907094594
 21
1070.813846072635
 31
0.0
  0
LINE
  5
4DA
330
1F
100
AcDbEntity
  8
1-2
  6
Continuous
 62
    92
370
     5
100
AcDbLine
 10
-311.2540580130911
 20
1058.813756994299
 30
0.0
 11
-311.2540580130911
 21
1044.813859269426
 31
0.0
  0
LINE
  5
4DB
330
1F
100
AcDbEntity
  8
1-2
  6
Continuous
 62
    92
370
     5
100
AcDbLine
 10
-301.3539907094594
 20
1058.813756994299
 30
0.0
 11
-301.3539907094594
 21
1044.813859269426
 31
0.0
  0
LINE
  5
4DC
330
1F
100
AcDbEntity
  8
1-2
  6
Continuous
 62
    92
370
     5
100
AcDbLine
 10
-311.2540580130911
 20
1032.81377019109
 30
0.0
 11
-311.2540580130911
 21
1018.813872466216
 31
0.0
  0
LINE
  5
4DD
330
1F
100
AcDbEntity
  8
1-2
  6
Continuous
 62
    92
370
     5
100
AcDbLine
 10
-301.3539907094594
 20
1032.81377019109
 30
0.0
 11
-301.3539907094594
 21
1018.813872466216
 31
0.0
  0
LINE
  5
4DE
330
1F
100
AcDbEntity
  8
1-2
  6
Continuous
 62
    92
370
     5
100
AcDbLine
 10
-291.4539234058276
 20
1032.81377019109
 30
0.0
 11
-291.4539234058276
 21
1018.813872466216
 31
0.0
  0
LINE
  5
4DF
330
1F
100
AcDbEntity
  8
1-2
  6
Continuous
 62
    92
370
     5
100
AcDbLine
 10
-311.2540580130911
 20
1006.81378338788
 30
0.0
 11
-311.2540580130911
 21
992.8138856630068
 31
0.0
  0
LINE
  5
4E0
330
1F
100
AcDbEntity
  8
1-2
  6
Continuous
 62
    92
370
     5
100
AcDbLine
 10
-301.3539907094594
 20
1006.81378338788
 30
0.0
 11
-301.3539907094594
 21
992.8138856630068
 31
0.0
  0
LINE
  5
4E1
330
1F
100
AcDbEntity
  8
1-2
  6
Continuous
 62
    92
370
     5
100
AcDbLine
 10
-291.4539234058276
 20
1006.81378338788
 30
0.0
 11
-291.4539234058276
 21
992.8138856630068
 31
0.0
  0
LINE
  5
4E2
330
1F
100
AcDbEntity
  8
1-2
  6
Continuous
 62
    92
370
     5
100
AcDbLine
 10
-311.2540580130911
 20
980.8137965846709
 30
0.0
 11
-311.2540580130911
 21
966.8138988597974
 31
0.0
  0
LINE
  5
4E3
330
1F
100
AcDbEntity
  8
1-2
  6
Continuous
 62
    92
370
     5
100
AcDbLine
 10
-291.4539234058276
 20
980.8137965846709
 30
0.0
 11
-291.4539234058276
 21
966.8138988597974
 31
0.0
  0
LINE
  5
4E4
330
1F
100
AcDbEntity
  8
1-2
  6
Continuous
 62
    92
370
     5
100
AcDbLine
 10
-301.3539907094594
 20
980.8137965846709
 30
0.0
 11
-301.3539907094594
 21
966.8138988597974
 31
0.0
  0
LINE
  5
4E5
330
1F
100
AcDbEntity
  8
1-2
  6
Continuous
 62
    92
370
     5
100
AcDbLine
 10
-311.2540580130911
 20
954.8138097814613
 30
0.0
 11
-311.2540580130911
 21
940.8136646167654
 31
0.0
  0
LINE
  5
4E6
330
1F
100
AcDbEntity
  8
1-2
  6
Continuous
 62
    92
370
     5
100
AcDbLine
 10
-301.3539907094594
 20
954.8138097814613
 30
0.0
 11
-301.3539907094594
 21
940.8136646167654
 31
0.0
  0
LINE
  5
4E7
330
1F
100
AcDbEntity
  8
1-2
  6
Continuous
 62
    92
370
     5
100
AcDbLine
 10
-291.4539234058276
 20
954.8138097814613
 30
0.0
 11
-291.4539234058276
 21
940.8136646167654
 31
0.0
  0
LINE
  5
4E8
330
1F
100
AcDbEntity
  8
1-2
  6
Continuous
 62
    92
370
     5
100
AcDbLine
 10
-311.2540580130911
 20
928.8138229782519
 30
0.0
 11
-311.2540580130911
 21
914.8136778135561
 31
0.0
  0
LINE
  5
4E9
330
1F
100
AcDbEntity
  8
1-2
  6
Continuous
 62
    92
370
     5
100
AcDbLine
 10
-301.3539907094594
 20
928.8138229782519
 30
0.0
 11
-301.3539907094594
 21
914.8136778135561
 31
0.0
  0
LINE
  5
4EA
330
1F
100
AcDbEntity
  8
1-2
  6
Continuous
 62
    92
370
     5
100
AcDbLine
 10
-291.4539234058276
 20
928.8138229782519
 30
0.0
 11
-291.4539234058276
 21
914.8136778135561
 31
0.0
  0
LINE
  5
4EB
330
1F
100
AcDbEntity
  8
1-2
  6
Continuous
 62
    92
370
     5
100
AcDbLine
 10
-311.2540580130911
 20
902.8135887352198
 30
0.0
 11
-311.2540580130911
 21
888.8136910103464
 31
0.0
  0
LINE
  5
4EC
330
1F
100
AcDbEntity
  8
1-2
  6
Continuous
 62
    92
370
     5
100
AcDbLine
 10
-301.3539907094594
 20
902.8135887352198
 30
0.0
 11
-301.3539907094594
 21
888.8136910103464
 31
0.0
  0
LINE
  5
4ED
330
1F
100
AcDbEntity
  8
1-2
  6
Continuous
 62
    92
370
     5
100
AcDbLine
 10
-291.4539234058276
 20
902.8135887352198
 30
0.0
 11
-291.4539234058276
 21
888.8136910103464
 31
0.0
  0
LINE
  5
4EE
330
1F
100
AcDbEntity
  8
1-2
  6
Continuous
 62
    92
370
     5
100
AcDbLine
 10
-311.2540580130911
 20
876.8136019320102
 30
0.0
 11
-311.2540580130911
 21
862.813704207137
 31
0.0
  0
LINE
  5
4EF
330
1F
100
AcDbEntity
  8
1-2
  6
Continuous
 62
    92
370
     5
100
AcDbLine
 10
-301.3539907094594
 20
876.8136019320102
 30
0.0
 11
-301.3539907094594
 21
862.813704207137
 31
0.0
  0
LINE
  5
4F0
330
1F
100
AcDbEntity
  8
1-2
  6
Continuous
 62
    92
370
     5
100
AcDbLine
 10
-291.4539234058276
 20
876.8136019320102
 30
0.0
 11
-291.4539234058276
 21
862.813704207137
 31
0.0
  0
LINE
  5
4F1
330
1F
100
AcDbEntity
  8
1-2
  6
Continuous
 62
    92
370
     5
100
AcDbLine
 10
-291.4539234058276
 20
1084.813743797508
 30
0.0
 11
-291.4539234058276
 21
1070.813846072635
 31
0.0
  0
LINE
  5
4F2
330
1F
100
AcDbEntity
  8
1-2
  6
Continuous
 62
    92
370
     5
100
AcDbLine
 10
-291.4539234058276
 20
1058.813756994299
 30
0.0
 11
-291.4539234058276
 21
1044.813859269426
 31
0.0
  0
LINE
  5
4F3
330
1F
100
AcDbEntity
  8
1-2
  6
Continuous
 62
    92
370
     5
100
AcDbLine
 10
-311.2540580130911
 20
352.8135062552789
 30
0.0
 11
-311.2540580130911
 21
338.8133610905828
 31
0.0
  0
LINE
  5
4F4
330
1F
100
AcDbEntity
  8
1-2
  6
Continuous
 62
    92
370
     5
100
AcDbLine
 10
-301.3539907094594
 20
352.8135062552789
 30
0.0
 11
-301.3539907094594
 21
338.8133610905828
 31
0.0
  0
LINE
  5
4F5
330
1F
100
AcDbEntity
  8
1-2
  6
Continuous
 62
    92
370
     5
100
AcDbLine
 10
-291.4539234058276
 20
352.8135062552789
 30
0.0
 11
-291.4539234058276
 21
338.8133610905828
 31
0.0
  0
LINE
  5
4F6
330
1F
100
AcDbEntity
  8
1-2
  6
Continuous
 62
    92
370
     5
100
AcDbLine
 10
-311.2540580130911
 20
326.8135194520693
 30
0.0
 11
-311.2540580130911
 21
312.8134980072846
 31
0.0
  0
LINE
  5
4F7
330
1F
100
AcDbEntity
  8
1-2
  6
Continuous
 62
    92
370
     5
100
AcDbLine
 10
-301.3539907094594
 20
326.8135194520693
 30
0.0
 11
-301.3539907094594
 21
312.8134980072846
 31
0.0
  0
LINE
  5
4F8
330
1F
100
AcDbEntity
  8
1-2
  6
Continuous
 62
    92
370
     5
100
AcDbLine
 10
-291.4539234058276
 20
326.8135194520693
 30
0.0
 11
-291.4539234058276
 21
312.8134980072846
 31
0.0
  0
LINE
  5
4F9
330
1F
100
AcDbEntity
  8
1-2
  6
Continuous
 62
    92
370
     5
100
AcDbLine
 10
-311.2540580130911
 20
300.8135326488599
 30
0.0
 11
-311.2540580130911
 21
286.8135112040753
 31
0.0
  0
LINE
  5
4FA
330
1F
100
AcDbEntity
  8
1-2
  6
Continuous
 62
    92
370
     5
100
AcDbLine
 10
-301.3539907094594
 20
300.8135326488599
 30
0.0
 11
-301.3539907094594
 21
286.8135112040753
 31
0.0
  0
LINE
  5
4FB
330
1F
100
AcDbEntity
  8
1-2
  6
Continuous
 62
    92
370
     5
100
AcDbLine
 10
-291.4539234058276
 20
300.8135326488599
 30
0.0
 11
-291.4539234058276
 21
286.8135112040753
 31
0.0
  0
LINE
  5
4FC
330
1F
100
AcDbEntity
  8
1-2
  6
Continuous
 62
    92
370
     5
100
AcDbLine
 10
-311.2540580130911
 20
274.8135458456505
 30
0.0
 11
-311.2540580130911
 21
260.8135244008659
 31
0.0
  0
LINE
  5
4FD
330
1F
100
AcDbEntity
  8
1-2
  6
Continuous
 62
    92
370
     5
100
AcDbLine
 10
-301.3539907094594
 20
274.8135458456505
 30
0.0
 11
-301.3539907094594
 21
260.8135244008659
 31
0.0
  0
LINE
  5
4FE
330
1F
100
AcDbEntity
  8
1-2
  6
Continuous
 62
    92
370
     5
100
AcDbLine
 10
-291.4539234058276
 20
274.8135458456505
 30
0.0
 11
-291.4539234058276
 21
260.8135244008659
 31
0.0
  0
LINE
  5
4FF
330
1F
100
AcDbEntity
  8
1-2
  6
Continuous
 62
    92
370
     5
100
AcDbLine
 10
-311.2540580130911
 20
248.8135590424409
 30
0.0
 11
-311.2540580130911
 21
234.8135375976562
 31
0.0
  0
LINE
  5
500
330
1F
100
AcDbEntity
  8
1-2
  6
Continuous
 62
    92
370
     5
100
AcDbLine
 10
-301.3539907094594
 20
248.8135590424409
 30
0.0
 11
-301.3539907094594
 21
234.8135375976562
 31
0.0
  0
LINE
  5
501
330
1F
100
AcDbEntity
  8
1-2
  6
Continuous
 62
    92
370
     5
100
AcDbLine
 10
-291.4539234058276
 20
248.8135590424409
 30
0.0
 11
-291.4539234058276
 21
234.8135375976562
 31
0.0
  0
LINE
  5
502
330
1F
100
AcDbEntity
  8
1-2
  6
Continuous
 62
    92
370
     5
100
AcDbLine
 10
-311.2540580130911
 20
222.8135722392315
 30
0.0
 11
-311.2540580130911
 21
208.8135507944469
 31
0.0
  0
LINE
  5
503
330
1F
100
AcDbEntity
  8
1-2
  6
Continuous
 62
    92
370
     5
100
AcDbLine
 10
-301.3539907094594
 20
222.8135722392315
 30
0.0
 11
-301.3539907094594
 21
208.8135507944469
 31
0.0
  0
LINE
  5
504
330
1F
100
AcDbEntity
  8
1-2
  6
Continuous
 62
    92
370
     5
100
AcDbLine
 10
-291.4539234058276
 20
222.8135722392315
 30
0.0
 11
-291.4539234058276
 21
208.8135507944469
 31
0.0
  0
LINE
  5
505
330
1F
100
AcDbEntity
  8
1-2
  6
Continuous
 62
    92
370
     5
100
AcDbLine
 10
-311.2540580130911
 20
196.8135854360222
 30
0.0
 11
-311.2540580130911
 21
182.8135639912375
 31
0.0
  0
LINE
  5
506
330
1F
100
AcDbEntity
  8
1-2
  6
Continuous
 62
    92
370
     5
100
AcDbLine
 10
-301.3539907094594
 20
196.8135854360222
 30
0.0
 11
-301.3539907094594
 21
182.8135639912375
 31
0.0
  0
LINE
  5
507
330
1F
100
AcDbEntity
  8
1-2
  6
Continuous
 62
    92
370
     5
100
AcDbLine
 10
-291.4539234058276
 20
196.8135854360222
 30
0.0
 11
-291.4539234058276
 21
182.8135639912375
 31
0.0
  0
LINE
  5
508
330
1F
100
AcDbEntity
  8
1-2
  6
Continuous
 62
    92
370
     5
100
AcDbLine
 10
-311.2540580130911
 20
170.8135986328125
 30
0.0
 11
-311.2540580130911
 21
156.8135771880279
 31
0.0
  0
LINE
  5
509
330
1F
100
AcDbEntity
  8
1-2
  6
Continuous
 62
    92
370
     5
100
AcDbLine
 10
-301.3539907094594
 20
170.8135986328125
 30
0.0
 11
-301.3539907094594
 21
156.8135771880279
 31
0.0
  0
LINE
  5
50A
330
1F
100
AcDbEntity
  8
1-2
  6
Continuous
 62
    92
370
     5
100
AcDbLine
 10
-291.4539234058276
 20
170.8135986328125
 30
0.0
 11
-291.4539234058276
 21
156.8135771880279
 31
0.0
  0
LINE
  5
50B
330
1F
100
AcDbEntity
  8
1-2
  6
Continuous
 62
    92
370
     5
100
AcDbLine
 10
-311.2540580130911
 20
144.8136118296031
 30
0.0
 11
-311.2540580130911
 21
130.8135903848185
 31
0.0
  0
LINE
  5
50C
330
1F
100
AcDbEntity
  8
1-2
  6
Continuous
 62
    92
370
     5
100
AcDbLine
 10
-301.3539907094594
 20
144.8136118296031
 30
0.0
 11
-301.3539907094594
 21
130.8135903848185
 31
0.0
  0
LINE
  5
50D
330
1F
100
AcDbEntity
  8
1-2
  6
Continuous
 62
    92
370
     5
100
AcDbLine
 10
-291.4539234058276
 20
144.8136118296031
 30
0.0
 11
-291.4539234058276
 21
130.8135903848185
 31
0.0
  0
LINE
  5
50E
330
1F
100
AcDbEntity
  8
1-2
  6
Continuous
 62
    92
370
     5
100
AcDbLine
 10
-311.2540580130911
 20
118.8136250263938
 30
0.0
 11
-311.2540580130911
 21
104.8134798616977
 31
0.0
  0
LINE
  5
50F
330
1F
100
AcDbEntity
  8
1-2
  6
Continuous
 62
    92
370
     5
100
AcDbLine
 10
-301.3539907094594
 20
118.8136250263938
 30
0.0
 11
-301.3539907094594
 21
104.8134798616977
 31
0.0
  0
LINE
  5
510
330
1F
100
AcDbEntity
  8
1-2
  6
Continuous
 62
    92
370
     5
100
AcDbLine
 10
-291.4539234058276
 20
118.8136250263938
 30
0.0
 11
-291.4539234058276
 21
104.8134798616977
 31
0.0
  0
LINE
  5
511
330
1F
100
AcDbEntity
  8
1-2
  6
Continuous
 62
    92
370
     5
100
AcDbLine
 10
-311.2540580130911
 20
92.81363822318411
 30
0.0
 11
-311.2540580130911
 21
78.81349305848829
 31
0.0
  0
LINE
  5
512
330
1F
100
AcDbEntity
  8
1-2
  6
Continuous
 62
    92
370
     5
100
AcDbLine
 10
-301.3539907094594
 20
92.81363822318411
 30
0.0
 11
-301.3539907094594
 21
78.81349305848829
 31
0.0
  0
LINE
  5
513
330
1F
100
AcDbEntity
  8
1-2
  6
Continuous
 62
    92
370
     5
100
AcDbLine
 10
-291.4539234058276
 20
92.81363822318411
 30
0.0
 11
-291.4539234058276
 21
78.81349305848829
 31
0.0
  0
LINE
  5
514
330
1F
100
AcDbEntity
  8
1-2
  6
Continuous
 62
    92
370
     5
100
AcDbLine
 10
-311.2540580130911
 20
66.81340398015209
 30
0.0
 11
-311.2540580130911
 21
52.81350625527892
 31
0.0
  0
LINE
  5
515
330
1F
100
AcDbEntity
  8
1-2
  6
Continuous
 62
    92
370
     5
100
AcDbLine
 10
-301.3539907094594
 20
66.81340398015209
 30
0.0
 11
-301.3539907094594
 21
52.81350625527892
 31
0.0
  0
LINE
  5
516
330
1F
100
AcDbEntity
  8
1-2
  6
Continuous
 62
    92
370
     5
100
AcDbLine
 10
-291.4539234058276
 20
66.81340398015209
 30
0.0
 11
-291.4539234058276
 21
52.81350625527892
 31
0.0
  0
LINE
  5
517
330
1F
100
AcDbEntity
  8
1-2
  6
Continuous
 62
    92
370
     5
100
AcDbLine
 10
-311.2540580130911
 20
40.81341717694272
 30
0.0
 11
-311.2540580130911
 21
26.81351945206927
 31
0.0
  0
LINE
  5
518
330
1F
100
AcDbEntity
  8
1-2
  6
Continuous
 62
    92
370
     5
100
AcDbLine
 10
-301.3539907094594
 20
40.81341717694272
 30
0.0
 11
-301.3539907094594
 21
26.81351945206927
 31
0.0
  0
LINE
  5
519
330
1F
100
AcDbEntity
  8
1-2
  6
Continuous
 62
    92
370
     5
100
AcDbLine
 10
-291.4539234058276
 20
40.81341717694272
 30
0.0
 11
-291.4539234058276
 21
26.81351945206927
 31
0.0
  0
LINE
  5
51A
330
1F
100
AcDbEntity
  8
1-2
  6
Continuous
 62
    92
370
     5
100
AcDbLine
 10
-311.2540580130911
 20
14.81343037373307
 30
0.0
 11
-311.2540580130911
 21
0.8135326488599048
 31
0.0
  0
LINE
  5
51B
330
1F
100
AcDbEntity
  8
1-2
  6
Continuous
 62
    92
370
     5
100
AcDbLine
 10
-301.3539907094594
 20
14.81343037373307
 30
0.0
 11
-301.3539907094594
 21
0.8135326488599048
 31
0.0
  0
LINE
  5
51C
330
1F
100
AcDbEntity
  8
1-2
  6
Continuous
 62
    92
370
     5
100
AcDbLine
 10
-291.4539234058276
 20
14.81343037373307
 30
0.0
 11
-291.4539234058276
 21
0.8135326488599048
 31
0.0
  0
LINE
  5
51D
330
1F
100
AcDbEntity
  8
1-2
  6
Continuous
 62
    92
370
     5
100
AcDbLine
 10
-311.2540580130911
 20
-11.1865564294763
 30
0.0
 11
-311.2540580130911
 21
-25.18645415434946
 31
0.0
  0
LINE
  5
51E
330
1F
100
AcDbEntity
  8
1-2
  6
Continuous
 62
    92
370
     5
100
AcDbLine
 10
-301.3539907094594
 20
-11.1865564294763
 30
0.0
 11
-301.3539907094594
 21
-25.18645415434946
 31
0.0
  0
LINE
  5
51F
330
1F
100
AcDbEntity
  8
1-2
  6
Continuous
 62
    92
370
     5
100
AcDbLine
 10
-291.4539234058276
 20
-11.1865564294763
 30
0.0
 11
-291.4539234058276
 21
-25.18645415434946
 31
0.0
  0
LINE
  5
520
330
1F
100
AcDbEntity
  8
1-2
  6
Continuous
 62
    92
370
     5
100
AcDbLine
 10
-311.2540580130911
 20
-37.18654323268566
 30
0.0
 11
-311.2540580130911
 21
-51.18644095755911
 31
0.0
  0
LINE
  5
521
330
1F
100
AcDbEntity
  8
1-2
  6
Continuous
 62
    92
370
     5
100
AcDbLine
 10
-301.3539907094594
 20
-37.18654323268566
 30
0.0
 11
-301.3539907094594
 21
-51.18644095755911
 31
0.0
  0
LINE
  5
522
330
1F
100
AcDbEntity
  8
1-2
  6
Continuous
 62
    92
370
     5
100
AcDbLine
 10
-291.4539234058276
 20
-37.18654323268566
 30
0.0
 11
-291.4539234058276
 21
-51.18644095755911
 31
0.0
  0
LINE
  5
523
330
1F
100
AcDbEntity
  8
1-2
  6
Continuous
 62
    92
370
     5
100
AcDbLine
 10
-115.2540052259289
 20
1084.813743797508
 30
0.0
 11
-115.2540052259289
 21
1070.813846072635
 31
0.0
  0
LINE
  5
524
330
1F
100
AcDbEntity
  8
1-2
  6
Continuous
 62
    92
370
     5
100
AcDbLine
 10
-105.3539379222971
 20
1084.813743797508
 30
0.0
 11
-105.3539379222971
 21
1070.813846072635
 31
0.0
  0
LINE
  5
525
330
1F
100
AcDbEntity
  8
1-2
  6
Continuous
 62
    92
370
     5
100
AcDbLine
 10
-115.2540052259289
 20
1058.813756994299
 30
0.0
 11
-115.2540052259289
 21
1044.813859269426
 31
0.0
  0
LINE
  5
526
330
1F
100
AcDbEntity
  8
1-2
  6
Continuous
 62
    92
370
     5
100
AcDbLine
 10
-105.3539379222971
 20
1058.813756994299
 30
0.0
 11
-105.3539379222971
 21
1044.813859269426
 31
0.0
  0
LINE
  5
527
330
1F
100
AcDbEntity
  8
1-2
  6
Continuous
 62
    92
370
     5
100
AcDbLine
 10
-15.25441762563332
 20
1032.81377019109
 30
0.0
 11
-15.25441762563332
 21
1018.813872466216
 31
0.0
  0
LINE
  5
528
330
1F
100
AcDbEntity
  8
1-2
  6
Continuous
 62
    92
370
     5
100
AcDbLine
 10
-5.354102882178893
 20
1032.81377019109
 30
0.0
 11
-5.354102882178893
 21
1018.813872466216
 31
0.0
  0
LINE
  5
529
330
1F
100
AcDbEntity
  8
1-2
  6
Continuous
 62
    92
370
     5
100
AcDbLine
 10
4.545964421452879
 20
1032.81377019109
 30
0.0
 11
4.545964421452879
 21
1018.813872466216
 31
0.0
  0
LINE
  5
52A
330
1F
100
AcDbEntity
  8
1-2
  6
Continuous
 62
    92
370
     5
100
AcDbLine
 10
-15.25441762563332
 20
1006.81378338788
 30
0.0
 11
-15.25441762563332
 21
992.8138856630068
 31
0.0
  0
LINE
  5
52B
330
1F
100
AcDbEntity
  8
1-2
  6
Continuous
 62
    92
370
     5
100
AcDbLine
 10
-5.354102882178893
 20
1006.81378338788
 30
0.0
 11
-5.354102882178893
 21
992.8138856630068
 31
0.0
  0
LINE
  5
52C
330
1F
100
AcDbEntity
  8
1-2
  6
Continuous
 62
    92
370
     5
100
AcDbLine
 10
4.545964421452879
 20
1006.81378338788
 30
0.0
 11
4.545964421452879
 21
992.8138856630068
 31
0.0
  0
LINE
  5
52D
330
1F
100
AcDbEntity
  8
1-2
  6
Continuous
 62
    92
370
     5
100
AcDbLine
 10
-15.25441762563332
 20
980.8137965846709
 30
0.0
 11
-15.25441762563332
 21
966.8138988597974
 31
0.0
  0
LINE
  5
52E
330
1F
100
AcDbEntity
  8
1-2
  6
Continuous
 62
    92
370
     5
100
AcDbLine
 10
4.545964421452879
 20
980.8137965846709
 30
0.0
 11
4.545964421452879
 21
966.8138988597974
 31
0.0
  0
LINE
  5
52F
330
1F
100
AcDbEntity
  8
1-2
  6
Continuous
 62
    92
370
     5
100
AcDbLine
 10
-5.354102882178893
 20
980.8137965846709
 30
0.0
 11
-5.354102882178893
 21
966.8138988597974
 31
0.0
  0
LINE
  5
530
330
1F
100
AcDbEntity
  8
1-2
  6
Continuous
 62
    92
370
     5
100
AcDbLine
 10
-15.25441762563332
 20
954.8138097814613
 30
0.0
 11
-15.25441762563332
 21
940.8136646167654
 31
0.0
  0
LINE
  5
531
330
1F
100
AcDbEntity
  8
1-2
  6
Continuous
 62
    92
370
     5
100
AcDbLine
 10
-5.354102882178893
 20
954.8138097814613
 30
0.0
 11
-5.354102882178893
 21
940.8136646167654
 31
0.0
  0
LINE
  5
532
330
1F
100
AcDbEntity
  8
1-2
  6
Continuous
 62
    92
370
     5
100
AcDbLine
 10
4.545964421452879
 20
954.8138097814613
 30
0.0
 11
4.545964421452879
 21
940.8136646167654
 31
0.0
  0
LINE
  5
533
330
1F
100
AcDbEntity
  8
1-2
  6
Continuous
 62
    92
370
     5
100
AcDbLine
 10
-15.25441762563332
 20
928.8138229782519
 30
0.0
 11
-15.25441762563332
 21
914.8136778135561
 31
0.0
  0
LINE
  5
534
330
1F
100
AcDbEntity
  8
1-2
  6
Continuous
 62
    92
370
     5
100
AcDbLine
 10
-5.354102882178893
 20
928.8138229782519
 30
0.0
 11
-5.354102882178893
 21
914.8136778135561
 31
0.0
  0
LINE
  5
535
330
1F
100
AcDbEntity
  8
1-2
  6
Continuous
 62
    92
370
     5
100
AcDbLine
 10
4.545964421452879
 20
928.8138229782519
 30
0.0
 11
4.545964421452879
 21
914.8136778135561
 31
0.0
  0
LINE
  5
536
330
1F
100
AcDbEntity
  8
1-2
  6
Continuous
 62
    92
370
     5
100
AcDbLine
 10
-15.25441762563332
 20
902.8135887352198
 30
0.0
 11
-15.25441762563332
 21
888.8136910103464
 31
0.0
  0
LINE
  5
537
330
1F
100
AcDbEntity
  8
1-2
  6
Continuous
 62
    92
370
     5
100
AcDbLine
 10
-5.354102882178893
 20
902.8135887352198
 30
0.0
 11
-5.354102882178893
 21
888.8136910103464
 31
0.0
  0
LINE
  5
538
330
1F
100
AcDbEntity
  8
1-2
  6
Continuous
 62
    92
370
     5
100
AcDbLine
 10
4.545964421452879
 20
902.8135887352198
 30
0.0
 11
4.545964421452879
 21
888.8136910103464
 31
0.0
  0
LINE
  5
539
330
1F
100
AcDbEntity
  8
1-2
  6
Continuous
 62
    92
370
     5
100
AcDbLine
 10
-95.454118058488
 20
1084.813743797508
 30
0.0
 11
-95.454118058488
 21
1070.813846072635
 31
0.0
  0
LINE
  5
53A
330
1F
100
AcDbEntity
  8
1-2
  6
Continuous
 62
    92
370
     5
100
AcDbLine
 10
-95.454118058488
 20
1058.813756994299
 30
0.0
 11
-95.454118058488
 21
1044.813859269426
 31
0.0
  0
LINE
  5
53B
330
1F
100
AcDbEntity
  8
1-2
  6
Continuous
 62
    92
370
     5
100
AcDbLine
 10
-15.25441762563332
 20
352.8135062552789
 30
0.0
 11
-15.25441762563332
 21
338.8133610905828
 31
0.0
  0
LINE
  5
53C
330
1F
100
AcDbEntity
  8
1-2
  6
Continuous
 62
    92
370
     5
100
AcDbLine
 10
-5.354102882178893
 20
352.8135062552789
 30
0.0
 11
-5.354102882178893
 21
338.8133610905828
 31
0.0
  0
LINE
  5
53D
330
1F
100
AcDbEntity
  8
1-2
  6
Continuous
 62
    92
370
     5
100
AcDbLine
 10
4.545964421452879
 20
352.8135062552789
 30
0.0
 11
4.545964421452879
 21
338.8133610905828
 31
0.0
  0
LINE
  5
53E
330
1F
100
AcDbEntity
  8
1-2
  6
Continuous
 62
    92
370
     5
100
AcDbLine
 10
-15.25441762563332
 20
326.8135194520693
 30
0.0
 11
-15.25441762563332
 21
312.8134980072846
 31
0.0
  0
LINE
  5
53F
330
1F
100
AcDbEntity
  8
1-2
  6
Continuous
 62
    92
370
     5
100
AcDbLine
 10
-5.354102882178893
 20
326.8135194520693
 30
0.0
 11
-5.354102882178893
 21
312.8134980072846
 31
0.0
  0
LINE
  5
540
330
1F
100
AcDbEntity
  8
1-2
  6
Continuous
 62
    92
370
     5
100
AcDbLine
 10
4.545964421452879
 20
326.8135194520693
 30
0.0
 11
4.545964421452879
 21
312.8134980072846
 31
0.0
  0
LINE
  5
541
330
1F
100
AcDbEntity
  8
1-2
  6
Continuous
 62
    92
370
     5
100
AcDbLine
 10
-15.25441762563332
 20
300.8135326488599
 30
0.0
 11
-15.25441762563332
 21
286.8135112040753
 31
0.0
  0
LINE
  5
542
330
1F
100
AcDbEntity
  8
1-2
  6
Continuous
 62
    92
370
     5
100
AcDbLine
 10
-5.354102882178893
 20
300.8135326488599
 30
0.0
 11
-5.354102882178893
 21
286.8135112040753
 31
0.0
  0
LINE
  5
543
330
1F
100
AcDbEntity
  8
1-2
  6
Continuous
 62
    92
370
     5
100
AcDbLine
 10
4.545964421452879
 20
300.8135326488599
 30
0.0
 11
4.545964421452879
 21
286.8135112040753
 31
0.0
  0
LINE
  5
544
330
1F
100
AcDbEntity
  8
1-2
  6
Continuous
 62
    92
370
     5
100
AcDbLine
 10
-15.25441762563332
 20
274.8135458456505
 30
0.0
 11
-15.25441762563332
 21
260.8135244008659
 31
0.0
  0
LINE
  5
545
330
1F
100
AcDbEntity
  8
1-2
  6
Continuous
 62
    92
370
     5
100
AcDbLine
 10
-5.354102882178893
 20
274.8135458456505
 30
0.0
 11
-5.354102882178893
 21
260.8135244008659
 31
0.0
  0
LINE
  5
546
330
1F
100
AcDbEntity
  8
1-2
  6
Continuous
 62
    92
370
     5
100
AcDbLine
 10
4.545964421452879
 20
274.8135458456505
 30
0.0
 11
4.545964421452879
 21
260.8135244008659
 31
0.0
  0
LINE
  5
547
330
1F
100
AcDbEntity
  8
1-2
  6
Continuous
 62
    92
370
     5
100
AcDbLine
 10
-15.25441762563332
 20
248.8135590424409
 30
0.0
 11
-15.25441762563332
 21
234.8135375976562
 31
0.0
  0
LINE
  5
548
330
1F
100
AcDbEntity
  8
1-2
  6
Continuous
 62
    92
370
     5
100
AcDbLine
 10
-5.354102882178893
 20
248.8135590424409
 30
0.0
 11
-5.354102882178893
 21
234.8135375976562
 31
0.0
  0
LINE
  5
549
330
1F
100
AcDbEntity
  8
1-2
  6
Continuous
 62
    92
370
     5
100
AcDbLine
 10
4.545964421452879
 20
248.8135590424409
 30
0.0
 11
4.545964421452879
 21
234.8135375976562
 31
0.0
  0
LINE
  5
54A
330
1F
100
AcDbEntity
  8
1-2
  6
Continuous
 62
    92
370
     5
100
AcDbLine
 10
-15.25441762563332
 20
222.8135722392315
 30
0.0
 11
-15.25441762563332
 21
208.8135507944469
 31
0.0
  0
LINE
  5
54B
330
1F
100
AcDbEntity
  8
1-2
  6
Continuous
 62
    92
370
     5
100
AcDbLine
 10
-5.354102882178893
 20
222.8135722392315
 30
0.0
 11
-5.354102882178893
 21
208.8135507944469
 31
0.0
  0
LINE
  5
54C
330
1F
100
AcDbEntity
  8
1-2
  6
Continuous
 62
    92
370
     5
100
AcDbLine
 10
4.545964421452879
 20
222.8135722392315
 30
0.0
 11
4.545964421452879
 21
208.8135507944469
 31
0.0
  0
LINE
  5
54D
330
1F
100
AcDbEntity
  8
1-2
  6
Continuous
 62
    92
370
     5
100
AcDbLine
 10
-15.25441762563332
 20
196.8135854360222
 30
0.0
 11
-15.25441762563332
 21
182.8135639912375
 31
0.0
  0
LINE
  5
54E
330
1F
100
AcDbEntity
  8
1-2
  6
Continuous
 62
    92
370
     5
100
AcDbLine
 10
-5.354102882178893
 20
196.8135854360222
 30
0.0
 11
-5.354102882178893
 21
182.8135639912375
 31
0.0
  0
LINE
  5
54F
330
1F
100
AcDbEntity
  8
1-2
  6
Continuous
 62
    92
370
     5
100
AcDbLine
 10
4.545964421452879
 20
196.8135854360222
 30
0.0
 11
4.545964421452879
 21
182.8135639912375
 31
0.0
  0
LINE
  5
550
330
1F
100
AcDbEntity
  8
1-2
  6
Continuous
 62
    92
370
     5
100
AcDbLine
 10
-15.25441762563332
 20
170.8135986328125
 30
0.0
 11
-15.25441762563332
 21
156.8135771880279
 31
0.0
  0
LINE
  5
551
330
1F
100
AcDbEntity
  8
1-2
  6
Continuous
 62
    92
370
     5
100
AcDbLine
 10
-5.354102882178893
 20
170.8135986328125
 30
0.0
 11
-5.354102882178893
 21
156.8135771880279
 31
0.0
  0
LINE
  5
552
330
1F
100
AcDbEntity
  8
1-2
  6
Continuous
 62
    92
370
     5
100
AcDbLine
 10
4.545964421452879
 20
170.8135986328125
 30
0.0
 11
4.545964421452879
 21
156.8135771880279
 31
0.0
  0
LINE
  5
553
330
1F
100
AcDbEntity
  8
1-2
  6
Continuous
 62
    92
370
     5
100
AcDbLine
 10
-15.25441762563332
 20
144.8136118296031
 30
0.0
 11
-15.25441762563332
 21
130.8135903848185
 31
0.0
  0
LINE
  5
554
330
1F
100
AcDbEntity
  8
1-2
  6
Continuous
 62
    92
370
     5
100
AcDbLine
 10
-5.354102882178893
 20
144.8136118296031
 30
0.0
 11
-5.354102882178893
 21
130.8135903848185
 31
0.0
  0
LINE
  5
555
330
1F
100
AcDbEntity
  8
1-2
  6
Continuous
 62
    92
370
     5
100
AcDbLine
 10
4.545964421452879
 20
144.8136118296031
 30
0.0
 11
4.545964421452879
 21
130.8135903848185
 31
0.0
  0
LINE
  5
556
330
1F
100
AcDbEntity
  8
1-2
  6
Continuous
 62
    92
370
     5
100
AcDbLine
 10
-15.25441762563332
 20
118.8136250263938
 30
0.0
 11
-15.25441762563332
 21
104.8134798616977
 31
0.0
  0
LINE
  5
557
330
1F
100
AcDbEntity
  8
1-2
  6
Continuous
 62
    92
370
     5
100
AcDbLine
 10
-5.354102882178893
 20
118.8136250263938
 30
0.0
 11
-5.354102882178893
 21
104.8134798616977
 31
0.0
  0
LINE
  5
558
330
1F
100
AcDbEntity
  8
1-2
  6
Continuous
 62
    92
370
     5
100
AcDbLine
 10
4.545964421452879
 20
118.8136250263938
 30
0.0
 11
4.545964421452879
 21
104.8134798616977
 31
0.0
  0
LINE
  5
559
330
1F
100
AcDbEntity
  8
1-2
  6
Continuous
 62
    92
370
     5
100
AcDbLine
 10
-15.25441762563332
 20
92.81363822318411
 30
0.0
 11
-15.25441762563332
 21
78.81349305848829
 31
0.0
  0
LINE
  5
55A
330
1F
100
AcDbEntity
  8
1-2
  6
Continuous
 62
    92
370
     5
100
AcDbLine
 10
-5.354102882178893
 20
92.81363822318411
 30
0.0
 11
-5.354102882178893
 21
78.81349305848829
 31
0.0
  0
LINE
  5
55B
330
1F
100
AcDbEntity
  8
1-2
  6
Continuous
 62
    92
370
     5
100
AcDbLine
 10
4.545964421452879
 20
92.81363822318411
 30
0.0
 11
4.545964421452879
 21
78.81349305848829
 31
0.0
  0
LINE
  5
55C
330
1F
100
AcDbEntity
  8
1-2
  6
Continuous
 62
    92
370
     5
100
AcDbLine
 10
-15.25441762563332
 20
66.81340398015209
 30
0.0
 11
-15.25441762563332
 21
52.81350625527892
 31
0.0
  0
LINE
  5
55D
330
1F
100
AcDbEntity
  8
1-2
  6
Continuous
 62
    92
370
     5
100
AcDbLine
 10
-5.354102882178893
 20
66.81340398015209
 30
0.0
 11
-5.354102882178893
 21
52.81350625527892
 31
0.0
  0
LINE
  5
55E
330
1F
100
AcDbEntity
  8
1-2
  6
Continuous
 62
    92
370
     5
100
AcDbLine
 10
4.545964421452879
 20
66.81340398015209
 30
0.0
 11
4.545964421452879
 21
52.81350625527892
 31
0.0
  0
LINE
  5
55F
330
1F
100
AcDbEntity
  8
1-2
  6
Continuous
 62
    92
370
     5
100
AcDbLine
 10
-15.25441762563332
 20
40.81341717694272
 30
0.0
 11
-15.25441762563332
 21
26.81351945206927
 31
0.0
  0
LINE
  5
560
330
1F
100
AcDbEntity
  8
1-2
  6
Continuous
 62
    92
370
     5
100
AcDbLine
 10
-5.354102882178893
 20
40.81341717694272
 30
0.0
 11
-5.354102882178893
 21
26.81351945206927
 31
0.0
  0
LINE
  5
561
330
1F
100
AcDbEntity
  8
1-2
  6
Continuous
 62
    92
370
     5
100
AcDbLine
 10
4.545964421452879
 20
40.81341717694272
 30
0.0
 11
4.545964421452879
 21
26.81351945206927
 31
0.0
  0
LINE
  5
562
330
1F
100
AcDbEntity
  8
1-2
  6
Continuous
 62
    92
370
     5
100
AcDbLine
 10
-15.25441762563332
 20
14.81343037373307
 30
0.0
 11
-15.25441762563332
 21
0.8135326488599048
 31
0.0
  0
LINE
  5
563
330
1F
100
AcDbEntity
  8
1-2
  6
Continuous
 62
    92
370
     5
100
AcDbLine
 10
-5.354102882178893
 20
14.81343037373307
 30
0.0
 11
-5.354102882178893
 21
0.8135326488599048
 31
0.0
  0
LINE
  5
564
330
1F
100
AcDbEntity
  8
1-2
  6
Continuous
 62
    92
370
     5
100
AcDbLine
 10
4.545964421452879
 20
14.81343037373307
 30
0.0
 11
4.545964421452879
 21
0.8135326488599048
 31
0.0
  0
LINE
  5
565
330
1F
100
AcDbEntity
  8
1-2
  6
Continuous
 62
    92
370
     5
100
AcDbLine
 10
-15.25441762563332
 20
-11.1865564294763
 30
0.0
 11
-15.25441762563332
 21
-25.18645415434946
 31
0.0
  0
LINE
  5
566
330
1F
100
AcDbEntity
  8
1-2
  6
Continuous
 62
    92
370
     5
100
AcDbLine
 10
-5.354102882178893
 20
-11.1865564294763
 30
0.0
 11
-5.354102882178893
 21
-25.18645415434946
 31
0.0
  0
LINE
  5
567
330
1F
100
AcDbEntity
  8
1-2
  6
Continuous
 62
    92
370
     5
100
AcDbLine
 10
4.545964421452879
 20
-11.1865564294763
 30
0.0
 11
4.545964421452879
 21
-25.18645415434946
 31
0.0
  0
LINE
  5
568
330
1F
100
AcDbEntity
  8
1-2
  6
Continuous
 62
    92
370
     5
100
AcDbLine
 10
-15.25441762563332
 20
-37.18654323268566
 30
0.0
 11
-15.25441762563332
 21
-51.18644095755911
 31
0.0
  0
LINE
  5
569
330
1F
100
AcDbEntity
  8
1-2
  6
Continuous
 62
    92
370
     5
100
AcDbLine
 10
-5.354102882178893
 20
-37.18654323268566
 30
0.0
 11
-5.354102882178893
 21
-51.18644095755911
 31
0.0
  0
LINE
  5
56A
330
1F
100
AcDbEntity
  8
1-2
  6
Continuous
 62
    92
370
     5
100
AcDbLine
 10
4.545964421452879
 20
-37.18654323268566
 30
0.0
 11
4.545964421452879
 21
-51.18644095755911
 31
0.0
  0
LINE
  5
56B
330
1F
100
AcDbEntity
  8
1-2
  6
Continuous
 62
    92
370
     5
100
AcDbLine
 10
-1259.25391944679
 20
378.8134930584883
 30
0.0
 11
-1259.25391944679
 21
364.8133478937925
 31
0.0
  0
LINE
  5
56C
330
1F
100
AcDbEntity
  8
1-2
  6
Continuous
 62
    92
370
     5
100
AcDbLine
 10
-1249.353852143159
 20
378.8134930584883
 30
0.0
 11
-1249.353852143159
 21
364.8133478937925
 31
0.0
  0
LINE
  5
56D
330
1F
100
AcDbEntity
  8
1-2
  6
Continuous
 62
    92
370
     5
100
AcDbLine
 10
-1239.453784839527
 20
378.8134930584883
 30
0.0
 11
-1239.453784839527
 21
364.8133478937925
 31
0.0
  0
LINE
  5
56E
330
1F
100
AcDbEntity
  8
1-2
  6
Continuous
 62
    92
370
     5
100
AcDbLine
 10
-919.2540349187077
 20
378.8134930584883
 30
0.0
 11
-919.2540349187077
 21
364.8133478937925
 31
0.0
  0
LINE
  5
56F
330
1F
100
AcDbEntity
  8
1-2
  6
Continuous
 62
    92
370
     5
100
AcDbLine
 10
-909.3539676150759
 20
378.8134930584883
 30
0.0
 11
-909.3539676150759
 21
364.8133478937925
 31
0.0
  0
LINE
  5
570
330
1F
100
AcDbEntity
  8
1-2
  6
Continuous
 62
    92
370
     5
100
AcDbLine
 10
-899.4539003114442
 20
378.8134930584883
 30
0.0
 11
-899.4539003114442
 21
364.8133478937925
 31
0.0
  0
LINE
  5
571
330
1F
100
AcDbEntity
  8
1-2
  6
Continuous
 62
    92
370
     5
100
AcDbLine
 10
-651.253942541174
 20
378.8134930584883
 30
0.0
 11
-651.253942541174
 21
364.8133478937925
 31
0.0
  0
LINE
  5
572
330
1F
100
AcDbEntity
  8
1-2
  6
Continuous
 62
    92
370
     5
100
AcDbLine
 10
-641.3538752375422
 20
378.8134930584883
 30
0.0
 11
-641.3538752375422
 21
364.8133478937925
 31
0.0
  0
LINE
  5
573
330
1F
100
AcDbEntity
  8
1-2
  6
Continuous
 62
    92
370
     5
100
AcDbLine
 10
-631.4538079339104
 20
378.8134930584883
 30
0.0
 11
-631.4538079339104
 21
364.8133478937925
 31
0.0
  0
LINE
  5
574
330
1F
100
AcDbEntity
  8
1-2
  6
Continuous
 62
    92
370
     5
100
AcDbLine
 10
-311.2540580130911
 20
378.8134930584883
 30
0.0
 11
-311.2540580130911
 21
364.8133478937925
 31
0.0
  0
LINE
  5
575
330
1F
100
AcDbEntity
  8
1-2
  6
Continuous
 62
    92
370
     5
100
AcDbLine
 10
-301.3539907094594
 20
378.8134930584883
 30
0.0
 11
-301.3539907094594
 21
364.8133478937925
 31
0.0
  0
LINE
  5
576
330
1F
100
AcDbEntity
  8
1-2
  6
Continuous
 62
    92
370
     5
100
AcDbLine
 10
-291.4539234058276
 20
378.8134930584883
 30
0.0
 11
-291.4539234058276
 21
364.8133478937925
 31
0.0
  0
LINE
  5
577
330
1F
100
AcDbEntity
  8
1-2
  6
Continuous
 62
    92
370
     5
100
AcDbLine
 10
-15.25441762563332
 20
378.8134930584883
 30
0.0
 11
-15.25441762563332
 21
364.8133478937925
 31
0.0
  0
LINE
  5
578
330
1F
100
AcDbEntity
  8
1-2
  6
Continuous
 62
    92
370
     5
100
AcDbLine
 10
-5.354102882178893
 20
378.8134930584883
 30
0.0
 11
-5.354102882178893
 21
364.8133478937925
 31
0.0
  0
LINE
  5
579
330
1F
100
AcDbEntity
  8
1-2
  6
Continuous
 62
    92
370
     5
100
AcDbLine
 10
4.545964421452879
 20
378.8134930584883
 30
0.0
 11
4.545964421452879
 21
364.8133478937925
 31
0.0
  0
LINE
  5
57A
330
1F
100
AcDbEntity
  8
1-2
  6
Continuous
 62
    92
370
     5
100
AcDbLine
 10
-919.2540349187077
 20
404.8134798616977
 30
0.0
 11
-919.2540349187077
 21
390.8133346970018
 31
0.0
  0
LINE
  5
57B
330
1F
100
AcDbEntity
  8
1-2
  6
Continuous
 62
    92
370
     5
100
AcDbLine
 10
-909.3539676150759
 20
404.8134798616977
 30
0.0
 11
-909.3539676150759
 21
390.8133346970018
 31
0.0
  0
LINE
  5
57C
330
1F
100
AcDbEntity
  8
1-2
  6
Continuous
 62
    92
370
     5
100
AcDbLine
 10
-899.4539003114442
 20
404.8134798616977
 30
0.0
 11
-899.4539003114442
 21
390.8133346970018
 31
0.0
  0
LINE
  5
57D
330
1F
100
AcDbEntity
  8
1-2
  6
Continuous
 62
    92
370
     5
100
AcDbLine
 10
-651.253942541174
 20
404.8134798616977
 30
0.0
 11
-651.253942541174
 21
390.8133346970018
 31
0.0
  0
LINE
  5
57E
330
1F
100
AcDbEntity
  8
1-2
  6
Continuous
 62
    92
370
     5
100
AcDbLine
 10
-641.3538752375422
 20
404.8134798616977
 30
0.0
 11
-641.3538752375422
 21
390.8133346970018
 31
0.0
  0
LINE
  5
57F
330
1F
100
AcDbEntity
  8
1-2
  6
Continuous
 62
    92
370
     5
100
AcDbLine
 10
-631.4538079339104
 20
404.8134798616977
 30
0.0
 11
-631.4538079339104
 21
390.8133346970018
 31
0.0
  0
LINE
  5
580
330
1F
100
AcDbEntity
  8
1-2
  6
Continuous
 62
    92
370
     5
100
AcDbLine
 10
-311.2540580130911
 20
404.8134798616977
 30
0.0
 11
-311.2540580130911
 21
390.8133346970018
 31
0.0
  0
LINE
  5
581
330
1F
100
AcDbEntity
  8
1-2
  6
Continuous
 62
    92
370
     5
100
AcDbLine
 10
-301.3539907094594
 20
404.8134798616977
 30
0.0
 11
-301.3539907094594
 21
390.8133346970018
 31
0.0
  0
LINE
  5
582
330
1F
100
AcDbEntity
  8
1-2
  6
Continuous
 62
    92
370
     5
100
AcDbLine
 10
-291.4539234058276
 20
404.8134798616977
 30
0.0
 11
-291.4539234058276
 21
390.8133346970018
 31
0.0
  0
LINE
  5
583
330
1F
100
AcDbEntity
  8
1-2
  6
Continuous
 62
    92
370
     5
100
AcDbLine
 10
-15.25441762563332
 20
404.8134798616977
 30
0.0
 11
-15.25441762563332
 21
390.8133346970018
 31
0.0
  0
LINE
  5
584
330
1F
100
AcDbEntity
  8
1-2
  6
Continuous
 62
    92
370
     5
100
AcDbLine
 10
-5.354102882178893
 20
404.8134798616977
 30
0.0
 11
-5.354102882178893
 21
390.8133346970018
 31
0.0
  0
LINE
  5
585
330
1F
100
AcDbEntity
  8
1-2
  6
Continuous
 62
    92
370
     5
100
AcDbLine
 10
4.545964421452879
 20
404.8134798616977
 30
0.0
 11
4.545964421452879
 21
390.8133346970018
 31
0.0
  0
LINE
  5
586
330
1F
100
AcDbEntity
  8
1-2
  6
Continuous
 62
    92
370
     5
100
AcDbLine
 10
-651.253942541174
 20
430.8134666649073
 30
0.0
 11
-651.253942541174
 21
416.8133215002112
 31
0.0
  0
LINE
  5
587
330
1F
100
AcDbEntity
  8
1-2
  6
Continuous
 62
    92
370
     5
100
AcDbLine
 10
-641.3538752375422
 20
430.8134666649073
 30
0.0
 11
-641.3538752375422
 21
416.8133215002112
 31
0.0
  0
LINE
  5
588
330
1F
100
AcDbEntity
  8
1-2
  6
Continuous
 62
    92
370
     5
100
AcDbLine
 10
-631.4538079339104
 20
430.8134666649073
 30
0.0
 11
-631.4538079339104
 21
416.8133215002112
 31
0.0
  0
LINE
  5
589
330
1F
100
AcDbEntity
  8
1-2
  6
Continuous
 62
    92
370
     5
100
AcDbLine
 10
-311.2540580130911
 20
430.8134666649073
 30
0.0
 11
-311.2540580130911
 21
416.8133215002112
 31
0.0
  0
LINE
  5
58A
330
1F
100
AcDbEntity
  8
1-2
  6
Continuous
 62
    92
370
     5
100
AcDbLine
 10
-301.3539907094594
 20
430.8134666649073
 30
0.0
 11
-301.3539907094594
 21
416.8133215002112
 31
0.0
  0
LINE
  5
58B
330
1F
100
AcDbEntity
  8
1-2
  6
Continuous
 62
    92
370
     5
100
AcDbLine
 10
-291.4539234058276
 20
430.8134666649073
 30
0.0
 11
-291.4539234058276
 21
416.8133215002112
 31
0.0
  0
LINE
  5
58C
330
1F
100
AcDbEntity
  8
1-2
  6
Continuous
 62
    92
370
     5
100
AcDbLine
 10
-15.25441762563332
 20
430.8134666649073
 30
0.0
 11
-15.25441762563332
 21
416.8133215002112
 31
0.0
  0
LINE
  5
58D
330
1F
100
AcDbEntity
  8
1-2
  6
Continuous
 62
    92
370
     5
100
AcDbLine
 10
-5.354102882178893
 20
430.8134666649073
 30
0.0
 11
-5.354102882178893
 21
416.8133215002112
 31
0.0
  0
LINE
  5
58E
330
1F
100
AcDbEntity
  8
1-2
  6
Continuous
 62
    92
370
     5
100
AcDbLine
 10
4.545964421452879
 20
430.8134666649073
 30
0.0
 11
4.545964421452879
 21
416.8133215002112
 31
0.0
  0
LINE
  5
58F
330
1F
100
AcDbEntity
  8
1-2
  6
Continuous
 62
    92
370
     5
100
AcDbLine
 10
-15.25441762563332
 20
456.8134534681167
 30
0.0
 11
-15.25441762563332
 21
442.8133083034209
 31
0.0
  0
LINE
  5
590
330
1F
100
AcDbEntity
  8
1-2
  6
Continuous
 62
    92
370
     5
100
AcDbLine
 10
-5.354102882178893
 20
456.8134534681167
 30
0.0
 11
-5.354102882178893
 21
442.8133083034209
 31
0.0
  0
LINE
  5
591
330
1F
100
AcDbEntity
  8
1-2
  6
Continuous
 62
    92
370
     5
100
AcDbLine
 10
4.545964421452879
 20
456.8134534681167
 30
0.0
 11
4.545964421452879
 21
442.8133083034209
 31
0.0
  0
LINE
  5
592
330
1F
100
AcDbEntity
  8
D-4
  6
Continuous
 62
     7
370
     5
100
AcDbLine
 10
810.8870222761828
 20
427.7877725137247
 30
0.0
 11
810.8870222761828
 21
510.2113383525128
 31
0.0
  0
LINE
  5
593
330
1F
100
AcDbEntity
  8
2-2
  6
Continuous
 62
    92
370
     5
100
AcDbLine
 10
1094.289748733108
 20
-635.6326211465371
 30
0.0
 11
1104.289534285262
 21
-635.6326211465371
 31
0.0
  0
LINE
  5
594
330
1F
100
AcDbEntity
  8
2-2
  6
Continuous
 62
    92
370
     5
100
AcDbLine
 10
1089.28973223712
 20
-755.6322747307854
 30
0.0
 11
1089.28973223712
 21
-640.6323902027026
 31
0.0
  0
LINE
  5
595
330
1F
100
AcDbEntity
  8
2-2
  6
Continuous
 62
    92
370
     5
100
AcDbLine
 10
1069.289418813345
 20
-640.6323902027026
 30
0.0
 11
1069.289418813345
 21
-755.6322747307854
 31
0.0
  0
LINE
  5
596
330
1F
100
AcDbEntity
  8
2-2
  6
Continuous
 62
    92
370
     5
100
AcDbLine
 10
1054.28936932538
 20
-635.6326211465371
 30
0.0
 11
1064.289402317357
 21
-635.6326211465371
 31
0.0
  0
LINE
  5
597
330
1F
100
AcDbEntity
  8
2-2
  6
Continuous
 62
    92
370
     5
100
AcDbLine
 10
1049.289352829392
 20
-615.6323077227617
 30
0.0
 11
1049.289352829392
 21
-630.6323572107262
 31
0.0
  0
LINE
  5
598
330
1F
100
AcDbEntity
  8
2-2
  6
Continuous
 62
    92
370
     5
100
AcDbLine
 10
1109.28955078125
 20
-615.6323077227617
 30
0.0
 11
177.2896431587839
 21
-615.6323077227617
 31
0.0
  0
LINE
  5
599
330
1F
100
AcDbEntity
  8
2-4
  6
Continuous
 62
     7
370
     5
100
AcDbLine
 10
1109.28955078125
 20
-611.9996436866553
 30
0.0
 11
1109.28955078125
 21
-533.585963893581
 31
0.0
  0
LINE
  5
59A
330
1F
100
AcDbEntity
  8
2-2
  6
Continuous
 62
    92
370
     5
100
AcDbLine
 10
1109.28955078125
 20
-630.6323572107262
 30
0.0
 11
1109.28955078125
 21
-596.5861222550676
 31
0.0
  0
LINE
  5
59B
330
1F
100
AcDbEntity
  8
2-C
  6
Continuous
 62
     7
370
     5
100
AcDbLine
 10
769.8946566195104
 20
-844.8857982738598
 30
0.0
 11
679.2896167652026
 21
-844.8857982738598
 31
0.0
  0
LINE
  5
59C
330
1F
100
AcDbEntity
  8
2-1
  6
Continuous
 62
    40
370
     9
100
AcDbLine
 10
1249.289765229096
 20
-890.6322252428208
 30
0.0
 11
1249.289765229096
 21
-848.9165929845863
 31
0.0
  0
LINE
  5
59D
330
1F
100
AcDbEntity
  8
1-4
  6
Continuous
 62
     7
370
     5
100
AcDbLine
 10
-1605.35418536212
 20
-301.1862759976773
 30
0.0
 11
-1545.353739970439
 21
-301.1862759976773
 31
0.0
  0
LINE
  5
59E
330
1F
100
AcDbEntity
  8
1-4
  6
Continuous
 62
     7
370
     5
100
AcDbLine
 10
-1605.35418536212
 20
-301.1862759976773
 30
0.0
 11
-1605.35418536212
 21
-304.1862364073057
 31
0.0
  0
LINE
  5
59F
330
1F
100
AcDbEntity
  8
1-4
  6
Continuous
 62
     7
370
     5
100
AcDbLine
 10
-5.354102882178893
 20
-301.1862759976773
 30
0.0
 11
54.64510531038854
 21
-301.1862759976773
 31
0.0
  0
LINE
  5
5A0
330
1F
100
AcDbEntity
  8
1-4
  6
Continuous
 62
     7
370
     5
100
AcDbLine
 10
54.64510531038854
 20
-301.1862759976773
 30
0.0
 11
54.64510531038854
 21
-304.1862364073057
 31
0.0
  0
ARC
  5
5A1
330
1F
100
AcDbEntity
  8
1-1
  6
Continuous
 62
    40
370
     9
100
AcDbCircle
 10
-191.3536277977195
 20
1132.813605231208
 30
0.0
 40
5.999999594044041
100
AcDbArc
 50
270.0
 51
0.0
  0
ARC
  5
5A2
330
1F
100
AcDbEntity
  8
1-1
  6
Continuous
 62
    40
370
     9
100
AcDbCircle
 10
-191.3536277977195
 20
1170.813681112754
 30
0.0
 40
5.999999594044041
100
AcDbArc
 50
0.0
 51
90.0
  0
ARC
  5
5A3
330
1F
100
AcDbEntity
  8
1-1
  6
Continuous
 62
    40
370
     9
100
AcDbCircle
 10
-1641.353957717483
 20
850.8136151288008
 30
0.0
 40
5.999999594044041
100
AcDbArc
 50
0.0
 51
90.0
  0
ARC
  5
5A4
330
1F
100
AcDbEntity
  8
1-1
  6
Continuous
 62
    40
370
     9
100
AcDbCircle
 10
-1679.353786159206
 20
850.8136151288008
 30
0.0
 40
5.999999594044041
100
AcDbArc
 50
90.0
 51
180.0
  0
ARC
  5
5A5
330
1F
100
AcDbEntity
  8
1-1
  6
Continuous
 62
    40
370
     9
100
AcDbCircle
 10
-1359.353720175253
 20
-99.18654983108098
 30
0.0
 40
5.999999594044041
100
AcDbArc
 50
90.0
 51
180.0
  0
ARC
  5
5A6
330
1F
100
AcDbEntity
  8
1-1
  6
Continuous
 62
    40
370
     9
100
AcDbCircle
 10
-1359.353720175253
 20
-137.1863782728039
 30
0.0
 40
5.999999594044041
100
AcDbArc
 50
180.0
 51
270.0
  0
ARC
  5
5A7
330
1F
100
AcDbEntity
  8
1-1
  6
Continuous
 62
    40
370
     9
100
AcDbCircle
 10
-259.3535552153716
 20
-137.1863782728039
 30
0.0
 40
5.999999594044041
100
AcDbArc
 50
180.0
 51
270.0
  0
ARC
  5
5A8
330
1F
100
AcDbEntity
  8
1-1
  6
Continuous
 62
    40
370
     9
100
AcDbCircle
 10
-259.3535552153716
 20
-99.18654983108098
 30
0.0
 40
5.999999594044041
100
AcDbArc
 50
90.0
 51
180.0
  0
ARC
  5
5A9
330
1F
100
AcDbEntity
  8
1-1
  6
Continuous
 62
    40
370
     9
100
AcDbCircle
 10
90.64611486486513
 20
182.813440271326
 30
0.0
 40
5.999999594044041
100
AcDbArc
 50
180.0
 51
270.0
  0
ARC
  5
5AA
330
1F
100
AcDbEntity
  8
1-1
  6
Continuous
 62
    40
370
     9
100
AcDbCircle
 10
128.6461907464107
 20
182.813440271326
 30
0.0
 40
5.999999594044041
100
AcDbArc
 50
270.0
 51
0.0
  0
ARC
  5
5AB
330
1F
100
AcDbEntity
  8
1-1
  6
Continuous
 62
    40
370
     9
100
AcDbCircle
 10
128.6461907464107
 20
782.813440271326
 30
0.0
 40
5.999999594044041
100
AcDbArc
 50
270.0
 51
0.0
  0
ARC
  5
5AC
330
1F
100
AcDbEntity
  8
1-1
  6
Continuous
 62
    40
370
     9
100
AcDbCircle
 10
-1291.353792757601
 20
1170.813681112754
 30
0.0
 40
5.999999594044041
100
AcDbArc
 50
0.0
 51
90.0
  0
ARC
  5
5AD
330
1F
100
AcDbEntity
  8
1-1
  6
Continuous
 62
    40
370
     9
100
AcDbCircle
 10
-1291.353792757601
 20
1132.813605231208
 30
0.0
 40
5.999999594044041
100
AcDbArc
 50
270.0
 51
0.0
  0
ARC
  5
5AE
330
1F
100
AcDbEntity
  8
1-1
  6
Continuous
 62
    40
370
     9
100
AcDbCircle
 10
90.64611486486513
 20
782.813440271326
 30
0.0
 40
5.999999594044041
100
AcDbArc
 50
180.0
 51
270.0
  0
ARC
  5
5AF
330
1F
100
AcDbEntity
  8
1-1
  6
Continuous
 62
    40
370
     9
100
AcDbCircle
 10
-1679.353786159206
 20
250.8133676889781
 30
0.0
 40
5.999999594044041
100
AcDbArc
 50
90.0
 51
180.0
  0
ARC
  5
5B0
330
1F
100
AcDbEntity
  8
1-1
  6
Continuous
 62
    40
370
     9
100
AcDbCircle
 10
-1641.353957717483
 20
250.8133676889781
 30
0.0
 40
5.999999594044041
100
AcDbArc
 50
0.0
 51
90.0
  0
ARC
  5
5B1
330
1F
100
AcDbEntity
  8
D-1
  6
Continuous
 62
    40
370
     9
100
AcDbCircle
 10
1575.864307300465
 20
627.7879374736065
 30
0.0
 40
19.8566282117689
100
AcDbArc
 50
299.7614288330078
 51
60.23855590820312
  0
ARC
  5
5B2
330
1F
100
AcDbEntity
  8
D-1
  6
Continuous
 62
    40
370
     9
100
AcDbCircle
 10
1575.864307300465
 20
477.7879374736065
 30
0.0
 40
19.8566282117689
100
AcDbArc
 50
299.7614288330078
 51
60.23855590820312
  0
ARC
  5
5B3
330
1F
100
AcDbEntity
  8
D-1
  6
Continuous
 62
    40
370
     9
100
AcDbCircle
 10
1517.721145217483
 20
419.6446516707138
 30
0.0
 40
19.8566282117689
100
AcDbArc
 50
209.7614288330078
 51
330.2385559082031
  0
ARC
  5
5B4
330
1F
100
AcDbEntity
  8
D-1
  6
Continuous
 62
    40
370
     9
100
AcDbCircle
 10
1367.721145217483
 20
419.6446516707138
 30
0.0
 40
19.8566282117689
100
AcDbArc
 50
209.7614288330078
 51
330.2385559082031
  0
ARC
  5
5B5
330
1F
100
AcDbEntity
  8
2-2
  6
Continuous
 62
    92
370
     5
100
AcDbCircle
 10
974.2896002692146
 20
-630.6323572107262
 30
0.0
 40
4.99999958115655
100
AcDbArc
 50
270.0
 51
0.0
  0
ARC
  5
5B6
330
1F
100
AcDbEntity
  8
2-2
  6
Continuous
 62
    92
370
     5
100
AcDbCircle
 10
924.2894353093328
 20
-630.6323572107262
 30
0.0
 40
4.99999958115655
100
AcDbArc
 50
180.0
 51
270.0
  0
ARC
  5
5B7
330
1F
100
AcDbEntity
  8
2-2
  6
Continuous
 62
    92
370
     5
100
AcDbCircle
 10
964.289814717061
 20
-640.6323902027026
 30
0.0
 40
4.99999958115655
100
AcDbArc
 50
90.0
 51
180.0
  0
ARC
  5
5B8
330
1F
100
AcDbEntity
  8
2-2
  6
Continuous
 62
    92
370
     5
100
AcDbCircle
 10
934.2894683013094
 20
-640.6323902027026
 30
0.0
 40
4.99999958115655
100
AcDbArc
 50
0.0
 51
90.0
  0
ARC
  5
5B9
330
1F
100
AcDbEntity
  8
2-2
  6
Continuous
 62
    92
370
     5
100
AcDbCircle
 10
949.289517789274
 20
-755.6322747307854
 30
0.0
 40
9.9999991623131
100
AcDbArc
 50
180.0
 51
0.0
  0
ARC
  5
5BA
330
1F
100
AcDbEntity
  8
2-2
  6
Continuous
 62
    92
370
     5
100
AcDbCircle
 10
819.289831213049
 20
-755.6322747307854
 30
0.0
 40
9.9999991623131
100
AcDbArc
 50
180.0
 51
0.0
  0
ARC
  5
5BB
330
1F
100
AcDbEntity
  8
2-2
  6
Continuous
 62
    92
370
     5
100
AcDbCircle
 10
804.2892868454396
 20
-640.6323902027026
 30
0.0
 40
4.99999958115655
100
AcDbArc
 50
0.0
 51
90.0
  0
ARC
  5
5BC
330
1F
100
AcDbEntity
  8
2-2
  6
Continuous
 62
    92
370
     5
100
AcDbCircle
 10
834.2896332611912
 20
-640.6323902027026
 30
0.0
 40
4.99999958115655
100
AcDbArc
 50
90.0
 51
180.0
  0
ARC
  5
5BD
330
1F
100
AcDbEntity
  8
2-2
  6
Continuous
 62
    92
370
     5
100
AcDbCircle
 10
794.2895012932854
 20
-630.6323572107262
 30
0.0
 40
4.99999958115655
100
AcDbArc
 50
180.0
 51
270.0
  0
ARC
  5
5BE
330
1F
100
AcDbEntity
  8
2-2
  6
Continuous
 62
    92
370
     5
100
AcDbCircle
 10
844.2894188133448
 20
-630.6323572107262
 30
0.0
 40
4.99999958115655
100
AcDbArc
 50
270.0
 51
0.0
  0
ARC
  5
5BF
330
1F
100
AcDbEntity
  8
2-2
  6
Continuous
 62
    92
370
     5
100
AcDbCircle
 10
714.2894847972974
 20
-630.6323572107262
 30
0.0
 40
4.99999958115655
100
AcDbArc
 50
270.0
 51
0.0
  0
ARC
  5
5C0
330
1F
100
AcDbEntity
  8
2-2
  6
Continuous
 62
    92
370
     5
100
AcDbCircle
 10
664.289814717061
 20
-630.6323572107262
 30
0.0
 40
4.99999958115655
100
AcDbArc
 50
180.0
 51
270.0
  0
ARC
  5
5C1
330
1F
100
AcDbEntity
  8
2-2
  6
Continuous
 62
    92
370
     5
100
AcDbCircle
 10
704.2894518053208
 20
-640.6323902027026
 30
0.0
 40
4.99999958115655
100
AcDbArc
 50
90.0
 51
180.0
  0
ARC
  5
5C2
330
1F
100
AcDbEntity
  8
2-2
  6
Continuous
 62
    92
370
     5
100
AcDbCircle
 10
674.2896002692146
 20
-640.6323902027026
 30
0.0
 40
4.99999958115655
100
AcDbArc
 50
0.0
 51
90.0
  0
ARC
  5
5C3
330
1F
100
AcDbEntity
  8
2-2
  6
Continuous
 62
    92
370
     5
100
AcDbCircle
 10
689.2896497571792
 20
-755.6322747307854
 30
0.0
 40
9.9999991623131
100
AcDbArc
 50
180.0
 51
0.0
  0
ARC
  5
5C4
330
1F
100
AcDbEntity
  8
2-2
  6
Continuous
 62
    92
370
     5
100
AcDbCircle
 10
559.2894683013094
 20
-755.6322747307854
 30
0.0
 40
9.9999991623131
100
AcDbArc
 50
180.0
 51
0.0
  0
ARC
  5
5C5
330
1F
100
AcDbEntity
  8
2-2
  6
Continuous
 62
    92
370
     5
100
AcDbCircle
 10
544.2894188133448
 20
-640.6323902027026
 30
0.0
 40
4.99999958115655
100
AcDbArc
 50
0.0
 51
90.0
  0
ARC
  5
5C6
330
1F
100
AcDbEntity
  8
2-2
  6
Continuous
 62
    92
370
     5
100
AcDbCircle
 10
574.289517789274
 20
-640.6323902027026
 30
0.0
 40
4.99999958115655
100
AcDbArc
 50
90.0
 51
180.0
  0
ARC
  5
5C7
330
1F
100
AcDbEntity
  8
2-2
  6
Continuous
 62
    92
370
     5
100
AcDbCircle
 10
534.2896332611912
 20
-630.6323572107262
 30
0.0
 40
4.99999958115655
100
AcDbArc
 50
180.0
 51
270.0
  0
ARC
  5
5C8
330
1F
100
AcDbEntity
  8
2-2
  6
Continuous
 62
    92
370
     5
100
AcDbCircle
 10
584.2897982210729
 20
-630.6323572107262
 30
0.0
 40
4.99999958115655
100
AcDbArc
 50
270.0
 51
0.0
  0
ARC
  5
5C9
330
1F
100
AcDbEntity
  8
2-2
  6
Continuous
 62
    92
370
     5
100
AcDbCircle
 10
454.2896167652029
 20
-630.6323572107262
 30
0.0
 40
4.99999958115655
100
AcDbArc
 50
270.0
 51
0.0
  0
ARC
  5
5CA
330
1F
100
AcDbEntity
  8
2-2
  6
Continuous
 62
    92
370
     5
100
AcDbCircle
 10
404.2894518053211
 20
-630.6323572107262
 30
0.0
 40
4.99999958115655
100
AcDbArc
 50
180.0
 51
270.0
  0
ARC
  5
5CB
330
1F
100
AcDbEntity
  8
2-2
  6
Continuous
 62
    92
370
     5
100
AcDbCircle
 10
444.2895837732266
 20
-640.6323902027026
 30
0.0
 40
4.99999958115655
100
AcDbArc
 50
90.0
 51
180.0
  0
ARC
  5
5CC
330
1F
100
AcDbEntity
  8
2-2
  6
Continuous
 62
    92
370
     5
100
AcDbCircle
 10
414.2894847972974
 20
-640.6323902027026
 30
0.0
 40
4.99999958115655
100
AcDbArc
 50
0.0
 51
90.0
  0
ARC
  5
5CD
330
1F
100
AcDbEntity
  8
2-2
  6
Continuous
 62
    92
370
     5
100
AcDbCircle
 10
429.289534285262
 20
-755.6322747307854
 30
0.0
 40
9.9999991623131
100
AcDbArc
 50
180.0
 51
0.0
  0
ARC
  5
5CE
330
1F
100
AcDbEntity
  8
2-2
  6
Continuous
 62
    92
370
     5
100
AcDbCircle
 10
299.2896002692146
 20
-755.6322747307854
 30
0.0
 40
9.9999991623131
100
AcDbArc
 50
180.0
 51
0.0
  0
ARC
  5
5CF
330
1F
100
AcDbEntity
  8
2-2
  6
Continuous
 62
    92
370
     5
100
AcDbCircle
 10
284.28955078125
 20
-640.6323902027026
 30
0.0
 40
4.99999958115655
100
AcDbArc
 50
0.0
 51
90.0
  0
ARC
  5
5D0
330
1F
100
AcDbEntity
  8
2-2
  6
Continuous
 62
    92
370
     5
100
AcDbCircle
 10
314.2896497571792
 20
-640.6323902027026
 30
0.0
 40
4.99999958115655
100
AcDbArc
 50
90.0
 51
180.0
  0
ARC
  5
5D1
330
1F
100
AcDbEntity
  8
2-2
  6
Continuous
 62
    92
370
     5
100
AcDbCircle
 10
274.2895177892737
 20
-630.6323572107262
 30
0.0
 40
4.99999958115655
100
AcDbArc
 50
180.0
 51
270.0
  0
ARC
  5
5D2
330
1F
100
AcDbEntity
  8
2-2
  6
Continuous
 62
    92
370
     5
100
AcDbCircle
 10
324.2894353093328
 20
-630.6323572107262
 30
0.0
 40
4.99999958115655
100
AcDbArc
 50
270.0
 51
0.0
  0
ARC
  5
5D3
330
1F
100
AcDbEntity
  8
2-2
  6
Continuous
 62
    92
370
     5
100
AcDbCircle
 10
457.7896530563768
 20
-616.6322120460303
 30
0.0
 40
0.9999999524773778
100
AcDbArc
 50
90.0
 51
180.0
  0
ARC
  5
5D4
330
1F
100
AcDbEntity
  8
2-1
  6
Continuous
 62
    40
370
     9
100
AcDbCircle
 10
1134.289633261191
 20
-620.63232421875
 30
0.0
 40
4.99999958115655
100
AcDbArc
 50
90.0
 51
180.0
  0
ARC
  5
5D5
330
1F
100
AcDbEntity
  8
2-1
  6
Continuous
 62
    40
370
     9
100
AcDbCircle
 10
1204.289616765203
 20
-620.63232421875
 30
0.0
 40
4.99999958115655
100
AcDbArc
 50
0.0
 51
90.0
  0
ARC
  5
5D6
330
1F
100
AcDbEntity
  8
2-1
  6
Continuous
 62
    40
370
     9
100
AcDbCircle
 10
1134.289633261191
 20
-860.6323737067146
 30
0.0
 40
4.99999958115655
100
AcDbArc
 50
180.0
 51
270.0
  0
ARC
  5
5D7
330
1F
100
AcDbEntity
  8
2-1
  6
Continuous
 62
    40
370
     9
100
AcDbCircle
 10
1204.289616765203
 20
-860.6323737067146
 30
0.0
 40
4.99999958115655
100
AcDbArc
 50
270.0
 51
0.0
  0
ARC
  5
5D8
330
1F
100
AcDbEntity
  8
2-1
  6
Continuous
 62
    40
370
     9
100
AcDbCircle
 10
1225.576369826858
 20
-740.6322252428209
 30
0.0
 40
39.7132564235378
100
AcDbArc
 50
299.7614288330078
 51
60.23855590820312
  0
ARC
  5
5D9
330
1F
100
AcDbEntity
  8
2-1
  6
Continuous
 62
    40
370
     9
100
AcDbCircle
 10
1320.000395903716
 20
-740.6322252428209
 30
0.0
 40
50.00000257749815
100
AcDbArc
 50
225.0
 51
270.0
  0
CIRCLE
  5
5DA
330
1F
100
AcDbEntity
  8
1-4
  6
Continuous
 62
     7
370
     5
100
AcDbCircle
 10
-23.9435144372888
 20
-7.537313925253386
 30
0.0
 40
199.9999948450037
  0
ARC
  5
5DB
330
1F
100
AcDbEntity
  8
2-1
  6
Continuous
 62
    40
370
     9
100
AcDbCircle
 10
1479.289781725085
 20
-810.6322087468327
 30
0.0
 40
19.9999983246262
100
AcDbArc
 50
0.0
 51
90.0
  0
ARC
  5
5DC
330
1F
100
AcDbEntity
  8
2-2
  6
Continuous
 62
    92
370
     5
100
AcDbCircle
 10
-1465.189175992399
 20
-612.1352407094594
 30
0.0
 40
37.50013918490023
100
AcDbArc
 50
53.13009643554688
 51
126.8699035644531
  0
ARC
  5
5DD
330
1F
100
AcDbEntity
  8
2-2
  6
Continuous
 62
    92
370
     5
100
AcDbCircle
 10
-1420.188780088682
 20
-552.1350427576012
 30
0.0
 40
37.50013918490023
100
AcDbArc
 50
233.1300964355469
 51
306.8699035644531
  0
ARC
  5
5DE
330
1F
100
AcDbEntity
  8
2-2
  6
Continuous
 62
    92
370
     5
100
AcDbCircle
 10
-1465.189175992399
 20
-951.4912868190456
 30
0.0
 40
37.50013918490023
100
AcDbArc
 50
53.13009643554688
 51
126.8699035644531
  0
ARC
  5
5DF
330
1F
100
AcDbEntity
  8
2-2
  6
Continuous
 62
    92
370
     5
100
AcDbCircle
 10
-1420.188780088682
 20
-891.4910888671875
 30
0.0
 40
37.50013918490023
100
AcDbArc
 50
233.1300964355469
 51
306.8699035644531
  0
ARC
  5
5E0
330
1F
100
AcDbEntity
  8
2-2
  6
Continuous
 62
    92
370
     5
100
AcDbCircle
 10
1104.289534285262
 20
-630.6323572107262
 30
0.0
 40
4.99999958115655
100
AcDbArc
 50
270.0
 51
0.0
  0
ARC
  5
5E1
330
1F
100
AcDbEntity
  8
2-2
  6
Continuous
 62
    92
370
     5
100
AcDbCircle
 10
1054.28936932538
 20
-630.6323572107262
 30
0.0
 40
4.99999958115655
100
AcDbArc
 50
180.0
 51
270.0
  0
ARC
  5
5E2
330
1F
100
AcDbEntity
  8
2-2
  6
Continuous
 62
    92
370
     5
100
AcDbCircle
 10
1094.289748733108
 20
-640.6323902027026
 30
0.0
 40
4.99999958115655
100
AcDbArc
 50
90.0
 51
180.0
  0
ARC
  5
5E3
330
1F
100
AcDbEntity
  8
2-2
  6
Continuous
 62
    92
370
     5
100
AcDbCircle
 10
1064.289402317357
 20
-640.6323902027026
 30
0.0
 40
4.99999958115655
100
AcDbArc
 50
0.0
 51
90.0
  0
ARC
  5
5E4
330
1F
100
AcDbEntity
  8
2-2
  6
Continuous
 62
    92
370
     5
100
AcDbCircle
 10
1079.289451805321
 20
-755.6322747307854
 30
0.0
 40
9.9999991623131
100
AcDbArc
 50
180.0
 51
0.0
  0
ARC
  5
5E5
330
1F
100
AcDbEntity
  8
2-1
  6
Continuous
 62
    40
370
     9
100
AcDbCircle
 10
1229.289699245144
 20
-848.9165929845863
 30
0.0
 40
19.9999983246262
100
AcDbArc
 50
0.0
 51
45.0
  0
TEXT
  5
5E6
330
1F
100
AcDbEntity
  8
1-4
  6
Continuous
 62
    40
370
     9
100
AcDbText
 10
281.0064150918498
 20
484.313667915963
 30
0.0
 40
30.48
  1
872
 50
90.0
 41
1.083333333333333
  7
ＭＳ ゴシック
100
AcDbText
  0
TEXT
  5
5E7
330
1F
100
AcDbEntity
  8
1-4
  6
Continuous
 62
    40
370
     9
100
AcDbText
 10
361.0061841480154
 20
484.313667915963
 30
0.0
 40
30.48
  1
892
 50
90.0
 41
1.083333333333333
  7
ＭＳ ゴシック
100
AcDbText
  0
TEXT
  5
5E8
330
1F
100
AcDbEntity
  8
D-4
  6
Continuous
 62
    40
370
     9
100
AcDbText
 10
1801.081207902238
 20
1012.787475585938
 30
0.0
 40
30.48
  1
892
 50
90.0
 41
1.083333333333333
  7
ＭＳ ゴシック
100
AcDbText
  0
TEXT
  5
5E9
330
1F
100
AcDbEntity
  8
2-4
  6
Continuous
 62
    40
370
     9
100
AcDbText
 10
177.0229030299834
 20
-444.9457395481418
 30
0.0
 40
30.48
  1
892
 41
1.083333333333333
  7
ＭＳ ゴシック
100
AcDbText
  0
TEXT
  5
5EA
330
1F
100
AcDbEntity
  8
1-4
  6
Continuous
 62
    40
370
     9
100
AcDbText
 10
-1429.853779560811
 20
-289.5458602987753
 30
0.0
 40
30.48
  1
91
 41
1.0625
  7
ＭＳ ゴシック
100
AcDbText
  0
TEXT
  5
5EB
330
1F
100
AcDbEntity
  8
1-4
  6
Continuous
 62
    40
370
     9
100
AcDbText
 10
-941.6037894584036
 20
-290.5460120618666
 30
0.0
 40
30.48
  1
170×9＝1530
 41
1.114583333333333
  7
ＭＳ ゴシック
100
AcDbText
  0
TEXT
  5
5EC
330
1F
100
AcDbEntity
  8
1-4
  6
Continuous
 62
    40
370
     9
100
AcDbText
 10
-807.8539049303208
 20
-369.546124234586
 30
0.0
 40
30.48
  1
1772
 41
1.09375
  7
ＭＳ ゴシック
100
AcDbText
  0
TEXT
  5
5ED
330
1F
100
AcDbEntity
  8
1-4
  6
Continuous
 62
    40
370
     9
100
AcDbText
 10
-807.8539049303208
 20
-449.5458932907517
 30
0.0
 40
30.48
  1
1792
 41
1.09375
  7
ＭＳ ゴシック
100
AcDbText
  0
TEXT
  5
5EE
330
1F
100
AcDbEntity
  8
1-4
  6
Continuous
 62
    40
370
     9
100
AcDbText
 10
-185.854030299831
 20
-289.5458602987753
 30
0.0
 40
30.48
  1
91
 41
1.0625
  7
ＭＳ ゴシック
100
AcDbText
  0
TEXT
  5
5EF
330
1F
100
AcDbEntity
  8
D-4
  6
Continuous
 62
    40
370
     9
100
AcDbText
 10
890.8870387721709
 20
194.4276273490289
 30
0.0
 40
30.48
  1
1792
 41
1.09375
  7
ＭＳ ゴシック
100
AcDbText
  0
TEXT
  5
5F0
330
1F
100
AcDbEntity
  8
F-4
  6
Continuous
 62
    40
370
     9
100
AcDbText
 10
-841.9996106946791
 20
-1353.303019557643
 30
0.0
 40
30.48
  1
ノンスリップタイプステンレス製玄関マット　ＤＭ１５　１８００×９００（呼称寸法）
 41
0.774375
  7
ＭＳ ゴシック
100
AcDbText
  0
TEXT
  5
5F1
330
1F
100
AcDbEntity
  8
1-4
  6
Continuous
 62
    40
370
     9
100
AcDbText
 10
-426.0384224556586
 20
1184.538777317357
 30
0.0
 40
30.48
  1
Ａ
 41
1.00000020619985
  7
ＭＳ ゴシック
100
AcDbText
  0
TEXT
  5
5F2
330
1F
100
AcDbEntity
  8
1-4
  6
Continuous
 62
    40
370
     9
100
AcDbText
 10
151.0429588524073
 20
-196.8046724556586
 30
0.0
 40
30.48
  1
Ｂ
 41
0.9999999999999998
  7
ＭＳ ゴシック
100
AcDbText
  0
TEXT
  5
5F3
330
1F
100
AcDbEntity
  8
2-4
  6
Continuous
 62
    40
370
     9
100
AcDbText
 10
-984.5014417493666
 20
-800.3071831450592
 30
0.0
 40
30.48
  1
※本体：ＳＵＳ３０４
 41
1.1125
  7
ＭＳ ゴシック
100
AcDbText
  0
TEXT
  5
5F4
330
1F
100
AcDbEntity
  8
1-4
  6
Continuous
 62
    40
370
     9
100
AcDbText
 10
-503.854040197424
 20
-210.5462430057009
 30
0.0
 40
30.48
  1
170
 41
1.083333333333333
  7
ＭＳ ゴシック
100
AcDbText
  0
TEXT
  5
5F5
330
1F
100
AcDbEntity
  8
1-4
  6
Continuous
 62
    40
370
     9
100
AcDbText
 10
-1674.330015440245
 20
-370.5462759976774
 30
0.0
 40
30.48
  1
8
 41
1.000000206199843
  7
ＭＳ ゴシック
100
AcDbText
  0
TEXT
  5
5F6
330
1F
100
AcDbEntity
  8
1-4
  6
Continuous
 62
    40
370
     9
100
AcDbText
 10
-1577.753510346284
 20
-370.5462759976774
 30
0.0
 40
30.48
  1
2
 41
1.000000206199857
  7
ＭＳ ゴシック
100
AcDbText
  0
TEXT
  5
5F7
330
1F
100
AcDbEntity
  8
1-4
  6
Continuous
 62
    40
370
     9
100
AcDbText
 10
7.753526842272151
 20
-370.5462759976774
 30
0.0
 40
30.48
  1
2
 41
0.9999999999999998
  7
ＭＳ ゴシック
100
AcDbText
  0
TEXT
  5
5F8
330
1F
100
AcDbEntity
  8
1-4
  6
Continuous
 62
    40
370
     9
100
AcDbText
 10
104.1122848923143
 20
-370.5462759976774
 30
0.0
 40
30.48
  1
8
 41
0.9999999999999998
  7
ＭＳ ゴシック
100
AcDbText
  0
TEXT
  5
5F9
330
1F
100
AcDbEntity
  8
1-4
  6
Continuous
 62
    40
370
     9
100
AcDbText
 10
282.0060719752959
 20
-131.0508604307432
 30
0.0
 40
30.48
  1
8
 50
90.0
 41
0.9999999999999998
  7
ＭＳ ゴシック
100
AcDbText
  0
TEXT
  5
5FA
330
1F
100
AcDbEntity
  8
1-4
  6
Continuous
 62
    40
370
     9
100
AcDbText
 10
282.0060719752959
 20
-37.91723302892734
 30
0.0
 40
30.48
  1
2
 50
90.0
 41
0.9999999999999997
  7
ＭＳ ゴシック
100
AcDbText
  0
TEXT
  5
5FB
330
1F
100
AcDbEntity
  8
1-4
  6
Continuous
 62
    40
370
     9
100
AcDbText
 10
282.0060719752959
 20
1054.384336729308
 30
0.0
 40
30.48
  1
2
 50
90.0
 41
0.9999999999999998
  7
ＭＳ ゴシック
100
AcDbText
  0
TEXT
  5
5FC
330
1F
100
AcDbEntity
  8
1-4
  6
Continuous
 62
    40
370
     9
100
AcDbText
 10
282.0060719752959
 20
1140.655220650338
 30
0.0
 40
30.48
  1
8
 50
90.0
 41
0.9999999999999998
  7
ＭＳ ゴシック
100
AcDbText
  0
TEXT
  5
5FD
330
1F
100
AcDbEntity
  8
2-4
  6
Continuous
 62
    40
370
     9
100
AcDbText
 10
-984.5014417493666
 20
-852.8072326330238
 30
0.0
 40
30.48
  1
　受枠：ＳＵＳ３０４（但し、アンカー除く）
 41
1.11904762886666
  7
ＭＳ ゴシック
100
AcDbText
  0
TEXT
  5
5FE
330
1F
100
AcDbEntity
  8
2-4
  6
Continuous
 62
    40
370
     9
100
AcDbText
 10
-1020.353987410262
 20
-665.1723779296875
 30
0.0
 40
30.48
  1
平面詳細図　Ｓ＝１：５
 41
1.113636382381805
  7
ＭＳ ゴシック
100
AcDbText
  0
TEXT
  5
5FF
330
1F
100
AcDbEntity
  8
D-4
  6
Continuous
 62
    40
370
     9
100
AcDbText
 10
1081.648048194679
 20
304.8694229043497
 30
0.0
 40
30.48
  1
コーナー補助金物
 41
1.109375
  7
ＭＳ ゴシック
100
AcDbText
  0
TEXT
  5
600
330
1F
100
AcDbEntity
  8
D-4
  6
Continuous
 62
    40
370
     9
100
AcDbText
 10
800.2470057801943
 20
437.787805505701
 30
0.0
 40
30.48
  1
8
 50
90.0
 41
0.9999999999999998
  7
ＭＳ ゴシック
100
AcDbText
  0
TEXT
  5
601
330
1F
100
AcDbEntity
  8
D-4
  6
Continuous
 62
    40
370
     9
100
AcDbText
 10
800.2470057801943
 20
487.2716872756547
 30
0.0
 40
30.48
  1
2
 50
90.0
 41
0.9999999999999998
  7
ＭＳ ゴシック
100
AcDbText
  0
TEXT
  5
602
330
1F
100
AcDbEntity
  8
D-4
  6
Continuous
 62
    40
370
     9
100
AcDbText
 10
939.3040837468328
 20
32.86055796030418
 30
0.0
 40
30.48
  1
Ｂ部平面詳細図　Ｓ＝１：２
 41
1.115384615384615
  7
ＭＳ ゴシック
100
AcDbText
  0
TEXT
  5
603
330
1F
100
AcDbEntity
  8
D-4
  6
Continuous
 62
    40
370
     9
100
AcDbText
 10
506.4687368032094
 20
1179.060459644215
 30
0.0
 40
30.48
  1
メインバー：t=2.0
 41
1.117647058823529
  7
ＭＳ ゴシック
100
AcDbText
  0
TEXT
  5
604
330
1F
100
AcDbEntity
  8
2-4
  6
Continuous
 62
    40
370
     9
100
AcDbText
 10
1332.90636217272
 20
-445.9458913112331
 30
0.0
 40
30.48
  1
29
 41
1.0625
  7
ＭＳ ゴシック
100
AcDbText
  0
TEXT
  5
605
330
1F
100
AcDbEntity
  8
2-4
  6
Continuous
 62
    40
370
     9
100
AcDbText
 10
1109.023552971917
 20
-525.9461552470439
 30
0.0
 40
30.48
  1
2
 41
0.9999999999999998
  7
ＭＳ ゴシック
100
AcDbText
  0
TEXT
  5
606
330
1F
100
AcDbEntity
  8
2-4
  6
Continuous
 62
    40
370
     9
100
AcDbText
 10
1159.289715741132
 20
-525.9461552470439
 30
0.0
 40
30.48
  1
8
 41
0.9999999999999998
  7
ＭＳ ゴシック
100
AcDbText
  0
TEXT
  5
607
330
1F
100
AcDbEntity
  8
2-4
  6
Continuous
 62
    40
370
     9
100
AcDbText
 10
1568.649600269214
 20
-861.8824396906672
 30
0.0
 40
30.48
  1
10
 50
90.0
 41
1.0625
  7
ＭＳ ゴシック
100
AcDbText
  0
TEXT
  5
608
330
1F
100
AcDbEntity
  8
2-4
  6
Continuous
 62
    40
370
     9
100
AcDbText
 10
1568.649600269214
 20
-724.8591737489443
 30
0.0
 40
30.48
  1
17
 50
90.0
 41
1.0625
  7
ＭＳ ゴシック
100
AcDbText
  0
TEXT
  5
609
330
1F
100
AcDbEntity
  8
2-4
  6
Continuous
 62
    40
370
     9
100
AcDbText
 10
86.38287003800677
 20
-711.8821922508446
 30
0.0
 40
30.48
  1
15
 50
90.0
 41
1.0625
  7
ＭＳ ゴシック
100
AcDbText
  0
TEXT
  5
60A
330
1F
100
AcDbEntity
  8
2-4
  6
Continuous
 62
    40
370
     9
100
AcDbText
 10
430.809309675887
 20
-334.0070848289695
 30
0.0
 40
30.48
  1
受枠：８×２５×1.0
 41
1.118421052631579
  7
ＭＳ ゴシック
100
AcDbText
  0
TEXT
  5
60B
330
1F
100
AcDbEntity
  8
2-4
  6
Continuous
 62
    40
370
     9
100
AcDbText
 10
631.0227677628802
 20
-1088.214056693412
 30
0.0
 40
30.48
  1
断面Ａ詳細図　Ｓ＝１：１
 41
1.114583333333333
  7
ＭＳ ゴシック
100
AcDbText
  0
TEXT
  5
60C
330
1F
100
AcDbEntity
  8
2-4
  6
Continuous
 62
    40
370
     9
100
AcDbText
 10
679.2896167652026
 20
-525.9461552470439
 30
0.0
 40
30.48
  1
6
 41
0.9999999999999998
  7
ＭＳ ゴシック
100
AcDbText
  0
TEXT
  5
60D
330
1F
100
AcDbEntity
  8
2-4
  6
Continuous
 62
    40
370
     9
100
AcDbText
 10
744.2895837732266
 20
-525.9461552470439
 30
0.0
 40
30.48
  1
7
 41
0.9999999999999998
  7
ＭＳ ゴシック
100
AcDbText
  0
TEXT
  5
60E
330
1F
100
AcDbEntity
  8
2-4
  6
Continuous
 62
    40
370
     9
100
AcDbText
 10
809.28955078125
 20
-525.9461552470439
 30
0.0
 40
30.48
  1
6
 41
0.9999999999999998
  7
ＭＳ ゴシック
100
AcDbText
  0
TEXT
  5
60F
330
1F
100
AcDbEntity
  8
2-4
  6
Continuous
 62
    40
370
     9
100
AcDbText
 10
874.289517789274
 20
-525.9461552470439
 30
0.0
 40
30.48
  1
7
 41
0.9999999999999998
  7
ＭＳ ゴシック
100
AcDbText
  0
TEXT
  5
610
330
1F
100
AcDbEntity
  8
2-4
  6
Continuous
 62
    40
370
     9
100
AcDbText
 10
614.2898971970021
 20
-525.9461552470439
 30
0.0
 40
30.48
  1
7
 41
0.9999999999999998
  7
ＭＳ ゴシック
100
AcDbText
  0
TEXT
  5
611
330
1F
100
AcDbEntity
  8
2-C
  6
Continuous
 62
    40
370
     9
100
AcDbText
 10
729.6540131440037
 20
-834.2457817778717
 30
0.0
 40
30.48
  1
2
 41
0.9999999999999998
  7
ＭＳ ゴシック
100
AcDbText
  0
TEXT
  5
612
330
1F
100
AcDbEntity
  8
2-5
  6
Continuous
 62
     7
370
     5
100
AcDbText
 10
-1803.561122997387
 20
-1038.94491686022
 30
0.0
 40
22.86
  1
※デルタパターンの配列は一定ではありません。
 41
1.159090909090909
  7
ＭＳ ゴシック
100
AcDbText
  0
TEXT
  5
613
330
1F
100
AcDbEntity
  8
2-5
  6
Continuous
 62
     7
370
     5
100
AcDbText
 10
-1664.995348131334
 20
-980.2635731630068
 30
0.0
 40
22.86
  1
メインバー表面　Ｓ＝１：１
 41
1.153846153846154
  7
ＭＳ ゴシック
100
AcDbText
  0
TEXT
  5
614
330
1F
100
AcDbEntity
  8
2-5
  6
Continuous
 62
     7
370
     5
100
AcDbText
 10
-1378.749538112331
 20
-632.8392567567568
 30
0.0
 40
22.86
  1
デルタパターン
 41
1.142857142857143
  7
ＭＳ ゴシック
100
AcDbText
  0
TEXT
  5
615
330
1F
100
AcDbEntity
  8
2-4
  6
Continuous
 62
    40
370
     9
100
AcDbText
 10
-1555.042350348396
 20
-861.9947773701435
 30
0.0
 40
30.48
  1
4
 50
90.0
 41
1.00000020619985
  7
ＭＳ ゴシック
100
AcDbText
  0
TEXT
  5
616
330
1F
100
AcDbEntity
  8
2-4
  6
Continuous
 62
    40
370
     9
100
AcDbText
 10
-1555.042350348396
 20
-801.9945794182854
 30
0.0
 40
30.48
  1
8
 50
90.0
 41
1.00000020619985
  7
ＭＳ ゴシック
100
AcDbText
  0
TEXT
  5
617
330
1F
100
AcDbEntity
  8
2-4
  6
Continuous
 62
    40
370
     9
100
AcDbText
 10
-1555.042350348396
 20
-756.9944309543918
 30
0.0
 40
30.48
  1
1
 50
90.0
 41
1.00000020619985
  7
ＭＳ ゴシック
100
AcDbText
  0
TEXT
  5
618
330
1F
100
AcDbEntity
  8
2-4
  6
Continuous
 62
    40
370
     9
100
AcDbText
 10
-1555.042350348396
 20
-711.9950248099661
 30
0.0
 40
30.48
  1
8
 50
90.0
 41
1.00000020619985
  7
ＭＳ ゴシック
100
AcDbText
  0
TEXT
  5
619
330
1F
100
AcDbEntity
  8
2-4
  6
Continuous
 62
    40
370
     9
100
AcDbText
 10
-1555.042350348396
 20
-651.9948268581081
 30
0.0
 40
30.48
  1
4
 50
90.0
 41
1.00000020619985
  7
ＭＳ ゴシック
100
AcDbText
  0
TEXT
  5
61A
330
1F
100
AcDbEntity
  8
2-4
  6
Continuous
 62
    40
370
     9
100
AcDbText
 10
-1336.275038265674
 20
-780.9912214063396
 30
0.0
 40
30.48
  1
0.5
 50
73.30062519528612
 41
1.083333333333333
  7
ＭＳ ゴシック
100
AcDbText
  0
TEXT
  5
61B
330
1F
100
AcDbEntity
  8
2-4
  6
Continuous
 62
    40
370
     9
100
AcDbText
 10
-1452.689011032517
 20
-518.7374908942145
 30
0.0
 40
30.48
  1
6
 41
1.000000206199843
  7
ＭＳ ゴシック
100
AcDbText
  0
TEXT
  5
61C
330
1F
100
AcDbEntity
  8
2-4
  6
Continuous
 62
    40
370
     9
100
AcDbText
 10
-1803.561122997387
 20
-1112.396845439189
 30
0.0
 40
30.48
  1
注記：メインバーの両端部のピッチは、玄関マットの大きさにより狭くなる場合があります。
 41
1.12202381075119
  7
ＭＳ ゴシック
100
AcDbText
  0
TEXT
  5
61D
330
1F
100
AcDbEntity
  8
2-4
  6
Continuous
 62
    40
370
     9
100
AcDbText
 10
6.382853542018765
 20
-761.8823572107262
 30
0.0
 40
30.48
  1
25
 50
90.0
 41
1.0625
  7
ＭＳ ゴシック
100
AcDbText
  0
TEXT
  5
61E
330
1F
100
AcDbEntity
  8
2-4
  6
Continuous
 62
    40
370
     9
100
AcDbText
 10
1369.728624498523
 20
-974.3989140361064
 30
0.0
 40
30.48
  1
溶接用アンカ－ ＠３００
 41
1.114130434782609
  7
ＭＳ ゴシック
100
AcDbText
  0
TEXT
  5
61F
330
1F
100
AcDbEntity
  8
2-4
  6
Continuous
 62
    40
370
     9
100
AcDbText
 10
1371.153135557433
 20
-1035.401243269637
 30
0.0
 40
30.48
  1
ｔ＝２．３（ＳＰＨＣ）
 41
1.113636363636364
  7
ＭＳ ゴシック
100
AcDbText
  0
TEXT
  5
620
330
1F
100
AcDbEntity
  8
2-4
  6
Continuous
 62
    40
370
     9
100
AcDbText
 10
-96.2884851404138
 20
-970.4010288217905
 30
0.0
 40
30.48
  1
クロスバー：□７
 41
1.109375
  7
ＭＳ ゴシック
100
AcDbText
  0
TEXT
  5
621
330
1F
100
AcDbEntity
  8
D-4
  6
Continuous
 62
    40
370
     9
100
AcDbText
 10
955.1620070998734
 20
1198.146977802998
 30
0.0
 40
30.48
  1
クロスバー：□７
 41
1.109375
  7
ＭＳ ゴシック
100
AcDbText
  0
TEXT
  5
622
330
1F
100
AcDbEntity
  8
1-4
  6
Continuous
 62
    40
370
     9
100
AcDbText
 10
-1596.603970914274
 20
-289.5462314585093
 30
0.0
 40
30.48
  1
30
 41
1.0625
  7
ＭＳ ゴシック
100
AcDbText
  0
TEXT
  5
623
330
1F
100
AcDbEntity
  8
1-4
  6
Continuous
 62
    40
370
     9
100
AcDbText
 10
3.395616686022151
 20
-289.5462314585093
 30
0.0
 40
30.48
  1
30
 41
1.0625
  7
ＭＳ ゴシック
100
AcDbText
  0
ENDSEC
  0
SECTION
  2
OBJECTS
  0
DICTIONARY
  5
C
330
0
100
AcDbDictionary
281
     1
  3
ACAD_GROUP
350
D
  3
ACAD_LAYOUT
350
1A
  3
ACAD_MLEADERSTYLE
350
625
  3
ACAD_MLINESTYLE
350
17
  3
ACAD_PLOTSETTINGS
350
19
  3
ACAD_PLOTSTYLENAME
350
E
  3
ACAD_TABLESTYLE
350
624
  3
ACAD_VISUALSTYLE
350
2A
  0
DICTIONARY
  5
D
102
{ACAD_REACTORS
330
C
102
}
330
C
100
AcDbDictionary
281
     1
  0
DICTIONARY
  5
1A
102
{ACAD_REACTORS
330
C
102
}
330
C
100
AcDbDictionary
281
     1
  3
Layout1
350
1E
  3
Layout2
350
26
  3
Model
350
22
  0
DICTIONARY
  5
625
102
{ACAD_REACTORS
330
C
102
}
330
C
100
AcDbDictionary
281
     1
  0
DICTIONARY
  5
17
102
{ACAD_REACTORS
330
C
102
}
330
C
100
AcDbDictionary
281
     1
  3
Standard
350
18
  0
DICTIONARY
  5
19
102
{ACAD_REACTORS
330
C
102
}
330
C
100
AcDbDictionary
281
     1
  0
ACDBDICTIONARYWDFLT
  5
E
102
{ACAD_REACTORS
330
C
102
}
330
C
100
AcDbDictionary
281
     1
  3
Normal
350
F
100
AcDbDictionaryWithDefault
340
F
  0
DICTIONARY
  5
624
102
{ACAD_REACTORS
330
C
102
}
330
C
100
AcDbDictionary
281
     1
  0
DICTIONARY
  5
2A
102
{ACAD_REACTORS
330
C
102
}
330
C
100
AcDbDictionary
281
     1
  3
2dWireframe
350
2F
  3
3D Hidden
350
31
  3
3dWireframe
350
30
  3
Basic
350
32
  3
Brighten
350
36
  3
ColorChange
350
3A
  3
Conceptual
350
34
  3
Dim
350
35
  3
Facepattern
350
39
  3
Flat
350
2B
  3
FlatWithEdges
350
2C
  3
Gouraud
350
2D
  3
GouraudWithEdges
350
2E
  3
Linepattern
350
38
  3
Realistic
350
33
  3
Thicken
350
37
  0
LAYOUT
  5
1E
102
{ACAD_REACTORS
330
1A
102
}
330
1A
100
AcDbPlotSettings
  1

  2
none_device
  4

  6

 40
0.0
 41
0.0
 42
0.0
 43
0.0
 44
0.0
 45
0.0
 46
0.0
 47
0.0
 48
0.0
 49
0.0
140
0.0
141
0.0
142
1.0
143
1.0
 70
   688
 72
     0
 73
     0
 74
     5
  7

 75
    16
 76
     0
 77
     5
 78
   300
147
1.0
148
0.0
149
0.0
100
AcDbLayout
  1
Layout1
 70
     1
 71
     1
 10
0.0
 20
0.0
 11
420.0
 21
297.0
 12
0.0
 22
0.0
 32
0.0
 14
1.000000000000000E+20
 24
1.000000000000000E+20
 34
1.000000000000000E+20
 15
-1.000000000000000E+20
 25
-1.000000000000000E+20
 35
-1.000000000000000E+20
146
0.0
 13
0.0
 23
0.0
 33
0.0
 16
1.0
 26
0.0
 36
0.0
 17
0.0
 27
1.0
 37
0.0
 76
     0
330
1B
  0
LAYOUT
  5
26
102
{ACAD_REACTORS
330
1A
102
}
330
1A
100
AcDbPlotSettings
  1

  2
none_device
  4

  6

 40
0.0
 41
0.0
 42
0.0
 43
0.0
 44
0.0
 45
0.0
 46
0.0
 47
0.0
 48
0.0
 49
0.0
140
0.0
141
0.0
142
1.0
143
1.0
 70
   688
 72
     0
 73
     0
 74
     5
  7

 75
    16
 76
     0
 77
     5
 78
   300
147
1.0
148
0.0
149
0.0
100
AcDbLayout
  1
Layout2
 70
     1
 71
     2
 10
0.0
 20
0.0
 11
0.0
 21
0.0
 12
0.0
 22
0.0
 32
0.0
 14
0.0
 24
0.0
 34
0.0
 15
0.0
 25
0.0
 35
0.0
146
0.0
 13
0.0
 23
0.0
 33
0.0
 16
1.0
 26
0.0
 36
0.0
 17
0.0
 27
1.0
 37
0.0
 76
     0
330
23
  0
LAYOUT
  5
22
102
{ACAD_REACTORS
330
1A
102
}
330
1A
100
AcDbPlotSettings
  1

  2
none_device
  4

  6

 40
0.0
 41
0.0
 42
0.0
 43
0.0
 44
0.0
 45
0.0
 46
0.0
 47
0.0
 48
0.0
 49
0.0
140
0.0
141
0.0
142
1.0
143
1.0
 70
  1712
 72
     0
 73
     0
 74
     0
  7

 75
     0
 76
     0
 77
     5
 78
   300
147
1.0
148
0.0
149
0.0
100
AcDbLayout
  1
Model
 70
     1
 71
     0
 10
-2100.0
 20
-1485.0
 11
2100.0
 21
1485.0
 12
0.0
 22
0.0
 32
0.0
 14
-2100.0
 24
-1485.0
 34
0.0
 15
2100.0
 25
1485.0
 35
0.0
146
0.0
 13
0.0
 23
0.0
 33
0.0
 16
1.0
 26
0.0
 36
0.0
 17
0.0
 27
1.0
 37
0.0
 76
     0
330
1F
331
29
  0
MLINESTYLE
  5
18
102
{ACAD_REACTORS
330
17
102
}
330
17
100
AcDbMlineStyle
  2
Standard
 70
     0
  3

 62
   256
 51
90.0
 52
90.0
 71
     2
 49
0.5
 62
   256
  6
BYLAYER
 49
-0.5
 62
   256
  6
BYLAYER
  0
ACDBPLACEHOLDER
  5
F
102
{ACAD_REACTORS
330
E
102
}
330
E
  0
VISUALSTYLE
  5
2F
102
{ACAD_REACTORS
330
2A
102
}
330
2A
100
AcDbVisualStyle
  2
2dWireframe
 70
     4
 71
     0
 72
     2
 73
     0
 90
        0
 40
-0.6
 41
-30.0
 62
     5
 63
     7
421
 16777215
 74
     1
 91
        4
 64
     7
 65
   257
 75
     1
175
     1
 42
1.0
 92
        0
 66
   257
 43
1.0
 76
     1
 77
     6
 78
     2
 67
     7
 79
     5
170
     0
171
     0
290
     0
174
     0
 93
        1
 44
0.0
173
     0
291
     0
 45
0.0
1001
ACAD
1000
AcDbSavedByObjectVersion
1070
     0
  0
VISUALSTYLE
  5
31
102
{ACAD_REACTORS
330
2A
102
}
330
2A
100
AcDbVisualStyle
  2
3D Hidden
 70
     6
 71
     1
 72
     2
 73
     2
 90
        0
 40
-0.6
 41
-30.0
 62
     5
 63
     7
421
 16777215
 74
     2
 91
        2
 64
     7
 65
   257
 75
     2
175
     1
 42
40.0
 92
        0
 66
   257
 43
1.0
 76
     1
 77
     6
 78
     2
 67
     7
 79
     3
170
     0
171
     0
290
     0
174
     0
 93
        1
 44
0.0
173
     0
291
     0
 45
0.0
1001
ACAD
1000
AcDbSavedByObjectVersion
1070
     0
  0
VISUALSTYLE
  5
30
102
{ACAD_REACTORS
330
2A
102
}
330
2A
100
AcDbVisualStyle
  2
3dWireframe
 70
     5
 71
     0
 72
     2
 73
     0
 90
        0
 40
-0.6
 41
-30.0
 62
     5
 63
     7
421
 16777215
 74
     1
 91
        4
 64
     7
 65
   257
 75
     1
175
     1
 42
1.0
 92
        0
 66
   257
 43
1.0
 76
     1
 77
     6
 78
     2
 67
     7
 79
     5
170
     0
171
     0
290
     0
174
     0
 93
        1
 44
0.0
173
     0
291
     0
 45
0.0
1001
ACAD
1000
AcDbSavedByObjectVersion
1070
     0
  0
VISUALSTYLE
  5
32
102
{ACAD_REACTORS
330
2A
102
}
330
2A
100
AcDbVisualStyle
  2
Basic
 70
     7
 71
     1
 72
     0
 73
     1
 90
        0
 40
-0.6
 41
-30.0
 62
     5
 63
     7
421
 16777215
 74
     0
 91
        4
 64
     7
 65
   257
 75
     1
175
     1
 42
1.0
 92
        8
 66
     7
 43
1.0
 76
     1
 77
     6
 78
     2
 67
     7
 79
     5
170
     0
171
     0
290
     0
174
     0
 93
        1
 44
0.0
173
     0
291
     1
 45
0.0
1001
ACAD
1000
AcDbSavedByObjectVersion
1070
     0
  0
VISUALSTYLE
  5
36
102
{ACAD_REACTORS
330
2A
102
}
330
2A
100
AcDbVisualStyle
  2
Brighten
 70
    12
 71
     2
 72
     2
 73
     0
 90
        0
 40
-0.6
 41
-30.0
 62
     5
 63
     7
421
 16777215
 74
     1
 91
        4
 64
     7
 65
   257
 75
     1
175
     1
 42
1.0
 92
        8
 66
     7
 43
1.0
 76
     1
 77
     6
 78
     2
 67
     7
 79
     5
170
     0
171
     0
290
     0
174
     0
 93
        1
 44
50.0
173
     0
291
     1
 45
0.0
1001
ACAD
1000
AcDbSavedByObjectVersion
1070
     0
  0
VISUALSTYLE
  5
3A
102
{ACAD_REACTORS
330
2A
102
}
330
2A
100
AcDbVisualStyle
  2
ColorChange
 70
    16
 71
     2
 72
     2
 73
     3
 90
        0
 40
-0.6
 41
-30.0
 62
     5
 63
     8
421
  8421504
 74
     1
 91
        4
 64
     7
 65
   257
 75
     1
175
     1
 42
1.0
 92
        8
 66
     8
424
  8421504
 43
1.0
 76
     1
 77
     6
 78
     2
 67
     7
 79
     5
170
     0
171
     0
290
     0
174
     0
 93
        1
 44
0.0
173
     0
291
     1
 45
0.0
1001
ACAD
1000
AcDbSavedByObjectVersion
1070
     0
  0
VISUALSTYLE
  5
34
102
{ACAD_REACTORS
330
2A
102
}
330
2A
100
AcDbVisualStyle
  2
Conceptual
 70
     9
 71
     3
 72
     2
 73
     0
 90
        0
 40
-0.6
 41
-30.0
 62
     5
 63
     7
421
 16777215
 74
     2
 91
        2
 64
     7
 65
   257
 75
     1
175
     1
 42
40.0
 92
        8
 66
     7
 43
1.0
 76
     1
 77
     6
 78
     2
 67
     7
 79
     3
170
     0
171
     0
290
     0
174
     0
 93
        1
 44
0.0
173
     0
291
     0
 45
0.0
1001
ACAD
1000
AcDbSavedByObjectVersion
1070
     0
  0
VISUALSTYLE
  5
35
102
{ACAD_REACTORS
330
2A
102
}
330
2A
100
AcDbVisualStyle
  2
Dim
 70
    11
 71
     2
 72
     2
 73
     0
 90
        0
 40
-0.6
 41
-30.0
 62
     5
 63
     7
421
 16777215
 74
     1
 91
        4
 64
     7
 65
   257
 75
     1
175
     1
 42
1.0
 92
        8
 66
     7
 43
1.0
 76
     1
 77
     6
 78
     2
 67
     7
 79
     5
170
     0
171
     0
290
     0
174
     0
 93
        1
 44
-50.0
173
     0
291
     1
 45
0.0
1001
ACAD
1000
AcDbSavedByObjectVersion
1070
     0
  0
VISUALSTYLE
  5
39
102
{ACAD_REACTORS
330
2A
102
}
330
2A
100
AcDbVisualStyle
  2
Facepattern
 70
    15
 71
     2
 72
     2
 73
     0
 90
        0
 40
-0.6
 41
-30.0
 62
     5
 63
     7
421
 16777215
 74
     1
 91
        4
 64
     7
 65
   257
 75
     1
175
     1
 42
1.0
 92
        8
 66
     7
 43
1.0
 76
     1
 77
     6
 78
     2
 67
     7
 79
     5
170
     0
171
     0
290
     0
174
     0
 93
        1
 44
0.0
173
     0
291
     1
 45
0.0
1001
ACAD
1000
AcDbSavedByObjectVersion
1070
     0
  0
VISUALSTYLE
  5
2B
102
{ACAD_REACTORS
330
2A
102
}
330
2A
100
AcDbVisualStyle
  2
Flat
 70
     0
 71
     2
 72
     1
 73
     1
 90
        2
 40
-0.6
 41
30.0
 62
     5
 63
     7
421
 16777215
 74
     0
 91
        4
 64
     7
 65
   257
 75
     1
175
     1
 42
1.0
 92
        8
 66
     7
 43
1.0
 76
     1
 77
     6
 78
     2
 67
     7
 79
     5
170
     0
171
     0
290
     0
174
     0
 93
       13
 44
0.0
173
     0
291
     1
 45
0.0
1001
ACAD
1000
AcDbSavedByObjectVersion
1070
     0
  0
VISUALSTYLE
  5
2C
102
{ACAD_REACTORS
330
2A
102
}
330
2A
100
AcDbVisualStyle
  2
FlatWithEdges
 70
     1
 71
     2
 72
     1
 73
     1
 90
        2
 40
-0.6
 41
30.0
 62
     5
 63
     7
421
 16777215
 74
     1
 91
        4
 64
     7
 65
   257
 75
     1
175
     1
 42
1.0
 92
        0
 66
   257
 43
1.0
 76
     1
 77
     6
 78
     2
 67
     7
 79
     5
170
     0
171
     0
290
     0
174
     0
 93
       13
 44
0.0
173
     0
291
     1
 45
0.0
1001
ACAD
1000
AcDbSavedByObjectVersion
1070
     0
  0
VISUALSTYLE
  5
2D
102
{ACAD_REACTORS
330
2A
102
}
330
2A
100
AcDbVisualStyle
  2
Gouraud
 70
     2
 71
     2
 72
     2
 73
     1
 90
        2
 40
-0.6
 41
30.0
 62
     5
 63
     7
421
 16777215
 74
     0
 91
        4
 64
     7
 65
   257
 75
     1
175
     1
 42
1.0
 92
        0
 66
     7
 43
1.0
 76
     1
 77
     6
 78
     2
 67
     7
 79
     5
170
     0
171
     0
290
     0
174
     0
 93
       13
 44
0.0
173
     0
291
     1
 45
0.0
1001
ACAD
1000
AcDbSavedByObjectVersion
1070
     0
  0
VISUALSTYLE
  5
2E
102
{ACAD_REACTORS
330
2A
102
}
330
2A
100
AcDbVisualStyle
  2
GouraudWithEdges
 70
     3
 71
     2
 72
     2
 73
     1
 90
        2
 40
-0.6
 41
30.0
 62
     5
 63
     7
421
 16777215
 74
     1
 91
        4
 64
     7
 65
   257
 75
     1
175
     1
 42
1.0
 92
        0
 66
   257
 43
1.0
 76
     1
 77
     6
 78
     2
 67
     7
 79
     5
170
     0
171
     0
290
     0
174
     0
 93
       13
 44
0.0
173
     0
291
     1
 45
0.0
1001
ACAD
1000
AcDbSavedByObjectVersion
1070
     0
  0
VISUALSTYLE
  5
38
102
{ACAD_REACTORS
330
2A
102
}
330
2A
100
AcDbVisualStyle
  2
Linepattern
 70
    14
 71
     2
 72
     2
 73
     0
 90
        0
 40
-0.6
 41
-30.0
 62
     5
 63
     7
421
 16777215
 74
     1
 91
        4
 64
     7
 65
   257
 75
     7
175
     7
 42
1.0
 92
        8
 66
     7
 43
1.0
 76
     1
 77
     6
 78
     2
 67
     7
 79
     5
170
     0
171
     0
290
     0
174
     0
 93
        1
 44
0.0
173
     0
291
     1
 45
0.0
1001
ACAD
1000
AcDbSavedByObjectVersion
1070
     0
  0
VISUALSTYLE
  5
33
102
{ACAD_REACTORS
330
2A
102
}
330
2A
100
AcDbVisualStyle
  2
Realistic
 70
     8
 71
     2
 72
     2
 73
     0
 90
        0
 40
-0.6
 41
-30.0
 62
     5
 63
     7
421
 16777215
 74
     1
 91
        0
 64
     7
 65
   257
 75
     1
175
     1
 42
1.0
 92
        8
 66
     8
424
  7895160
 43
1.0
 76
     1
 77
     6
 78
     2
 67
     7
 79
     5
170
     0
171
     0
290
     0
174
     0
 93
       13
 44
0.0
173
     0
291
     0
 45
0.0
1001
ACAD
1000
AcDbSavedByObjectVersion
1070
     0
  0
VISUALSTYLE
  5
37
102
{ACAD_REACTORS
330
2A
102
}
330
2A
100
AcDbVisualStyle
  2
Thicken
 70
    13
 71
     2
 72
     2
 73
     0
 90
        0
 40
-0.6
 41
-30.0
 62
     5
 63
     7
421
 16777215
 74
     1
 91
        4
 64
     7
 65
   257
 75
     1
175
     1
 42
1.0
 92
       12
 66
     7
 43
1.0
 76
     1
 77
     6
 78
     2
 67
     7
 79
     5
170
     0
171
     0
290
     0
174
     0
 93
        1
 44
0.0
173
     0
291
     1
 45
0.0
1001
ACAD
1000
AcDbSavedByObjectVersion
1070
     0
  0
ENDSEC
  0
EOF
