  0
SECTION
  2
HEADER
  9
$ACADVER
  1
AC1018
  9
$ACADMAINTVER
 70
     0
  9
$DWGCODEPAGE
  3
ANSI_932
  9
$INSBASE
 10
0.0
 20
0.0
 30
0.0
  9
$EXTMIN
 10
-2100.0
 20
-1485.0
 30
0.0
  9
$EXTMAX
 10
2100.0
 20
1485.0
 30
0.0
  9
$LIMMIN
 10
-2100.0
 20
-1485.0
  9
$LIMMAX
 10
2100.0
 20
1485.0
  9
$ORTHOMODE
 70
     0
  9
$REGENMODE
 70
     1
  9
$FILLMODE
 70
     1
  9
$QTEXTMODE
 70
     0
  9
$MIRRTEXT
 70
     1
  9
$LTSCALE
 40
10.0
  9
$ATTMODE
 70
     1
  9
$TEXTSIZE
 40
2.5
  9
$TRACEWID
 40
1.0
  9
$TEXTSTYLE
  7
Standard
  9
$CLAYER
  8
0
  9
$CELTYPE
  6
ByLayer
  9
$CECOLOR
 62
   256
  9
$CELTSCALE
 40
1.0
  9
$DISPSILH
 70
     0
  9
$DIMSCALE
 40
1.0
  9
$DIMASZ
 40
2.5
  9
$DIMEXO
 40
0.625
  9
$DIMDLI
 40
3.75
  9
$DIMRND
 40
0.0
  9
$DIMDLE
 40
0.0
  9
$DIMEXE
 40
1.25
  9
$DIMTP
 40
0.0
  9
$DIMTM
 40
0.0
  9
$DIMTXT
 40
2.5
  9
$DIMCEN
 40
2.5
  9
$DIMTSZ
 40
0.0
  9
$DIMTOL
 70
     0
  9
$DIMLIM
 70
     0
  9
$DIMTIH
 70
     0
  9
$DIMTOH
 70
     0
  9
$DIMSE1
 70
     0
  9
$DIMSE2
 70
     0
  9
$DIMTAD
 70
     1
  9
$DIMZIN
 70
     8
  9
$DIMBLK
  1

  9
$DIMASO
 70
     1
  9
$DIMSHO
 70
     1
  9
$DIMPOST
  1

  9
$DIMAPOST
  1

  9
$DIMALT
 70
     0
  9
$DIMALTD
 70
     3
  9
$DIMALTF
 40
0.03937007874016
  9
$DIMLFAC
 40
1.0
  9
$DIMTOFL
 70
     1
  9
$DIMTVP
 40
0.0
  9
$DIMTIX
 70
     0
  9
$DIMSOXD
 70
     0
  9
$DIMSAH
 70
     0
  9
$DIMBLK1
  1

  9
$DIMBLK2
  1

  9
$DIMSTYLE
  2
ISO-25
  9
$DIMCLRD
 70
     0
  9
$DIMCLRE
 70
     0
  9
$DIMCLRT
 70
     0
  9
$DIMTFAC
 40
1.0
  9
$DIMGAP
 40
0.625
  9
$DIMJUST
 70
     0
  9
$DIMSD1
 70
     0
  9
$DIMSD2
 70
     0
  9
$DIMTOLJ
 70
     0
  9
$DIMTZIN
 70
     8
  9
$DIMALTZ
 70
     0
  9
$DIMALTTZ
 70
     0
  9
$DIMUPT
 70
     0
  9
$DIMDEC
 70
     2
  9
$DIMTDEC
 70
     2
  9
$DIMALTU
 70
     2
  9
$DIMALTTD
 70
     3
  9
$DIMTXSTY
  7
Standard
  9
$DIMAUNIT
 70
     0
  9
$DIMADEC
 70
     0
  9
$DIMALTRND
 40
0.0
  9
$DIMAZIN
 70
     0
  9
$DIMDSEP
 70
    44
  9
$DIMATFIT
 70
     3
  9
$DIMFRAC
 70
     0
  9
$DIMLDRBLK
  1

  9
$DIMLUNIT
 70
     2
  9
$DIMLWD
 70
    -2
  9
$DIMLWE
 70
    -2
  9
$DIMTMOVE
 70
     0
  9
$LUNITS
 70
     2
  9
$LUPREC
 70
     4
  9
$SKETCHINC
 40
1.0
  9
$FILLETRAD
 40
10.0
  9
$AUNITS
 70
     0
  9
$AUPREC
 70
     0
  9
$MENU
  1
.
  9
$ELEVATION
 40
0.0
  9
$PELEVATION
 40
0.0
  9
$THICKNESS
 40
0.0
  9
$LIMCHECK
 70
     0
  9
$CHAMFERA
 40
10.0
  9
$CHAMFERB
 40
10.0
  9
$CHAMFERC
 40
20.0
  9
$CHAMFERD
 40
0.0
  9
$SKPOLY
 70
     0
  9
$TDCREATE
 40
2457186.649867905
  9
$TDUCREATE
 40
2457186.274867905
  9
$TDUPDATE
 40
2457186.649867916
  9
$TDUUPDATE
 40
2457186.274867916
  9
$TDINDWG
 40
0.0000000116
  9
$TDUSRTIMER
 40
0.0000000116
  9
$USRTIMER
 70
     1
  9
$ANGBASE
 50
0.0
  9
$ANGDIR
 70
     0
  9
$PDMODE
 70
     0
  9
$PDSIZE
 40
0.0
  9
$PLINEWID
 40
0.0
  9
$SPLFRAME
 70
     0
  9
$SPLINETYPE
 70
     6
  9
$SPLINESEGS
 70
     8
  9
$HANDSEED
  5
5D0
  9
$SURFTAB1
 70
     6
  9
$SURFTAB2
 70
     6
  9
$SURFTYPE
 70
     6
  9
$SURFU
 70
     6
  9
$SURFV
 70
     6
  9
$UCSBASE
  2

  9
$UCSNAME
  2

  9
$UCSORG
 10
0.0
 20
0.0
 30
0.0
  9
$UCSXDIR
 10
1.0
 20
0.0
 30
0.0
  9
$UCSYDIR
 10
0.0
 20
1.0
 30
0.0
  9
$UCSORTHOREF
  2

  9
$UCSORTHOVIEW
 70
     0
  9
$UCSORGTOP
 10
0.0
 20
0.0
 30
0.0
  9
$UCSORGBOTTOM
 10
0.0
 20
0.0
 30
0.0
  9
$UCSORGLEFT
 10
0.0
 20
0.0
 30
0.0
  9
$UCSORGRIGHT
 10
0.0
 20
0.0
 30
0.0
  9
$UCSORGFRONT
 10
0.0
 20
0.0
 30
0.0
  9
$UCSORGBACK
 10
0.0
 20
0.0
 30
0.0
  9
$PUCSBASE
  2

  9
$PUCSNAME
  2

  9
$PUCSORG
 10
0.0
 20
0.0
 30
0.0
  9
$PUCSXDIR
 10
1.0
 20
0.0
 30
0.0
  9
$PUCSYDIR
 10
0.0
 20
1.0
 30
0.0
  9
$PUCSORTHOREF
  2

  9
$PUCSORTHOVIEW
 70
     0
  9
$PUCSORGTOP
 10
0.0
 20
0.0
 30
0.0
  9
$PUCSORGBOTTOM
 10
0.0
 20
0.0
 30
0.0
  9
$PUCSORGLEFT
 10
0.0
 20
0.0
 30
0.0
  9
$PUCSORGRIGHT
 10
0.0
 20
0.0
 30
0.0
  9
$PUCSORGFRONT
 10
0.0
 20
0.0
 30
0.0
  9
$PUCSORGBACK
 10
0.0
 20
0.0
 30
0.0
  9
$USERI1
 70
     0
  9
$USERI2
 70
     0
  9
$USERI3
 70
     0
  9
$USERI4
 70
     0
  9
$USERI5
 70
     0
  9
$USERR1
 40
0.0
  9
$USERR2
 40
0.0
  9
$USERR3
 40
0.0
  9
$USERR4
 40
0.0
  9
$USERR5
 40
0.0
  9
$WORLDVIEW
 70
     1
  9
$SHADEDGE
 70
     3
  9
$SHADEDIF
 70
    70
  9
$TILEMODE
 70
     1
  9
$MAXACTVP
 70
    64
  9
$PINSBASE
 10
0.0
 20
0.0
 30
0.0
  9
$PLIMCHECK
 70
     0
  9
$PEXTMIN
 10
1.000000000000000E+20
 20
1.000000000000000E+20
 30
1.000000000000000E+20
  9
$PEXTMAX
 10
-1.000000000000000E+20
 20
-1.000000000000000E+20
 30
-1.000000000000000E+20
  9
$PLIMMIN
 10
0.0
 20
0.0
  9
$PLIMMAX
 10
420.0
 20
297.0
  9
$UNITMODE
 70
     0
  9
$VISRETAIN
 70
     1
  9
$PLINEGEN
 70
     0
  9
$PSLTSCALE
 70
     1
  9
$TREEDEPTH
 70
  3020
  9
$CMLSTYLE
  2
Standard
  9
$CMLJUST
 70
     0
  9
$CMLSCALE
 40
20.0
  9
$PROXYGRAPHICS
 70
     1
  9
$MEASUREMENT
 70
     1
  9
$CELWEIGHT
370
    -1
  9
$ENDCAPS
280
     0
  9
$JOINSTYLE
280
     0
  9
$LWDISPLAY
290
     0
  9
$INSUNITS
 70
     4
  9
$HYPERLINKBASE
  1

  9
$STYLESHEET
  1

  9
$XEDIT
290
     1
  9
$CEPSNTYPE
380
     0
  9
$PSTYLEMODE
290
     1
  9
$FINGERPRINTGUID
  2
{550BF1D6-1A8F-4C2F-9F4C-E142CBAA71FC}
  9
$VERSIONGUID
  2
{FAEB1C32-E019-11D5-929B-00C0DF256EC4}
  9
$EXTNAMES
290
     1
  9
$PSVPSCALE
 40
0.0
  9
$OLESTARTUP
290
     0
  9
$SORTENTS
280
   127
  9
$INDEXCTL
280
     0
  9
$HIDETEXT
280
     1
  9
$XCLIPFRAME
290
     0
  9
$HALOGAP
280
     0
  9
$OBSCOLOR
 70
   257
  9
$OBSLTYPE
280
     0
  9
$INTERSECTIONDISPLAY
280
     0
  9
$INTERSECTIONCOLOR
 70
   257
  9
$DIMASSOC
280
     2
  9
$PROJECTNAME
  1

  0
ENDSEC
  0
SECTION
  2
CLASSES
  0
CLASS
  1
ACDBDICTIONARYWDFLT
  2
AcDbDictionaryWithDefault
  3
ObjectDBX Classes
 90
        0
 91
        4
280
     0
281
     0
  0
CLASS
  1
VISUALSTYLE
  2
AcDbVisualStyle
  3
ObjectDBX Classes
 90
     4095
 91
        4
280
     0
281
     0
  0
ENDSEC
  0
SECTION
  2
TABLES
  0
TABLE
  2
VPORT
  5
8
330
0
100
AcDbSymbolTable
 70
     1
  0
VPORT
  5
29
330
8
100
AcDbSymbolTableRecord
100
AcDbViewportTableRecord
  2
*Active
 70
     0
 10
0.0
 20
0.0
 11
1.0
 21
1.0
 12
0.0
 22
0.0
 13
0.0
 23
0.0
 14
10.0
 24
10.0
 15
10.0
 25
10.0
 16
0.0
 26
0.0
 36
1.0
 17
0.0
 27
0.0
 37
0.0
 40
3267.0
 41
1.414141414141414
 42
50.0
 43
0.0
 44
0.0
 50
0.0
 51
0.0
 71
     0
 72
 10000
 73
     1
 74
     3
 75
     0
 76
     0
 77
     0
 78
     0
281
     0
 65
     1
110
0.0
120
0.0
130
0.0
111
1.0
121
0.0
131
0.0
112
0.0
122
1.0
132
0.0
 79
     0
146
0.0
  0
ENDTAB
  0
TABLE
  2
LTYPE
  5
5
330
0
100
AcDbSymbolTable
 70
     5
  0
LTYPE
  5
14
330
5
100
AcDbSymbolTableRecord
100
AcDbLinetypeTableRecord
  2
ByBlock
 70
     0
  3

 72
    65
 73
     0
 40
0.0
  0
LTYPE
  5
15
330
5
100
AcDbSymbolTableRecord
100
AcDbLinetypeTableRecord
  2
ByLayer
 70
     0
  3

 72
    65
 73
     0
 40
0.0
  0
LTYPE
  5
16
330
5
100
AcDbSymbolTableRecord
100
AcDbLinetypeTableRecord
  2
Continuous
 70
     0
  3
Solid line
 72
    65
 73
     0
 40
0.0
  0
LTYPE
  5
3C
330
5
100
AcDbSymbolTableRecord
100
AcDbLinetypeTableRecord
  2
JWW_DASHED3
 70
     0
  3
---  ------  ------  ------  ---
 72
    65
 73
     2
 40
3.386666666666667
 49
2.54
 74
     0
 49
-0.8466666666666667
 74
     0
  0
LTYPE
  5
3D
330
5
100
AcDbSymbolTableRecord
100
AcDbLinetypeTableRecord
  2
JWW_CENTER2
 70
     0
  3
-------------  --  -------------
 72
    65
 73
     4
 40
13.54666666666667
 49
11.00666666666667
 74
     0
 49
-0.8466666666666667
 74
     0
 49
0.8466666666666667
 74
     0
 49
-0.8466666666666667
 74
     0
  0
LTYPE
  5
3E
330
5
100
AcDbSymbolTableRecord
100
AcDbLinetypeTableRecord
  2
JWW_CENTER1
 70
     0
  3
-----  --  ----------  --  -----
 72
    65
 73
     4
 40
6.773333333333333
 49
4.233333333333333
 74
     0
 49
-0.8466666666666667
 74
     0
 49
0.8466666666666667
 74
     0
 49
-0.8466666666666667
 74
     0
  0
LTYPE
  5
3F
330
5
100
AcDbSymbolTableRecord
100
AcDbLinetypeTableRecord
  2
JWW_DASHED2
 70
     0
  3
--    ----    ----    ----    --
 72
    65
 73
     2
 40
3.386666666666667
 49
1.693333333333333
 74
     0
 49
-1.693333333333333
 74
     0
  0
ENDTAB
  0
TABLE
  2
LAYER
  5
2
330
0
100
AcDbSymbolTable
 70
    16
  0
LAYER
  5
10
330
2
100
AcDbSymbolTableRecord
100
AcDbLayerTableRecord
  2
0
 70
     0
 62
     7
  6
Continuous
370
    -3
390
F
  0
LAYER
  5
40
330
2
100
AcDbSymbolTableRecord
100
AcDbLayerTableRecord
  2
F-5
 70
     0
 62
     7
  6
Continuous
370
    -3
390
F
  0
LAYER
  5
41
330
2
100
AcDbSymbolTableRecord
100
AcDbLayerTableRecord
  2
C-2
 70
     0
 62
     7
  6
Continuous
370
    -3
390
F
  0
LAYER
  5
42
330
2
100
AcDbSymbolTableRecord
100
AcDbLayerTableRecord
  2
C-1
 70
     0
 62
     7
  6
Continuous
370
    -3
390
F
  0
LAYER
  5
43
330
2
100
AcDbSymbolTableRecord
100
AcDbLayerTableRecord
  2
C-5
 70
     0
 62
     7
  6
Continuous
370
    -3
390
F
  0
LAYER
  5
44
330
2
100
AcDbSymbolTableRecord
100
AcDbLayerTableRecord
  2
C-A
 70
     0
 62
     7
  6
Continuous
370
    -3
390
F
  0
LAYER
  5
45
330
2
100
AcDbSymbolTableRecord
100
AcDbLayerTableRecord
  2
C-4
 70
     0
 62
     7
  6
Continuous
370
    -3
390
F
  0
LAYER
  5
46
330
2
100
AcDbSymbolTableRecord
100
AcDbLayerTableRecord
  2
D-4
 70
     0
 62
     7
  6
Continuous
370
    -3
390
F
  0
LAYER
  5
47
330
2
100
AcDbSymbolTableRecord
100
AcDbLayerTableRecord
  2
D-6
 70
     0
 62
     7
  6
Continuous
370
    -3
390
F
  0
LAYER
  5
48
330
2
100
AcDbSymbolTableRecord
100
AcDbLayerTableRecord
  2
D-5
 70
     0
 62
     7
  6
Continuous
370
    -3
390
F
  0
LAYER
  5
49
330
2
100
AcDbSymbolTableRecord
100
AcDbLayerTableRecord
  2
D-0
 70
     0
 62
     7
  6
Continuous
370
    -3
390
F
  0
LAYER
  5
4A
330
2
100
AcDbSymbolTableRecord
100
AcDbLayerTableRecord
  2
D-9
 70
     0
 62
     7
  6
Continuous
370
    -3
390
F
  0
LAYER
  5
4B
330
2
100
AcDbSymbolTableRecord
100
AcDbLayerTableRecord
  2
D-1
 70
     0
 62
     7
  6
Continuous
370
    -3
390
F
  0
LAYER
  5
4C
330
2
100
AcDbSymbolTableRecord
100
AcDbLayerTableRecord
  2
D-3
 70
     0
 62
     7
  6
Continuous
370
    -3
390
F
  0
LAYER
  5
4D
330
2
100
AcDbSymbolTableRecord
100
AcDbLayerTableRecord
  2
D-A
 70
     0
 62
     7
  6
Continuous
370
    -3
390
F
  0
LAYER
  5
4E
330
2
100
AcDbSymbolTableRecord
100
AcDbLayerTableRecord
  2
D-2
 70
     0
 62
     7
  6
Continuous
370
    -3
390
F
  0
ENDTAB
  0
TABLE
  2
STYLE
  5
3
330
0
100
AcDbSymbolTable
 70
     2
  0
STYLE
  5
11
330
3
100
AcDbSymbolTableRecord
100
AcDbTextStyleTableRecord
  2
Standard
 70
     0
 40
0.0
 41
1.0
 50
0.0
 71
     0
 42
2.5
  3
txt
  4

1001
ACAD
1000

1071
        0
  0
STYLE
  5
3B
330
3
100
AcDbSymbolTableRecord
100
AcDbTextStyleTableRecord
  2
ＭＳ ゴシック
 70
     0
 40
1.0
 41
1.0
 50
0.0
 71
     0
 42
10.0
  3

  4

1001
ACAD
1000
MS Gothic
1071
    32817
  0
ENDTAB
  0
TABLE
  2
VIEW
  5
6
330
0
100
AcDbSymbolTable
 70
     0
  0
ENDTAB
  0
TABLE
  2
UCS
  5
7
330
0
100
AcDbSymbolTable
 70
     0
  0
ENDTAB
  0
TABLE
  2
APPID
  5
9
330
0
100
AcDbSymbolTable
 70
     1
  0
APPID
  5
12
330
9
100
AcDbSymbolTableRecord
100
AcDbRegAppTableRecord
  2
ACAD
 70
     0
  0
ENDTAB
  0
TABLE
  2
DIMSTYLE
  5
A
330
0
100
AcDbSymbolTable
 70
     1
100
AcDbDimStyleTable
  0
DIMSTYLE
105
27
330
A
100
AcDbSymbolTableRecord
100
AcDbDimStyleTableRecord
  2
ISO-25
 70
     0
 41
2.5
 42
0.625
 43
3.75
 44
1.25
 73
     0
 74
     0
 77
     1
 78
     8
140
2.5
141
2.5
143
0.03937007874016
147
0.625
171
     3
172
     1
271
     2
272
     2
274
     3
278
    44
283
     0
284
     8
340
11
  0
ENDTAB
  0
TABLE
  2
BLOCK_RECORD
  5
1
330
0
100
AcDbSymbolTable
 70
     1
  0
BLOCK_RECORD
  5
1F
330
1
100
AcDbSymbolTableRecord
100
AcDbBlockTableRecord
  2
*Model_Space
340
22
  0
BLOCK_RECORD
  5
1B
330
1
100
AcDbSymbolTableRecord
100
AcDbBlockTableRecord
  2
*Paper_Space
340
1E
  0
BLOCK_RECORD
  5
23
330
1
100
AcDbSymbolTableRecord
100
AcDbBlockTableRecord
  2
*Paper_Space0
340
26
  0
ENDTAB
  0
ENDSEC
  0
SECTION
  2
BLOCKS
  0
BLOCK
  5
20
330
1F
100
AcDbEntity
  8
0
100
AcDbBlockBegin
  2
*Model_Space
 70
     0
 10
0.0
 20
0.0
 30
0.0
  3
*Model_Space
  1

  0
ENDBLK
  5
21
330
1F
100
AcDbEntity
  8
0
100
AcDbBlockEnd
  0
BLOCK
  5
1C
330
1B
100
AcDbEntity
 67
     1
  8
0
100
AcDbBlockBegin
  2
*Paper_Space
 70
     0
 10
0.0
 20
0.0
 30
0.0
  3
*Paper_Space
  1

  0
ENDBLK
  5
1D
330
1B
100
AcDbEntity
 67
     1
  8
0
100
AcDbBlockEnd
  0
BLOCK
  5
24
330
23
100
AcDbEntity
  8
0
100
AcDbBlockBegin
  2
*Paper_Space0
 70
     0
 10
0.0
 20
0.0
 30
0.0
  3
*Paper_Space0
  1

  0
ENDBLK
  5
25
330
23
100
AcDbEntity
  8
0
100
AcDbBlockEnd
  0
ENDSEC
  0
SECTION
  2
ENTITIES
  0
TEXT
  5
4F
330
1F
100
AcDbEntity
  8
F-5
  6
Continuous
 62
     2
370
     9
100
AcDbText
 10
-731.5901402992006
 20
-1326.310621578057
 30
0.0
 40
30.48
  1
ステンレス製　細目ノンスリップタイプ（デルタ模様）グレーチング（すきま9mm）
 41
0.7743333333333332
  7
ＭＳ ゴシック
100
AcDbText
  0
LINE
  5
50
330
1F
100
AcDbEntity
  8
C-2
  6
Continuous
 62
     3
370
     9
100
AcDbLine
 10
-79.12131577569035
 20
963.6750042889571
 30
0.0
 11
-79.12131577569035
 21
463.6749279950118
 31
0.0
  0
LINE
  5
51
330
1F
100
AcDbEntity
  8
C-2
  6
Continuous
 62
     3
370
     9
100
AcDbLine
 10
-79.12131577569035
 20
463.6749279950118
 30
0.0
 11
-579.1211975200752
 21
463.6749279950118
 31
0.0
  0
LINE
  5
52
330
1F
100
AcDbEntity
  8
C-1
  6
Continuous
 62
     2
370
     9
100
AcDbLine
 10
-78.12149888115911
 20
964.6751263592696
 30
0.0
 11
-78.12149888115911
 21
462.6749432538008
 31
0.0
  0
LINE
  5
53
330
1F
100
AcDbEntity
  8
C-1
  6
Continuous
 62
     2
370
     9
100
AcDbLine
 10
-78.12149888115911
 20
462.6749432538008
 30
0.0
 11
-580.1215484722236
 21
462.6749432538008
 31
0.0
  0
LINE
  5
54
330
1F
100
AcDbEntity
  8
C-2
  6
Continuous
 62
     3
370
     9
100
AcDbLine
 10
-579.1211975200752
 20
463.6749279950118
 30
0.0
 11
-579.1211975200752
 21
963.6750042889571
 31
0.0
  0
LINE
  5
55
330
1F
100
AcDbEntity
  8
C-2
  6
Continuous
 62
     3
370
     9
100
AcDbLine
 10
-79.12131577569035
 20
963.6750042889571
 30
0.0
 11
-579.1211975200752
 21
963.6750042889571
 31
0.0
  0
LINE
  5
56
330
1F
100
AcDbEntity
  8
C-1
  6
Continuous
 62
     2
370
     9
100
AcDbLine
 10
-78.12149888115911
 20
964.6751263592696
 30
0.0
 11
-580.1215484722236
 21
964.6751263592696
 31
0.0
  0
LINE
  5
57
330
1F
100
AcDbEntity
  8
C-1
  6
Continuous
 62
     2
370
     9
100
AcDbLine
 10
-580.1215484722236
 20
462.6749432538008
 30
0.0
 11
-580.1215484722236
 21
964.6751263592696
 31
0.0
  0
LINE
  5
58
330
1F
100
AcDbEntity
  8
C-5
  6
Continuous
 62
     7
370
     9
100
AcDbLine
 10
-41.62082749444039
 20
355.6751111004806
 30
0.0
 11
-41.62082749444039
 21
290.6756756756758
 31
0.0
  0
LINE
  5
59
330
1F
100
AcDbEntity
  8
C-5
  6
Continuous
 62
     7
370
     9
100
AcDbLine
 10
-41.62082749444039
 20
290.6756756756758
 30
0.0
 11
-616.6217430217841
 21
290.6756756756758
 31
0.0
  0
LINE
  5
5A
330
1F
100
AcDbEntity
  8
C-5
  6
Continuous
 62
     7
370
     9
100
AcDbLine
 10
-616.6217430217841
 20
355.6751111004806
 30
0.0
 11
-41.62082749444039
 21
355.6751111004806
 31
0.0
  0
LINE
  5
5B
330
1F
100
AcDbEntity
  8
C-5
  6
Continuous
 62
     7
370
     9
100
AcDbLine
 10
-616.6217430217841
 20
290.6756756756758
 30
0.0
 11
-616.6217430217841
 21
355.6751111004806
 31
0.0
  0
LINE
  5
5C
330
1F
100
AcDbEntity
  8
C-A
  6
Continuous
 62
     3
370
     9
100
AcDbLine
 10
-79.12131577569035
 20
960.6750653241133
 30
0.0
 11
-579.1211975200752
 21
960.6750653241133
 31
0.0
  0
LINE
  5
5D
330
1F
100
AcDbEntity
  8
C-A
  6
Continuous
 62
     3
370
     9
100
AcDbLine
 10
-340.1209190471748
 20
960.6750653241133
 30
0.0
 11
-340.1209190471748
 21
466.6754773114181
 31
0.0
  0
LINE
  5
5E
330
1F
100
AcDbEntity
  8
C-A
  6
Continuous
 62
     3
370
     9
100
AcDbLine
 10
-334.1207969768623
 20
960.6750653241133
 30
0.0
 11
-334.1207969768623
 21
466.6754773114181
 31
0.0
  0
LINE
  5
5F
330
1F
100
AcDbEntity
  8
C-A
  6
Continuous
 62
     3
370
     9
100
AcDbLine
 10
-355.1212547405341
 20
960.6750653241133
 30
0.0
 11
-355.1212547405341
 21
466.6754773114181
 31
0.0
  0
LINE
  5
60
330
1F
100
AcDbEntity
  8
C-A
  6
Continuous
 62
     3
370
     9
100
AcDbLine
 10
-349.1211021526435
 20
960.6750653241133
 30
0.0
 11
-349.1211021526435
 21
466.6754773114181
 31
0.0
  0
LINE
  5
61
330
1F
100
AcDbEntity
  8
C-A
  6
Continuous
 62
     3
370
     9
100
AcDbLine
 10
-370.1210716350654
 20
960.6750653241133
 30
0.0
 11
-370.1210716350654
 21
466.6754773114181
 31
0.0
  0
LINE
  5
62
330
1F
100
AcDbEntity
  8
C-A
  6
Continuous
 62
     3
370
     9
100
AcDbLine
 10
-364.1209343059638
 20
960.6750653241133
 30
0.0
 11
-364.1209343059638
 21
466.6754773114181
 31
0.0
  0
LINE
  5
63
330
1F
100
AcDbEntity
  8
C-A
  6
Continuous
 62
     3
370
     9
100
AcDbLine
 10
-385.1208885295966
 20
960.6750653241133
 30
0.0
 11
-385.1208885295966
 21
466.6754773114181
 31
0.0
  0
LINE
  5
64
330
1F
100
AcDbEntity
  8
C-A
  6
Continuous
 62
     3
370
     9
100
AcDbLine
 10
-379.1207664592841
 20
960.6750653241133
 30
0.0
 11
-379.1207664592841
 21
466.6754773114181
 31
0.0
  0
LINE
  5
65
330
1F
100
AcDbEntity
  8
C-A
  6
Continuous
 62
     3
370
     9
100
AcDbLine
 10
-400.1212089641669
 20
960.6750653241133
 30
0.0
 11
-400.1212089641669
 21
466.6754773114181
 31
0.0
  0
LINE
  5
66
330
1F
100
AcDbEntity
  8
C-A
  6
Continuous
 62
     3
370
     9
100
AcDbLine
 10
-394.1210716350653
 20
960.6750653241133
 30
0.0
 11
-394.1210716350653
 21
466.6754773114181
 31
0.0
  0
LINE
  5
67
330
1F
100
AcDbEntity
  8
C-A
  6
Continuous
 62
     3
370
     9
100
AcDbLine
 10
-415.1210258586982
 20
960.6750653241133
 30
0.0
 11
-415.1210258586982
 21
466.6754773114181
 31
0.0
  0
LINE
  5
68
330
1F
100
AcDbEntity
  8
C-A
  6
Continuous
 62
     3
370
     9
100
AcDbLine
 10
-409.1209037883857
 20
960.6750653241133
 30
0.0
 11
-409.1209037883857
 21
466.6754773114181
 31
0.0
  0
LINE
  5
69
330
1F
100
AcDbEntity
  8
C-A
  6
Continuous
 62
     3
370
     9
100
AcDbLine
 10
-430.1213462932685
 20
960.6750653241133
 30
0.0
 11
-430.1213462932685
 21
466.6754773114181
 31
0.0
  0
LINE
  5
6A
330
1F
100
AcDbEntity
  8
C-A
  6
Continuous
 62
     3
370
     9
100
AcDbLine
 10
-424.121224222956
 20
960.6750653241133
 30
0.0
 11
-424.121224222956
 21
466.6754773114181
 31
0.0
  0
LINE
  5
6B
330
1F
100
AcDbEntity
  8
C-A
  6
Continuous
 62
     3
370
     9
100
AcDbLine
 10
-445.1211631877998
 20
960.6750653241133
 30
0.0
 11
-445.1211631877998
 21
466.6754773114181
 31
0.0
  0
LINE
  5
6C
330
1F
100
AcDbEntity
  8
C-A
  6
Continuous
 62
     3
370
     9
100
AcDbLine
 10
-439.1210411174873
 20
960.6750653241133
 30
0.0
 11
-439.1210411174873
 21
466.6754773114181
 31
0.0
  0
LINE
  5
6D
330
1F
100
AcDbEntity
  8
C-A
  6
Continuous
 62
     3
370
     9
100
AcDbLine
 10
-460.1209953411201
 20
960.6750653241133
 30
0.0
 11
-460.1209953411201
 21
466.6754773114181
 31
0.0
  0
LINE
  5
6E
330
1F
100
AcDbEntity
  8
C-A
  6
Continuous
 62
     3
370
     9
100
AcDbLine
 10
-454.1208580120185
 20
960.6750653241133
 30
0.0
 11
-454.1208580120185
 21
466.6754773114181
 31
0.0
  0
LINE
  5
6F
330
1F
100
AcDbEntity
  8
C-A
  6
Continuous
 62
     3
370
     9
100
AcDbLine
 10
-475.1213005169013
 20
960.6750653241133
 30
0.0
 11
-475.1213005169013
 21
466.6754773114181
 31
0.0
  0
LINE
  5
70
330
1F
100
AcDbEntity
  8
C-A
  6
Continuous
 62
     3
370
     9
100
AcDbLine
 10
-469.1211784465888
 20
960.6750653241133
 30
0.0
 11
-469.1211784465888
 21
466.6754773114181
 31
0.0
  0
LINE
  5
71
330
1F
100
AcDbEntity
  8
C-A
  6
Continuous
 62
     3
370
     9
100
AcDbLine
 10
-490.1211326702216
 20
960.6750653241133
 30
0.0
 11
-490.1211326702216
 21
466.6754773114181
 31
0.0
  0
LINE
  5
72
330
1F
100
AcDbEntity
  8
C-A
  6
Continuous
 62
     3
370
     9
100
AcDbLine
 10
-484.1209953411201
 20
960.6750653241133
 30
0.0
 11
-484.1209953411201
 21
466.6754773114181
 31
0.0
  0
LINE
  5
73
330
1F
100
AcDbEntity
  8
C-A
  6
Continuous
 62
     3
370
     9
100
AcDbLine
 10
-505.1214454753974
 20
960.6750653241133
 30
0.0
 11
-505.1214454753974
 21
466.6754773114181
 31
0.0
  0
LINE
  5
74
330
1F
100
AcDbEntity
  8
C-A
  6
Continuous
 62
     3
370
     9
100
AcDbLine
 10
-499.1213157756904
 20
960.6750653241133
 30
0.0
 11
-499.1213157756904
 21
466.6754773114181
 31
0.0
  0
LINE
  5
75
330
1F
100
AcDbEntity
  8
C-A
  6
Continuous
 62
     3
370
     9
100
AcDbLine
 10
-520.1212699993232
 20
960.6750653241133
 30
0.0
 11
-520.1212699993232
 21
466.6754773114181
 31
0.0
  0
LINE
  5
76
330
1F
100
AcDbEntity
  8
C-A
  6
Continuous
 62
     3
370
     9
100
AcDbLine
 10
-514.1211402996162
 20
960.6750653241133
 30
0.0
 11
-514.1211402996162
 21
466.6754773114181
 31
0.0
  0
LINE
  5
77
330
1F
100
AcDbEntity
  8
C-A
  6
Continuous
 62
     3
370
     9
100
AcDbLine
 10
-535.121094523249
 20
960.6750653241133
 30
0.0
 11
-535.121094523249
 21
466.6754773114181
 31
0.0
  0
LINE
  5
78
330
1F
100
AcDbEntity
  8
C-A
  6
Continuous
 62
     3
370
     9
100
AcDbLine
 10
-529.120964823542
 20
960.6750653241133
 30
0.0
 11
-529.120964823542
 21
466.6754773114181
 31
0.0
  0
LINE
  5
79
330
1F
100
AcDbEntity
  8
C-A
  6
Continuous
 62
     3
370
     9
100
AcDbLine
 10
-550.1214073284248
 20
960.6750653241133
 30
0.0
 11
-550.1214073284248
 21
466.6754773114181
 31
0.0
  0
LINE
  5
7A
330
1F
100
AcDbEntity
  8
C-A
  6
Continuous
 62
     3
370
     9
100
AcDbLine
 10
-544.1212776287177
 20
960.6750653241133
 30
0.0
 11
-544.1212776287177
 21
466.6754773114181
 31
0.0
  0
LINE
  5
7B
330
1F
100
AcDbEntity
  8
C-A
  6
Continuous
 62
     3
370
     9
100
AcDbLine
 10
-565.1212318523505
 20
960.6750653241133
 30
0.0
 11
-565.1212318523505
 21
466.6754773114181
 31
0.0
  0
LINE
  5
7C
330
1F
100
AcDbEntity
  8
C-A
  6
Continuous
 62
     3
370
     9
100
AcDbLine
 10
-559.1211021526435
 20
960.6750653241133
 30
0.0
 11
-559.1211021526435
 21
466.6754773114181
 31
0.0
  0
LINE
  5
7D
330
1F
100
AcDbEntity
  8
C-5
  6
Continuous
 62
     7
370
     9
100
AcDbLine
 10
108.3794166461847
 20
290.6756756756758
 30
0.0
 11
108.3794166461847
 21
355.6752331707929
 31
0.0
  0
LINE
  5
7E
330
1F
100
AcDbEntity
  8
C-5
  6
Continuous
 62
     7
370
     9
100
AcDbLine
 10
108.3794166461847
 20
355.6752331707929
 30
0.0
 11
583.3798438922784
 21
355.6752331707929
 31
0.0
  0
LINE
  5
7F
330
1F
100
AcDbEntity
  8
C-5
  6
Continuous
 62
     7
370
     9
100
AcDbLine
 10
583.3798438922784
 20
355.6752331707929
 30
0.0
 11
583.3798438922784
 21
290.6756756756758
 31
0.0
  0
LINE
  5
80
330
1F
100
AcDbEntity
  8
C-5
  6
Continuous
 62
     7
370
     9
100
AcDbLine
 10
583.3798438922784
 20
290.6756756756758
 30
0.0
 11
108.3794166461847
 21
290.6756756756758
 31
0.0
  0
LINE
  5
81
330
1F
100
AcDbEntity
  8
C-5
  6
Continuous
 62
     7
370
     9
100
AcDbLine
 10
-375.9690788372138
 20
511.3078015301679
 30
0.0
 11
-175.968148051081
 21
511.3078015301679
 31
0.0
  0
LINE
  5
82
330
1F
100
AcDbEntity
  8
C-5
  6
Continuous
 62
     7
370
     9
100
AcDbLine
 10
-175.968148051081
 20
511.3078015301679
 30
0.0
 11
-175.968148051081
 21
601.0728619549727
 31
0.0
  0
LINE
  5
83
330
1F
100
AcDbEntity
  8
C-5
  6
Continuous
 62
     7
370
     9
100
AcDbLine
 10
-175.968148051081
 20
601.0728619549727
 30
0.0
 11
-155.9690635784247
 21
551.0731366131758
 31
0.0
  0
LINE
  5
84
330
1F
100
AcDbEntity
  8
C-5
  6
Continuous
 62
     7
370
     9
100
AcDbLine
 10
-155.9690635784247
 20
551.0731366131758
 30
0.0
 11
-186.2352684124091
 21
551.0731366131758
 31
0.0
  0
LINE
  5
85
330
1F
100
AcDbEntity
  8
C-A
  6
Continuous
 62
     3
370
     9
100
AcDbLine
 10
-329.1210105999091
 20
463.6749279950118
 30
0.0
 11
-79.12082749444039
 21
713.6746075604415
 31
0.0
  0
LINE
  5
86
330
1F
100
AcDbEntity
  8
C-A
  6
Continuous
 62
     3
370
     9
100
AcDbLine
 10
-85.12149888115914
 20
960.6750653241133
 30
0.0
 11
-85.12149888115914
 21
707.6739666913008
 31
0.0
  0
LINE
  5
87
330
1F
100
AcDbEntity
  8
C-A
  6
Continuous
 62
     3
370
     9
100
AcDbLine
 10
-100.1213157756904
 20
960.6750653241133
 30
0.0
 11
-100.1213157756904
 21
692.6741497967694
 31
0.0
  0
LINE
  5
88
330
1F
100
AcDbEntity
  8
C-A
  6
Continuous
 62
     3
370
     9
100
AcDbLine
 10
-94.12119370537788
 20
960.6750653241133
 30
0.0
 11
-94.12119370537788
 21
698.674271867082
 31
0.0
  0
LINE
  5
89
330
1F
100
AcDbEntity
  8
C-A
  6
Continuous
 62
     3
370
     9
100
AcDbLine
 10
-115.1211021526435
 20
960.6750653241133
 30
0.0
 11
-115.1211021526435
 21
677.6744549725506
 31
0.0
  0
LINE
  5
8A
330
1F
100
AcDbEntity
  8
C-A
  6
Continuous
 62
     3
370
     9
100
AcDbLine
 10
-109.120980082331
 20
960.6750653241133
 30
0.0
 11
-109.120980082331
 21
683.6744549725508
 31
0.0
  0
LINE
  5
8B
330
1F
100
AcDbEntity
  8
C-A
  6
Continuous
 62
     3
370
     9
100
AcDbLine
 10
-124.1213157756903
 20
960.6750653241133
 30
0.0
 11
-124.1213157756903
 21
668.674271867082
 31
0.0
  0
LINE
  5
8C
330
1F
100
AcDbEntity
  8
C-A
  6
Continuous
 62
     3
370
     9
100
AcDbLine
 10
-145.1212547405341
 20
960.6750653241133
 30
0.0
 11
-145.1212547405341
 21
647.67430238466
 31
0.0
  0
LINE
  5
8D
330
1F
100
AcDbEntity
  8
C-A
  6
Continuous
 62
     3
370
     9
100
AcDbLine
 10
-139.1211326702216
 20
960.6750653241133
 30
0.0
 11
-139.1211326702216
 21
653.6744549725508
 31
0.0
  0
LINE
  5
8E
330
1F
100
AcDbEntity
  8
C-A
  6
Continuous
 62
     3
370
     9
100
AcDbLine
 10
-160.1215599163154
 20
960.6750653241133
 30
0.0
 11
-160.1215599163154
 21
632.6741192791915
 31
0.0
  0
LINE
  5
8F
330
1F
100
AcDbEntity
  8
C-A
  6
Continuous
 62
     3
370
     9
100
AcDbLine
 10
-154.1214378460029
 20
960.6750653241133
 30
0.0
 11
-154.1214378460029
 21
638.6741192791914
 31
0.0
  0
LINE
  5
90
330
1F
100
AcDbEntity
  8
C-A
  6
Continuous
 62
     3
370
     9
100
AcDbLine
 10
-175.1214073284248
 20
960.6750653241133
 30
0.0
 11
-175.1214073284248
 21
617.67430238466
 31
0.0
  0
LINE
  5
91
330
1F
100
AcDbEntity
  8
C-A
  6
Continuous
 62
     3
370
     9
100
AcDbLine
 10
-169.1212547405341
 20
960.6750653241133
 30
0.0
 11
-169.1212547405341
 21
623.6743023846602
 31
0.0
  0
LINE
  5
92
330
1F
100
AcDbEntity
  8
C-A
  6
Continuous
 62
     3
370
     9
100
AcDbLine
 10
-190.121224222956
 20
960.6750653241133
 30
0.0
 11
-190.121224222956
 21
602.674485490129
 31
0.0
  0
LINE
  5
93
330
1F
100
AcDbEntity
  8
C-A
  6
Continuous
 62
     3
370
     9
100
AcDbLine
 10
-184.1211021526435
 20
960.6750653241133
 30
0.0
 11
-184.1211021526435
 21
608.6746075604415
 31
0.0
  0
LINE
  5
94
330
1F
100
AcDbEntity
  8
C-A
  6
Continuous
 62
     3
370
     9
100
AcDbLine
 10
-205.1210411174873
 20
960.6750653241133
 30
0.0
 11
-205.1210411174873
 21
587.6746685955976
 31
0.0
  0
LINE
  5
95
330
1F
100
AcDbEntity
  8
C-A
  6
Continuous
 62
     3
370
     9
100
AcDbLine
 10
-199.1209190471747
 20
960.6750653241133
 30
0.0
 11
-199.1209190471747
 21
593.6747906659102
 31
0.0
  0
LINE
  5
96
330
1F
100
AcDbEntity
  8
C-A
  6
Continuous
 62
     3
370
     9
100
AcDbLine
 10
-220.1208580120185
 20
960.6750653241133
 30
0.0
 11
-220.1208580120185
 21
572.6748211834882
 31
0.0
  0
LINE
  5
97
330
1F
100
AcDbEntity
  8
C-A
  6
Continuous
 62
     3
370
     9
100
AcDbLine
 10
-214.120735941706
 20
960.6750653241133
 30
0.0
 11
-214.120735941706
 21
578.6749737713787
 31
0.0
  0
LINE
  5
98
330
1F
100
AcDbEntity
  8
C-A
  6
Continuous
 62
     3
370
     9
100
AcDbLine
 10
-235.1211937053779
 20
960.6750653241133
 30
0.0
 11
-235.1211937053779
 21
557.674516007707
 31
0.0
  0
LINE
  5
99
330
1F
100
AcDbEntity
  8
C-A
  6
Continuous
 62
     3
370
     9
100
AcDbLine
 10
-229.1210411174873
 20
960.6750653241133
 30
0.0
 11
-229.1210411174873
 21
563.6746380780196
 31
0.0
  0
LINE
  5
9A
330
1F
100
AcDbEntity
  8
C-A
  6
Continuous
 62
     3
370
     9
100
AcDbLine
 10
-250.1210105999091
 20
960.6750653241133
 30
0.0
 11
-250.1210105999091
 21
542.6748211834882
 31
0.0
  0
LINE
  5
9B
330
1F
100
AcDbEntity
  8
C-A
  6
Continuous
 62
     3
370
     9
100
AcDbLine
 10
-244.1208885295966
 20
960.6750653241133
 30
0.0
 11
-244.1208885295966
 21
548.6749432538008
 31
0.0
  0
LINE
  5
9C
330
1F
100
AcDbEntity
  8
C-A
  6
Continuous
 62
     3
370
     9
100
AcDbLine
 10
-265.1208274944404
 20
960.6750653241133
 30
0.0
 11
-265.1208274944404
 21
527.6749890301678
 31
0.0
  0
LINE
  5
9D
330
1F
100
AcDbEntity
  8
C-A
  6
Continuous
 62
     3
370
     9
100
AcDbLine
 10
-259.1207054241278
 20
960.6750653241133
 30
0.0
 11
-259.1207054241278
 21
533.6751263592694
 31
0.0
  0
LINE
  5
9E
330
1F
100
AcDbEntity
  8
C-A
  6
Continuous
 62
     3
370
     9
100
AcDbLine
 10
-280.1211326702216
 20
960.6750653241133
 30
0.0
 11
-280.1211326702216
 21
512.6746838543866
 31
0.0
  0
LINE
  5
9F
330
1F
100
AcDbEntity
  8
C-A
  6
Continuous
 62
     3
370
     9
100
AcDbLine
 10
-274.1210105999091
 20
960.6750653241133
 30
0.0
 11
-274.1210105999091
 21
518.6748059246992
 31
0.0
  0
LINE
  5
A0
330
1F
100
AcDbEntity
  8
C-A
  6
Continuous
 62
     3
370
     9
100
AcDbLine
 10
-295.1209495647529
 20
960.6750653241133
 30
0.0
 11
-295.1209495647529
 21
497.6749737713789
 31
0.0
  0
LINE
  5
A1
330
1F
100
AcDbEntity
  8
C-A
  6
Continuous
 62
     3
370
     9
100
AcDbLine
 10
-289.1208274944404
 20
960.6750653241133
 30
0.0
 11
-289.1208274944404
 21
503.6749890301681
 31
0.0
  0
LINE
  5
A2
330
1F
100
AcDbEntity
  8
C-A
  6
Continuous
 62
     3
370
     9
100
AcDbLine
 10
-310.1212852581122
 20
960.6750653241133
 30
0.0
 11
-310.1212852581122
 21
482.6746685955976
 31
0.0
  0
LINE
  5
A3
330
1F
100
AcDbEntity
  8
C-A
  6
Continuous
 62
     3
370
     9
100
AcDbLine
 10
-304.1211631877998
 20
960.6750653241133
 30
0.0
 11
-304.1211631877998
 21
488.6747906659102
 31
0.0
  0
LINE
  5
A4
330
1F
100
AcDbEntity
  8
C-A
  6
Continuous
 62
     3
370
     9
100
AcDbLine
 10
-325.1211021526435
 20
960.6750653241133
 30
0.0
 11
-325.1211021526435
 21
467.6748364422772
 31
0.0
  0
LINE
  5
A5
330
1F
100
AcDbEntity
  8
C-A
  6
Continuous
 62
     3
370
     9
100
AcDbLine
 10
-319.120980082331
 20
960.6750653241133
 30
0.0
 11
-319.120980082331
 21
473.6749737713788
 31
0.0
  0
LINE
  5
A6
330
1F
100
AcDbEntity
  8
C-A
  6
Continuous
 62
     3
370
     9
100
AcDbLine
 10
-326.1204612835029
 20
466.6754773114181
 30
0.0
 11
-579.1211975200752
 21
466.6754773114181
 31
0.0
  0
LINE
  5
A7
330
1F
100
AcDbEntity
  8
C-A
  6
Continuous
 62
     6
370
     9
100
AcDbLine
 10
-564.6213043315986
 20
954.8092205975511
 30
0.0
 11
-564.6213043315986
 21
958.8091595623948
 31
0.0
  0
LINE
  5
A8
330
1F
100
AcDbEntity
  8
C-A
  6
Continuous
 62
     6
370
     9
100
AcDbLine
 10
-564.6213043315986
 20
958.8091595623948
 30
0.0
 11
-559.6210296733955
 21
957.3093426678633
 31
0.0
  0
LINE
  5
A9
330
1F
100
AcDbEntity
  8
C-A
  6
Continuous
 62
     6
370
     9
100
AcDbLine
 10
-559.6210296733955
 20
956.3095257733321
 30
0.0
 11
-559.6210296733955
 21
957.3093426678633
 31
0.0
  0
LINE
  5
AA
330
1F
100
AcDbEntity
  8
C-A
  6
Continuous
 62
     6
370
     9
100
AcDbLine
 10
-559.6210296733955
 20
956.3095257733321
 30
0.0
 11
-564.6213043315986
 21
954.8092205975511
 31
0.0
  0
LINE
  5
AB
330
1F
100
AcDbEntity
  8
C-A
  6
Continuous
 62
     6
370
     9
100
AcDbLine
 10
-559.1211021526435
 20
955.9373944256756
 30
0.0
 11
-565.1212318523505
 21
954.1373455975508
 31
0.0
  0
LINE
  5
AC
330
1F
100
AcDbEntity
  8
C-A
  6
Continuous
 62
     6
370
     9
100
AcDbLine
 10
-565.1212318523505
 20
959.4815228436446
 30
0.0
 11
-559.1211021526435
 21
957.6814740155194
 31
0.0
  0
LINE
  5
AD
330
1F
100
AcDbEntity
  8
C-A
  6
Continuous
 62
     6
370
     9
100
AcDbLine
 10
-564.6213043315986
 20
933.8092816327071
 30
0.0
 11
-564.6213043315986
 21
937.8092205975508
 31
0.0
  0
LINE
  5
AE
330
1F
100
AcDbEntity
  8
C-A
  6
Continuous
 62
     6
370
     9
100
AcDbLine
 10
-564.6213043315986
 20
937.8092205975508
 30
0.0
 11
-559.6210296733955
 21
936.3094037030194
 31
0.0
  0
LINE
  5
AF
330
1F
100
AcDbEntity
  8
C-A
  6
Continuous
 62
     6
370
     9
100
AcDbLine
 10
-559.6210296733955
 20
935.3095868084883
 30
0.0
 11
-559.6210296733955
 21
936.3094037030194
 31
0.0
  0
LINE
  5
B0
330
1F
100
AcDbEntity
  8
C-A
  6
Continuous
 62
     6
370
     9
100
AcDbLine
 10
-559.6210296733955
 20
935.3095868084883
 30
0.0
 11
-564.6213043315986
 21
933.8092816327071
 31
0.0
  0
LINE
  5
B1
330
1F
100
AcDbEntity
  8
C-A
  6
Continuous
 62
     6
370
     9
100
AcDbLine
 10
-559.1211021526435
 20
934.9374554608321
 30
0.0
 11
-565.1212318523505
 21
933.1374066327069
 31
0.0
  0
LINE
  5
B2
330
1F
100
AcDbEntity
  8
C-A
  6
Continuous
 62
     6
370
     9
100
AcDbLine
 10
-565.1212318523505
 20
938.4815228436446
 30
0.0
 11
-559.1211021526435
 21
936.6815350506758
 31
0.0
  0
LINE
  5
B3
330
1F
100
AcDbEntity
  8
C-A
  6
Continuous
 62
     6
370
     9
100
AcDbLine
 10
-559.6210296733955
 20
944.3092816327069
 30
0.0
 11
-559.6210296733955
 21
948.3091595623946
 31
0.0
  0
LINE
  5
B4
330
1F
100
AcDbEntity
  8
C-A
  6
Continuous
 62
     6
370
     9
100
AcDbLine
 10
-559.6210296733955
 20
948.3091595623946
 30
0.0
 11
-564.6213043315986
 21
946.8094037030196
 31
0.0
  0
LINE
  5
B5
330
1F
100
AcDbEntity
  8
C-A
  6
Continuous
 62
     6
370
     9
100
AcDbLine
 10
-564.6213043315986
 20
945.8095257733319
 30
0.0
 11
-564.6213043315986
 21
946.8094037030196
 31
0.0
  0
LINE
  5
B6
330
1F
100
AcDbEntity
  8
C-A
  6
Continuous
 62
     6
370
     9
100
AcDbLine
 10
-564.6213043315986
 20
945.8095257733319
 30
0.0
 11
-559.6210296733955
 21
944.3092816327069
 31
0.0
  0
LINE
  5
B7
330
1F
100
AcDbEntity
  8
C-A
  6
Continuous
 62
     6
370
     9
100
AcDbLine
 10
-565.1212318523505
 20
945.4374554608321
 30
0.0
 11
-559.1211021526435
 21
943.6374066327071
 31
0.0
  0
LINE
  5
B8
330
1F
100
AcDbEntity
  8
C-A
  6
Continuous
 62
     6
370
     9
100
AcDbLine
 10
-559.1211021526435
 20
948.9815228436444
 30
0.0
 11
-565.1212318523505
 21
947.1814740155196
 31
0.0
  0
LINE
  5
B9
330
1F
100
AcDbEntity
  8
C-A
  6
Continuous
 62
     6
370
     9
100
AcDbLine
 10
-564.6213043315986
 20
912.8093426678631
 30
0.0
 11
-564.6213043315986
 21
916.8092205975508
 31
0.0
  0
LINE
  5
BA
330
1F
100
AcDbEntity
  8
C-A
  6
Continuous
 62
     6
370
     9
100
AcDbLine
 10
-564.6213043315986
 20
916.8092205975508
 30
0.0
 11
-559.6210296733955
 21
915.3094647381758
 31
0.0
  0
LINE
  5
BB
330
1F
100
AcDbEntity
  8
C-A
  6
Continuous
 62
     6
370
     9
100
AcDbLine
 10
-559.6210296733955
 20
914.3095868084881
 30
0.0
 11
-559.6210296733955
 21
915.3094647381758
 31
0.0
  0
LINE
  5
BC
330
1F
100
AcDbEntity
  8
C-A
  6
Continuous
 62
     6
370
     9
100
AcDbLine
 10
-559.6210296733955
 20
914.3095868084881
 30
0.0
 11
-564.6213043315986
 21
912.8093426678631
 31
0.0
  0
LINE
  5
BD
330
1F
100
AcDbEntity
  8
C-A
  6
Continuous
 62
     6
370
     9
100
AcDbLine
 10
-559.1211021526435
 20
913.9375164959883
 30
0.0
 11
-565.1212318523505
 21
912.1374676678633
 31
0.0
  0
LINE
  5
BE
330
1F
100
AcDbEntity
  8
C-A
  6
Continuous
 62
     6
370
     9
100
AcDbLine
 10
-565.1212318523505
 20
917.4815838788006
 30
0.0
 11
-559.1211021526435
 21
915.6815350506758
 31
0.0
  0
LINE
  5
BF
330
1F
100
AcDbEntity
  8
C-A
  6
Continuous
 62
     6
370
     9
100
AcDbLine
 10
-559.6210296733955
 20
923.309281632707
 30
0.0
 11
-559.6210296733955
 21
927.3092205975507
 31
0.0
  0
LINE
  5
C0
330
1F
100
AcDbEntity
  8
C-A
  6
Continuous
 62
     6
370
     9
100
AcDbLine
 10
-559.6210296733955
 20
927.3092205975507
 30
0.0
 11
-564.6213043315986
 21
925.8094647381758
 31
0.0
  0
LINE
  5
C1
330
1F
100
AcDbEntity
  8
C-A
  6
Continuous
 62
     6
370
     9
100
AcDbLine
 10
-564.6213043315986
 20
924.8095868084883
 30
0.0
 11
-564.6213043315986
 21
925.8094647381758
 31
0.0
  0
LINE
  5
C2
330
1F
100
AcDbEntity
  8
C-A
  6
Continuous
 62
     6
370
     9
100
AcDbLine
 10
-564.6213043315986
 20
924.8095868084883
 30
0.0
 11
-559.6210296733955
 21
923.309281632707
 31
0.0
  0
LINE
  5
C3
330
1F
100
AcDbEntity
  8
C-A
  6
Continuous
 62
     6
370
     9
100
AcDbLine
 10
-565.1212318523505
 20
924.4374554608319
 30
0.0
 11
-559.1211021526435
 21
922.6374676678633
 31
0.0
  0
LINE
  5
C4
330
1F
100
AcDbEntity
  8
C-A
  6
Continuous
 62
     6
370
     9
100
AcDbLine
 10
-559.1211021526435
 20
927.9815838788008
 30
0.0
 11
-565.1212318523505
 21
926.1815350506756
 31
0.0
  0
LINE
  5
C5
330
1F
100
AcDbEntity
  8
C-A
  6
Continuous
 62
     6
370
     9
100
AcDbLine
 10
-564.6213043315986
 20
891.8094037030196
 30
0.0
 11
-564.6213043315986
 21
895.809281632707
 31
0.0
  0
LINE
  5
C6
330
1F
100
AcDbEntity
  8
C-A
  6
Continuous
 62
     6
370
     9
100
AcDbLine
 10
-564.6213043315986
 20
895.809281632707
 30
0.0
 11
-559.6210296733955
 21
894.3095257733321
 31
0.0
  0
LINE
  5
C7
330
1F
100
AcDbEntity
  8
C-A
  6
Continuous
 62
     6
370
     9
100
AcDbLine
 10
-559.6210296733955
 20
893.3096478436446
 30
0.0
 11
-559.6210296733955
 21
894.3095257733321
 31
0.0
  0
LINE
  5
C8
330
1F
100
AcDbEntity
  8
C-A
  6
Continuous
 62
     6
370
     9
100
AcDbLine
 10
-559.6210296733955
 20
893.3096478436446
 30
0.0
 11
-564.6213043315986
 21
891.8094037030196
 31
0.0
  0
LINE
  5
C9
330
1F
100
AcDbEntity
  8
C-A
  6
Continuous
 62
     6
370
     9
100
AcDbLine
 10
-559.1211021526435
 20
892.9375775311445
 30
0.0
 11
-565.1212318523505
 21
891.1375287030196
 31
0.0
  0
LINE
  5
CA
330
1F
100
AcDbEntity
  8
C-A
  6
Continuous
 62
     6
370
     9
100
AcDbLine
 10
-565.1212318523505
 20
896.4816449139571
 30
0.0
 11
-559.1211021526435
 21
894.6815960858319
 31
0.0
  0
LINE
  5
CB
330
1F
100
AcDbEntity
  8
C-A
  6
Continuous
 62
     6
370
     9
100
AcDbLine
 10
-559.6210296733955
 20
902.3093426678633
 30
0.0
 11
-559.6210296733955
 21
906.3092816327071
 31
0.0
  0
LINE
  5
CC
330
1F
100
AcDbEntity
  8
C-A
  6
Continuous
 62
     6
370
     9
100
AcDbLine
 10
-559.6210296733955
 20
906.3092816327071
 30
0.0
 11
-564.6213043315986
 21
904.8094647381756
 31
0.0
  0
LINE
  5
CD
330
1F
100
AcDbEntity
  8
C-A
  6
Continuous
 62
     6
370
     9
100
AcDbLine
 10
-564.6213043315986
 20
903.8096478436446
 30
0.0
 11
-564.6213043315986
 21
904.8094647381756
 31
0.0
  0
LINE
  5
CE
330
1F
100
AcDbEntity
  8
C-A
  6
Continuous
 62
     6
370
     9
100
AcDbLine
 10
-564.6213043315986
 20
903.8096478436446
 30
0.0
 11
-559.6210296733955
 21
902.3093426678633
 31
0.0
  0
LINE
  5
CF
330
1F
100
AcDbEntity
  8
C-A
  6
Continuous
 62
     6
370
     9
100
AcDbLine
 10
-565.1212318523505
 20
903.4375164959883
 30
0.0
 11
-559.1211021526435
 21
901.6374676678631
 31
0.0
  0
LINE
  5
D0
330
1F
100
AcDbEntity
  8
C-A
  6
Continuous
 62
     6
370
     9
100
AcDbLine
 10
-559.1211021526435
 20
906.9816449139571
 30
0.0
 11
-565.1212318523505
 21
905.1815960858321
 31
0.0
  0
LINE
  5
D1
330
1F
100
AcDbEntity
  8
C-A
  6
Continuous
 62
     6
370
     9
100
AcDbLine
 10
-564.6213043315986
 20
870.8094037030196
 30
0.0
 11
-564.6213043315986
 21
874.8093426678633
 31
0.0
  0
LINE
  5
D2
330
1F
100
AcDbEntity
  8
C-A
  6
Continuous
 62
     6
370
     9
100
AcDbLine
 10
-564.6213043315986
 20
874.8093426678633
 30
0.0
 11
-559.6210296733955
 21
873.3095868084882
 31
0.0
  0
LINE
  5
D3
330
1F
100
AcDbEntity
  8
C-A
  6
Continuous
 62
     6
370
     9
100
AcDbLine
 10
-559.6210296733955
 20
872.3097088788008
 30
0.0
 11
-559.6210296733955
 21
873.3095868084882
 31
0.0
  0
LINE
  5
D4
330
1F
100
AcDbEntity
  8
C-A
  6
Continuous
 62
     6
370
     9
100
AcDbLine
 10
-559.6210296733955
 20
872.3097088788008
 30
0.0
 11
-564.6213043315986
 21
870.8094037030196
 31
0.0
  0
LINE
  5
D5
330
1F
100
AcDbEntity
  8
C-A
  6
Continuous
 62
     6
370
     9
100
AcDbLine
 10
-559.1211021526435
 20
871.9376385663008
 30
0.0
 11
-565.1212318523505
 21
870.1375897381757
 31
0.0
  0
LINE
  5
D6
330
1F
100
AcDbEntity
  8
C-A
  6
Continuous
 62
     6
370
     9
100
AcDbLine
 10
-565.1212318523505
 20
875.4817059491133
 30
0.0
 11
-559.1211021526435
 21
873.6816571209883
 31
0.0
  0
LINE
  5
D7
330
1F
100
AcDbEntity
  8
C-A
  6
Continuous
 62
     6
370
     9
100
AcDbLine
 10
-559.6210296733955
 20
881.3094037030194
 30
0.0
 11
-559.6210296733955
 21
885.3093426678631
 31
0.0
  0
LINE
  5
D8
330
1F
100
AcDbEntity
  8
C-A
  6
Continuous
 62
     6
370
     9
100
AcDbLine
 10
-559.6210296733955
 20
885.3093426678631
 30
0.0
 11
-564.6213043315986
 21
883.8095257733321
 31
0.0
  0
LINE
  5
D9
330
1F
100
AcDbEntity
  8
C-A
  6
Continuous
 62
     6
370
     9
100
AcDbLine
 10
-564.6213043315986
 20
882.8097088788007
 30
0.0
 11
-564.6213043315986
 21
883.8095257733321
 31
0.0
  0
LINE
  5
DA
330
1F
100
AcDbEntity
  8
C-A
  6
Continuous
 62
     6
370
     9
100
AcDbLine
 10
-564.6213043315986
 20
882.8097088788007
 30
0.0
 11
-559.6210296733955
 21
881.3094037030194
 31
0.0
  0
LINE
  5
DB
330
1F
100
AcDbEntity
  8
C-A
  6
Continuous
 62
     6
370
     9
100
AcDbLine
 10
-565.1212318523505
 20
882.4375775311446
 30
0.0
 11
-559.1211021526435
 21
880.6375287030196
 31
0.0
  0
LINE
  5
DC
330
1F
100
AcDbEntity
  8
C-A
  6
Continuous
 62
     6
370
     9
100
AcDbLine
 10
-559.1211021526435
 20
885.9816449139569
 30
0.0
 11
-565.1212318523505
 21
884.1816571209883
 31
0.0
  0
LINE
  5
DD
330
1F
100
AcDbEntity
  8
C-A
  6
Continuous
 62
     6
370
     9
100
AcDbLine
 10
-549.6209877117255
 20
940.3470013592696
 30
0.0
 11
-549.6209877117255
 21
944.3468792889573
 31
0.0
  0
LINE
  5
DE
330
1F
100
AcDbEntity
  8
C-A
  6
Continuous
 62
     6
370
     9
100
AcDbLine
 10
-549.6209877117255
 20
944.3468792889573
 30
0.0
 11
-544.621208964167
 21
942.8471234295821
 31
0.0
  0
LINE
  5
DF
330
1F
100
AcDbEntity
  8
C-A
  6
Continuous
 62
     6
370
     9
100
AcDbLine
 10
-544.621208964167
 20
941.8472454998946
 30
0.0
 11
-544.621208964167
 21
942.8471234295821
 31
0.0
  0
LINE
  5
E0
330
1F
100
AcDbEntity
  8
C-A
  6
Continuous
 62
     6
370
     9
100
AcDbLine
 10
-544.621208964167
 20
941.8472454998946
 30
0.0
 11
-549.6209877117255
 21
940.3470013592696
 31
0.0
  0
LINE
  5
E1
330
1F
100
AcDbEntity
  8
C-A
  6
Continuous
 62
     6
370
     9
100
AcDbLine
 10
-544.1212776287177
 20
941.4751751873948
 30
0.0
 11
-550.1209114177802
 21
939.6751263592696
 31
0.0
  0
LINE
  5
E2
330
1F
100
AcDbEntity
  8
C-A
  6
Continuous
 62
     6
370
     9
100
AcDbLine
 10
-550.1209114177802
 20
945.0192425702071
 30
0.0
 11
-544.1212776287177
 21
943.2191937420819
 31
0.0
  0
LINE
  5
E3
330
1F
100
AcDbEntity
  8
C-A
  6
Continuous
 62
     6
370
     9
100
AcDbLine
 10
-544.621208964167
 20
950.8469403241133
 30
0.0
 11
-544.621208964167
 21
954.8468792889571
 31
0.0
  0
LINE
  5
E4
330
1F
100
AcDbEntity
  8
C-A
  6
Continuous
 62
     6
370
     9
100
AcDbLine
 10
-544.621208964167
 20
954.8468792889571
 30
0.0
 11
-549.6209877117255
 21
953.3471234295823
 31
0.0
  0
LINE
  5
E5
330
1F
100
AcDbEntity
  8
C-A
  6
Continuous
 62
     6
370
     9
100
AcDbLine
 10
-549.6209877117255
 20
952.3472454998946
 30
0.0
 11
-549.6209877117255
 21
953.3471234295823
 31
0.0
  0
LINE
  5
E6
330
1F
100
AcDbEntity
  8
C-A
  6
Continuous
 62
     6
370
     9
100
AcDbLine
 10
-549.6209877117255
 20
952.3472454998946
 30
0.0
 11
-544.621208964167
 21
950.8469403241133
 31
0.0
  0
LINE
  5
E7
330
1F
100
AcDbEntity
  8
C-A
  6
Continuous
 62
     6
370
     9
100
AcDbLine
 10
-550.1209114177802
 20
951.9751751873946
 30
0.0
 11
-544.1212776287177
 21
950.1751263592698
 31
0.0
  0
LINE
  5
E8
330
1F
100
AcDbEntity
  8
C-A
  6
Continuous
 62
     6
370
     9
100
AcDbLine
 10
-544.1212776287177
 20
955.5192425702071
 30
0.0
 11
-550.1209114177802
 21
953.7191937420821
 31
0.0
  0
LINE
  5
E9
330
1F
100
AcDbEntity
  8
C-A
  6
Continuous
 62
     6
370
     9
100
AcDbLine
 10
-549.6209877117255
 20
919.3470623944258
 30
0.0
 11
-549.6209877117255
 21
923.3469403241133
 31
0.0
  0
LINE
  5
EA
330
1F
100
AcDbEntity
  8
C-A
  6
Continuous
 62
     6
370
     9
100
AcDbLine
 10
-549.6209877117255
 20
923.3469403241133
 30
0.0
 11
-544.621208964167
 21
921.8471844647382
 31
0.0
  0
LINE
  5
EB
330
1F
100
AcDbEntity
  8
C-A
  6
Continuous
 62
     6
370
     9
100
AcDbLine
 10
-544.621208964167
 20
920.8473065350508
 30
0.0
 11
-544.621208964167
 21
921.8471844647382
 31
0.0
  0
LINE
  5
EC
330
1F
100
AcDbEntity
  8
C-A
  6
Continuous
 62
     6
370
     9
100
AcDbLine
 10
-544.621208964167
 20
920.8473065350508
 30
0.0
 11
-549.6209877117255
 21
919.3470623944258
 31
0.0
  0
LINE
  5
ED
330
1F
100
AcDbEntity
  8
C-A
  6
Continuous
 62
     6
370
     9
100
AcDbLine
 10
-544.1212776287177
 20
920.4752362225508
 30
0.0
 11
-550.1209114177802
 21
918.6751873944257
 31
0.0
  0
LINE
  5
EE
330
1F
100
AcDbEntity
  8
C-A
  6
Continuous
 62
     6
370
     9
100
AcDbLine
 10
-550.1209114177802
 20
924.0193036053633
 30
0.0
 11
-544.1212776287177
 21
922.2192547772383
 31
0.0
  0
LINE
  5
EF
330
1F
100
AcDbEntity
  8
C-A
  6
Continuous
 62
     6
370
     9
100
AcDbLine
 10
-544.621208964167
 20
929.8470013592694
 30
0.0
 11
-544.621208964167
 21
933.8469403241131
 31
0.0
  0
LINE
  5
F0
330
1F
100
AcDbEntity
  8
C-A
  6
Continuous
 62
     6
370
     9
100
AcDbLine
 10
-544.621208964167
 20
933.8469403241131
 30
0.0
 11
-549.6209877117255
 21
932.3471234295821
 31
0.0
  0
LINE
  5
F1
330
1F
100
AcDbEntity
  8
C-A
  6
Continuous
 62
     6
370
     9
100
AcDbLine
 10
-549.6209877117255
 20
931.3473065350511
 30
0.0
 11
-549.6209877117255
 21
932.3471234295821
 31
0.0
  0
LINE
  5
F2
330
1F
100
AcDbEntity
  8
C-A
  6
Continuous
 62
     6
370
     9
100
AcDbLine
 10
-549.6209877117255
 20
931.3473065350511
 30
0.0
 11
-544.621208964167
 21
929.8470013592694
 31
0.0
  0
LINE
  5
F3
330
1F
100
AcDbEntity
  8
C-A
  6
Continuous
 62
     6
370
     9
100
AcDbLine
 10
-550.1209114177802
 20
930.9751751873946
 30
0.0
 11
-544.1212776287177
 21
929.1751873944258
 31
0.0
  0
LINE
  5
F4
330
1F
100
AcDbEntity
  8
C-A
  6
Continuous
 62
     6
370
     9
100
AcDbLine
 10
-544.1212776287177
 20
934.5193036053636
 30
0.0
 11
-550.1209114177802
 21
932.7192547772383
 31
0.0
  0
LINE
  5
F5
330
1F
100
AcDbEntity
  8
C-A
  6
Continuous
 62
     6
370
     9
100
AcDbLine
 10
-549.6209877117255
 20
898.3470623944256
 30
0.0
 11
-549.6209877117255
 21
902.3470013592694
 31
0.0
  0
LINE
  5
F6
330
1F
100
AcDbEntity
  8
C-A
  6
Continuous
 62
     6
370
     9
100
AcDbLine
 10
-549.6209877117255
 20
902.3470013592694
 30
0.0
 11
-544.621208964167
 21
900.8472454998946
 31
0.0
  0
LINE
  5
F7
330
1F
100
AcDbEntity
  8
C-A
  6
Continuous
 62
     6
370
     9
100
AcDbLine
 10
-544.621208964167
 20
899.847367570207
 30
0.0
 11
-544.621208964167
 21
900.8472454998946
 31
0.0
  0
LINE
  5
F8
330
1F
100
AcDbEntity
  8
C-A
  6
Continuous
 62
     6
370
     9
100
AcDbLine
 10
-544.621208964167
 20
899.847367570207
 30
0.0
 11
-549.6209877117255
 21
898.3470623944256
 31
0.0
  0
LINE
  5
F9
330
1F
100
AcDbEntity
  8
C-A
  6
Continuous
 62
     6
370
     9
100
AcDbLine
 10
-544.1212776287177
 20
899.4752972577069
 30
0.0
 11
-550.1209114177802
 21
897.6752484295821
 31
0.0
  0
LINE
  5
FA
330
1F
100
AcDbEntity
  8
C-A
  6
Continuous
 62
     6
370
     9
100
AcDbLine
 10
-550.1209114177802
 20
903.0193646405195
 30
0.0
 11
-544.1212776287177
 21
901.2193158123946
 31
0.0
  0
LINE
  5
FB
330
1F
100
AcDbEntity
  8
C-A
  6
Continuous
 62
     6
370
     9
100
AcDbLine
 10
-544.621208964167
 20
908.8470623944258
 30
0.0
 11
-544.621208964167
 21
912.8470013592696
 31
0.0
  0
LINE
  5
FC
330
1F
100
AcDbEntity
  8
C-A
  6
Continuous
 62
     6
370
     9
100
AcDbLine
 10
-544.621208964167
 20
912.8470013592696
 30
0.0
 11
-549.6209877117255
 21
911.3471844647383
 31
0.0
  0
LINE
  5
FD
330
1F
100
AcDbEntity
  8
C-A
  6
Continuous
 62
     6
370
     9
100
AcDbLine
 10
-549.6209877117255
 20
910.3473675702071
 30
0.0
 11
-549.6209877117255
 21
911.3471844647383
 31
0.0
  0
LINE
  5
FE
330
1F
100
AcDbEntity
  8
C-A
  6
Continuous
 62
     6
370
     9
100
AcDbLine
 10
-549.6209877117255
 20
910.3473675702071
 30
0.0
 11
-544.621208964167
 21
908.8470623944258
 31
0.0
  0
LINE
  5
FF
330
1F
100
AcDbEntity
  8
C-A
  6
Continuous
 62
     6
370
     9
100
AcDbLine
 10
-550.1209114177802
 20
909.9752362225507
 30
0.0
 11
-544.1212776287177
 21
908.1751873944258
 31
0.0
  0
LINE
  5
100
330
1F
100
AcDbEntity
  8
C-A
  6
Continuous
 62
     6
370
     9
100
AcDbLine
 10
-544.1212776287177
 20
913.5193646405196
 30
0.0
 11
-550.1209114177802
 21
911.7193158123945
 31
0.0
  0
LINE
  5
101
330
1F
100
AcDbEntity
  8
C-A
  6
Continuous
 62
     6
370
     9
100
AcDbLine
 10
-544.621208964167
 20
887.8471234295821
 30
0.0
 11
-544.621208964167
 21
891.8470623944258
 31
0.0
  0
LINE
  5
102
330
1F
100
AcDbEntity
  8
C-A
  6
Continuous
 62
     6
370
     9
100
AcDbLine
 10
-544.621208964167
 20
891.8470623944258
 30
0.0
 11
-549.6209877117255
 21
890.3472454998945
 31
0.0
  0
LINE
  5
103
330
1F
100
AcDbEntity
  8
C-A
  6
Continuous
 62
     6
370
     9
100
AcDbLine
 10
-549.6209877117255
 20
889.3473675702071
 30
0.0
 11
-549.6209877117255
 21
890.3472454998945
 31
0.0
  0
LINE
  5
104
330
1F
100
AcDbEntity
  8
C-A
  6
Continuous
 62
     6
370
     9
100
AcDbLine
 10
-549.6209877117255
 20
889.3473675702071
 30
0.0
 11
-544.621208964167
 21
887.8471234295821
 31
0.0
  0
LINE
  5
105
330
1F
100
AcDbEntity
  8
C-A
  6
Continuous
 62
     6
370
     9
100
AcDbLine
 10
-550.1209114177802
 20
888.9752972577071
 30
0.0
 11
-544.1212776287177
 21
887.175248429582
 31
0.0
  0
LINE
  5
106
330
1F
100
AcDbEntity
  8
C-A
  6
Continuous
 62
     6
370
     9
100
AcDbLine
 10
-544.1212776287177
 20
892.5193646405196
 30
0.0
 11
-550.1209114177802
 21
890.7193768475508
 31
0.0
  0
LINE
  5
107
330
1F
100
AcDbEntity
  8
C-A
  6
Continuous
 62
     6
370
     9
100
AcDbLine
 10
-534.6211631877998
 20
953.4189618084883
 30
0.0
 11
-534.6211631877998
 21
957.4188397381758
 31
0.0
  0
LINE
  5
108
330
1F
100
AcDbEntity
  8
C-A
  6
Continuous
 62
     6
370
     9
100
AcDbLine
 10
-534.6211631877998
 20
957.4188397381758
 30
0.0
 11
-529.6213844402412
 21
955.9190838788006
 31
0.0
  0
LINE
  5
109
330
1F
100
AcDbEntity
  8
C-A
  6
Continuous
 62
     6
370
     9
100
AcDbLine
 10
-529.6213844402412
 20
954.9192059491133
 30
0.0
 11
-529.6213844402412
 21
955.9190838788006
 31
0.0
  0
LINE
  5
10A
330
1F
100
AcDbEntity
  8
C-A
  6
Continuous
 62
     6
370
     9
100
AcDbLine
 10
-529.6213844402412
 20
954.9192059491133
 30
0.0
 11
-534.6211631877998
 21
953.4189618084883
 31
0.0
  0
LINE
  5
10B
330
1F
100
AcDbEntity
  8
C-A
  6
Continuous
 62
     6
370
     9
100
AcDbLine
 10
-529.120964823542
 20
954.5471356366133
 30
0.0
 11
-535.121094523249
 21
952.7470868084881
 31
0.0
  0
LINE
  5
10C
330
1F
100
AcDbEntity
  8
C-A
  6
Continuous
 62
     6
370
     9
100
AcDbLine
 10
-535.121094523249
 20
958.0912030194258
 30
0.0
 11
-529.120964823542
 21
956.2911541913011
 31
0.0
  0
LINE
  5
10D
330
1F
100
AcDbEntity
  8
C-A
  6
Continuous
 62
     6
370
     9
100
AcDbLine
 10
-534.6211631877998
 20
932.4189618084883
 30
0.0
 11
-534.6211631877998
 21
936.4189007733321
 31
0.0
  0
LINE
  5
10E
330
1F
100
AcDbEntity
  8
C-A
  6
Continuous
 62
     6
370
     9
100
AcDbLine
 10
-534.6211631877998
 20
936.4189007733321
 30
0.0
 11
-529.6213844402412
 21
934.9191449139571
 31
0.0
  0
LINE
  5
10F
330
1F
100
AcDbEntity
  8
C-A
  6
Continuous
 62
     6
370
     9
100
AcDbLine
 10
-529.6213844402412
 20
933.9192669842694
 30
0.0
 11
-529.6213844402412
 21
934.9191449139571
 31
0.0
  0
LINE
  5
110
330
1F
100
AcDbEntity
  8
C-A
  6
Continuous
 62
     6
370
     9
100
AcDbLine
 10
-529.6213844402412
 20
933.9192669842694
 30
0.0
 11
-534.6211631877998
 21
932.4189618084883
 31
0.0
  0
LINE
  5
111
330
1F
100
AcDbEntity
  8
C-A
  6
Continuous
 62
     6
370
     9
100
AcDbLine
 10
-529.120964823542
 20
933.5471966717696
 30
0.0
 11
-535.121094523249
 21
931.7471478436446
 31
0.0
  0
LINE
  5
112
330
1F
100
AcDbEntity
  8
C-A
  6
Continuous
 62
     6
370
     9
100
AcDbLine
 10
-535.121094523249
 20
937.0912640545819
 30
0.0
 11
-529.120964823542
 21
935.2912152264571
 31
0.0
  0
LINE
  5
113
330
1F
100
AcDbEntity
  8
C-A
  6
Continuous
 62
     6
370
     9
100
AcDbLine
 10
-529.6213844402412
 20
942.9189618084886
 30
0.0
 11
-529.6213844402412
 21
946.9189007733323
 31
0.0
  0
LINE
  5
114
330
1F
100
AcDbEntity
  8
C-A
  6
Continuous
 62
     6
370
     9
100
AcDbLine
 10
-529.6213844402412
 20
946.9189007733323
 30
0.0
 11
-534.6211631877998
 21
945.4190838788008
 31
0.0
  0
LINE
  5
115
330
1F
100
AcDbEntity
  8
C-A
  6
Continuous
 62
     6
370
     9
100
AcDbLine
 10
-534.6211631877998
 20
944.4192669842696
 30
0.0
 11
-534.6211631877998
 21
945.4190838788008
 31
0.0
  0
LINE
  5
116
330
1F
100
AcDbEntity
  8
C-A
  6
Continuous
 62
     6
370
     9
100
AcDbLine
 10
-534.6211631877998
 20
944.4192669842696
 30
0.0
 11
-529.6213844402412
 21
942.9189618084886
 31
0.0
  0
LINE
  5
117
330
1F
100
AcDbEntity
  8
C-A
  6
Continuous
 62
     6
370
     9
100
AcDbLine
 10
-535.121094523249
 20
944.0471356366131
 30
0.0
 11
-529.120964823542
 21
942.2470868084883
 31
0.0
  0
LINE
  5
118
330
1F
100
AcDbEntity
  8
C-A
  6
Continuous
 62
     6
370
     9
100
AcDbLine
 10
-529.120964823542
 20
947.5912640545821
 30
0.0
 11
-535.121094523249
 21
945.7912152264569
 31
0.0
  0
LINE
  5
119
330
1F
100
AcDbEntity
  8
C-A
  6
Continuous
 62
     6
370
     9
100
AcDbLine
 10
-534.6211631877998
 20
911.4190228436445
 30
0.0
 11
-534.6211631877998
 21
915.4189618084882
 31
0.0
  0
LINE
  5
11A
330
1F
100
AcDbEntity
  8
C-A
  6
Continuous
 62
     6
370
     9
100
AcDbLine
 10
-534.6211631877998
 20
915.4189618084882
 30
0.0
 11
-529.6213844402412
 21
913.9192059491133
 31
0.0
  0
LINE
  5
11B
330
1F
100
AcDbEntity
  8
C-A
  6
Continuous
 62
     6
370
     9
100
AcDbLine
 10
-529.6213844402412
 20
912.9193280194258
 30
0.0
 11
-529.6213844402412
 21
913.9192059491133
 31
0.0
  0
LINE
  5
11C
330
1F
100
AcDbEntity
  8
C-A
  6
Continuous
 62
     6
370
     9
100
AcDbLine
 10
-529.6213844402412
 20
912.9193280194258
 30
0.0
 11
-534.6211631877998
 21
911.4190228436445
 31
0.0
  0
LINE
  5
11D
330
1F
100
AcDbEntity
  8
C-A
  6
Continuous
 62
     6
370
     9
100
AcDbLine
 10
-529.120964823542
 20
912.5471966717694
 30
0.0
 11
-535.121094523249
 21
910.7472088788008
 31
0.0
  0
LINE
  5
11E
330
1F
100
AcDbEntity
  8
C-A
  6
Continuous
 62
     6
370
     9
100
AcDbLine
 10
-535.121094523249
 20
916.0913250897383
 30
0.0
 11
-529.120964823542
 21
914.2912762616131
 31
0.0
  0
LINE
  5
11F
330
1F
100
AcDbEntity
  8
C-A
  6
Continuous
 62
     6
370
     9
100
AcDbLine
 10
-529.6213844402412
 20
921.9190228436446
 30
0.0
 11
-529.6213844402412
 21
925.9189618084883
 31
0.0
  0
LINE
  5
120
330
1F
100
AcDbEntity
  8
C-A
  6
Continuous
 62
     6
370
     9
100
AcDbLine
 10
-529.6213844402412
 20
925.9189618084883
 30
0.0
 11
-534.6211631877998
 21
924.4191449139569
 31
0.0
  0
LINE
  5
121
330
1F
100
AcDbEntity
  8
C-A
  6
Continuous
 62
     6
370
     9
100
AcDbLine
 10
-534.6211631877998
 20
923.4192669842696
 30
0.0
 11
-534.6211631877998
 21
924.4191449139569
 31
0.0
  0
LINE
  5
122
330
1F
100
AcDbEntity
  8
C-A
  6
Continuous
 62
     6
370
     9
100
AcDbLine
 10
-534.6211631877998
 20
923.4192669842696
 30
0.0
 11
-529.6213844402412
 21
921.9190228436446
 31
0.0
  0
LINE
  5
123
330
1F
100
AcDbEntity
  8
C-A
  6
Continuous
 62
     6
370
     9
100
AcDbLine
 10
-535.121094523249
 20
923.0471966717696
 30
0.0
 11
-529.120964823542
 21
921.2471478436444
 31
0.0
  0
LINE
  5
124
330
1F
100
AcDbEntity
  8
C-A
  6
Continuous
 62
     6
370
     9
100
AcDbLine
 10
-529.120964823542
 20
926.5912640545821
 30
0.0
 11
-535.121094523249
 21
924.7912762616133
 31
0.0
  0
LINE
  5
125
330
1F
100
AcDbEntity
  8
C-A
  6
Continuous
 62
     6
370
     9
100
AcDbLine
 10
-529.6213844402412
 20
900.9190838788006
 30
0.0
 11
-529.6213844402412
 21
904.9189618084883
 31
0.0
  0
LINE
  5
126
330
1F
100
AcDbEntity
  8
C-A
  6
Continuous
 62
     6
370
     9
100
AcDbLine
 10
-529.6213844402412
 20
904.9189618084883
 30
0.0
 11
-534.6211631877998
 21
903.4192059491133
 31
0.0
  0
LINE
  5
127
330
1F
100
AcDbEntity
  8
C-A
  6
Continuous
 62
     6
370
     9
100
AcDbLine
 10
-534.6211631877998
 20
902.4193280194256
 30
0.0
 11
-534.6211631877998
 21
903.4192059491133
 31
0.0
  0
LINE
  5
128
330
1F
100
AcDbEntity
  8
C-A
  6
Continuous
 62
     6
370
     9
100
AcDbLine
 10
-534.6211631877998
 20
902.4193280194256
 30
0.0
 11
-529.6213844402412
 21
900.9190838788006
 31
0.0
  0
LINE
  5
129
330
1F
100
AcDbEntity
  8
C-A
  6
Continuous
 62
     6
370
     9
100
AcDbLine
 10
-535.121094523249
 20
902.0472577069258
 30
0.0
 11
-529.120964823542
 21
900.2472088788008
 31
0.0
  0
LINE
  5
12A
330
1F
100
AcDbEntity
  8
C-A
  6
Continuous
 62
     6
370
     9
100
AcDbLine
 10
-529.120964823542
 20
905.5913250897381
 30
0.0
 11
-535.121094523249
 21
903.7912762616133
 31
0.0
  0
LINE
  5
12B
330
1F
100
AcDbEntity
  8
C-A
  6
Continuous
 62
     6
370
     9
100
AcDbLine
 10
-519.6208427532295
 20
943.5571454022383
 30
0.0
 11
-519.6208427532295
 21
947.5570233319261
 31
0.0
  0
LINE
  5
12C
330
1F
100
AcDbEntity
  8
C-A
  6
Continuous
 62
     6
370
     9
100
AcDbLine
 10
-519.6208427532295
 20
947.5570233319261
 30
0.0
 11
-514.6210716350654
 21
946.0572674725508
 31
0.0
  0
LINE
  5
12D
330
1F
100
AcDbEntity
  8
C-A
  6
Continuous
 62
     6
370
     9
100
AcDbLine
 10
-514.6210716350654
 20
945.0573895428633
 30
0.0
 11
-514.6210716350654
 21
946.0572674725508
 31
0.0
  0
LINE
  5
12E
330
1F
100
AcDbEntity
  8
C-A
  6
Continuous
 62
     6
370
     9
100
AcDbLine
 10
-514.6210716350654
 20
945.0573895428633
 30
0.0
 11
-519.6208427532295
 21
943.5571454022383
 31
0.0
  0
LINE
  5
12F
330
1F
100
AcDbEntity
  8
C-A
  6
Continuous
 62
     6
370
     9
100
AcDbLine
 10
-514.1211402996162
 20
944.6853192303636
 30
0.0
 11
-520.1212699993232
 21
942.8852704022383
 31
0.0
  0
LINE
  5
130
330
1F
100
AcDbEntity
  8
C-A
  6
Continuous
 62
     6
370
     9
100
AcDbLine
 10
-520.1212699993232
 20
948.2293866131758
 30
0.0
 11
-514.1211402996162
 21
946.4293377850506
 31
0.0
  0
LINE
  5
131
330
1F
100
AcDbEntity
  8
C-A
  6
Continuous
 62
     6
370
     9
100
AcDbLine
 10
-514.6210716350654
 20
954.0570843670821
 30
0.0
 11
-514.6210716350654
 21
958.0570233319258
 31
0.0
  0
LINE
  5
132
330
1F
100
AcDbEntity
  8
C-A
  6
Continuous
 62
     6
370
     9
100
AcDbLine
 10
-514.6210716350654
 20
958.0570233319258
 30
0.0
 11
-519.6208427532295
 21
956.5572674725511
 31
0.0
  0
LINE
  5
133
330
1F
100
AcDbEntity
  8
C-A
  6
Continuous
 62
     6
370
     9
100
AcDbLine
 10
-519.6208427532295
 20
955.5573895428633
 30
0.0
 11
-519.6208427532295
 21
956.5572674725511
 31
0.0
  0
LINE
  5
134
330
1F
100
AcDbEntity
  8
C-A
  6
Continuous
 62
     6
370
     9
100
AcDbLine
 10
-519.6208427532295
 20
955.5573895428633
 30
0.0
 11
-514.6210716350654
 21
954.0570843670821
 31
0.0
  0
LINE
  5
135
330
1F
100
AcDbEntity
  8
C-A
  6
Continuous
 62
     6
370
     9
100
AcDbLine
 10
-520.1212699993232
 20
955.1852581952071
 30
0.0
 11
-514.1211402996162
 21
953.3852704022386
 31
0.0
  0
LINE
  5
136
330
1F
100
AcDbEntity
  8
C-A
  6
Continuous
 62
     6
370
     9
100
AcDbLine
 10
-514.1211402996162
 20
958.7293866131758
 30
0.0
 11
-520.1212699993232
 21
956.9293377850508
 31
0.0
  0
LINE
  5
137
330
1F
100
AcDbEntity
  8
C-A
  6
Continuous
 62
     6
370
     9
100
AcDbLine
 10
-519.6208427532295
 20
922.5572064373946
 30
0.0
 11
-519.6208427532295
 21
926.5570843670821
 31
0.0
  0
LINE
  5
138
330
1F
100
AcDbEntity
  8
C-A
  6
Continuous
 62
     6
370
     9
100
AcDbLine
 10
-519.6208427532295
 20
926.5570843670821
 30
0.0
 11
-514.6210716350654
 21
925.057328507707
 31
0.0
  0
LINE
  5
139
330
1F
100
AcDbEntity
  8
C-A
  6
Continuous
 62
     6
370
     9
100
AcDbLine
 10
-514.6210716350654
 20
924.0574505780196
 30
0.0
 11
-514.6210716350654
 21
925.057328507707
 31
0.0
  0
LINE
  5
13A
330
1F
100
AcDbEntity
  8
C-A
  6
Continuous
 62
     6
370
     9
100
AcDbLine
 10
-514.6210716350654
 20
924.0574505780196
 30
0.0
 11
-519.6208427532295
 21
922.5572064373946
 31
0.0
  0
LINE
  5
13B
330
1F
100
AcDbEntity
  8
C-A
  6
Continuous
 62
     6
370
     9
100
AcDbLine
 10
-514.1211402996162
 20
923.6853802655196
 30
0.0
 11
-520.1212699993232
 21
921.8853314373945
 31
0.0
  0
LINE
  5
13C
330
1F
100
AcDbEntity
  8
C-A
  6
Continuous
 62
     6
370
     9
100
AcDbLine
 10
-520.1212699993232
 20
927.2294476483321
 30
0.0
 11
-514.1211402996162
 21
925.4293988202071
 31
0.0
  0
LINE
  5
13D
330
1F
100
AcDbEntity
  8
C-A
  6
Continuous
 62
     6
370
     9
100
AcDbLine
 10
-514.6210716350654
 20
933.0571454022381
 30
0.0
 11
-514.6210716350654
 21
937.0570843670819
 31
0.0
  0
LINE
  5
13E
330
1F
100
AcDbEntity
  8
C-A
  6
Continuous
 62
     6
370
     9
100
AcDbLine
 10
-514.6210716350654
 20
937.0570843670819
 30
0.0
 11
-519.6208427532295
 21
935.5572674725508
 31
0.0
  0
LINE
  5
13F
330
1F
100
AcDbEntity
  8
C-A
  6
Continuous
 62
     6
370
     9
100
AcDbLine
 10
-519.6208427532295
 20
934.5574505780198
 30
0.0
 11
-519.6208427532295
 21
935.5572674725508
 31
0.0
  0
LINE
  5
140
330
1F
100
AcDbEntity
  8
C-A
  6
Continuous
 62
     6
370
     9
100
AcDbLine
 10
-519.6208427532295
 20
934.5574505780198
 30
0.0
 11
-514.6210716350654
 21
933.0571454022381
 31
0.0
  0
LINE
  5
141
330
1F
100
AcDbEntity
  8
C-A
  6
Continuous
 62
     6
370
     9
100
AcDbLine
 10
-520.1212699993232
 20
934.1853192303633
 30
0.0
 11
-514.1211402996162
 21
932.3852704022383
 31
0.0
  0
LINE
  5
142
330
1F
100
AcDbEntity
  8
C-A
  6
Continuous
 62
     6
370
     9
100
AcDbLine
 10
-514.1211402996162
 20
937.7294476483323
 30
0.0
 11
-520.1212699993232
 21
935.9293988202071
 31
0.0
  0
LINE
  5
143
330
1F
100
AcDbEntity
  8
C-A
  6
Continuous
 62
     6
370
     9
100
AcDbLine
 10
-578.6212699993232
 20
931.0147259686446
 30
0.0
 11
-578.6212699993232
 21
935.0146038983323
 31
0.0
  0
LINE
  5
144
330
1F
100
AcDbEntity
  8
C-A
  6
Continuous
 62
     6
370
     9
100
AcDbLine
 10
-578.6212699993232
 20
935.0146038983323
 30
0.0
 11
-573.6209991558173
 21
933.5148480389571
 31
0.0
  0
LINE
  5
145
330
1F
100
AcDbEntity
  8
C-A
  6
Continuous
 62
     6
370
     9
100
AcDbLine
 10
-573.6209991558173
 20
932.5149701092696
 30
0.0
 11
-573.6209991558173
 21
933.5148480389571
 31
0.0
  0
LINE
  5
146
330
1F
100
AcDbEntity
  8
C-A
  6
Continuous
 62
     6
370
     9
100
AcDbLine
 10
-573.6209991558173
 20
932.5149701092696
 30
0.0
 11
-578.6212699993232
 21
931.0147259686446
 31
0.0
  0
LINE
  5
147
330
1F
100
AcDbEntity
  8
C-A
  6
Continuous
 62
     6
370
     9
100
AcDbLine
 10
-573.1210678203681
 20
932.1428997967698
 30
0.0
 11
-579.1211975200752
 21
930.3428509686446
 31
0.0
  0
LINE
  5
148
330
1F
100
AcDbEntity
  8
C-A
  6
Continuous
 62
     6
370
     9
100
AcDbLine
 10
-579.1211975200752
 20
935.6869671795821
 30
0.0
 11
-573.1210678203681
 21
933.8869183514569
 31
0.0
  0
LINE
  5
149
330
1F
100
AcDbEntity
  8
C-A
  6
Continuous
 62
     6
370
     9
100
AcDbLine
 10
-573.6209991558173
 20
941.5146649334883
 30
0.0
 11
-573.6209991558173
 21
945.5146038983321
 31
0.0
  0
LINE
  5
14A
330
1F
100
AcDbEntity
  8
C-A
  6
Continuous
 62
     6
370
     9
100
AcDbLine
 10
-573.6209991558173
 20
945.5146038983321
 30
0.0
 11
-578.6212699993232
 21
944.0148480389573
 31
0.0
  0
LINE
  5
14B
330
1F
100
AcDbEntity
  8
C-A
  6
Continuous
 62
     6
370
     9
100
AcDbLine
 10
-578.6212699993232
 20
943.0149701092696
 30
0.0
 11
-578.6212699993232
 21
944.0148480389573
 31
0.0
  0
LINE
  5
14C
330
1F
100
AcDbEntity
  8
C-A
  6
Continuous
 62
     6
370
     9
100
AcDbLine
 10
-578.6212699993232
 20
943.0149701092696
 30
0.0
 11
-573.6209991558173
 21
941.5146649334883
 31
0.0
  0
LINE
  5
14D
330
1F
100
AcDbEntity
  8
C-A
  6
Continuous
 62
     6
370
     9
100
AcDbLine
 10
-579.1211975200752
 20
942.6428387616133
 30
0.0
 11
-573.1210678203681
 21
940.8428509686448
 31
0.0
  0
LINE
  5
14E
330
1F
100
AcDbEntity
  8
C-A
  6
Continuous
 62
     6
370
     9
100
AcDbLine
 10
-573.1210678203681
 20
946.1869671795821
 30
0.0
 11
-579.1211975200752
 21
944.3869183514571
 31
0.0
  0
LINE
  5
14F
330
1F
100
AcDbEntity
  8
C-A
  6
Continuous
 62
     6
370
     9
100
AcDbLine
 10
-578.6212699993232
 20
952.0146649334881
 30
0.0
 11
-578.6212699993232
 21
956.0146038983319
 31
0.0
  0
LINE
  5
150
330
1F
100
AcDbEntity
  8
C-A
  6
Continuous
 62
     6
370
     9
100
AcDbLine
 10
-578.6212699993232
 20
956.0146038983319
 30
0.0
 11
-573.6209991558173
 21
954.5147870038008
 31
0.0
  0
LINE
  5
151
330
1F
100
AcDbEntity
  8
C-A
  6
Continuous
 62
     6
370
     9
100
AcDbLine
 10
-573.6209991558173
 20
953.5149090741131
 30
0.0
 11
-573.6209991558173
 21
954.5147870038008
 31
0.0
  0
LINE
  5
152
330
1F
100
AcDbEntity
  8
C-A
  6
Continuous
 62
     6
370
     9
100
AcDbLine
 10
-573.6209991558173
 20
953.5149090741131
 30
0.0
 11
-578.6212699993232
 21
952.0146649334881
 31
0.0
  0
LINE
  5
153
330
1F
100
AcDbEntity
  8
C-A
  6
Continuous
 62
     6
370
     9
100
AcDbLine
 10
-573.1210678203681
 20
953.1428387616133
 30
0.0
 11
-579.1211975200752
 21
951.3427899334883
 31
0.0
  0
LINE
  5
154
330
1F
100
AcDbEntity
  8
C-A
  6
Continuous
 62
     6
370
     9
100
AcDbLine
 10
-579.1211975200752
 20
956.6869061444256
 30
0.0
 11
-573.1210678203681
 21
954.8869183514571
 31
0.0
  0
LINE
  5
155
330
1F
100
AcDbEntity
  8
C-A
  6
Continuous
 62
     6
370
     9
100
AcDbLine
 10
-578.6212699993232
 20
910.0147870038008
 30
0.0
 11
-578.6212699993232
 21
914.0146649334883
 31
0.0
  0
LINE
  5
156
330
1F
100
AcDbEntity
  8
C-A
  6
Continuous
 62
     6
370
     9
100
AcDbLine
 10
-578.6212699993232
 20
914.0146649334883
 30
0.0
 11
-573.6209991558173
 21
912.5149090741132
 31
0.0
  0
LINE
  5
157
330
1F
100
AcDbEntity
  8
C-A
  6
Continuous
 62
     6
370
     9
100
AcDbLine
 10
-573.6209991558173
 20
911.5150311444258
 30
0.0
 11
-573.6209991558173
 21
912.5149090741132
 31
0.0
  0
LINE
  5
158
330
1F
100
AcDbEntity
  8
C-A
  6
Continuous
 62
     6
370
     9
100
AcDbLine
 10
-573.6209991558173
 20
911.5150311444258
 30
0.0
 11
-578.6212699993232
 21
910.0147870038008
 31
0.0
  0
LINE
  5
159
330
1F
100
AcDbEntity
  8
C-A
  6
Continuous
 62
     6
370
     9
100
AcDbLine
 10
-573.1210678203681
 20
911.1429608319258
 30
0.0
 11
-579.1211975200752
 21
909.3429120038007
 31
0.0
  0
LINE
  5
15A
330
1F
100
AcDbEntity
  8
C-A
  6
Continuous
 62
     6
370
     9
100
AcDbLine
 10
-579.1211975200752
 20
914.6870282147383
 30
0.0
 11
-573.1210678203681
 21
912.8869793866133
 31
0.0
  0
LINE
  5
15B
330
1F
100
AcDbEntity
  8
C-A
  6
Continuous
 62
     6
370
     9
100
AcDbLine
 10
-573.6209991558173
 20
920.5147259686444
 30
0.0
 11
-573.6209991558173
 21
924.5146649334881
 31
0.0
  0
LINE
  5
15C
330
1F
100
AcDbEntity
  8
C-A
  6
Continuous
 62
     6
370
     9
100
AcDbLine
 10
-573.6209991558173
 20
924.5146649334881
 30
0.0
 11
-578.6212699993232
 21
923.0148480389571
 31
0.0
  0
LINE
  5
15D
330
1F
100
AcDbEntity
  8
C-A
  6
Continuous
 62
     6
370
     9
100
AcDbLine
 10
-578.6212699993232
 20
922.0150311444257
 30
0.0
 11
-578.6212699993232
 21
923.0148480389571
 31
0.0
  0
LINE
  5
15E
330
1F
100
AcDbEntity
  8
C-A
  6
Continuous
 62
     6
370
     9
100
AcDbLine
 10
-578.6212699993232
 20
922.0150311444257
 30
0.0
 11
-573.6209991558173
 21
920.5147259686444
 31
0.0
  0
LINE
  5
15F
330
1F
100
AcDbEntity
  8
C-A
  6
Continuous
 62
     6
370
     9
100
AcDbLine
 10
-579.1211975200752
 20
921.6428997967696
 30
0.0
 11
-573.1210678203681
 21
919.8428509686446
 31
0.0
  0
LINE
  5
160
330
1F
100
AcDbEntity
  8
C-A
  6
Continuous
 62
     6
370
     9
100
AcDbLine
 10
-573.1210678203681
 20
925.1870282147382
 30
0.0
 11
-579.1211975200752
 21
923.3869793866133
 31
0.0
  0
LINE
  5
161
330
1F
100
AcDbEntity
  8
C-A
  6
Continuous
 62
     6
370
     9
100
AcDbLine
 10
-578.6212699993232
 20
889.0147870038006
 30
0.0
 11
-578.6212699993232
 21
893.0147259686444
 31
0.0
  0
LINE
  5
162
330
1F
100
AcDbEntity
  8
C-A
  6
Continuous
 62
     6
370
     9
100
AcDbLine
 10
-578.6212699993232
 20
893.0147259686444
 30
0.0
 11
-573.6209991558173
 21
891.5149701092696
 31
0.0
  0
LINE
  5
163
330
1F
100
AcDbEntity
  8
C-A
  6
Continuous
 62
     6
370
     9
100
AcDbLine
 10
-573.6209991558173
 20
890.515092179582
 30
0.0
 11
-573.6209991558173
 21
891.5149701092696
 31
0.0
  0
LINE
  5
164
330
1F
100
AcDbEntity
  8
C-A
  6
Continuous
 62
     6
370
     9
100
AcDbLine
 10
-573.6209991558173
 20
890.515092179582
 30
0.0
 11
-578.6212699993232
 21
889.0147870038006
 31
0.0
  0
LINE
  5
165
330
1F
100
AcDbEntity
  8
C-A
  6
Continuous
 62
     6
370
     9
100
AcDbLine
 10
-573.1210678203681
 20
890.1430218670819
 30
0.0
 11
-579.1211975200752
 21
888.3429730389571
 31
0.0
  0
LINE
  5
166
330
1F
100
AcDbEntity
  8
C-A
  6
Continuous
 62
     6
370
     9
100
AcDbLine
 10
-579.1211975200752
 20
893.6870892498945
 30
0.0
 11
-573.1210678203681
 21
891.8870404217696
 31
0.0
  0
LINE
  5
167
330
1F
100
AcDbEntity
  8
C-A
  6
Continuous
 62
     6
370
     9
100
AcDbLine
 10
-573.6209991558173
 20
899.5147870038008
 30
0.0
 11
-573.6209991558173
 21
903.5147259686446
 31
0.0
  0
LINE
  5
168
330
1F
100
AcDbEntity
  8
C-A
  6
Continuous
 62
     6
370
     9
100
AcDbLine
 10
-573.6209991558173
 20
903.5147259686446
 30
0.0
 11
-578.6212699993232
 21
902.0149090741133
 31
0.0
  0
LINE
  5
169
330
1F
100
AcDbEntity
  8
C-A
  6
Continuous
 62
     6
370
     9
100
AcDbLine
 10
-578.6212699993232
 20
901.0150921795821
 30
0.0
 11
-578.6212699993232
 21
902.0149090741133
 31
0.0
  0
LINE
  5
16A
330
1F
100
AcDbEntity
  8
C-A
  6
Continuous
 62
     6
370
     9
100
AcDbLine
 10
-578.6212699993232
 20
901.0150921795821
 30
0.0
 11
-573.6209991558173
 21
899.5147870038008
 31
0.0
  0
LINE
  5
16B
330
1F
100
AcDbEntity
  8
C-A
  6
Continuous
 62
     6
370
     9
100
AcDbLine
 10
-579.1211975200752
 20
900.6429608319257
 30
0.0
 11
-573.1210678203681
 21
898.8429120038008
 31
0.0
  0
LINE
  5
16C
330
1F
100
AcDbEntity
  8
C-A
  6
Continuous
 62
     6
370
     9
100
AcDbLine
 10
-573.1210678203681
 20
904.1870282147383
 30
0.0
 11
-579.1211975200752
 21
902.3870404217695
 31
0.0
  0
LINE
  5
16D
330
1F
100
AcDbEntity
  8
C-A
  6
Continuous
 62
     6
370
     9
100
AcDbLine
 10
-578.6212699993232
 20
868.0148480389571
 30
0.0
 11
-578.6212699993232
 21
872.0147870038008
 31
0.0
  0
LINE
  5
16E
330
1F
100
AcDbEntity
  8
C-A
  6
Continuous
 62
     6
370
     9
100
AcDbLine
 10
-578.6212699993232
 20
872.0147870038008
 30
0.0
 11
-573.6209991558173
 21
870.5149701092696
 31
0.0
  0
LINE
  5
16F
330
1F
100
AcDbEntity
  8
C-A
  6
Continuous
 62
     6
370
     9
100
AcDbLine
 10
-573.6209991558173
 20
869.5151532147383
 30
0.0
 11
-573.6209991558173
 21
870.5149701092696
 31
0.0
  0
LINE
  5
170
330
1F
100
AcDbEntity
  8
C-A
  6
Continuous
 62
     6
370
     9
100
AcDbLine
 10
-573.6209991558173
 20
869.5151532147383
 30
0.0
 11
-578.6212699993232
 21
868.0148480389571
 31
0.0
  0
LINE
  5
171
330
1F
100
AcDbEntity
  8
C-A
  6
Continuous
 62
     6
370
     9
100
AcDbLine
 10
-573.1210678203681
 20
869.143021867082
 30
0.0
 11
-579.1211975200752
 21
867.3430340741131
 31
0.0
  0
LINE
  5
172
330
1F
100
AcDbEntity
  8
C-A
  6
Continuous
 62
     6
370
     9
100
AcDbLine
 10
-579.1211975200752
 20
872.6871502850508
 30
0.0
 11
-573.1210678203681
 21
870.8871014569257
 31
0.0
  0
LINE
  5
173
330
1F
100
AcDbEntity
  8
C-A
  6
Continuous
 62
     6
370
     9
100
AcDbLine
 10
-573.6209991558173
 20
878.5148480389571
 30
0.0
 11
-573.6209991558173
 21
882.5147259686446
 31
0.0
  0
LINE
  5
174
330
1F
100
AcDbEntity
  8
C-A
  6
Continuous
 62
     6
370
     9
100
AcDbLine
 10
-573.6209991558173
 20
882.5147259686446
 30
0.0
 11
-578.6212699993232
 21
881.0149701092695
 31
0.0
  0
LINE
  5
175
330
1F
100
AcDbEntity
  8
C-A
  6
Continuous
 62
     6
370
     9
100
AcDbLine
 10
-578.6212699993232
 20
880.0150921795821
 30
0.0
 11
-578.6212699993232
 21
881.0149701092695
 31
0.0
  0
LINE
  5
176
330
1F
100
AcDbEntity
  8
C-A
  6
Continuous
 62
     6
370
     9
100
AcDbLine
 10
-578.6212699993232
 20
880.0150921795821
 30
0.0
 11
-573.6209991558173
 21
878.5148480389571
 31
0.0
  0
LINE
  5
177
330
1F
100
AcDbEntity
  8
C-A
  6
Continuous
 62
     6
370
     9
100
AcDbLine
 10
-579.1211975200752
 20
879.6430218670821
 30
0.0
 11
-573.1210678203681
 21
877.842973038957
 31
0.0
  0
LINE
  5
178
330
1F
100
AcDbEntity
  8
C-A
  6
Continuous
 62
     6
370
     9
100
AcDbLine
 10
-573.1210678203681
 20
883.1870892498946
 30
0.0
 11
-579.1211975200752
 21
881.3870404217696
 31
0.0
  0
LINE
  5
179
330
1F
100
AcDbEntity
  8
C-A
  6
Continuous
 62
     6
370
     9
100
AcDbLine
 10
-578.6212699993232
 20
847.0149090741133
 30
0.0
 11
-578.6212699993232
 21
851.0148480389571
 31
0.0
  0
LINE
  5
17A
330
1F
100
AcDbEntity
  8
C-A
  6
Continuous
 62
     6
370
     9
100
AcDbLine
 10
-578.6212699993232
 20
851.0148480389571
 30
0.0
 11
-573.6209991558173
 21
849.5150311444257
 31
0.0
  0
LINE
  5
17B
330
1F
100
AcDbEntity
  8
C-A
  6
Continuous
 62
     6
370
     9
100
AcDbLine
 10
-573.6209991558173
 20
848.5152142498944
 30
0.0
 11
-573.6209991558173
 21
849.5150311444257
 31
0.0
  0
LINE
  5
17C
330
1F
100
AcDbEntity
  8
C-A
  6
Continuous
 62
     6
370
     9
100
AcDbLine
 10
-573.6209991558173
 20
848.5152142498944
 30
0.0
 11
-578.6212699993232
 21
847.0149090741133
 31
0.0
  0
LINE
  5
17D
330
1F
100
AcDbEntity
  8
C-A
  6
Continuous
 62
     6
370
     9
100
AcDbLine
 10
-573.1210678203681
 20
848.1430829022383
 30
0.0
 11
-579.1211975200752
 21
846.3430340741132
 31
0.0
  0
LINE
  5
17E
330
1F
100
AcDbEntity
  8
C-A
  6
Continuous
 62
     6
370
     9
100
AcDbLine
 10
-579.1211975200752
 20
851.6872113202069
 30
0.0
 11
-573.1210678203681
 21
849.8871624920821
 31
0.0
  0
LINE
  5
17F
330
1F
100
AcDbEntity
  8
C-A
  6
Continuous
 62
     6
370
     9
100
AcDbLine
 10
-573.6209991558173
 20
857.5149090741132
 30
0.0
 11
-573.6209991558173
 21
861.5147870038006
 31
0.0
  0
LINE
  5
180
330
1F
100
AcDbEntity
  8
C-A
  6
Continuous
 62
     6
370
     9
100
AcDbLine
 10
-573.6209991558173
 20
861.5147870038006
 30
0.0
 11
-578.6212699993232
 21
860.0150311444258
 31
0.0
  0
LINE
  5
181
330
1F
100
AcDbEntity
  8
C-A
  6
Continuous
 62
     6
370
     9
100
AcDbLine
 10
-578.6212699993232
 20
859.0151532147382
 30
0.0
 11
-578.6212699993232
 21
860.0150311444258
 31
0.0
  0
LINE
  5
182
330
1F
100
AcDbEntity
  8
C-A
  6
Continuous
 62
     6
370
     9
100
AcDbLine
 10
-578.6212699993232
 20
859.0151532147382
 30
0.0
 11
-573.6209991558173
 21
857.5149090741132
 31
0.0
  0
LINE
  5
183
330
1F
100
AcDbEntity
  8
C-A
  6
Continuous
 62
     6
370
     9
100
AcDbLine
 10
-579.1211975200752
 20
858.6430829022381
 30
0.0
 11
-573.1210678203681
 21
856.8430340741133
 31
0.0
  0
LINE
  5
184
330
1F
100
AcDbEntity
  8
C-A
  6
Continuous
 62
     6
370
     9
100
AcDbLine
 10
-573.1210678203681
 20
862.1871502850507
 30
0.0
 11
-579.1211975200752
 21
860.3871014569258
 31
0.0
  0
LINE
  5
185
330
1F
100
AcDbEntity
  8
C-5
  6
Continuous
 62
     7
370
     9
100
AcDbLine
 10
117.1259376422783
 20
748.5448163006756
 30
0.0
 11
555.1609718219659
 21
748.5448163006756
 31
0.0
  0
LINE
  5
186
330
1F
100
AcDbEntity
  8
C-5
  6
Continuous
 62
     7
370
     9
100
AcDbLine
 10
396.9047462360284
 20
1100.571915910051
 30
0.0
 11
642.6142188922785
 21
1100.571915910051
 31
0.0
  0
LINE
  5
187
330
1F
100
AcDbEntity
  8
C-2
  6
Continuous
 62
     3
370
     9
100
AcDbLine
 10
305.8717872516535
 20
824.9906781170821
 30
0.0
 11
305.8717872516535
 21
1164.346696183488
 31
0.0
  0
LINE
  5
188
330
1F
100
AcDbEntity
  8
C-2
  6
Continuous
 62
     3
370
     9
100
AcDbLine
 10
365.8710548297785
 20
811.5059979413007
 30
0.0
 11
365.8710548297785
 21
1150.862016007707
 31
0.0
  0
LINE
  5
189
330
1F
100
AcDbEntity
  8
C-2
  6
Continuous
 62
     3
370
     9
100
AcDbLine
 10
310.8715431110284
 20
867.7447064373945
 30
0.0
 11
310.8715431110284
 21
907.7448895428633
 31
0.0
  0
LINE
  5
18A
330
1F
100
AcDbEntity
  8
C-2
  6
Continuous
 62
     3
370
     9
100
AcDbLine
 10
310.8715431110284
 20
907.7448895428633
 30
0.0
 11
360.8712989704034
 21
892.7445843670821
 31
0.0
  0
LINE
  5
18B
330
1F
100
AcDbEntity
  8
C-2
  6
Continuous
 62
     3
370
     9
100
AcDbLine
 10
360.8712989704034
 20
882.7450116131757
 30
0.0
 11
360.8712989704034
 21
892.7445843670821
 31
0.0
  0
LINE
  5
18C
330
1F
100
AcDbEntity
  8
C-2
  6
Continuous
 62
     3
370
     9
100
AcDbLine
 10
360.8712989704034
 20
882.7450116131757
 30
0.0
 11
310.8715431110284
 21
867.7447064373945
 31
0.0
  0
LINE
  5
18D
330
1F
100
AcDbEntity
  8
C-2
  6
Continuous
 62
     3
370
     9
100
AcDbLine
 10
365.8710548297785
 20
879.0250409100508
 30
0.0
 11
305.8717872516535
 21
861.0241864178633
 31
0.0
  0
LINE
  5
18E
330
1F
100
AcDbEntity
  8
C-2
  6
Continuous
 62
     3
370
     9
100
AcDbLine
 10
305.8717872516535
 20
914.4654095623946
 30
0.0
 11
365.8710548297785
 21
896.4645550702071
 31
0.0
  0
LINE
  5
18F
330
1F
100
AcDbEntity
  8
C-2
  6
Continuous
 62
     3
370
     9
100
AcDbLine
 10
360.8712989704034
 20
972.7449505780194
 30
0.0
 11
360.8712989704034
 21
1012.745133683488
 31
0.0
  0
LINE
  5
190
330
1F
100
AcDbEntity
  8
C-2
  6
Continuous
 62
     3
370
     9
100
AcDbLine
 10
360.8712989704034
 20
1012.745133683488
 30
0.0
 11
310.8715431110284
 21
997.7448285077071
 31
0.0
  0
LINE
  5
191
330
1F
100
AcDbEntity
  8
C-2
  6
Continuous
 62
     3
370
     9
100
AcDbLine
 10
310.8715431110284
 20
987.7452557538006
 30
0.0
 11
310.8715431110284
 21
997.7448285077071
 31
0.0
  0
LINE
  5
192
330
1F
100
AcDbEntity
  8
C-2
  6
Continuous
 62
     3
370
     9
100
AcDbLine
 10
310.8715431110284
 20
987.7452557538006
 30
0.0
 11
360.8712989704034
 21
972.7449505780194
 31
0.0
  0
LINE
  5
193
330
1F
100
AcDbEntity
  8
C-2
  6
Continuous
 62
     3
370
     9
100
AcDbLine
 10
305.8717872516535
 20
984.0252850506758
 30
0.0
 11
365.8710548297785
 21
966.0244305584886
 31
0.0
  0
LINE
  5
194
330
1F
100
AcDbEntity
  8
C-2
  6
Continuous
 62
     3
370
     9
100
AcDbLine
 10
365.8710548297785
 20
1019.46565370302
 30
0.0
 11
305.8717872516535
 21
1001.464799210832
 31
0.0
  0
LINE
  5
195
330
1F
100
AcDbEntity
  8
C-2
  6
Continuous
 62
     3
370
     9
100
AcDbLine
 10
310.8715431110284
 20
1077.744706437395
 30
0.0
 11
310.8715431110284
 21
1117.744889542863
 31
0.0
  0
LINE
  5
196
330
1F
100
AcDbEntity
  8
C-2
  6
Continuous
 62
     3
370
     9
100
AcDbLine
 10
310.8715431110284
 20
1117.744889542863
 30
0.0
 11
360.8712989704034
 21
1102.744584367082
 31
0.0
  0
LINE
  5
197
330
1F
100
AcDbEntity
  8
C-2
  6
Continuous
 62
     3
370
     9
100
AcDbLine
 10
360.8712989704034
 20
1092.745011613176
 30
0.0
 11
360.8712989704034
 21
1102.744584367082
 31
0.0
  0
LINE
  5
198
330
1F
100
AcDbEntity
  8
C-2
  6
Continuous
 62
     3
370
     9
100
AcDbLine
 10
360.8712989704034
 20
1092.745011613176
 30
0.0
 11
310.8715431110284
 21
1077.744706437395
 31
0.0
  0
LINE
  5
199
330
1F
100
AcDbEntity
  8
C-2
  6
Continuous
 62
     3
370
     9
100
AcDbLine
 10
365.8710548297785
 20
1089.025040910051
 30
0.0
 11
305.8717872516535
 21
1071.024186417863
 31
0.0
  0
LINE
  5
19A
330
1F
100
AcDbEntity
  8
C-2
  6
Continuous
 62
     3
370
     9
100
AcDbLine
 10
305.8717872516535
 20
1124.465409562394
 30
0.0
 11
365.8710548297785
 21
1106.464555070207
 31
0.0
  0
LINE
  5
19B
330
1F
100
AcDbEntity
  8
C-4
  6
Continuous
 62
     7
370
     9
100
AcDbLine
 10
234.1581031696222
 20
867.7447064373945
 30
0.0
 11
234.1581031696222
 21
907.7448895428633
 31
0.0
  0
LINE
  5
19C
330
1F
100
AcDbEntity
  8
C-4
  6
Continuous
 62
     7
370
     9
100
AcDbLine
 10
294.621176900091
 20
867.7447064373945
 30
0.0
 11
231.1580421344659
 21
867.7447064373945
 31
0.0
  0
LINE
  5
19D
330
1F
100
AcDbEntity
  8
C-4
  6
Continuous
 62
     7
370
     9
100
AcDbLine
 10
294.621176900091
 20
907.7448895428633
 30
0.0
 11
231.1580421344659
 21
907.7448895428633
 31
0.0
  0
LINE
  5
19E
330
1F
100
AcDbEntity
  8
C-4
  6
Continuous
 62
     7
370
     9
100
AcDbLine
 10
234.1581031696222
 20
907.7448895428633
 30
0.0
 11
234.1581031696222
 21
987.7452557538006
 31
0.0
  0
LINE
  5
19F
330
1F
100
AcDbEntity
  8
C-4
  6
Continuous
 62
     7
370
     9
100
AcDbLine
 10
294.621176900091
 20
987.7452557538006
 30
0.0
 11
231.1580421344659
 21
987.7452557538006
 31
0.0
  0
LINE
  5
1A0
330
1F
100
AcDbEntity
  8
C-4
  6
Continuous
 62
     7
370
     9
100
AcDbLine
 10
234.1581031696222
 20
987.7452557538006
 30
0.0
 11
234.1581031696222
 21
997.7448285077071
 31
0.0
  0
LINE
  5
1A1
330
1F
100
AcDbEntity
  8
C-4
  6
Continuous
 62
     7
370
     9
100
AcDbLine
 10
294.621176900091
 20
997.7448285077071
 30
0.0
 11
231.1580421344659
 21
997.7448285077071
 31
0.0
  0
LINE
  5
1A2
330
1F
100
AcDbEntity
  8
C-4
  6
Continuous
 62
     7
370
     9
100
AcDbLine
 10
234.1581031696222
 20
997.7448285077071
 30
0.0
 11
234.1581031696222
 21
1077.744706437395
 31
0.0
  0
LINE
  5
1A3
330
1F
100
AcDbEntity
  8
C-4
  6
Continuous
 62
     7
370
     9
100
AcDbLine
 10
294.621176900091
 20
1077.744706437395
 30
0.0
 11
231.1580421344659
 21
1077.744706437395
 31
0.0
  0
LINE
  5
1A4
330
1F
100
AcDbEntity
  8
C-4
  6
Continuous
 62
     7
370
     9
100
AcDbLine
 10
234.1581031696222
 20
1077.744706437395
 30
0.0
 11
234.1581031696222
 21
1117.744889542863
 31
0.0
  0
LINE
  5
1A5
330
1F
100
AcDbEntity
  8
C-4
  6
Continuous
 62
     7
370
     9
100
AcDbLine
 10
294.621176900091
 20
1117.744889542863
 30
0.0
 11
231.1580421344659
 21
1117.744889542863
 31
0.0
  0
LINE
  5
1A6
330
1F
100
AcDbEntity
  8
C-4
  6
Continuous
 62
     7
370
     9
100
AcDbLine
 10
374.8905860797784
 20
963.3186810467694
 30
0.0
 11
451.1962501422784
 21
940.4265301678631
 31
0.0
  0
LINE
  5
1A7
330
1F
100
AcDbEntity
  8
C-4
  6
Continuous
 62
     7
370
     9
100
AcDbLine
 10
376.3274146930597
 20
968.1078656170823
 30
0.0
 11
452.633139790716
 21
945.2157147381761
 31
0.0
  0
LINE
  5
1A8
330
1F
100
AcDbEntity
  8
C-4
  6
Continuous
 62
     7
370
     9
100
AcDbLine
 10
448.3229591266535
 20
941.2886517498944
 30
0.0
 11
470.2345802204035
 21
1014.325700089738
 31
0.0
  0
LINE
  5
1A9
330
1F
100
AcDbEntity
  8
C-4
  6
Continuous
 62
     7
370
     9
100
AcDbLine
 10
305.8717872516535
 20
1210.362138078019
 30
0.0
 11
365.8710548297785
 21
1210.362138078019
 31
0.0
  0
LINE
  5
1AA
330
1F
100
AcDbEntity
  8
C-4
  6
Continuous
 62
     7
370
     9
100
AcDbLine
 10
305.8717872516535
 20
1171.087296769426
 30
0.0
 11
305.8717872516535
 21
1213.361954972551
 31
0.0
  0
LINE
  5
1AB
330
1F
100
AcDbEntity
  8
C-4
  6
Continuous
 62
     7
370
     9
100
AcDbLine
 10
365.8710548297785
 20
1162.184953019425
 30
0.0
 11
365.8710548297785
 21
1213.361954972551
 31
0.0
  0
LINE
  5
1AC
330
1F
100
AcDbEntity
  8
C-5
  6
Continuous
 62
     7
370
     9
100
AcDbLine
 10
340.5243751422785
 20
1002.918473527238
 30
0.0
 11
396.9047462360284
 21
1100.571915910051
 31
0.0
  0
LINE
  5
1AD
330
1F
100
AcDbEntity
  8
C-5
  6
Continuous
 62
     7
370
     9
100
AcDbLine
 10
340.5243751422785
 20
1002.918473527238
 30
0.0
 11
350.0913917438409
 21
1026.015519425676
 31
0.0
  0
LINE
  5
1AE
330
1F
100
AcDbEntity
  8
C-5
  6
Continuous
 62
     7
370
     9
100
AcDbLine
 10
340.5243751422785
 20
1002.918473527238
 30
0.0
 11
355.7436744586846
 21
1022.752335831926
 31
0.0
  0
LINE
  5
1AF
330
1F
100
AcDbEntity
  8
C-2
  6
Continuous
 62
     3
370
     9
100
AcDbLine
 10
188.1736671344659
 20
408.2826245282149
 30
0.0
 11
188.1736671344659
 21
418.2831662152265
 31
0.0
  0
LINE
  5
1B0
330
1F
100
AcDbEntity
  8
C-2
  6
Continuous
 62
     3
370
     9
100
AcDbLine
 10
188.1736671344659
 20
483.2832196209884
 30
0.0
 11
188.1736671344659
 21
473.2831738446211
 31
0.0
  0
LINE
  5
1B1
330
1F
100
AcDbEntity
  8
C-2
  6
Continuous
 62
     3
370
     9
100
AcDbLine
 10
220.0243751422784
 20
473.2831738446211
 30
0.0
 11
215.0246192829034
 21
473.2831738446211
 31
0.0
  0
LINE
  5
1B2
330
1F
100
AcDbEntity
  8
C-2
  6
Continuous
 62
     3
370
     9
100
AcDbLine
 10
240.0244361774347
 20
473.2831738446211
 30
0.0
 11
245.0242530719659
 21
473.2831738446211
 31
0.0
  0
LINE
  5
1B3
330
1F
100
AcDbEntity
  8
C-2
  6
Continuous
 62
     3
370
     9
100
AcDbLine
 10
225.0241310016534
 20
468.2828991864179
 30
0.0
 11
225.0221778766534
 21
408.2826245282149
 31
0.0
  0
LINE
  5
1B4
330
1F
100
AcDbEntity
  8
C-2
  6
Continuous
 62
     3
370
     9
100
AcDbLine
 10
235.0246803180596
 20
468.283402726457
 30
0.0
 11
235.0246803180596
 21
408.2826245282149
 31
0.0
  0
LINE
  5
1B5
330
1F
100
AcDbEntity
  8
C-2
  6
Continuous
 62
     3
370
     9
100
AcDbLine
 10
421.8704444782159
 20
408.2766812298749
 30
0.0
 11
421.870932759466
 21
418.2762310955977
 31
0.0
  0
LINE
  5
1B6
330
1F
100
AcDbEntity
  8
C-2
  6
Continuous
 62
     3
370
     9
100
AcDbLine
 10
421.8764259235285
 20
483.276292130754
 30
0.0
 11
421.8759376422784
 21
473.2767346356368
 31
0.0
  0
LINE
  5
1B7
330
1F
100
AcDbEntity
  8
C-2
  6
Continuous
 62
     3
370
     9
100
AcDbLine
 10
421.8764259235285
 20
483.2832196209884
 30
0.0
 11
188.1736671344659
 21
483.2832196209884
 31
0.0
  0
LINE
  5
1B8
330
1F
100
AcDbEntity
  8
C-2
  6
Continuous
 62
     3
370
     9
100
AcDbLine
 10
188.1736671344659
 20
408.2826245282149
 30
0.0
 11
421.870932759466
 21
408.2826245282149
 31
0.0
  0
LINE
  5
1B9
330
1F
100
AcDbEntity
  8
C-2
  6
Continuous
 62
     3
370
     9
100
AcDbLine
 10
215.0246192829034
 20
480.7830822918868
 30
0.0
 11
217.5247413532159
 21
483.2832196209884
 31
0.0
  0
LINE
  5
1BA
330
1F
100
AcDbEntity
  8
C-2
  6
Continuous
 62
     3
370
     9
100
AcDbLine
 10
215.0246192829034
 20
473.2831738446211
 30
0.0
 11
215.0246192829034
 21
480.7830822918868
 31
0.0
  0
LINE
  5
1BB
330
1F
100
AcDbEntity
  8
C-2
  6
Continuous
 62
     3
370
     9
100
AcDbLine
 10
245.0242530719659
 20
480.7830822918868
 30
0.0
 11
242.5241310016534
 21
483.2832196209884
 31
0.0
  0
LINE
  5
1BC
330
1F
100
AcDbEntity
  8
C-2
  6
Continuous
 62
     3
370
     9
100
AcDbLine
 10
245.0242530719659
 20
480.7830822918868
 30
0.0
 11
215.0246192829034
 21
480.7830822918868
 31
0.0
  0
LINE
  5
1BD
330
1F
100
AcDbEntity
  8
C-2
  6
Continuous
 62
     3
370
     9
100
AcDbLine
 10
245.0242530719659
 20
480.7830822918868
 30
0.0
 11
245.0242530719659
 21
473.2831738446211
 31
0.0
  0
LINE
  5
1BE
330
1F
100
AcDbEntity
  8
C-2
  6
Continuous
 62
     3
370
     9
100
AcDbLine
 10
295.024497212591
 20
473.2831738446211
 30
0.0
 11
290.0246803180596
 21
473.2831738446211
 31
0.0
  0
LINE
  5
1BF
330
1F
100
AcDbEntity
  8
C-2
  6
Continuous
 62
     3
370
     9
100
AcDbLine
 10
315.0250465289972
 20
473.2831738446211
 30
0.0
 11
320.0243141071222
 21
473.2831738446211
 31
0.0
  0
LINE
  5
1C0
330
1F
100
AcDbEntity
  8
C-2
  6
Continuous
 62
     3
370
     9
100
AcDbLine
 10
300.0242530719659
 20
468.2828991864179
 30
0.0
 11
300.0222389118096
 21
408.2826245282149
 31
0.0
  0
LINE
  5
1C1
330
1F
100
AcDbEntity
  8
C-2
  6
Continuous
 62
     3
370
     9
100
AcDbLine
 10
310.0248023883722
 20
468.283402726457
 30
0.0
 11
310.0248023883722
 21
408.2826245282149
 31
0.0
  0
LINE
  5
1C2
330
1F
100
AcDbEntity
  8
C-2
  6
Continuous
 62
     3
370
     9
100
AcDbLine
 10
290.0246803180596
 20
480.7830822918868
 30
0.0
 11
292.5248634235284
 21
483.2832196209884
 31
0.0
  0
LINE
  5
1C3
330
1F
100
AcDbEntity
  8
C-2
  6
Continuous
 62
     3
370
     9
100
AcDbLine
 10
290.0246803180596
 20
473.2831738446211
 30
0.0
 11
290.0246803180596
 21
480.7830822918868
 31
0.0
  0
LINE
  5
1C4
330
1F
100
AcDbEntity
  8
C-2
  6
Continuous
 62
     3
370
     9
100
AcDbLine
 10
320.0243141071222
 20
480.7830822918868
 30
0.0
 11
317.5241920368097
 21
483.2832196209884
 31
0.0
  0
LINE
  5
1C5
330
1F
100
AcDbEntity
  8
C-2
  6
Continuous
 62
     3
370
     9
100
AcDbLine
 10
320.0243141071222
 20
480.7830822918868
 30
0.0
 11
290.0246803180596
 21
480.7830822918868
 31
0.0
  0
LINE
  5
1C6
330
1F
100
AcDbEntity
  8
C-2
  6
Continuous
 62
     3
370
     9
100
AcDbLine
 10
320.0243141071222
 20
480.7830822918868
 30
0.0
 11
320.0243141071222
 21
473.2831738446211
 31
0.0
  0
LINE
  5
1C7
330
1F
100
AcDbEntity
  8
C-2
  6
Continuous
 62
     3
370
     9
100
AcDbLine
 10
370.0245582477471
 20
473.2831738446211
 30
0.0
 11
365.0248023883722
 21
473.2831738446211
 31
0.0
  0
LINE
  5
1C8
330
1F
100
AcDbEntity
  8
C-2
  6
Continuous
 62
     3
370
     9
100
AcDbLine
 10
390.0251685993096
 20
473.2831738446211
 30
0.0
 11
395.0244361774347
 21
473.2831738446211
 31
0.0
  0
LINE
  5
1C9
330
1F
100
AcDbEntity
  8
C-2
  6
Continuous
 62
     3
370
     9
100
AcDbLine
 10
375.0243751422784
 20
468.2828991864179
 30
0.0
 11
375.0223609821222
 21
408.2826245282149
 31
0.0
  0
LINE
  5
1CA
330
1F
100
AcDbEntity
  8
C-2
  6
Continuous
 62
     3
370
     9
100
AcDbLine
 10
385.0238868610285
 20
468.283402726457
 30
0.0
 11
385.0238868610285
 21
408.2826245282149
 31
0.0
  0
LINE
  5
1CB
330
1F
100
AcDbEntity
  8
C-2
  6
Continuous
 62
     3
370
     9
100
AcDbLine
 10
365.0248023883722
 20
480.7830822918868
 30
0.0
 11
367.5249244586847
 21
483.2832196209884
 31
0.0
  0
LINE
  5
1CC
330
1F
100
AcDbEntity
  8
C-2
  6
Continuous
 62
     3
370
     9
100
AcDbLine
 10
365.0248023883722
 20
473.2831738446211
 30
0.0
 11
365.0248023883722
 21
480.7830822918868
 31
0.0
  0
LINE
  5
1CD
330
1F
100
AcDbEntity
  8
C-2
  6
Continuous
 62
     3
370
     9
100
AcDbLine
 10
395.0244361774347
 20
480.7830822918868
 30
0.0
 11
392.5248023883722
 21
483.2832196209884
 31
0.0
  0
LINE
  5
1CE
330
1F
100
AcDbEntity
  8
C-2
  6
Continuous
 62
     3
370
     9
100
AcDbLine
 10
395.0244361774347
 20
480.7830822918868
 30
0.0
 11
365.0248023883722
 21
480.7830822918868
 31
0.0
  0
LINE
  5
1CF
330
1F
100
AcDbEntity
  8
C-2
  6
Continuous
 62
     3
370
     9
100
AcDbLine
 10
395.0244361774347
 20
480.7830822918868
 30
0.0
 11
395.0244361774347
 21
473.2831738446211
 31
0.0
  0
LINE
  5
1D0
330
1F
100
AcDbEntity
  8
C-4
  6
Continuous
 62
     7
370
     9
100
AcDbLine
 10
510.3170997516534
 20
408.2826245282149
 30
0.0
 11
510.3170997516534
 21
483.2827313397382
 31
0.0
  0
LINE
  5
1D1
330
1F
100
AcDbEntity
  8
C-4
  6
Continuous
 62
     7
370
     9
100
AcDbLine
 10
433.5282813922784
 20
408.2826245282149
 30
0.0
 11
513.3166114704034
 21
408.2826245282149
 31
0.0
  0
LINE
  5
1D2
330
1F
100
AcDbEntity
  8
C-4
  6
Continuous
 62
     7
370
     9
100
AcDbLine
 10
433.5282813922784
 20
483.2827313397382
 30
0.0
 11
513.3166114704034
 21
483.2827313397382
 31
0.0
  0
LINE
  5
1D3
330
1F
100
AcDbEntity
  8
C-4
  6
Continuous
 62
     7
370
     9
100
AcDbLine
 10
215.0241310016534
 20
493.7425702069257
 30
0.0
 11
215.0241310016534
 21
612.2849591229414
 31
0.0
  0
LINE
  5
1D4
330
1F
100
AcDbEntity
  8
C-4
  6
Continuous
 62
     7
370
     9
100
AcDbLine
 10
245.0237647907159
 20
493.7425702069257
 30
0.0
 11
245.0237647907159
 21
549.1676800702069
 31
0.0
  0
LINE
  5
1D5
330
1F
100
AcDbEntity
  8
C-4
  6
Continuous
 62
     7
370
     9
100
AcDbLine
 10
290.0241920368097
 20
493.7425702069257
 30
0.0
 11
290.0241920368097
 21
612.2849591229414
 31
0.0
  0
LINE
  5
1D6
330
1F
100
AcDbEntity
  8
C-4
  6
Continuous
 62
     7
370
     9
100
AcDbLine
 10
320.0238258258722
 20
493.7425702069257
 30
0.0
 11
320.0238258258722
 21
549.1676800702069
 31
0.0
  0
LINE
  5
1D7
330
1F
100
AcDbEntity
  8
C-4
  6
Continuous
 62
     7
370
     9
100
AcDbLine
 10
365.0243141071222
 20
493.7425702069257
 30
0.0
 11
365.0243141071222
 21
612.2849591229414
 31
0.0
  0
LINE
  5
1D8
330
1F
100
AcDbEntity
  8
C-4
  6
Continuous
 62
     7
370
     9
100
AcDbLine
 10
395.0239478961846
 20
493.7425702069257
 30
0.0
 11
395.0239478961846
 21
549.1676800702069
 31
0.0
  0
LINE
  5
1D9
330
1F
100
AcDbEntity
  8
C-4
  6
Continuous
 62
     7
370
     9
100
AcDbLine
 10
188.1736671344659
 20
546.1676190350508
 30
0.0
 11
421.8753272907159
 21
546.1676190350508
 31
0.0
  0
LINE
  5
1DA
330
1F
100
AcDbEntity
  8
C-4
  6
Continuous
 62
     7
370
     9
100
AcDbLine
 10
188.1736671344659
 20
609.2848980877852
 30
0.0
 11
421.8753272907159
 21
609.2848980877852
 31
0.0
  0
LINE
  5
1DB
330
1F
100
AcDbEntity
  8
C-2
  6
Continuous
 62
     3
370
     9
100
AcDbLine
 10
235.0239478961846
 20
463.4613354657148
 30
0.0
 11
300.0229713336847
 21
463.4613354657148
 31
0.0
  0
LINE
  5
1DC
330
1F
100
AcDbEntity
  8
C-2
  6
Continuous
 62
     3
370
     9
100
AcDbLine
 10
310.0245582477471
 20
463.4613354657148
 30
0.0
 11
375.0230934039972
 21
463.4613354657148
 31
0.0
  0
LINE
  5
1DD
330
1F
100
AcDbEntity
  8
C-2
  6
Continuous
 62
     3
370
     9
100
AcDbLine
 10
190.6754981891534
 20
463.4613354657148
 30
0.0
 11
225.0233985797784
 21
463.4613354657148
 31
0.0
  0
LINE
  5
1DE
330
1F
100
AcDbEntity
  8
C-2
  6
Continuous
 62
     3
370
     9
100
AcDbLine
 10
419.3720313922785
 20
463.4613354657148
 30
0.0
 11
385.0241310016534
 21
463.4613354657148
 31
0.0
  0
LINE
  5
1DF
330
1F
100
AcDbEntity
  8
C-2
  6
Continuous
 62
     3
370
     9
100
AcDbLine
 10
235.0239478961846
 20
445.783662125871
 30
0.0
 11
300.0229713336847
 21
445.783662125871
 31
0.0
  0
LINE
  5
1E0
330
1F
100
AcDbEntity
  8
C-2
  6
Continuous
 62
     3
370
     9
100
AcDbLine
 10
310.0245582477471
 20
445.783662125871
 30
0.0
 11
375.0230934039972
 21
445.783662125871
 31
0.0
  0
LINE
  5
1E1
330
1F
100
AcDbEntity
  8
C-2
  6
Continuous
 62
     3
370
     9
100
AcDbLine
 10
190.6754981891534
 20
445.783662125871
 30
0.0
 11
225.0233985797784
 21
445.783662125871
 31
0.0
  0
LINE
  5
1E2
330
1F
100
AcDbEntity
  8
C-2
  6
Continuous
 62
     3
370
     9
100
AcDbLine
 10
419.3720313922785
 20
445.783662125871
 30
0.0
 11
385.0241310016534
 21
445.783662125871
 31
0.0
  0
LINE
  5
1E3
330
1F
100
AcDbEntity
  8
C-2
  6
Continuous
 62
     3
370
     9
100
AcDbLine
 10
235.0239478961846
 20
428.1059887860275
 30
0.0
 11
300.0229713336847
 21
428.1059887860275
 31
0.0
  0
LINE
  5
1E4
330
1F
100
AcDbEntity
  8
C-2
  6
Continuous
 62
     3
370
     9
100
AcDbLine
 10
310.0245582477471
 20
428.1059887860275
 30
0.0
 11
375.0230934039972
 21
428.1059887860275
 31
0.0
  0
LINE
  5
1E5
330
1F
100
AcDbEntity
  8
C-2
  6
Continuous
 62
     3
370
     9
100
AcDbLine
 10
190.6754981891534
 20
428.1059887860275
 30
0.0
 11
225.0233985797784
 21
428.1059887860275
 31
0.0
  0
LINE
  5
1E6
330
1F
100
AcDbEntity
  8
C-2
  6
Continuous
 62
     3
370
     9
100
AcDbLine
 10
419.3720313922785
 20
428.1059887860275
 30
0.0
 11
385.0241310016534
 21
428.1059887860275
 31
0.0
  0
LINE
  5
1E7
330
1F
100
AcDbEntity
  8
C-A
  6
Continuous
 62
     3
370
     9
100
AcDbLine
 10
-259.1207054241278
 20
767.2108014080976
 30
0.0
 11
-250.1210105999091
 21
767.2108014080976
 31
0.0
  0
LINE
  5
1E8
330
1F
100
AcDbEntity
  8
C-A
  6
Continuous
 62
     3
370
     9
100
AcDbLine
 10
-259.1207054241278
 20
763.67527894716
 30
0.0
 11
-250.1210105999091
 21
763.67527894716
 31
0.0
  0
LINE
  5
1E9
330
1F
100
AcDbEntity
  8
C-A
  6
Continuous
 62
     3
370
     9
100
AcDbLine
 10
-259.1207054241278
 20
760.1397259686445
 30
0.0
 11
-250.1210105999091
 21
760.1397259686445
 31
0.0
  0
LINE
  5
1EA
330
1F
100
AcDbEntity
  8
C-A
  6
Continuous
 62
     3
370
     9
100
AcDbLine
 10
-274.1206443889716
 20
767.2108014080976
 30
0.0
 11
-265.1209495647529
 21
767.2108014080976
 31
0.0
  0
LINE
  5
1EB
330
1F
100
AcDbEntity
  8
C-A
  6
Continuous
 62
     3
370
     9
100
AcDbLine
 10
-274.1206443889716
 20
763.67527894716
 30
0.0
 11
-265.1209495647529
 21
763.67527894716
 31
0.0
  0
LINE
  5
1EC
330
1F
100
AcDbEntity
  8
C-A
  6
Continuous
 62
     3
370
     9
100
AcDbLine
 10
-274.1206443889716
 20
760.1397259686445
 30
0.0
 11
-265.1209495647529
 21
760.1397259686445
 31
0.0
  0
LINE
  5
1ED
330
1F
100
AcDbEntity
  8
C-A
  6
Continuous
 62
     3
370
     9
100
AcDbLine
 10
-289.1206443889716
 20
767.2108014080976
 30
0.0
 11
-280.1209495647529
 21
767.2108014080976
 31
0.0
  0
LINE
  5
1EE
330
1F
100
AcDbEntity
  8
C-A
  6
Continuous
 62
     3
370
     9
100
AcDbLine
 10
-289.1206443889716
 20
763.67527894716
 30
0.0
 11
-280.1209495647529
 21
763.67527894716
 31
0.0
  0
LINE
  5
1EF
330
1F
100
AcDbEntity
  8
C-A
  6
Continuous
 62
     3
370
     9
100
AcDbLine
 10
-289.1206443889716
 20
760.1397259686445
 30
0.0
 11
-280.1209495647529
 21
760.1397259686445
 31
0.0
  0
LINE
  5
1F0
330
1F
100
AcDbEntity
  8
C-A
  6
Continuous
 62
     3
370
     9
100
AcDbLine
 10
-304.1206443889716
 20
767.2108014080976
 30
0.0
 11
-295.1209495647529
 21
767.2108014080976
 31
0.0
  0
LINE
  5
1F1
330
1F
100
AcDbEntity
  8
C-A
  6
Continuous
 62
     3
370
     9
100
AcDbLine
 10
-304.1206443889716
 20
763.67527894716
 30
0.0
 11
-295.1209495647529
 21
763.67527894716
 31
0.0
  0
LINE
  5
1F2
330
1F
100
AcDbEntity
  8
C-A
  6
Continuous
 62
     3
370
     9
100
AcDbLine
 10
-304.1206443889716
 20
760.1397259686445
 30
0.0
 11
-295.1209495647529
 21
760.1397259686445
 31
0.0
  0
LINE
  5
1F3
330
1F
100
AcDbEntity
  8
C-A
  6
Continuous
 62
     3
370
     9
100
AcDbLine
 10
-319.1206138713935
 20
767.2108014080976
 30
0.0
 11
-310.1209190471748
 21
767.2108014080976
 31
0.0
  0
LINE
  5
1F4
330
1F
100
AcDbEntity
  8
C-A
  6
Continuous
 62
     3
370
     9
100
AcDbLine
 10
-319.1206138713935
 20
763.67527894716
 30
0.0
 11
-310.1209190471748
 21
763.67527894716
 31
0.0
  0
LINE
  5
1F5
330
1F
100
AcDbEntity
  8
C-A
  6
Continuous
 62
     3
370
     9
100
AcDbLine
 10
-319.1206138713935
 20
760.1397259686445
 30
0.0
 11
-310.1209190471748
 21
760.1397259686445
 31
0.0
  0
LINE
  5
1F6
330
1F
100
AcDbEntity
  8
C-A
  6
Continuous
 62
     3
370
     9
100
AcDbLine
 10
-334.1206138713935
 20
767.2108014080976
 30
0.0
 11
-325.1209190471748
 21
767.2108014080976
 31
0.0
  0
LINE
  5
1F7
330
1F
100
AcDbEntity
  8
C-A
  6
Continuous
 62
     3
370
     9
100
AcDbLine
 10
-334.1206138713935
 20
763.67527894716
 30
0.0
 11
-325.1209190471748
 21
763.67527894716
 31
0.0
  0
LINE
  5
1F8
330
1F
100
AcDbEntity
  8
C-A
  6
Continuous
 62
     3
370
     9
100
AcDbLine
 10
-334.1206138713935
 20
760.1397259686445
 30
0.0
 11
-325.1209190471748
 21
760.1397259686445
 31
0.0
  0
LINE
  5
1F9
330
1F
100
AcDbEntity
  8
C-A
  6
Continuous
 62
     3
370
     9
100
AcDbLine
 10
-349.1206138713935
 20
767.2108014080976
 30
0.0
 11
-340.1209190471748
 21
767.2108014080976
 31
0.0
  0
LINE
  5
1FA
330
1F
100
AcDbEntity
  8
C-A
  6
Continuous
 62
     3
370
     9
100
AcDbLine
 10
-349.1206138713935
 20
763.67527894716
 30
0.0
 11
-340.1209190471748
 21
763.67527894716
 31
0.0
  0
LINE
  5
1FB
330
1F
100
AcDbEntity
  8
C-A
  6
Continuous
 62
     3
370
     9
100
AcDbLine
 10
-349.1206138713935
 20
760.1397259686445
 30
0.0
 11
-340.1209190471748
 21
760.1397259686445
 31
0.0
  0
LINE
  5
1FC
330
1F
100
AcDbEntity
  8
C-A
  6
Continuous
 62
     3
370
     9
100
AcDbLine
 10
-364.1206138713935
 20
767.2108014080976
 30
0.0
 11
-355.1209190471748
 21
767.2108014080976
 31
0.0
  0
LINE
  5
1FD
330
1F
100
AcDbEntity
  8
C-A
  6
Continuous
 62
     3
370
     9
100
AcDbLine
 10
-364.1206138713935
 20
763.67527894716
 30
0.0
 11
-355.1209190471748
 21
763.67527894716
 31
0.0
  0
LINE
  5
1FE
330
1F
100
AcDbEntity
  8
C-A
  6
Continuous
 62
     3
370
     9
100
AcDbLine
 10
-364.1206138713935
 20
760.1397259686445
 30
0.0
 11
-355.1209190471748
 21
760.1397259686445
 31
0.0
  0
LINE
  5
1FF
330
1F
100
AcDbEntity
  8
C-A
  6
Continuous
 62
     3
370
     9
100
AcDbLine
 10
-379.1206138713935
 20
767.2108014080976
 30
0.0
 11
-370.1209190471748
 21
767.2108014080976
 31
0.0
  0
LINE
  5
200
330
1F
100
AcDbEntity
  8
C-A
  6
Continuous
 62
     3
370
     9
100
AcDbLine
 10
-379.1206138713935
 20
763.67527894716
 30
0.0
 11
-370.1209190471748
 21
763.67527894716
 31
0.0
  0
LINE
  5
201
330
1F
100
AcDbEntity
  8
C-A
  6
Continuous
 62
     3
370
     9
100
AcDbLine
 10
-379.1206138713935
 20
760.1397259686445
 30
0.0
 11
-370.1209190471748
 21
760.1397259686445
 31
0.0
  0
LINE
  5
202
330
1F
100
AcDbEntity
  8
C-A
  6
Continuous
 62
     3
370
     9
100
AcDbLine
 10
-394.1206138713935
 20
767.2108014080976
 30
0.0
 11
-385.1209190471748
 21
767.2108014080976
 31
0.0
  0
LINE
  5
203
330
1F
100
AcDbEntity
  8
C-A
  6
Continuous
 62
     3
370
     9
100
AcDbLine
 10
-394.1206138713935
 20
763.67527894716
 30
0.0
 11
-385.1209190471748
 21
763.67527894716
 31
0.0
  0
LINE
  5
204
330
1F
100
AcDbEntity
  8
C-A
  6
Continuous
 62
     3
370
     9
100
AcDbLine
 10
-394.1206138713935
 20
760.1397259686445
 30
0.0
 11
-385.1209190471748
 21
760.1397259686445
 31
0.0
  0
LINE
  5
205
330
1F
100
AcDbEntity
  8
C-A
  6
Continuous
 62
     3
370
     9
100
AcDbLine
 10
-409.1206138713935
 20
767.2108014080976
 30
0.0
 11
-400.1209190471748
 21
767.2108014080976
 31
0.0
  0
LINE
  5
206
330
1F
100
AcDbEntity
  8
C-A
  6
Continuous
 62
     3
370
     9
100
AcDbLine
 10
-409.1206138713935
 20
763.67527894716
 30
0.0
 11
-400.1209190471748
 21
763.67527894716
 31
0.0
  0
LINE
  5
207
330
1F
100
AcDbEntity
  8
C-A
  6
Continuous
 62
     3
370
     9
100
AcDbLine
 10
-409.1206138713935
 20
760.1397259686445
 30
0.0
 11
-400.1209190471748
 21
760.1397259686445
 31
0.0
  0
LINE
  5
208
330
1F
100
AcDbEntity
  8
C-A
  6
Continuous
 62
     3
370
     9
100
AcDbLine
 10
-424.1206138713935
 20
767.2108014080976
 30
0.0
 11
-415.1209190471748
 21
767.2108014080976
 31
0.0
  0
LINE
  5
209
330
1F
100
AcDbEntity
  8
C-A
  6
Continuous
 62
     3
370
     9
100
AcDbLine
 10
-424.1206138713935
 20
763.67527894716
 30
0.0
 11
-415.1209190471748
 21
763.67527894716
 31
0.0
  0
LINE
  5
20A
330
1F
100
AcDbEntity
  8
C-A
  6
Continuous
 62
     3
370
     9
100
AcDbLine
 10
-424.1206138713935
 20
760.1397259686445
 30
0.0
 11
-415.1209190471748
 21
760.1397259686445
 31
0.0
  0
LINE
  5
20B
330
1F
100
AcDbEntity
  8
C-A
  6
Continuous
 62
     3
370
     9
100
AcDbLine
 10
-439.1206138713935
 20
767.2108014080976
 30
0.0
 11
-430.1209190471748
 21
767.2108014080976
 31
0.0
  0
LINE
  5
20C
330
1F
100
AcDbEntity
  8
C-A
  6
Continuous
 62
     3
370
     9
100
AcDbLine
 10
-439.1206138713935
 20
763.67527894716
 30
0.0
 11
-430.1209190471748
 21
763.67527894716
 31
0.0
  0
LINE
  5
20D
330
1F
100
AcDbEntity
  8
C-A
  6
Continuous
 62
     3
370
     9
100
AcDbLine
 10
-439.1206138713935
 20
760.1397259686445
 30
0.0
 11
-430.1209190471748
 21
760.1397259686445
 31
0.0
  0
LINE
  5
20E
330
1F
100
AcDbEntity
  8
C-A
  6
Continuous
 62
     3
370
     9
100
AcDbLine
 10
-454.1206138713935
 20
767.2108014080976
 30
0.0
 11
-445.1209190471748
 21
767.2108014080976
 31
0.0
  0
LINE
  5
20F
330
1F
100
AcDbEntity
  8
C-A
  6
Continuous
 62
     3
370
     9
100
AcDbLine
 10
-454.1206138713935
 20
763.67527894716
 30
0.0
 11
-445.1209190471748
 21
763.67527894716
 31
0.0
  0
LINE
  5
210
330
1F
100
AcDbEntity
  8
C-A
  6
Continuous
 62
     3
370
     9
100
AcDbLine
 10
-454.1206138713935
 20
760.1397259686445
 30
0.0
 11
-445.1209190471748
 21
760.1397259686445
 31
0.0
  0
LINE
  5
211
330
1F
100
AcDbEntity
  8
C-A
  6
Continuous
 62
     3
370
     9
100
AcDbLine
 10
-469.1206138713935
 20
767.2108014080976
 30
0.0
 11
-460.1209190471748
 21
767.2108014080976
 31
0.0
  0
LINE
  5
212
330
1F
100
AcDbEntity
  8
C-A
  6
Continuous
 62
     3
370
     9
100
AcDbLine
 10
-469.1206138713935
 20
763.67527894716
 30
0.0
 11
-460.1209190471748
 21
763.67527894716
 31
0.0
  0
LINE
  5
213
330
1F
100
AcDbEntity
  8
C-A
  6
Continuous
 62
     3
370
     9
100
AcDbLine
 10
-469.1206138713935
 20
760.1397259686445
 30
0.0
 11
-460.1209190471748
 21
760.1397259686445
 31
0.0
  0
LINE
  5
214
330
1F
100
AcDbEntity
  8
C-A
  6
Continuous
 62
     3
370
     9
100
AcDbLine
 10
-484.1206138713935
 20
767.2108014080976
 30
0.0
 11
-475.1209190471748
 21
767.2108014080976
 31
0.0
  0
LINE
  5
215
330
1F
100
AcDbEntity
  8
C-A
  6
Continuous
 62
     3
370
     9
100
AcDbLine
 10
-484.1206138713935
 20
763.67527894716
 30
0.0
 11
-475.1209190471748
 21
763.67527894716
 31
0.0
  0
LINE
  5
216
330
1F
100
AcDbEntity
  8
C-A
  6
Continuous
 62
     3
370
     9
100
AcDbLine
 10
-484.1206138713935
 20
760.1397259686445
 30
0.0
 11
-475.1209190471748
 21
760.1397259686445
 31
0.0
  0
LINE
  5
217
330
1F
100
AcDbEntity
  8
C-A
  6
Continuous
 62
     3
370
     9
100
AcDbLine
 10
-499.120606241999
 20
767.2108014080976
 30
0.0
 11
-490.1209114177802
 21
767.2108014080976
 31
0.0
  0
LINE
  5
218
330
1F
100
AcDbEntity
  8
C-A
  6
Continuous
 62
     3
370
     9
100
AcDbLine
 10
-499.120606241999
 20
763.67527894716
 30
0.0
 11
-490.1209114177802
 21
763.67527894716
 31
0.0
  0
LINE
  5
219
330
1F
100
AcDbEntity
  8
C-A
  6
Continuous
 62
     3
370
     9
100
AcDbLine
 10
-499.120606241999
 20
760.1397259686445
 30
0.0
 11
-490.1209114177802
 21
760.1397259686445
 31
0.0
  0
LINE
  5
21A
330
1F
100
AcDbEntity
  8
C-A
  6
Continuous
 62
     3
370
     9
100
AcDbLine
 10
-514.120606241999
 20
767.2108014080976
 30
0.0
 11
-505.1209114177802
 21
767.2108014080976
 31
0.0
  0
LINE
  5
21B
330
1F
100
AcDbEntity
  8
C-A
  6
Continuous
 62
     3
370
     9
100
AcDbLine
 10
-514.120606241999
 20
763.67527894716
 30
0.0
 11
-505.1209114177802
 21
763.67527894716
 31
0.0
  0
LINE
  5
21C
330
1F
100
AcDbEntity
  8
C-A
  6
Continuous
 62
     3
370
     9
100
AcDbLine
 10
-514.120606241999
 20
760.1397259686445
 30
0.0
 11
-505.1209114177802
 21
760.1397259686445
 31
0.0
  0
LINE
  5
21D
330
1F
100
AcDbEntity
  8
C-A
  6
Continuous
 62
     3
370
     9
100
AcDbLine
 10
-529.120606241999
 20
767.2108014080976
 30
0.0
 11
-520.1209114177802
 21
767.2108014080976
 31
0.0
  0
LINE
  5
21E
330
1F
100
AcDbEntity
  8
C-A
  6
Continuous
 62
     3
370
     9
100
AcDbLine
 10
-529.120606241999
 20
763.67527894716
 30
0.0
 11
-520.1209114177802
 21
763.67527894716
 31
0.0
  0
LINE
  5
21F
330
1F
100
AcDbEntity
  8
C-A
  6
Continuous
 62
     3
370
     9
100
AcDbLine
 10
-529.120606241999
 20
760.1397259686445
 30
0.0
 11
-520.1209114177802
 21
760.1397259686445
 31
0.0
  0
LINE
  5
220
330
1F
100
AcDbEntity
  8
C-A
  6
Continuous
 62
     3
370
     9
100
AcDbLine
 10
-544.120606241999
 20
767.2108014080976
 30
0.0
 11
-535.1209114177802
 21
767.2108014080976
 31
0.0
  0
LINE
  5
221
330
1F
100
AcDbEntity
  8
C-A
  6
Continuous
 62
     3
370
     9
100
AcDbLine
 10
-544.120606241999
 20
763.67527894716
 30
0.0
 11
-535.1209114177802
 21
763.67527894716
 31
0.0
  0
LINE
  5
222
330
1F
100
AcDbEntity
  8
C-A
  6
Continuous
 62
     3
370
     9
100
AcDbLine
 10
-544.120606241999
 20
760.1397259686445
 30
0.0
 11
-535.1209114177802
 21
760.1397259686445
 31
0.0
  0
LINE
  5
223
330
1F
100
AcDbEntity
  8
C-A
  6
Continuous
 62
     3
370
     9
100
AcDbLine
 10
-559.120606241999
 20
767.2108014080976
 30
0.0
 11
-550.1209114177802
 21
767.2108014080976
 31
0.0
  0
LINE
  5
224
330
1F
100
AcDbEntity
  8
C-A
  6
Continuous
 62
     3
370
     9
100
AcDbLine
 10
-559.120606241999
 20
763.67527894716
 30
0.0
 11
-550.1209114177802
 21
763.67527894716
 31
0.0
  0
LINE
  5
225
330
1F
100
AcDbEntity
  8
C-A
  6
Continuous
 62
     3
370
     9
100
AcDbLine
 10
-559.120606241999
 20
760.1397259686445
 30
0.0
 11
-550.1209114177802
 21
760.1397259686445
 31
0.0
  0
LINE
  5
226
330
1F
100
AcDbEntity
  8
C-A
  6
Continuous
 62
     3
370
     9
100
AcDbLine
 10
-214.1207664592841
 20
767.2108014080976
 30
0.0
 11
-205.1210716350653
 21
767.2108014080976
 31
0.0
  0
LINE
  5
227
330
1F
100
AcDbEntity
  8
C-A
  6
Continuous
 62
     3
370
     9
100
AcDbLine
 10
-214.1207664592841
 20
763.67527894716
 30
0.0
 11
-205.1210716350653
 21
763.67527894716
 31
0.0
  0
LINE
  5
228
330
1F
100
AcDbEntity
  8
C-A
  6
Continuous
 62
     3
370
     9
100
AcDbLine
 10
-214.1207664592841
 20
760.1397259686445
 30
0.0
 11
-205.1210716350653
 21
760.1397259686445
 31
0.0
  0
LINE
  5
229
330
1F
100
AcDbEntity
  8
C-A
  6
Continuous
 62
     3
370
     9
100
AcDbLine
 10
-229.1207054241278
 20
767.2108014080976
 30
0.0
 11
-220.1210105999091
 21
767.2108014080976
 31
0.0
  0
LINE
  5
22A
330
1F
100
AcDbEntity
  8
C-A
  6
Continuous
 62
     3
370
     9
100
AcDbLine
 10
-229.1207054241278
 20
763.67527894716
 30
0.0
 11
-220.1210105999091
 21
763.67527894716
 31
0.0
  0
LINE
  5
22B
330
1F
100
AcDbEntity
  8
C-A
  6
Continuous
 62
     3
370
     9
100
AcDbLine
 10
-229.1207054241278
 20
760.1397259686445
 30
0.0
 11
-220.1210105999091
 21
760.1397259686445
 31
0.0
  0
LINE
  5
22C
330
1F
100
AcDbEntity
  8
C-A
  6
Continuous
 62
     3
370
     9
100
AcDbLine
 10
-244.1207054241278
 20
767.2108014080976
 30
0.0
 11
-235.1210105999091
 21
767.2108014080976
 31
0.0
  0
LINE
  5
22D
330
1F
100
AcDbEntity
  8
C-A
  6
Continuous
 62
     3
370
     9
100
AcDbLine
 10
-244.1207054241278
 20
763.67527894716
 30
0.0
 11
-235.1210105999091
 21
763.67527894716
 31
0.0
  0
LINE
  5
22E
330
1F
100
AcDbEntity
  8
C-A
  6
Continuous
 62
     3
370
     9
100
AcDbLine
 10
-244.1207054241278
 20
760.1397259686445
 30
0.0
 11
-235.1210105999091
 21
760.1397259686445
 31
0.0
  0
LINE
  5
22F
330
1F
100
AcDbEntity
  8
C-A
  6
Continuous
 62
     3
370
     9
100
AcDbLine
 10
-199.1207664592841
 20
767.2108014080976
 30
0.0
 11
-190.1210716350653
 21
767.2108014080976
 31
0.0
  0
LINE
  5
230
330
1F
100
AcDbEntity
  8
C-A
  6
Continuous
 62
     3
370
     9
100
AcDbLine
 10
-199.1207664592841
 20
763.67527894716
 30
0.0
 11
-190.1210716350653
 21
763.67527894716
 31
0.0
  0
LINE
  5
231
330
1F
100
AcDbEntity
  8
C-A
  6
Continuous
 62
     3
370
     9
100
AcDbLine
 10
-199.1207664592841
 20
760.1397259686445
 30
0.0
 11
-190.1210716350653
 21
760.1397259686445
 31
0.0
  0
LINE
  5
232
330
1F
100
AcDbEntity
  8
C-A
  6
Continuous
 62
     3
370
     9
100
AcDbLine
 10
-184.1207664592841
 20
767.2108014080976
 30
0.0
 11
-175.1213768108466
 21
767.2108014080976
 31
0.0
  0
LINE
  5
233
330
1F
100
AcDbEntity
  8
C-A
  6
Continuous
 62
     3
370
     9
100
AcDbLine
 10
-184.1207664592841
 20
763.67527894716
 30
0.0
 11
-175.1213768108466
 21
763.67527894716
 31
0.0
  0
LINE
  5
234
330
1F
100
AcDbEntity
  8
C-A
  6
Continuous
 62
     3
370
     9
100
AcDbLine
 10
-184.1207664592841
 20
760.1397259686445
 30
0.0
 11
-175.1213768108466
 21
760.1397259686445
 31
0.0
  0
LINE
  5
235
330
1F
100
AcDbEntity
  8
C-A
  6
Continuous
 62
     3
370
     9
100
AcDbLine
 10
-169.1211326702216
 20
767.2108014080976
 30
0.0
 11
-160.1214378460028
 21
767.2108014080976
 31
0.0
  0
LINE
  5
236
330
1F
100
AcDbEntity
  8
C-A
  6
Continuous
 62
     3
370
     9
100
AcDbLine
 10
-169.1211326702216
 20
763.67527894716
 30
0.0
 11
-160.1214378460028
 21
763.67527894716
 31
0.0
  0
LINE
  5
237
330
1F
100
AcDbEntity
  8
C-A
  6
Continuous
 62
     3
370
     9
100
AcDbLine
 10
-169.1211326702216
 20
760.1397259686445
 30
0.0
 11
-160.1214378460028
 21
760.1397259686445
 31
0.0
  0
LINE
  5
238
330
1F
100
AcDbEntity
  8
C-A
  6
Continuous
 62
     3
370
     9
100
AcDbLine
 10
-154.1211326702216
 20
767.2108014080976
 30
0.0
 11
-145.1214378460028
 21
767.2108014080976
 31
0.0
  0
LINE
  5
239
330
1F
100
AcDbEntity
  8
C-A
  6
Continuous
 62
     3
370
     9
100
AcDbLine
 10
-154.1211326702216
 20
763.67527894716
 30
0.0
 11
-145.1214378460028
 21
763.67527894716
 31
0.0
  0
LINE
  5
23A
330
1F
100
AcDbEntity
  8
C-A
  6
Continuous
 62
     3
370
     9
100
AcDbLine
 10
-154.1211326702216
 20
760.1397259686445
 30
0.0
 11
-145.1214378460028
 21
760.1397259686445
 31
0.0
  0
LINE
  5
23B
330
1F
100
AcDbEntity
  8
C-A
  6
Continuous
 62
     3
370
     9
100
AcDbLine
 10
-565.1212318523505
 20
760.1397259686445
 30
0.0
 11
-573.1210678203681
 21
760.1397259686445
 31
0.0
  0
LINE
  5
23C
330
1F
100
AcDbEntity
  8
C-A
  6
Continuous
 62
     3
370
     9
100
AcDbLine
 10
-565.1212318523505
 20
763.67527894716
 30
0.0
 11
-573.1210678203681
 21
763.67527894716
 31
0.0
  0
LINE
  5
23D
330
1F
100
AcDbEntity
  8
C-A
  6
Continuous
 62
     3
370
     9
100
AcDbLine
 10
-565.1212318523505
 20
767.2108014080976
 30
0.0
 11
-573.1210678203681
 21
767.2108014080976
 31
0.0
  0
LINE
  5
23E
330
1F
100
AcDbEntity
  8
C-A
  6
Continuous
 62
     3
370
     9
100
AcDbLine
 10
-573.1210678203681
 20
466.6754773114181
 30
0.0
 11
-573.1210678203681
 21
960.6750653241133
 31
0.0
  0
LINE
  5
23F
330
1F
100
AcDbEntity
  8
C-A
  6
Continuous
 62
     3
370
     9
100
AcDbLine
 10
-139.1211326702216
 20
767.2108014080976
 30
0.0
 11
-130.1214378460028
 21
767.2108014080976
 31
0.0
  0
LINE
  5
240
330
1F
100
AcDbEntity
  8
C-A
  6
Continuous
 62
     3
370
     9
100
AcDbLine
 10
-139.1211326702216
 20
763.67527894716
 30
0.0
 11
-130.1214378460028
 21
763.67527894716
 31
0.0
  0
LINE
  5
241
330
1F
100
AcDbEntity
  8
C-A
  6
Continuous
 62
     3
370
     9
100
AcDbLine
 10
-139.1211326702216
 20
760.1397259686445
 30
0.0
 11
-130.1214378460028
 21
760.1397259686445
 31
0.0
  0
LINE
  5
242
330
1F
100
AcDbEntity
  8
C-A
  6
Continuous
 62
     3
370
     9
100
AcDbLine
 10
-130.1214378460028
 20
960.6750653241133
 30
0.0
 11
-130.1214378460028
 21
662.6741497967694
 31
0.0
  0
LINE
  5
243
330
1F
100
AcDbEntity
  8
C-A
  6
Continuous
 62
     3
370
     9
100
AcDbLine
 10
-124.120980082331
 20
767.2108014080976
 30
0.0
 11
-115.1215904338935
 21
767.2108014080976
 31
0.0
  0
LINE
  5
244
330
1F
100
AcDbEntity
  8
C-A
  6
Continuous
 62
     3
370
     9
100
AcDbLine
 10
-124.120980082331
 20
763.67527894716
 30
0.0
 11
-115.1215904338935
 21
763.67527894716
 31
0.0
  0
LINE
  5
245
330
1F
100
AcDbEntity
  8
C-A
  6
Continuous
 62
     3
370
     9
100
AcDbLine
 10
-124.120980082331
 20
760.1397259686445
 30
0.0
 11
-115.1215904338935
 21
760.1397259686445
 31
0.0
  0
LINE
  5
246
330
1F
100
AcDbEntity
  8
C-A
  6
Continuous
 62
     3
370
     9
100
AcDbLine
 10
-109.1213462932685
 20
767.2108014080976
 30
0.0
 11
-100.1216819866278
 21
767.2108014080976
 31
0.0
  0
LINE
  5
247
330
1F
100
AcDbEntity
  8
C-A
  6
Continuous
 62
     3
370
     9
100
AcDbLine
 10
-109.1213462932685
 20
763.67527894716
 30
0.0
 11
-100.1216819866278
 21
763.67527894716
 31
0.0
  0
LINE
  5
248
330
1F
100
AcDbEntity
  8
C-A
  6
Continuous
 62
     3
370
     9
100
AcDbLine
 10
-109.1213462932685
 20
760.1397259686445
 30
0.0
 11
-100.1216819866278
 21
760.1397259686445
 31
0.0
  0
LINE
  5
249
330
1F
100
AcDbEntity
  8
C-A
  6
Continuous
 62
     3
370
     9
100
AcDbLine
 10
-94.12137681084658
 20
767.2108014080976
 30
0.0
 11
-85.12168198662785
 21
767.2108014080976
 31
0.0
  0
LINE
  5
24A
330
1F
100
AcDbEntity
  8
C-A
  6
Continuous
 62
     3
370
     9
100
AcDbLine
 10
-94.12137681084658
 20
763.67527894716
 30
0.0
 11
-85.12168198662785
 21
763.67527894716
 31
0.0
  0
LINE
  5
24B
330
1F
100
AcDbEntity
  8
C-A
  6
Continuous
 62
     3
370
     9
100
AcDbLine
 10
-94.12137681084658
 20
760.1397259686445
 30
0.0
 11
-85.12168198662785
 21
760.1397259686445
 31
0.0
  0
LINE
  5
24C
330
1F
100
AcDbEntity
  8
C-A
  6
Continuous
 62
     3
370
     9
100
AcDbLine
 10
-259.1207054241278
 20
867.2108319256758
 30
0.0
 11
-250.1210105999091
 21
867.2108319256758
 31
0.0
  0
LINE
  5
24D
330
1F
100
AcDbEntity
  8
C-A
  6
Continuous
 62
     3
370
     9
100
AcDbLine
 10
-259.1207054241278
 20
863.6752484295821
 30
0.0
 11
-250.1210105999091
 21
863.6752484295821
 31
0.0
  0
LINE
  5
24E
330
1F
100
AcDbEntity
  8
C-A
  6
Continuous
 62
     3
370
     9
100
AcDbLine
 10
-259.1207054241278
 20
860.1397259686445
 30
0.0
 11
-250.1210105999091
 21
860.1397259686445
 31
0.0
  0
LINE
  5
24F
330
1F
100
AcDbEntity
  8
C-A
  6
Continuous
 62
     3
370
     9
100
AcDbLine
 10
-274.1206443889716
 20
867.2108319256758
 30
0.0
 11
-265.1209495647529
 21
867.2108319256758
 31
0.0
  0
LINE
  5
250
330
1F
100
AcDbEntity
  8
C-A
  6
Continuous
 62
     3
370
     9
100
AcDbLine
 10
-274.1206443889716
 20
863.6752484295821
 30
0.0
 11
-265.1209495647529
 21
863.6752484295821
 31
0.0
  0
LINE
  5
251
330
1F
100
AcDbEntity
  8
C-A
  6
Continuous
 62
     3
370
     9
100
AcDbLine
 10
-274.1206443889716
 20
860.1397259686445
 30
0.0
 11
-265.1209495647529
 21
860.1397259686445
 31
0.0
  0
LINE
  5
252
330
1F
100
AcDbEntity
  8
C-A
  6
Continuous
 62
     3
370
     9
100
AcDbLine
 10
-289.1206443889716
 20
867.2108319256758
 30
0.0
 11
-280.1209495647529
 21
867.2108319256758
 31
0.0
  0
LINE
  5
253
330
1F
100
AcDbEntity
  8
C-A
  6
Continuous
 62
     3
370
     9
100
AcDbLine
 10
-289.1206443889716
 20
863.6752484295821
 30
0.0
 11
-280.1209495647529
 21
863.6752484295821
 31
0.0
  0
LINE
  5
254
330
1F
100
AcDbEntity
  8
C-A
  6
Continuous
 62
     3
370
     9
100
AcDbLine
 10
-289.1206443889716
 20
860.1397259686445
 30
0.0
 11
-280.1209495647529
 21
860.1397259686445
 31
0.0
  0
LINE
  5
255
330
1F
100
AcDbEntity
  8
C-A
  6
Continuous
 62
     3
370
     9
100
AcDbLine
 10
-304.1206443889716
 20
867.2108319256758
 30
0.0
 11
-295.1209495647529
 21
867.2108319256758
 31
0.0
  0
LINE
  5
256
330
1F
100
AcDbEntity
  8
C-A
  6
Continuous
 62
     3
370
     9
100
AcDbLine
 10
-304.1206443889716
 20
863.6752484295821
 30
0.0
 11
-295.1209495647529
 21
863.6752484295821
 31
0.0
  0
LINE
  5
257
330
1F
100
AcDbEntity
  8
C-A
  6
Continuous
 62
     3
370
     9
100
AcDbLine
 10
-304.1206443889716
 20
860.1397259686445
 30
0.0
 11
-295.1209495647529
 21
860.1397259686445
 31
0.0
  0
LINE
  5
258
330
1F
100
AcDbEntity
  8
C-A
  6
Continuous
 62
     3
370
     9
100
AcDbLine
 10
-319.1206138713935
 20
867.2108319256758
 30
0.0
 11
-310.1209190471748
 21
867.2108319256758
 31
0.0
  0
LINE
  5
259
330
1F
100
AcDbEntity
  8
C-A
  6
Continuous
 62
     3
370
     9
100
AcDbLine
 10
-319.1206138713935
 20
863.6752484295821
 30
0.0
 11
-310.1209190471748
 21
863.6752484295821
 31
0.0
  0
LINE
  5
25A
330
1F
100
AcDbEntity
  8
C-A
  6
Continuous
 62
     3
370
     9
100
AcDbLine
 10
-319.1206138713935
 20
860.1397259686445
 30
0.0
 11
-310.1209190471748
 21
860.1397259686445
 31
0.0
  0
LINE
  5
25B
330
1F
100
AcDbEntity
  8
C-A
  6
Continuous
 62
     3
370
     9
100
AcDbLine
 10
-334.1206138713935
 20
867.2108319256758
 30
0.0
 11
-325.1209190471748
 21
867.2108319256758
 31
0.0
  0
LINE
  5
25C
330
1F
100
AcDbEntity
  8
C-A
  6
Continuous
 62
     3
370
     9
100
AcDbLine
 10
-334.1206138713935
 20
863.6752484295821
 30
0.0
 11
-325.1209190471748
 21
863.6752484295821
 31
0.0
  0
LINE
  5
25D
330
1F
100
AcDbEntity
  8
C-A
  6
Continuous
 62
     3
370
     9
100
AcDbLine
 10
-334.1206138713935
 20
860.1397259686445
 30
0.0
 11
-325.1209190471748
 21
860.1397259686445
 31
0.0
  0
LINE
  5
25E
330
1F
100
AcDbEntity
  8
C-A
  6
Continuous
 62
     3
370
     9
100
AcDbLine
 10
-349.1206138713935
 20
867.2108319256758
 30
0.0
 11
-340.1209190471748
 21
867.2108319256758
 31
0.0
  0
LINE
  5
25F
330
1F
100
AcDbEntity
  8
C-A
  6
Continuous
 62
     3
370
     9
100
AcDbLine
 10
-349.1206138713935
 20
863.6752484295821
 30
0.0
 11
-340.1209190471748
 21
863.6752484295821
 31
0.0
  0
LINE
  5
260
330
1F
100
AcDbEntity
  8
C-A
  6
Continuous
 62
     3
370
     9
100
AcDbLine
 10
-349.1206138713935
 20
860.1397259686445
 30
0.0
 11
-340.1209190471748
 21
860.1397259686445
 31
0.0
  0
LINE
  5
261
330
1F
100
AcDbEntity
  8
C-A
  6
Continuous
 62
     3
370
     9
100
AcDbLine
 10
-364.1206138713935
 20
867.2108319256758
 30
0.0
 11
-355.1209190471748
 21
867.2108319256758
 31
0.0
  0
LINE
  5
262
330
1F
100
AcDbEntity
  8
C-A
  6
Continuous
 62
     3
370
     9
100
AcDbLine
 10
-364.1206138713935
 20
863.6752484295821
 30
0.0
 11
-355.1209190471748
 21
863.6752484295821
 31
0.0
  0
LINE
  5
263
330
1F
100
AcDbEntity
  8
C-A
  6
Continuous
 62
     3
370
     9
100
AcDbLine
 10
-364.1206138713935
 20
860.1397259686445
 30
0.0
 11
-355.1209190471748
 21
860.1397259686445
 31
0.0
  0
LINE
  5
264
330
1F
100
AcDbEntity
  8
C-A
  6
Continuous
 62
     3
370
     9
100
AcDbLine
 10
-379.1206138713935
 20
867.2108319256758
 30
0.0
 11
-370.1209190471748
 21
867.2108319256758
 31
0.0
  0
LINE
  5
265
330
1F
100
AcDbEntity
  8
C-A
  6
Continuous
 62
     3
370
     9
100
AcDbLine
 10
-379.1206138713935
 20
863.6752484295821
 30
0.0
 11
-370.1209190471748
 21
863.6752484295821
 31
0.0
  0
LINE
  5
266
330
1F
100
AcDbEntity
  8
C-A
  6
Continuous
 62
     3
370
     9
100
AcDbLine
 10
-379.1206138713935
 20
860.1397259686445
 30
0.0
 11
-370.1209190471748
 21
860.1397259686445
 31
0.0
  0
LINE
  5
267
330
1F
100
AcDbEntity
  8
C-A
  6
Continuous
 62
     3
370
     9
100
AcDbLine
 10
-394.1206138713935
 20
867.2108319256758
 30
0.0
 11
-385.1209190471748
 21
867.2108319256758
 31
0.0
  0
LINE
  5
268
330
1F
100
AcDbEntity
  8
C-A
  6
Continuous
 62
     3
370
     9
100
AcDbLine
 10
-394.1206138713935
 20
863.6752484295821
 30
0.0
 11
-385.1209190471748
 21
863.6752484295821
 31
0.0
  0
LINE
  5
269
330
1F
100
AcDbEntity
  8
C-A
  6
Continuous
 62
     3
370
     9
100
AcDbLine
 10
-394.1206138713935
 20
860.1397259686445
 30
0.0
 11
-385.1209190471748
 21
860.1397259686445
 31
0.0
  0
LINE
  5
26A
330
1F
100
AcDbEntity
  8
C-A
  6
Continuous
 62
     3
370
     9
100
AcDbLine
 10
-409.1206138713935
 20
867.2108319256758
 30
0.0
 11
-400.1209190471748
 21
867.2108319256758
 31
0.0
  0
LINE
  5
26B
330
1F
100
AcDbEntity
  8
C-A
  6
Continuous
 62
     3
370
     9
100
AcDbLine
 10
-409.1206138713935
 20
863.6752484295821
 30
0.0
 11
-400.1209190471748
 21
863.6752484295821
 31
0.0
  0
LINE
  5
26C
330
1F
100
AcDbEntity
  8
C-A
  6
Continuous
 62
     3
370
     9
100
AcDbLine
 10
-409.1206138713935
 20
860.1397259686445
 30
0.0
 11
-400.1209190471748
 21
860.1397259686445
 31
0.0
  0
LINE
  5
26D
330
1F
100
AcDbEntity
  8
C-A
  6
Continuous
 62
     3
370
     9
100
AcDbLine
 10
-424.1206138713935
 20
867.2108319256758
 30
0.0
 11
-415.1209190471748
 21
867.2108319256758
 31
0.0
  0
LINE
  5
26E
330
1F
100
AcDbEntity
  8
C-A
  6
Continuous
 62
     3
370
     9
100
AcDbLine
 10
-424.1206138713935
 20
863.6752484295821
 30
0.0
 11
-415.1209190471748
 21
863.6752484295821
 31
0.0
  0
LINE
  5
26F
330
1F
100
AcDbEntity
  8
C-A
  6
Continuous
 62
     3
370
     9
100
AcDbLine
 10
-424.1206138713935
 20
860.1397259686445
 30
0.0
 11
-415.1209190471748
 21
860.1397259686445
 31
0.0
  0
LINE
  5
270
330
1F
100
AcDbEntity
  8
C-A
  6
Continuous
 62
     3
370
     9
100
AcDbLine
 10
-439.1206138713935
 20
867.2108319256758
 30
0.0
 11
-430.1209190471748
 21
867.2108319256758
 31
0.0
  0
LINE
  5
271
330
1F
100
AcDbEntity
  8
C-A
  6
Continuous
 62
     3
370
     9
100
AcDbLine
 10
-439.1206138713935
 20
863.6752484295821
 30
0.0
 11
-430.1209190471748
 21
863.6752484295821
 31
0.0
  0
LINE
  5
272
330
1F
100
AcDbEntity
  8
C-A
  6
Continuous
 62
     3
370
     9
100
AcDbLine
 10
-439.1206138713935
 20
860.1397259686445
 30
0.0
 11
-430.1209190471748
 21
860.1397259686445
 31
0.0
  0
LINE
  5
273
330
1F
100
AcDbEntity
  8
C-A
  6
Continuous
 62
     3
370
     9
100
AcDbLine
 10
-454.1206138713935
 20
867.2108319256758
 30
0.0
 11
-445.1209190471748
 21
867.2108319256758
 31
0.0
  0
LINE
  5
274
330
1F
100
AcDbEntity
  8
C-A
  6
Continuous
 62
     3
370
     9
100
AcDbLine
 10
-454.1206138713935
 20
863.6752484295821
 30
0.0
 11
-445.1209190471748
 21
863.6752484295821
 31
0.0
  0
LINE
  5
275
330
1F
100
AcDbEntity
  8
C-A
  6
Continuous
 62
     3
370
     9
100
AcDbLine
 10
-454.1206138713935
 20
860.1397259686445
 30
0.0
 11
-445.1209190471748
 21
860.1397259686445
 31
0.0
  0
LINE
  5
276
330
1F
100
AcDbEntity
  8
C-A
  6
Continuous
 62
     3
370
     9
100
AcDbLine
 10
-469.1206138713935
 20
867.2108319256758
 30
0.0
 11
-460.1209190471748
 21
867.2108319256758
 31
0.0
  0
LINE
  5
277
330
1F
100
AcDbEntity
  8
C-A
  6
Continuous
 62
     3
370
     9
100
AcDbLine
 10
-469.1206138713935
 20
863.6752484295821
 30
0.0
 11
-460.1209190471748
 21
863.6752484295821
 31
0.0
  0
LINE
  5
278
330
1F
100
AcDbEntity
  8
C-A
  6
Continuous
 62
     3
370
     9
100
AcDbLine
 10
-469.1206138713935
 20
860.1397259686445
 30
0.0
 11
-460.1209190471748
 21
860.1397259686445
 31
0.0
  0
LINE
  5
279
330
1F
100
AcDbEntity
  8
C-A
  6
Continuous
 62
     3
370
     9
100
AcDbLine
 10
-484.1206138713935
 20
867.2108319256758
 30
0.0
 11
-475.1209190471748
 21
867.2108319256758
 31
0.0
  0
LINE
  5
27A
330
1F
100
AcDbEntity
  8
C-A
  6
Continuous
 62
     3
370
     9
100
AcDbLine
 10
-484.1206138713935
 20
863.6752484295821
 30
0.0
 11
-475.1209190471748
 21
863.6752484295821
 31
0.0
  0
LINE
  5
27B
330
1F
100
AcDbEntity
  8
C-A
  6
Continuous
 62
     3
370
     9
100
AcDbLine
 10
-484.1206138713935
 20
860.1397259686445
 30
0.0
 11
-475.1209190471748
 21
860.1397259686445
 31
0.0
  0
LINE
  5
27C
330
1F
100
AcDbEntity
  8
C-A
  6
Continuous
 62
     3
370
     9
100
AcDbLine
 10
-499.120606241999
 20
867.2108319256758
 30
0.0
 11
-490.1209114177802
 21
867.2108319256758
 31
0.0
  0
LINE
  5
27D
330
1F
100
AcDbEntity
  8
C-A
  6
Continuous
 62
     3
370
     9
100
AcDbLine
 10
-499.120606241999
 20
863.6752484295821
 30
0.0
 11
-490.1209114177802
 21
863.6752484295821
 31
0.0
  0
LINE
  5
27E
330
1F
100
AcDbEntity
  8
C-A
  6
Continuous
 62
     3
370
     9
100
AcDbLine
 10
-499.120606241999
 20
860.1397259686445
 30
0.0
 11
-490.1209114177802
 21
860.1397259686445
 31
0.0
  0
LINE
  5
27F
330
1F
100
AcDbEntity
  8
C-A
  6
Continuous
 62
     3
370
     9
100
AcDbLine
 10
-514.120606241999
 20
867.2108319256758
 30
0.0
 11
-505.1209114177802
 21
867.2108319256758
 31
0.0
  0
LINE
  5
280
330
1F
100
AcDbEntity
  8
C-A
  6
Continuous
 62
     3
370
     9
100
AcDbLine
 10
-514.120606241999
 20
863.6752484295821
 30
0.0
 11
-505.1209114177802
 21
863.6752484295821
 31
0.0
  0
LINE
  5
281
330
1F
100
AcDbEntity
  8
C-A
  6
Continuous
 62
     3
370
     9
100
AcDbLine
 10
-514.120606241999
 20
860.1397259686445
 30
0.0
 11
-505.1209114177802
 21
860.1397259686445
 31
0.0
  0
LINE
  5
282
330
1F
100
AcDbEntity
  8
C-A
  6
Continuous
 62
     3
370
     9
100
AcDbLine
 10
-529.120606241999
 20
867.2108319256758
 30
0.0
 11
-520.1209114177802
 21
867.2108319256758
 31
0.0
  0
LINE
  5
283
330
1F
100
AcDbEntity
  8
C-A
  6
Continuous
 62
     3
370
     9
100
AcDbLine
 10
-529.120606241999
 20
863.6752484295821
 30
0.0
 11
-520.1209114177802
 21
863.6752484295821
 31
0.0
  0
LINE
  5
284
330
1F
100
AcDbEntity
  8
C-A
  6
Continuous
 62
     3
370
     9
100
AcDbLine
 10
-529.120606241999
 20
860.1397259686445
 30
0.0
 11
-520.1209114177802
 21
860.1397259686445
 31
0.0
  0
LINE
  5
285
330
1F
100
AcDbEntity
  8
C-A
  6
Continuous
 62
     3
370
     9
100
AcDbLine
 10
-544.120606241999
 20
867.2108319256758
 30
0.0
 11
-535.1209114177802
 21
867.2108319256758
 31
0.0
  0
LINE
  5
286
330
1F
100
AcDbEntity
  8
C-A
  6
Continuous
 62
     3
370
     9
100
AcDbLine
 10
-544.120606241999
 20
863.6752484295821
 30
0.0
 11
-535.1209114177802
 21
863.6752484295821
 31
0.0
  0
LINE
  5
287
330
1F
100
AcDbEntity
  8
C-A
  6
Continuous
 62
     3
370
     9
100
AcDbLine
 10
-544.120606241999
 20
860.1397259686445
 30
0.0
 11
-535.1209114177802
 21
860.1397259686445
 31
0.0
  0
LINE
  5
288
330
1F
100
AcDbEntity
  8
C-A
  6
Continuous
 62
     3
370
     9
100
AcDbLine
 10
-559.120606241999
 20
867.2108319256758
 30
0.0
 11
-550.1209114177802
 21
867.2108319256758
 31
0.0
  0
LINE
  5
289
330
1F
100
AcDbEntity
  8
C-A
  6
Continuous
 62
     3
370
     9
100
AcDbLine
 10
-559.120606241999
 20
863.6752484295821
 30
0.0
 11
-550.1209114177802
 21
863.6752484295821
 31
0.0
  0
LINE
  5
28A
330
1F
100
AcDbEntity
  8
C-A
  6
Continuous
 62
     3
370
     9
100
AcDbLine
 10
-559.120606241999
 20
860.1397259686445
 30
0.0
 11
-550.1209114177802
 21
860.1397259686445
 31
0.0
  0
LINE
  5
28B
330
1F
100
AcDbEntity
  8
C-A
  6
Continuous
 62
     3
370
     9
100
AcDbLine
 10
-214.1207664592841
 20
867.2108319256758
 30
0.0
 11
-205.1210716350653
 21
867.2108319256758
 31
0.0
  0
LINE
  5
28C
330
1F
100
AcDbEntity
  8
C-A
  6
Continuous
 62
     3
370
     9
100
AcDbLine
 10
-214.1207664592841
 20
863.6752484295821
 30
0.0
 11
-205.1210716350653
 21
863.6752484295821
 31
0.0
  0
LINE
  5
28D
330
1F
100
AcDbEntity
  8
C-A
  6
Continuous
 62
     3
370
     9
100
AcDbLine
 10
-214.1207664592841
 20
860.1397259686445
 30
0.0
 11
-205.1210716350653
 21
860.1397259686445
 31
0.0
  0
LINE
  5
28E
330
1F
100
AcDbEntity
  8
C-A
  6
Continuous
 62
     3
370
     9
100
AcDbLine
 10
-229.1207054241278
 20
867.2108319256758
 30
0.0
 11
-220.1210105999091
 21
867.2108319256758
 31
0.0
  0
LINE
  5
28F
330
1F
100
AcDbEntity
  8
C-A
  6
Continuous
 62
     3
370
     9
100
AcDbLine
 10
-229.1207054241278
 20
863.6752484295821
 30
0.0
 11
-220.1210105999091
 21
863.6752484295821
 31
0.0
  0
LINE
  5
290
330
1F
100
AcDbEntity
  8
C-A
  6
Continuous
 62
     3
370
     9
100
AcDbLine
 10
-229.1207054241278
 20
860.1397259686445
 30
0.0
 11
-220.1210105999091
 21
860.1397259686445
 31
0.0
  0
LINE
  5
291
330
1F
100
AcDbEntity
  8
C-A
  6
Continuous
 62
     3
370
     9
100
AcDbLine
 10
-244.1207054241278
 20
867.2108319256758
 30
0.0
 11
-235.1210105999091
 21
867.2108319256758
 31
0.0
  0
LINE
  5
292
330
1F
100
AcDbEntity
  8
C-A
  6
Continuous
 62
     3
370
     9
100
AcDbLine
 10
-244.1207054241278
 20
863.6752484295821
 30
0.0
 11
-235.1210105999091
 21
863.6752484295821
 31
0.0
  0
LINE
  5
293
330
1F
100
AcDbEntity
  8
C-A
  6
Continuous
 62
     3
370
     9
100
AcDbLine
 10
-244.1207054241278
 20
860.1397259686445
 30
0.0
 11
-235.1210105999091
 21
860.1397259686445
 31
0.0
  0
LINE
  5
294
330
1F
100
AcDbEntity
  8
C-A
  6
Continuous
 62
     3
370
     9
100
AcDbLine
 10
-199.1207664592841
 20
867.2108319256758
 30
0.0
 11
-190.1210716350653
 21
867.2108319256758
 31
0.0
  0
LINE
  5
295
330
1F
100
AcDbEntity
  8
C-A
  6
Continuous
 62
     3
370
     9
100
AcDbLine
 10
-199.1207664592841
 20
863.6752484295821
 30
0.0
 11
-190.1210716350653
 21
863.6752484295821
 31
0.0
  0
LINE
  5
296
330
1F
100
AcDbEntity
  8
C-A
  6
Continuous
 62
     3
370
     9
100
AcDbLine
 10
-199.1207664592841
 20
860.1397259686445
 30
0.0
 11
-190.1210716350653
 21
860.1397259686445
 31
0.0
  0
LINE
  5
297
330
1F
100
AcDbEntity
  8
C-A
  6
Continuous
 62
     3
370
     9
100
AcDbLine
 10
-184.1207664592841
 20
867.2108319256758
 30
0.0
 11
-175.1213768108466
 21
867.2108319256758
 31
0.0
  0
LINE
  5
298
330
1F
100
AcDbEntity
  8
C-A
  6
Continuous
 62
     3
370
     9
100
AcDbLine
 10
-184.1207664592841
 20
863.6752484295821
 30
0.0
 11
-175.1213768108466
 21
863.6752484295821
 31
0.0
  0
LINE
  5
299
330
1F
100
AcDbEntity
  8
C-A
  6
Continuous
 62
     3
370
     9
100
AcDbLine
 10
-184.1207664592841
 20
860.1397259686445
 30
0.0
 11
-175.1213768108466
 21
860.1397259686445
 31
0.0
  0
LINE
  5
29A
330
1F
100
AcDbEntity
  8
C-A
  6
Continuous
 62
     3
370
     9
100
AcDbLine
 10
-169.1211326702216
 20
867.2108319256758
 30
0.0
 11
-160.1214378460028
 21
867.2108319256758
 31
0.0
  0
LINE
  5
29B
330
1F
100
AcDbEntity
  8
C-A
  6
Continuous
 62
     3
370
     9
100
AcDbLine
 10
-169.1211326702216
 20
863.6752484295821
 30
0.0
 11
-160.1214378460028
 21
863.6752484295821
 31
0.0
  0
LINE
  5
29C
330
1F
100
AcDbEntity
  8
C-A
  6
Continuous
 62
     3
370
     9
100
AcDbLine
 10
-169.1211326702216
 20
860.1397259686445
 30
0.0
 11
-160.1214378460028
 21
860.1397259686445
 31
0.0
  0
LINE
  5
29D
330
1F
100
AcDbEntity
  8
C-A
  6
Continuous
 62
     3
370
     9
100
AcDbLine
 10
-154.1211326702216
 20
867.2108319256758
 30
0.0
 11
-145.1214378460028
 21
867.2108319256758
 31
0.0
  0
LINE
  5
29E
330
1F
100
AcDbEntity
  8
C-A
  6
Continuous
 62
     3
370
     9
100
AcDbLine
 10
-154.1211326702216
 20
863.6752484295821
 30
0.0
 11
-145.1214378460028
 21
863.6752484295821
 31
0.0
  0
LINE
  5
29F
330
1F
100
AcDbEntity
  8
C-A
  6
Continuous
 62
     3
370
     9
100
AcDbLine
 10
-154.1211326702216
 20
860.1397259686445
 30
0.0
 11
-145.1214378460028
 21
860.1397259686445
 31
0.0
  0
LINE
  5
2A0
330
1F
100
AcDbEntity
  8
C-A
  6
Continuous
 62
     3
370
     9
100
AcDbLine
 10
-565.1212318523505
 20
860.1397259686445
 30
0.0
 11
-573.1210678203681
 21
860.1397259686445
 31
0.0
  0
LINE
  5
2A1
330
1F
100
AcDbEntity
  8
C-A
  6
Continuous
 62
     3
370
     9
100
AcDbLine
 10
-565.1212318523505
 20
863.6752484295821
 30
0.0
 11
-573.1210678203681
 21
863.6752484295821
 31
0.0
  0
LINE
  5
2A2
330
1F
100
AcDbEntity
  8
C-A
  6
Continuous
 62
     3
370
     9
100
AcDbLine
 10
-565.1212318523505
 20
867.2108319256758
 30
0.0
 11
-573.1210678203681
 21
867.2108319256758
 31
0.0
  0
LINE
  5
2A3
330
1F
100
AcDbEntity
  8
C-A
  6
Continuous
 62
     3
370
     9
100
AcDbLine
 10
-139.1211326702216
 20
867.2108319256758
 30
0.0
 11
-130.1214378460028
 21
867.2108319256758
 31
0.0
  0
LINE
  5
2A4
330
1F
100
AcDbEntity
  8
C-A
  6
Continuous
 62
     3
370
     9
100
AcDbLine
 10
-139.1211326702216
 20
863.6752484295821
 30
0.0
 11
-130.1214378460028
 21
863.6752484295821
 31
0.0
  0
LINE
  5
2A5
330
1F
100
AcDbEntity
  8
C-A
  6
Continuous
 62
     3
370
     9
100
AcDbLine
 10
-139.1211326702216
 20
860.1397259686445
 30
0.0
 11
-130.1214378460028
 21
860.1397259686445
 31
0.0
  0
LINE
  5
2A6
330
1F
100
AcDbEntity
  8
C-A
  6
Continuous
 62
     3
370
     9
100
AcDbLine
 10
-124.120980082331
 20
867.2108319256758
 30
0.0
 11
-115.1215904338935
 21
867.2108319256758
 31
0.0
  0
LINE
  5
2A7
330
1F
100
AcDbEntity
  8
C-A
  6
Continuous
 62
     3
370
     9
100
AcDbLine
 10
-124.120980082331
 20
863.6752484295821
 30
0.0
 11
-115.1215904338935
 21
863.6752484295821
 31
0.0
  0
LINE
  5
2A8
330
1F
100
AcDbEntity
  8
C-A
  6
Continuous
 62
     3
370
     9
100
AcDbLine
 10
-124.120980082331
 20
860.1397259686445
 30
0.0
 11
-115.1215904338935
 21
860.1397259686445
 31
0.0
  0
LINE
  5
2A9
330
1F
100
AcDbEntity
  8
C-A
  6
Continuous
 62
     3
370
     9
100
AcDbLine
 10
-109.1213462932685
 20
867.2108319256758
 30
0.0
 11
-100.1216819866278
 21
867.2108319256758
 31
0.0
  0
LINE
  5
2AA
330
1F
100
AcDbEntity
  8
C-A
  6
Continuous
 62
     3
370
     9
100
AcDbLine
 10
-109.1213462932685
 20
863.6752484295821
 30
0.0
 11
-100.1216819866278
 21
863.6752484295821
 31
0.0
  0
LINE
  5
2AB
330
1F
100
AcDbEntity
  8
C-A
  6
Continuous
 62
     3
370
     9
100
AcDbLine
 10
-109.1213462932685
 20
860.1397259686445
 30
0.0
 11
-100.1216819866278
 21
860.1397259686445
 31
0.0
  0
LINE
  5
2AC
330
1F
100
AcDbEntity
  8
C-A
  6
Continuous
 62
     3
370
     9
100
AcDbLine
 10
-94.12137681084658
 20
867.2108319256758
 30
0.0
 11
-85.12168198662785
 21
867.2108319256758
 31
0.0
  0
LINE
  5
2AD
330
1F
100
AcDbEntity
  8
C-A
  6
Continuous
 62
     3
370
     9
100
AcDbLine
 10
-94.12137681084658
 20
863.6752484295821
 30
0.0
 11
-85.12168198662785
 21
863.6752484295821
 31
0.0
  0
LINE
  5
2AE
330
1F
100
AcDbEntity
  8
C-A
  6
Continuous
 62
     3
370
     9
100
AcDbLine
 10
-94.12137681084658
 20
860.1397259686445
 30
0.0
 11
-85.12168198662785
 21
860.1397259686445
 31
0.0
  0
LINE
  5
2AF
330
1F
100
AcDbEntity
  8
C-A
  6
Continuous
 62
     3
370
     9
100
AcDbLine
 10
-259.1207054241278
 20
667.2108014080976
 30
0.0
 11
-250.1210105999091
 21
667.2108014080976
 31
0.0
  0
LINE
  5
2B0
330
1F
100
AcDbEntity
  8
C-A
  6
Continuous
 62
     3
370
     9
100
AcDbLine
 10
-259.1207054241278
 20
663.67527894716
 30
0.0
 11
-250.1210105999091
 21
663.67527894716
 31
0.0
  0
LINE
  5
2B1
330
1F
100
AcDbEntity
  8
C-A
  6
Continuous
 62
     3
370
     9
100
AcDbLine
 10
-259.1207054241278
 20
660.1397259686445
 30
0.0
 11
-250.1210105999091
 21
660.1397259686445
 31
0.0
  0
LINE
  5
2B2
330
1F
100
AcDbEntity
  8
C-A
  6
Continuous
 62
     3
370
     9
100
AcDbLine
 10
-274.1206443889716
 20
667.2108014080976
 30
0.0
 11
-265.1209495647529
 21
667.2108014080976
 31
0.0
  0
LINE
  5
2B3
330
1F
100
AcDbEntity
  8
C-A
  6
Continuous
 62
     3
370
     9
100
AcDbLine
 10
-274.1206443889716
 20
663.67527894716
 30
0.0
 11
-265.1209495647529
 21
663.67527894716
 31
0.0
  0
LINE
  5
2B4
330
1F
100
AcDbEntity
  8
C-A
  6
Continuous
 62
     3
370
     9
100
AcDbLine
 10
-274.1206443889716
 20
660.1397259686445
 30
0.0
 11
-265.1209495647529
 21
660.1397259686445
 31
0.0
  0
LINE
  5
2B5
330
1F
100
AcDbEntity
  8
C-A
  6
Continuous
 62
     3
370
     9
100
AcDbLine
 10
-289.1206443889716
 20
667.2108014080976
 30
0.0
 11
-280.1209495647529
 21
667.2108014080976
 31
0.0
  0
LINE
  5
2B6
330
1F
100
AcDbEntity
  8
C-A
  6
Continuous
 62
     3
370
     9
100
AcDbLine
 10
-289.1206443889716
 20
663.67527894716
 30
0.0
 11
-280.1209495647529
 21
663.67527894716
 31
0.0
  0
LINE
  5
2B7
330
1F
100
AcDbEntity
  8
C-A
  6
Continuous
 62
     3
370
     9
100
AcDbLine
 10
-289.1206443889716
 20
660.1397259686445
 30
0.0
 11
-280.1209495647529
 21
660.1397259686445
 31
0.0
  0
LINE
  5
2B8
330
1F
100
AcDbEntity
  8
C-A
  6
Continuous
 62
     3
370
     9
100
AcDbLine
 10
-304.1206443889716
 20
667.2108014080976
 30
0.0
 11
-295.1209495647529
 21
667.2108014080976
 31
0.0
  0
LINE
  5
2B9
330
1F
100
AcDbEntity
  8
C-A
  6
Continuous
 62
     3
370
     9
100
AcDbLine
 10
-304.1206443889716
 20
663.67527894716
 30
0.0
 11
-295.1209495647529
 21
663.67527894716
 31
0.0
  0
LINE
  5
2BA
330
1F
100
AcDbEntity
  8
C-A
  6
Continuous
 62
     3
370
     9
100
AcDbLine
 10
-304.1206443889716
 20
660.1397259686445
 30
0.0
 11
-295.1209495647529
 21
660.1397259686445
 31
0.0
  0
LINE
  5
2BB
330
1F
100
AcDbEntity
  8
C-A
  6
Continuous
 62
     3
370
     9
100
AcDbLine
 10
-319.1206138713935
 20
667.2108014080976
 30
0.0
 11
-310.1209190471748
 21
667.2108014080976
 31
0.0
  0
LINE
  5
2BC
330
1F
100
AcDbEntity
  8
C-A
  6
Continuous
 62
     3
370
     9
100
AcDbLine
 10
-319.1206138713935
 20
663.67527894716
 30
0.0
 11
-310.1209190471748
 21
663.67527894716
 31
0.0
  0
LINE
  5
2BD
330
1F
100
AcDbEntity
  8
C-A
  6
Continuous
 62
     3
370
     9
100
AcDbLine
 10
-319.1206138713935
 20
660.1397259686445
 30
0.0
 11
-310.1209190471748
 21
660.1397259686445
 31
0.0
  0
LINE
  5
2BE
330
1F
100
AcDbEntity
  8
C-A
  6
Continuous
 62
     3
370
     9
100
AcDbLine
 10
-334.1206138713935
 20
667.2108014080976
 30
0.0
 11
-325.1209190471748
 21
667.2108014080976
 31
0.0
  0
LINE
  5
2BF
330
1F
100
AcDbEntity
  8
C-A
  6
Continuous
 62
     3
370
     9
100
AcDbLine
 10
-334.1206138713935
 20
663.67527894716
 30
0.0
 11
-325.1209190471748
 21
663.67527894716
 31
0.0
  0
LINE
  5
2C0
330
1F
100
AcDbEntity
  8
C-A
  6
Continuous
 62
     3
370
     9
100
AcDbLine
 10
-334.1206138713935
 20
660.1397259686445
 30
0.0
 11
-325.1209190471748
 21
660.1397259686445
 31
0.0
  0
LINE
  5
2C1
330
1F
100
AcDbEntity
  8
C-A
  6
Continuous
 62
     3
370
     9
100
AcDbLine
 10
-349.1206138713935
 20
667.2108014080976
 30
0.0
 11
-340.1209190471748
 21
667.2108014080976
 31
0.0
  0
LINE
  5
2C2
330
1F
100
AcDbEntity
  8
C-A
  6
Continuous
 62
     3
370
     9
100
AcDbLine
 10
-349.1206138713935
 20
663.67527894716
 30
0.0
 11
-340.1209190471748
 21
663.67527894716
 31
0.0
  0
LINE
  5
2C3
330
1F
100
AcDbEntity
  8
C-A
  6
Continuous
 62
     3
370
     9
100
AcDbLine
 10
-349.1206138713935
 20
660.1397259686445
 30
0.0
 11
-340.1209190471748
 21
660.1397259686445
 31
0.0
  0
LINE
  5
2C4
330
1F
100
AcDbEntity
  8
C-A
  6
Continuous
 62
     3
370
     9
100
AcDbLine
 10
-364.1206138713935
 20
667.2108014080976
 30
0.0
 11
-355.1209190471748
 21
667.2108014080976
 31
0.0
  0
LINE
  5
2C5
330
1F
100
AcDbEntity
  8
C-A
  6
Continuous
 62
     3
370
     9
100
AcDbLine
 10
-364.1206138713935
 20
663.67527894716
 30
0.0
 11
-355.1209190471748
 21
663.67527894716
 31
0.0
  0
LINE
  5
2C6
330
1F
100
AcDbEntity
  8
C-A
  6
Continuous
 62
     3
370
     9
100
AcDbLine
 10
-364.1206138713935
 20
660.1397259686445
 30
0.0
 11
-355.1209190471748
 21
660.1397259686445
 31
0.0
  0
LINE
  5
2C7
330
1F
100
AcDbEntity
  8
C-A
  6
Continuous
 62
     3
370
     9
100
AcDbLine
 10
-379.1206138713935
 20
667.2108014080976
 30
0.0
 11
-370.1209190471748
 21
667.2108014080976
 31
0.0
  0
LINE
  5
2C8
330
1F
100
AcDbEntity
  8
C-A
  6
Continuous
 62
     3
370
     9
100
AcDbLine
 10
-379.1206138713935
 20
663.67527894716
 30
0.0
 11
-370.1209190471748
 21
663.67527894716
 31
0.0
  0
LINE
  5
2C9
330
1F
100
AcDbEntity
  8
C-A
  6
Continuous
 62
     3
370
     9
100
AcDbLine
 10
-379.1206138713935
 20
660.1397259686445
 30
0.0
 11
-370.1209190471748
 21
660.1397259686445
 31
0.0
  0
LINE
  5
2CA
330
1F
100
AcDbEntity
  8
C-A
  6
Continuous
 62
     3
370
     9
100
AcDbLine
 10
-394.1206138713935
 20
667.2108014080976
 30
0.0
 11
-385.1209190471748
 21
667.2108014080976
 31
0.0
  0
LINE
  5
2CB
330
1F
100
AcDbEntity
  8
C-A
  6
Continuous
 62
     3
370
     9
100
AcDbLine
 10
-394.1206138713935
 20
663.67527894716
 30
0.0
 11
-385.1209190471748
 21
663.67527894716
 31
0.0
  0
LINE
  5
2CC
330
1F
100
AcDbEntity
  8
C-A
  6
Continuous
 62
     3
370
     9
100
AcDbLine
 10
-394.1206138713935
 20
660.1397259686445
 30
0.0
 11
-385.1209190471748
 21
660.1397259686445
 31
0.0
  0
LINE
  5
2CD
330
1F
100
AcDbEntity
  8
C-A
  6
Continuous
 62
     3
370
     9
100
AcDbLine
 10
-409.1206138713935
 20
667.2108014080976
 30
0.0
 11
-400.1209190471748
 21
667.2108014080976
 31
0.0
  0
LINE
  5
2CE
330
1F
100
AcDbEntity
  8
C-A
  6
Continuous
 62
     3
370
     9
100
AcDbLine
 10
-409.1206138713935
 20
663.67527894716
 30
0.0
 11
-400.1209190471748
 21
663.67527894716
 31
0.0
  0
LINE
  5
2CF
330
1F
100
AcDbEntity
  8
C-A
  6
Continuous
 62
     3
370
     9
100
AcDbLine
 10
-409.1206138713935
 20
660.1397259686445
 30
0.0
 11
-400.1209190471748
 21
660.1397259686445
 31
0.0
  0
LINE
  5
2D0
330
1F
100
AcDbEntity
  8
C-A
  6
Continuous
 62
     3
370
     9
100
AcDbLine
 10
-424.1206138713935
 20
667.2108014080976
 30
0.0
 11
-415.1209190471748
 21
667.2108014080976
 31
0.0
  0
LINE
  5
2D1
330
1F
100
AcDbEntity
  8
C-A
  6
Continuous
 62
     3
370
     9
100
AcDbLine
 10
-424.1206138713935
 20
663.67527894716
 30
0.0
 11
-415.1209190471748
 21
663.67527894716
 31
0.0
  0
LINE
  5
2D2
330
1F
100
AcDbEntity
  8
C-A
  6
Continuous
 62
     3
370
     9
100
AcDbLine
 10
-424.1206138713935
 20
660.1397259686445
 30
0.0
 11
-415.1209190471748
 21
660.1397259686445
 31
0.0
  0
LINE
  5
2D3
330
1F
100
AcDbEntity
  8
C-A
  6
Continuous
 62
     3
370
     9
100
AcDbLine
 10
-439.1206138713935
 20
667.2108014080976
 30
0.0
 11
-430.1209190471748
 21
667.2108014080976
 31
0.0
  0
LINE
  5
2D4
330
1F
100
AcDbEntity
  8
C-A
  6
Continuous
 62
     3
370
     9
100
AcDbLine
 10
-439.1206138713935
 20
663.67527894716
 30
0.0
 11
-430.1209190471748
 21
663.67527894716
 31
0.0
  0
LINE
  5
2D5
330
1F
100
AcDbEntity
  8
C-A
  6
Continuous
 62
     3
370
     9
100
AcDbLine
 10
-439.1206138713935
 20
660.1397259686445
 30
0.0
 11
-430.1209190471748
 21
660.1397259686445
 31
0.0
  0
LINE
  5
2D6
330
1F
100
AcDbEntity
  8
C-A
  6
Continuous
 62
     3
370
     9
100
AcDbLine
 10
-454.1206138713935
 20
667.2108014080976
 30
0.0
 11
-445.1209190471748
 21
667.2108014080976
 31
0.0
  0
LINE
  5
2D7
330
1F
100
AcDbEntity
  8
C-A
  6
Continuous
 62
     3
370
     9
100
AcDbLine
 10
-454.1206138713935
 20
663.67527894716
 30
0.0
 11
-445.1209190471748
 21
663.67527894716
 31
0.0
  0
LINE
  5
2D8
330
1F
100
AcDbEntity
  8
C-A
  6
Continuous
 62
     3
370
     9
100
AcDbLine
 10
-454.1206138713935
 20
660.1397259686445
 30
0.0
 11
-445.1209190471748
 21
660.1397259686445
 31
0.0
  0
LINE
  5
2D9
330
1F
100
AcDbEntity
  8
C-A
  6
Continuous
 62
     3
370
     9
100
AcDbLine
 10
-469.1206138713935
 20
667.2108014080976
 30
0.0
 11
-460.1209190471748
 21
667.2108014080976
 31
0.0
  0
LINE
  5
2DA
330
1F
100
AcDbEntity
  8
C-A
  6
Continuous
 62
     3
370
     9
100
AcDbLine
 10
-469.1206138713935
 20
663.67527894716
 30
0.0
 11
-460.1209190471748
 21
663.67527894716
 31
0.0
  0
LINE
  5
2DB
330
1F
100
AcDbEntity
  8
C-A
  6
Continuous
 62
     3
370
     9
100
AcDbLine
 10
-469.1206138713935
 20
660.1397259686445
 30
0.0
 11
-460.1209190471748
 21
660.1397259686445
 31
0.0
  0
LINE
  5
2DC
330
1F
100
AcDbEntity
  8
C-A
  6
Continuous
 62
     3
370
     9
100
AcDbLine
 10
-484.1206138713935
 20
667.2108014080976
 30
0.0
 11
-475.1209190471748
 21
667.2108014080976
 31
0.0
  0
LINE
  5
2DD
330
1F
100
AcDbEntity
  8
C-A
  6
Continuous
 62
     3
370
     9
100
AcDbLine
 10
-484.1206138713935
 20
663.67527894716
 30
0.0
 11
-475.1209190471748
 21
663.67527894716
 31
0.0
  0
LINE
  5
2DE
330
1F
100
AcDbEntity
  8
C-A
  6
Continuous
 62
     3
370
     9
100
AcDbLine
 10
-484.1206138713935
 20
660.1397259686445
 30
0.0
 11
-475.1209190471748
 21
660.1397259686445
 31
0.0
  0
LINE
  5
2DF
330
1F
100
AcDbEntity
  8
C-A
  6
Continuous
 62
     3
370
     9
100
AcDbLine
 10
-499.120606241999
 20
667.2108014080976
 30
0.0
 11
-490.1209114177802
 21
667.2108014080976
 31
0.0
  0
LINE
  5
2E0
330
1F
100
AcDbEntity
  8
C-A
  6
Continuous
 62
     3
370
     9
100
AcDbLine
 10
-499.120606241999
 20
663.67527894716
 30
0.0
 11
-490.1209114177802
 21
663.67527894716
 31
0.0
  0
LINE
  5
2E1
330
1F
100
AcDbEntity
  8
C-A
  6
Continuous
 62
     3
370
     9
100
AcDbLine
 10
-499.120606241999
 20
660.1397259686445
 30
0.0
 11
-490.1209114177802
 21
660.1397259686445
 31
0.0
  0
LINE
  5
2E2
330
1F
100
AcDbEntity
  8
C-A
  6
Continuous
 62
     3
370
     9
100
AcDbLine
 10
-514.120606241999
 20
667.2108014080976
 30
0.0
 11
-505.1209114177802
 21
667.2108014080976
 31
0.0
  0
LINE
  5
2E3
330
1F
100
AcDbEntity
  8
C-A
  6
Continuous
 62
     3
370
     9
100
AcDbLine
 10
-514.120606241999
 20
663.67527894716
 30
0.0
 11
-505.1209114177802
 21
663.67527894716
 31
0.0
  0
LINE
  5
2E4
330
1F
100
AcDbEntity
  8
C-A
  6
Continuous
 62
     3
370
     9
100
AcDbLine
 10
-514.120606241999
 20
660.1397259686445
 30
0.0
 11
-505.1209114177802
 21
660.1397259686445
 31
0.0
  0
LINE
  5
2E5
330
1F
100
AcDbEntity
  8
C-A
  6
Continuous
 62
     3
370
     9
100
AcDbLine
 10
-529.120606241999
 20
667.2108014080976
 30
0.0
 11
-520.1209114177802
 21
667.2108014080976
 31
0.0
  0
LINE
  5
2E6
330
1F
100
AcDbEntity
  8
C-A
  6
Continuous
 62
     3
370
     9
100
AcDbLine
 10
-529.120606241999
 20
663.67527894716
 30
0.0
 11
-520.1209114177802
 21
663.67527894716
 31
0.0
  0
LINE
  5
2E7
330
1F
100
AcDbEntity
  8
C-A
  6
Continuous
 62
     3
370
     9
100
AcDbLine
 10
-529.120606241999
 20
660.1397259686445
 30
0.0
 11
-520.1209114177802
 21
660.1397259686445
 31
0.0
  0
LINE
  5
2E8
330
1F
100
AcDbEntity
  8
C-A
  6
Continuous
 62
     3
370
     9
100
AcDbLine
 10
-544.120606241999
 20
667.2108014080976
 30
0.0
 11
-535.1209114177802
 21
667.2108014080976
 31
0.0
  0
LINE
  5
2E9
330
1F
100
AcDbEntity
  8
C-A
  6
Continuous
 62
     3
370
     9
100
AcDbLine
 10
-544.120606241999
 20
663.67527894716
 30
0.0
 11
-535.1209114177802
 21
663.67527894716
 31
0.0
  0
LINE
  5
2EA
330
1F
100
AcDbEntity
  8
C-A
  6
Continuous
 62
     3
370
     9
100
AcDbLine
 10
-544.120606241999
 20
660.1397259686445
 30
0.0
 11
-535.1209114177802
 21
660.1397259686445
 31
0.0
  0
LINE
  5
2EB
330
1F
100
AcDbEntity
  8
C-A
  6
Continuous
 62
     3
370
     9
100
AcDbLine
 10
-559.120606241999
 20
667.2108014080976
 30
0.0
 11
-550.1209114177802
 21
667.2108014080976
 31
0.0
  0
LINE
  5
2EC
330
1F
100
AcDbEntity
  8
C-A
  6
Continuous
 62
     3
370
     9
100
AcDbLine
 10
-559.120606241999
 20
663.67527894716
 30
0.0
 11
-550.1209114177802
 21
663.67527894716
 31
0.0
  0
LINE
  5
2ED
330
1F
100
AcDbEntity
  8
C-A
  6
Continuous
 62
     3
370
     9
100
AcDbLine
 10
-559.120606241999
 20
660.1397259686445
 30
0.0
 11
-550.1209114177802
 21
660.1397259686445
 31
0.0
  0
LINE
  5
2EE
330
1F
100
AcDbEntity
  8
C-A
  6
Continuous
 62
     3
370
     9
100
AcDbLine
 10
-214.1207664592841
 20
667.2108014080976
 30
0.0
 11
-205.1210716350653
 21
667.2108014080976
 31
0.0
  0
LINE
  5
2EF
330
1F
100
AcDbEntity
  8
C-A
  6
Continuous
 62
     3
370
     9
100
AcDbLine
 10
-214.1207664592841
 20
663.67527894716
 30
0.0
 11
-205.1210716350653
 21
663.67527894716
 31
0.0
  0
LINE
  5
2F0
330
1F
100
AcDbEntity
  8
C-A
  6
Continuous
 62
     3
370
     9
100
AcDbLine
 10
-214.1207664592841
 20
660.1397259686445
 30
0.0
 11
-205.1210716350653
 21
660.1397259686445
 31
0.0
  0
LINE
  5
2F1
330
1F
100
AcDbEntity
  8
C-A
  6
Continuous
 62
     3
370
     9
100
AcDbLine
 10
-229.1207054241278
 20
667.2108014080976
 30
0.0
 11
-220.1210105999091
 21
667.2108014080976
 31
0.0
  0
LINE
  5
2F2
330
1F
100
AcDbEntity
  8
C-A
  6
Continuous
 62
     3
370
     9
100
AcDbLine
 10
-229.1207054241278
 20
663.67527894716
 30
0.0
 11
-220.1210105999091
 21
663.67527894716
 31
0.0
  0
LINE
  5
2F3
330
1F
100
AcDbEntity
  8
C-A
  6
Continuous
 62
     3
370
     9
100
AcDbLine
 10
-229.1207054241278
 20
660.1397259686445
 30
0.0
 11
-220.1210105999091
 21
660.1397259686445
 31
0.0
  0
LINE
  5
2F4
330
1F
100
AcDbEntity
  8
C-A
  6
Continuous
 62
     3
370
     9
100
AcDbLine
 10
-244.1207054241278
 20
667.2108014080976
 30
0.0
 11
-235.1210105999091
 21
667.2108014080976
 31
0.0
  0
LINE
  5
2F5
330
1F
100
AcDbEntity
  8
C-A
  6
Continuous
 62
     3
370
     9
100
AcDbLine
 10
-244.1207054241278
 20
663.67527894716
 30
0.0
 11
-235.1210105999091
 21
663.67527894716
 31
0.0
  0
LINE
  5
2F6
330
1F
100
AcDbEntity
  8
C-A
  6
Continuous
 62
     3
370
     9
100
AcDbLine
 10
-244.1207054241278
 20
660.1397259686445
 30
0.0
 11
-235.1210105999091
 21
660.1397259686445
 31
0.0
  0
LINE
  5
2F7
330
1F
100
AcDbEntity
  8
C-A
  6
Continuous
 62
     3
370
     9
100
AcDbLine
 10
-199.1207664592841
 20
667.2108014080976
 30
0.0
 11
-190.1210716350653
 21
667.2108014080976
 31
0.0
  0
LINE
  5
2F8
330
1F
100
AcDbEntity
  8
C-A
  6
Continuous
 62
     3
370
     9
100
AcDbLine
 10
-199.1207664592841
 20
663.67527894716
 30
0.0
 11
-190.1210716350653
 21
663.67527894716
 31
0.0
  0
LINE
  5
2F9
330
1F
100
AcDbEntity
  8
C-A
  6
Continuous
 62
     3
370
     9
100
AcDbLine
 10
-199.1207664592841
 20
660.1397259686445
 30
0.0
 11
-190.1210716350653
 21
660.1397259686445
 31
0.0
  0
LINE
  5
2FA
330
1F
100
AcDbEntity
  8
C-A
  6
Continuous
 62
     3
370
     9
100
AcDbLine
 10
-184.1207664592841
 20
667.2108014080976
 30
0.0
 11
-175.1213768108466
 21
667.2108014080976
 31
0.0
  0
LINE
  5
2FB
330
1F
100
AcDbEntity
  8
C-A
  6
Continuous
 62
     3
370
     9
100
AcDbLine
 10
-184.1207664592841
 20
663.67527894716
 30
0.0
 11
-175.1213768108466
 21
663.67527894716
 31
0.0
  0
LINE
  5
2FC
330
1F
100
AcDbEntity
  8
C-A
  6
Continuous
 62
     3
370
     9
100
AcDbLine
 10
-184.1207664592841
 20
660.1397259686445
 30
0.0
 11
-175.1213768108466
 21
660.1397259686445
 31
0.0
  0
LINE
  5
2FD
330
1F
100
AcDbEntity
  8
C-A
  6
Continuous
 62
     3
370
     9
100
AcDbLine
 10
-169.1211326702216
 20
667.2108014080976
 30
0.0
 11
-160.1214378460028
 21
667.2108014080976
 31
0.0
  0
LINE
  5
2FE
330
1F
100
AcDbEntity
  8
C-A
  6
Continuous
 62
     3
370
     9
100
AcDbLine
 10
-169.1211326702216
 20
663.67527894716
 30
0.0
 11
-160.1214378460028
 21
663.67527894716
 31
0.0
  0
LINE
  5
2FF
330
1F
100
AcDbEntity
  8
C-A
  6
Continuous
 62
     3
370
     9
100
AcDbLine
 10
-169.1211326702216
 20
660.1397259686445
 30
0.0
 11
-160.1214378460028
 21
660.1397259686445
 31
0.0
  0
LINE
  5
300
330
1F
100
AcDbEntity
  8
C-A
  6
Continuous
 62
     3
370
     9
100
AcDbLine
 10
-154.1211326702216
 20
667.2108014080976
 30
0.0
 11
-145.1214378460028
 21
667.2108014080976
 31
0.0
  0
LINE
  5
301
330
1F
100
AcDbEntity
  8
C-A
  6
Continuous
 62
     3
370
     9
100
AcDbLine
 10
-154.1211326702216
 20
663.67527894716
 30
0.0
 11
-145.1214378460028
 21
663.67527894716
 31
0.0
  0
LINE
  5
302
330
1F
100
AcDbEntity
  8
C-A
  6
Continuous
 62
     3
370
     9
100
AcDbLine
 10
-154.1211326702216
 20
660.1397259686445
 30
0.0
 11
-145.1214378460028
 21
660.1397259686445
 31
0.0
  0
LINE
  5
303
330
1F
100
AcDbEntity
  8
C-A
  6
Continuous
 62
     3
370
     9
100
AcDbLine
 10
-565.1212318523505
 20
660.1397259686445
 30
0.0
 11
-573.1210678203681
 21
660.1397259686445
 31
0.0
  0
LINE
  5
304
330
1F
100
AcDbEntity
  8
C-A
  6
Continuous
 62
     3
370
     9
100
AcDbLine
 10
-565.1212318523505
 20
663.67527894716
 30
0.0
 11
-573.1210678203681
 21
663.67527894716
 31
0.0
  0
LINE
  5
305
330
1F
100
AcDbEntity
  8
C-A
  6
Continuous
 62
     3
370
     9
100
AcDbLine
 10
-565.1212318523505
 20
667.2108014080976
 30
0.0
 11
-573.1210678203681
 21
667.2108014080976
 31
0.0
  0
LINE
  5
306
330
1F
100
AcDbEntity
  8
C-A
  6
Continuous
 62
     3
370
     9
100
AcDbLine
 10
-139.1211326702216
 20
667.2108014080976
 30
0.0
 11
-130.1214378460028
 21
667.2108014080976
 31
0.0
  0
LINE
  5
307
330
1F
100
AcDbEntity
  8
C-A
  6
Continuous
 62
     3
370
     9
100
AcDbLine
 10
-139.1211326702216
 20
663.67527894716
 30
0.0
 11
-130.1214378460028
 21
663.67527894716
 31
0.0
  0
LINE
  5
308
330
1F
100
AcDbEntity
  8
C-A
  6
Continuous
 62
     3
370
     9
100
AcDbLine
 10
-259.1207054241278
 20
567.2108014080976
 30
0.0
 11
-250.1210105999091
 21
567.2108014080976
 31
0.0
  0
LINE
  5
309
330
1F
100
AcDbEntity
  8
C-A
  6
Continuous
 62
     3
370
     9
100
AcDbLine
 10
-259.1207054241278
 20
563.67527894716
 30
0.0
 11
-250.1210105999091
 21
563.67527894716
 31
0.0
  0
LINE
  5
30A
330
1F
100
AcDbEntity
  8
C-A
  6
Continuous
 62
     3
370
     9
100
AcDbLine
 10
-259.1207054241278
 20
560.1397259686445
 30
0.0
 11
-250.1210105999091
 21
560.1397259686445
 31
0.0
  0
LINE
  5
30B
330
1F
100
AcDbEntity
  8
C-A
  6
Continuous
 62
     3
370
     9
100
AcDbLine
 10
-274.1206443889716
 20
567.2108014080976
 30
0.0
 11
-265.1209495647529
 21
567.2108014080976
 31
0.0
  0
LINE
  5
30C
330
1F
100
AcDbEntity
  8
C-A
  6
Continuous
 62
     3
370
     9
100
AcDbLine
 10
-274.1206443889716
 20
563.67527894716
 30
0.0
 11
-265.1209495647529
 21
563.67527894716
 31
0.0
  0
LINE
  5
30D
330
1F
100
AcDbEntity
  8
C-A
  6
Continuous
 62
     3
370
     9
100
AcDbLine
 10
-274.1206443889716
 20
560.1397259686445
 30
0.0
 11
-265.1209495647529
 21
560.1397259686445
 31
0.0
  0
LINE
  5
30E
330
1F
100
AcDbEntity
  8
C-A
  6
Continuous
 62
     3
370
     9
100
AcDbLine
 10
-289.1206443889716
 20
567.2108014080976
 30
0.0
 11
-280.1209495647529
 21
567.2108014080976
 31
0.0
  0
LINE
  5
30F
330
1F
100
AcDbEntity
  8
C-A
  6
Continuous
 62
     3
370
     9
100
AcDbLine
 10
-289.1206443889716
 20
563.67527894716
 30
0.0
 11
-280.1209495647529
 21
563.67527894716
 31
0.0
  0
LINE
  5
310
330
1F
100
AcDbEntity
  8
C-A
  6
Continuous
 62
     3
370
     9
100
AcDbLine
 10
-289.1206443889716
 20
560.1397259686445
 30
0.0
 11
-280.1209495647529
 21
560.1397259686445
 31
0.0
  0
LINE
  5
311
330
1F
100
AcDbEntity
  8
C-A
  6
Continuous
 62
     3
370
     9
100
AcDbLine
 10
-304.1206443889716
 20
567.2108014080976
 30
0.0
 11
-295.1209495647529
 21
567.2108014080976
 31
0.0
  0
LINE
  5
312
330
1F
100
AcDbEntity
  8
C-A
  6
Continuous
 62
     3
370
     9
100
AcDbLine
 10
-304.1206443889716
 20
563.67527894716
 30
0.0
 11
-295.1209495647529
 21
563.67527894716
 31
0.0
  0
LINE
  5
313
330
1F
100
AcDbEntity
  8
C-A
  6
Continuous
 62
     3
370
     9
100
AcDbLine
 10
-304.1206443889716
 20
560.1397259686445
 30
0.0
 11
-295.1209495647529
 21
560.1397259686445
 31
0.0
  0
LINE
  5
314
330
1F
100
AcDbEntity
  8
C-A
  6
Continuous
 62
     3
370
     9
100
AcDbLine
 10
-319.1206138713935
 20
567.2108014080976
 30
0.0
 11
-310.1209190471748
 21
567.2108014080976
 31
0.0
  0
LINE
  5
315
330
1F
100
AcDbEntity
  8
C-A
  6
Continuous
 62
     3
370
     9
100
AcDbLine
 10
-319.1206138713935
 20
563.67527894716
 30
0.0
 11
-310.1209190471748
 21
563.67527894716
 31
0.0
  0
LINE
  5
316
330
1F
100
AcDbEntity
  8
C-A
  6
Continuous
 62
     3
370
     9
100
AcDbLine
 10
-319.1206138713935
 20
560.1397259686445
 30
0.0
 11
-310.1209190471748
 21
560.1397259686445
 31
0.0
  0
LINE
  5
317
330
1F
100
AcDbEntity
  8
C-A
  6
Continuous
 62
     3
370
     9
100
AcDbLine
 10
-334.1206138713935
 20
567.2108014080976
 30
0.0
 11
-325.1209190471748
 21
567.2108014080976
 31
0.0
  0
LINE
  5
318
330
1F
100
AcDbEntity
  8
C-A
  6
Continuous
 62
     3
370
     9
100
AcDbLine
 10
-334.1206138713935
 20
563.67527894716
 30
0.0
 11
-325.1209190471748
 21
563.67527894716
 31
0.0
  0
LINE
  5
319
330
1F
100
AcDbEntity
  8
C-A
  6
Continuous
 62
     3
370
     9
100
AcDbLine
 10
-334.1206138713935
 20
560.1397259686445
 30
0.0
 11
-325.1209190471748
 21
560.1397259686445
 31
0.0
  0
LINE
  5
31A
330
1F
100
AcDbEntity
  8
C-A
  6
Continuous
 62
     3
370
     9
100
AcDbLine
 10
-349.1206138713935
 20
567.2108014080976
 30
0.0
 11
-340.1209190471748
 21
567.2108014080976
 31
0.0
  0
LINE
  5
31B
330
1F
100
AcDbEntity
  8
C-A
  6
Continuous
 62
     3
370
     9
100
AcDbLine
 10
-349.1206138713935
 20
563.67527894716
 30
0.0
 11
-340.1209190471748
 21
563.67527894716
 31
0.0
  0
LINE
  5
31C
330
1F
100
AcDbEntity
  8
C-A
  6
Continuous
 62
     3
370
     9
100
AcDbLine
 10
-349.1206138713935
 20
560.1397259686445
 30
0.0
 11
-340.1209190471748
 21
560.1397259686445
 31
0.0
  0
LINE
  5
31D
330
1F
100
AcDbEntity
  8
C-A
  6
Continuous
 62
     3
370
     9
100
AcDbLine
 10
-364.1206138713935
 20
567.2108014080976
 30
0.0
 11
-355.1209190471748
 21
567.2108014080976
 31
0.0
  0
LINE
  5
31E
330
1F
100
AcDbEntity
  8
C-A
  6
Continuous
 62
     3
370
     9
100
AcDbLine
 10
-364.1206138713935
 20
563.67527894716
 30
0.0
 11
-355.1209190471748
 21
563.67527894716
 31
0.0
  0
LINE
  5
31F
330
1F
100
AcDbEntity
  8
C-A
  6
Continuous
 62
     3
370
     9
100
AcDbLine
 10
-364.1206138713935
 20
560.1397259686445
 30
0.0
 11
-355.1209190471748
 21
560.1397259686445
 31
0.0
  0
LINE
  5
320
330
1F
100
AcDbEntity
  8
C-A
  6
Continuous
 62
     3
370
     9
100
AcDbLine
 10
-379.1206138713935
 20
567.2108014080976
 30
0.0
 11
-370.1209190471748
 21
567.2108014080976
 31
0.0
  0
LINE
  5
321
330
1F
100
AcDbEntity
  8
C-A
  6
Continuous
 62
     3
370
     9
100
AcDbLine
 10
-379.1206138713935
 20
563.67527894716
 30
0.0
 11
-370.1209190471748
 21
563.67527894716
 31
0.0
  0
LINE
  5
322
330
1F
100
AcDbEntity
  8
C-A
  6
Continuous
 62
     3
370
     9
100
AcDbLine
 10
-379.1206138713935
 20
560.1397259686445
 30
0.0
 11
-370.1209190471748
 21
560.1397259686445
 31
0.0
  0
LINE
  5
323
330
1F
100
AcDbEntity
  8
C-A
  6
Continuous
 62
     3
370
     9
100
AcDbLine
 10
-394.1206138713935
 20
567.2108014080976
 30
0.0
 11
-385.1209190471748
 21
567.2108014080976
 31
0.0
  0
LINE
  5
324
330
1F
100
AcDbEntity
  8
C-A
  6
Continuous
 62
     3
370
     9
100
AcDbLine
 10
-394.1206138713935
 20
563.67527894716
 30
0.0
 11
-385.1209190471748
 21
563.67527894716
 31
0.0
  0
LINE
  5
325
330
1F
100
AcDbEntity
  8
C-A
  6
Continuous
 62
     3
370
     9
100
AcDbLine
 10
-394.1206138713935
 20
560.1397259686445
 30
0.0
 11
-385.1209190471748
 21
560.1397259686445
 31
0.0
  0
LINE
  5
326
330
1F
100
AcDbEntity
  8
C-A
  6
Continuous
 62
     3
370
     9
100
AcDbLine
 10
-409.1206138713935
 20
567.2108014080976
 30
0.0
 11
-400.1209190471748
 21
567.2108014080976
 31
0.0
  0
LINE
  5
327
330
1F
100
AcDbEntity
  8
C-A
  6
Continuous
 62
     3
370
     9
100
AcDbLine
 10
-409.1206138713935
 20
563.67527894716
 30
0.0
 11
-400.1209190471748
 21
563.67527894716
 31
0.0
  0
LINE
  5
328
330
1F
100
AcDbEntity
  8
C-A
  6
Continuous
 62
     3
370
     9
100
AcDbLine
 10
-409.1206138713935
 20
560.1397259686445
 30
0.0
 11
-400.1209190471748
 21
560.1397259686445
 31
0.0
  0
LINE
  5
329
330
1F
100
AcDbEntity
  8
C-A
  6
Continuous
 62
     3
370
     9
100
AcDbLine
 10
-424.1206138713935
 20
567.2108014080976
 30
0.0
 11
-415.1209190471748
 21
567.2108014080976
 31
0.0
  0
LINE
  5
32A
330
1F
100
AcDbEntity
  8
C-A
  6
Continuous
 62
     3
370
     9
100
AcDbLine
 10
-424.1206138713935
 20
563.67527894716
 30
0.0
 11
-415.1209190471748
 21
563.67527894716
 31
0.0
  0
LINE
  5
32B
330
1F
100
AcDbEntity
  8
C-A
  6
Continuous
 62
     3
370
     9
100
AcDbLine
 10
-424.1206138713935
 20
560.1397259686445
 30
0.0
 11
-415.1209190471748
 21
560.1397259686445
 31
0.0
  0
LINE
  5
32C
330
1F
100
AcDbEntity
  8
C-A
  6
Continuous
 62
     3
370
     9
100
AcDbLine
 10
-439.1206138713935
 20
567.2108014080976
 30
0.0
 11
-430.1209190471748
 21
567.2108014080976
 31
0.0
  0
LINE
  5
32D
330
1F
100
AcDbEntity
  8
C-A
  6
Continuous
 62
     3
370
     9
100
AcDbLine
 10
-439.1206138713935
 20
563.67527894716
 30
0.0
 11
-430.1209190471748
 21
563.67527894716
 31
0.0
  0
LINE
  5
32E
330
1F
100
AcDbEntity
  8
C-A
  6
Continuous
 62
     3
370
     9
100
AcDbLine
 10
-439.1206138713935
 20
560.1397259686445
 30
0.0
 11
-430.1209190471748
 21
560.1397259686445
 31
0.0
  0
LINE
  5
32F
330
1F
100
AcDbEntity
  8
C-A
  6
Continuous
 62
     3
370
     9
100
AcDbLine
 10
-454.1206138713935
 20
567.2108014080976
 30
0.0
 11
-445.1209190471748
 21
567.2108014080976
 31
0.0
  0
LINE
  5
330
330
1F
100
AcDbEntity
  8
C-A
  6
Continuous
 62
     3
370
     9
100
AcDbLine
 10
-454.1206138713935
 20
563.67527894716
 30
0.0
 11
-445.1209190471748
 21
563.67527894716
 31
0.0
  0
LINE
  5
331
330
1F
100
AcDbEntity
  8
C-A
  6
Continuous
 62
     3
370
     9
100
AcDbLine
 10
-454.1206138713935
 20
560.1397259686445
 30
0.0
 11
-445.1209190471748
 21
560.1397259686445
 31
0.0
  0
LINE
  5
332
330
1F
100
AcDbEntity
  8
C-A
  6
Continuous
 62
     3
370
     9
100
AcDbLine
 10
-469.1206138713935
 20
567.2108014080976
 30
0.0
 11
-460.1209190471748
 21
567.2108014080976
 31
0.0
  0
LINE
  5
333
330
1F
100
AcDbEntity
  8
C-A
  6
Continuous
 62
     3
370
     9
100
AcDbLine
 10
-469.1206138713935
 20
563.67527894716
 30
0.0
 11
-460.1209190471748
 21
563.67527894716
 31
0.0
  0
LINE
  5
334
330
1F
100
AcDbEntity
  8
C-A
  6
Continuous
 62
     3
370
     9
100
AcDbLine
 10
-469.1206138713935
 20
560.1397259686445
 30
0.0
 11
-460.1209190471748
 21
560.1397259686445
 31
0.0
  0
LINE
  5
335
330
1F
100
AcDbEntity
  8
C-A
  6
Continuous
 62
     3
370
     9
100
AcDbLine
 10
-484.1206138713935
 20
567.2108014080976
 30
0.0
 11
-475.1209190471748
 21
567.2108014080976
 31
0.0
  0
LINE
  5
336
330
1F
100
AcDbEntity
  8
C-A
  6
Continuous
 62
     3
370
     9
100
AcDbLine
 10
-484.1206138713935
 20
563.67527894716
 30
0.0
 11
-475.1209190471748
 21
563.67527894716
 31
0.0
  0
LINE
  5
337
330
1F
100
AcDbEntity
  8
C-A
  6
Continuous
 62
     3
370
     9
100
AcDbLine
 10
-484.1206138713935
 20
560.1397259686445
 30
0.0
 11
-475.1209190471748
 21
560.1397259686445
 31
0.0
  0
LINE
  5
338
330
1F
100
AcDbEntity
  8
C-A
  6
Continuous
 62
     3
370
     9
100
AcDbLine
 10
-499.120606241999
 20
567.2108014080976
 30
0.0
 11
-490.1209114177802
 21
567.2108014080976
 31
0.0
  0
LINE
  5
339
330
1F
100
AcDbEntity
  8
C-A
  6
Continuous
 62
     3
370
     9
100
AcDbLine
 10
-499.120606241999
 20
563.67527894716
 30
0.0
 11
-490.1209114177802
 21
563.67527894716
 31
0.0
  0
LINE
  5
33A
330
1F
100
AcDbEntity
  8
C-A
  6
Continuous
 62
     3
370
     9
100
AcDbLine
 10
-499.120606241999
 20
560.1397259686445
 30
0.0
 11
-490.1209114177802
 21
560.1397259686445
 31
0.0
  0
LINE
  5
33B
330
1F
100
AcDbEntity
  8
C-A
  6
Continuous
 62
     3
370
     9
100
AcDbLine
 10
-514.120606241999
 20
567.2108014080976
 30
0.0
 11
-505.1209114177802
 21
567.2108014080976
 31
0.0
  0
LINE
  5
33C
330
1F
100
AcDbEntity
  8
C-A
  6
Continuous
 62
     3
370
     9
100
AcDbLine
 10
-514.120606241999
 20
563.67527894716
 30
0.0
 11
-505.1209114177802
 21
563.67527894716
 31
0.0
  0
LINE
  5
33D
330
1F
100
AcDbEntity
  8
C-A
  6
Continuous
 62
     3
370
     9
100
AcDbLine
 10
-514.120606241999
 20
560.1397259686445
 30
0.0
 11
-505.1209114177802
 21
560.1397259686445
 31
0.0
  0
LINE
  5
33E
330
1F
100
AcDbEntity
  8
C-A
  6
Continuous
 62
     3
370
     9
100
AcDbLine
 10
-529.120606241999
 20
567.2108014080976
 30
0.0
 11
-520.1209114177802
 21
567.2108014080976
 31
0.0
  0
LINE
  5
33F
330
1F
100
AcDbEntity
  8
C-A
  6
Continuous
 62
     3
370
     9
100
AcDbLine
 10
-529.120606241999
 20
563.67527894716
 30
0.0
 11
-520.1209114177802
 21
563.67527894716
 31
0.0
  0
LINE
  5
340
330
1F
100
AcDbEntity
  8
C-A
  6
Continuous
 62
     3
370
     9
100
AcDbLine
 10
-529.120606241999
 20
560.1397259686445
 30
0.0
 11
-520.1209114177802
 21
560.1397259686445
 31
0.0
  0
LINE
  5
341
330
1F
100
AcDbEntity
  8
C-A
  6
Continuous
 62
     3
370
     9
100
AcDbLine
 10
-544.120606241999
 20
567.2108014080976
 30
0.0
 11
-535.1209114177802
 21
567.2108014080976
 31
0.0
  0
LINE
  5
342
330
1F
100
AcDbEntity
  8
C-A
  6
Continuous
 62
     3
370
     9
100
AcDbLine
 10
-544.120606241999
 20
563.67527894716
 30
0.0
 11
-535.1209114177802
 21
563.67527894716
 31
0.0
  0
LINE
  5
343
330
1F
100
AcDbEntity
  8
C-A
  6
Continuous
 62
     3
370
     9
100
AcDbLine
 10
-544.120606241999
 20
560.1397259686445
 30
0.0
 11
-535.1209114177802
 21
560.1397259686445
 31
0.0
  0
LINE
  5
344
330
1F
100
AcDbEntity
  8
C-A
  6
Continuous
 62
     3
370
     9
100
AcDbLine
 10
-559.120606241999
 20
567.2108014080976
 30
0.0
 11
-550.1209114177802
 21
567.2108014080976
 31
0.0
  0
LINE
  5
345
330
1F
100
AcDbEntity
  8
C-A
  6
Continuous
 62
     3
370
     9
100
AcDbLine
 10
-559.120606241999
 20
563.67527894716
 30
0.0
 11
-550.1209114177802
 21
563.67527894716
 31
0.0
  0
LINE
  5
346
330
1F
100
AcDbEntity
  8
C-A
  6
Continuous
 62
     3
370
     9
100
AcDbLine
 10
-559.120606241999
 20
560.1397259686445
 30
0.0
 11
-550.1209114177802
 21
560.1397259686445
 31
0.0
  0
LINE
  5
347
330
1F
100
AcDbEntity
  8
C-A
  6
Continuous
 62
     3
370
     9
100
AcDbLine
 10
-244.1207054241278
 20
567.2108014080976
 30
0.0
 11
-235.1210105999091
 21
567.2108014080976
 31
0.0
  0
LINE
  5
348
330
1F
100
AcDbEntity
  8
C-A
  6
Continuous
 62
     3
370
     9
100
AcDbLine
 10
-244.1207054241278
 20
563.67527894716
 30
0.0
 11
-235.1210105999091
 21
563.67527894716
 31
0.0
  0
LINE
  5
349
330
1F
100
AcDbEntity
  8
C-A
  6
Continuous
 62
     3
370
     9
100
AcDbLine
 10
-244.1207054241278
 20
560.1397259686445
 30
0.0
 11
-235.1210105999091
 21
560.1397259686445
 31
0.0
  0
LINE
  5
34A
330
1F
100
AcDbEntity
  8
C-A
  6
Continuous
 62
     3
370
     9
100
AcDbLine
 10
-565.1212318523505
 20
560.1397259686445
 30
0.0
 11
-573.1210678203681
 21
560.1397259686445
 31
0.0
  0
LINE
  5
34B
330
1F
100
AcDbEntity
  8
C-A
  6
Continuous
 62
     3
370
     9
100
AcDbLine
 10
-565.1212318523505
 20
563.67527894716
 30
0.0
 11
-573.1210678203681
 21
563.67527894716
 31
0.0
  0
LINE
  5
34C
330
1F
100
AcDbEntity
  8
C-A
  6
Continuous
 62
     3
370
     9
100
AcDbLine
 10
-565.1212318523505
 20
567.2108014080976
 30
0.0
 11
-573.1210678203681
 21
567.2108014080976
 31
0.0
  0
LINE
  5
34D
330
1F
100
AcDbEntity
  8
C-A
  6
Continuous
 62
     3
370
     9
100
AcDbLine
 10
-229.1207054241278
 20
567.2108014080976
 30
0.0
 11
-225.5849388225653
 21
567.2108014080976
 31
0.0
  0
LINE
  5
34E
330
1F
100
AcDbEntity
  8
C-A
  6
Continuous
 62
     3
370
     9
100
AcDbLine
 10
-139.1211326702216
 20
660.1397259686445
 30
0.0
 11
-132.6558006389716
 21
660.1397259686445
 31
0.0
  0
ARC
  5
34F
330
1F
100
AcDbEntity
  8
C-2
  6
Continuous
 62
     3
370
     9
100
AcDbCircle
 10
313.371176900091
 20
1127.604203507707
 30
0.0
 40
37.50014114379883
100
AcDbArc
 50
53.13009643554687
 51
126.8699035644531
  0
ARC
  5
350
330
1F
100
AcDbEntity
  8
C-2
  6
Continuous
 62
     3
370
     9
100
AcDbCircle
 10
358.371665181341
 20
1187.604508683488
 30
0.0
 40
37.50014114379883
100
AcDbArc
 50
233.1300964355469
 51
306.8699035644532
  0
ARC
  5
351
330
1F
100
AcDbEntity
  8
C-2
  6
Continuous
 62
     3
370
     9
100
AcDbCircle
 10
313.371176900091
 20
788.248215958879
 30
0.0
 40
37.50014114379883
100
AcDbArc
 50
53.13009643554687
 51
126.8699035644531
  0
ARC
  5
352
330
1F
100
AcDbEntity
  8
C-2
  6
Continuous
 62
     3
370
     9
100
AcDbCircle
 10
358.371665181341
 20
848.2484906170819
 30
0.0
 40
37.50014114379883
100
AcDbArc
 50
233.1300964355469
 51
306.8699035644532
  0
ARC
  5
353
330
1F
100
AcDbEntity
  8
C-2
  6
Continuous
 62
     3
370
     9
100
AcDbCircle
 10
220.0243751422784
 20
468.283402726457
 30
0.0
 40
5.0
100
AcDbArc
 50
359.9943237304688
 51
90.0
  0
ARC
  5
354
330
1F
100
AcDbEntity
  8
C-2
  6
Continuous
 62
     3
370
     9
100
AcDbCircle
 10
240.0244361774347
 20
468.283402726457
 30
0.0
 40
5.0
100
AcDbArc
 50
90.0
 51
180.0
  0
ARC
  5
355
330
1F
100
AcDbEntity
  8
C-2
  6
Continuous
 62
     3
370
     9
100
AcDbCircle
 10
295.024497212591
 20
468.283402726457
 30
0.0
 40
5.0
100
AcDbArc
 50
359.9943237304688
 51
90.0
  0
ARC
  5
356
330
1F
100
AcDbEntity
  8
C-2
  6
Continuous
 62
     3
370
     9
100
AcDbCircle
 10
315.0250465289972
 20
468.283402726457
 30
0.0
 40
5.0
100
AcDbArc
 50
90.0
 51
180.0
  0
ARC
  5
357
330
1F
100
AcDbEntity
  8
C-2
  6
Continuous
 62
     3
370
     9
100
AcDbCircle
 10
370.0245582477471
 20
468.283402726457
 30
0.0
 40
5.0
100
AcDbArc
 50
359.9943237304688
 51
90.0
  0
ARC
  5
358
330
1F
100
AcDbEntity
  8
C-2
  6
Continuous
 62
     3
370
     9
100
AcDbCircle
 10
390.0251685993096
 20
468.283402726457
 30
0.0
 40
5.0
100
AcDbArc
 50
90.0
 51
180.0
  0
LWPOLYLINE
  5
359
330
1F
100
AcDbEntity
  8
C-4
  6
Continuous
 62
     7
370
     9
100
AcDbPolyline
 90
        4
 70
     1
 43
1.0
 10
234.6581031696222
 20
867.7447064373945
 42
0.4142135623731
 10
234.1581031696222
 20
868.2447064373945
 42
0.4142135623731
 10
233.6581031696222
 20
867.7447064373945
 42
0.4142135623731
 10
234.1581031696222
 20
867.2447064373945
 42
0.4142135623731
  0
LWPOLYLINE
  5
35A
330
1F
100
AcDbEntity
  8
C-4
  6
Continuous
 62
     7
370
     9
100
AcDbPolyline
 90
        4
 70
     1
 43
1.0
 10
234.6581031696222
 20
907.7448895428633
 42
0.4142135623731
 10
234.1581031696222
 20
908.2448895428633
 42
0.4142135623731
 10
233.6581031696222
 20
907.7448895428633
 42
0.4142135623731
 10
234.1581031696222
 20
907.2448895428635
 42
0.4142135623731
  0
LWPOLYLINE
  5
35B
330
1F
100
AcDbEntity
  8
C-4
  6
Continuous
 62
     7
370
     9
100
AcDbPolyline
 90
        4
 70
     1
 43
1.0
 10
234.6581031696222
 20
987.7452557538006
 42
0.4142135623731
 10
234.1581031696222
 20
988.2452557538006
 42
0.4142135623731
 10
233.6581031696222
 20
987.7452557538006
 42
0.4142135623731
 10
234.1581031696222
 20
987.2452557538007
 42
0.4142135623731
  0
LWPOLYLINE
  5
35C
330
1F
100
AcDbEntity
  8
C-4
  6
Continuous
 62
     7
370
     9
100
AcDbPolyline
 90
        4
 70
     1
 43
1.0
 10
234.6581031696222
 20
997.7448285077071
 42
0.4142135623731
 10
234.1581031696222
 20
998.2448285077071
 42
0.4142135623731
 10
233.6581031696222
 20
997.7448285077071
 42
0.4142135623731
 10
234.1581031696222
 20
997.2448285077071
 42
0.4142135623731
  0
LWPOLYLINE
  5
35D
330
1F
100
AcDbEntity
  8
C-4
  6
Continuous
 62
     7
370
     9
100
AcDbPolyline
 90
        4
 70
     1
 43
1.0
 10
234.6581031696222
 20
1077.744706437395
 42
0.4142135623731
 10
234.1581031696222
 20
1078.244706437395
 42
0.4142135623731
 10
233.6581031696222
 20
1077.744706437395
 42
0.4142135623731
 10
234.1581031696222
 20
1077.244706437395
 42
0.4142135623731
  0
LWPOLYLINE
  5
35E
330
1F
100
AcDbEntity
  8
C-4
  6
Continuous
 62
     7
370
     9
100
AcDbPolyline
 90
        4
 70
     1
 43
1.0
 10
234.6581031696222
 20
1117.744889542863
 42
0.4142135623731
 10
234.1581031696222
 20
1118.244889542863
 42
0.4142135623731
 10
233.6581031696222
 20
1117.744889542863
 42
0.4142135623731
 10
234.1581031696222
 20
1117.244889542863
 42
0.4142135623731
  0
LWPOLYLINE
  5
35F
330
1F
100
AcDbEntity
  8
C-4
  6
Continuous
 62
     7
370
     9
100
AcDbPolyline
 90
        4
 70
     1
 43
1.0
 10
448.8229591266534
 20
941.2886517498944
 42
0.4142135623731
 10
448.3229591266535
 20
941.7886517498944
 42
0.4142135623731
 10
447.8229591266535
 20
941.2886517498944
 42
0.4142135623731
 10
448.3229591266535
 20
940.7886517498945
 42
0.4142135623731
  0
LWPOLYLINE
  5
360
330
1F
100
AcDbEntity
  8
C-4
  6
Continuous
 62
     7
370
     9
100
AcDbPolyline
 90
        4
 70
     1
 43
1.0
 10
450.2598487750909
 20
946.0778363202073
 42
0.4142135623731
 10
449.7598487750909
 20
946.5778363202072
 42
0.4142135623731
 10
449.259848775091
 20
946.0778363202073
 42
0.4142135623731
 10
449.7598487750909
 20
945.5778363202073
 42
0.4142135623731
  0
LWPOLYLINE
  5
361
330
1F
100
AcDbEntity
  8
C-4
  6
Continuous
 62
     7
370
     9
100
AcDbPolyline
 90
        4
 70
     1
 43
1.0
 10
306.3717872516535
 20
1210.362138078019
 42
0.4142135623731
 10
305.8717872516535
 20
1210.862138078019
 42
0.4142135623731
 10
305.3717872516534
 20
1210.362138078019
 42
0.4142135623731
 10
305.8717872516535
 20
1209.862138078019
 42
0.4142135623731
  0
LWPOLYLINE
  5
362
330
1F
100
AcDbEntity
  8
C-4
  6
Continuous
 62
     7
370
     9
100
AcDbPolyline
 90
        4
 70
     1
 43
1.0
 10
366.3710548297785
 20
1210.362138078019
 42
0.4142135623731
 10
365.8710548297785
 20
1210.862138078019
 42
0.4142135623731
 10
365.3710548297785
 20
1210.362138078019
 42
0.4142135623731
 10
365.8710548297785
 20
1209.862138078019
 42
0.4142135623731
  0
LWPOLYLINE
  5
363
330
1F
100
AcDbEntity
  8
C-4
  6
Continuous
 62
     7
370
     9
100
AcDbPolyline
 90
        4
 70
     1
 43
1.0
 10
510.8170997516534
 20
408.2826245282149
 42
0.4142135623731
 10
510.3170997516534
 20
408.7826245282149
 42
0.4142135623731
 10
509.8170997516535
 20
408.2826245282149
 42
0.4142135623731
 10
510.3170997516534
 20
407.7826245282149
 42
0.4142135623731
  0
LWPOLYLINE
  5
364
330
1F
100
AcDbEntity
  8
C-4
  6
Continuous
 62
     7
370
     9
100
AcDbPolyline
 90
        4
 70
     1
 43
1.0
 10
510.8170997516534
 20
483.2827313397382
 42
0.4142135623731
 10
510.3170997516534
 20
483.7827313397382
 42
0.4142135623731
 10
509.8170997516535
 20
483.2827313397382
 42
0.4142135623731
 10
510.3170997516534
 20
482.7827313397382
 42
0.4142135623731
  0
LWPOLYLINE
  5
365
330
1F
100
AcDbEntity
  8
C-4
  6
Continuous
 62
     7
370
     9
100
AcDbPolyline
 90
        4
 70
     1
 43
1.0
 10
215.5241310016534
 20
546.1676190350508
 42
0.4142135623731
 10
215.0241310016534
 20
546.6676190350507
 42
0.4142135623731
 10
214.5241310016534
 20
546.1676190350508
 42
0.4142135623731
 10
215.0241310016534
 20
545.6676190350508
 42
0.4142135623731
  0
LWPOLYLINE
  5
366
330
1F
100
AcDbEntity
  8
C-4
  6
Continuous
 62
     7
370
     9
100
AcDbPolyline
 90
        4
 70
     1
 43
1.0
 10
245.5237647907159
 20
546.1676190350508
 42
0.4142135623731
 10
245.0237647907159
 20
546.6676190350507
 42
0.4142135623731
 10
244.5237647907159
 20
546.1676190350508
 42
0.4142135623731
 10
245.0237647907159
 20
545.6676190350508
 42
0.4142135623731
  0
LWPOLYLINE
  5
367
330
1F
100
AcDbEntity
  8
C-4
  6
Continuous
 62
     7
370
     9
100
AcDbPolyline
 90
        4
 70
     1
 43
1.0
 10
290.5241920368097
 20
546.1676190350508
 42
0.4142135623731
 10
290.0241920368097
 20
546.6676190350507
 42
0.4142135623731
 10
289.5241920368097
 20
546.1676190350508
 42
0.4142135623731
 10
290.0241920368097
 20
545.6676190350508
 42
0.4142135623731
  0
LWPOLYLINE
  5
368
330
1F
100
AcDbEntity
  8
C-4
  6
Continuous
 62
     7
370
     9
100
AcDbPolyline
 90
        4
 70
     1
 43
1.0
 10
320.5238258258721
 20
546.1676190350508
 42
0.4142135623731
 10
320.0238258258722
 20
546.6676190350507
 42
0.4142135623731
 10
319.5238258258722
 20
546.1676190350508
 42
0.4142135623731
 10
320.0238258258722
 20
545.6676190350508
 42
0.4142135623731
  0
LWPOLYLINE
  5
369
330
1F
100
AcDbEntity
  8
C-4
  6
Continuous
 62
     7
370
     9
100
AcDbPolyline
 90
        4
 70
     1
 43
1.0
 10
365.5243141071222
 20
546.1676190350508
 42
0.4142135623731
 10
365.0243141071222
 20
546.6676190350507
 42
0.4142135623731
 10
364.5243141071222
 20
546.1676190350508
 42
0.4142135623731
 10
365.0243141071222
 20
545.6676190350508
 42
0.4142135623731
  0
LWPOLYLINE
  5
36A
330
1F
100
AcDbEntity
  8
C-4
  6
Continuous
 62
     7
370
     9
100
AcDbPolyline
 90
        4
 70
     1
 43
1.0
 10
395.5239478961846
 20
546.1676190350508
 42
0.4142135623731
 10
395.0239478961846
 20
546.6676190350507
 42
0.4142135623731
 10
394.5239478961847
 20
546.1676190350508
 42
0.4142135623731
 10
395.0239478961846
 20
545.6676190350508
 42
0.4142135623731
  0
LWPOLYLINE
  5
36B
330
1F
100
AcDbEntity
  8
C-4
  6
Continuous
 62
     7
370
     9
100
AcDbPolyline
 90
        4
 70
     1
 43
1.0
 10
215.5241310016534
 20
609.2848980877852
 42
0.4142135623731
 10
215.0241310016534
 20
609.7848980877852
 42
0.4142135623731
 10
214.5241310016534
 20
609.2848980877852
 42
0.4142135623731
 10
215.0241310016534
 20
608.7848980877852
 42
0.4142135623731
  0
LWPOLYLINE
  5
36C
330
1F
100
AcDbEntity
  8
C-4
  6
Continuous
 62
     7
370
     9
100
AcDbPolyline
 90
        4
 70
     1
 43
1.0
 10
290.5241920368097
 20
609.2848980877852
 42
0.4142135623731
 10
290.0241920368097
 20
609.7848980877852
 42
0.4142135623731
 10
289.5241920368097
 20
609.2848980877852
 42
0.4142135623731
 10
290.0241920368097
 20
608.7848980877852
 42
0.4142135623731
  0
LWPOLYLINE
  5
36D
330
1F
100
AcDbEntity
  8
C-4
  6
Continuous
 62
     7
370
     9
100
AcDbPolyline
 90
        4
 70
     1
 43
1.0
 10
365.5243141071222
 20
609.2848980877852
 42
0.4142135623731
 10
365.0243141071222
 20
609.7848980877852
 42
0.4142135623731
 10
364.5243141071222
 20
609.2848980877852
 42
0.4142135623731
 10
365.0243141071222
 20
608.7848980877852
 42
0.4142135623731
  0
TEXT
  5
36E
330
1F
100
AcDbEntity
  8
C-5
  6
Continuous
 62
     2
370
     9
100
AcDbText
 10
-152.8808067424873
 20
566.3856829998946
 30
0.0
 40
30.48
  1
Ａ
 41
0.9999999999999998
  7
ＭＳ ゴシック
100
AcDbText
  0
TEXT
  5
36F
330
1F
100
AcDbEntity
  8
C-5
  6
Continuous
 62
     2
370
     9
100
AcDbText
 10
-596.6216495617011
 20
308.8153619168256
 30
0.0
 40
30.48
  1
平面詳細図　Ｓ＝１：１０
 41
1.114583333333333
  7
ＭＳ ゴシック
100
AcDbText
  0
TEXT
  5
370
330
1F
100
AcDbEntity
  8
C-5
  6
Continuous
 62
     2
370
     9
100
AcDbText
 10
124.3047706500909
 20
312.2856253979658
 30
0.0
 40
30.48
  1
Ａ断面図　Ｓ＝１：２
 41
1.1125
  7
ＭＳ ゴシック
100
AcDbText
  0
TEXT
  5
371
330
1F
100
AcDbEntity
  8
C-5
  6
Continuous
 62
     7
370
     9
100
AcDbText
 10
-25.00028306084658
 20
700.7947137616134
 30
0.0
 40
22.86
  1
※デルタパターンの配列は一定ではありません。
 41
1.159090909090909
  7
ＭＳ ゴシック
100
AcDbText
  0
TEXT
  5
372
330
1F
100
AcDbEntity
  8
C-5
  6
Continuous
 62
     7
370
     9
100
AcDbText
 10
113.5654518024346
 20
759.4760492108321
 30
0.0
 40
22.86
  1
メインバー表面　Ｓ＝１：１
 41
1.153846153846154
  7
ＭＳ ゴシック
100
AcDbText
  0
TEXT
  5
373
330
1F
100
AcDbEntity
  8
C-5
  6
Continuous
 62
     7
370
     9
100
AcDbText
 10
399.8106910602472
 20
1106.90024354677
 30
0.0
 40
22.86
  1
デルタパターン
 41
1.142857142857143
  7
ＭＳ ゴシック
100
AcDbText
  0
TEXT
  5
374
330
1F
100
AcDbEntity
  8
C-4
  6
Continuous
 62
     2
370
     9
100
AcDbText
 10
223.5183473102472
 20
877.7447672260187
 30
0.0
 40
30.48
  1
4
 50
90.00000250447768
 41
1.000000000000001
  7
ＭＳ ゴシック
100
AcDbText
  0
TEXT
  5
375
330
1F
100
AcDbEntity
  8
C-4
  6
Continuous
 62
     2
370
     9
100
AcDbText
 10
223.5183473102472
 20
937.7450113666439
 30
0.0
 40
30.48
  1
8
 50
90.00000250447768
 41
1.000000000000001
  7
ＭＳ ゴシック
100
AcDbText
  0
TEXT
  5
376
330
1F
100
AcDbEntity
  8
C-4
  6
Continuous
 62
     2
370
     9
100
AcDbText
 10
223.5183473102472
 20
982.7450113666439
 30
0.0
 40
30.48
  1
1
 50
90.00000250447768
 41
1.000000000000001
  7
ＭＳ ゴシック
100
AcDbText
  0
TEXT
  5
377
330
1F
100
AcDbEntity
  8
C-4
  6
Continuous
 62
     2
370
     9
100
AcDbText
 10
223.5183473102472
 20
1027.744706190863
 30
0.0
 40
30.48
  1
8
 50
90.00000250447768
 41
1.000000000000001
  7
ＭＳ ゴシック
100
AcDbText
  0
TEXT
  5
378
330
1F
100
AcDbEntity
  8
C-4
  6
Continuous
 62
     2
370
     9
100
AcDbText
 10
223.5183473102472
 20
1087.744767226019
 30
0.0
 40
30.48
  1
4
 50
90.00000250447768
 41
1.000000000000001
  7
ＭＳ ゴシック
100
AcDbText
  0
TEXT
  5
379
330
1F
100
AcDbEntity
  8
C-4
  6
Continuous
 62
     2
370
     9
100
AcDbText
 10
442.2852020133759
 20
958.7484159944321
 30
0.0
 40
30.48
  1
0.5
 50
73.30064077628148
 41
1.083333333333334
  7
ＭＳ ゴシック
100
AcDbText
  0
TEXT
  5
37A
330
1F
100
AcDbEntity
  8
C-4
  6
Continuous
 62
     2
370
     9
100
AcDbText
 10
325.8713600055597
 20
1221.002138078019
 30
0.0
 40
30.48
  1
6
 41
0.9999999999999998
  7
ＭＳ ゴシック
100
AcDbText
  0
TEXT
  5
37B
330
1F
100
AcDbEntity
  8
C-4
  6
Continuous
 62
     2
370
     9
100
AcDbText
 10
220.0238868610285
 20
556.8074054120038
 30
0.0
 40
30.48
  1
6
 41
0.9999999999999998
  7
ＭＳ ゴシック
100
AcDbText
  0
TEXT
  5
37C
330
1F
100
AcDbEntity
  8
C-4
  6
Continuous
 62
     2
370
     9
100
AcDbText
 10
257.5239478961846
 20
556.8074054120038
 30
0.0
 40
30.48
  1
9
 41
0.9999999999999998
  7
ＭＳ ゴシック
100
AcDbText
  0
TEXT
  5
37D
330
1F
100
AcDbEntity
  8
C-4
  6
Continuous
 62
     2
370
     9
100
AcDbText
 10
295.0239478961846
 20
556.8074054120038
 30
0.0
 40
30.48
  1
6
 41
0.9999999999999998
  7
ＭＳ ゴシック
100
AcDbText
  0
TEXT
  5
37E
330
1F
100
AcDbEntity
  8
C-4
  6
Continuous
 62
     2
370
     9
100
AcDbText
 10
332.524008931341
 20
556.8074054120038
 30
0.0
 40
30.48
  1
9
 41
0.9999999999999998
  7
ＭＳ ゴシック
100
AcDbText
  0
TEXT
  5
37F
330
1F
100
AcDbEntity
  8
C-4
  6
Continuous
 62
     2
370
     9
100
AcDbText
 10
370.0240699664971
 20
556.8074054120038
 30
0.0
 40
30.48
  1
6
 41
0.9999999999999998
  7
ＭＳ ゴシック
100
AcDbText
  0
TEXT
  5
380
330
1F
100
AcDbEntity
  8
C-4
  6
Continuous
 62
     2
370
     9
100
AcDbText
 10
231.2740089313409
 20
619.9246844647383
 30
0.0
 40
30.48
  1
15
 41
1.0625
  7
ＭＳ ゴシック
100
AcDbText
  0
TEXT
  5
381
330
1F
100
AcDbEntity
  8
C-4
  6
Continuous
 62
     2
370
     9
100
AcDbText
 10
306.2740699664971
 20
619.9246844647383
 30
0.0
 40
30.48
  1
15
 41
1.0625
  7
ＭＳ ゴシック
100
AcDbText
  0
TEXT
  5
382
330
1F
100
AcDbEntity
  8
C-4
  6
Continuous
 62
     2
370
     9
100
AcDbText
 10
499.6767335407159
 20
424.5325174701591
 30
0.0
 40
30.48
  1
15
 50
90.00000250447789
 41
1.062500000000001
  7
ＭＳ ゴシック
100
AcDbText
  0
LWPOLYLINE
  5
383
330
1F
100
AcDbEntity
  8
C-4
  6
Continuous
 62
     7
370
     9
100
AcDbPolyline
 90
        4
 70
     1
 43
1.0
 10
-579.6215484722236
 20
1098.674393937394
 42
0.4142135623731
 10
-580.1215484722236
 20
1099.174393937394
 42
0.4142135623731
 10
-580.6215484722236
 20
1098.674393937394
 42
0.4142135623731
 10
-580.1215484722236
 20
1098.174393937394
 42
0.4142135623731
  0
LINE
  5
384
330
1F
100
AcDbEntity
  8
C-4
  6
Continuous
 62
     7
370
     9
100
AcDbLine
 10
-580.1215484722236
 20
1098.674393937394
 30
0.0
 11
-579.1211975200752
 21
1098.674393937394
 31
0.0
  0
LWPOLYLINE
  5
385
330
1F
100
AcDbEntity
  8
C-4
  6
Continuous
 62
     7
370
     9
100
AcDbPolyline
 90
        4
 70
     1
 43
1.0
 10
-578.6211975200752
 20
1098.674393937394
 42
0.4142135623731
 10
-579.1211975200752
 20
1099.174393937394
 42
0.4142135623731
 10
-579.6211975200752
 20
1098.674393937394
 42
0.4142135623731
 10
-579.1211975200752
 20
1098.174393937394
 42
0.4142135623731
  0
LINE
  5
386
330
1F
100
AcDbEntity
  8
C-4
  6
Continuous
 62
     7
370
     9
100
AcDbLine
 10
-579.1211975200752
 20
1098.674393937394
 30
0.0
 11
-79.12131577569042
 21
1098.674393937394
 31
0.0
  0
LWPOLYLINE
  5
387
330
1F
100
AcDbEntity
  8
C-4
  6
Continuous
 62
     7
370
     9
100
AcDbPolyline
 90
        4
 70
     1
 43
1.0
 10
-78.62131577569042
 20
1098.674393937394
 42
0.4142135623731
 10
-79.12131577569042
 20
1099.174393937394
 42
0.4142135623731
 10
-79.62131577569042
 20
1098.674393937394
 42
0.4142135623731
 10
-79.12131577569042
 20
1098.174393937394
 42
0.4142135623731
  0
TEXT
  5
388
330
1F
100
AcDbEntity
  8
C-4
  6
Continuous
 62
     2
370
   211
100
AcDbText
 10
-361.6212566478828
 20
1110.314394175813
 30
0.0
 40
30.48
  1
500
 41
1.083333333333333
  7
ＭＳ ゴシック
100
AcDbText
  0
LINE
  5
389
330
1F
100
AcDbEntity
  8
C-4
  6
Continuous
 62
     7
370
     9
100
AcDbLine
 10
-79.12131577569042
 20
1098.674393937394
 30
0.0
 11
-78.12149888115911
 21
1098.674393937394
 31
0.0
  0
LWPOLYLINE
  5
38A
330
1F
100
AcDbEntity
  8
C-4
  6
Continuous
 62
     7
370
     9
100
AcDbPolyline
 90
        4
 70
     1
 43
1.0
 10
-77.62149888115911
 20
1098.674393937394
 42
0.4142135623731
 10
-78.12149888115911
 20
1099.174393937394
 42
0.4142135623731
 10
-78.62149888115911
 20
1098.674393937394
 42
0.4142135623731
 10
-78.12149888115911
 20
1098.174393937394
 42
0.4142135623731
  0
LINE
  5
38B
330
1F
100
AcDbEntity
  8
C-1
  6
JWW_DASHED3
 62
     2
370
     9
100
AcDbLine
 10
-554.1215313060859
 20
938.6751263592694
 30
0.0
 11
-554.1215313060859
 21
488.6750805829024
 31
0.0
  0
LINE
  5
38C
330
1F
100
AcDbEntity
  8
C-1
  6
JWW_DASHED3
 62
     2
370
     9
100
AcDbLine
 10
-554.1215313060859
 20
488.6750805829024
 30
0.0
 11
-104.1214988811591
 21
488.6750805829024
 31
0.0
  0
LINE
  5
38D
330
1F
100
AcDbEntity
  8
C-1
  6
JWW_DASHED3
 62
     2
370
     9
100
AcDbLine
 10
-104.1214988811591
 20
938.6751263592694
 30
0.0
 11
-554.1215313060859
 21
938.6751263592694
 31
0.0
  0
LINE
  5
38E
330
1F
100
AcDbEntity
  8
C-1
  6
JWW_DASHED3
 62
     2
370
     9
100
AcDbLine
 10
-104.1214988811591
 20
488.6750805829024
 30
0.0
 11
-104.1214988811591
 21
938.6751263592694
 31
0.0
  0
LINE
  5
38F
330
1F
100
AcDbEntity
  8
C-4
  6
Continuous
 62
     7
370
     9
100
AcDbLine
 10
-579.1211975200752
 20
1043.675126359269
 30
0.0
 11
-554.1215313060859
 21
1043.675126359269
 31
0.0
  0
LWPOLYLINE
  5
390
330
1F
100
AcDbEntity
  8
C-4
  6
Continuous
 62
     7
370
     9
100
AcDbPolyline
 90
        4
 70
     1
 43
1.0
 10
-578.6211975200752
 20
1043.675126359269
 42
0.4142135623731
 10
-579.1211975200752
 20
1044.175126359269
 42
0.4142135623731
 10
-579.6211975200752
 20
1043.675126359269
 42
0.4142135623731
 10
-579.1211975200752
 20
1043.175126359269
 42
0.4142135623731
  0
LWPOLYLINE
  5
391
330
1F
100
AcDbEntity
  8
C-4
  6
Continuous
 62
     7
370
     9
100
AcDbPolyline
 90
        4
 70
     1
 43
1.0
 10
-553.6215313060859
 20
1043.675126359269
 42
0.4142135623731
 10
-554.1215313060859
 20
1044.175126359269
 42
0.4142135623731
 10
-554.6215313060859
 20
1043.675126359269
 42
0.4142135623731
 10
-554.1215313060859
 20
1043.175126359269
 42
0.4142135623731
  0
LINE
  5
392
330
1F
100
AcDbEntity
  8
C-4
  6
Continuous
 62
     7
370
     9
100
AcDbLine
 10
-554.1215313060859
 20
1043.675126359269
 30
0.0
 11
-104.1214988811591
 21
1043.675126359269
 31
0.0
  0
LWPOLYLINE
  5
393
330
1F
100
AcDbEntity
  8
C-4
  6
Continuous
 62
     7
370
     9
100
AcDbPolyline
 90
        4
 70
     1
 43
1.0
 10
-103.6214988811591
 20
1043.675126359269
 42
0.4142135623731
 10
-104.1214988811591
 20
1044.175126359269
 42
0.4142135623731
 10
-104.6214988811591
 20
1043.675126359269
 42
0.4142135623731
 10
-104.1214988811591
 20
1043.175126359269
 42
0.4142135623731
  0
TEXT
  5
394
330
1F
100
AcDbEntity
  8
C-4
  6
Continuous
 62
     2
370
   211
100
AcDbText
 10
-361.6215150936225
 20
1055.315126597688
 30
0.0
 40
30.48
  1
450
 41
1.083333333333333
  7
ＭＳ ゴシック
100
AcDbText
  0
LINE
  5
395
330
1F
100
AcDbEntity
  8
C-4
  6
Continuous
 62
     7
370
     9
100
AcDbLine
 10
-104.1214988811591
 20
1043.675126359269
 30
0.0
 11
-79.12131577569042
 21
1043.675126359269
 31
0.0
  0
LWPOLYLINE
  5
396
330
1F
100
AcDbEntity
  8
C-4
  6
Continuous
 62
     7
370
     9
100
AcDbPolyline
 90
        4
 70
     1
 43
1.0
 10
-78.62131577569042
 20
1043.675126359269
 42
0.4142135623731
 10
-79.12131577569042
 20
1044.175126359269
 42
0.4142135623731
 10
-79.62131577569042
 20
1043.675126359269
 42
0.4142135623731
 10
-79.12131577569042
 20
1043.175126359269
 42
0.4142135623731
  0
LINE
  5
397
330
1F
100
AcDbEntity
  8
C-4
  6
Continuous
 62
     7
370
     9
100
AcDbLine
 10
-580.1215484722236
 20
1101.674394056604
 30
0.0
 11
-580.1215484722236
 21
991.6751263592696
 31
0.0
  0
LINE
  5
398
330
1F
100
AcDbEntity
  8
C-4
  6
Continuous
 62
     7
370
     9
100
AcDbLine
 10
-579.1211975200752
 20
1101.674394056604
 30
0.0
 11
-579.1211975200752
 21
991.6751263592696
 31
0.0
  0
LINE
  5
399
330
1F
100
AcDbEntity
  8
C-4
  6
Continuous
 62
     7
370
     9
100
AcDbLine
 10
-79.12131577569042
 20
1101.674394056604
 30
0.0
 11
-79.12131577569042
 21
991.6751263592696
 31
0.0
  0
LINE
  5
39A
330
1F
100
AcDbEntity
  8
C-4
  6
Continuous
 62
     7
370
     9
100
AcDbLine
 10
-78.12149888115911
 20
1101.674394056604
 30
0.0
 11
-78.12149888115911
 21
991.6751263592696
 31
0.0
  0
LINE
  5
39B
330
1F
100
AcDbEntity
  8
C-4
  6
Continuous
 62
     7
370
     9
100
AcDbLine
 10
-554.1215313060859
 20
1046.675126478479
 30
0.0
 11
-554.1215313060859
 21
991.6751263592696
 31
0.0
  0
LINE
  5
39C
330
1F
100
AcDbEntity
  8
C-4
  6
Continuous
 62
     7
370
     9
100
AcDbLine
 10
-104.1214988811591
 20
1046.675126478479
 30
0.0
 11
-104.1214988811591
 21
991.6751263592696
 31
0.0
  0
TEXT
  5
39D
330
1F
100
AcDbEntity
  8
C-4
  6
Continuous
 62
     2
370
   211
100
AcDbText
 10
-567.8713644130805
 20
1055.315126597688
 30
0.0
 40
30.48
  1
25
 41
1.0625
  7
ＭＳ ゴシック
100
AcDbText
  0
TEXT
  5
39E
330
1F
100
AcDbEntity
  8
C-4
  6
Continuous
 62
     2
370
   211
100
AcDbText
 10
-569.6213729961494
 20
1110.314394175813
 30
0.0
 40
30.48
  1
1
 41
0.9999999999999998
  7
ＭＳ ゴシック
100
AcDbText
  0
TEXT
  5
39F
330
1F
100
AcDbEntity
  8
C-4
  6
Continuous
 62
     2
370
   211
100
AcDbText
 10
-132.8714073284247
 20
1055.315126597688
 30
0.0
 40
30.48
  1
25
 41
1.0625
  7
ＭＳ ゴシック
100
AcDbText
  0
TEXT
  5
3A0
330
1F
100
AcDbEntity
  8
C-4
  6
Continuous
 62
     2
370
   211
100
AcDbText
 10
-108.6214073284248
 20
1110.314394175813
 30
0.0
 40
30.48
  1
1
 41
0.9999999999999998
  7
ＭＳ ゴシック
100
AcDbText
  0
LINE
  5
3A1
330
1F
100
AcDbEntity
  8
C-1
  6
Continuous
 62
     2
370
     9
100
AcDbLine
 10
-585.1215484722236
 20
969.6751263592696
 30
0.0
 11
-585.1215484722236
 21
457.6749432538008
 31
0.0
  0
LINE
  5
3A2
330
1F
100
AcDbEntity
  8
C-1
  6
Continuous
 62
     2
370
     9
100
AcDbLine
 10
-585.1215484722236
 20
457.6749432538008
 30
0.0
 11
-73.12149888115911
 21
457.6749432538008
 31
0.0
  0
LINE
  5
3A3
330
1F
100
AcDbEntity
  8
C-1
  6
Continuous
 62
     2
370
     9
100
AcDbLine
 10
-73.12149888115911
 20
969.6751263592696
 30
0.0
 11
-585.1215484722236
 21
969.6751263592696
 31
0.0
  0
LINE
  5
3A4
330
1F
100
AcDbEntity
  8
C-1
  6
Continuous
 62
     2
370
     9
100
AcDbLine
 10
-73.12149888115911
 20
457.6749432538008
 30
0.0
 11
-73.12149888115911
 21
969.6751263592696
 31
0.0
  0
LWPOLYLINE
  5
3A5
330
1F
100
AcDbEntity
  8
C-4
  6
Continuous
 62
     7
370
     9
100
AcDbPolyline
 90
        4
 70
     1
 43
1.0
 10
-584.6215484722236
 20
1153.674393937395
 42
0.4142135623731
 10
-585.1215484722236
 20
1154.174393937395
 42
0.4142135623731
 10
-585.6215484722236
 20
1153.674393937395
 42
0.4142135623731
 10
-585.1215484722236
 20
1153.174393937395
 42
0.4142135623731
  0
LWPOLYLINE
  5
3A6
330
1F
100
AcDbEntity
  8
C-4
  6
Continuous
 62
     7
370
     9
100
AcDbPolyline
 90
        4
 70
     1
 43
1.0
 10
-584.6215484722236
 20
1098.674393937394
 42
0.4142135623731
 10
-585.1215484722236
 20
1099.174393937394
 42
0.4142135623731
 10
-585.6215484722236
 20
1098.674393937394
 42
0.4142135623731
 10
-585.1215484722236
 20
1098.174393937394
 42
0.4142135623731
  0
LINE
  5
3A7
330
1F
100
AcDbEntity
  8
C-4
  6
Continuous
 62
     7
370
     9
100
AcDbLine
 10
-585.1215484722236
 20
1156.674394056604
 30
0.0
 11
-585.1215484722236
 21
991.6751263592696
 31
0.0
  0
LINE
  5
3A8
330
1F
100
AcDbEntity
  8
C-4
  6
Continuous
 62
     7
370
     9
100
AcDbLine
 10
-585.1215484722236
 20
1098.674393937394
 30
0.0
 11
-635.1215484722236
 21
1098.674393937394
 31
0.0
  0
LINE
  5
3A9
330
1F
100
AcDbEntity
  8
C-4
  6
Continuous
 62
     7
370
     9
100
AcDbLine
 10
-73.12149888115911
 20
1098.674393937394
 30
0.0
 11
-23.12149888115911
 21
1098.674393937394
 31
0.0
  0
LWPOLYLINE
  5
3AA
330
1F
100
AcDbEntity
  8
C-4
  6
Continuous
 62
     7
370
     9
100
AcDbPolyline
 90
        4
 70
     1
 43
1.0
 10
-72.62149888115911
 20
1153.674393937395
 42
0.4142135623731
 10
-73.12149888115911
 20
1154.174393937395
 42
0.4142135623731
 10
-73.62149888115911
 20
1153.674393937395
 42
0.4142135623731
 10
-73.12149888115911
 20
1153.174393937395
 42
0.4142135623731
  0
LWPOLYLINE
  5
3AB
330
1F
100
AcDbEntity
  8
C-4
  6
Continuous
 62
     7
370
     9
100
AcDbPolyline
 90
        4
 70
     1
 43
1.0
 10
-72.62149888115911
 20
1098.674393937394
 42
0.4142135623731
 10
-73.12149888115911
 20
1099.174393937394
 42
0.4142135623731
 10
-73.62149888115911
 20
1098.674393937394
 42
0.4142135623731
 10
-73.12149888115911
 20
1098.174393937394
 42
0.4142135623731
  0
LINE
  5
3AC
330
1F
100
AcDbEntity
  8
C-4
  6
Continuous
 62
     7
370
     9
100
AcDbLine
 10
-73.12149888115911
 20
1156.674394056604
 30
0.0
 11
-73.12149888115911
 21
991.6751263592696
 31
0.0
  0
LINE
  5
3AD
330
1F
100
AcDbEntity
  8
C-4
  6
Continuous
 62
     7
370
     9
100
AcDbLine
 10
-585.1215484722236
 20
1098.674393937394
 30
0.0
 11
-580.1215484722236
 21
1098.674393937394
 31
0.0
  0
TEXT
  5
3AE
330
1F
100
AcDbEntity
  8
C-4
  6
Continuous
 62
     2
370
   211
100
AcDbText
 10
-621.6215570552926
 20
1110.314394175813
 30
0.0
 40
30.48
  1
5
 41
0.9999999999999998
  7
ＭＳ ゴシック
100
AcDbText
  0
LINE
  5
3AF
330
1F
100
AcDbEntity
  8
C-4
  6
Continuous
 62
     7
370
     9
100
AcDbLine
 10
-585.1215484722236
 20
1153.674393937395
 30
0.0
 11
-73.12149888115911
 21
1153.674393937395
 31
0.0
  0
TEXT
  5
3B0
330
1F
100
AcDbEntity
  8
C-4
  6
Continuous
 62
     2
370
   211
100
AcDbText
 10
-361.6215236766914
 20
1165.314394175813
 30
0.0
 40
30.48
  1
512
 41
1.083333333333333
  7
ＭＳ ゴシック
100
AcDbText
  0
LINE
  5
3B1
330
1F
100
AcDbEntity
  8
C-4
  6
Continuous
 62
     7
370
     9
100
AcDbLine
 10
-78.12149888115911
 20
1098.674393937394
 30
0.0
 11
-73.12149888115911
 21
1098.674393937394
 31
0.0
  0
TEXT
  5
3B2
330
1F
100
AcDbEntity
  8
C-4
  6
Continuous
 62
     2
370
   211
100
AcDbText
 10
-56.62149888115913
 20
1110.314394175813
 30
0.0
 40
30.48
  1
5
 41
0.9999999999999998
  7
ＭＳ ゴシック
100
AcDbText
  0
LWPOLYLINE
  5
3B3
330
1F
100
AcDbEntity
  8
C-4
  6
Continuous
 62
     7
370
     9
100
AcDbPolyline
 90
        4
 70
     1
 43
1.0
 10
-713.6208160503484
 20
462.6750767682051
 42
0.4142135623731
 10
-714.1208160503483
 20
463.1750767682051
 42
0.4142135623731
 10
-714.6208160503483
 20
462.6750767682051
 42
0.4142135623731
 10
-714.1208160503483
 20
462.1750767682051
 42
0.4142135623731
  0
LINE
  5
3B4
330
1F
100
AcDbEntity
  8
C-4
  6
Continuous
 62
     7
370
     9
100
AcDbLine
 10
-714.1208160503483
 20
462.6750767682051
 30
0.0
 11
-714.1208160503483
 21
463.6754277203536
 31
0.0
  0
LWPOLYLINE
  5
3B5
330
1F
100
AcDbEntity
  8
C-4
  6
Continuous
 62
     7
370
     9
100
AcDbPolyline
 90
        4
 70
     1
 43
1.0
 10
-713.6208160503484
 20
463.6754277203536
 42
0.4142135623731
 10
-714.1208160503483
 20
464.1754277203536
 42
0.4142135623731
 10
-714.6208160503483
 20
463.6754277203536
 42
0.4142135623731
 10
-714.1208160503483
 20
463.1754277203537
 42
0.4142135623731
  0
LINE
  5
3B6
330
1F
100
AcDbEntity
  8
C-4
  6
Continuous
 62
     7
370
     9
100
AcDbLine
 10
-714.1208160503483
 20
463.6754277203536
 30
0.0
 11
-714.1208160503483
 21
963.6753094647383
 31
0.0
  0
LWPOLYLINE
  5
3B7
330
1F
100
AcDbEntity
  8
C-4
  6
Continuous
 62
     7
370
     9
100
AcDbPolyline
 90
        4
 70
     1
 43
1.0
 10
-713.6208160503484
 20
963.6753094647383
 42
0.4142135623731
 10
-714.1208160503483
 20
964.1753094647383
 42
0.4142135623731
 10
-714.6208160503483
 20
963.6753094647383
 42
0.4142135623731
 10
-714.1208160503483
 20
963.1753094647383
 42
0.4142135623731
  0
TEXT
  5
3B8
330
1F
100
AcDbEntity
  8
C-4
  6
Continuous
 62
     2
370
   211
100
AcDbText
 10
-725.7608162887668
 20
681.175368592546
 30
0.0
 40
30.48
  1
500
 50
90.0
 41
1.083333333333333
  7
ＭＳ ゴシック
100
AcDbText
  0
LINE
  5
3B9
330
1F
100
AcDbEntity
  8
C-4
  6
Continuous
 62
     7
370
     9
100
AcDbLine
 10
-714.1208160503483
 20
963.6753094647383
 30
0.0
 11
-714.1208160503483
 21
964.6751263592696
 31
0.0
  0
LWPOLYLINE
  5
3BA
330
1F
100
AcDbEntity
  8
C-4
  6
Continuous
 62
     7
370
     9
100
AcDbPolyline
 90
        4
 70
     1
 43
1.0
 10
-713.6208160503484
 20
964.6751263592696
 42
0.4142135623731
 10
-714.1208160503483
 20
965.1751263592696
 42
0.4142135623731
 10
-714.6208160503483
 20
964.6751263592696
 42
0.4142135623731
 10
-714.1208160503483
 20
964.1751263592697
 42
0.4142135623731
  0
LINE
  5
3BB
330
1F
100
AcDbEntity
  8
C-4
  6
Continuous
 62
     7
370
     9
100
AcDbLine
 10
-659.1215484722234
 20
463.6754277203536
 30
0.0
 11
-659.1215484722234
 21
488.6750939343429
 31
0.0
  0
LWPOLYLINE
  5
3BC
330
1F
100
AcDbEntity
  8
C-4
  6
Continuous
 62
     7
370
     9
100
AcDbPolyline
 90
        4
 70
     1
 43
1.0
 10
-658.6215484722234
 20
463.6754277203536
 42
0.4142135623731
 10
-659.1215484722234
 20
464.1754277203536
 42
0.4142135623731
 10
-659.6215484722234
 20
463.6754277203536
 42
0.4142135623731
 10
-659.1215484722234
 20
463.1754277203537
 42
0.4142135623731
  0
LWPOLYLINE
  5
3BD
330
1F
100
AcDbEntity
  8
C-4
  6
Continuous
 62
     7
370
     9
100
AcDbPolyline
 90
        4
 70
     1
 43
1.0
 10
-658.6215484722234
 20
488.6750939343429
 42
0.4142135623731
 10
-659.1215484722234
 20
489.1750939343428
 42
0.4142135623731
 10
-659.6215484722234
 20
488.6750939343429
 42
0.4142135623731
 10
-659.1215484722234
 20
488.175093934343
 42
0.4142135623731
  0
LINE
  5
3BE
330
1F
100
AcDbEntity
  8
C-4
  6
Continuous
 62
     7
370
     9
100
AcDbLine
 10
-659.1215484722234
 20
488.6750939343429
 30
0.0
 11
-659.1215484722234
 21
938.6751263592697
 31
0.0
  0
LWPOLYLINE
  5
3BF
330
1F
100
AcDbEntity
  8
C-4
  6
Continuous
 62
     7
370
     9
100
AcDbPolyline
 90
        4
 70
     1
 43
1.0
 10
-658.6215484722234
 20
938.6751263592697
 42
0.4142135623731
 10
-659.1215484722234
 20
939.1751263592697
 42
0.4142135623731
 10
-659.6215484722234
 20
938.6751263592697
 42
0.4142135623731
 10
-659.1215484722234
 20
938.1751263592697
 42
0.4142135623731
  0
TEXT
  5
3C0
330
1F
100
AcDbEntity
  8
C-4
  6
Continuous
 62
     2
370
   211
100
AcDbText
 10
-670.7615487106419
 20
681.1751101468063
 30
0.0
 40
30.48
  1
450
 50
90.0
 41
1.083333333333333
  7
ＭＳ ゴシック
100
AcDbText
  0
LINE
  5
3C1
330
1F
100
AcDbEntity
  8
C-4
  6
Continuous
 62
     7
370
     9
100
AcDbLine
 10
-659.1215484722234
 20
938.6751263592697
 30
0.0
 11
-659.1215484722234
 21
963.6753094647383
 31
0.0
  0
LWPOLYLINE
  5
3C2
330
1F
100
AcDbEntity
  8
C-4
  6
Continuous
 62
     7
370
     9
100
AcDbPolyline
 90
        4
 70
     1
 43
1.0
 10
-658.6215484722234
 20
963.6753094647383
 42
0.4142135623731
 10
-659.1215484722234
 20
964.1753094647383
 42
0.4142135623731
 10
-659.6215484722234
 20
963.6753094647383
 42
0.4142135623731
 10
-659.1215484722234
 20
963.1753094647383
 42
0.4142135623731
  0
LINE
  5
3C3
330
1F
100
AcDbEntity
  8
C-4
  6
Continuous
 62
     7
370
     9
100
AcDbLine
 10
-717.1208161695575
 20
462.6750767682051
 30
0.0
 11
-607.1215484722235
 21
462.6750767682051
 31
0.0
  0
LINE
  5
3C4
330
1F
100
AcDbEntity
  8
C-4
  6
Continuous
 62
     7
370
     9
100
AcDbLine
 10
-717.1208161695575
 20
463.6754277203536
 30
0.0
 11
-607.1215484722235
 21
463.6754277203536
 31
0.0
  0
LINE
  5
3C5
330
1F
100
AcDbEntity
  8
C-4
  6
Continuous
 62
     7
370
     9
100
AcDbLine
 10
-717.1208161695575
 20
963.6753094647383
 30
0.0
 11
-607.1215484722235
 21
963.6753094647383
 31
0.0
  0
LINE
  5
3C6
330
1F
100
AcDbEntity
  8
C-4
  6
Continuous
 62
     7
370
     9
100
AcDbLine
 10
-717.1208161695575
 20
964.6751263592696
 30
0.0
 11
-607.1215484722235
 21
964.6751263592696
 31
0.0
  0
LINE
  5
3C7
330
1F
100
AcDbEntity
  8
C-4
  6
Continuous
 62
     7
370
     9
100
AcDbLine
 10
-662.1215485914327
 20
488.6750939343429
 30
0.0
 11
-607.1215484722235
 21
488.6750939343429
 31
0.0
  0
LINE
  5
3C8
330
1F
100
AcDbEntity
  8
C-4
  6
Continuous
 62
     7
370
     9
100
AcDbLine
 10
-662.1215485914327
 20
938.6751263592697
 30
0.0
 11
-607.1215484722235
 21
938.6751263592697
 31
0.0
  0
TEXT
  5
3C9
330
1F
100
AcDbEntity
  8
C-4
  6
Continuous
 62
     2
370
   211
100
AcDbText
 10
-670.7615487106419
 20
474.9252608273483
 30
0.0
 40
30.48
  1
25
 50
90.0
 41
1.0625
  7
ＭＳ ゴシック
100
AcDbText
  0
TEXT
  5
3CA
330
1F
100
AcDbEntity
  8
C-4
  6
Continuous
 62
     2
370
   211
100
AcDbText
 10
-725.7608162887668
 20
473.1752522442794
 30
0.0
 40
30.48
  1
1
 50
90.0
 41
0.9999999999999998
  7
ＭＳ ゴシック
100
AcDbText
  0
TEXT
  5
3CB
330
1F
100
AcDbEntity
  8
C-4
  6
Continuous
 62
     2
370
   211
100
AcDbText
 10
-670.7615487106419
 20
909.925217912004
 30
0.0
 40
30.48
  1
25
 50
90.0
 41
1.0625
  7
ＭＳ ゴシック
100
AcDbText
  0
TEXT
  5
3CC
330
1F
100
AcDbEntity
  8
C-4
  6
Continuous
 62
     2
370
   211
100
AcDbText
 10
-725.7608162887668
 20
934.175217912004
 30
0.0
 40
30.48
  1
1
 50
90.0
 41
0.9999999999999998
  7
ＭＳ ゴシック
100
AcDbText
  0
LWPOLYLINE
  5
3CD
330
1F
100
AcDbEntity
  8
C-4
  6
Continuous
 62
     7
370
     9
100
AcDbPolyline
 90
        4
 70
     1
 43
1.0
 10
-768.6208160503486
 20
457.6750767682051
 42
0.4142135623731
 10
-769.1208160503486
 20
458.1750767682051
 42
0.4142135623731
 10
-769.6208160503486
 20
457.6750767682051
 42
0.4142135623731
 10
-769.1208160503486
 20
457.1750767682051
 42
0.4142135623731
  0
LWPOLYLINE
  5
3CE
330
1F
100
AcDbEntity
  8
C-4
  6
Continuous
 62
     7
370
     9
100
AcDbPolyline
 90
        4
 70
     1
 43
1.0
 10
-713.6208160503484
 20
457.6750767682051
 42
0.4142135623731
 10
-714.1208160503483
 20
458.1750767682051
 42
0.4142135623731
 10
-714.6208160503483
 20
457.6750767682051
 42
0.4142135623731
 10
-714.1208160503483
 20
457.1750767682051
 42
0.4142135623731
  0
LINE
  5
3CF
330
1F
100
AcDbEntity
  8
C-4
  6
Continuous
 62
     7
370
     9
100
AcDbLine
 10
-772.1208161695579
 20
457.6750767682051
 30
0.0
 11
-607.1215484722235
 21
457.6750767682051
 31
0.0
  0
LINE
  5
3D0
330
1F
100
AcDbEntity
  8
C-4
  6
Continuous
 62
     7
370
     9
100
AcDbLine
 10
-714.1208160503483
 20
457.6750767682051
 30
0.0
 11
-714.1208160503483
 21
407.6750767682051
 31
0.0
  0
LINE
  5
3D1
330
1F
100
AcDbEntity
  8
C-4
  6
Continuous
 62
     7
370
     9
100
AcDbLine
 10
-714.1208160503483
 20
969.6751263592696
 30
0.0
 11
-714.1208160503483
 21
1019.67512635927
 31
0.0
  0
LWPOLYLINE
  5
3D2
330
1F
100
AcDbEntity
  8
C-4
  6
Continuous
 62
     7
370
     9
100
AcDbPolyline
 90
        4
 70
     1
 43
1.0
 10
-768.6208160503486
 20
969.6751263592696
 42
0.4142135623731
 10
-769.1208160503486
 20
970.1751263592696
 42
0.4142135623731
 10
-769.6208160503486
 20
969.6751263592696
 42
0.4142135623731
 10
-769.1208160503486
 20
969.1751263592697
 42
0.4142135623731
  0
LWPOLYLINE
  5
3D3
330
1F
100
AcDbEntity
  8
C-4
  6
Continuous
 62
     7
370
     9
100
AcDbPolyline
 90
        4
 70
     1
 43
1.0
 10
-713.6208160503484
 20
969.6751263592696
 42
0.4142135623731
 10
-714.1208160503483
 20
970.1751263592696
 42
0.4142135623731
 10
-714.6208160503483
 20
969.6751263592696
 42
0.4142135623731
 10
-714.1208160503483
 20
969.1751263592697
 42
0.4142135623731
  0
LINE
  5
3D4
330
1F
100
AcDbEntity
  8
C-4
  6
Continuous
 62
     7
370
     9
100
AcDbLine
 10
-772.1208161695579
 20
969.6751263592696
 30
0.0
 11
-607.1215484722235
 21
969.6751263592696
 31
0.0
  0
LINE
  5
3D5
330
1F
100
AcDbEntity
  8
C-4
  6
Continuous
 62
     7
370
     9
100
AcDbLine
 10
-714.1208160503483
 20
457.6750767682051
 30
0.0
 11
-714.1208160503483
 21
462.6750767682051
 31
0.0
  0
TEXT
  5
3D6
330
1F
100
AcDbEntity
  8
C-4
  6
Continuous
 62
     2
370
   211
100
AcDbText
 10
-725.7608162887668
 20
421.1750681851362
 30
0.0
 40
30.48
  1
5
 50
90.0
 41
0.9999999999999998
  7
ＭＳ ゴシック
100
AcDbText
  0
LINE
  5
3D7
330
1F
100
AcDbEntity
  8
C-4
  6
Continuous
 62
     7
370
     9
100
AcDbLine
 10
-769.1208160503486
 20
457.6750767682051
 30
0.0
 11
-769.1208160503486
 21
969.6751263592696
 31
0.0
  0
TEXT
  5
3D8
330
1F
100
AcDbEntity
  8
C-4
  6
Continuous
 62
     2
370
   211
100
AcDbText
 10
-780.7608162887672
 20
681.1751015637374
 30
0.0
 40
30.48
  1
512
 50
90.0
 41
1.083333333333333
  7
ＭＳ ゴシック
100
AcDbText
  0
LINE
  5
3D9
330
1F
100
AcDbEntity
  8
C-4
  6
Continuous
 62
     7
370
     9
100
AcDbLine
 10
-714.1208160503483
 20
964.6751263592696
 30
0.0
 11
-714.1208160503483
 21
969.6751263592696
 31
0.0
  0
TEXT
  5
3DA
330
1F
100
AcDbEntity
  8
C-4
  6
Continuous
 62
     2
370
   211
100
AcDbText
 10
-725.7608162887668
 20
986.1751263592697
 30
0.0
 40
30.48
  1
5
 50
90.0
 41
0.9999999999999998
  7
ＭＳ ゴシック
100
AcDbText
  0
TEXT
  5
3DB
330
1F
100
AcDbEntity
  8
F-5
  6
Continuous
 62
     2
370
     9
100
AcDbText
 10
-824.5901402992006
 20
-1373.238621242842
 30
0.0
 40
30.48
  1
　　　　　　　　　　　　　　　　　　ＤＱ－１５　５００×５００×１５＋ＳＦ１５Ｂ
 41
0.7743749999999999
  7
ＭＳ ゴシック
100
AcDbText
  0
LINE
  5
3DC
330
1F
100
AcDbEntity
  8
D-4
  6
Continuous
 62
     7
370
     9
100
AcDbLine
 10
-1277.355283185499
 20
-199.6613758550467
 30
0.0
 11
-704.6875032630132
 21
-199.6613758550467
 31
0.0
  0
LINE
  5
3DD
330
1F
100
AcDbEntity
  8
D-4
  6
Continuous
 62
     7
370
     9
100
AcDbLine
 10
-704.6875032630132
 20
-305.124874685842
 30
0.0
 11
-704.6875032630132
 21
-196.6608112798514
 31
0.0
  0
LINE
  5
3DE
330
1F
100
AcDbEntity
  8
D-4
  6
Continuous
 62
     7
370
     9
100
AcDbLine
 10
-704.6875032630132
 20
-199.6613758550467
 30
0.0
 11
-579.687665387647
 21
-199.6613758550467
 31
0.0
  0
LINE
  5
3DF
330
1F
100
AcDbEntity
  8
D-4
  6
Continuous
 62
     7
370
     9
100
AcDbLine
 10
-579.687665387647
 20
-305.124874685842
 30
0.0
 11
-579.687665387647
 21
-87.90938076837676
 31
0.0
  0
LINE
  5
3E0
330
1F
100
AcDbEntity
  8
D-4
  6
Continuous
 62
     7
370
     9
100
AcDbLine
 10
-574.6873947825597
 20
-305.124874685842
 30
0.0
 11
-574.6873947825597
 21
-87.90938076837676
 31
0.0
  0
LINE
  5
3E1
330
1F
100
AcDbEntity
  8
D-4
  6
Continuous
 62
     7
370
     9
100
AcDbLine
 10
-549.6885165419744
 20
-305.124874685842
 30
0.0
 11
-549.6885165419744
 21
22.787278319758
 31
0.0
  0
LINE
  5
3E2
330
1F
100
AcDbEntity
  8
D-4
  6
Continuous
 62
     7
370
     9
100
AcDbLine
 10
-704.6875032630132
 20
-880.6633823858084
 30
0.0
 11
-304.6866354193853
 21
-880.6633823858084
 31
0.0
  0
LINE
  5
3E3
330
1F
100
AcDbEntity
  8
D-4
  6
Continuous
 62
     7
370
     9
100
AcDbLine
 10
-304.6866354193853
 20
-640.4541843877615
 30
0.0
 11
-304.6866354193853
 21
-883.6629551397147
 31
0.0
  0
LINE
  5
3E4
330
1F
100
AcDbEntity
  8
D-4
  6
Continuous
 62
     7
370
     9
100
AcDbLine
 10
-704.6875032630132
 20
-726.1990040288748
 30
0.0
 11
-554.6882924285101
 21
-726.1990040288748
 31
0.0
  0
LINE
  5
3E5
330
1F
100
AcDbEntity
  8
D-4
  6
Continuous
 62
     7
370
     9
100
AcDbLine
 10
-33.00229398872123
 20
-570.5802029119315
 30
0.0
 11
-33.00229398872123
 21
-320.580527161199
 31
0.0
  0
LINE
  5
3E6
330
1F
100
AcDbEntity
  8
D-4
  6
Continuous
 62
     7
370
     9
100
AcDbLine
 10
-128.6574682440923
 20
-320.580527161199
 30
0.0
 11
-30.00272123481498
 21
-320.580527161199
 31
0.0
  0
LINE
  5
3E7
330
1F
100
AcDbEntity
  8
D-6
  6
Continuous
 62
     6
370
     9
100
AcDbLine
 10
-554.6882924285101
 20
-570.5802029119315
 30
0.0
 11
-554.6882924285101
 21
-820.5798786626639
 31
0.0
  0
LINE
  5
3E8
330
1F
100
AcDbEntity
  8
D-6
  6
JWW_DASHED3
 62
     6
370
     9
100
AcDbLine
 10
-461.1864027228521
 20
-698.0801838384451
 30
0.0
 11
-461.1864027228521
 21
-570.5802029119315
 31
0.0
  0
LINE
  5
3E9
330
1F
100
AcDbEntity
  8
D-6
  6
JWW_DASHED3
 62
     6
370
     9
100
AcDbLine
 10
-416.1859449591802
 20
-570.5802029119315
 30
0.0
 11
-416.1859449591802
 21
-698.0801838384451
 31
0.0
  0
LINE
  5
3EA
330
1F
100
AcDbEntity
  8
D-6
  6
Continuous
 62
     6
370
     9
100
AcDbLine
 10
-304.6876272406743
 20
-470.5807274328055
 30
0.0
 11
-139.6866354193853
 21
-470.5807274328055
 31
0.0
  0
LINE
  5
3EB
330
1F
100
AcDbEntity
  8
D-6
  6
Continuous
 62
     6
370
     9
100
AcDbLine
 10
-304.6876272406743
 20
-470.5807274328055
 30
0.0
 11
-304.6876272406743
 21
-570.5802029119315
 31
0.0
  0
LINE
  5
3EC
330
1F
100
AcDbEntity
  8
D-4
  6
Continuous
 62
     7
370
     9
100
AcDbLine
 10
-248.908742352979
 20
-570.5802029119315
 30
0.0
 11
-30.00272123481498
 21
-570.5802029119315
 31
0.0
  0
LINE
  5
3ED
330
1F
100
AcDbEntity
  8
D-6
  6
Continuous
 62
     6
370
     9
100
AcDbLine
 10
-554.6882924285101
 20
-570.5802029119315
 30
0.0
 11
-304.6876272406743
 21
-570.5802029119315
 31
0.0
  0
LINE
  5
3EE
330
1F
100
AcDbEntity
  8
D-6
  6
Continuous
 62
     6
370
     9
100
AcDbLine
 10
-461.1864027228521
 20
-373.0803984151663
 30
0.0
 11
-416.1859449591802
 21
-373.0803984151663
 31
0.0
  0
LINE
  5
3EF
330
1F
100
AcDbEntity
  8
D-6
  6
JWW_CENTER2
 62
     6
370
     9
100
AcDbLine
 10
-438.6861738410161
 20
-369.0012043462576
 30
0.0
 11
-438.6861738410161
 21
-698.0801838384451
 31
0.0
  0
LINE
  5
3F0
330
1F
100
AcDbEntity
  8
D-4
  6
Continuous
 62
     7
370
     9
100
AcDbLine
 10
-549.6885165419744
 20
-458.5477703557791
 30
0.0
 11
-549.6885165419744
 21
-529.8903149114432
 31
0.0
  0
LINE
  5
3F1
330
1F
100
AcDbEntity
  8
D-6
  6
Continuous
 62
     6
370
     9
100
AcDbLine
 10
-461.1864027228521
 20
-405.580174301702
 30
0.0
 11
-461.1864027228521
 21
-373.0803984151663
 31
0.0
  0
LINE
  5
3F2
330
1F
100
AcDbEntity
  8
D-6
  6
Continuous
 62
     6
370
     9
100
AcDbLine
 10
-416.1859449591802
 20
-405.580174301702
 30
0.0
 11
-416.1859449591802
 21
-373.0803984151663
 31
0.0
  0
LINE
  5
3F3
330
1F
100
AcDbEntity
  8
D-6
  6
Continuous
 62
     6
370
     9
100
AcDbLine
 10
-461.1864027228521
 20
-570.5802029119315
 30
0.0
 11
-461.1864027228521
 21
-455.5799168096365
 31
0.0
  0
LINE
  5
3F4
330
1F
100
AcDbEntity
  8
D-6
  6
Continuous
 62
     6
370
     9
100
AcDbLine
 10
-416.1859449591802
 20
-570.5802029119315
 30
0.0
 11
-416.1859449591802
 21
-455.5799168096365
 31
0.0
  0
LINE
  5
3F5
330
1F
100
AcDbEntity
  8
D-4
  6
Continuous
 62
     7
370
     9
100
AcDbLine
 10
-850.170014783399
 20
-445.5803650365652
 30
0.0
 11
-850.170014783399
 21
-320.580527161199
 31
0.0
  0
LINE
  5
3F6
330
1F
100
AcDbEntity
  8
D-4
  6
Continuous
 62
     7
370
     9
100
AcDbLine
 10
-577.8326302614378
 20
-320.580527161199
 30
0.0
 11
-853.1705793585943
 21
-320.580527161199
 31
0.0
  0
LINE
  5
3F7
330
1F
100
AcDbEntity
  8
D-4
  6
Continuous
 62
     7
370
     9
100
AcDbLine
 10
-1277.355283185499
 20
19.78671374456269
 30
0.0
 11
-549.6885165419744
 21
19.78671374456269
 31
0.0
  0
LINE
  5
3F8
330
1F
100
AcDbEntity
  8
D-4
  6
Continuous
 62
     7
370
     9
100
AcDbLine
 10
-1277.355283185499
 20
-90.90895352228301
 30
0.0
 11
-513.6020406928228
 21
-90.90895352228301
 31
0.0
  0
LINE
  5
3F9
330
1F
100
AcDbEntity
  8
D-4
  6
Continuous
 62
     7
370
     9
100
AcDbLine
 10
-549.6885165419744
 20
-526.8897694097342
 30
0.0
 11
-404.6880850043462
 21
-526.8897694097342
 31
0.0
  0
LINE
  5
3FA
330
1F
100
AcDbEntity
  8
D-5
  6
Continuous
 62
     2
370
     9
100
AcDbLine
 10
-1046.682828351514
 20
-1016.522681091863
 30
0.0
 11
-1046.682828351514
 21
-951.5231007085623
 31
0.0
  0
LINE
  5
3FB
330
1F
100
AcDbEntity
  8
D-5
  6
Continuous
 62
     2
370
     9
100
AcDbLine
 10
-1046.682828351514
 20
-951.5231007085623
 30
0.0
 11
-471.6824087348149
 21
-951.5231007085623
 31
0.0
  0
LINE
  5
3FC
330
1F
100
AcDbEntity
  8
D-5
  6
Continuous
 62
     2
370
     9
100
AcDbLine
 10
-471.6824087348149
 20
-951.5231007085623
 30
0.0
 11
-471.6824087348149
 21
-1016.522681091863
 31
0.0
  0
LINE
  5
3FD
330
1F
100
AcDbEntity
  8
D-5
  6
Continuous
 62
     2
370
     9
100
AcDbLine
 10
-471.6824087348149
 20
-1016.522681091863
 30
0.0
 11
-1046.682828351514
 21
-1016.522681091863
 31
0.0
  0
LINE
  5
3FE
330
1F
100
AcDbEntity
  8
D-4
  6
Continuous
 62
     7
370
     9
100
AcDbLine
 10
-704.6875032630132
 20
-845.5802219854178
 30
0.0
 11
-704.6875032630132
 21
-883.6629551397147
 31
0.0
  0
LINE
  5
3FF
330
1F
100
AcDbEntity
  8
D-5
  6
Continuous
 62
     7
370
     9
100
AcDbLine
 10
-365.3429159369634
 20
-212.5316685186209
 30
0.0
 11
-105.9600576605962
 21
-212.5316685186209
 31
0.0
  0
LINE
  5
400
330
1F
100
AcDbEntity
  8
D-5
  6
Continuous
 62
     7
370
     9
100
AcDbLine
 10
-556.6305312361883
 20
-320.580527161199
 30
0.0
 11
-542.8198346343206
 21
-299.7421020017447
 31
0.0
  0
LINE
  5
401
330
1F
100
AcDbEntity
  8
D-5
  6
Continuous
 62
     7
370
     9
100
AcDbLine
 10
-556.6305312361883
 20
-320.580527161199
 30
0.0
 11
-537.8968557562994
 21
-304.0264194951834
 31
0.0
  0
LINE
  5
402
330
1F
100
AcDbEntity
  8
D-5
  6
Continuous
 62
     7
370
     9
100
AcDbLine
 10
-414.8382696356938
 20
-157.6693981633963
 30
0.0
 11
-556.6305312361883
 21
-320.580527161199
 31
0.0
  0
LINE
  5
403
330
1F
100
AcDbEntity
  8
D-5
  6
Continuous
 62
     7
370
     9
100
AcDbLine
 10
-365.3429159369634
 20
-212.5316685186209
 30
0.0
 11
-580.1712428998517
 21
-459.3573635564627
 31
0.0
  0
LINE
  5
404
330
1F
100
AcDbEntity
  8
D-5
  6
Continuous
 62
     7
370
     9
100
AcDbLine
 10
-414.8382696356938
 20
-157.6693981633963
 30
0.0
 11
35.95209749077096
 21
-157.6693981633963
 31
0.0
  0
LINE
  5
405
330
1F
100
AcDbEntity
  8
D-6
  6
Continuous
 62
     6
370
     9
100
AcDbLine
 10
-304.6876272406743
 20
-517.9202908025565
 30
0.0
 11
-257.347577497022
 21
-470.5802315221609
 31
0.0
  0
LINE
  5
406
330
1F
100
AcDbEntity
  8
D-6
  6
Continuous
 62
     6
370
     9
100
AcDbLine
 10
-554.6873029914068
 20
-767.9179829107107
 30
0.0
 11
-357.3480352606938
 21
-570.5802029119315
 31
0.0
  0
LINE
  5
407
330
1F
100
AcDbEntity
  8
D-6
  6
Continuous
 62
     6
370
     9
100
AcDbLine
 10
-554.6873029914068
 20
-782.0586460576834
 30
0.0
 11
-343.2073530402349
 21
-570.5802029119315
 31
0.0
  0
LINE
  5
408
330
1F
100
AcDbEntity
  8
D-6
  6
Continuous
 62
     6
370
     9
100
AcDbLine
 10
-304.6876272406743
 20
-532.0609730230154
 30
0.0
 11
-243.2068762030767
 21
-470.5802315221609
 31
0.0
  0
LINE
  5
409
330
1F
100
AcDbEntity
  8
D-6
  6
Continuous
 62
     6
370
     9
100
AcDbLine
 10
-554.6873029914068
 20
-796.1993473516287
 30
0.0
 11
-329.0666708197759
 21
-570.5802029119315
 31
0.0
  0
LINE
  5
40A
330
1F
100
AcDbEntity
  8
D-6
  6
Continuous
 62
     6
370
     9
100
AcDbLine
 10
-304.6876272406743
 20
-546.2016552434744
 30
0.0
 11
-229.066213056104
 21
-470.5802315221609
 31
0.0
  0
LINE
  5
40B
330
1F
100
AcDbEntity
  8
D-6
  6
Continuous
 62
     6
370
     9
100
AcDbLine
 10
-215.5151495185063
 20
-820.5798786626639
 30
0.0
 11
-139.6866354193853
 21
-744.7518604741873
 31
0.0
  0
LINE
  5
40C
330
1F
100
AcDbEntity
  8
D-6
  6
Continuous
 62
     6
370
     9
100
AcDbLine
 10
-229.655812665479
 20
-820.5798786626639
 30
0.0
 11
-139.6866354193853
 21
-730.611159180242
 31
0.0
  0
LINE
  5
40D
330
1F
100
AcDbEntity
  8
D-6
  6
Continuous
 62
     6
370
     9
100
AcDbLine
 10
-201.374448224561
 20
-820.5798786626639
 30
0.0
 11
-139.6866354193853
 21
-758.89252362116
 31
0.0
  0
LINE
  5
40E
330
1F
100
AcDbEntity
  8
D-0
  6
Continuous
 62
     7
370
     9
100
AcDbLine
 10
-277.8421339240239
 20
-341.5299385534109
 30
0.0
 11
-277.8421339240239
 21
-340.0296586499991
 31
0.0
  0
LINE
  5
40F
330
1F
100
AcDbEntity
  8
D-0
  6
Continuous
 62
     7
370
     9
100
AcDbLine
 10
-277.8421339240239
 20
-340.0296586499991
 30
0.0
 11
-276.3423666205571
 21
-340.0296586499991
 31
0.0
  0
LINE
  5
410
330
1F
100
AcDbEntity
  8
D-0
  6
Continuous
 62
     7
370
     9
100
AcDbLine
 10
-276.3423666205571
 20
-340.0296586499991
 30
0.0
 11
-276.3423666205571
 21
-341.5299385534109
 31
0.0
  0
LINE
  5
411
330
1F
100
AcDbEntity
  8
D-0
  6
Continuous
 62
     7
370
     9
100
AcDbLine
 10
-276.3423666205571
 20
-341.5299385534109
 30
0.0
 11
-277.8421339240239
 21
-341.5299385534109
 31
0.0
  0
LINE
  5
412
330
1F
100
AcDbEntity
  8
D-0
  6
Continuous
 62
     7
370
     9
100
AcDbLine
 10
-227.0863088812993
 20
-344.2371791349234
 30
0.0
 11
-227.0863088812993
 21
-342.7368992315115
 31
0.0
  0
LINE
  5
413
330
1F
100
AcDbEntity
  8
D-0
  6
Continuous
 62
     7
370
     9
100
AcDbLine
 10
-227.0863088812993
 20
-342.7368992315115
 30
0.0
 11
-225.5860265937017
 21
-342.7368992315115
 31
0.0
  0
LINE
  5
414
330
1F
100
AcDbEntity
  8
D-0
  6
Continuous
 62
     7
370
     9
100
AcDbLine
 10
-225.5860265937017
 20
-342.7368992315115
 30
0.0
 11
-225.5860265937017
 21
-344.2371791349234
 31
0.0
  0
LINE
  5
415
330
1F
100
AcDbEntity
  8
D-0
  6
Continuous
 62
     7
370
     9
100
AcDbLine
 10
-225.5860265937017
 20
-344.2371791349234
 30
0.0
 11
-227.0863088812993
 21
-344.2371791349234
 31
0.0
  0
LINE
  5
416
330
1F
100
AcDbEntity
  8
D-0
  6
Continuous
 62
     7
370
     9
100
AcDbLine
 10
-162.1184667792485
 20
-342.2067492948355
 30
0.0
 11
-162.1184667792485
 21
-340.7064693914236
 31
0.0
  0
LINE
  5
417
330
1F
100
AcDbEntity
  8
D-0
  6
Continuous
 62
     7
370
     9
100
AcDbLine
 10
-162.1184667792485
 20
-340.7064693914236
 30
0.0
 11
-160.6186804022954
 21
-340.7064693914236
 31
0.0
  0
LINE
  5
418
330
1F
100
AcDbEntity
  8
D-0
  6
Continuous
 62
     7
370
     9
100
AcDbLine
 10
-160.6186804022954
 20
-340.7064693914236
 30
0.0
 11
-160.6186804022954
 21
-342.2067492948355
 31
0.0
  0
LINE
  5
419
330
1F
100
AcDbEntity
  8
D-0
  6
Continuous
 62
     7
370
     9
100
AcDbLine
 10
-160.6186804022954
 20
-342.2067492948355
 30
0.0
 11
-162.1184667792485
 21
-342.2067492948355
 31
0.0
  0
LINE
  5
41A
330
1F
100
AcDbEntity
  8
D-0
  6
Continuous
 62
     7
370
     9
100
AcDbLine
 10
-186.4816793646978
 20
-374.6906727300467
 30
0.0
 11
-186.4816793646978
 21
-373.190390442449
 31
0.0
  0
LINE
  5
41B
330
1F
100
AcDbEntity
  8
D-0
  6
Continuous
 62
     7
370
     9
100
AcDbLine
 10
-186.4816793646978
 20
-373.190390442449
 30
0.0
 11
-184.9813970771001
 21
-373.190390442449
 31
0.0
  0
LINE
  5
41C
330
1F
100
AcDbEntity
  8
D-0
  6
Continuous
 62
     7
370
     9
100
AcDbLine
 10
-184.9813970771001
 20
-373.190390442449
 30
0.0
 11
-184.9813970771001
 21
-374.6906727300467
 31
0.0
  0
LINE
  5
41D
330
1F
100
AcDbEntity
  8
D-0
  6
Continuous
 62
     7
370
     9
100
AcDbLine
 10
-184.9813970771001
 20
-374.6906727300467
 30
0.0
 11
-186.4816793646978
 21
-374.6906727300467
 31
0.0
  0
LINE
  5
41E
330
1F
100
AcDbEntity
  8
D-0
  6
Continuous
 62
     7
370
     9
100
AcDbLine
 10
-237.0467123236821
 20
-378.6217230306448
 30
0.0
 11
-237.0467123236821
 21
-377.1214407430472
 31
0.0
  0
LINE
  5
41F
330
1F
100
AcDbEntity
  8
D-0
  6
Continuous
 62
     7
370
     9
100
AcDbLine
 10
-237.0467123236821
 20
-377.1214407430472
 30
0.0
 11
-235.5469640937017
 21
-377.1214407430472
 31
0.0
  0
LINE
  5
420
330
1F
100
AcDbEntity
  8
D-0
  6
Continuous
 62
     7
370
     9
100
AcDbLine
 10
-235.5469640937017
 20
-377.1214407430472
 30
0.0
 11
-235.5469640937017
 21
-378.6217230306448
 31
0.0
  0
LINE
  5
421
330
1F
100
AcDbEntity
  8
D-0
  6
Continuous
 62
     7
370
     9
100
AcDbLine
 10
-235.5469640937017
 20
-378.6217230306448
 30
0.0
 11
-237.0467123236821
 21
-378.6217230306448
 31
0.0
  0
LINE
  5
422
330
1F
100
AcDbEntity
  8
D-0
  6
Continuous
 62
     7
370
     9
100
AcDbLine
 10
-254.1562399115728
 20
-412.588583801824
 30
0.0
 11
-254.1562399115728
 21
-411.0883015142264
 31
0.0
  0
LINE
  5
423
330
1F
100
AcDbEntity
  8
D-0
  6
Continuous
 62
     7
370
     9
100
AcDbLine
 10
-254.1562399115728
 20
-411.0883015142264
 30
0.0
 11
-252.6559957709478
 21
-411.0883015142264
 31
0.0
  0
LINE
  5
424
330
1F
100
AcDbEntity
  8
D-0
  6
Continuous
 62
     7
370
     9
100
AcDbLine
 10
-252.6559957709478
 20
-411.0883015142264
 30
0.0
 11
-252.6559957709478
 21
-412.588583801824
 31
0.0
  0
LINE
  5
425
330
1F
100
AcDbEntity
  8
D-0
  6
Continuous
 62
     7
370
     9
100
AcDbLine
 10
-252.6559957709478
 20
-412.588583801824
 30
0.0
 11
-254.1562399115728
 21
-412.588583801824
 31
0.0
  0
LINE
  5
426
330
1F
100
AcDbEntity
  8
D-0
  6
Continuous
 62
     7
370
     9
100
AcDbLine
 10
-285.5124983039067
 20
-398.016845558721
 30
0.0
 11
-285.5124983039067
 21
-396.5165680394949
 31
0.0
  0
LINE
  5
427
330
1F
100
AcDbEntity
  8
D-0
  6
Continuous
 62
     7
370
     9
100
AcDbLine
 10
-285.5124983039067
 20
-396.5165680394949
 30
0.0
 11
-284.0127119269536
 21
-396.5165680394949
 31
0.0
  0
LINE
  5
428
330
1F
100
AcDbEntity
  8
D-0
  6
Continuous
 62
     7
370
     9
100
AcDbLine
 10
-284.0127119269536
 20
-396.5165680394949
 30
0.0
 11
-284.0127119269536
 21
-398.016845558721
 31
0.0
  0
LINE
  5
429
330
1F
100
AcDbEntity
  8
D-0
  6
Continuous
 62
     7
370
     9
100
AcDbLine
 10
-284.0127119269536
 20
-398.016845558721
 30
0.0
 11
-285.5124983039067
 21
-398.016845558721
 31
0.0
  0
LINE
  5
42A
330
1F
100
AcDbEntity
  8
D-0
  6
Continuous
 62
     7
370
     9
100
AcDbLine
 10
-296.2369093146489
 20
-439.2368763433279
 30
0.0
 11
-296.2369093146489
 21
-437.7365940557303
 31
0.0
  0
LINE
  5
42B
330
1F
100
AcDbEntity
  8
D-0
  6
Continuous
 62
     7
370
     9
100
AcDbLine
 10
-296.2369093146489
 20
-437.7365940557303
 30
0.0
 11
-294.7366270270513
 21
-437.7365940557303
 31
0.0
  0
LINE
  5
42C
330
1F
100
AcDbEntity
  8
D-0
  6
Continuous
 62
     7
370
     9
100
AcDbLine
 10
-294.7366270270513
 20
-437.7365940557303
 30
0.0
 11
-294.7366270270513
 21
-439.2368763433279
 31
0.0
  0
LINE
  5
42D
330
1F
100
AcDbEntity
  8
D-0
  6
Continuous
 62
     7
370
     9
100
AcDbLine
 10
-294.7366270270513
 20
-439.2368763433279
 30
0.0
 11
-296.2369093146489
 21
-439.2368763433279
 31
0.0
  0
LINE
  5
42E
330
1F
100
AcDbEntity
  8
D-0
  6
Continuous
 62
     7
370
     9
100
AcDbLine
 10
-258.8934454169438
 20
-447.7792519079031
 30
0.0
 11
-258.8934454169438
 21
-446.2789696203055
 31
0.0
  0
LINE
  5
42F
330
1F
100
AcDbEntity
  8
D-0
  6
Continuous
 62
     7
370
     9
100
AcDbLine
 10
-258.8934454169438
 20
-446.2789696203055
 30
0.0
 11
-257.3931631293462
 21
-446.2789696203055
 31
0.0
  0
LINE
  5
430
330
1F
100
AcDbEntity
  8
D-0
  6
Continuous
 62
     7
370
     9
100
AcDbLine
 10
-257.3931631293462
 20
-446.2789696203055
 30
0.0
 11
-257.3931631293462
 21
-447.7792519079031
 31
0.0
  0
LINE
  5
431
330
1F
100
AcDbEntity
  8
D-0
  6
Continuous
 62
     7
370
     9
100
AcDbLine
 10
-257.3931631293462
 20
-447.7792519079031
 30
0.0
 11
-258.8934454169438
 21
-447.7792519079031
 31
0.0
  0
LINE
  5
432
330
1F
100
AcDbEntity
  8
D-0
  6
Continuous
 62
     7
370
     9
100
AcDbLine
 10
-206.6883596625493
 20
-452.5040405736746
 30
0.0
 11
-206.6883596625493
 21
-451.0037678228201
 31
0.0
  0
LINE
  5
433
330
1F
100
AcDbEntity
  8
D-0
  6
Continuous
 62
     7
370
     9
100
AcDbLine
 10
-206.6883596625493
 20
-451.0037678228201
 30
0.0
 11
-205.1885732855962
 21
-451.0037678228201
 31
0.0
  0
LINE
  5
434
330
1F
100
AcDbEntity
  8
D-0
  6
Continuous
 62
     7
370
     9
100
AcDbLine
 10
-205.1885732855962
 20
-451.0037678228201
 30
0.0
 11
-205.1885732855962
 21
-452.5040405736746
 31
0.0
  0
LINE
  5
435
330
1F
100
AcDbEntity
  8
D-0
  6
Continuous
 62
     7
370
     9
100
AcDbLine
 10
-205.1885732855962
 20
-452.5040405736746
 30
0.0
 11
-206.6883596625493
 21
-452.5040405736746
 31
0.0
  0
LINE
  5
436
330
1F
100
AcDbEntity
  8
D-0
  6
Continuous
 62
     7
370
     9
100
AcDbLine
 10
-151.9672903266118
 20
-445.7488220678152
 30
0.0
 11
-151.9672903266118
 21
-444.2485397802176
 31
0.0
  0
LINE
  5
437
330
1F
100
AcDbEntity
  8
D-0
  6
Continuous
 62
     7
370
     9
100
AcDbLine
 10
-151.9672903266118
 20
-444.2485397802176
 30
0.0
 11
-150.4675420966314
 21
-444.2485397802176
 31
0.0
  0
LINE
  5
438
330
1F
100
AcDbEntity
  8
D-0
  6
Continuous
 62
     7
370
     9
100
AcDbLine
 10
-150.4675420966314
 20
-444.2485397802176
 30
0.0
 11
-150.4675420966314
 21
-445.7488220678152
 31
0.0
  0
LINE
  5
439
330
1F
100
AcDbEntity
  8
D-0
  6
Continuous
 62
     7
370
     9
100
AcDbLine
 10
-150.4675420966314
 20
-445.7488220678152
 30
0.0
 11
-151.9672903266118
 21
-445.7488220678152
 31
0.0
  0
LINE
  5
43A
330
1F
100
AcDbEntity
  8
D-0
  6
Continuous
 62
     7
370
     9
100
AcDbLine
 10
-164.1489156928228
 20
-405.8209770665945
 30
0.0
 11
-164.1489156928228
 21
-404.3206947789969
 31
0.0
  0
LINE
  5
43B
330
1F
100
AcDbEntity
  8
D-0
  6
Continuous
 62
     7
370
     9
100
AcDbLine
 10
-164.1489156928228
 20
-404.3206947789969
 30
0.0
 11
-162.6486334052251
 21
-404.3206947789969
 31
0.0
  0
LINE
  5
43C
330
1F
100
AcDbEntity
  8
D-0
  6
Continuous
 62
     7
370
     9
100
AcDbLine
 10
-162.6486334052251
 20
-404.3206947789969
 30
0.0
 11
-162.6486334052251
 21
-405.8209770665945
 31
0.0
  0
LINE
  5
43D
330
1F
100
AcDbEntity
  8
D-0
  6
Continuous
 62
     7
370
     9
100
AcDbLine
 10
-162.6486334052251
 20
-405.8209770665945
 30
0.0
 11
-164.1489156928228
 21
-405.8209770665945
 31
0.0
  0
LINE
  5
43E
330
1F
100
AcDbEntity
  8
D-0
  6
Continuous
 62
     7
370
     9
100
AcDbLine
 10
-205.1776632514165
 20
-414.9385899053397
 30
0.0
 11
-205.1776632514165
 21
-413.438307617742
 31
0.0
  0
LINE
  5
43F
330
1F
100
AcDbEntity
  8
D-0
  6
Continuous
 62
     7
370
     9
100
AcDbLine
 10
-205.1776632514165
 20
-413.438307617742
 30
0.0
 11
-203.677915021436
 21
-413.438307617742
 31
0.0
  0
LINE
  5
440
330
1F
100
AcDbEntity
  8
D-0
  6
Continuous
 62
     7
370
     9
100
AcDbLine
 10
-203.677915021436
 20
-413.438307617742
 30
0.0
 11
-203.677915021436
 21
-414.9385899053397
 31
0.0
  0
LINE
  5
441
330
1F
100
AcDbEntity
  8
D-0
  6
Continuous
 62
     7
370
     9
100
AcDbLine
 10
-203.677915021436
 20
-414.9385899053397
 30
0.0
 11
-205.1776632514165
 21
-414.9385899053397
 31
0.0
  0
LINE
  5
442
330
1F
100
AcDbEntity
  8
D-0
  6
Continuous
 62
     7
370
     9
100
AcDbLine
 10
-144.6928533759283
 20
-375.4502266393484
 30
0.0
 11
-144.6928533759283
 21
-373.9499443517508
 31
0.0
  0
LINE
  5
443
330
1F
100
AcDbEntity
  8
D-0
  6
Continuous
 62
     7
370
     9
100
AcDbLine
 10
-144.6928533759283
 20
-373.9499443517508
 30
0.0
 11
-143.1925710883306
 21
-373.9499443517508
 31
0.0
  0
LINE
  5
444
330
1F
100
AcDbEntity
  8
D-0
  6
Continuous
 62
     7
370
     9
100
AcDbLine
 10
-143.1925710883306
 20
-373.9499443517508
 30
0.0
 11
-143.1925710883306
 21
-375.4502266393484
 31
0.0
  0
LINE
  5
445
330
1F
100
AcDbEntity
  8
D-0
  6
Continuous
 62
     7
370
     9
100
AcDbLine
 10
-143.1925710883306
 20
-375.4502266393484
 30
0.0
 11
-144.6928533759283
 21
-375.4502266393484
 31
0.0
  0
LINE
  5
446
330
1F
100
AcDbEntity
  8
D-0
  6
Continuous
 62
     7
370
     9
100
AcDbLine
 10
-298.6934408393071
 20
-364.5573442922415
 30
0.0
 11
-298.6934408393071
 21
-363.0570667730154
 31
0.0
  0
LINE
  5
447
330
1F
100
AcDbEntity
  8
D-0
  6
Continuous
 62
     7
370
     9
100
AcDbLine
 10
-298.6934408393071
 20
-363.0570667730154
 30
0.0
 11
-297.1931776251958
 21
-363.0570667730154
 31
0.0
  0
LINE
  5
448
330
1F
100
AcDbEntity
  8
D-0
  6
Continuous
 62
     7
370
     9
100
AcDbLine
 10
-297.1931776251958
 20
-363.0570667730154
 30
0.0
 11
-297.1931776251958
 21
-364.5573442922415
 31
0.0
  0
LINE
  5
449
330
1F
100
AcDbEntity
  8
D-0
  6
Continuous
 62
     7
370
     9
100
AcDbLine
 10
-297.1931776251958
 20
-364.5573442922415
 30
0.0
 11
-298.6934408393071
 21
-364.5573442922415
 31
0.0
  0
LINE
  5
44A
330
1F
100
AcDbEntity
  8
D-0
  6
Continuous
 62
     7
370
     9
100
AcDbLine
 10
-382.0431837287114
 20
-487.8076809392752
 30
0.0
 11
-382.0431837287114
 21
-486.3073986516775
 31
0.0
  0
LINE
  5
44B
330
1F
100
AcDbEntity
  8
D-0
  6
Continuous
 62
     7
370
     9
100
AcDbLine
 10
-382.0431837287114
 20
-486.3073986516775
 30
0.0
 11
-380.5429014411138
 21
-486.3073986516775
 31
0.0
  0
LINE
  5
44C
330
1F
100
AcDbEntity
  8
D-0
  6
Continuous
 62
     7
370
     9
100
AcDbLine
 10
-380.5429014411138
 20
-486.3073986516775
 30
0.0
 11
-380.5429014411138
 21
-487.8076809392752
 31
0.0
  0
LINE
  5
44D
330
1F
100
AcDbEntity
  8
D-0
  6
Continuous
 62
     7
370
     9
100
AcDbLine
 10
-380.5429014411138
 20
-487.8076809392752
 30
0.0
 11
-382.0431837287114
 21
-487.8076809392752
 31
0.0
  0
LINE
  5
44E
330
1F
100
AcDbEntity
  8
D-0
  6
Continuous
 62
     7
370
     9
100
AcDbLine
 10
-332.6786359992192
 20
-495.7059544072928
 30
0.0
 11
-332.6786359992192
 21
-494.2056721196951
 31
0.0
  0
LINE
  5
44F
330
1F
100
AcDbEntity
  8
D-0
  6
Continuous
 62
     7
370
     9
100
AcDbLine
 10
-332.6786359992192
 20
-494.2056721196951
 30
0.0
 11
-331.1783727851079
 21
-494.2056721196951
 31
0.0
  0
LINE
  5
450
330
1F
100
AcDbEntity
  8
D-0
  6
Continuous
 62
     7
370
     9
100
AcDbLine
 10
-331.1783727851079
 20
-494.2056721196951
 30
0.0
 11
-331.1783727851079
 21
-495.7059544072928
 31
0.0
  0
LINE
  5
451
330
1F
100
AcDbEntity
  8
D-0
  6
Continuous
 62
     7
370
     9
100
AcDbLine
 10
-331.1783727851079
 20
-495.7059544072928
 30
0.0
 11
-332.6786359992192
 21
-495.7059544072928
 31
0.0
  0
LINE
  5
452
330
1F
100
AcDbEntity
  8
D-0
  6
Continuous
 62
     7
370
     9
100
AcDbLine
 10
-349.5597585883306
 20
-516.2867229924979
 30
0.0
 11
-349.5597585883306
 21
-514.7864597783865
 31
0.0
  0
LINE
  5
453
330
1F
100
AcDbEntity
  8
D-0
  6
Continuous
 62
     7
370
     9
100
AcDbLine
 10
-349.5597585883306
 20
-514.7864597783865
 30
0.0
 11
-348.0599722113774
 21
-514.7864597783865
 31
0.0
  0
LINE
  5
454
330
1F
100
AcDbEntity
  8
D-0
  6
Continuous
 62
     7
370
     9
100
AcDbLine
 10
-348.0599722113774
 20
-514.7864597783865
 30
0.0
 11
-348.0599722113774
 21
-516.2867229924979
 31
0.0
  0
LINE
  5
455
330
1F
100
AcDbEntity
  8
D-0
  6
Continuous
 62
     7
370
     9
100
AcDbLine
 10
-348.0599722113774
 20
-516.2867229924979
 30
0.0
 11
-349.5597585883306
 21
-516.2867229924979
 31
0.0
  0
LINE
  5
456
330
1F
100
AcDbEntity
  8
D-0
  6
Continuous
 62
     7
370
     9
100
AcDbLine
 10
-397.8397306647466
 20
-550.9948223577322
 30
0.0
 11
-397.8397306647466
 21
-549.4945400701346
 31
0.0
  0
LINE
  5
457
330
1F
100
AcDbEntity
  8
D-0
  6
Continuous
 62
     7
370
     9
100
AcDbLine
 10
-397.8397306647466
 20
-549.4945400701346
 30
0.0
 11
-396.3399442877935
 21
-549.4945400701346
 31
0.0
  0
LINE
  5
458
330
1F
100
AcDbEntity
  8
D-0
  6
Continuous
 62
     7
370
     9
100
AcDbLine
 10
-396.3399442877935
 20
-549.4945400701346
 30
0.0
 11
-396.3399442877935
 21
-550.9948223577322
 31
0.0
  0
LINE
  5
459
330
1F
100
AcDbEntity
  8
D-0
  6
Continuous
 62
     7
370
     9
100
AcDbLine
 10
-396.3399442877935
 20
-550.9948223577322
 30
0.0
 11
-397.8397306647466
 21
-550.9948223577322
 31
0.0
  0
LINE
  5
45A
330
1F
100
AcDbEntity
  8
D-0
  6
Continuous
 62
     7
370
     9
100
AcDbLine
 10
-326.7548116889165
 20
-549.0198772893729
 30
0.0
 11
-326.7548116889165
 21
-547.5195950017752
 31
0.0
  0
LINE
  5
45B
330
1F
100
AcDbEntity
  8
D-0
  6
Continuous
 62
     7
370
     9
100
AcDbLine
 10
-326.7548116889165
 20
-547.5195950017752
 30
0.0
 11
-325.2545484748052
 21
-547.5195950017752
 31
0.0
  0
LINE
  5
45C
330
1F
100
AcDbEntity
  8
D-0
  6
Continuous
 62
     7
370
     9
100
AcDbLine
 10
-325.2545484748052
 20
-547.5195950017752
 30
0.0
 11
-325.2545484748052
 21
-549.0198772893729
 31
0.0
  0
LINE
  5
45D
330
1F
100
AcDbEntity
  8
D-0
  6
Continuous
 62
     7
370
     9
100
AcDbLine
 10
-325.2545484748052
 20
-549.0198772893729
 30
0.0
 11
-326.7548116889165
 21
-549.0198772893729
 31
0.0
  0
LINE
  5
45E
330
1F
100
AcDbEntity
  8
D-0
  6
Continuous
 62
     7
370
     9
100
AcDbLine
 10
-384.0176328864263
 20
-517.4268024907889
 30
0.0
 11
-384.0176328864263
 21
-515.9265202031912
 31
0.0
  0
LINE
  5
45F
330
1F
100
AcDbEntity
  8
D-0
  6
Continuous
 62
     7
370
     9
100
AcDbLine
 10
-384.0176328864263
 20
-515.9265202031912
 30
0.0
 11
-382.5178465094731
 21
-515.9265202031912
 31
0.0
  0
LINE
  5
460
330
1F
100
AcDbEntity
  8
D-0
  6
Continuous
 62
     7
370
     9
100
AcDbLine
 10
-382.5178465094731
 20
-515.9265202031912
 30
0.0
 11
-382.5178465094731
 21
-517.4268024907889
 31
0.0
  0
LINE
  5
461
330
1F
100
AcDbEntity
  8
D-0
  6
Continuous
 62
     7
370
     9
100
AcDbLine
 10
-382.5178465094731
 20
-517.4268024907889
 30
0.0
 11
-384.0176328864263
 21
-517.4268024907889
 31
0.0
  0
LINE
  5
462
330
1F
100
AcDbEntity
  8
D-0
  6
Continuous
 62
     7
370
     9
100
AcDbLine
 10
-352.1505674567388
 20
-473.5480850683035
 30
0.0
 11
-352.1505674567388
 21
-472.047812317449
 31
0.0
  0
LINE
  5
463
330
1F
100
AcDbEntity
  8
D-0
  6
Continuous
 62
     7
370
     9
100
AcDbLine
 10
-352.1505674567388
 20
-472.047812317449
 30
0.0
 11
-350.6502851691411
 21
-472.047812317449
 31
0.0
  0
LINE
  5
464
330
1F
100
AcDbEntity
  8
D-0
  6
Continuous
 62
     7
370
     9
100
AcDbLine
 10
-350.6502851691411
 20
-472.047812317449
 30
0.0
 11
-350.6502851691411
 21
-473.5480850683035
 31
0.0
  0
LINE
  5
465
330
1F
100
AcDbEntity
  8
D-0
  6
Continuous
 62
     7
370
     9
100
AcDbLine
 10
-350.6502851691411
 20
-473.5480850683035
 30
0.0
 11
-352.1505674567388
 21
-473.5480850683035
 31
0.0
  0
LINE
  5
466
330
1F
100
AcDbEntity
  8
D-0
  6
Continuous
 62
     7
370
     9
100
AcDbLine
 10
-361.4341673102544
 20
-544.9877422796072
 30
0.0
 11
-361.4341673102544
 21
-543.4874790654959
 31
0.0
  0
LINE
  5
467
330
1F
100
AcDbEntity
  8
D-0
  6
Continuous
 62
     7
370
     9
100
AcDbLine
 10
-361.4341673102544
 20
-543.4874790654959
 30
0.0
 11
-359.9338850226567
 21
-543.4874790654959
 31
0.0
  0
LINE
  5
468
330
1F
100
AcDbEntity
  8
D-0
  6
Continuous
 62
     7
370
     9
100
AcDbLine
 10
-359.9338850226567
 20
-543.4874790654959
 30
0.0
 11
-359.9338850226567
 21
-544.9877422796072
 31
0.0
  0
LINE
  5
469
330
1F
100
AcDbEntity
  8
D-0
  6
Continuous
 62
     7
370
     9
100
AcDbLine
 10
-359.9338850226567
 20
-544.9877422796072
 30
0.0
 11
-361.4341673102544
 21
-544.9877422796072
 31
0.0
  0
LINE
  5
46A
330
1F
100
AcDbEntity
  8
D-0
  6
Continuous
 62
     7
370
     9
100
AcDbLine
 10
-524.5598253455328
 20
-335.1116353021445
 30
0.0
 11
-524.5598253455328
 21
-333.6113553987326
 31
0.0
  0
LINE
  5
46B
330
1F
100
AcDbEntity
  8
D-0
  6
Continuous
 62
     7
370
     9
100
AcDbLine
 10
-524.5598253455328
 20
-333.6113553987326
 30
0.0
 11
-523.0595478263067
 21
-333.6113553987326
 31
0.0
  0
LINE
  5
46C
330
1F
100
AcDbEntity
  8
D-0
  6
Continuous
 62
     7
370
     9
100
AcDbLine
 10
-523.0595478263067
 20
-333.6113553987326
 30
0.0
 11
-523.0595478263067
 21
-335.1116353021445
 31
0.0
  0
LINE
  5
46D
330
1F
100
AcDbEntity
  8
D-0
  6
Continuous
 62
     7
370
     9
100
AcDbLine
 10
-523.0595478263067
 20
-335.1116353021445
 30
0.0
 11
-524.5598253455328
 21
-335.1116353021445
 31
0.0
  0
LINE
  5
46E
330
1F
100
AcDbEntity
  8
D-0
  6
Continuous
 62
     7
370
     9
100
AcDbLine
 10
-503.3151182379888
 20
-350.9101527677359
 30
0.0
 11
-503.3151182379888
 21
-349.409872864324
 31
0.0
  0
LINE
  5
46F
330
1F
100
AcDbEntity
  8
D-0
  6
Continuous
 62
     7
370
     9
100
AcDbLine
 10
-503.3151182379888
 20
-349.409872864324
 30
0.0
 11
-501.8148359503911
 21
-349.409872864324
 31
0.0
  0
LINE
  5
470
330
1F
100
AcDbEntity
  8
D-0
  6
Continuous
 62
     7
370
     9
100
AcDbLine
 10
-501.8148359503911
 20
-349.409872864324
 30
0.0
 11
-501.8148359503911
 21
-350.9101527677359
 31
0.0
  0
LINE
  5
471
330
1F
100
AcDbEntity
  8
D-0
  6
Continuous
 62
     7
370
     9
100
AcDbLine
 10
-501.8148359503911
 20
-350.9101527677359
 30
0.0
 11
-503.3151182379888
 21
-350.9101527677359
 31
0.0
  0
LINE
  5
472
330
1F
100
AcDbEntity
  8
D-0
  6
Continuous
 62
     7
370
     9
100
AcDbLine
 10
-479.4488844123052
 20
-391.9904583440604
 30
0.0
 11
-479.4488844123052
 21
-390.4901808248343
 31
0.0
  0
LINE
  5
473
330
1F
100
AcDbEntity
  8
D-0
  6
Continuous
 62
     7
370
     9
100
AcDbLine
 10
-479.4488844123052
 20
-390.4901808248343
 30
0.0
 11
-477.9490980353521
 21
-390.4901808248343
 31
0.0
  0
LINE
  5
474
330
1F
100
AcDbEntity
  8
D-0
  6
Continuous
 62
     7
370
     9
100
AcDbLine
 10
-477.9490980353521
 20
-390.4901808248343
 30
0.0
 11
-477.9490980353521
 21
-391.9904583440604
 31
0.0
  0
LINE
  5
475
330
1F
100
AcDbEntity
  8
D-0
  6
Continuous
 62
     7
370
     9
100
AcDbLine
 10
-477.9490980353521
 20
-391.9904583440604
 30
0.0
 11
-479.4488844123052
 21
-391.9904583440604
 31
0.0
  0
LINE
  5
476
330
1F
100
AcDbEntity
  8
D-0
  6
Continuous
 62
     7
370
     9
100
AcDbLine
 10
-433.6844095435308
 20
-339.034262274343
 30
0.0
 11
-433.6844095435308
 21
-337.5339823709311
 31
0.0
  0
LINE
  5
477
330
1F
100
AcDbEntity
  8
D-0
  6
Continuous
 62
     7
370
     9
100
AcDbLine
 10
-433.6844095435308
 20
-337.5339823709311
 30
0.0
 11
-432.1846327033208
 21
-337.5339823709311
 31
0.0
  0
LINE
  5
478
330
1F
100
AcDbEntity
  8
D-0
  6
Continuous
 62
     7
370
     9
100
AcDbLine
 10
-432.1846327033208
 20
-337.5339823709311
 30
0.0
 11
-432.1846327033208
 21
-339.034262274343
 31
0.0
  0
LINE
  5
479
330
1F
100
AcDbEntity
  8
D-0
  6
Continuous
 62
     7
370
     9
100
AcDbLine
 10
-432.1846327033208
 20
-339.034262274343
 30
0.0
 11
-433.6844095435308
 21
-339.034262274343
 31
0.0
  0
LINE
  5
47A
330
1F
100
AcDbEntity
  8
D-0
  6
Continuous
 62
     7
370
     9
100
AcDbLine
 10
-386.1263403144048
 20
-333.636129473287
 30
0.0
 11
-386.1263403144048
 21
-332.1358495698752
 31
0.0
  0
LINE
  5
47B
330
1F
100
AcDbEntity
  8
D-0
  6
Continuous
 62
     7
370
     9
100
AcDbLine
 10
-386.1263403144048
 20
-332.1358495698752
 30
0.0
 11
-384.6265539374517
 21
-332.1358495698752
 31
0.0
  0
LINE
  5
47C
330
1F
100
AcDbEntity
  8
D-0
  6
Continuous
 62
     7
370
     9
100
AcDbLine
 10
-384.6265539374517
 20
-332.1358495698752
 30
0.0
 11
-384.6265539374517
 21
-333.636129473287
 31
0.0
  0
LINE
  5
47D
330
1F
100
AcDbEntity
  8
D-0
  6
Continuous
 62
     7
370
     9
100
AcDbLine
 10
-384.6265539374517
 20
-333.636129473287
 30
0.0
 11
-386.1263403144048
 21
-333.636129473287
 31
0.0
  0
LINE
  5
47E
330
1F
100
AcDbEntity
  8
D-0
  6
Continuous
 62
     7
370
     9
100
AcDbLine
 10
-405.739968701856
 20
-355.2108210073294
 30
0.0
 11
-405.739968701856
 21
-353.7105434881033
 31
0.0
  0
LINE
  5
47F
330
1F
100
AcDbEntity
  8
D-0
  6
Continuous
 62
     7
370
     9
100
AcDbLine
 10
-405.739968701856
 20
-353.7105434881033
 30
0.0
 11
-404.2396864142583
 21
-353.7105434881033
 31
0.0
  0
LINE
  5
480
330
1F
100
AcDbEntity
  8
D-0
  6
Continuous
 62
     7
370
     9
100
AcDbLine
 10
-404.2396864142583
 20
-353.7105434881033
 30
0.0
 11
-404.2396864142583
 21
-355.2108210073294
 31
0.0
  0
LINE
  5
481
330
1F
100
AcDbEntity
  8
D-0
  6
Continuous
 62
     7
370
     9
100
AcDbLine
 10
-404.2396864142583
 20
-355.2108210073294
 30
0.0
 11
-405.739968701856
 21
-355.2108210073294
 31
0.0
  0
LINE
  5
482
330
1F
100
AcDbEntity
  8
D-0
  6
Continuous
 62
     7
370
     9
100
AcDbLine
 10
-381.3822302069829
 20
-391.3369387136282
 30
0.0
 11
-381.3822302069829
 21
-389.8366564260306
 31
0.0
  0
LINE
  5
483
330
1F
100
AcDbEntity
  8
D-0
  6
Continuous
 62
     7
370
     9
100
AcDbLine
 10
-381.3822302069829
 20
-389.8366564260306
 30
0.0
 11
-379.8819479193853
 21
-389.8366564260306
 31
0.0
  0
LINE
  5
484
330
1F
100
AcDbEntity
  8
D-0
  6
Continuous
 62
     7
370
     9
100
AcDbLine
 10
-379.8819479193853
 20
-389.8366564260306
 30
0.0
 11
-379.8819479193853
 21
-391.3369387136282
 31
0.0
  0
LINE
  5
485
330
1F
100
AcDbEntity
  8
D-0
  6
Continuous
 62
     7
370
     9
100
AcDbLine
 10
-379.8819479193853
 20
-391.3369387136282
 30
0.0
 11
-381.3822302069829
 21
-391.3369387136282
 31
0.0
  0
LINE
  5
486
330
1F
100
AcDbEntity
  8
D-0
  6
Continuous
 62
     7
370
     9
100
AcDbLine
 10
-377.4591192450688
 20
-429.9096745000662
 30
0.0
 11
-377.4591192450688
 21
-428.4093922124686
 31
0.0
  0
LINE
  5
487
330
1F
100
AcDbEntity
  8
D-0
  6
Continuous
 62
     7
370
     9
100
AcDbLine
 10
-377.4591192450688
 20
-428.4093922124686
 30
0.0
 11
-375.9593328681157
 21
-428.4093922124686
 31
0.0
  0
LINE
  5
488
330
1F
100
AcDbEntity
  8
D-0
  6
Continuous
 62
     7
370
     9
100
AcDbLine
 10
-375.9593328681157
 20
-428.4093922124686
 30
0.0
 11
-375.9593328681157
 21
-429.9096745000662
 31
0.0
  0
LINE
  5
489
330
1F
100
AcDbEntity
  8
D-0
  6
Continuous
 62
     7
370
     9
100
AcDbLine
 10
-375.9593328681157
 20
-429.9096745000662
 30
0.0
 11
-377.4591192450688
 21
-429.9096745000662
 31
0.0
  0
LINE
  5
48A
330
1F
100
AcDbEntity
  8
D-0
  6
Continuous
 62
     7
370
     9
100
AcDbLine
 10
-453.1280931677983
 20
-353.5356420026602
 30
0.0
 11
-453.1280931677983
 21
-352.0353620992483
 31
0.0
  0
LINE
  5
48B
330
1F
100
AcDbEntity
  8
D-0
  6
Continuous
 62
     7
370
     9
100
AcDbLine
 10
-453.1280931677983
 20
-352.0353620992483
 30
0.0
 11
-451.6278108802007
 21
-352.0353620992483
 31
0.0
  0
LINE
  5
48C
330
1F
100
AcDbEntity
  8
D-0
  6
Continuous
 62
     7
370
     9
100
AcDbLine
 10
-451.6278108802007
 20
-352.0353620992483
 30
0.0
 11
-451.6278108802007
 21
-353.5356420026602
 31
0.0
  0
LINE
  5
48D
330
1F
100
AcDbEntity
  8
D-0
  6
Continuous
 62
     7
370
     9
100
AcDbLine
 10
-451.6278108802007
 20
-353.5356420026602
 30
0.0
 11
-453.1280931677983
 21
-353.5356420026602
 31
0.0
  0
LINE
  5
48E
330
1F
100
AcDbEntity
  8
D-0
  6
Continuous
 62
     7
370
     9
100
AcDbLine
 10
-531.4101776328253
 20
-480.9746616826834
 30
0.0
 11
-531.4101776328253
 21
-479.4743889318289
 31
0.0
  0
LINE
  5
48F
330
1F
100
AcDbEntity
  8
D-0
  6
Continuous
 62
     7
370
     9
100
AcDbLine
 10
-531.4101776328253
 20
-479.4743889318289
 30
0.0
 11
-529.9099001135992
 21
-479.4743889318289
 31
0.0
  0
LINE
  5
490
330
1F
100
AcDbEntity
  8
D-0
  6
Continuous
 62
     7
370
     9
100
AcDbLine
 10
-529.9099001135992
 20
-479.4743889318289
 30
0.0
 11
-529.9099001135992
 21
-480.9746616826834
 31
0.0
  0
LINE
  5
491
330
1F
100
AcDbEntity
  8
D-0
  6
Continuous
 62
     7
370
     9
100
AcDbLine
 10
-529.9099001135992
 20
-480.9746616826834
 30
0.0
 11
-531.4101776328253
 21
-480.9746616826834
 31
0.0
  0
LINE
  5
492
330
1F
100
AcDbEntity
  8
D-0
  6
Continuous
 62
     7
370
     9
100
AcDbLine
 10
-682.1813234534429
 20
-470.036208008367
 30
0.0
 11
-682.1813234534429
 21
-468.5359257207693
 31
0.0
  0
LINE
  5
493
330
1F
100
AcDbEntity
  8
D-0
  6
Continuous
 62
     7
370
     9
100
AcDbLine
 10
-682.1813234534429
 20
-468.5359257207693
 30
0.0
 11
-680.6810507025884
 21
-468.5359257207693
 31
0.0
  0
LINE
  5
494
330
1F
100
AcDbEntity
  8
D-0
  6
Continuous
 62
     7
370
     9
100
AcDbLine
 10
-680.6810507025884
 20
-468.5359257207693
 30
0.0
 11
-680.6810507025884
 21
-470.036208008367
 31
0.0
  0
LINE
  5
495
330
1F
100
AcDbEntity
  8
D-0
  6
Continuous
 62
     7
370
     9
100
AcDbLine
 10
-680.6810507025884
 20
-470.036208008367
 30
0.0
 11
-682.1813234534429
 21
-470.036208008367
 31
0.0
  0
LINE
  5
496
330
1F
100
AcDbEntity
  8
D-0
  6
Continuous
 62
     7
370
     9
100
AcDbLine
 10
-622.9430803504156
 20
-574.6896236882986
 30
0.0
 11
-622.9430803504156
 21
-573.189341400701
 31
0.0
  0
LINE
  5
497
330
1F
100
AcDbEntity
  8
D-0
  6
Continuous
 62
     7
370
     9
100
AcDbLine
 10
-622.9430803504156
 20
-573.189341400701
 30
0.0
 11
-621.443298741834
 21
-573.189341400701
 31
0.0
  0
LINE
  5
498
330
1F
100
AcDbEntity
  8
D-0
  6
Continuous
 62
     7
370
     9
100
AcDbLine
 10
-621.443298741834
 20
-573.189341400701
 30
0.0
 11
-621.443298741834
 21
-574.6896236882986
 31
0.0
  0
LINE
  5
499
330
1F
100
AcDbEntity
  8
D-0
  6
Continuous
 62
     7
370
     9
100
AcDbLine
 10
-621.443298741834
 20
-574.6896236882986
 30
0.0
 11
-622.9430803504156
 21
-574.6896236882986
 31
0.0
  0
LINE
  5
49A
330
1F
100
AcDbEntity
  8
D-0
  6
Continuous
 62
     7
370
     9
100
AcDbLine
 10
-636.7656692710088
 20
-633.9273708806815
 30
0.0
 11
-636.7656692710088
 21
-632.4270885930838
 31
0.0
  0
LINE
  5
49B
330
1F
100
AcDbEntity
  8
D-0
  6
Continuous
 62
     7
370
     9
100
AcDbLine
 10
-636.7656692710088
 20
-632.4270885930838
 30
0.0
 11
-635.2653869834112
 21
-632.4270885930838
 31
0.0
  0
LINE
  5
49C
330
1F
100
AcDbEntity
  8
D-0
  6
Continuous
 62
     7
370
     9
100
AcDbLine
 10
-635.2653869834112
 20
-632.4270885930838
 30
0.0
 11
-635.2653869834112
 21
-633.9273708806815
 31
0.0
  0
LINE
  5
49D
330
1F
100
AcDbEntity
  8
D-0
  6
Continuous
 62
     7
370
     9
100
AcDbLine
 10
-635.2653869834112
 20
-633.9273708806815
 30
0.0
 11
-636.7656692710088
 21
-633.9273708806815
 31
0.0
  0
LINE
  5
49E
330
1F
100
AcDbEntity
  8
D-0
  6
Continuous
 62
     7
370
     9
100
AcDbLine
 10
-667.3717626776861
 20
-644.7875660405936
 30
0.0
 11
-667.3717626776861
 21
-643.2872837529959
 31
0.0
  0
LINE
  5
49F
330
1F
100
AcDbEntity
  8
D-0
  6
Continuous
 62
     7
370
     9
100
AcDbLine
 10
-667.3717626776861
 20
-643.2872837529959
 30
0.0
 11
-665.8714899268316
 21
-643.2872837529959
 31
0.0
  0
LINE
  5
4A0
330
1F
100
AcDbEntity
  8
D-0
  6
Continuous
 62
     7
370
     9
100
AcDbLine
 10
-665.8714899268316
 20
-643.2872837529959
 30
0.0
 11
-665.8714899268316
 21
-644.7875660405936
 31
0.0
  0
LINE
  5
4A1
330
1F
100
AcDbEntity
  8
D-0
  6
Continuous
 62
     7
370
     9
100
AcDbLine
 10
-665.8714899268316
 20
-644.7875660405936
 30
0.0
 11
-667.3717626776861
 21
-644.7875660405936
 31
0.0
  0
LINE
  5
4A2
330
1F
100
AcDbEntity
  8
D-0
  6
Continuous
 62
     7
370
     9
100
AcDbLine
 10
-690.2252611365484
 20
-578.6389988408865
 30
0.0
 11
-690.2252611365484
 21
-577.1387165532889
 31
0.0
  0
LINE
  5
4A3
330
1F
100
AcDbEntity
  8
D-0
  6
Continuous
 62
     7
370
     9
100
AcDbLine
 10
-690.2252611365484
 20
-577.1387165532889
 30
0.0
 11
-688.7254747595953
 21
-577.1387165532889
 31
0.0
  0
LINE
  5
4A4
330
1F
100
AcDbEntity
  8
D-0
  6
Continuous
 62
     7
370
     9
100
AcDbLine
 10
-688.7254747595953
 20
-577.1387165532889
 30
0.0
 11
-688.7254747595953
 21
-578.6389988408865
 31
0.0
  0
LINE
  5
4A5
330
1F
100
AcDbEntity
  8
D-0
  6
Continuous
 62
     7
370
     9
100
AcDbLine
 10
-688.7254747595953
 20
-578.6389988408865
 30
0.0
 11
-690.2252611365484
 21
-578.6389988408865
 31
0.0
  0
LINE
  5
4A6
330
1F
100
AcDbEntity
  8
D-0
  6
Continuous
 62
     7
370
     9
100
AcDbLine
 10
-664.4098505225347
 20
-556.918646668035
 30
0.0
 11
-664.4098505225347
 21
-555.4183643804373
 31
0.0
  0
LINE
  5
4A7
330
1F
100
AcDbEntity
  8
D-0
  6
Continuous
 62
     7
370
     9
100
AcDbLine
 10
-664.4098505225347
 20
-555.4183643804373
 30
0.0
 11
-662.9095777716802
 21
-555.4183643804373
 31
0.0
  0
LINE
  5
4A8
330
1F
100
AcDbEntity
  8
D-0
  6
Continuous
 62
     7
370
     9
100
AcDbLine
 10
-662.9095777716802
 20
-555.4183643804373
 30
0.0
 11
-662.9095777716802
 21
-556.918646668035
 31
0.0
  0
LINE
  5
4A9
330
1F
100
AcDbEntity
  8
D-0
  6
Continuous
 62
     7
370
     9
100
AcDbLine
 10
-662.9095777716802
 20
-556.918646668035
 30
0.0
 11
-664.4098505225347
 21
-556.918646668035
 31
0.0
  0
LINE
  5
4AA
330
1F
100
AcDbEntity
  8
D-0
  6
Continuous
 62
     7
370
     9
100
AcDbLine
 10
-601.2227210250066
 20
-609.4115704046072
 30
0.0
 11
-601.2227210250066
 21
-607.9112881170096
 31
0.0
  0
LINE
  5
4AB
330
1F
100
AcDbEntity
  8
D-0
  6
Continuous
 62
     7
370
     9
100
AcDbLine
 10
-601.2227210250066
 20
-607.9112881170096
 30
0.0
 11
-599.7229370322393
 21
-607.9112881170096
 31
0.0
  0
LINE
  5
4AC
330
1F
100
AcDbEntity
  8
D-0
  6
Continuous
 62
     7
370
     9
100
AcDbLine
 10
-599.7229370322393
 20
-607.9112881170096
 30
0.0
 11
-599.7229370322393
 21
-609.4115704046072
 31
0.0
  0
LINE
  5
4AD
330
1F
100
AcDbEntity
  8
D-0
  6
Continuous
 62
     7
370
     9
100
AcDbLine
 10
-599.7229370322393
 20
-609.4115704046072
 30
0.0
 11
-601.2227210250066
 21
-609.4115704046072
 31
0.0
  0
LINE
  5
4AE
330
1F
100
AcDbEntity
  8
D-0
  6
Continuous
 62
     7
370
     9
100
AcDbLine
 10
-678.231948300855
 20
-747.2906177984061
 30
0.0
 11
-678.231948300855
 21
-745.7903355108084
 31
0.0
  0
LINE
  5
4AF
330
1F
100
AcDbEntity
  8
D-0
  6
Continuous
 62
     7
370
     9
100
AcDbLine
 10
-678.231948300855
 20
-745.7903355108084
 30
0.0
 11
-676.7321619239019
 21
-745.7903355108084
 31
0.0
  0
LINE
  5
4B0
330
1F
100
AcDbEntity
  8
D-0
  6
Continuous
 62
     7
370
     9
100
AcDbLine
 10
-676.7321619239019
 20
-745.7903355108084
 30
0.0
 11
-676.7321619239019
 21
-747.2906177984061
 31
0.0
  0
LINE
  5
4B1
330
1F
100
AcDbEntity
  8
D-0
  6
Continuous
 62
     7
370
     9
100
AcDbLine
 10
-676.7321619239019
 20
-747.2906177984061
 30
0.0
 11
-678.231948300855
 21
-747.2906177984061
 31
0.0
  0
LINE
  5
4B2
330
1F
100
AcDbEntity
  8
D-0
  6
Continuous
 62
     7
370
     9
100
AcDbLine
 10
-607.8416880812811
 20
-751.0026615606131
 30
0.0
 11
-607.8416880812811
 21
-749.5023792730154
 31
0.0
  0
LINE
  5
4B3
330
1F
100
AcDbEntity
  8
D-0
  6
Continuous
 62
     7
370
     9
100
AcDbLine
 10
-607.8416880812811
 20
-749.5023792730154
 30
0.0
 11
-606.3419040885137
 21
-749.5023792730154
 31
0.0
  0
LINE
  5
4B4
330
1F
100
AcDbEntity
  8
D-0
  6
Continuous
 62
     7
370
     9
100
AcDbLine
 10
-606.3419040885137
 20
-749.5023792730154
 30
0.0
 11
-606.3419040885137
 21
-751.0026615606131
 31
0.0
  0
LINE
  5
4B5
330
1F
100
AcDbEntity
  8
D-0
  6
Continuous
 62
     7
370
     9
100
AcDbLine
 10
-606.3419040885137
 20
-751.0026615606131
 30
0.0
 11
-607.8416880812811
 21
-751.0026615606131
 31
0.0
  0
LINE
  5
4B6
330
1F
100
AcDbEntity
  8
D-0
  6
Continuous
 62
     7
370
     9
100
AcDbLine
 10
-583.4512463059591
 20
-776.9092625127615
 30
0.0
 11
-583.4512463059591
 21
-775.4089802251639
 31
0.0
  0
LINE
  5
4B7
330
1F
100
AcDbEntity
  8
D-0
  6
Continuous
 62
     7
370
     9
100
AcDbLine
 10
-583.4512463059591
 20
-775.4089802251639
 30
0.0
 11
-581.9514621641802
 21
-775.4089802251639
 31
0.0
  0
LINE
  5
4B8
330
1F
100
AcDbEntity
  8
D-0
  6
Continuous
 62
     7
370
     9
100
AcDbLine
 10
-581.9514621641802
 20
-775.4089802251639
 30
0.0
 11
-581.9514621641802
 21
-776.9092625127615
 31
0.0
  0
LINE
  5
4B9
330
1F
100
AcDbEntity
  8
D-0
  6
Continuous
 62
     7
370
     9
100
AcDbLine
 10
-581.9514621641802
 20
-776.9092625127615
 30
0.0
 11
-583.4512463059591
 21
-776.9092625127615
 31
0.0
  0
LINE
  5
4BA
330
1F
100
AcDbEntity
  8
D-0
  6
Continuous
 62
     7
370
     9
100
AcDbLine
 10
-577.1726658787893
 20
-815.1212757573904
 30
0.0
 11
-577.1726658787893
 21
-813.6209934697928
 31
0.0
  0
LINE
  5
4BB
330
1F
100
AcDbEntity
  8
D-0
  6
Continuous
 62
     7
370
     9
100
AcDbLine
 10
-577.1726658787893
 20
-813.6209934697928
 30
0.0
 11
-575.6723865714239
 21
-813.6209934697928
 31
0.0
  0
LINE
  5
4BC
330
1F
100
AcDbEntity
  8
D-0
  6
Continuous
 62
     7
370
     9
100
AcDbLine
 10
-575.6723865714239
 20
-813.6209934697928
 30
0.0
 11
-575.6723865714239
 21
-815.1212757573904
 31
0.0
  0
LINE
  5
4BD
330
1F
100
AcDbEntity
  8
D-0
  6
Continuous
 62
     7
370
     9
100
AcDbLine
 10
-575.6723865714239
 20
-815.1212757573904
 30
0.0
 11
-577.1726658787893
 21
-815.1212757573904
 31
0.0
  0
LINE
  5
4BE
330
1F
100
AcDbEntity
  8
D-0
  6
Continuous
 62
     7
370
     9
100
AcDbLine
 10
-651.4013227667974
 20
-820.5798786626639
 30
0.0
 11
-651.4013227667974
 21
-819.0795963750662
 31
0.0
  0
LINE
  5
4BF
330
1F
100
AcDbEntity
  8
D-0
  6
Continuous
 62
     7
370
     9
100
AcDbLine
 10
-651.4013227667974
 20
-819.0795963750662
 30
0.0
 11
-649.9010404791998
 21
-819.0795963750662
 31
0.0
  0
LINE
  5
4C0
330
1F
100
AcDbEntity
  8
D-0
  6
Continuous
 62
     7
370
     9
100
AcDbLine
 10
-649.9010404791998
 20
-819.0795963750662
 30
0.0
 11
-649.9010404791998
 21
-820.5798786626639
 31
0.0
  0
LINE
  5
4C1
330
1F
100
AcDbEntity
  8
D-0
  6
Continuous
 62
     7
370
     9
100
AcDbLine
 10
-649.9010404791998
 20
-820.5798786626639
 30
0.0
 11
-651.4013227667974
 21
-820.5798786626639
 31
0.0
  0
LINE
  5
4C2
330
1F
100
AcDbEntity
  8
D-0
  6
Continuous
 62
     7
370
     9
100
AcDbLine
 10
-686.1302122321295
 20
-811.2833851323904
 30
0.0
 11
-686.1302122321295
 21
-809.7831028447928
 31
0.0
  0
LINE
  5
4C3
330
1F
100
AcDbEntity
  8
D-0
  6
Continuous
 62
     7
370
     9
100
AcDbLine
 10
-686.1302122321295
 20
-809.7831028447928
 30
0.0
 11
-684.6299299445318
 21
-809.7831028447928
 31
0.0
  0
LINE
  5
4C4
330
1F
100
AcDbEntity
  8
D-0
  6
Continuous
 62
     7
370
     9
100
AcDbLine
 10
-684.6299299445318
 20
-809.7831028447928
 30
0.0
 11
-684.6299299445318
 21
-811.2833851323904
 31
0.0
  0
LINE
  5
4C5
330
1F
100
AcDbEntity
  8
D-0
  6
Continuous
 62
     7
370
     9
100
AcDbLine
 10
-684.6299299445318
 20
-811.2833851323904
 30
0.0
 11
-686.1302122321295
 21
-811.2833851323904
 31
0.0
  0
LINE
  5
4C6
330
1F
100
AcDbEntity
  8
D-0
  6
Continuous
 62
     7
370
     9
100
AcDbLine
 10
-688.3414873328375
 20
-770.9854191289725
 30
0.0
 11
-688.3414873328375
 21
-769.4851368413748
 31
0.0
  0
LINE
  5
4C7
330
1F
100
AcDbEntity
  8
D-0
  6
Continuous
 62
     7
370
     9
100
AcDbLine
 10
-688.3414873328375
 20
-769.4851368413748
 30
0.0
 11
-686.8417104926275
 21
-769.4851368413748
 31
0.0
  0
LINE
  5
4C8
330
1F
100
AcDbEntity
  8
D-0
  6
Continuous
 62
     7
370
     9
100
AcDbLine
 10
-686.8417104926275
 20
-769.4851368413748
 30
0.0
 11
-686.8417104926275
 21
-770.9854191289725
 31
0.0
  0
LINE
  5
4C9
330
1F
100
AcDbEntity
  8
D-0
  6
Continuous
 62
     7
370
     9
100
AcDbLine
 10
-686.8417104926275
 20
-770.9854191289725
 30
0.0
 11
-688.3414873328375
 21
-770.9854191289725
 31
0.0
  0
LINE
  5
4CA
330
1F
100
AcDbEntity
  8
D-0
  6
Continuous
 62
     7
370
     9
100
AcDbLine
 10
-630.8418449607061
 20
-790.7313602910818
 30
0.0
 11
-630.8418449607061
 21
-789.2310780034842
 31
0.0
  0
LINE
  5
4CB
330
1F
100
AcDbEntity
  8
D-0
  6
Continuous
 62
     7
370
     9
100
AcDbLine
 10
-630.8418449607061
 20
-789.2310780034842
 30
0.0
 11
-629.3415626731085
 21
-789.2310780034842
 31
0.0
  0
LINE
  5
4CC
330
1F
100
AcDbEntity
  8
D-0
  6
Continuous
 62
     7
370
     9
100
AcDbLine
 10
-629.3415626731085
 20
-789.2310780034842
 30
0.0
 11
-629.3415626731085
 21
-790.7313602910818
 31
0.0
  0
LINE
  5
4CD
330
1F
100
AcDbEntity
  8
D-0
  6
Continuous
 62
     7
370
     9
100
AcDbLine
 10
-629.3415626731085
 20
-790.7313602910818
 30
0.0
 11
-630.8418449607061
 21
-790.7313602910818
 31
0.0
  0
LINE
  5
4CE
330
1F
100
AcDbEntity
  8
D-0
  6
Continuous
 62
     7
370
     9
100
AcDbLine
 10
-642.6894935813116
 20
-757.1633213506522
 30
0.0
 11
-642.6894935813116
 21
-755.6630390630545
 31
0.0
  0
LINE
  5
4CF
330
1F
100
AcDbEntity
  8
D-0
  6
Continuous
 62
     7
370
     9
100
AcDbLine
 10
-642.6894935813116
 20
-755.6630390630545
 30
0.0
 11
-641.1892112937139
 21
-755.6630390630545
 31
0.0
  0
LINE
  5
4D0
330
1F
100
AcDbEntity
  8
D-0
  6
Continuous
 62
     7
370
     9
100
AcDbLine
 10
-641.1892112937139
 20
-755.6630390630545
 30
0.0
 11
-641.1892112937139
 21
-757.1633213506522
 31
0.0
  0
LINE
  5
4D1
330
1F
100
AcDbEntity
  8
D-0
  6
Continuous
 62
     7
370
     9
100
AcDbLine
 10
-641.1892112937139
 20
-757.1633213506522
 30
0.0
 11
-642.6894935813116
 21
-757.1633213506522
 31
0.0
  0
LINE
  5
4D2
330
1F
100
AcDbEntity
  8
D-0
  6
Continuous
 62
     7
370
     9
100
AcDbLine
 10
-587.4006280150579
 20
-642.9795902715506
 30
0.0
 11
-587.4006280150579
 21
-641.4793079839529
 31
0.0
  0
LINE
  5
4D3
330
1F
100
AcDbEntity
  8
D-0
  6
Continuous
 62
     7
370
     9
100
AcDbLine
 10
-587.4006280150579
 20
-641.4793079839529
 30
0.0
 11
-585.9008440222906
 21
-641.4793079839529
 31
0.0
  0
LINE
  5
4D4
330
1F
100
AcDbEntity
  8
D-0
  6
Continuous
 62
     7
370
     9
100
AcDbLine
 10
-585.9008440222906
 20
-641.4793079839529
 30
0.0
 11
-585.9008440222906
 21
-642.9795902715506
 31
0.0
  0
LINE
  5
4D5
330
1F
100
AcDbEntity
  8
D-0
  6
Continuous
 62
     7
370
     9
100
AcDbLine
 10
-585.9008440222906
 20
-642.9795902715506
 30
0.0
 11
-587.4006280150579
 21
-642.9795902715506
 31
0.0
  0
LINE
  5
4D6
330
1F
100
AcDbEntity
  8
D-0
  6
Continuous
 62
     7
370
     9
100
AcDbLine
 10
-575.5534738149809
 20
-543.0960529790701
 30
0.0
 11
-575.5534738149809
 21
-541.5957706914725
 31
0.0
  0
LINE
  5
4D7
330
1F
100
AcDbEntity
  8
D-0
  6
Continuous
 62
     7
370
     9
100
AcDbLine
 10
-575.5534738149809
 20
-541.5957706914725
 30
0.0
 11
-574.0531942095922
 21
-541.5957706914725
 31
0.0
  0
LINE
  5
4D8
330
1F
100
AcDbEntity
  8
D-0
  6
Continuous
 62
     7
370
     9
100
AcDbLine
 10
-574.0531942095922
 20
-541.5957706914725
 30
0.0
 11
-574.0531942095922
 21
-543.0960529790701
 31
0.0
  0
LINE
  5
4D9
330
1F
100
AcDbEntity
  8
D-0
  6
Continuous
 62
     7
370
     9
100
AcDbLine
 10
-574.0531942095922
 20
-543.0960529790701
 30
0.0
 11
-575.5534738149809
 21
-543.0960529790701
 31
0.0
  0
LINE
  5
4DA
330
1F
100
AcDbEntity
  8
D-0
  6
Continuous
 62
     7
370
     9
100
AcDbLine
 10
-479.4424375739263
 20
-554.3203991399588
 30
0.0
 11
-479.4424375739263
 21
-552.8201168523611
 31
0.0
  0
LINE
  5
4DB
330
1F
100
AcDbEntity
  8
D-0
  6
Continuous
 62
     7
370
     9
100
AcDbLine
 10
-479.4424375739263
 20
-552.8201168523611
 30
0.0
 11
-477.9426607337163
 21
-552.8201168523611
 31
0.0
  0
LINE
  5
4DC
330
1F
100
AcDbEntity
  8
D-0
  6
Continuous
 62
     7
370
     9
100
AcDbLine
 10
-477.9426607337163
 20
-552.8201168523611
 30
0.0
 11
-477.9426607337163
 21
-554.3203991399588
 31
0.0
  0
LINE
  5
4DD
330
1F
100
AcDbEntity
  8
D-0
  6
Continuous
 62
     7
370
     9
100
AcDbLine
 10
-477.9426607337163
 20
-554.3203991399588
 30
0.0
 11
-479.4424375739263
 21
-554.3203991399588
 31
0.0
  0
LINE
  5
4DE
330
1F
100
AcDbEntity
  8
D-0
  6
Continuous
 62
     7
370
     9
100
AcDbLine
 10
-531.9769939627813
 20
-545.695273254949
 30
0.0
 11
-531.9769939627813
 21
-544.1949909673514
 31
0.0
  0
LINE
  5
4DF
330
1F
100
AcDbEntity
  8
D-0
  6
Continuous
 62
     7
370
     9
100
AcDbLine
 10
-531.9769939627813
 20
-544.1949909673514
 30
0.0
 11
-530.4772123541998
 21
-544.1949909673514
 31
0.0
  0
LINE
  5
4E0
330
1F
100
AcDbEntity
  8
D-0
  6
Continuous
 62
     7
370
     9
100
AcDbLine
 10
-530.4772123541998
 20
-544.1949909673514
 30
0.0
 11
-530.4772123541998
 21
-545.695273254949
 31
0.0
  0
LINE
  5
4E1
330
1F
100
AcDbEntity
  8
D-0
  6
Continuous
 62
     7
370
     9
100
AcDbLine
 10
-530.4772123541998
 20
-545.695273254949
 30
0.0
 11
-531.9769939627813
 21
-545.695273254949
 31
0.0
  0
LINE
  5
4E2
330
1F
100
AcDbEntity
  8
D-0
  6
Continuous
 62
     7
370
     9
100
AcDbLine
 10
-668.3587393012212
 20
-606.2831753240408
 30
0.0
 11
-668.3587393012212
 21
-604.7829121099295
 31
0.0
  0
LINE
  5
4E3
330
1F
100
AcDbEntity
  8
D-0
  6
Continuous
 62
     7
370
     9
100
AcDbLine
 10
-668.3587393012212
 20
-604.7829121099295
 30
0.0
 11
-666.8589529242681
 21
-604.7829121099295
 31
0.0
  0
LINE
  5
4E4
330
1F
100
AcDbEntity
  8
D-0
  6
Continuous
 62
     7
370
     9
100
AcDbLine
 10
-666.8589529242681
 20
-604.7829121099295
 30
0.0
 11
-666.8589529242681
 21
-606.2831753240408
 31
0.0
  0
LINE
  5
4E5
330
1F
100
AcDbEntity
  8
D-0
  6
Continuous
 62
     7
370
     9
100
AcDbLine
 10
-666.8589529242681
 20
-606.2831753240408
 30
0.0
 11
-668.3587393012212
 21
-606.2831753240408
 31
0.0
  0
LINE
  5
4E6
330
1F
100
AcDbEntity
  8
D-0
  6
Continuous
 62
     7
370
     9
100
AcDbLine
 10
-637.2383436408209
 20
-464.5122211919607
 30
0.0
 11
-637.2383436408209
 21
-463.0119484411063
 31
0.0
  0
LINE
  5
4E7
330
1F
100
AcDbEntity
  8
D-0
  6
Continuous
 62
     7
370
     9
100
AcDbLine
 10
-637.2383436408209
 20
-463.0119484411063
 30
0.0
 11
-635.7380661215948
 21
-463.0119484411063
 31
0.0
  0
LINE
  5
4E8
330
1F
100
AcDbEntity
  8
D-0
  6
Continuous
 62
     7
370
     9
100
AcDbLine
 10
-635.7380661215948
 20
-463.0119484411063
 30
0.0
 11
-635.7380661215948
 21
-464.5122211919607
 31
0.0
  0
LINE
  5
4E9
330
1F
100
AcDbEntity
  8
D-0
  6
Continuous
 62
     7
370
     9
100
AcDbLine
 10
-635.7380661215948
 20
-464.5122211919607
 30
0.0
 11
-637.2383436408209
 21
-464.5122211919607
 31
0.0
  0
LINE
  5
4EA
330
1F
100
AcDbEntity
  8
D-0
  6
Continuous
 62
     7
370
     9
100
AcDbLine
 10
-581.4772985723184
 20
-575.8435696111502
 30
0.0
 11
-581.4772985723184
 21
-574.3432873235525
 31
0.0
  0
LINE
  5
4EB
330
1F
100
AcDbEntity
  8
D-0
  6
Continuous
 62
     7
370
     9
100
AcDbLine
 10
-581.4772985723184
 20
-574.3432873235525
 30
0.0
 11
-579.9770191531943
 21
-574.3432873235525
 31
0.0
  0
LINE
  5
4EC
330
1F
100
AcDbEntity
  8
D-0
  6
Continuous
 62
     7
370
     9
100
AcDbLine
 10
-579.9770191531943
 20
-574.3432873235525
 30
0.0
 11
-579.9770191531943
 21
-575.8435696111502
 31
0.0
  0
LINE
  5
4ED
330
1F
100
AcDbEntity
  8
D-0
  6
Continuous
 62
     7
370
     9
100
AcDbLine
 10
-579.9770191531943
 20
-575.8435696111502
 30
0.0
 11
-581.4772985723184
 21
-575.8435696111502
 31
0.0
  0
LINE
  5
4EE
330
1F
100
AcDbEntity
  8
D-0
  6
Continuous
 62
     7
370
     9
100
AcDbLine
 10
-640.7145532813238
 20
-598.3849209295096
 30
0.0
 11
-640.7145532813238
 21
-596.8846386419119
 31
0.0
  0
LINE
  5
4EF
330
1F
100
AcDbEntity
  8
D-0
  6
Continuous
 62
     7
370
     9
100
AcDbLine
 10
-640.7145532813238
 20
-596.8846386419119
 30
0.0
 11
-639.2147716727422
 21
-596.8846386419119
 31
0.0
  0
LINE
  5
4F0
330
1F
100
AcDbEntity
  8
D-0
  6
Continuous
 62
     7
370
     9
100
AcDbLine
 10
-639.2147716727422
 20
-596.8846386419119
 30
0.0
 11
-639.2147716727422
 21
-598.3849209295096
 31
0.0
  0
LINE
  5
4F1
330
1F
100
AcDbEntity
  8
D-0
  6
Continuous
 62
     7
370
     9
100
AcDbLine
 10
-639.2147716727422
 20
-598.3849209295096
 30
0.0
 11
-640.7145532813238
 21
-598.3849209295096
 31
0.0
  0
LINE
  5
4F2
330
1F
100
AcDbEntity
  8
D-0
  6
Continuous
 62
     7
370
     9
100
AcDbLine
 10
-628.8669046607183
 20
-671.4447468267264
 30
0.0
 11
-628.8669046607183
 21
-669.9444645391287
 31
0.0
  0
LINE
  5
4F3
330
1F
100
AcDbEntity
  8
D-0
  6
Continuous
 62
     7
370
     9
100
AcDbLine
 10
-628.8669046607183
 20
-669.9444645391287
 30
0.0
 11
-627.3671230521368
 21
-669.9444645391287
 31
0.0
  0
LINE
  5
4F4
330
1F
100
AcDbEntity
  8
D-0
  6
Continuous
 62
     7
370
     9
100
AcDbLine
 10
-627.3671230521368
 20
-669.9444645391287
 30
0.0
 11
-627.3671230521368
 21
-671.4447468267264
 31
0.0
  0
LINE
  5
4F5
330
1F
100
AcDbEntity
  8
D-0
  6
Continuous
 62
     7
370
     9
100
AcDbLine
 10
-627.3671230521368
 20
-671.4447468267264
 30
0.0
 11
-628.8669046607183
 21
-671.4447468267264
 31
0.0
  0
LINE
  5
4F6
330
1F
100
AcDbEntity
  8
D-0
  6
Continuous
 62
     7
370
     9
100
AcDbLine
 10
-677.2444757666754
 20
-670.4572742925467
 30
0.0
 11
-677.2444757666754
 21
-668.956992004949
 31
0.0
  0
LINE
  5
4F7
330
1F
100
AcDbEntity
  8
D-0
  6
Continuous
 62
     7
370
     9
100
AcDbLine
 10
-677.2444757666754
 20
-668.956992004949
 30
0.0
 11
-675.7441934790777
 21
-668.956992004949
 31
0.0
  0
LINE
  5
4F8
330
1F
100
AcDbEntity
  8
D-0
  6
Continuous
 62
     7
370
     9
100
AcDbLine
 10
-675.7441934790777
 20
-668.956992004949
 30
0.0
 11
-675.7441934790777
 21
-670.4572742925467
 31
0.0
  0
LINE
  5
4F9
330
1F
100
AcDbEntity
  8
D-0
  6
Continuous
 62
     7
370
     9
100
AcDbLine
 10
-675.7441934790777
 20
-670.4572742925467
 30
0.0
 11
-677.2444757666754
 21
-670.4572742925467
 31
0.0
  0
LINE
  5
4FA
330
1F
100
AcDbEntity
  8
D-0
  6
Continuous
 62
     7
370
     9
100
AcDbLine
 10
-664.2914327826666
 20
-789.5630329595389
 30
0.0
 11
-664.2914327826666
 21
-788.0627506719412
 31
0.0
  0
LINE
  5
4FB
330
1F
100
AcDbEntity
  8
D-0
  6
Continuous
 62
     7
370
     9
100
AcDbLine
 10
-664.2914327826666
 20
-788.0627506719412
 30
0.0
 11
-662.7916559424566
 21
-788.0627506719412
 31
0.0
  0
LINE
  5
4FC
330
1F
100
AcDbEntity
  8
D-0
  6
Continuous
 62
     7
370
     9
100
AcDbLine
 10
-662.7916559424566
 20
-788.0627506719412
 30
0.0
 11
-662.7916559424566
 21
-789.5630329595389
 31
0.0
  0
LINE
  5
4FD
330
1F
100
AcDbEntity
  8
D-0
  6
Continuous
 62
     7
370
     9
100
AcDbLine
 10
-662.7916559424566
 20
-789.5630329595389
 30
0.0
 11
-664.2914327826666
 21
-789.5630329595389
 31
0.0
  0
LINE
  5
4FE
330
1F
100
AcDbEntity
  8
D-0
  6
Continuous
 62
     7
370
     9
100
AcDbLine
 10
-613.7655123915838
 20
-819.0706699834647
 30
0.0
 11
-613.7655123915838
 21
-817.570387695867
 31
0.0
  0
LINE
  5
4FF
330
1F
100
AcDbEntity
  8
D-0
  6
Continuous
 62
     7
370
     9
100
AcDbLine
 10
-613.7655123915838
 20
-817.570387695867
 30
0.0
 11
-612.2657283988165
 21
-817.570387695867
 31
0.0
  0
LINE
  5
500
330
1F
100
AcDbEntity
  8
D-0
  6
Continuous
 62
     7
370
     9
100
AcDbLine
 10
-612.2657283988165
 20
-817.570387695867
 30
0.0
 11
-612.2657283988165
 21
-819.0706699834647
 31
0.0
  0
LINE
  5
501
330
1F
100
AcDbEntity
  8
D-0
  6
Continuous
 62
     7
370
     9
100
AcDbLine
 10
-612.2657283988165
 20
-819.0706699834647
 30
0.0
 11
-613.7655123915838
 21
-819.0706699834647
 31
0.0
  0
LINE
  5
502
330
1F
100
AcDbEntity
  8
D-0
  6
Continuous
 62
     7
370
     9
100
AcDbLine
 10
-577.5279170122312
 20
-743.3412235723318
 30
0.0
 11
-577.5279170122312
 21
-741.8409794317068
 31
0.0
  0
LINE
  5
503
330
1F
100
AcDbEntity
  8
D-0
  6
Continuous
 62
     7
370
     9
100
AcDbLine
 10
-577.5279170122312
 20
-741.8409794317068
 30
0.0
 11
-576.0276374068426
 21
-741.8409794317068
 31
0.0
  0
LINE
  5
504
330
1F
100
AcDbEntity
  8
D-0
  6
Continuous
 62
     7
370
     9
100
AcDbLine
 10
-576.0276374068426
 20
-741.8409794317068
 30
0.0
 11
-576.0276374068426
 21
-743.3412235723318
 31
0.0
  0
LINE
  5
505
330
1F
100
AcDbEntity
  8
D-0
  6
Continuous
 62
     7
370
     9
100
AcDbLine
 10
-576.0276374068426
 20
-743.3412235723318
 30
0.0
 11
-577.5279170122312
 21
-743.3412235723318
 31
0.0
  0
LINE
  5
506
330
1F
100
AcDbEntity
  8
D-0
  6
Continuous
 62
     7
370
     9
100
AcDbLine
 10
-694.5606168952154
 20
-625.277964447576
 30
0.0
 11
-694.5606168952154
 21
-623.7776821599783
 31
0.0
  0
LINE
  5
507
330
1F
100
AcDbEntity
  8
D-0
  6
Continuous
 62
     7
370
     9
100
AcDbLine
 10
-694.5606168952154
 20
-623.7776821599783
 30
0.0
 11
-693.0603346076177
 21
-623.7776821599783
 31
0.0
  0
LINE
  5
508
330
1F
100
AcDbEntity
  8
D-0
  6
Continuous
 62
     7
370
     9
100
AcDbLine
 10
-693.0603346076177
 20
-623.7776821599783
 30
0.0
 11
-693.0603346076177
 21
-625.277964447576
 31
0.0
  0
LINE
  5
509
330
1F
100
AcDbEntity
  8
D-0
  6
Continuous
 62
     7
370
     9
100
AcDbLine
 10
-693.0603346076177
 20
-625.277964447576
 30
0.0
 11
-694.5606168952154
 21
-625.277964447576
 31
0.0
  0
LINE
  5
50A
330
1F
100
AcDbEntity
  8
D-0
  6
Continuous
 62
     7
370
     9
100
AcDbLine
 10
-577.6389020528959
 20
-669.0119999395193
 30
0.0
 11
-577.6389020528959
 21
-667.5117176519217
 31
0.0
  0
LINE
  5
50B
330
1F
100
AcDbEntity
  8
D-0
  6
Continuous
 62
     7
370
     9
100
AcDbLine
 10
-577.6389020528959
 20
-667.5117176519217
 30
0.0
 11
-576.1386224475073
 21
-667.5117176519217
 31
0.0
  0
LINE
  5
50C
330
1F
100
AcDbEntity
  8
D-0
  6
Continuous
 62
     7
370
     9
100
AcDbLine
 10
-576.1386224475073
 20
-667.5117176519217
 30
0.0
 11
-576.1386224475073
 21
-669.0119999395193
 31
0.0
  0
LINE
  5
50D
330
1F
100
AcDbEntity
  8
D-0
  6
Continuous
 62
     7
370
     9
100
AcDbLine
 10
-576.1386224475073
 20
-669.0119999395193
 30
0.0
 11
-577.6389020528959
 21
-669.0119999395193
 31
0.0
  0
LINE
  5
50E
330
1F
100
AcDbEntity
  8
D-0
  6
Continuous
 62
     7
370
     9
100
AcDbLine
 10
-602.3692354407476
 20
-792.357985352117
 30
0.0
 11
-602.3692354407476
 21
-790.8577030645193
 31
0.0
  0
LINE
  5
50F
330
1F
100
AcDbEntity
  8
D-0
  6
Continuous
 62
     7
370
     9
100
AcDbLine
 10
-602.3692354407476
 20
-790.8577030645193
 30
0.0
 11
-600.8689555373358
 21
-790.8577030645193
 31
0.0
  0
LINE
  5
510
330
1F
100
AcDbEntity
  8
D-0
  6
Continuous
 62
     7
370
     9
100
AcDbLine
 10
-600.8689555373358
 20
-790.8577030645193
 30
0.0
 11
-600.8689555373358
 21
-792.357985352117
 31
0.0
  0
LINE
  5
511
330
1F
100
AcDbEntity
  8
D-0
  6
Continuous
 62
     7
370
     9
100
AcDbLine
 10
-600.8689555373358
 20
-792.357985352117
 30
0.0
 11
-602.3692354407476
 21
-792.357985352117
 31
0.0
  0
LINE
  5
512
330
1F
100
AcDbEntity
  8
D-0
  6
Continuous
 62
     7
370
     9
100
AcDbLine
 10
-570.5254569497274
 20
-479.8960369573416
 30
0.0
 11
-570.5254569497274
 21
-478.395754669744
 31
0.0
  0
LINE
  5
513
330
1F
100
AcDbEntity
  8
D-0
  6
Continuous
 62
     7
370
     9
100
AcDbLine
 10
-570.5254569497274
 20
-478.395754669744
 30
0.0
 11
-569.025177642362
 21
-478.395754669744
 31
0.0
  0
LINE
  5
514
330
1F
100
AcDbEntity
  8
D-0
  6
Continuous
 62
     7
370
     9
100
AcDbLine
 10
-569.025177642362
 20
-478.395754669744
 30
0.0
 11
-569.025177642362
 21
-479.8960369573416
 31
0.0
  0
LINE
  5
515
330
1F
100
AcDbEntity
  8
D-0
  6
Continuous
 62
     7
370
     9
100
AcDbLine
 10
-569.025177642362
 20
-479.8960369573416
 30
0.0
 11
-570.5254569497274
 21
-479.8960369573416
 31
0.0
  0
LINE
  5
516
330
1F
100
AcDbEntity
  8
D-4
  6
Continuous
 62
     7
370
     9
100
AcDbLine
 10
-404.6880850043462
 20
-467.406756256658
 30
0.0
 11
-404.6880850043462
 21
-529.8903149114432
 31
0.0
  0
LINE
  5
517
330
1F
100
AcDbEntity
  8
D-5
  6
Continuous
 62
     7
370
     9
100
AcDbLine
 10
-414.6886381354497
 20
-405.5807178960623
 30
0.0
 11
-400.8769544806646
 21
-384.7413032995047
 31
0.0
  0
LINE
  5
518
330
1F
100
AcDbEntity
  8
D-5
  6
Continuous
 62
     7
370
     9
100
AcDbLine
 10
-414.6886381354497
 20
-405.5807178960623
 30
0.0
 11
-395.9539732184575
 21
-389.0266149984183
 31
0.0
  0
LINE
  5
519
330
1F
100
AcDbEntity
  8
D-5
  6
Continuous
 62
     7
370
     9
100
AcDbLine
 10
-414.6886381354497
 20
-405.5807178960623
 30
0.0
 11
-292.9420408454106
 21
-265.6999748693289
 31
0.0
  0
LINE
  5
51A
330
1F
100
AcDbEntity
  8
D-5
  6
Continuous
 62
     7
370
     9
100
AcDbLine
 10
-292.9420408454106
 20
-265.6999748693289
 30
0.0
 11
93.7614312920405
 21
-265.6999748693289
 31
0.0
  0
LINE
  5
51B
330
1F
100
AcDbEntity
  8
D-4
  6
Continuous
 62
     7
370
     9
100
AcDbLine
 10
-392.8612455573247
 20
-455.5809086309256
 30
0.0
 11
-303.1141981330083
 21
-455.5809086309256
 31
0.0
  0
LINE
  5
51C
330
1F
100
AcDbEntity
  8
D-4
  6
Continuous
 62
     7
370
     9
100
AcDbLine
 10
-392.8612455573247
 20
-405.5806702123465
 30
0.0
 11
-303.1141981330083
 21
-405.5806702123465
 31
0.0
  0
LINE
  5
51D
330
1F
100
AcDbEntity
  8
D-4
  6
Continuous
 62
     7
370
     9
100
AcDbLine
 10
-306.1147436347173
 20
-405.5806702123465
 30
0.0
 11
-306.1147436347173
 21
-320.580527161199
 31
0.0
  0
LINE
  5
51E
330
1F
100
AcDbEntity
  8
D-4
  6
Continuous
 62
     7
370
     9
100
AcDbLine
 10
-306.1147436347173
 20
-455.5809086309256
 30
0.0
 11
-306.1147436347173
 21
-405.5806702123465
 31
0.0
  0
LINE
  5
51F
330
1F
100
AcDbEntity
  8
D-4
  6
Continuous
 62
     7
370
     9
100
AcDbLine
 10
-549.6885165419744
 20
-526.8897694097342
 30
0.0
 11
-704.6875032630132
 21
-526.8897694097342
 31
0.0
  0
LINE
  5
520
330
1F
100
AcDbEntity
  8
D-9
  6
Continuous
 62
     4
370
     9
100
AcDbLine
 10
-689.6881422248052
 20
-398.0811947332205
 30
0.0
 11
-574.6883854117559
 21
-398.0811947332205
 31
0.0
  0
LINE
  5
521
330
1F
100
AcDbEntity
  8
D-1
  6
Continuous
 62
     2
370
     9
100
AcDbLine
 10
-549.6885499205755
 20
-323.5805272804083
 30
0.0
 11
-549.6885499205755
 21
-348.0804103360953
 31
0.0
  0
LINE
  5
522
330
1F
100
AcDbEntity
  8
D-1
  6
Continuous
 62
     2
370
     9
100
AcDbLine
 10
-549.6885499205755
 20
-442.580153320867
 30
0.0
 11
-549.6885499205755
 21
-418.0802696691336
 31
0.0
  0
LINE
  5
523
330
1F
100
AcDbEntity
  8
D-1
  6
Continuous
 62
     2
370
     9
100
AcDbLine
 10
-571.6883012499975
 20
-320.5809379499789
 30
0.0
 11
-552.6880153861212
 21
-320.5809379499789
 31
0.0
  0
LINE
  5
524
330
1F
100
AcDbEntity
  8
D-1
  6
Continuous
 62
     2
370
     9
100
AcDbLine
 10
-699.6881803717779
 20
-415.5804508672537
 30
0.0
 11
-699.6881803717779
 21
-408.0805462346854
 31
0.0
  0
LINE
  5
525
330
1F
100
AcDbEntity
  8
D-1
  6
Continuous
 62
     2
370
     9
100
AcDbLine
 10
-704.6885713782476
 20
-415.5804508672537
 30
0.0
 11
-704.6885713782476
 21
-408.0805462346854
 31
0.0
  0
LINE
  5
526
330
1F
100
AcDbEntity
  8
D-1
  6
Continuous
 62
     2
370
     9
100
AcDbLine
 10
-569.6886160817312
 20
-440.58046994074
 30
0.0
 11
-554.6883186545538
 21
-440.58046994074
 31
0.0
  0
LINE
  5
527
330
1F
100
AcDbEntity
  8
D-1
  6
Continuous
 62
     2
370
     9
100
AcDbLine
 10
-569.6883687224554
 20
-445.5807274328055
 30
0.0
 11
-552.6880153861212
 21
-445.5807274328055
 31
0.0
  0
LINE
  5
528
330
1F
100
AcDbEntity
  8
D-1
  6
Continuous
 62
     2
370
     9
100
AcDbLine
 10
-574.6883854117559
 20
-410.5801838384451
 30
0.0
 11
-574.6883854117559
 21
-323.5805272804083
 31
0.0
  0
LINE
  5
529
330
1F
100
AcDbEntity
  8
D-1
  6
Continuous
 62
     2
370
     9
100
AcDbLine
 10
-574.6883854117559
 20
-410.5801838384451
 30
0.0
 11
-624.6880563941168
 21
-410.5801838384451
 31
0.0
  0
LINE
  5
52A
330
1F
100
AcDbEntity
  8
D-1
  6
Continuous
 62
     2
370
     9
100
AcDbLine
 10
-699.6881803717779
 20
-420.5807083593191
 30
0.0
 11
-574.6883854117559
 21
-420.5807083593191
 31
0.0
  0
LINE
  5
52B
330
1F
100
AcDbEntity
  8
D-1
  6
Continuous
 62
     2
370
     9
100
AcDbLine
 10
-574.6883854117559
 20
-440.5807178960623
 30
0.0
 11
-574.6883854117559
 21
-420.5807083593191
 31
0.0
  0
LINE
  5
52C
330
1F
100
AcDbEntity
  8
D-1
  6
Continuous
 62
     2
370
     9
100
AcDbLine
 10
-569.6886160817312
 20
-420.5804604039969
 30
0.0
 11
-569.6886160817312
 21
-440.58046994074
 31
0.0
  0
LINE
  5
52D
330
1F
100
AcDbEntity
  8
D-1
  6
Continuous
 62
     2
370
     9
100
AcDbLine
 10
-574.6886327710317
 20
-415.5804508672537
 30
0.0
 11
-699.6881803717779
 21
-415.5804508672537
 31
0.0
  0
LINE
  5
52E
330
1F
100
AcDbEntity
  8
D-1
  6
Continuous
 62
     2
370
     9
100
AcDbLine
 10
-569.6886160817312
 20
-410.5804317937674
 30
0.0
 11
-569.6886160817312
 21
-325.5802121506514
 31
0.0
  0
LINE
  5
52F
330
1F
100
AcDbEntity
  8
D-9
  6
Continuous
 62
     4
370
     9
100
AcDbLine
 10
-574.6883854117559
 20
-403.6716049657645
 30
0.0
 11
-581.5969671156572
 21
-410.5801838384451
 31
0.0
  0
LINE
  5
530
330
1F
100
AcDbEntity
  8
D-9
  6
Continuous
 62
     4
370
     9
100
AcDbLine
 10
-576.1683228459524
 20
-398.0811947332205
 30
0.0
 11
-588.6674979176687
 21
-410.5801838384451
 31
0.0
  0
LINE
  5
531
330
1F
100
AcDbEntity
  8
D-9
  6
Continuous
 62
     4
370
     9
100
AcDbLine
 10
-583.2396581616567
 20
-398.0811947332205
 30
0.0
 11
-595.7388338294195
 21
-410.5801838384451
 31
0.0
  0
LINE
  5
532
330
1F
100
AcDbEntity
  8
D-9
  6
Continuous
 62
     4
370
     9
100
AcDbLine
 10
-590.310498162763
 20
-398.0811947332205
 30
0.0
 11
-602.8096732344793
 21
-410.5801838384451
 31
0.0
  0
LINE
  5
533
330
1F
100
AcDbEntity
  8
D-9
  6
Continuous
 62
     4
370
     9
100
AcDbLine
 10
-597.3818334784673
 20
-398.0811947332205
 30
0.0
 11
-609.8810085501837
 21
-410.5801838384451
 31
0.0
  0
LINE
  5
534
330
1F
100
AcDbEntity
  8
D-9
  6
Continuous
 62
     4
370
     9
100
AcDbLine
 10
-604.452675267713
 20
-398.0811947332205
 30
0.0
 11
-616.9520339217352
 21
-410.5801838384451
 31
0.0
  0
LINE
  5
535
330
1F
100
AcDbEntity
  8
D-9
  6
Continuous
 62
     4
370
     9
100
AcDbLine
 10
-611.5240105834173
 20
-398.0811947332205
 30
0.0
 11
-624.0233692374395
 21
-410.5801838384451
 31
0.0
  0
LINE
  5
536
330
1F
100
AcDbEntity
  8
D-9
  6
Continuous
 62
     4
370
     9
100
AcDbLine
 10
-646.87969534065
 20
-398.0811947332205
 30
0.0
 11
-651.8787845816778
 21
-403.0802792058768
 31
0.0
  0
LINE
  5
537
330
1F
100
AcDbEntity
  8
D-9
  6
Continuous
 62
     4
370
     9
100
AcDbLine
 10
-653.9505371298956
 20
-398.0811947332205
 30
0.0
 11
-658.949688359754
 21
-403.0802792058768
 31
0.0
  0
LINE
  5
538
330
1F
100
AcDbEntity
  8
D-9
  6
Continuous
 62
     4
370
     9
100
AcDbLine
 10
-689.306224271314
 20
-398.0811947332205
 30
0.0
 11
-694.3056806769537
 21
-403.0802792058768
 31
0.0
  0
LINE
  5
539
330
1F
100
AcDbEntity
  8
D-9
  6
Continuous
 62
     4
370
     9
100
AcDbLine
 10
-639.8083624091314
 20
-398.0811947332205
 30
0.0
 11
-644.8076280799078
 21
-403.0802792058768
 31
0.0
  0
LINE
  5
53A
330
1F
100
AcDbEntity
  8
D-9
  6
Continuous
 62
     4
370
     9
100
AcDbLine
 10
-625.6661829199957
 20
-398.0811947332205
 30
0.0
 11
-630.6653770651983
 21
-403.0802792058768
 31
0.0
  0
LINE
  5
53B
330
1F
100
AcDbEntity
  8
D-9
  6
Continuous
 62
     4
370
     9
100
AcDbLine
 10
-632.7375206198858
 20
-398.0811947332205
 30
0.0
 11
-637.7366956916021
 21
-403.0802792058768
 31
0.0
  0
LINE
  5
53C
330
1F
100
AcDbEntity
  8
D-9
  6
Continuous
 62
     4
370
     9
100
AcDbLine
 10
-661.0218748297857
 20
-398.0811947332205
 30
0.0
 11
-666.020959302442
 21
-403.0802792058768
 31
0.0
  0
LINE
  5
53D
330
1F
100
AcDbEntity
  8
D-9
  6
Continuous
 62
     4
370
     9
100
AcDbLine
 10
-668.0927118506597
 20
-398.0811947332205
 30
0.0
 11
-673.0918916907476
 21
-403.0802792058768
 31
0.0
  0
LINE
  5
53E
330
1F
100
AcDbEntity
  8
D-9
  6
Continuous
 62
     4
370
     9
100
AcDbLine
 10
-675.1635488715337
 20
-398.0811947332205
 30
0.0
 11
-680.1627573218511
 21
-403.0802792058768
 31
0.0
  0
LINE
  5
53F
330
1F
100
AcDbEntity
  8
D-9
  6
Continuous
 62
     4
370
     9
100
AcDbLine
 10
-682.2348913397955
 20
-398.0811947332205
 30
0.0
 11
-687.2341570105718
 21
-403.0802792058768
 31
0.0
  0
LINE
  5
540
330
1F
100
AcDbEntity
  8
D-1
  6
Continuous
 62
     2
370
     9
100
AcDbLine
 10
-629.6883854117559
 20
-408.0805462346854
 30
0.0
 11
-699.6881803717779
 21
-408.0805462346854
 31
0.0
  0
LINE
  5
541
330
1F
100
AcDbEntity
  8
D-1
  6
Continuous
 62
     2
370
     9
100
AcDbLine
 10
-629.6883854117559
 20
-410.5804508672537
 30
0.0
 11
-629.6883854117559
 21
-408.0805462346854
 31
0.0
  0
LINE
  5
542
330
1F
100
AcDbEntity
  8
D-1
  6
Continuous
 62
     2
370
     9
100
AcDbLine
 10
-629.6883854117559
 20
-403.0802792058768
 30
0.0
 11
-699.6881803717779
 21
-403.0802792058768
 31
0.0
  0
LINE
  5
543
330
1F
100
AcDbEntity
  8
D-1
  6
Continuous
 62
     2
370
     9
100
AcDbLine
 10
-624.6883854117559
 20
-408.0802792058768
 30
0.0
 11
-624.6883854117559
 21
-410.5801838384451
 31
0.0
  0
LINE
  5
544
330
1F
100
AcDbEntity
  8
D-9
  6
Continuous
 62
     4
370
     9
100
AcDbLine
 10
-618.5953458991216
 20
-398.0811947332205
 30
0.0
 11
-625.6484445777105
 21
-405.1342934118094
 31
0.0
  0
LINE
  5
545
330
1F
100
AcDbEntity
  8
D-3
  6
Continuous
 62
     3
370
     9
100
AcDbLine
 10
-566.1883327212499
 20
-325.5802121506514
 30
0.0
 11
-566.1883327212499
 21
-438.0802124486746
 31
0.0
  0
LINE
  5
546
330
1F
100
AcDbEntity
  8
D-3
  6
Continuous
 62
     3
370
     9
100
AcDbLine
 10
-404.6884474005864
 20
-415.5801361547293
 30
0.0
 11
-404.6884474005864
 21
-455.5801456914725
 31
0.0
  0
LINE
  5
547
330
1F
100
AcDbEntity
  8
D-3
  6
Continuous
 62
     3
370
     9
100
AcDbLine
 10
-529.688361569898
 20
-437.3998802648367
 30
0.0
 11
-529.688361569898
 21
-455.5801456914725
 31
0.0
  0
LINE
  5
548
330
1F
100
AcDbEntity
  8
D-3
  6
Continuous
 62
     3
370
     9
100
AcDbLine
 10
-532.6173052039312
 20
-430.3287857518973
 30
0.0
 11
-554.6883186545538
 21
-408.2577770696463
 31
0.0
  0
LINE
  5
549
330
1F
100
AcDbEntity
  8
D-3
  6
JWW_CENTER1
 62
     3
370
     9
100
AcDbLine
 10
-504.7498926367925
 20
-377.0801084981741
 30
0.0
 11
-573.4208747592138
 21
-377.0801084981741
 31
0.0
  0
LINE
  5
54A
330
1F
100
AcDbEntity
  8
D-3
  6
Continuous
 62
     3
370
     9
100
AcDbLine
 10
-512.0107635703253
 20
-398.2577436910452
 30
0.0
 11
-515.1881393637823
 21
-395.0803678975882
 31
0.0
  0
LINE
  5
54B
330
1F
100
AcDbEntity
  8
D-3
  6
Continuous
 62
     3
370
     9
100
AcDbLine
 10
-543.188801690595
 20
-367.0795839773001
 30
0.0
 11
-554.6883186545538
 21
-355.5800646291556
 31
0.0
  0
LINE
  5
54C
330
1F
100
AcDbEntity
  8
D-A
  6
Continuous
 62
     7
370
     9
100
AcDbLine
 10
-568.43904583122
 20
-387.0796459661307
 30
0.0
 11
-568.43904583122
 21
-367.0795839773001
 31
0.0
  0
LINE
  5
54D
330
1F
100
AcDbEntity
  8
D-A
  6
Continuous
 62
     7
370
     9
100
AcDbLine
 10
-568.43904583122
 20
-367.0795839773001
 30
0.0
 11
-569.6886160817312
 21
-368.3296459661307
 31
0.0
  0
LINE
  5
54E
330
1F
100
AcDbEntity
  8
D-A
  6
Continuous
 62
     7
370
     9
100
AcDbLine
 10
-568.43904583122
 20
-387.0796459661307
 30
0.0
 11
-569.6886160817312
 21
-385.8300751195731
 31
0.0
  0
LINE
  5
54F
330
1F
100
AcDbEntity
  8
D-A
  6
Continuous
 62
     7
370
     9
100
AcDbLine
 10
-506.6885837760137
 20
-388.5803717122855
 30
0.0
 11
-506.6885837760137
 21
-365.5798500524344
 31
0.0
  0
LINE
  5
550
330
1F
100
AcDbEntity
  8
D-A
  6
Continuous
 62
     7
370
     9
100
AcDbLine
 10
-513.1885799613165
 20
-395.0803678975882
 30
0.0
 11
-519.6885761466192
 21
-395.0803678975882
 31
0.0
  0
LINE
  5
551
330
1F
100
AcDbEntity
  8
D-A
  6
Continuous
 62
     7
370
     9
100
AcDbLine
 10
-513.1885799613165
 20
-359.0798514829459
 30
0.0
 11
-519.6885761466192
 21
-359.0798514829459
 31
0.0
  0
LINE
  5
552
330
1F
100
AcDbEntity
  8
D-A
  6
Continuous
 62
     7
370
     9
100
AcDbLine
 10
-519.6885761466192
 20
-359.0798514829459
 30
0.0
 11
-519.6885761466192
 21
-395.0803678975882
 31
0.0
  0
LINE
  5
553
330
1F
100
AcDbEntity
  8
D-A
  6
Continuous
 62
     7
370
     9
100
AcDbLine
 10
-519.6885761466192
 20
-367.0795839773001
 30
0.0
 11
-554.6883186545538
 21
-367.0795839773001
 31
0.0
  0
LINE
  5
554
330
1F
100
AcDbEntity
  8
D-A
  6
Continuous
 62
     7
370
     9
100
AcDbLine
 10
-519.6885761466192
 20
-368.3296459661307
 30
0.0
 11
-554.6883186545538
 21
-368.3296459661307
 31
0.0
  0
LINE
  5
555
330
1F
100
AcDbEntity
  8
D-A
  6
Continuous
 62
     7
370
     9
100
AcDbLine
 10
-519.6885761466192
 20
-385.8300751195731
 30
0.0
 11
-554.6883186545538
 21
-385.8300751195731
 31
0.0
  0
LINE
  5
556
330
1F
100
AcDbEntity
  8
D-A
  6
Continuous
 62
     7
370
     9
100
AcDbLine
 10
-519.6885761466192
 20
-387.0796459661307
 30
0.0
 11
-554.6883186545538
 21
-387.0796459661307
 31
0.0
  0
LINE
  5
557
330
1F
100
AcDbEntity
  8
D-A
  6
Continuous
 62
     7
370
     9
100
AcDbLine
 10
-566.1883327212499
 20
-385.8300751195731
 30
0.0
 11
-569.6886160817312
 21
-385.8300751195731
 31
0.0
  0
LINE
  5
558
330
1F
100
AcDbEntity
  8
D-A
  6
Continuous
 62
     7
370
     9
100
AcDbLine
 10
-566.1883327212499
 20
-387.0796459661307
 30
0.0
 11
-568.43904583122
 21
-387.0796459661307
 31
0.0
  0
LINE
  5
559
330
1F
100
AcDbEntity
  8
D-A
  6
Continuous
 62
     7
370
     9
100
AcDbLine
 10
-566.1883327212499
 20
-368.3296459661307
 30
0.0
 11
-569.6886160817312
 21
-368.3296459661307
 31
0.0
  0
LINE
  5
55A
330
1F
100
AcDbEntity
  8
D-A
  6
Continuous
 62
     7
370
     9
100
AcDbLine
 10
-566.1883327212499
 20
-367.0795839773001
 30
0.0
 11
-568.43904583122
 21
-367.0795839773001
 31
0.0
  0
LINE
  5
55B
330
1F
100
AcDbEntity
  8
D-3
  6
JWW_DASHED2
 62
     3
370
     9
100
AcDbLine
 10
-529.688361569898
 20
-444.0801304326834
 30
0.0
 11
-404.6884474005864
 21
-444.0801304326834
 31
0.0
  0
LINE
  5
55C
330
1F
100
AcDbEntity
  8
D-3
  6
Continuous
 62
     3
370
     9
100
AcDbLine
 10
-414.6883520331548
 20
-405.5802315221609
 30
0.0
 11
-494.3330415930913
 21
-405.5802315221609
 31
0.0
  0
LINE
  5
55D
330
1F
100
AcDbEntity
  8
D-3
  6
Continuous
 62
     3
370
     9
100
AcDbLine
 10
-529.688361569898
 20
-455.5801456914725
 30
0.0
 11
-404.6884474005864
 21
-455.5801456914725
 31
0.0
  0
LINE
  5
55E
330
1F
100
AcDbEntity
  8
D-1
  6
Continuous
 62
     2
370
     9
100
AcDbLine
 10
-569.6886160817312
 20
-325.5802121506514
 30
0.0
 11
-554.6883186545538
 21
-325.5802121506514
 31
0.0
  0
LINE
  5
55F
330
1F
100
AcDbEntity
  8
D-1
  6
Continuous
 62
     2
370
     9
100
AcDbLine
 10
-549.6885499205755
 20
-348.0804103360953
 30
0.0
 11
-554.6883186545538
 21
-348.0804103360953
 31
0.0
  0
LINE
  5
560
330
1F
100
AcDbEntity
  8
D-1
  6
Continuous
 62
     2
370
     9
100
AcDbLine
 10
-554.6883186545538
 20
-348.0804103360953
 30
0.0
 11
-554.6883186545538
 21
-325.5802121506514
 31
0.0
  0
LINE
  5
561
330
1F
100
AcDbEntity
  8
D-3
  6
Continuous
 62
     3
370
     9
100
AcDbLine
 10
-566.1883327212499
 20
-325.5802121506514
 30
0.0
 11
-554.6883186545538
 21
-325.5802121506514
 31
0.0
  0
LINE
  5
562
330
1F
100
AcDbEntity
  8
D-1
  6
Continuous
 62
     2
370
     9
100
AcDbLine
 10
-549.6885499205755
 20
-418.0802696691336
 30
0.0
 11
-554.6883186545538
 21
-418.0802696691336
 31
0.0
  0
LINE
  5
563
330
1F
100
AcDbEntity
  8
D-1
  6
Continuous
 62
     2
370
     9
100
AcDbLine
 10
-554.6883186545538
 20
-440.58046994074
 30
0.0
 11
-554.6883186545538
 21
-418.0802696691336
 31
0.0
  0
LINE
  5
564
330
1F
100
AcDbEntity
  8
D-3
  6
Continuous
 62
     3
370
     9
100
AcDbLine
 10
-566.1883327212499
 20
-438.0802124486746
 30
0.0
 11
-554.6883186545538
 21
-438.0802124486746
 31
0.0
  0
LINE
  5
565
330
1F
100
AcDbEntity
  8
D-3
  6
Continuous
 62
     3
370
     9
100
AcDbLine
 10
-554.6883186545538
 20
-325.5802121506514
 30
0.0
 11
-554.6883186545538
 21
-438.0802124486746
 31
0.0
  0
LINE
  5
566
330
1F
100
AcDbEntity
  8
D-6
  6
Continuous
 62
     6
370
     9
100
AcDbLine
 10
-552.6880153861212
 20
-320.580527161199
 30
0.0
 11
-139.6866354193853
 21
-320.580527161199
 31
0.0
  0
LINE
  5
567
330
1F
100
AcDbEntity
  8
D-6
  6
Continuous
 62
     6
370
     9
100
AcDbLine
 10
-704.6875032630132
 20
-415.5804508672537
 30
0.0
 11
-704.6875032630132
 21
-820.5798786626639
 31
0.0
  0
LINE
  5
568
330
1F
100
AcDbEntity
  8
D-4
  6
Continuous
 62
     7
370
     9
100
AcDbLine
 10
-621.5423807349371
 20
-445.5803650365652
 30
0.0
 11
-853.1705793585943
 21
-445.5803650365652
 31
0.0
  0
LINE
  5
569
330
1F
100
AcDbEntity
  8
D-5
  6
Continuous
 62
     7
370
     9
100
AcDbLine
 10
-580.1712428998517
 20
-459.3573635564627
 30
0.0
 11
-645.2197345938848
 21
-402.7403610692801
 31
0.0
  0
LINE
  5
56A
330
1F
100
AcDbEntity
  8
D-5
  6
Continuous
 62
     7
370
     9
100
AcDbLine
 10
-645.2197345938848
 20
-402.7403610692801
 30
0.0
 11
-628.6661228385137
 21
-421.4745300756277
 31
0.0
  0
LINE
  5
56B
330
1F
100
AcDbEntity
  8
D-5
  6
Continuous
 62
     7
370
     9
100
AcDbLine
 10
-645.2197345938848
 20
-402.7403610692801
 30
0.0
 11
-624.3813118186163
 21
-416.5520542608084
 31
0.0
  0
ARC
  5
56C
330
1F
100
AcDbEntity
  8
D-9
  6
Continuous
 62
     4
370
     9
100
AcDbCircle
 10
-689.6881422248052
 20
-403.08046994074
 30
0.0
 40
5.0
100
AcDbArc
 50
90.0
 51
180.0
  0
ARC
  5
56D
330
1F
100
AcDbEntity
  8
D-1
  6
Continuous
 62
     2
370
     9
100
AcDbCircle
 10
-699.6881803717779
 20
-408.0805462346854
 30
0.0
 40
5.0
100
AcDbArc
 50
90.0
 51
180.0
  0
ARC
  5
56E
330
1F
100
AcDbEntity
  8
D-1
  6
Continuous
 62
     2
370
     9
100
AcDbCircle
 10
-552.6880153861212
 20
-323.5805272804083
 30
0.0
 40
3.00000011920929
100
AcDbArc
 50
0.0
 51
90.0
  0
ARC
  5
56F
330
1F
100
AcDbEntity
  8
D-1
  6
Continuous
 62
     2
370
     9
100
AcDbCircle
 10
-571.6883012499975
 20
-323.5805272804083
 30
0.0
 40
3.00000011920929
100
AcDbArc
 50
90.0
 51
180.0
  0
ARC
  5
570
330
1F
100
AcDbEntity
  8
D-1
  6
Continuous
 62
     2
370
     9
100
AcDbCircle
 10
-552.6880153861212
 20
-442.580153320867
 30
0.0
 40
3.00000011920929
100
AcDbArc
 50
270.0
 51
0.0
  0
ARC
  5
571
330
1F
100
AcDbEntity
  8
D-1
  6
Continuous
 62
     2
370
     9
100
AcDbCircle
 10
-699.6881803717779
 20
-415.5804508672537
 30
0.0
 40
5.0
100
AcDbArc
 50
180.0
 51
270.0
  0
ARC
  5
572
330
1F
100
AcDbEntity
  8
D-1
  6
Continuous
 62
     2
370
     9
100
AcDbCircle
 10
-569.6883687224554
 20
-440.5807178960623
 30
0.0
 40
5.0
100
AcDbArc
 50
180.0
 51
270.0
  0
ARC
  5
573
330
1F
100
AcDbEntity
  8
D-1
  6
Continuous
 62
     2
370
     9
100
AcDbCircle
 10
-574.6886327710317
 20
-420.5804604039969
 30
0.0
 40
5.0
100
AcDbArc
 50
0.0
 51
90.0
  0
ARC
  5
574
330
1F
100
AcDbEntity
  8
D-1
  6
Continuous
 62
     2
370
     9
100
AcDbCircle
 10
-574.6886327710317
 20
-410.5804317937674
 30
0.0
 40
5.0
100
AcDbArc
 50
270.0
 51
0.0
  0
ARC
  5
575
330
1F
100
AcDbEntity
  8
D-1
  6
Continuous
 62
     2
370
     9
100
AcDbCircle
 10
-624.6883854117559
 20
-410.5804508672537
 30
0.0
 40
5.0
100
AcDbArc
 50
180.0
 51
270.0
  0
ARC
  5
576
330
1F
100
AcDbEntity
  8
D-1
  6
Continuous
 62
     2
370
     9
100
AcDbCircle
 10
-629.6883854117559
 20
-408.0802792058768
 30
0.0
 40
5.0
100
AcDbArc
 50
0.0
 51
90.0
  0
ARC
  5
577
330
1F
100
AcDbEntity
  8
D-3
  6
Continuous
 62
     3
370
     9
100
AcDbCircle
 10
-494.3330415930913
 20
-380.5801456914725
 30
0.0
 40
25.0
100
AcDbArc
 50
225.0
 51
270.0
  0
ARC
  5
578
330
1F
100
AcDbEntity
  8
D-3
  6
Continuous
 62
     3
370
     9
100
AcDbCircle
 10
-414.6883520331548
 20
-415.5801361547293
 30
0.0
 40
10.0
100
AcDbArc
 50
0.0
 51
90.0
  0
ARC
  5
579
330
1F
100
AcDbEntity
  8
D-3
  6
Continuous
 62
     3
370
     9
100
AcDbCircle
 10
-539.6883925643133
 20
-437.3998802648367
 30
0.0
 40
10.0
100
AcDbArc
 50
0.0
 51
45.000244140625
  0
ARC
  5
57A
330
1F
100
AcDbEntity
  8
D-A
  6
Continuous
 62
     7
370
     9
100
AcDbCircle
 10
-513.1885799613165
 20
-365.5798500524344
 30
0.0
 40
6.499999761581421
100
AcDbArc
 50
0.0
 51
90.0
  0
ARC
  5
57B
330
1F
100
AcDbEntity
  8
D-A
  6
Continuous
 62
     7
370
     9
100
AcDbCircle
 10
-513.1885799613165
 20
-388.5803717122855
 30
0.0
 40
6.499999761581421
100
AcDbArc
 50
270.0
 51
0.0
  0
LWPOLYLINE
  5
57C
330
1F
100
AcDbEntity
  8
D-4
  6
Continuous
 62
     7
370
     9
100
AcDbPolyline
 90
        4
 70
     1
 43
1.0
 10
-549.1885165419744
 20
19.78671374456269
 42
0.4142135623731
 10
-549.6885165419744
 20
20.28671374456269
 42
0.4142135623731
 10
-550.1885165419743
 20
19.78671374456269
 42
0.4142135623731
 10
-549.6885165419744
 20
19.28671374456269
 42
0.4142135623731
  0
LWPOLYLINE
  5
57D
330
1F
100
AcDbEntity
  8
D-4
  6
Continuous
 62
     7
370
     9
100
AcDbPolyline
 90
        4
 70
     1
 43
1.0
 10
-704.1875032630132
 20
-199.6613758550467
 42
0.4142135623731
 10
-704.6875032630132
 20
-199.1613758550467
 42
0.4142135623731
 10
-705.1875032630131
 20
-199.6613758550467
 42
0.4142135623731
 10
-704.6875032630132
 20
-200.1613758550467
 42
0.4142135623731
  0
LWPOLYLINE
  5
57E
330
1F
100
AcDbEntity
  8
D-4
  6
Continuous
 62
     7
370
     9
100
AcDbPolyline
 90
        4
 70
     1
 43
1.0
 10
-579.187665387647
 20
-199.6613758550467
 42
0.4142135623731
 10
-579.687665387647
 20
-199.1613758550467
 42
0.4142135623731
 10
-580.1876653876469
 20
-199.6613758550467
 42
0.4142135623731
 10
-579.687665387647
 20
-200.1613758550467
 42
0.4142135623731
  0
LWPOLYLINE
  5
57F
330
1F
100
AcDbEntity
  8
D-4
  6
Continuous
 62
     7
370
     9
100
AcDbPolyline
 90
        4
 70
     1
 43
1.0
 10
-579.187665387647
 20
-90.90895352228301
 42
0.4142135623731
 10
-579.687665387647
 20
-90.40895352228301
 42
0.4142135623731
 10
-580.1876653876469
 20
-90.90895352228301
 42
0.4142135623731
 10
-579.687665387647
 20
-91.40895352228301
 42
0.4142135623731
  0
LWPOLYLINE
  5
580
330
1F
100
AcDbEntity
  8
D-4
  6
Continuous
 62
     7
370
     9
100
AcDbPolyline
 90
        4
 70
     1
 43
1.0
 10
-574.1873947825597
 20
-90.90895352228301
 42
0.4142135623731
 10
-574.6873947825597
 20
-90.40895352228301
 42
0.4142135623731
 10
-575.1873947825596
 20
-90.90895352228301
 42
0.4142135623731
 10
-574.6873947825597
 20
-91.40895352228301
 42
0.4142135623731
  0
LWPOLYLINE
  5
581
330
1F
100
AcDbEntity
  8
D-4
  6
Continuous
 62
     7
370
     9
100
AcDbPolyline
 90
        4
 70
     1
 43
1.0
 10
-549.1885165419744
 20
-90.90895352228301
 42
0.4142135623731
 10
-549.6885165419744
 20
-90.40895352228301
 42
0.4142135623731
 10
-550.1885165419743
 20
-90.90895352228301
 42
0.4142135623731
 10
-549.6885165419744
 20
-91.40895352228301
 42
0.4142135623731
  0
LWPOLYLINE
  5
582
330
1F
100
AcDbEntity
  8
D-4
  6
Continuous
 62
     7
370
     9
100
AcDbPolyline
 90
        4
 70
     1
 43
1.0
 10
-849.670014783399
 20
-445.5803650365652
 42
0.4142135623731
 10
-850.170014783399
 20
-445.0803650365652
 42
0.4142135623731
 10
-850.6700147833989
 20
-445.5803650365652
 42
0.4142135623731
 10
-850.170014783399
 20
-446.0803650365652
 42
0.4142135623731
  0
LWPOLYLINE
  5
583
330
1F
100
AcDbEntity
  8
D-4
  6
Continuous
 62
     7
370
     9
100
AcDbPolyline
 90
        4
 70
     1
 43
1.0
 10
-849.670014783399
 20
-320.580527161199
 42
0.4142135623731
 10
-850.170014783399
 20
-320.080527161199
 42
0.4142135623731
 10
-850.6700147833989
 20
-320.580527161199
 42
0.4142135623731
 10
-850.170014783399
 20
-321.080527161199
 42
0.4142135623731
  0
LWPOLYLINE
  5
584
330
1F
100
AcDbEntity
  8
D-4
  6
Continuous
 62
     7
370
     9
100
AcDbPolyline
 90
        4
 70
     1
 43
1.0
 10
-549.1885165419744
 20
-526.8897694097342
 42
0.4142135623731
 10
-549.6885165419744
 20
-526.3897694097342
 42
0.4142135623731
 10
-550.1885165419743
 20
-526.8897694097342
 42
0.4142135623731
 10
-549.6885165419744
 20
-527.3897694097342
 42
0.4142135623731
  0
LWPOLYLINE
  5
585
330
1F
100
AcDbEntity
  8
D-4
  6
Continuous
 62
     7
370
     9
100
AcDbPolyline
 90
        4
 70
     1
 43
1.0
 10
-404.1880850043462
 20
-526.8897694097342
 42
0.4142135623731
 10
-404.6880850043462
 20
-526.3897694097342
 42
0.4142135623731
 10
-405.1880850043461
 20
-526.8897694097342
 42
0.4142135623731
 10
-404.6880850043462
 20
-527.3897694097342
 42
0.4142135623731
  0
LWPOLYLINE
  5
586
330
1F
100
AcDbEntity
  8
D-4
  6
Continuous
 62
     7
370
     9
100
AcDbPolyline
 90
        4
 70
     1
 43
1.0
 10
-704.1875032630132
 20
-726.1990040288748
 42
0.4142135623731
 10
-704.6875032630132
 20
-725.6990040288748
 42
0.4142135623731
 10
-705.1875032630131
 20
-726.1990040288748
 42
0.4142135623731
 10
-704.6875032630132
 20
-726.6990040288748
 42
0.4142135623731
  0
LWPOLYLINE
  5
587
330
1F
100
AcDbEntity
  8
D-4
  6
Continuous
 62
     7
370
     9
100
AcDbPolyline
 90
        4
 70
     1
 43
1.0
 10
-554.1882924285101
 20
-726.1990040288748
 42
0.4142135623731
 10
-554.6882924285101
 20
-725.6990040288748
 42
0.4142135623731
 10
-555.18829242851
 20
-726.1990040288748
 42
0.4142135623731
 10
-554.6882924285101
 20
-726.6990040288748
 42
0.4142135623731
  0
LWPOLYLINE
  5
588
330
1F
100
AcDbEntity
  8
D-4
  6
Continuous
 62
     7
370
     9
100
AcDbPolyline
 90
        4
 70
     1
 43
1.0
 10
-704.1875032630132
 20
-880.6633823858084
 42
0.4142135623731
 10
-704.6875032630132
 20
-880.1633823858084
 42
0.4142135623731
 10
-705.1875032630131
 20
-880.6633823858084
 42
0.4142135623731
 10
-704.6875032630132
 20
-881.1633823858084
 42
0.4142135623731
  0
LWPOLYLINE
  5
589
330
1F
100
AcDbEntity
  8
D-4
  6
Continuous
 62
     7
370
     9
100
AcDbPolyline
 90
        4
 70
     1
 43
1.0
 10
-304.1866354193853
 20
-880.6633823858084
 42
0.4142135623731
 10
-304.6866354193853
 20
-880.1633823858084
 42
0.4142135623731
 10
-305.1866354193853
 20
-880.6633823858084
 42
0.4142135623731
 10
-304.6866354193853
 20
-881.1633823858084
 42
0.4142135623731
  0
LWPOLYLINE
  5
58A
330
1F
100
AcDbEntity
  8
D-4
  6
Continuous
 62
     7
370
     9
100
AcDbPolyline
 90
        4
 70
     1
 43
1.0
 10
-32.50229398872123
 20
-320.580527161199
 42
0.4142135623731
 10
-33.00229398872123
 20
-320.080527161199
 42
0.4142135623731
 10
-33.50229398872123
 20
-320.580527161199
 42
0.4142135623731
 10
-33.00229398872123
 20
-321.080527161199
 42
0.4142135623731
  0
LWPOLYLINE
  5
58B
330
1F
100
AcDbEntity
  8
D-4
  6
Continuous
 62
     7
370
     9
100
AcDbPolyline
 90
        4
 70
     1
 43
1.0
 10
-32.50229398872123
 20
-570.5802029119315
 42
0.4142135623731
 10
-33.00229398872123
 20
-570.0802029119315
 42
0.4142135623731
 10
-33.50229398872123
 20
-570.5802029119315
 42
0.4142135623731
 10
-33.00229398872123
 20
-571.0802029119315
 42
0.4142135623731
  0
LWPOLYLINE
  5
58C
330
1F
100
AcDbEntity
  8
D-4
  6
Continuous
 62
     7
370
     9
100
AcDbPolyline
 90
        4
 70
     1
 43
1.0
 10
-305.6147436347173
 20
-320.580527161199
 42
0.4142135623731
 10
-306.1147436347173
 20
-320.080527161199
 42
0.4142135623731
 10
-306.6147436347173
 20
-320.580527161199
 42
0.4142135623731
 10
-306.1147436347173
 20
-321.080527161199
 42
0.4142135623731
  0
LWPOLYLINE
  5
58D
330
1F
100
AcDbEntity
  8
D-4
  6
Continuous
 62
     7
370
     9
100
AcDbPolyline
 90
        4
 70
     1
 43
1.0
 10
-305.6147436347173
 20
-405.5806702123465
 42
0.4142135623731
 10
-306.1147436347173
 20
-405.0806702123465
 42
0.4142135623731
 10
-306.6147436347173
 20
-405.5806702123465
 42
0.4142135623731
 10
-306.1147436347173
 20
-406.0806702123465
 42
0.4142135623731
  0
LWPOLYLINE
  5
58E
330
1F
100
AcDbEntity
  8
D-4
  6
Continuous
 62
     7
370
     9
100
AcDbPolyline
 90
        4
 70
     1
 43
1.0
 10
-305.6147436347173
 20
-455.5809086309256
 42
0.4142135623731
 10
-306.1147436347173
 20
-455.0809086309256
 42
0.4142135623731
 10
-306.6147436347173
 20
-455.5809086309256
 42
0.4142135623731
 10
-306.1147436347173
 20
-456.0809086309256
 42
0.4142135623731
  0
LWPOLYLINE
  5
58F
330
1F
100
AcDbEntity
  8
D-4
  6
Continuous
 62
     7
370
     9
100
AcDbPolyline
 90
        4
 70
     1
 43
1.0
 10
-549.1885165419744
 20
-526.8897694097342
 42
0.4142135623731
 10
-549.6885165419744
 20
-526.3897694097342
 42
0.4142135623731
 10
-550.1885165419743
 20
-526.8897694097342
 42
0.4142135623731
 10
-549.6885165419744
 20
-527.3897694097342
 42
0.4142135623731
  0
LWPOLYLINE
  5
590
330
1F
100
AcDbEntity
  8
D-4
  6
Continuous
 62
     7
370
     9
100
AcDbPolyline
 90
        4
 70
     1
 43
1.0
 10
-704.1875032630132
 20
-526.8897694097342
 42
0.4142135623731
 10
-704.6875032630132
 20
-526.3897694097342
 42
0.4142135623731
 10
-705.1875032630131
 20
-526.8897694097342
 42
0.4142135623731
 10
-704.6875032630132
 20
-527.3897694097342
 42
0.4142135623731
  0
TEXT
  5
591
330
1F
100
AcDbEntity
  8
D-4
  6
Continuous
 62
     2
370
     9
100
AcDbText
 10
-1274.760648407147
 20
29.99788280196448
 30
0.0
 40
30.48
  1
□512
 41
1.099999999999998
  7
ＭＳ ゴシック
100
AcDbText
  0
TEXT
  5
592
330
1F
100
AcDbEntity
  8
D-4
  6
Continuous
 62
     2
370
     9
100
AcDbText
 10
-612.6323756423162
 20
-80.26967831476348
 30
0.0
 40
30.48
  1
1
 41
0.9999999999999998
  7
ＭＳ ゴシック
100
AcDbText
  0
TEXT
  5
593
330
1F
100
AcDbEntity
  8
D-4
  6
Continuous
 62
     2
370
     9
100
AcDbText
 10
-540.7750353064703
 20
-80.26967831476348
 30
0.0
 40
30.48
  1
5
 41
0.9999999999999998
  7
ＭＳ ゴシック
100
AcDbText
  0
TEXT
  5
594
330
1F
100
AcDbEntity
  8
D-4
  6
Continuous
 62
     2
370
     9
100
AcDbText
 10
-1274.760648407147
 20
-80.70211719803545
 30
0.0
 40
30.48
  1
□500
 41
1.099999999999998
  7
ＭＳ ゴシック
100
AcDbText
  0
TEXT
  5
595
330
1F
100
AcDbEntity
  8
D-4
  6
Continuous
 62
     2
370
     9
100
AcDbText
 10
-663.4367498603033
 20
-189.0210992894949
 30
0.0
 40
30.48
  1
25
 41
1.0625
  7
ＭＳ ゴシック
100
AcDbText
  0
TEXT
  5
596
330
1F
100
AcDbEntity
  8
D-4
  6
Continuous
 62
     2
370
     9
100
AcDbText
 10
-1274.760648407147
 20
-189.5021171980354
 30
0.0
 40
30.48
  1
□450
 41
1.099999999999998
  7
ＭＳ ゴシック
100
AcDbText
  0
TEXT
  5
597
330
1F
100
AcDbEntity
  8
D-4
  6
Continuous
 62
     2
370
     9
100
AcDbText
 10
-1072.052671491163
 20
-381.8309136458294
 30
0.0
 40
30.48
  1
15
 50
90.00000250447827
 41
1.062500000000001
  7
ＭＳ ゴシック
100
AcDbText
  0
TEXT
  5
598
330
1F
100
AcDbEntity
  8
D-4
  6
Continuous
 62
     2
370
     9
100
AcDbText
 10
-316.7550297370122
 20
-384.3305131026165
 30
0.0
 40
30.48
  1
17
 50
90.00000250447819
 41
1.062500000000001
  7
ＭＳ ゴシック
100
AcDbText
  0
TEXT
  5
599
330
1F
100
AcDbEntity
  8
D-4
  6
Continuous
 62
     2
370
     9
100
AcDbText
 10
-860.8102818122076
 20
-445.766851031377
 30
0.0
 40
30.48
  1
25
 50
90.00000250000025
 41
1.062500000000001
  7
ＭＳ ゴシック
100
AcDbText
  0
TEXT
  5
59A
330
1F
100
AcDbEntity
  8
D-4
  6
Continuous
 62
     2
370
     9
100
AcDbText
 10
-316.7550297370122
 20
-451.8302031584637
 30
0.0
 40
30.48
  1
10
 50
90.00000250447819
 41
1.062500000000001
  7
ＭＳ ゴシック
100
AcDbText
  0
TEXT
  5
59B
330
1F
100
AcDbEntity
  8
D-4
  6
Continuous
 62
     2
370
     9
100
AcDbText
 10
-43.64156919624075
 20
-511.8304892607586
 30
0.0
 40
30.48
  1
40～50
 50
90.00000250447816
 41
1.104166666666667
  7
ＭＳ ゴシック
100
AcDbText
  0
TEXT
  5
59C
330
1F
100
AcDbEntity
  8
D-4
  6
Continuous
 62
     2
370
     9
100
AcDbText
 10
-648.4380087104009
 20
-515.2497655950369
 30
0.0
 40
30.48
  1
31
 41
1.0625
  7
ＭＳ ゴシック
100
AcDbText
  0
TEXT
  5
59D
330
1F
100
AcDbEntity
  8
D-4
  6
Continuous
 62
     2
370
     9
100
AcDbText
 10
-514.1045116697096
 20
-516.2504751291123
 30
0.0
 40
30.48
  1
29
 50
0.0006685549992706
 41
1.0625
  7
ＭＳ ゴシック
100
AcDbText
  0
TEXT
  5
59E
330
1F
100
AcDbEntity
  8
D-4
  6
Continuous
 62
     2
370
     9
100
AcDbText
 10
-695.9375223364996
 20
-715.5597288213553
 30
0.0
 40
30.48
  1
25～30
 41
1.104166666666667
  7
ＭＳ ゴシック
100
AcDbText
  0
TEXT
  5
59F
330
1F
100
AcDbEntity
  8
D-4
  6
Continuous
 62
     2
370
     9
100
AcDbText
 10
-572.5558668729567
 20
-870.0231153570393
 30
0.0
 40
30.48
  1
75～80
 50
359.9997855578312
 41
1.104166666666666
  7
ＭＳ ゴシック
100
AcDbText
  0
TEXT
  5
5A0
330
1F
100
AcDbEntity
  8
D-5
  6
Continuous
 62
     7
370
     9
100
AcDbText
 10
-455.1655515875981
 20
-51.97283779962676
 30
0.0
 40
22.86
  1
ノンスリップ加工細目タイプ
 41
1.153846153846154
  7
ＭＳ ゴシック
100
AcDbText
  0
TEXT
  5
5A1
330
1F
100
AcDbEntity
  8
D-5
  6
Continuous
 62
     7
370
     9
100
AcDbText
 10
-455.1655544185053
 20
-84.67768704279177
 30
0.0
 40
22.86
  1
ステンレス製グレーチングＤＱｰ１５（h=15）
 50
0.0000383449219305
 41
1.158536585365854
  7
ＭＳ ゴシック
100
AcDbText
  0
TEXT
  5
5A2
330
1F
100
AcDbEntity
  8
D-5
  6
Continuous
 62
     7
370
     9
100
AcDbText
 10
-415.198968335645
 20
-148.6809257207694
 30
0.0
 40
22.86
  1
ステンレス製受枠ＳＦ１５Ｂ
 41
1.153846153846154
  7
ＭＳ ゴシック
100
AcDbText
  0
LINE
  5
5A3
330
1F
100
AcDbEntity
  8
D-2
  6
Continuous
 62
     3
370
     9
100
AcDbLine
 10
-594.687962218778
 20
-398.0807798848929
 30
0.0
 11
-594.687962218778
 21
-323.0806591854872
 31
0.0
  0
LINE
  5
5A4
330
1F
100
AcDbEntity
  8
D-2
  6
Continuous
 62
     3
370
     9
100
AcDbLine
 10
-579.687665387647
 20
-323.0806591854872
 30
0.0
 11
-579.687665387647
 21
-398.0807798848929
 31
0.0
  0
LINE
  5
5A5
330
1F
100
AcDbEntity
  8
D-4
  6
Continuous
 62
     7
370
     9
100
AcDbLine
 10
-1061.412900372999
 20
-398.0807798848929
 30
0.0
 11
-1061.412900372999
 21
-323.0806591854872
 31
0.0
  0
LINE
  5
5A6
330
1F
100
AcDbEntity
  8
D-2
  6
Continuous
 62
     3
370
     9
100
AcDbLine
 10
-594.687962218778
 20
-333.0806916700186
 30
0.0
 11
-1252.356275006788
 21
-333.0806916700186
 31
0.0
  0
LINE
  5
5A7
330
1F
100
AcDbEntity
  8
D-2
  6
Continuous
 62
     3
370
     9
100
AcDbLine
 10
-579.687665387647
 20
-398.0807798848929
 30
0.0
 11
-1252.356275006788
 21
-398.0807798848929
 31
0.0
  0
LINE
  5
5A8
330
1F
100
AcDbEntity
  8
D-2
  6
Continuous
 62
     3
370
     9
100
AcDbLine
 10
-579.687665387647
 20
-323.0806591854872
 30
0.0
 11
-1252.356275006788
 21
-323.0806591854872
 31
0.0
  0
LINE
  5
5A9
330
1F
100
AcDbEntity
  8
D-5
  6
Continuous
 62
     7
370
     9
100
AcDbLine
 10
-455.1655515875981
 20
-96.83479962213653
 30
0.0
 11
246.2016168389155
 21
-96.83479962213653
 31
0.0
  0
LINE
  5
5AA
330
1F
100
AcDbEntity
  8
D-2
  6
Continuous
 62
     3
370
     9
100
AcDbLine
 10
-1252.356275006788
 20
-449.9459045873465
 30
0.0
 11
-1252.356275006788
 21
-273.6432951436819
 31
0.0
  0
LINE
  5
5AB
330
1F
100
AcDbEntity
  8
D-5
  6
Continuous
 62
     7
370
     9
100
AcDbLine
 10
-455.1655515875981
 20
-96.83479962213653
 30
0.0
 11
-652.6784548010992
 21
-325.5807912097754
 31
0.0
  0
LINE
  5
5AC
330
1F
100
AcDbEntity
  8
D-5
  6
Continuous
 62
     7
370
     9
100
AcDbLine
 10
-652.6784548010992
 20
-325.5807912097754
 30
0.0
 11
-638.9495023932623
 21
-304.6878391252341
 31
0.0
  0
LINE
  5
5AD
330
1F
100
AcDbEntity
  8
D-5
  6
Continuous
 62
     7
370
     9
100
AcDbLine
 10
-652.6784548010992
 20
-325.5807912097754
 30
0.0
 11
-634.0106043067144
 21
-308.9528351770224
 31
0.0
  0
LINE
  5
5AE
330
1F
100
AcDbEntity
  8
D-5
  6
Continuous
 62
     2
370
     9
100
AcDbLine
 10
419.9845758232905
 20
-308.0813473211111
 30
0.0
 11
194.9845758232905
 21
-308.0813473211111
 31
0.0
  0
LINE
  5
5AF
330
1F
100
AcDbEntity
  8
D-5
  6
Continuous
 62
     2
370
     9
100
AcDbLine
 10
419.9845758232905
 20
-258.0810612188162
 30
0.0
 11
419.9845758232905
 21
-308.0813473211111
 31
0.0
  0
LINE
  5
5B0
330
1F
100
AcDbEntity
  8
D-5
  6
Continuous
 62
     2
370
     9
100
AcDbLine
 10
194.9845758232905
 20
-258.0810612188162
 30
0.0
 11
419.9845758232905
 21
-258.0810612188162
 31
0.0
  0
LINE
  5
5B1
330
1F
100
AcDbEntity
  8
D-5
  6
Continuous
 62
     2
370
     9
100
AcDbLine
 10
194.9845758232905
 20
-308.0813473211111
 30
0.0
 11
194.9845758232905
 21
-258.0810612188162
 31
0.0
  0
LWPOLYLINE
  5
5B2
330
1F
100
AcDbEntity
  8
D-4
  6
Continuous
 62
     7
370
     9
100
AcDbPolyline
 90
        4
 70
     1
 43
1.0
 10
-1060.912900372999
 20
-323.0806591854872
 42
0.4142135623731
 10
-1061.412900372999
 20
-322.5806591854872
 42
0.4142135623731
 10
-1061.912900372999
 20
-323.0806591854872
 42
0.4142135623731
 10
-1061.412900372999
 20
-323.5806591854872
 42
0.4142135623731
  0
LWPOLYLINE
  5
5B3
330
1F
100
AcDbEntity
  8
D-4
  6
Continuous
 62
     7
370
     9
100
AcDbPolyline
 90
        4
 70
     1
 43
1.0
 10
-1060.913396283643
 20
-398.0807798848929
 42
0.4142135623731
 10
-1061.413396283643
 20
-397.5807798848929
 42
0.4142135623731
 10
-1061.913396283643
 20
-398.0807798848929
 42
0.4142135623731
 10
-1061.413396283643
 20
-398.5807798848929
 42
0.4142135623731
  0
TEXT
  5
5B4
330
1F
100
AcDbEntity
  8
D-5
  6
Continuous
 62
     7
370
     9
100
AcDbText
 10
-355.7109960761235
 20
-204.7798732457938
 30
0.0
 40
22.86
  1
塩ビクッション
 41
1.142857142857143
  7
ＭＳ ゴシック
100
AcDbText
  0
TEXT
  5
5B5
330
1F
100
AcDbEntity
  8
D-5
  6
Continuous
 62
     7
370
     9
100
AcDbText
 10
-292.5000890937016
 20
-295.2297309575857
 30
0.0
 40
22.86
  1
ｔ＝２．３（ＳＰＨＣ）
 41
1.151515151515151
  7
ＭＳ ゴシック
100
AcDbText
  0
TEXT
  5
5B6
330
1F
100
AcDbEntity
  8
D-5
  6
Continuous
 62
     2
370
     9
100
AcDbText
 10
242.4841180596186
 20
-297.4410850606741
 30
0.0
 40
30.48
  1
仕　様
 41
1.083333333333333
  7
ＭＳ ゴシック
100
AcDbText
  0
TEXT
  5
5B7
330
1F
100
AcDbEntity
  8
D-5
  6
Continuous
 62
     2
370
     9
100
AcDbText
 10
297.0744958672357
 20
-360.361636360723
 30
0.0
 40
30.48
  1
ステンレス製細目ノンスリップタイプ(デルタ模様）
 41
1.11968085106383
  7
ＭＳ ゴシック
100
AcDbText
  0
TEXT
  5
5B8
330
1F
100
AcDbEntity
  8
D-5
  6
Continuous
 62
     2
370
     9
100
AcDbText
 10
297.0744985882367
 20
-425.3611929021665
 30
0.0
 40
30.48
  1
グレーチング（すきま９mm）　ＤＱ－１５　５００×５００×１５
 50
359.999972357821
 41
1.120833333333333
  7
ＭＳ ゴシック
100
AcDbText
  0
TEXT
  5
5B9
330
1F
100
AcDbEntity
  8
D-5
  6
Continuous
 62
     2
370
     9
100
AcDbText
 10
356.7864099297357
 20
-490.3612501226248
 30
0.0
 40
30.48
  1
材質：メインバー　ＳＵＳ３０４　＠１５
 41
1.118421052631579
  7
ＭＳ ゴシック
100
AcDbText
  0
TEXT
  5
5BA
330
1F
100
AcDbEntity
  8
D-5
  6
Continuous
 62
     2
370
     9
100
AcDbText
 10
356.7864099297357
 20
-555.3608495794119
 30
0.0
 40
30.48
  1
　　　クロスバー　ＳＵＳ３０４　＠１００
 41
1.11875
  7
ＭＳ ゴシック
100
AcDbText
  0
TEXT
  5
5BB
330
1F
100
AcDbEntity
  8
D-5
  6
Continuous
 62
     2
370
     9
100
AcDbText
 10
356.7864099297358
 20
-620.3608114324393
 30
0.0
 40
30.48
  1
　　　サイドバー　ＳＵＳ３０４
 41
1.116666666666666
  7
ＭＳ ゴシック
100
AcDbText
  0
TEXT
  5
5BC
330
1F
100
AcDbEntity
  8
D-5
  6
Continuous
 62
     2
370
     9
100
AcDbText
 10
297.0740381035639
 20
-762.6233274541678
 30
0.0
 40
30.48
  1
ステンレス製受枠　ＳＦ１５Ｂ
 41
1.116071428571428
  7
ＭＳ ゴシック
100
AcDbText
  0
TEXT
  5
5BD
330
1F
100
AcDbEntity
  8
D-5
  6
Continuous
 62
     2
370
     9
100
AcDbText
 10
356.7859521660638
 20
-827.6228696904959
 30
0.0
 40
30.48
  1
材質：冷間圧延ステンレス鋼板（ＳＵＳ３０４－２Ｂ）
 41
1.12
  7
ＭＳ ゴシック
100
AcDbText
  0
TEXT
  5
5BE
330
1F
100
AcDbEntity
  8
D-5
  6
Continuous
 62
     2
370
     9
100
AcDbText
 10
-1004.18153398892
 20
-998.3829862676449
 30
0.0
 40
30.48
  1
断面詳細図　Ｓ＝１：２
 50
0.0000267631904831
 41
1.113636363636364
  7
ＭＳ ゴシック
100
AcDbText
  0
TEXT
  5
5BF
330
1F
100
AcDbEntity
  8
D-5
  6
Continuous
 62
     7
370
     9
100
AcDbText
 10
-292.5000890937016
 20
-254.0062335668387
 30
0.0
 40
22.86
  1
溶接用アンカー
 41
1.142857142857143
  7
ＭＳ ゴシック
100
AcDbText
  0
LINE
  5
5C0
330
1F
100
AcDbEntity
  8
D-2
  6
JWW_CENTER2
 62
     3
370
     9
100
AcDbLine
 10
-954.6871694770026
 20
-393.5194748388113
 30
0.0
 11
-954.6871694770026
 21
-329.0005331979575
 31
0.0
  0
LINE
  5
5C1
330
1F
100
AcDbEntity
  8
D-2
  6
JWW_CENTER2
 62
     3
370
     9
100
AcDbLine
 10
-985.0124105658698
 20
-360.5801647649588
 30
0.0
 11
-924.0402731146979
 21
-360.5801647649588
 31
0.0
  0
LINE
  5
5C2
330
1F
100
AcDbEntity
  8
D-2
  6
Continuous
 62
     3
370
     9
100
AcDbLine
 10
-937.0094808783698
 20
-360.5801647649588
 30
0.0
 11
-954.6871694770026
 21
-342.9024952398123
 31
0.0
  0
LINE
  5
5C3
330
1F
100
AcDbEntity
  8
D-2
  6
Continuous
 62
     3
370
     9
100
AcDbLine
 10
-954.6871694770026
 20
-378.2578342901053
 30
0.0
 11
-937.0094808783698
 21
-360.5801647649588
 31
0.0
  0
LINE
  5
5C4
330
1F
100
AcDbEntity
  8
D-2
  6
Continuous
 62
     3
370
     9
100
AcDbLine
 10
-954.6871694770026
 20
-342.9024952398123
 30
0.0
 11
-972.3648580756354
 21
-360.5801647649588
 31
0.0
  0
LINE
  5
5C5
330
1F
100
AcDbEntity
  8
D-2
  6
Continuous
 62
     3
370
     9
100
AcDbLine
 10
-972.3648580756354
 20
-360.5801647649588
 30
0.0
 11
-954.6871694770026
 21
-378.2578342901053
 31
0.0
  0
LINE
  5
5C6
330
1F
100
AcDbEntity
  8
D-2
  6
Continuous
 62
     3
370
     9
100
AcDbLine
 10
-967.1871694770026
 20
-348.0801647649588
 30
0.0
 11
-967.1871694770026
 21
-355.4025095449271
 31
0.0
  0
LINE
  5
5C7
330
1F
100
AcDbEntity
  8
D-2
  6
Continuous
 62
     3
370
     9
100
AcDbLine
 10
-967.1871694770026
 20
-365.7578342901053
 30
0.0
 11
-967.1871694770026
 21
-373.0801790700735
 31
0.0
  0
LINE
  5
5C8
330
1F
100
AcDbEntity
  8
D-2
  6
Continuous
 62
     3
370
     9
100
AcDbLine
 10
-942.1871694770026
 20
-348.080150459844
 30
0.0
 11
-949.5094808783698
 21
-348.0801647649588
 31
0.0
  0
LINE
  5
5C9
330
1F
100
AcDbEntity
  8
D-2
  6
Continuous
 62
     3
370
     9
100
AcDbLine
 10
-959.8648199286628
 20
-348.080150459844
 30
0.0
 11
-967.1871694770026
 21
-348.0801647649588
 31
0.0
  0
LINE
  5
5CA
330
1F
100
AcDbEntity
  8
D-2
  6
Continuous
 62
     3
370
     9
100
AcDbLine
 10
-942.1871694770026
 20
-373.0801647649588
 30
0.0
 11
-942.1871694770026
 21
-365.7578199849905
 31
0.0
  0
LINE
  5
5CB
330
1F
100
AcDbEntity
  8
D-2
  6
Continuous
 62
     3
370
     9
100
AcDbLine
 10
-942.1871694770026
 20
-355.4024952398123
 30
0.0
 11
-942.1871694770026
 21
-348.080150459844
 31
0.0
  0
LINE
  5
5CC
330
1F
100
AcDbEntity
  8
D-2
  6
Continuous
 62
     3
370
     9
100
AcDbLine
 10
-967.1871694770026
 20
-373.0801790700735
 30
0.0
 11
-959.8648580756354
 21
-373.0801647649588
 31
0.0
  0
LINE
  5
5CD
330
1F
100
AcDbEntity
  8
D-2
  6
Continuous
 62
     3
370
     9
100
AcDbLine
 10
-949.5095190253425
 20
-373.0801790700735
 30
0.0
 11
-942.1871694770026
 21
-373.0801647649588
 31
0.0
  0
ENDSEC
  0
SECTION
  2
OBJECTS
  0
DICTIONARY
  5
C
330
0
100
AcDbDictionary
281
     1
  3
ACAD_GROUP
350
D
  3
ACAD_LAYOUT
350
1A
  3
ACAD_MLEADERSTYLE
350
5CF
  3
ACAD_MLINESTYLE
350
17
  3
ACAD_PLOTSETTINGS
350
19
  3
ACAD_PLOTSTYLENAME
350
E
  3
ACAD_TABLESTYLE
350
5CE
  3
ACAD_VISUALSTYLE
350
2A
  0
DICTIONARY
  5
D
102
{ACAD_REACTORS
330
C
102
}
330
C
100
AcDbDictionary
281
     1
  0
DICTIONARY
  5
1A
102
{ACAD_REACTORS
330
C
102
}
330
C
100
AcDbDictionary
281
     1
  3
Layout1
350
1E
  3
Layout2
350
26
  3
Model
350
22
  0
DICTIONARY
  5
5CF
102
{ACAD_REACTORS
330
C
102
}
330
C
100
AcDbDictionary
281
     1
  0
DICTIONARY
  5
17
102
{ACAD_REACTORS
330
C
102
}
330
C
100
AcDbDictionary
281
     1
  3
Standard
350
18
  0
DICTIONARY
  5
19
102
{ACAD_REACTORS
330
C
102
}
330
C
100
AcDbDictionary
281
     1
  0
ACDBDICTIONARYWDFLT
  5
E
102
{ACAD_REACTORS
330
C
102
}
330
C
100
AcDbDictionary
281
     1
  3
Normal
350
F
100
AcDbDictionaryWithDefault
340
F
  0
DICTIONARY
  5
5CE
102
{ACAD_REACTORS
330
C
102
}
330
C
100
AcDbDictionary
281
     1
  0
DICTIONARY
  5
2A
102
{ACAD_REACTORS
330
C
102
}
330
C
100
AcDbDictionary
281
     1
  3
2dWireframe
350
2F
  3
3D Hidden
350
31
  3
3dWireframe
350
30
  3
Basic
350
32
  3
Brighten
350
36
  3
ColorChange
350
3A
  3
Conceptual
350
34
  3
Dim
350
35
  3
Facepattern
350
39
  3
Flat
350
2B
  3
FlatWithEdges
350
2C
  3
Gouraud
350
2D
  3
GouraudWithEdges
350
2E
  3
Linepattern
350
38
  3
Realistic
350
33
  3
Thicken
350
37
  0
LAYOUT
  5
1E
102
{ACAD_REACTORS
330
1A
102
}
330
1A
100
AcDbPlotSettings
  1

  2
none_device
  4

  6

 40
0.0
 41
0.0
 42
0.0
 43
0.0
 44
0.0
 45
0.0
 46
0.0
 47
0.0
 48
0.0
 49
0.0
140
0.0
141
0.0
142
1.0
143
1.0
 70
   688
 72
     0
 73
     0
 74
     5
  7

 75
    16
 76
     0
 77
     5
 78
   300
147
1.0
148
0.0
149
0.0
100
AcDbLayout
  1
Layout1
 70
     1
 71
     1
 10
0.0
 20
0.0
 11
420.0
 21
297.0
 12
0.0
 22
0.0
 32
0.0
 14
1.000000000000000E+20
 24
1.000000000000000E+20
 34
1.000000000000000E+20
 15
-1.000000000000000E+20
 25
-1.000000000000000E+20
 35
-1.000000000000000E+20
146
0.0
 13
0.0
 23
0.0
 33
0.0
 16
1.0
 26
0.0
 36
0.0
 17
0.0
 27
1.0
 37
0.0
 76
     0
330
1B
  0
LAYOUT
  5
26
102
{ACAD_REACTORS
330
1A
102
}
330
1A
100
AcDbPlotSettings
  1

  2
none_device
  4

  6

 40
0.0
 41
0.0
 42
0.0
 43
0.0
 44
0.0
 45
0.0
 46
0.0
 47
0.0
 48
0.0
 49
0.0
140
0.0
141
0.0
142
1.0
143
1.0
 70
   688
 72
     0
 73
     0
 74
     5
  7

 75
    16
 76
     0
 77
     5
 78
   300
147
1.0
148
0.0
149
0.0
100
AcDbLayout
  1
Layout2
 70
     1
 71
     2
 10
0.0
 20
0.0
 11
0.0
 21
0.0
 12
0.0
 22
0.0
 32
0.0
 14
0.0
 24
0.0
 34
0.0
 15
0.0
 25
0.0
 35
0.0
146
0.0
 13
0.0
 23
0.0
 33
0.0
 16
1.0
 26
0.0
 36
0.0
 17
0.0
 27
1.0
 37
0.0
 76
     0
330
23
  0
LAYOUT
  5
22
102
{ACAD_REACTORS
330
1A
102
}
330
1A
100
AcDbPlotSettings
  1

  2
none_device
  4

  6

 40
0.0
 41
0.0
 42
0.0
 43
0.0
 44
0.0
 45
0.0
 46
0.0
 47
0.0
 48
0.0
 49
0.0
140
0.0
141
0.0
142
1.0
143
1.0
 70
  1712
 72
     0
 73
     0
 74
     0
  7

 75
     0
 76
     0
 77
     5
 78
   300
147
1.0
148
0.0
149
0.0
100
AcDbLayout
  1
Model
 70
     1
 71
     0
 10
-2100.0
 20
-1485.0
 11
2100.0
 21
1485.0
 12
0.0
 22
0.0
 32
0.0
 14
-2100.0
 24
-1485.0
 34
0.0
 15
2100.0
 25
1485.0
 35
0.0
146
0.0
 13
0.0
 23
0.0
 33
0.0
 16
1.0
 26
0.0
 36
0.0
 17
0.0
 27
1.0
 37
0.0
 76
     0
330
1F
331
29
  0
MLINESTYLE
  5
18
102
{ACAD_REACTORS
330
17
102
}
330
17
100
AcDbMlineStyle
  2
Standard
 70
     0
  3

 62
   256
 51
90.0
 52
90.0
 71
     2
 49
0.5
 62
   256
  6
BYLAYER
 49
-0.5
 62
   256
  6
BYLAYER
  0
ACDBPLACEHOLDER
  5
F
102
{ACAD_REACTORS
330
E
102
}
330
E
  0
VISUALSTYLE
  5
2F
102
{ACAD_REACTORS
330
2A
102
}
330
2A
100
AcDbVisualStyle
  2
2dWireframe
 70
     4
 71
     0
 72
     2
 73
     0
 90
        0
 40
-0.6
 41
-30.0
 62
     5
 63
     7
421
 16777215
 74
     1
 91
        4
 64
     7
 65
   257
 75
     1
175
     1
 42
1.0
 92
        0
 66
   257
 43
1.0
 76
     1
 77
     6
 78
     2
 67
     7
 79
     5
170
     0
171
     0
290
     0
174
     0
 93
        1
 44
0.0
173
     0
291
     0
 45
0.0
1001
ACAD
1000
AcDbSavedByObjectVersion
1070
     0
  0
VISUALSTYLE
  5
31
102
{ACAD_REACTORS
330
2A
102
}
330
2A
100
AcDbVisualStyle
  2
3D Hidden
 70
     6
 71
     1
 72
     2
 73
     2
 90
        0
 40
-0.6
 41
-30.0
 62
     5
 63
     7
421
 16777215
 74
     2
 91
        2
 64
     7
 65
   257
 75
     2
175
     1
 42
40.0
 92
        0
 66
   257
 43
1.0
 76
     1
 77
     6
 78
     2
 67
     7
 79
     3
170
     0
171
     0
290
     0
174
     0
 93
        1
 44
0.0
173
     0
291
     0
 45
0.0
1001
ACAD
1000
AcDbSavedByObjectVersion
1070
     0
  0
VISUALSTYLE
  5
30
102
{ACAD_REACTORS
330
2A
102
}
330
2A
100
AcDbVisualStyle
  2
3dWireframe
 70
     5
 71
     0
 72
     2
 73
     0
 90
        0
 40
-0.6
 41
-30.0
 62
     5
 63
     7
421
 16777215
 74
     1
 91
        4
 64
     7
 65
   257
 75
     1
175
     1
 42
1.0
 92
        0
 66
   257
 43
1.0
 76
     1
 77
     6
 78
     2
 67
     7
 79
     5
170
     0
171
     0
290
     0
174
     0
 93
        1
 44
0.0
173
     0
291
     0
 45
0.0
1001
ACAD
1000
AcDbSavedByObjectVersion
1070
     0
  0
VISUALSTYLE
  5
32
102
{ACAD_REACTORS
330
2A
102
}
330
2A
100
AcDbVisualStyle
  2
Basic
 70
     7
 71
     1
 72
     0
 73
     1
 90
        0
 40
-0.6
 41
-30.0
 62
     5
 63
     7
421
 16777215
 74
     0
 91
        4
 64
     7
 65
   257
 75
     1
175
     1
 42
1.0
 92
        8
 66
     7
 43
1.0
 76
     1
 77
     6
 78
     2
 67
     7
 79
     5
170
     0
171
     0
290
     0
174
     0
 93
        1
 44
0.0
173
     0
291
     1
 45
0.0
1001
ACAD
1000
AcDbSavedByObjectVersion
1070
     0
  0
VISUALSTYLE
  5
36
102
{ACAD_REACTORS
330
2A
102
}
330
2A
100
AcDbVisualStyle
  2
Brighten
 70
    12
 71
     2
 72
     2
 73
     0
 90
        0
 40
-0.6
 41
-30.0
 62
     5
 63
     7
421
 16777215
 74
     1
 91
        4
 64
     7
 65
   257
 75
     1
175
     1
 42
1.0
 92
        8
 66
     7
 43
1.0
 76
     1
 77
     6
 78
     2
 67
     7
 79
     5
170
     0
171
     0
290
     0
174
     0
 93
        1
 44
50.0
173
     0
291
     1
 45
0.0
1001
ACAD
1000
AcDbSavedByObjectVersion
1070
     0
  0
VISUALSTYLE
  5
3A
102
{ACAD_REACTORS
330
2A
102
}
330
2A
100
AcDbVisualStyle
  2
ColorChange
 70
    16
 71
     2
 72
     2
 73
     3
 90
        0
 40
-0.6
 41
-30.0
 62
     5
 63
     8
421
  8421504
 74
     1
 91
        4
 64
     7
 65
   257
 75
     1
175
     1
 42
1.0
 92
        8
 66
     8
424
  8421504
 43
1.0
 76
     1
 77
     6
 78
     2
 67
     7
 79
     5
170
     0
171
     0
290
     0
174
     0
 93
        1
 44
0.0
173
     0
291
     1
 45
0.0
1001
ACAD
1000
AcDbSavedByObjectVersion
1070
     0
  0
VISUALSTYLE
  5
34
102
{ACAD_REACTORS
330
2A
102
}
330
2A
100
AcDbVisualStyle
  2
Conceptual
 70
     9
 71
     3
 72
     2
 73
     0
 90
        0
 40
-0.6
 41
-30.0
 62
     5
 63
     7
421
 16777215
 74
     2
 91
        2
 64
     7
 65
   257
 75
     1
175
     1
 42
40.0
 92
        8
 66
     7
 43
1.0
 76
     1
 77
     6
 78
     2
 67
     7
 79
     3
170
     0
171
     0
290
     0
174
     0
 93
        1
 44
0.0
173
     0
291
     0
 45
0.0
1001
ACAD
1000
AcDbSavedByObjectVersion
1070
     0
  0
VISUALSTYLE
  5
35
102
{ACAD_REACTORS
330
2A
102
}
330
2A
100
AcDbVisualStyle
  2
Dim
 70
    11
 71
     2
 72
     2
 73
     0
 90
        0
 40
-0.6
 41
-30.0
 62
     5
 63
     7
421
 16777215
 74
     1
 91
        4
 64
     7
 65
   257
 75
     1
175
     1
 42
1.0
 92
        8
 66
     7
 43
1.0
 76
     1
 77
     6
 78
     2
 67
     7
 79
     5
170
     0
171
     0
290
     0
174
     0
 93
        1
 44
-50.0
173
     0
291
     1
 45
0.0
1001
ACAD
1000
AcDbSavedByObjectVersion
1070
     0
  0
VISUALSTYLE
  5
39
102
{ACAD_REACTORS
330
2A
102
}
330
2A
100
AcDbVisualStyle
  2
Facepattern
 70
    15
 71
     2
 72
     2
 73
     0
 90
        0
 40
-0.6
 41
-30.0
 62
     5
 63
     7
421
 16777215
 74
     1
 91
        4
 64
     7
 65
   257
 75
     1
175
     1
 42
1.0
 92
        8
 66
     7
 43
1.0
 76
     1
 77
     6
 78
     2
 67
     7
 79
     5
170
     0
171
     0
290
     0
174
     0
 93
        1
 44
0.0
173
     0
291
     1
 45
0.0
1001
ACAD
1000
AcDbSavedByObjectVersion
1070
     0
  0
VISUALSTYLE
  5
2B
102
{ACAD_REACTORS
330
2A
102
}
330
2A
100
AcDbVisualStyle
  2
Flat
 70
     0
 71
     2
 72
     1
 73
     1
 90
        2
 40
-0.6
 41
30.0
 62
     5
 63
     7
421
 16777215
 74
     0
 91
        4
 64
     7
 65
   257
 75
     1
175
     1
 42
1.0
 92
        8
 66
     7
 43
1.0
 76
     1
 77
     6
 78
     2
 67
     7
 79
     5
170
     0
171
     0
290
     0
174
     0
 93
       13
 44
0.0
173
     0
291
     1
 45
0.0
1001
ACAD
1000
AcDbSavedByObjectVersion
1070
     0
  0
VISUALSTYLE
  5
2C
102
{ACAD_REACTORS
330
2A
102
}
330
2A
100
AcDbVisualStyle
  2
FlatWithEdges
 70
     1
 71
     2
 72
     1
 73
     1
 90
        2
 40
-0.6
 41
30.0
 62
     5
 63
     7
421
 16777215
 74
     1
 91
        4
 64
     7
 65
   257
 75
     1
175
     1
 42
1.0
 92
        0
 66
   257
 43
1.0
 76
     1
 77
     6
 78
     2
 67
     7
 79
     5
170
     0
171
     0
290
     0
174
     0
 93
       13
 44
0.0
173
     0
291
     1
 45
0.0
1001
ACAD
1000
AcDbSavedByObjectVersion
1070
     0
  0
VISUALSTYLE
  5
2D
102
{ACAD_REACTORS
330
2A
102
}
330
2A
100
AcDbVisualStyle
  2
Gouraud
 70
     2
 71
     2
 72
     2
 73
     1
 90
        2
 40
-0.6
 41
30.0
 62
     5
 63
     7
421
 16777215
 74
     0
 91
        4
 64
     7
 65
   257
 75
     1
175
     1
 42
1.0
 92
        0
 66
     7
 43
1.0
 76
     1
 77
     6
 78
     2
 67
     7
 79
     5
170
     0
171
     0
290
     0
174
     0
 93
       13
 44
0.0
173
     0
291
     1
 45
0.0
1001
ACAD
1000
AcDbSavedByObjectVersion
1070
     0
  0
VISUALSTYLE
  5
2E
102
{ACAD_REACTORS
330
2A
102
}
330
2A
100
AcDbVisualStyle
  2
GouraudWithEdges
 70
     3
 71
     2
 72
     2
 73
     1
 90
        2
 40
-0.6
 41
30.0
 62
     5
 63
     7
421
 16777215
 74
     1
 91
        4
 64
     7
 65
   257
 75
     1
175
     1
 42
1.0
 92
        0
 66
   257
 43
1.0
 76
     1
 77
     6
 78
     2
 67
     7
 79
     5
170
     0
171
     0
290
     0
174
     0
 93
       13
 44
0.0
173
     0
291
     1
 45
0.0
1001
ACAD
1000
AcDbSavedByObjectVersion
1070
     0
  0
VISUALSTYLE
  5
38
102
{ACAD_REACTORS
330
2A
102
}
330
2A
100
AcDbVisualStyle
  2
Linepattern
 70
    14
 71
     2
 72
     2
 73
     0
 90
        0
 40
-0.6
 41
-30.0
 62
     5
 63
     7
421
 16777215
 74
     1
 91
        4
 64
     7
 65
   257
 75
     7
175
     7
 42
1.0
 92
        8
 66
     7
 43
1.0
 76
     1
 77
     6
 78
     2
 67
     7
 79
     5
170
     0
171
     0
290
     0
174
     0
 93
        1
 44
0.0
173
     0
291
     1
 45
0.0
1001
ACAD
1000
AcDbSavedByObjectVersion
1070
     0
  0
VISUALSTYLE
  5
33
102
{ACAD_REACTORS
330
2A
102
}
330
2A
100
AcDbVisualStyle
  2
Realistic
 70
     8
 71
     2
 72
     2
 73
     0
 90
        0
 40
-0.6
 41
-30.0
 62
     5
 63
     7
421
 16777215
 74
     1
 91
        0
 64
     7
 65
   257
 75
     1
175
     1
 42
1.0
 92
        8
 66
     8
424
  7895160
 43
1.0
 76
     1
 77
     6
 78
     2
 67
     7
 79
     5
170
     0
171
     0
290
     0
174
     0
 93
       13
 44
0.0
173
     0
291
     0
 45
0.0
1001
ACAD
1000
AcDbSavedByObjectVersion
1070
     0
  0
VISUALSTYLE
  5
37
102
{ACAD_REACTORS
330
2A
102
}
330
2A
100
AcDbVisualStyle
  2
Thicken
 70
    13
 71
     2
 72
     2
 73
     0
 90
        0
 40
-0.6
 41
-30.0
 62
     5
 63
     7
421
 16777215
 74
     1
 91
        4
 64
     7
 65
   257
 75
     1
175
     1
 42
1.0
 92
       12
 66
     7
 43
1.0
 76
     1
 77
     6
 78
     2
 67
     7
 79
     5
170
     0
171
     0
290
     0
174
     0
 93
        1
 44
0.0
173
     0
291
     1
 45
0.0
1001
ACAD
1000
AcDbSavedByObjectVersion
1070
     0
  0
ENDSEC
  0
EOF
