  0
SECTION
  2
HEADER
  9
$ACADVER
  1
AC1018
  9
$ACADMAINTVER
 70
     0
  9
$DWGCODEPAGE
  3
ANSI_932
  9
$INSBASE
 10
0.0
 20
0.0
 30
0.0
  9
$EXTMIN
 10
-2100.0
 20
-1485.0
 30
0.0
  9
$EXTMAX
 10
2100.0
 20
1485.0
 30
0.0
  9
$LIMMIN
 10
-2100.0
 20
-1485.0
  9
$LIMMAX
 10
2100.0
 20
1485.0
  9
$ORTHOMODE
 70
     0
  9
$REGENMODE
 70
     1
  9
$FILLMODE
 70
     1
  9
$QTEXTMODE
 70
     0
  9
$MIRRTEXT
 70
     1
  9
$LTSCALE
 40
10.0
  9
$ATTMODE
 70
     1
  9
$TEXTSIZE
 40
2.5
  9
$TRACEWID
 40
1.0
  9
$TEXTSTYLE
  7
Standard
  9
$CLAYER
  8
0
  9
$CELTYPE
  6
ByLayer
  9
$CECOLOR
 62
   256
  9
$CELTSCALE
 40
1.0
  9
$DISPSILH
 70
     0
  9
$DIMSCALE
 40
1.0
  9
$DIMASZ
 40
2.5
  9
$DIMEXO
 40
0.625
  9
$DIMDLI
 40
3.75
  9
$DIMRND
 40
0.0
  9
$DIMDLE
 40
0.0
  9
$DIMEXE
 40
1.25
  9
$DIMTP
 40
0.0
  9
$DIMTM
 40
0.0
  9
$DIMTXT
 40
2.5
  9
$DIMCEN
 40
2.5
  9
$DIMTSZ
 40
0.0
  9
$DIMTOL
 70
     0
  9
$DIMLIM
 70
     0
  9
$DIMTIH
 70
     0
  9
$DIMTOH
 70
     0
  9
$DIMSE1
 70
     0
  9
$DIMSE2
 70
     0
  9
$DIMTAD
 70
     1
  9
$DIMZIN
 70
     8
  9
$DIMBLK
  1

  9
$DIMASO
 70
     1
  9
$DIMSHO
 70
     1
  9
$DIMPOST
  1

  9
$DIMAPOST
  1

  9
$DIMALT
 70
     0
  9
$DIMALTD
 70
     3
  9
$DIMALTF
 40
0.03937007874016
  9
$DIMLFAC
 40
1.0
  9
$DIMTOFL
 70
     1
  9
$DIMTVP
 40
0.0
  9
$DIMTIX
 70
     0
  9
$DIMSOXD
 70
     0
  9
$DIMSAH
 70
     0
  9
$DIMBLK1
  1

  9
$DIMBLK2
  1

  9
$DIMSTYLE
  2
ISO-25
  9
$DIMCLRD
 70
     0
  9
$DIMCLRE
 70
     0
  9
$DIMCLRT
 70
     0
  9
$DIMTFAC
 40
1.0
  9
$DIMGAP
 40
0.625
  9
$DIMJUST
 70
     0
  9
$DIMSD1
 70
     0
  9
$DIMSD2
 70
     0
  9
$DIMTOLJ
 70
     0
  9
$DIMTZIN
 70
     8
  9
$DIMALTZ
 70
     0
  9
$DIMALTTZ
 70
     0
  9
$DIMUPT
 70
     0
  9
$DIMDEC
 70
     2
  9
$DIMTDEC
 70
     2
  9
$DIMALTU
 70
     2
  9
$DIMALTTD
 70
     3
  9
$DIMTXSTY
  7
Standard
  9
$DIMAUNIT
 70
     0
  9
$DIMADEC
 70
     0
  9
$DIMALTRND
 40
0.0
  9
$DIMAZIN
 70
     0
  9
$DIMDSEP
 70
    44
  9
$DIMATFIT
 70
     3
  9
$DIMFRAC
 70
     0
  9
$DIMLDRBLK
  1

  9
$DIMLUNIT
 70
     2
  9
$DIMLWD
 70
    -2
  9
$DIMLWE
 70
    -2
  9
$DIMTMOVE
 70
     0
  9
$LUNITS
 70
     2
  9
$LUPREC
 70
     4
  9
$SKETCHINC
 40
1.0
  9
$FILLETRAD
 40
10.0
  9
$AUNITS
 70
     0
  9
$AUPREC
 70
     0
  9
$MENU
  1
.
  9
$ELEVATION
 40
0.0
  9
$PELEVATION
 40
0.0
  9
$THICKNESS
 40
0.0
  9
$LIMCHECK
 70
     0
  9
$CHAMFERA
 40
10.0
  9
$CHAMFERB
 40
10.0
  9
$CHAMFERC
 40
20.0
  9
$CHAMFERD
 40
0.0
  9
$SKPOLY
 70
     0
  9
$TDCREATE
 40
2458568.380877535
  9
$TDUCREATE
 40
2458568.005877535
  9
$TDUPDATE
 40
2458568.380877547
  9
$TDUUPDATE
 40
2458568.005877547
  9
$TDINDWG
 40
0.0000000116
  9
$TDUSRTIMER
 40
0.0000000116
  9
$USRTIMER
 70
     1
  9
$ANGBASE
 50
0.0
  9
$ANGDIR
 70
     0
  9
$PDMODE
 70
     0
  9
$PDSIZE
 40
0.0
  9
$PLINEWID
 40
0.0
  9
$SPLFRAME
 70
     0
  9
$SPLINETYPE
 70
     6
  9
$SPLINESEGS
 70
     8
  9
$HANDSEED
  5
5E8
  9
$SURFTAB1
 70
     6
  9
$SURFTAB2
 70
     6
  9
$SURFTYPE
 70
     6
  9
$SURFU
 70
     6
  9
$SURFV
 70
     6
  9
$UCSBASE
  2

  9
$UCSNAME
  2

  9
$UCSORG
 10
0.0
 20
0.0
 30
0.0
  9
$UCSXDIR
 10
1.0
 20
0.0
 30
0.0
  9
$UCSYDIR
 10
0.0
 20
1.0
 30
0.0
  9
$UCSORTHOREF
  2

  9
$UCSORTHOVIEW
 70
     0
  9
$UCSORGTOP
 10
0.0
 20
0.0
 30
0.0
  9
$UCSORGBOTTOM
 10
0.0
 20
0.0
 30
0.0
  9
$UCSORGLEFT
 10
0.0
 20
0.0
 30
0.0
  9
$UCSORGRIGHT
 10
0.0
 20
0.0
 30
0.0
  9
$UCSORGFRONT
 10
0.0
 20
0.0
 30
0.0
  9
$UCSORGBACK
 10
0.0
 20
0.0
 30
0.0
  9
$PUCSBASE
  2

  9
$PUCSNAME
  2

  9
$PUCSORG
 10
0.0
 20
0.0
 30
0.0
  9
$PUCSXDIR
 10
1.0
 20
0.0
 30
0.0
  9
$PUCSYDIR
 10
0.0
 20
1.0
 30
0.0
  9
$PUCSORTHOREF
  2

  9
$PUCSORTHOVIEW
 70
     0
  9
$PUCSORGTOP
 10
0.0
 20
0.0
 30
0.0
  9
$PUCSORGBOTTOM
 10
0.0
 20
0.0
 30
0.0
  9
$PUCSORGLEFT
 10
0.0
 20
0.0
 30
0.0
  9
$PUCSORGRIGHT
 10
0.0
 20
0.0
 30
0.0
  9
$PUCSORGFRONT
 10
0.0
 20
0.0
 30
0.0
  9
$PUCSORGBACK
 10
0.0
 20
0.0
 30
0.0
  9
$USERI1
 70
     0
  9
$USERI2
 70
     0
  9
$USERI3
 70
     0
  9
$USERI4
 70
     0
  9
$USERI5
 70
     0
  9
$USERR1
 40
0.0
  9
$USERR2
 40
0.0
  9
$USERR3
 40
0.0
  9
$USERR4
 40
0.0
  9
$USERR5
 40
0.0
  9
$WORLDVIEW
 70
     1
  9
$SHADEDGE
 70
     3
  9
$SHADEDIF
 70
    70
  9
$TILEMODE
 70
     1
  9
$MAXACTVP
 70
    64
  9
$PINSBASE
 10
0.0
 20
0.0
 30
0.0
  9
$PLIMCHECK
 70
     0
  9
$PEXTMIN
 10
1.000000000000000E+20
 20
1.000000000000000E+20
 30
1.000000000000000E+20
  9
$PEXTMAX
 10
-1.000000000000000E+20
 20
-1.000000000000000E+20
 30
-1.000000000000000E+20
  9
$PLIMMIN
 10
0.0
 20
0.0
  9
$PLIMMAX
 10
420.0
 20
297.0
  9
$UNITMODE
 70
     0
  9
$VISRETAIN
 70
     1
  9
$PLINEGEN
 70
     0
  9
$PSLTSCALE
 70
     1
  9
$TREEDEPTH
 70
  3020
  9
$CMLSTYLE
  2
Standard
  9
$CMLJUST
 70
     0
  9
$CMLSCALE
 40
20.0
  9
$PROXYGRAPHICS
 70
     1
  9
$MEASUREMENT
 70
     1
  9
$CELWEIGHT
370
    -1
  9
$ENDCAPS
280
     0
  9
$JOINSTYLE
280
     0
  9
$LWDISPLAY
290
     0
  9
$INSUNITS
 70
     4
  9
$HYPERLINKBASE
  1

  9
$STYLESHEET
  1

  9
$XEDIT
290
     1
  9
$CEPSNTYPE
380
     0
  9
$PSTYLEMODE
290
     1
  9
$FINGERPRINTGUID
  2
{EFD17DFA-BC17-4235-9496-B3ACE2CBD13C}
  9
$VERSIONGUID
  2
{FAEB1C32-E019-11D5-929B-00C0DF256EC4}
  9
$EXTNAMES
290
     1
  9
$PSVPSCALE
 40
0.0
  9
$OLESTARTUP
290
     0
  9
$SORTENTS
280
   127
  9
$INDEXCTL
280
     0
  9
$HIDETEXT
280
     1
  9
$XCLIPFRAME
290
     0
  9
$HALOGAP
280
     0
  9
$OBSCOLOR
 70
   257
  9
$OBSLTYPE
280
     0
  9
$INTERSECTIONDISPLAY
280
     0
  9
$INTERSECTIONCOLOR
 70
   257
  9
$DIMASSOC
280
     2
  9
$PROJECTNAME
  1

  0
ENDSEC
  0
SECTION
  2
CLASSES
  0
CLASS
  1
ACDBDICTIONARYWDFLT
  2
AcDbDictionaryWithDefault
  3
ObjectDBX Classes
 90
        0
 91
        4
280
     0
281
     0
  0
CLASS
  1
VISUALSTYLE
  2
AcDbVisualStyle
  3
ObjectDBX Classes
 90
     4095
 91
        4
280
     0
281
     0
  0
ENDSEC
  0
SECTION
  2
TABLES
  0
TABLE
  2
VPORT
  5
8
330
0
100
AcDbSymbolTable
 70
     1
  0
VPORT
  5
29
330
8
100
AcDbSymbolTableRecord
100
AcDbViewportTableRecord
  2
*Active
 70
     0
 10
0.0
 20
0.0
 11
1.0
 21
1.0
 12
0.0
 22
0.0
 13
0.0
 23
0.0
 14
10.0
 24
10.0
 15
10.0
 25
10.0
 16
0.0
 26
0.0
 36
1.0
 17
0.0
 27
0.0
 37
0.0
 40
3267.0
 41
1.414141414141414
 42
50.0
 43
0.0
 44
0.0
 50
0.0
 51
0.0
 71
     0
 72
 10000
 73
     1
 74
     3
 75
     0
 76
     0
 77
     0
 78
     0
281
     0
 65
     1
110
0.0
120
0.0
130
0.0
111
1.0
121
0.0
131
0.0
112
0.0
122
1.0
132
0.0
 79
     0
146
0.0
  0
ENDTAB
  0
TABLE
  2
LTYPE
  5
5
330
0
100
AcDbSymbolTable
 70
     3
  0
LTYPE
  5
14
330
5
100
AcDbSymbolTableRecord
100
AcDbLinetypeTableRecord
  2
ByBlock
 70
     0
  3

 72
    65
 73
     0
 40
0.0
  0
LTYPE
  5
15
330
5
100
AcDbSymbolTableRecord
100
AcDbLinetypeTableRecord
  2
ByLayer
 70
     0
  3

 72
    65
 73
     0
 40
0.0
  0
LTYPE
  5
16
330
5
100
AcDbSymbolTableRecord
100
AcDbLinetypeTableRecord
  2
Continuous
 70
     0
  3
Solid line
 72
    65
 73
     0
 40
0.0
  0
LTYPE
  5
3C
330
5
100
AcDbSymbolTableRecord
100
AcDbLinetypeTableRecord
  2
JWW_DASHED3
 70
     0
  3
---  ------  ------  ------  ---
 72
    65
 73
     2
 40
3.386666666666667
 49
2.54
 74
     0
 49
-0.8466666666666667
 74
     0
  0
LTYPE
  5
3D
330
5
100
AcDbSymbolTableRecord
100
AcDbLinetypeTableRecord
  2
JWW_CENTER2
 70
     0
  3
-------------  --  -------------
 72
    65
 73
     4
 40
13.54666666666667
 49
11.00666666666667
 74
     0
 49
-0.8466666666666667
 74
     0
 49
0.8466666666666667
 74
     0
 49
-0.8466666666666667
 74
     0
  0
ENDTAB
  0
TABLE
  2
LAYER
  5
2
330
0
100
AcDbSymbolTable
 70
    15
  0
LAYER
  5
10
330
2
100
AcDbSymbolTableRecord
100
AcDbLayerTableRecord
  2
0
 70
     0
 62
     7
  6
Continuous
370
    -3
390
F
  0
LAYER
  5
3E
330
2
100
AcDbSymbolTableRecord
100
AcDbLayerTableRecord
  2
C-2
 70
     0
 62
     7
  6
Continuous
370
    -1
390
F
  0
LAYER
  5
3F
330
2
100
AcDbSymbolTableRecord
100
AcDbLayerTableRecord
  2
C-1
 70
     0
 62
     7
  6
Continuous
370
    -1
390
F
  0
LAYER
  5
40
330
2
100
AcDbSymbolTableRecord
100
AcDbLayerTableRecord
  2
C-5
 70
     0
 62
     7
  6
Continuous
370
    -1
390
F
  0
LAYER
  5
41
330
2
100
AcDbSymbolTableRecord
100
AcDbLayerTableRecord
  2
C-A
 70
     0
 62
     7
  6
Continuous
370
    -1
390
F
  0
LAYER
  5
42
330
2
100
AcDbSymbolTableRecord
100
AcDbLayerTableRecord
  2
C-4
 70
     0
 62
     7
  6
Continuous
370
    -1
390
F
  0
LAYER
  5
43
330
2
100
AcDbSymbolTableRecord
100
AcDbLayerTableRecord
  2
D-9
 70
     0
 62
     7
  6
Continuous
370
    -1
390
F
  0
LAYER
  5
44
330
2
100
AcDbSymbolTableRecord
100
AcDbLayerTableRecord
  2
D-A
 70
     0
 62
     7
  6
Continuous
370
    -1
390
F
  0
LAYER
  5
45
330
2
100
AcDbSymbolTableRecord
100
AcDbLayerTableRecord
  2
D-4
 70
     0
 62
     7
  6
Continuous
370
    -1
390
F
  0
LAYER
  5
46
330
2
100
AcDbSymbolTableRecord
100
AcDbLayerTableRecord
  2
D-5
 70
     0
 62
     7
  6
Continuous
370
    -1
390
F
  0
LAYER
  5
47
330
2
100
AcDbSymbolTableRecord
100
AcDbLayerTableRecord
  2
D-6
 70
     0
 62
     7
  6
Continuous
370
    -1
390
F
  0
LAYER
  5
48
330
2
100
AcDbSymbolTableRecord
100
AcDbLayerTableRecord
  2
D-1
 70
     0
 62
     7
  6
Continuous
370
    -1
390
F
  0
LAYER
  5
49
330
2
100
AcDbSymbolTableRecord
100
AcDbLayerTableRecord
  2
D-0
 70
     0
 62
     7
  6
Continuous
370
    -1
390
F
  0
LAYER
  5
4A
330
2
100
AcDbSymbolTableRecord
100
AcDbLayerTableRecord
  2
D-2
 70
     0
 62
     7
  6
Continuous
370
    -1
390
F
  0
LAYER
  5
4B
330
2
100
AcDbSymbolTableRecord
100
AcDbLayerTableRecord
  2
F-4ﾚｲﾔ
 70
     0
 62
     7
  6
Continuous
370
    -1
390
F
  0
ENDTAB
  0
TABLE
  2
STYLE
  5
3
330
0
100
AcDbSymbolTable
 70
     2
  0
STYLE
  5
11
330
3
100
AcDbSymbolTableRecord
100
AcDbTextStyleTableRecord
  2
Standard
 70
     0
 40
0.0
 41
1.0
 50
0.0
 71
     0
 42
2.5
  3
txt
  4

1001
ACAD
1000

1071
        0
  0
STYLE
  5
3B
330
3
100
AcDbSymbolTableRecord
100
AcDbTextStyleTableRecord
  2
ＭＳ ゴシック
 70
     0
 40
1.0
 41
1.0
 50
0.0
 71
     0
 42
10.0
  3

  4

1001
ACAD
1000
MS Gothic
1071
    32817
  0
ENDTAB
  0
TABLE
  2
VIEW
  5
6
330
0
100
AcDbSymbolTable
 70
     0
  0
ENDTAB
  0
TABLE
  2
UCS
  5
7
330
0
100
AcDbSymbolTable
 70
     0
  0
ENDTAB
  0
TABLE
  2
APPID
  5
9
330
0
100
AcDbSymbolTable
 70
     1
  0
APPID
  5
12
330
9
100
AcDbSymbolTableRecord
100
AcDbRegAppTableRecord
  2
ACAD
 70
     0
  0
ENDTAB
  0
TABLE
  2
DIMSTYLE
  5
A
330
0
100
AcDbSymbolTable
 70
     1
100
AcDbDimStyleTable
  0
DIMSTYLE
105
27
330
A
100
AcDbSymbolTableRecord
100
AcDbDimStyleTableRecord
  2
ISO-25
 70
     0
 41
2.5
 42
0.625
 43
3.75
 44
1.25
 73
     0
 74
     0
 77
     1
 78
     8
140
2.5
141
2.5
143
0.03937007874016
147
0.625
171
     3
172
     1
271
     2
272
     2
274
     3
278
    44
283
     0
284
     8
340
11
  0
ENDTAB
  0
TABLE
  2
BLOCK_RECORD
  5
1
330
0
100
AcDbSymbolTable
 70
     1
  0
BLOCK_RECORD
  5
1F
330
1
100
AcDbSymbolTableRecord
100
AcDbBlockTableRecord
  2
*Model_Space
340
22
  0
BLOCK_RECORD
  5
1B
330
1
100
AcDbSymbolTableRecord
100
AcDbBlockTableRecord
  2
*Paper_Space
340
1E
  0
BLOCK_RECORD
  5
23
330
1
100
AcDbSymbolTableRecord
100
AcDbBlockTableRecord
  2
*Paper_Space0
340
26
  0
ENDTAB
  0
ENDSEC
  0
SECTION
  2
BLOCKS
  0
BLOCK
  5
20
330
1F
100
AcDbEntity
  8
0
100
AcDbBlockBegin
  2
*Model_Space
 70
     0
 10
0.0
 20
0.0
 30
0.0
  3
*Model_Space
  1

  0
ENDBLK
  5
21
330
1F
100
AcDbEntity
  8
0
100
AcDbBlockEnd
  0
BLOCK
  5
1C
330
1B
100
AcDbEntity
 67
     1
  8
0
100
AcDbBlockBegin
  2
*Paper_Space
 70
     0
 10
0.0
 20
0.0
 30
0.0
  3
*Paper_Space
  1

  0
ENDBLK
  5
1D
330
1B
100
AcDbEntity
 67
     1
  8
0
100
AcDbBlockEnd
  0
BLOCK
  5
24
330
23
100
AcDbEntity
  8
0
100
AcDbBlockBegin
  2
*Paper_Space0
 70
     0
 10
0.0
 20
0.0
 30
0.0
  3
*Paper_Space0
  1

  0
ENDBLK
  5
25
330
23
100
AcDbEntity
  8
0
100
AcDbBlockEnd
  0
ENDSEC
  0
SECTION
  2
ENTITIES
  0
LINE
  5
4C
330
1F
100
AcDbEntity
  8
C-2
  6
Continuous
 62
     3
370
     9
100
AcDbLine
 10
-79.12131577569035
 20
963.6750042889571
 30
0.0
 11
-79.12131577569035
 21
463.6749279950118
 31
0.0
  0
LINE
  5
4D
330
1F
100
AcDbEntity
  8
C-2
  6
Continuous
 62
     3
370
     9
100
AcDbLine
 10
-79.12131577569035
 20
463.6749279950118
 30
0.0
 11
-579.1211975200752
 21
463.6749279950118
 31
0.0
  0
LINE
  5
4E
330
1F
100
AcDbEntity
  8
C-1
  6
Continuous
 62
     2
370
     9
100
AcDbLine
 10
-78.12149888115911
 20
964.6751263592696
 30
0.0
 11
-78.12149888115911
 21
462.6749432538008
 31
0.0
  0
LINE
  5
4F
330
1F
100
AcDbEntity
  8
C-1
  6
Continuous
 62
     2
370
     9
100
AcDbLine
 10
-78.12149888115911
 20
462.6749432538008
 30
0.0
 11
-580.1215484722236
 21
462.6749432538008
 31
0.0
  0
LINE
  5
50
330
1F
100
AcDbEntity
  8
C-2
  6
Continuous
 62
     3
370
     9
100
AcDbLine
 10
-579.1211975200752
 20
463.6749279950118
 30
0.0
 11
-579.1211975200752
 21
963.6750042889571
 31
0.0
  0
LINE
  5
51
330
1F
100
AcDbEntity
  8
C-2
  6
Continuous
 62
     3
370
     9
100
AcDbLine
 10
-79.12131577569035
 20
963.6750042889571
 30
0.0
 11
-579.1211975200752
 21
963.6750042889571
 31
0.0
  0
LINE
  5
52
330
1F
100
AcDbEntity
  8
C-1
  6
Continuous
 62
     2
370
     9
100
AcDbLine
 10
-78.12149888115911
 20
964.6751263592696
 30
0.0
 11
-580.1215484722236
 21
964.6751263592696
 31
0.0
  0
LINE
  5
53
330
1F
100
AcDbEntity
  8
C-1
  6
Continuous
 62
     2
370
     9
100
AcDbLine
 10
-580.1215484722236
 20
462.6749432538008
 30
0.0
 11
-580.1215484722236
 21
964.6751263592696
 31
0.0
  0
LINE
  5
54
330
1F
100
AcDbEntity
  8
C-5
  6
Continuous
 62
     7
370
     9
100
AcDbLine
 10
-41.62082749444039
 20
355.6751111004806
 30
0.0
 11
-41.62082749444039
 21
290.6756756756758
 31
0.0
  0
LINE
  5
55
330
1F
100
AcDbEntity
  8
C-5
  6
Continuous
 62
     7
370
     9
100
AcDbLine
 10
-41.62082749444039
 20
290.6756756756758
 30
0.0
 11
-616.6217430217841
 21
290.6756756756758
 31
0.0
  0
LINE
  5
56
330
1F
100
AcDbEntity
  8
C-5
  6
Continuous
 62
     7
370
     9
100
AcDbLine
 10
-616.6217430217841
 20
355.6751111004806
 30
0.0
 11
-41.62082749444039
 21
355.6751111004806
 31
0.0
  0
LINE
  5
57
330
1F
100
AcDbEntity
  8
C-5
  6
Continuous
 62
     7
370
     9
100
AcDbLine
 10
-616.6217430217841
 20
290.6756756756758
 30
0.0
 11
-616.6217430217841
 21
355.6751111004806
 31
0.0
  0
LINE
  5
58
330
1F
100
AcDbEntity
  8
C-A
  6
Continuous
 62
     3
370
     9
100
AcDbLine
 10
-79.12131577569035
 20
960.6750653241133
 30
0.0
 11
-579.1211975200752
 21
960.6750653241133
 31
0.0
  0
LINE
  5
59
330
1F
100
AcDbEntity
  8
C-A
  6
Continuous
 62
     3
370
     9
100
AcDbLine
 10
-340.1209190471748
 20
960.6750653241133
 30
0.0
 11
-340.1209190471748
 21
466.6754773114181
 31
0.0
  0
LINE
  5
5A
330
1F
100
AcDbEntity
  8
C-A
  6
Continuous
 62
     3
370
     9
100
AcDbLine
 10
-334.1207969768623
 20
960.6750653241133
 30
0.0
 11
-334.1207969768623
 21
466.6754773114181
 31
0.0
  0
LINE
  5
5B
330
1F
100
AcDbEntity
  8
C-A
  6
Continuous
 62
     3
370
     9
100
AcDbLine
 10
-355.1212547405341
 20
960.6750653241133
 30
0.0
 11
-355.1212547405341
 21
466.6754773114181
 31
0.0
  0
LINE
  5
5C
330
1F
100
AcDbEntity
  8
C-A
  6
Continuous
 62
     3
370
     9
100
AcDbLine
 10
-349.1211021526435
 20
960.6750653241133
 30
0.0
 11
-349.1211021526435
 21
466.6754773114181
 31
0.0
  0
LINE
  5
5D
330
1F
100
AcDbEntity
  8
C-A
  6
Continuous
 62
     3
370
     9
100
AcDbLine
 10
-370.1210716350654
 20
960.6750653241133
 30
0.0
 11
-370.1210716350654
 21
466.6754773114181
 31
0.0
  0
LINE
  5
5E
330
1F
100
AcDbEntity
  8
C-A
  6
Continuous
 62
     3
370
     9
100
AcDbLine
 10
-364.1209343059638
 20
960.6750653241133
 30
0.0
 11
-364.1209343059638
 21
466.6754773114181
 31
0.0
  0
LINE
  5
5F
330
1F
100
AcDbEntity
  8
C-A
  6
Continuous
 62
     3
370
     9
100
AcDbLine
 10
-385.1208885295966
 20
960.6750653241133
 30
0.0
 11
-385.1208885295966
 21
466.6754773114181
 31
0.0
  0
LINE
  5
60
330
1F
100
AcDbEntity
  8
C-A
  6
Continuous
 62
     3
370
     9
100
AcDbLine
 10
-379.1207664592841
 20
960.6750653241133
 30
0.0
 11
-379.1207664592841
 21
466.6754773114181
 31
0.0
  0
LINE
  5
61
330
1F
100
AcDbEntity
  8
C-A
  6
Continuous
 62
     3
370
     9
100
AcDbLine
 10
-400.1212089641669
 20
960.6750653241133
 30
0.0
 11
-400.1212089641669
 21
466.6754773114181
 31
0.0
  0
LINE
  5
62
330
1F
100
AcDbEntity
  8
C-A
  6
Continuous
 62
     3
370
     9
100
AcDbLine
 10
-394.1210716350653
 20
960.6750653241133
 30
0.0
 11
-394.1210716350653
 21
466.6754773114181
 31
0.0
  0
LINE
  5
63
330
1F
100
AcDbEntity
  8
C-A
  6
Continuous
 62
     3
370
     9
100
AcDbLine
 10
-415.1210258586982
 20
960.6750653241133
 30
0.0
 11
-415.1210258586982
 21
466.6754773114181
 31
0.0
  0
LINE
  5
64
330
1F
100
AcDbEntity
  8
C-A
  6
Continuous
 62
     3
370
     9
100
AcDbLine
 10
-409.1209037883857
 20
960.6750653241133
 30
0.0
 11
-409.1209037883857
 21
466.6754773114181
 31
0.0
  0
LINE
  5
65
330
1F
100
AcDbEntity
  8
C-A
  6
Continuous
 62
     3
370
     9
100
AcDbLine
 10
-430.1213462932685
 20
960.6750653241133
 30
0.0
 11
-430.1213462932685
 21
466.6754773114181
 31
0.0
  0
LINE
  5
66
330
1F
100
AcDbEntity
  8
C-A
  6
Continuous
 62
     3
370
     9
100
AcDbLine
 10
-424.121224222956
 20
960.6750653241133
 30
0.0
 11
-424.121224222956
 21
466.6754773114181
 31
0.0
  0
LINE
  5
67
330
1F
100
AcDbEntity
  8
C-A
  6
Continuous
 62
     3
370
     9
100
AcDbLine
 10
-445.1211631877998
 20
960.6750653241133
 30
0.0
 11
-445.1211631877998
 21
466.6754773114181
 31
0.0
  0
LINE
  5
68
330
1F
100
AcDbEntity
  8
C-A
  6
Continuous
 62
     3
370
     9
100
AcDbLine
 10
-439.1210411174873
 20
960.6750653241133
 30
0.0
 11
-439.1210411174873
 21
466.6754773114181
 31
0.0
  0
LINE
  5
69
330
1F
100
AcDbEntity
  8
C-A
  6
Continuous
 62
     3
370
     9
100
AcDbLine
 10
-460.1209953411201
 20
960.6750653241133
 30
0.0
 11
-460.1209953411201
 21
466.6754773114181
 31
0.0
  0
LINE
  5
6A
330
1F
100
AcDbEntity
  8
C-A
  6
Continuous
 62
     3
370
     9
100
AcDbLine
 10
-454.1208580120185
 20
960.6750653241133
 30
0.0
 11
-454.1208580120185
 21
466.6754773114181
 31
0.0
  0
LINE
  5
6B
330
1F
100
AcDbEntity
  8
C-A
  6
Continuous
 62
     3
370
     9
100
AcDbLine
 10
-475.1213005169013
 20
960.6750653241133
 30
0.0
 11
-475.1213005169013
 21
466.6754773114181
 31
0.0
  0
LINE
  5
6C
330
1F
100
AcDbEntity
  8
C-A
  6
Continuous
 62
     3
370
     9
100
AcDbLine
 10
-469.1211784465888
 20
960.6750653241133
 30
0.0
 11
-469.1211784465888
 21
466.6754773114181
 31
0.0
  0
LINE
  5
6D
330
1F
100
AcDbEntity
  8
C-A
  6
Continuous
 62
     3
370
     9
100
AcDbLine
 10
-490.1211326702216
 20
960.6750653241133
 30
0.0
 11
-490.1211326702216
 21
466.6754773114181
 31
0.0
  0
LINE
  5
6E
330
1F
100
AcDbEntity
  8
C-A
  6
Continuous
 62
     3
370
     9
100
AcDbLine
 10
-484.1209953411201
 20
960.6750653241133
 30
0.0
 11
-484.1209953411201
 21
466.6754773114181
 31
0.0
  0
LINE
  5
6F
330
1F
100
AcDbEntity
  8
C-A
  6
Continuous
 62
     3
370
     9
100
AcDbLine
 10
-505.1214454753974
 20
960.6750653241133
 30
0.0
 11
-505.1214454753974
 21
466.6754773114181
 31
0.0
  0
LINE
  5
70
330
1F
100
AcDbEntity
  8
C-A
  6
Continuous
 62
     3
370
     9
100
AcDbLine
 10
-499.1213157756904
 20
960.6750653241133
 30
0.0
 11
-499.1213157756904
 21
466.6754773114181
 31
0.0
  0
LINE
  5
71
330
1F
100
AcDbEntity
  8
C-A
  6
Continuous
 62
     3
370
     9
100
AcDbLine
 10
-520.1212699993232
 20
960.6750653241133
 30
0.0
 11
-520.1212699993232
 21
466.6754773114181
 31
0.0
  0
LINE
  5
72
330
1F
100
AcDbEntity
  8
C-A
  6
Continuous
 62
     3
370
     9
100
AcDbLine
 10
-514.1211402996162
 20
960.6750653241133
 30
0.0
 11
-514.1211402996162
 21
466.6754773114181
 31
0.0
  0
LINE
  5
73
330
1F
100
AcDbEntity
  8
C-A
  6
Continuous
 62
     3
370
     9
100
AcDbLine
 10
-535.121094523249
 20
960.6750653241133
 30
0.0
 11
-535.121094523249
 21
466.6754773114181
 31
0.0
  0
LINE
  5
74
330
1F
100
AcDbEntity
  8
C-A
  6
Continuous
 62
     3
370
     9
100
AcDbLine
 10
-529.120964823542
 20
960.6750653241133
 30
0.0
 11
-529.120964823542
 21
466.6754773114181
 31
0.0
  0
LINE
  5
75
330
1F
100
AcDbEntity
  8
C-A
  6
Continuous
 62
     3
370
     9
100
AcDbLine
 10
-550.1214073284248
 20
960.6750653241133
 30
0.0
 11
-550.1214073284248
 21
466.6754773114181
 31
0.0
  0
LINE
  5
76
330
1F
100
AcDbEntity
  8
C-A
  6
Continuous
 62
     3
370
     9
100
AcDbLine
 10
-544.1212776287177
 20
960.6750653241133
 30
0.0
 11
-544.1212776287177
 21
466.6754773114181
 31
0.0
  0
LINE
  5
77
330
1F
100
AcDbEntity
  8
C-A
  6
Continuous
 62
     3
370
     9
100
AcDbLine
 10
-565.1212318523505
 20
960.6750653241133
 30
0.0
 11
-565.1212318523505
 21
466.6754773114181
 31
0.0
  0
LINE
  5
78
330
1F
100
AcDbEntity
  8
C-A
  6
Continuous
 62
     3
370
     9
100
AcDbLine
 10
-559.1211021526435
 20
960.6750653241133
 30
0.0
 11
-559.1211021526435
 21
466.6754773114181
 31
0.0
  0
LINE
  5
79
330
1F
100
AcDbEntity
  8
C-5
  6
Continuous
 62
     7
370
     9
100
AcDbLine
 10
-375.9690788372138
 20
511.3078015301679
 30
0.0
 11
-175.968148051081
 21
511.3078015301679
 31
0.0
  0
LINE
  5
7A
330
1F
100
AcDbEntity
  8
C-5
  6
Continuous
 62
     7
370
     9
100
AcDbLine
 10
-175.968148051081
 20
511.3078015301679
 30
0.0
 11
-175.968148051081
 21
601.0728619549727
 31
0.0
  0
LINE
  5
7B
330
1F
100
AcDbEntity
  8
C-5
  6
Continuous
 62
     7
370
     9
100
AcDbLine
 10
-175.968148051081
 20
601.0728619549727
 30
0.0
 11
-155.9690635784247
 21
551.0731366131758
 31
0.0
  0
LINE
  5
7C
330
1F
100
AcDbEntity
  8
C-5
  6
Continuous
 62
     7
370
     9
100
AcDbLine
 10
-155.9690635784247
 20
551.0731366131758
 30
0.0
 11
-186.2352684124091
 21
551.0731366131758
 31
0.0
  0
LINE
  5
7D
330
1F
100
AcDbEntity
  8
C-A
  6
Continuous
 62
     3
370
     9
100
AcDbLine
 10
-329.1210105999091
 20
463.6749279950118
 30
0.0
 11
-79.12082749444039
 21
713.6746075604415
 31
0.0
  0
LINE
  5
7E
330
1F
100
AcDbEntity
  8
C-A
  6
Continuous
 62
     3
370
     9
100
AcDbLine
 10
-85.12149888115914
 20
960.6750653241133
 30
0.0
 11
-85.12149888115914
 21
707.6739666913008
 31
0.0
  0
LINE
  5
7F
330
1F
100
AcDbEntity
  8
C-A
  6
Continuous
 62
     3
370
     9
100
AcDbLine
 10
-100.1213157756904
 20
960.6750653241133
 30
0.0
 11
-100.1213157756904
 21
692.6741497967694
 31
0.0
  0
LINE
  5
80
330
1F
100
AcDbEntity
  8
C-A
  6
Continuous
 62
     3
370
     9
100
AcDbLine
 10
-94.12119370537788
 20
960.6750653241133
 30
0.0
 11
-94.12119370537788
 21
698.674271867082
 31
0.0
  0
LINE
  5
81
330
1F
100
AcDbEntity
  8
C-A
  6
Continuous
 62
     3
370
     9
100
AcDbLine
 10
-115.1211021526435
 20
960.6750653241133
 30
0.0
 11
-115.1211021526435
 21
677.6744549725506
 31
0.0
  0
LINE
  5
82
330
1F
100
AcDbEntity
  8
C-A
  6
Continuous
 62
     3
370
     9
100
AcDbLine
 10
-109.120980082331
 20
960.6750653241133
 30
0.0
 11
-109.120980082331
 21
683.6744549725508
 31
0.0
  0
LINE
  5
83
330
1F
100
AcDbEntity
  8
C-A
  6
Continuous
 62
     3
370
     9
100
AcDbLine
 10
-124.1213157756903
 20
960.6750653241133
 30
0.0
 11
-124.1213157756903
 21
668.674271867082
 31
0.0
  0
LINE
  5
84
330
1F
100
AcDbEntity
  8
C-A
  6
Continuous
 62
     3
370
     9
100
AcDbLine
 10
-145.1212547405341
 20
960.6750653241133
 30
0.0
 11
-145.1212547405341
 21
647.67430238466
 31
0.0
  0
LINE
  5
85
330
1F
100
AcDbEntity
  8
C-A
  6
Continuous
 62
     3
370
     9
100
AcDbLine
 10
-139.1211326702216
 20
960.6750653241133
 30
0.0
 11
-139.1211326702216
 21
653.6744549725508
 31
0.0
  0
LINE
  5
86
330
1F
100
AcDbEntity
  8
C-A
  6
Continuous
 62
     3
370
     9
100
AcDbLine
 10
-160.1215599163154
 20
960.6750653241133
 30
0.0
 11
-160.1215599163154
 21
632.6741192791915
 31
0.0
  0
LINE
  5
87
330
1F
100
AcDbEntity
  8
C-A
  6
Continuous
 62
     3
370
     9
100
AcDbLine
 10
-154.1214378460029
 20
960.6750653241133
 30
0.0
 11
-154.1214378460029
 21
638.6741192791914
 31
0.0
  0
LINE
  5
88
330
1F
100
AcDbEntity
  8
C-A
  6
Continuous
 62
     3
370
     9
100
AcDbLine
 10
-175.1214073284248
 20
960.6750653241133
 30
0.0
 11
-175.1214073284248
 21
617.67430238466
 31
0.0
  0
LINE
  5
89
330
1F
100
AcDbEntity
  8
C-A
  6
Continuous
 62
     3
370
     9
100
AcDbLine
 10
-169.1212547405341
 20
960.6750653241133
 30
0.0
 11
-169.1212547405341
 21
623.6743023846602
 31
0.0
  0
LINE
  5
8A
330
1F
100
AcDbEntity
  8
C-A
  6
Continuous
 62
     3
370
     9
100
AcDbLine
 10
-190.121224222956
 20
960.6750653241133
 30
0.0
 11
-190.121224222956
 21
602.674485490129
 31
0.0
  0
LINE
  5
8B
330
1F
100
AcDbEntity
  8
C-A
  6
Continuous
 62
     3
370
     9
100
AcDbLine
 10
-184.1211021526435
 20
960.6750653241133
 30
0.0
 11
-184.1211021526435
 21
608.6746075604415
 31
0.0
  0
LINE
  5
8C
330
1F
100
AcDbEntity
  8
C-A
  6
Continuous
 62
     3
370
     9
100
AcDbLine
 10
-205.1210411174873
 20
960.6750653241133
 30
0.0
 11
-205.1210411174873
 21
587.6746685955976
 31
0.0
  0
LINE
  5
8D
330
1F
100
AcDbEntity
  8
C-A
  6
Continuous
 62
     3
370
     9
100
AcDbLine
 10
-199.1209190471747
 20
960.6750653241133
 30
0.0
 11
-199.1209190471747
 21
593.6747906659102
 31
0.0
  0
LINE
  5
8E
330
1F
100
AcDbEntity
  8
C-A
  6
Continuous
 62
     3
370
     9
100
AcDbLine
 10
-220.1208580120185
 20
960.6750653241133
 30
0.0
 11
-220.1208580120185
 21
572.6748211834882
 31
0.0
  0
LINE
  5
8F
330
1F
100
AcDbEntity
  8
C-A
  6
Continuous
 62
     3
370
     9
100
AcDbLine
 10
-214.120735941706
 20
960.6750653241133
 30
0.0
 11
-214.120735941706
 21
578.6749737713787
 31
0.0
  0
LINE
  5
90
330
1F
100
AcDbEntity
  8
C-A
  6
Continuous
 62
     3
370
     9
100
AcDbLine
 10
-235.1211937053779
 20
960.6750653241133
 30
0.0
 11
-235.1211937053779
 21
557.674516007707
 31
0.0
  0
LINE
  5
91
330
1F
100
AcDbEntity
  8
C-A
  6
Continuous
 62
     3
370
     9
100
AcDbLine
 10
-229.1210411174873
 20
960.6750653241133
 30
0.0
 11
-229.1210411174873
 21
563.6746380780196
 31
0.0
  0
LINE
  5
92
330
1F
100
AcDbEntity
  8
C-A
  6
Continuous
 62
     3
370
     9
100
AcDbLine
 10
-250.1210105999091
 20
960.6750653241133
 30
0.0
 11
-250.1210105999091
 21
542.6748211834882
 31
0.0
  0
LINE
  5
93
330
1F
100
AcDbEntity
  8
C-A
  6
Continuous
 62
     3
370
     9
100
AcDbLine
 10
-244.1208885295966
 20
960.6750653241133
 30
0.0
 11
-244.1208885295966
 21
548.6749432538008
 31
0.0
  0
LINE
  5
94
330
1F
100
AcDbEntity
  8
C-A
  6
Continuous
 62
     3
370
     9
100
AcDbLine
 10
-265.1208274944404
 20
960.6750653241133
 30
0.0
 11
-265.1208274944404
 21
527.6749890301678
 31
0.0
  0
LINE
  5
95
330
1F
100
AcDbEntity
  8
C-A
  6
Continuous
 62
     3
370
     9
100
AcDbLine
 10
-259.1207054241278
 20
960.6750653241133
 30
0.0
 11
-259.1207054241278
 21
533.6751263592694
 31
0.0
  0
LINE
  5
96
330
1F
100
AcDbEntity
  8
C-A
  6
Continuous
 62
     3
370
     9
100
AcDbLine
 10
-280.1211326702216
 20
960.6750653241133
 30
0.0
 11
-280.1211326702216
 21
512.6746838543866
 31
0.0
  0
LINE
  5
97
330
1F
100
AcDbEntity
  8
C-A
  6
Continuous
 62
     3
370
     9
100
AcDbLine
 10
-274.1210105999091
 20
960.6750653241133
 30
0.0
 11
-274.1210105999091
 21
518.6748059246992
 31
0.0
  0
LINE
  5
98
330
1F
100
AcDbEntity
  8
C-A
  6
Continuous
 62
     3
370
     9
100
AcDbLine
 10
-295.1209495647529
 20
960.6750653241133
 30
0.0
 11
-295.1209495647529
 21
497.6749737713789
 31
0.0
  0
LINE
  5
99
330
1F
100
AcDbEntity
  8
C-A
  6
Continuous
 62
     3
370
     9
100
AcDbLine
 10
-289.1208274944404
 20
960.6750653241133
 30
0.0
 11
-289.1208274944404
 21
503.6749890301681
 31
0.0
  0
LINE
  5
9A
330
1F
100
AcDbEntity
  8
C-A
  6
Continuous
 62
     3
370
     9
100
AcDbLine
 10
-310.1212852581122
 20
960.6750653241133
 30
0.0
 11
-310.1212852581122
 21
482.6746685955976
 31
0.0
  0
LINE
  5
9B
330
1F
100
AcDbEntity
  8
C-A
  6
Continuous
 62
     3
370
     9
100
AcDbLine
 10
-304.1211631877998
 20
960.6750653241133
 30
0.0
 11
-304.1211631877998
 21
488.6747906659102
 31
0.0
  0
LINE
  5
9C
330
1F
100
AcDbEntity
  8
C-A
  6
Continuous
 62
     3
370
     9
100
AcDbLine
 10
-325.1211021526435
 20
960.6750653241133
 30
0.0
 11
-325.1211021526435
 21
467.6748364422772
 31
0.0
  0
LINE
  5
9D
330
1F
100
AcDbEntity
  8
C-A
  6
Continuous
 62
     3
370
     9
100
AcDbLine
 10
-319.120980082331
 20
960.6750653241133
 30
0.0
 11
-319.120980082331
 21
473.6749737713788
 31
0.0
  0
LINE
  5
9E
330
1F
100
AcDbEntity
  8
C-A
  6
Continuous
 62
     3
370
     9
100
AcDbLine
 10
-326.1204612835029
 20
466.6754773114181
 30
0.0
 11
-579.1211975200752
 21
466.6754773114181
 31
0.0
  0
LINE
  5
9F
330
1F
100
AcDbEntity
  8
C-A
  6
Continuous
 62
     6
370
     5
100
AcDbLine
 10
-564.6213043315986
 20
954.8092205975511
 30
0.0
 11
-564.6213043315986
 21
958.8091595623948
 31
0.0
  0
LINE
  5
A0
330
1F
100
AcDbEntity
  8
C-A
  6
Continuous
 62
     6
370
     5
100
AcDbLine
 10
-564.6213043315986
 20
958.8091595623948
 30
0.0
 11
-559.6210296733955
 21
957.3093426678633
 31
0.0
  0
LINE
  5
A1
330
1F
100
AcDbEntity
  8
C-A
  6
Continuous
 62
     6
370
     5
100
AcDbLine
 10
-559.6210296733955
 20
956.3095257733321
 30
0.0
 11
-559.6210296733955
 21
957.3093426678633
 31
0.0
  0
LINE
  5
A2
330
1F
100
AcDbEntity
  8
C-A
  6
Continuous
 62
     6
370
     5
100
AcDbLine
 10
-559.6210296733955
 20
956.3095257733321
 30
0.0
 11
-564.6213043315986
 21
954.8092205975511
 31
0.0
  0
LINE
  5
A3
330
1F
100
AcDbEntity
  8
C-A
  6
Continuous
 62
     6
370
     5
100
AcDbLine
 10
-559.1211021526435
 20
955.9373944256756
 30
0.0
 11
-565.1212318523505
 21
954.1373455975508
 31
0.0
  0
LINE
  5
A4
330
1F
100
AcDbEntity
  8
C-A
  6
Continuous
 62
     6
370
     5
100
AcDbLine
 10
-565.1212318523505
 20
959.4815228436446
 30
0.0
 11
-559.1211021526435
 21
957.6814740155194
 31
0.0
  0
LINE
  5
A5
330
1F
100
AcDbEntity
  8
C-A
  6
Continuous
 62
     6
370
     5
100
AcDbLine
 10
-564.6213043315986
 20
933.8092816327071
 30
0.0
 11
-564.6213043315986
 21
937.8092205975508
 31
0.0
  0
LINE
  5
A6
330
1F
100
AcDbEntity
  8
C-A
  6
Continuous
 62
     6
370
     5
100
AcDbLine
 10
-564.6213043315986
 20
937.8092205975508
 30
0.0
 11
-559.6210296733955
 21
936.3094037030194
 31
0.0
  0
LINE
  5
A7
330
1F
100
AcDbEntity
  8
C-A
  6
Continuous
 62
     6
370
     5
100
AcDbLine
 10
-559.6210296733955
 20
935.3095868084883
 30
0.0
 11
-559.6210296733955
 21
936.3094037030194
 31
0.0
  0
LINE
  5
A8
330
1F
100
AcDbEntity
  8
C-A
  6
Continuous
 62
     6
370
     5
100
AcDbLine
 10
-559.6210296733955
 20
935.3095868084883
 30
0.0
 11
-564.6213043315986
 21
933.8092816327071
 31
0.0
  0
LINE
  5
A9
330
1F
100
AcDbEntity
  8
C-A
  6
Continuous
 62
     6
370
     5
100
AcDbLine
 10
-559.1211021526435
 20
934.9374554608321
 30
0.0
 11
-565.1212318523505
 21
933.1374066327069
 31
0.0
  0
LINE
  5
AA
330
1F
100
AcDbEntity
  8
C-A
  6
Continuous
 62
     6
370
     5
100
AcDbLine
 10
-565.1212318523505
 20
938.4815228436446
 30
0.0
 11
-559.1211021526435
 21
936.6815350506758
 31
0.0
  0
LINE
  5
AB
330
1F
100
AcDbEntity
  8
C-A
  6
Continuous
 62
     6
370
     5
100
AcDbLine
 10
-559.6210296733955
 20
944.3092816327069
 30
0.0
 11
-559.6210296733955
 21
948.3091595623946
 31
0.0
  0
LINE
  5
AC
330
1F
100
AcDbEntity
  8
C-A
  6
Continuous
 62
     6
370
     5
100
AcDbLine
 10
-559.6210296733955
 20
948.3091595623946
 30
0.0
 11
-564.6213043315986
 21
946.8094037030196
 31
0.0
  0
LINE
  5
AD
330
1F
100
AcDbEntity
  8
C-A
  6
Continuous
 62
     6
370
     5
100
AcDbLine
 10
-564.6213043315986
 20
945.8095257733319
 30
0.0
 11
-564.6213043315986
 21
946.8094037030196
 31
0.0
  0
LINE
  5
AE
330
1F
100
AcDbEntity
  8
C-A
  6
Continuous
 62
     6
370
     5
100
AcDbLine
 10
-564.6213043315986
 20
945.8095257733319
 30
0.0
 11
-559.6210296733955
 21
944.3092816327069
 31
0.0
  0
LINE
  5
AF
330
1F
100
AcDbEntity
  8
C-A
  6
Continuous
 62
     6
370
     5
100
AcDbLine
 10
-565.1212318523505
 20
945.4374554608321
 30
0.0
 11
-559.1211021526435
 21
943.6374066327071
 31
0.0
  0
LINE
  5
B0
330
1F
100
AcDbEntity
  8
C-A
  6
Continuous
 62
     6
370
     5
100
AcDbLine
 10
-559.1211021526435
 20
948.9815228436444
 30
0.0
 11
-565.1212318523505
 21
947.1814740155196
 31
0.0
  0
LINE
  5
B1
330
1F
100
AcDbEntity
  8
C-A
  6
Continuous
 62
     6
370
     5
100
AcDbLine
 10
-564.6213043315986
 20
912.8093426678631
 30
0.0
 11
-564.6213043315986
 21
916.8092205975508
 31
0.0
  0
LINE
  5
B2
330
1F
100
AcDbEntity
  8
C-A
  6
Continuous
 62
     6
370
     5
100
AcDbLine
 10
-564.6213043315986
 20
916.8092205975508
 30
0.0
 11
-559.6210296733955
 21
915.3094647381758
 31
0.0
  0
LINE
  5
B3
330
1F
100
AcDbEntity
  8
C-A
  6
Continuous
 62
     6
370
     5
100
AcDbLine
 10
-559.6210296733955
 20
914.3095868084881
 30
0.0
 11
-559.6210296733955
 21
915.3094647381758
 31
0.0
  0
LINE
  5
B4
330
1F
100
AcDbEntity
  8
C-A
  6
Continuous
 62
     6
370
     5
100
AcDbLine
 10
-559.6210296733955
 20
914.3095868084881
 30
0.0
 11
-564.6213043315986
 21
912.8093426678631
 31
0.0
  0
LINE
  5
B5
330
1F
100
AcDbEntity
  8
C-A
  6
Continuous
 62
     6
370
     5
100
AcDbLine
 10
-559.1211021526435
 20
913.9375164959883
 30
0.0
 11
-565.1212318523505
 21
912.1374676678633
 31
0.0
  0
LINE
  5
B6
330
1F
100
AcDbEntity
  8
C-A
  6
Continuous
 62
     6
370
     5
100
AcDbLine
 10
-565.1212318523505
 20
917.4815838788006
 30
0.0
 11
-559.1211021526435
 21
915.6815350506758
 31
0.0
  0
LINE
  5
B7
330
1F
100
AcDbEntity
  8
C-A
  6
Continuous
 62
     6
370
     5
100
AcDbLine
 10
-559.6210296733955
 20
923.309281632707
 30
0.0
 11
-559.6210296733955
 21
927.3092205975507
 31
0.0
  0
LINE
  5
B8
330
1F
100
AcDbEntity
  8
C-A
  6
Continuous
 62
     6
370
     5
100
AcDbLine
 10
-559.6210296733955
 20
927.3092205975507
 30
0.0
 11
-564.6213043315986
 21
925.8094647381758
 31
0.0
  0
LINE
  5
B9
330
1F
100
AcDbEntity
  8
C-A
  6
Continuous
 62
     6
370
     5
100
AcDbLine
 10
-564.6213043315986
 20
924.8095868084883
 30
0.0
 11
-564.6213043315986
 21
925.8094647381758
 31
0.0
  0
LINE
  5
BA
330
1F
100
AcDbEntity
  8
C-A
  6
Continuous
 62
     6
370
     5
100
AcDbLine
 10
-564.6213043315986
 20
924.8095868084883
 30
0.0
 11
-559.6210296733955
 21
923.309281632707
 31
0.0
  0
LINE
  5
BB
330
1F
100
AcDbEntity
  8
C-A
  6
Continuous
 62
     6
370
     5
100
AcDbLine
 10
-565.1212318523505
 20
924.4374554608319
 30
0.0
 11
-559.1211021526435
 21
922.6374676678633
 31
0.0
  0
LINE
  5
BC
330
1F
100
AcDbEntity
  8
C-A
  6
Continuous
 62
     6
370
     5
100
AcDbLine
 10
-559.1211021526435
 20
927.9815838788008
 30
0.0
 11
-565.1212318523505
 21
926.1815350506756
 31
0.0
  0
LINE
  5
BD
330
1F
100
AcDbEntity
  8
C-A
  6
Continuous
 62
     6
370
     5
100
AcDbLine
 10
-564.6213043315986
 20
891.8094037030196
 30
0.0
 11
-564.6213043315986
 21
895.809281632707
 31
0.0
  0
LINE
  5
BE
330
1F
100
AcDbEntity
  8
C-A
  6
Continuous
 62
     6
370
     5
100
AcDbLine
 10
-564.6213043315986
 20
895.809281632707
 30
0.0
 11
-559.6210296733955
 21
894.3095257733321
 31
0.0
  0
LINE
  5
BF
330
1F
100
AcDbEntity
  8
C-A
  6
Continuous
 62
     6
370
     5
100
AcDbLine
 10
-559.6210296733955
 20
893.3096478436446
 30
0.0
 11
-559.6210296733955
 21
894.3095257733321
 31
0.0
  0
LINE
  5
C0
330
1F
100
AcDbEntity
  8
C-A
  6
Continuous
 62
     6
370
     5
100
AcDbLine
 10
-559.6210296733955
 20
893.3096478436446
 30
0.0
 11
-564.6213043315986
 21
891.8094037030196
 31
0.0
  0
LINE
  5
C1
330
1F
100
AcDbEntity
  8
C-A
  6
Continuous
 62
     6
370
     5
100
AcDbLine
 10
-559.1211021526435
 20
892.9375775311445
 30
0.0
 11
-565.1212318523505
 21
891.1375287030196
 31
0.0
  0
LINE
  5
C2
330
1F
100
AcDbEntity
  8
C-A
  6
Continuous
 62
     6
370
     5
100
AcDbLine
 10
-565.1212318523505
 20
896.4816449139571
 30
0.0
 11
-559.1211021526435
 21
894.6815960858319
 31
0.0
  0
LINE
  5
C3
330
1F
100
AcDbEntity
  8
C-A
  6
Continuous
 62
     6
370
     5
100
AcDbLine
 10
-559.6210296733955
 20
902.3093426678633
 30
0.0
 11
-559.6210296733955
 21
906.3092816327071
 31
0.0
  0
LINE
  5
C4
330
1F
100
AcDbEntity
  8
C-A
  6
Continuous
 62
     6
370
     5
100
AcDbLine
 10
-559.6210296733955
 20
906.3092816327071
 30
0.0
 11
-564.6213043315986
 21
904.8094647381756
 31
0.0
  0
LINE
  5
C5
330
1F
100
AcDbEntity
  8
C-A
  6
Continuous
 62
     6
370
     5
100
AcDbLine
 10
-564.6213043315986
 20
903.8096478436446
 30
0.0
 11
-564.6213043315986
 21
904.8094647381756
 31
0.0
  0
LINE
  5
C6
330
1F
100
AcDbEntity
  8
C-A
  6
Continuous
 62
     6
370
     5
100
AcDbLine
 10
-564.6213043315986
 20
903.8096478436446
 30
0.0
 11
-559.6210296733955
 21
902.3093426678633
 31
0.0
  0
LINE
  5
C7
330
1F
100
AcDbEntity
  8
C-A
  6
Continuous
 62
     6
370
     5
100
AcDbLine
 10
-565.1212318523505
 20
903.4375164959883
 30
0.0
 11
-559.1211021526435
 21
901.6374676678631
 31
0.0
  0
LINE
  5
C8
330
1F
100
AcDbEntity
  8
C-A
  6
Continuous
 62
     6
370
     5
100
AcDbLine
 10
-559.1211021526435
 20
906.9816449139571
 30
0.0
 11
-565.1212318523505
 21
905.1815960858321
 31
0.0
  0
LINE
  5
C9
330
1F
100
AcDbEntity
  8
C-A
  6
Continuous
 62
     6
370
     5
100
AcDbLine
 10
-564.6213043315986
 20
870.8094037030196
 30
0.0
 11
-564.6213043315986
 21
874.8093426678633
 31
0.0
  0
LINE
  5
CA
330
1F
100
AcDbEntity
  8
C-A
  6
Continuous
 62
     6
370
     5
100
AcDbLine
 10
-564.6213043315986
 20
874.8093426678633
 30
0.0
 11
-559.6210296733955
 21
873.3095868084882
 31
0.0
  0
LINE
  5
CB
330
1F
100
AcDbEntity
  8
C-A
  6
Continuous
 62
     6
370
     5
100
AcDbLine
 10
-559.6210296733955
 20
872.3097088788008
 30
0.0
 11
-559.6210296733955
 21
873.3095868084882
 31
0.0
  0
LINE
  5
CC
330
1F
100
AcDbEntity
  8
C-A
  6
Continuous
 62
     6
370
     5
100
AcDbLine
 10
-559.6210296733955
 20
872.3097088788008
 30
0.0
 11
-564.6213043315986
 21
870.8094037030196
 31
0.0
  0
LINE
  5
CD
330
1F
100
AcDbEntity
  8
C-A
  6
Continuous
 62
     6
370
     5
100
AcDbLine
 10
-559.1211021526435
 20
871.9376385663008
 30
0.0
 11
-565.1212318523505
 21
870.1375897381757
 31
0.0
  0
LINE
  5
CE
330
1F
100
AcDbEntity
  8
C-A
  6
Continuous
 62
     6
370
     5
100
AcDbLine
 10
-565.1212318523505
 20
875.4817059491133
 30
0.0
 11
-559.1211021526435
 21
873.6816571209883
 31
0.0
  0
LINE
  5
CF
330
1F
100
AcDbEntity
  8
C-A
  6
Continuous
 62
     6
370
     5
100
AcDbLine
 10
-559.6210296733955
 20
881.3094037030194
 30
0.0
 11
-559.6210296733955
 21
885.3093426678631
 31
0.0
  0
LINE
  5
D0
330
1F
100
AcDbEntity
  8
C-A
  6
Continuous
 62
     6
370
     5
100
AcDbLine
 10
-559.6210296733955
 20
885.3093426678631
 30
0.0
 11
-564.6213043315986
 21
883.8095257733321
 31
0.0
  0
LINE
  5
D1
330
1F
100
AcDbEntity
  8
C-A
  6
Continuous
 62
     6
370
     5
100
AcDbLine
 10
-564.6213043315986
 20
882.8097088788007
 30
0.0
 11
-564.6213043315986
 21
883.8095257733321
 31
0.0
  0
LINE
  5
D2
330
1F
100
AcDbEntity
  8
C-A
  6
Continuous
 62
     6
370
     5
100
AcDbLine
 10
-564.6213043315986
 20
882.8097088788007
 30
0.0
 11
-559.6210296733955
 21
881.3094037030194
 31
0.0
  0
LINE
  5
D3
330
1F
100
AcDbEntity
  8
C-A
  6
Continuous
 62
     6
370
     5
100
AcDbLine
 10
-565.1212318523505
 20
882.4375775311446
 30
0.0
 11
-559.1211021526435
 21
880.6375287030196
 31
0.0
  0
LINE
  5
D4
330
1F
100
AcDbEntity
  8
C-A
  6
Continuous
 62
     6
370
     5
100
AcDbLine
 10
-559.1211021526435
 20
885.9816449139569
 30
0.0
 11
-565.1212318523505
 21
884.1816571209883
 31
0.0
  0
LINE
  5
D5
330
1F
100
AcDbEntity
  8
C-A
  6
Continuous
 62
     6
370
     5
100
AcDbLine
 10
-549.6209877117255
 20
940.3470013592696
 30
0.0
 11
-549.6209877117255
 21
944.3468792889573
 31
0.0
  0
LINE
  5
D6
330
1F
100
AcDbEntity
  8
C-A
  6
Continuous
 62
     6
370
     5
100
AcDbLine
 10
-549.6209877117255
 20
944.3468792889573
 30
0.0
 11
-544.621208964167
 21
942.8471234295821
 31
0.0
  0
LINE
  5
D7
330
1F
100
AcDbEntity
  8
C-A
  6
Continuous
 62
     6
370
     5
100
AcDbLine
 10
-544.621208964167
 20
941.8472454998946
 30
0.0
 11
-544.621208964167
 21
942.8471234295821
 31
0.0
  0
LINE
  5
D8
330
1F
100
AcDbEntity
  8
C-A
  6
Continuous
 62
     6
370
     5
100
AcDbLine
 10
-544.621208964167
 20
941.8472454998946
 30
0.0
 11
-549.6209877117255
 21
940.3470013592696
 31
0.0
  0
LINE
  5
D9
330
1F
100
AcDbEntity
  8
C-A
  6
Continuous
 62
     6
370
     5
100
AcDbLine
 10
-544.1212776287177
 20
941.4751751873948
 30
0.0
 11
-550.1209114177802
 21
939.6751263592696
 31
0.0
  0
LINE
  5
DA
330
1F
100
AcDbEntity
  8
C-A
  6
Continuous
 62
     6
370
     5
100
AcDbLine
 10
-550.1209114177802
 20
945.0192425702071
 30
0.0
 11
-544.1212776287177
 21
943.2191937420819
 31
0.0
  0
LINE
  5
DB
330
1F
100
AcDbEntity
  8
C-A
  6
Continuous
 62
     6
370
     5
100
AcDbLine
 10
-544.621208964167
 20
950.8469403241133
 30
0.0
 11
-544.621208964167
 21
954.8468792889571
 31
0.0
  0
LINE
  5
DC
330
1F
100
AcDbEntity
  8
C-A
  6
Continuous
 62
     6
370
     5
100
AcDbLine
 10
-544.621208964167
 20
954.8468792889571
 30
0.0
 11
-549.6209877117255
 21
953.3471234295823
 31
0.0
  0
LINE
  5
DD
330
1F
100
AcDbEntity
  8
C-A
  6
Continuous
 62
     6
370
     5
100
AcDbLine
 10
-549.6209877117255
 20
952.3472454998946
 30
0.0
 11
-549.6209877117255
 21
953.3471234295823
 31
0.0
  0
LINE
  5
DE
330
1F
100
AcDbEntity
  8
C-A
  6
Continuous
 62
     6
370
     5
100
AcDbLine
 10
-549.6209877117255
 20
952.3472454998946
 30
0.0
 11
-544.621208964167
 21
950.8469403241133
 31
0.0
  0
LINE
  5
DF
330
1F
100
AcDbEntity
  8
C-A
  6
Continuous
 62
     6
370
     5
100
AcDbLine
 10
-550.1209114177802
 20
951.9751751873946
 30
0.0
 11
-544.1212776287177
 21
950.1751263592698
 31
0.0
  0
LINE
  5
E0
330
1F
100
AcDbEntity
  8
C-A
  6
Continuous
 62
     6
370
     5
100
AcDbLine
 10
-544.1212776287177
 20
955.5192425702071
 30
0.0
 11
-550.1209114177802
 21
953.7191937420821
 31
0.0
  0
LINE
  5
E1
330
1F
100
AcDbEntity
  8
C-A
  6
Continuous
 62
     6
370
     5
100
AcDbLine
 10
-549.6209877117255
 20
919.3470623944258
 30
0.0
 11
-549.6209877117255
 21
923.3469403241133
 31
0.0
  0
LINE
  5
E2
330
1F
100
AcDbEntity
  8
C-A
  6
Continuous
 62
     6
370
     5
100
AcDbLine
 10
-549.6209877117255
 20
923.3469403241133
 30
0.0
 11
-544.621208964167
 21
921.8471844647382
 31
0.0
  0
LINE
  5
E3
330
1F
100
AcDbEntity
  8
C-A
  6
Continuous
 62
     6
370
     5
100
AcDbLine
 10
-544.621208964167
 20
920.8473065350508
 30
0.0
 11
-544.621208964167
 21
921.8471844647382
 31
0.0
  0
LINE
  5
E4
330
1F
100
AcDbEntity
  8
C-A
  6
Continuous
 62
     6
370
     5
100
AcDbLine
 10
-544.621208964167
 20
920.8473065350508
 30
0.0
 11
-549.6209877117255
 21
919.3470623944258
 31
0.0
  0
LINE
  5
E5
330
1F
100
AcDbEntity
  8
C-A
  6
Continuous
 62
     6
370
     5
100
AcDbLine
 10
-544.1212776287177
 20
920.4752362225508
 30
0.0
 11
-550.1209114177802
 21
918.6751873944257
 31
0.0
  0
LINE
  5
E6
330
1F
100
AcDbEntity
  8
C-A
  6
Continuous
 62
     6
370
     5
100
AcDbLine
 10
-550.1209114177802
 20
924.0193036053633
 30
0.0
 11
-544.1212776287177
 21
922.2192547772383
 31
0.0
  0
LINE
  5
E7
330
1F
100
AcDbEntity
  8
C-A
  6
Continuous
 62
     6
370
     5
100
AcDbLine
 10
-544.621208964167
 20
929.8470013592694
 30
0.0
 11
-544.621208964167
 21
933.8469403241131
 31
0.0
  0
LINE
  5
E8
330
1F
100
AcDbEntity
  8
C-A
  6
Continuous
 62
     6
370
     5
100
AcDbLine
 10
-544.621208964167
 20
933.8469403241131
 30
0.0
 11
-549.6209877117255
 21
932.3471234295821
 31
0.0
  0
LINE
  5
E9
330
1F
100
AcDbEntity
  8
C-A
  6
Continuous
 62
     6
370
     5
100
AcDbLine
 10
-549.6209877117255
 20
931.3473065350511
 30
0.0
 11
-549.6209877117255
 21
932.3471234295821
 31
0.0
  0
LINE
  5
EA
330
1F
100
AcDbEntity
  8
C-A
  6
Continuous
 62
     6
370
     5
100
AcDbLine
 10
-549.6209877117255
 20
931.3473065350511
 30
0.0
 11
-544.621208964167
 21
929.8470013592694
 31
0.0
  0
LINE
  5
EB
330
1F
100
AcDbEntity
  8
C-A
  6
Continuous
 62
     6
370
     5
100
AcDbLine
 10
-550.1209114177802
 20
930.9751751873946
 30
0.0
 11
-544.1212776287177
 21
929.1751873944258
 31
0.0
  0
LINE
  5
EC
330
1F
100
AcDbEntity
  8
C-A
  6
Continuous
 62
     6
370
     5
100
AcDbLine
 10
-544.1212776287177
 20
934.5193036053636
 30
0.0
 11
-550.1209114177802
 21
932.7192547772383
 31
0.0
  0
LINE
  5
ED
330
1F
100
AcDbEntity
  8
C-A
  6
Continuous
 62
     6
370
     5
100
AcDbLine
 10
-549.6209877117255
 20
898.3470623944256
 30
0.0
 11
-549.6209877117255
 21
902.3470013592694
 31
0.0
  0
LINE
  5
EE
330
1F
100
AcDbEntity
  8
C-A
  6
Continuous
 62
     6
370
     5
100
AcDbLine
 10
-549.6209877117255
 20
902.3470013592694
 30
0.0
 11
-544.621208964167
 21
900.8472454998946
 31
0.0
  0
LINE
  5
EF
330
1F
100
AcDbEntity
  8
C-A
  6
Continuous
 62
     6
370
     5
100
AcDbLine
 10
-544.621208964167
 20
899.847367570207
 30
0.0
 11
-544.621208964167
 21
900.8472454998946
 31
0.0
  0
LINE
  5
F0
330
1F
100
AcDbEntity
  8
C-A
  6
Continuous
 62
     6
370
     5
100
AcDbLine
 10
-544.621208964167
 20
899.847367570207
 30
0.0
 11
-549.6209877117255
 21
898.3470623944256
 31
0.0
  0
LINE
  5
F1
330
1F
100
AcDbEntity
  8
C-A
  6
Continuous
 62
     6
370
     5
100
AcDbLine
 10
-544.1212776287177
 20
899.4752972577069
 30
0.0
 11
-550.1209114177802
 21
897.6752484295821
 31
0.0
  0
LINE
  5
F2
330
1F
100
AcDbEntity
  8
C-A
  6
Continuous
 62
     6
370
     5
100
AcDbLine
 10
-550.1209114177802
 20
903.0193646405195
 30
0.0
 11
-544.1212776287177
 21
901.2193158123946
 31
0.0
  0
LINE
  5
F3
330
1F
100
AcDbEntity
  8
C-A
  6
Continuous
 62
     6
370
     5
100
AcDbLine
 10
-544.621208964167
 20
908.8470623944258
 30
0.0
 11
-544.621208964167
 21
912.8470013592696
 31
0.0
  0
LINE
  5
F4
330
1F
100
AcDbEntity
  8
C-A
  6
Continuous
 62
     6
370
     5
100
AcDbLine
 10
-544.621208964167
 20
912.8470013592696
 30
0.0
 11
-549.6209877117255
 21
911.3471844647383
 31
0.0
  0
LINE
  5
F5
330
1F
100
AcDbEntity
  8
C-A
  6
Continuous
 62
     6
370
     5
100
AcDbLine
 10
-549.6209877117255
 20
910.3473675702071
 30
0.0
 11
-549.6209877117255
 21
911.3471844647383
 31
0.0
  0
LINE
  5
F6
330
1F
100
AcDbEntity
  8
C-A
  6
Continuous
 62
     6
370
     5
100
AcDbLine
 10
-549.6209877117255
 20
910.3473675702071
 30
0.0
 11
-544.621208964167
 21
908.8470623944258
 31
0.0
  0
LINE
  5
F7
330
1F
100
AcDbEntity
  8
C-A
  6
Continuous
 62
     6
370
     5
100
AcDbLine
 10
-550.1209114177802
 20
909.9752362225507
 30
0.0
 11
-544.1212776287177
 21
908.1751873944258
 31
0.0
  0
LINE
  5
F8
330
1F
100
AcDbEntity
  8
C-A
  6
Continuous
 62
     6
370
     5
100
AcDbLine
 10
-544.1212776287177
 20
913.5193646405196
 30
0.0
 11
-550.1209114177802
 21
911.7193158123945
 31
0.0
  0
LINE
  5
F9
330
1F
100
AcDbEntity
  8
C-A
  6
Continuous
 62
     6
370
     5
100
AcDbLine
 10
-544.621208964167
 20
887.8471234295821
 30
0.0
 11
-544.621208964167
 21
891.8470623944258
 31
0.0
  0
LINE
  5
FA
330
1F
100
AcDbEntity
  8
C-A
  6
Continuous
 62
     6
370
     5
100
AcDbLine
 10
-544.621208964167
 20
891.8470623944258
 30
0.0
 11
-549.6209877117255
 21
890.3472454998945
 31
0.0
  0
LINE
  5
FB
330
1F
100
AcDbEntity
  8
C-A
  6
Continuous
 62
     6
370
     5
100
AcDbLine
 10
-549.6209877117255
 20
889.3473675702071
 30
0.0
 11
-549.6209877117255
 21
890.3472454998945
 31
0.0
  0
LINE
  5
FC
330
1F
100
AcDbEntity
  8
C-A
  6
Continuous
 62
     6
370
     5
100
AcDbLine
 10
-549.6209877117255
 20
889.3473675702071
 30
0.0
 11
-544.621208964167
 21
887.8471234295821
 31
0.0
  0
LINE
  5
FD
330
1F
100
AcDbEntity
  8
C-A
  6
Continuous
 62
     6
370
     5
100
AcDbLine
 10
-550.1209114177802
 20
888.9752972577071
 30
0.0
 11
-544.1212776287177
 21
887.175248429582
 31
0.0
  0
LINE
  5
FE
330
1F
100
AcDbEntity
  8
C-A
  6
Continuous
 62
     6
370
     5
100
AcDbLine
 10
-544.1212776287177
 20
892.5193646405196
 30
0.0
 11
-550.1209114177802
 21
890.7193768475508
 31
0.0
  0
LINE
  5
FF
330
1F
100
AcDbEntity
  8
C-A
  6
Continuous
 62
     6
370
     5
100
AcDbLine
 10
-534.6211631877998
 20
953.4189618084883
 30
0.0
 11
-534.6211631877998
 21
957.4188397381758
 31
0.0
  0
LINE
  5
100
330
1F
100
AcDbEntity
  8
C-A
  6
Continuous
 62
     6
370
     5
100
AcDbLine
 10
-534.6211631877998
 20
957.4188397381758
 30
0.0
 11
-529.6213844402412
 21
955.9190838788006
 31
0.0
  0
LINE
  5
101
330
1F
100
AcDbEntity
  8
C-A
  6
Continuous
 62
     6
370
     5
100
AcDbLine
 10
-529.6213844402412
 20
954.9192059491133
 30
0.0
 11
-529.6213844402412
 21
955.9190838788006
 31
0.0
  0
LINE
  5
102
330
1F
100
AcDbEntity
  8
C-A
  6
Continuous
 62
     6
370
     5
100
AcDbLine
 10
-529.6213844402412
 20
954.9192059491133
 30
0.0
 11
-534.6211631877998
 21
953.4189618084883
 31
0.0
  0
LINE
  5
103
330
1F
100
AcDbEntity
  8
C-A
  6
Continuous
 62
     6
370
     5
100
AcDbLine
 10
-529.120964823542
 20
954.5471356366133
 30
0.0
 11
-535.121094523249
 21
952.7470868084881
 31
0.0
  0
LINE
  5
104
330
1F
100
AcDbEntity
  8
C-A
  6
Continuous
 62
     6
370
     5
100
AcDbLine
 10
-535.121094523249
 20
958.0912030194258
 30
0.0
 11
-529.120964823542
 21
956.2911541913011
 31
0.0
  0
LINE
  5
105
330
1F
100
AcDbEntity
  8
C-A
  6
Continuous
 62
     6
370
     5
100
AcDbLine
 10
-534.6211631877998
 20
932.4189618084883
 30
0.0
 11
-534.6211631877998
 21
936.4189007733321
 31
0.0
  0
LINE
  5
106
330
1F
100
AcDbEntity
  8
C-A
  6
Continuous
 62
     6
370
     5
100
AcDbLine
 10
-534.6211631877998
 20
936.4189007733321
 30
0.0
 11
-529.6213844402412
 21
934.9191449139571
 31
0.0
  0
LINE
  5
107
330
1F
100
AcDbEntity
  8
C-A
  6
Continuous
 62
     6
370
     5
100
AcDbLine
 10
-529.6213844402412
 20
933.9192669842694
 30
0.0
 11
-529.6213844402412
 21
934.9191449139571
 31
0.0
  0
LINE
  5
108
330
1F
100
AcDbEntity
  8
C-A
  6
Continuous
 62
     6
370
     5
100
AcDbLine
 10
-529.6213844402412
 20
933.9192669842694
 30
0.0
 11
-534.6211631877998
 21
932.4189618084883
 31
0.0
  0
LINE
  5
109
330
1F
100
AcDbEntity
  8
C-A
  6
Continuous
 62
     6
370
     5
100
AcDbLine
 10
-529.120964823542
 20
933.5471966717696
 30
0.0
 11
-535.121094523249
 21
931.7471478436446
 31
0.0
  0
LINE
  5
10A
330
1F
100
AcDbEntity
  8
C-A
  6
Continuous
 62
     6
370
     5
100
AcDbLine
 10
-535.121094523249
 20
937.0912640545819
 30
0.0
 11
-529.120964823542
 21
935.2912152264571
 31
0.0
  0
LINE
  5
10B
330
1F
100
AcDbEntity
  8
C-A
  6
Continuous
 62
     6
370
     5
100
AcDbLine
 10
-529.6213844402412
 20
942.9189618084886
 30
0.0
 11
-529.6213844402412
 21
946.9189007733323
 31
0.0
  0
LINE
  5
10C
330
1F
100
AcDbEntity
  8
C-A
  6
Continuous
 62
     6
370
     5
100
AcDbLine
 10
-529.6213844402412
 20
946.9189007733323
 30
0.0
 11
-534.6211631877998
 21
945.4190838788008
 31
0.0
  0
LINE
  5
10D
330
1F
100
AcDbEntity
  8
C-A
  6
Continuous
 62
     6
370
     5
100
AcDbLine
 10
-534.6211631877998
 20
944.4192669842696
 30
0.0
 11
-534.6211631877998
 21
945.4190838788008
 31
0.0
  0
LINE
  5
10E
330
1F
100
AcDbEntity
  8
C-A
  6
Continuous
 62
     6
370
     5
100
AcDbLine
 10
-534.6211631877998
 20
944.4192669842696
 30
0.0
 11
-529.6213844402412
 21
942.9189618084886
 31
0.0
  0
LINE
  5
10F
330
1F
100
AcDbEntity
  8
C-A
  6
Continuous
 62
     6
370
     5
100
AcDbLine
 10
-535.121094523249
 20
944.0471356366131
 30
0.0
 11
-529.120964823542
 21
942.2470868084883
 31
0.0
  0
LINE
  5
110
330
1F
100
AcDbEntity
  8
C-A
  6
Continuous
 62
     6
370
     5
100
AcDbLine
 10
-529.120964823542
 20
947.5912640545821
 30
0.0
 11
-535.121094523249
 21
945.7912152264569
 31
0.0
  0
LINE
  5
111
330
1F
100
AcDbEntity
  8
C-A
  6
Continuous
 62
     6
370
     5
100
AcDbLine
 10
-534.6211631877998
 20
911.4190228436445
 30
0.0
 11
-534.6211631877998
 21
915.4189618084882
 31
0.0
  0
LINE
  5
112
330
1F
100
AcDbEntity
  8
C-A
  6
Continuous
 62
     6
370
     5
100
AcDbLine
 10
-534.6211631877998
 20
915.4189618084882
 30
0.0
 11
-529.6213844402412
 21
913.9192059491133
 31
0.0
  0
LINE
  5
113
330
1F
100
AcDbEntity
  8
C-A
  6
Continuous
 62
     6
370
     5
100
AcDbLine
 10
-529.6213844402412
 20
912.9193280194258
 30
0.0
 11
-529.6213844402412
 21
913.9192059491133
 31
0.0
  0
LINE
  5
114
330
1F
100
AcDbEntity
  8
C-A
  6
Continuous
 62
     6
370
     5
100
AcDbLine
 10
-529.6213844402412
 20
912.9193280194258
 30
0.0
 11
-534.6211631877998
 21
911.4190228436445
 31
0.0
  0
LINE
  5
115
330
1F
100
AcDbEntity
  8
C-A
  6
Continuous
 62
     6
370
     5
100
AcDbLine
 10
-529.120964823542
 20
912.5471966717694
 30
0.0
 11
-535.121094523249
 21
910.7472088788008
 31
0.0
  0
LINE
  5
116
330
1F
100
AcDbEntity
  8
C-A
  6
Continuous
 62
     6
370
     5
100
AcDbLine
 10
-535.121094523249
 20
916.0913250897383
 30
0.0
 11
-529.120964823542
 21
914.2912762616131
 31
0.0
  0
LINE
  5
117
330
1F
100
AcDbEntity
  8
C-A
  6
Continuous
 62
     6
370
     5
100
AcDbLine
 10
-529.6213844402412
 20
921.9190228436446
 30
0.0
 11
-529.6213844402412
 21
925.9189618084883
 31
0.0
  0
LINE
  5
118
330
1F
100
AcDbEntity
  8
C-A
  6
Continuous
 62
     6
370
     5
100
AcDbLine
 10
-529.6213844402412
 20
925.9189618084883
 30
0.0
 11
-534.6211631877998
 21
924.4191449139569
 31
0.0
  0
LINE
  5
119
330
1F
100
AcDbEntity
  8
C-A
  6
Continuous
 62
     6
370
     5
100
AcDbLine
 10
-534.6211631877998
 20
923.4192669842696
 30
0.0
 11
-534.6211631877998
 21
924.4191449139569
 31
0.0
  0
LINE
  5
11A
330
1F
100
AcDbEntity
  8
C-A
  6
Continuous
 62
     6
370
     5
100
AcDbLine
 10
-534.6211631877998
 20
923.4192669842696
 30
0.0
 11
-529.6213844402412
 21
921.9190228436446
 31
0.0
  0
LINE
  5
11B
330
1F
100
AcDbEntity
  8
C-A
  6
Continuous
 62
     6
370
     5
100
AcDbLine
 10
-535.121094523249
 20
923.0471966717696
 30
0.0
 11
-529.120964823542
 21
921.2471478436444
 31
0.0
  0
LINE
  5
11C
330
1F
100
AcDbEntity
  8
C-A
  6
Continuous
 62
     6
370
     5
100
AcDbLine
 10
-529.120964823542
 20
926.5912640545821
 30
0.0
 11
-535.121094523249
 21
924.7912762616133
 31
0.0
  0
LINE
  5
11D
330
1F
100
AcDbEntity
  8
C-A
  6
Continuous
 62
     6
370
     5
100
AcDbLine
 10
-529.6213844402412
 20
900.9190838788006
 30
0.0
 11
-529.6213844402412
 21
904.9189618084883
 31
0.0
  0
LINE
  5
11E
330
1F
100
AcDbEntity
  8
C-A
  6
Continuous
 62
     6
370
     5
100
AcDbLine
 10
-529.6213844402412
 20
904.9189618084883
 30
0.0
 11
-534.6211631877998
 21
903.4192059491133
 31
0.0
  0
LINE
  5
11F
330
1F
100
AcDbEntity
  8
C-A
  6
Continuous
 62
     6
370
     5
100
AcDbLine
 10
-534.6211631877998
 20
902.4193280194256
 30
0.0
 11
-534.6211631877998
 21
903.4192059491133
 31
0.0
  0
LINE
  5
120
330
1F
100
AcDbEntity
  8
C-A
  6
Continuous
 62
     6
370
     5
100
AcDbLine
 10
-534.6211631877998
 20
902.4193280194256
 30
0.0
 11
-529.6213844402412
 21
900.9190838788006
 31
0.0
  0
LINE
  5
121
330
1F
100
AcDbEntity
  8
C-A
  6
Continuous
 62
     6
370
     5
100
AcDbLine
 10
-535.121094523249
 20
902.0472577069258
 30
0.0
 11
-529.120964823542
 21
900.2472088788008
 31
0.0
  0
LINE
  5
122
330
1F
100
AcDbEntity
  8
C-A
  6
Continuous
 62
     6
370
     5
100
AcDbLine
 10
-529.120964823542
 20
905.5913250897381
 30
0.0
 11
-535.121094523249
 21
903.7912762616133
 31
0.0
  0
LINE
  5
123
330
1F
100
AcDbEntity
  8
C-A
  6
Continuous
 62
     6
370
     5
100
AcDbLine
 10
-519.6208427532295
 20
943.5571454022383
 30
0.0
 11
-519.6208427532295
 21
947.5570233319261
 31
0.0
  0
LINE
  5
124
330
1F
100
AcDbEntity
  8
C-A
  6
Continuous
 62
     6
370
     5
100
AcDbLine
 10
-519.6208427532295
 20
947.5570233319261
 30
0.0
 11
-514.6210716350654
 21
946.0572674725508
 31
0.0
  0
LINE
  5
125
330
1F
100
AcDbEntity
  8
C-A
  6
Continuous
 62
     6
370
     5
100
AcDbLine
 10
-514.6210716350654
 20
945.0573895428633
 30
0.0
 11
-514.6210716350654
 21
946.0572674725508
 31
0.0
  0
LINE
  5
126
330
1F
100
AcDbEntity
  8
C-A
  6
Continuous
 62
     6
370
     5
100
AcDbLine
 10
-514.6210716350654
 20
945.0573895428633
 30
0.0
 11
-519.6208427532295
 21
943.5571454022383
 31
0.0
  0
LINE
  5
127
330
1F
100
AcDbEntity
  8
C-A
  6
Continuous
 62
     6
370
     5
100
AcDbLine
 10
-514.1211402996162
 20
944.6853192303636
 30
0.0
 11
-520.1212699993232
 21
942.8852704022383
 31
0.0
  0
LINE
  5
128
330
1F
100
AcDbEntity
  8
C-A
  6
Continuous
 62
     6
370
     5
100
AcDbLine
 10
-520.1212699993232
 20
948.2293866131758
 30
0.0
 11
-514.1211402996162
 21
946.4293377850506
 31
0.0
  0
LINE
  5
129
330
1F
100
AcDbEntity
  8
C-A
  6
Continuous
 62
     6
370
     5
100
AcDbLine
 10
-514.6210716350654
 20
954.0570843670821
 30
0.0
 11
-514.6210716350654
 21
958.0570233319258
 31
0.0
  0
LINE
  5
12A
330
1F
100
AcDbEntity
  8
C-A
  6
Continuous
 62
     6
370
     5
100
AcDbLine
 10
-514.6210716350654
 20
958.0570233319258
 30
0.0
 11
-519.6208427532295
 21
956.5572674725511
 31
0.0
  0
LINE
  5
12B
330
1F
100
AcDbEntity
  8
C-A
  6
Continuous
 62
     6
370
     5
100
AcDbLine
 10
-519.6208427532295
 20
955.5573895428633
 30
0.0
 11
-519.6208427532295
 21
956.5572674725511
 31
0.0
  0
LINE
  5
12C
330
1F
100
AcDbEntity
  8
C-A
  6
Continuous
 62
     6
370
     5
100
AcDbLine
 10
-519.6208427532295
 20
955.5573895428633
 30
0.0
 11
-514.6210716350654
 21
954.0570843670821
 31
0.0
  0
LINE
  5
12D
330
1F
100
AcDbEntity
  8
C-A
  6
Continuous
 62
     6
370
     5
100
AcDbLine
 10
-520.1212699993232
 20
955.1852581952071
 30
0.0
 11
-514.1211402996162
 21
953.3852704022386
 31
0.0
  0
LINE
  5
12E
330
1F
100
AcDbEntity
  8
C-A
  6
Continuous
 62
     6
370
     5
100
AcDbLine
 10
-514.1211402996162
 20
958.7293866131758
 30
0.0
 11
-520.1212699993232
 21
956.9293377850508
 31
0.0
  0
LINE
  5
12F
330
1F
100
AcDbEntity
  8
C-A
  6
Continuous
 62
     6
370
     5
100
AcDbLine
 10
-519.6208427532295
 20
922.5572064373946
 30
0.0
 11
-519.6208427532295
 21
926.5570843670821
 31
0.0
  0
LINE
  5
130
330
1F
100
AcDbEntity
  8
C-A
  6
Continuous
 62
     6
370
     5
100
AcDbLine
 10
-519.6208427532295
 20
926.5570843670821
 30
0.0
 11
-514.6210716350654
 21
925.057328507707
 31
0.0
  0
LINE
  5
131
330
1F
100
AcDbEntity
  8
C-A
  6
Continuous
 62
     6
370
     5
100
AcDbLine
 10
-514.6210716350654
 20
924.0574505780196
 30
0.0
 11
-514.6210716350654
 21
925.057328507707
 31
0.0
  0
LINE
  5
132
330
1F
100
AcDbEntity
  8
C-A
  6
Continuous
 62
     6
370
     5
100
AcDbLine
 10
-514.6210716350654
 20
924.0574505780196
 30
0.0
 11
-519.6208427532295
 21
922.5572064373946
 31
0.0
  0
LINE
  5
133
330
1F
100
AcDbEntity
  8
C-A
  6
Continuous
 62
     6
370
     5
100
AcDbLine
 10
-514.1211402996162
 20
923.6853802655196
 30
0.0
 11
-520.1212699993232
 21
921.8853314373945
 31
0.0
  0
LINE
  5
134
330
1F
100
AcDbEntity
  8
C-A
  6
Continuous
 62
     6
370
     5
100
AcDbLine
 10
-520.1212699993232
 20
927.2294476483321
 30
0.0
 11
-514.1211402996162
 21
925.4293988202071
 31
0.0
  0
LINE
  5
135
330
1F
100
AcDbEntity
  8
C-A
  6
Continuous
 62
     6
370
     5
100
AcDbLine
 10
-514.6210716350654
 20
933.0571454022381
 30
0.0
 11
-514.6210716350654
 21
937.0570843670819
 31
0.0
  0
LINE
  5
136
330
1F
100
AcDbEntity
  8
C-A
  6
Continuous
 62
     6
370
     5
100
AcDbLine
 10
-514.6210716350654
 20
937.0570843670819
 30
0.0
 11
-519.6208427532295
 21
935.5572674725508
 31
0.0
  0
LINE
  5
137
330
1F
100
AcDbEntity
  8
C-A
  6
Continuous
 62
     6
370
     5
100
AcDbLine
 10
-519.6208427532295
 20
934.5574505780198
 30
0.0
 11
-519.6208427532295
 21
935.5572674725508
 31
0.0
  0
LINE
  5
138
330
1F
100
AcDbEntity
  8
C-A
  6
Continuous
 62
     6
370
     5
100
AcDbLine
 10
-519.6208427532295
 20
934.5574505780198
 30
0.0
 11
-514.6210716350654
 21
933.0571454022381
 31
0.0
  0
LINE
  5
139
330
1F
100
AcDbEntity
  8
C-A
  6
Continuous
 62
     6
370
     5
100
AcDbLine
 10
-520.1212699993232
 20
934.1853192303633
 30
0.0
 11
-514.1211402996162
 21
932.3852704022383
 31
0.0
  0
LINE
  5
13A
330
1F
100
AcDbEntity
  8
C-A
  6
Continuous
 62
     6
370
     5
100
AcDbLine
 10
-514.1211402996162
 20
937.7294476483323
 30
0.0
 11
-520.1212699993232
 21
935.9293988202071
 31
0.0
  0
LINE
  5
13B
330
1F
100
AcDbEntity
  8
C-A
  6
Continuous
 62
     6
370
     5
100
AcDbLine
 10
-578.6212699993232
 20
931.0147259686446
 30
0.0
 11
-578.6212699993232
 21
935.0146038983323
 31
0.0
  0
LINE
  5
13C
330
1F
100
AcDbEntity
  8
C-A
  6
Continuous
 62
     6
370
     5
100
AcDbLine
 10
-578.6212699993232
 20
935.0146038983323
 30
0.0
 11
-573.6209991558173
 21
933.5148480389571
 31
0.0
  0
LINE
  5
13D
330
1F
100
AcDbEntity
  8
C-A
  6
Continuous
 62
     6
370
     5
100
AcDbLine
 10
-573.6209991558173
 20
932.5149701092696
 30
0.0
 11
-573.6209991558173
 21
933.5148480389571
 31
0.0
  0
LINE
  5
13E
330
1F
100
AcDbEntity
  8
C-A
  6
Continuous
 62
     6
370
     5
100
AcDbLine
 10
-573.6209991558173
 20
932.5149701092696
 30
0.0
 11
-578.6212699993232
 21
931.0147259686446
 31
0.0
  0
LINE
  5
13F
330
1F
100
AcDbEntity
  8
C-A
  6
Continuous
 62
     6
370
     5
100
AcDbLine
 10
-573.1210678203681
 20
932.1428997967698
 30
0.0
 11
-579.1211975200752
 21
930.3428509686446
 31
0.0
  0
LINE
  5
140
330
1F
100
AcDbEntity
  8
C-A
  6
Continuous
 62
     6
370
     5
100
AcDbLine
 10
-579.1211975200752
 20
935.6869671795821
 30
0.0
 11
-573.1210678203681
 21
933.8869183514569
 31
0.0
  0
LINE
  5
141
330
1F
100
AcDbEntity
  8
C-A
  6
Continuous
 62
     6
370
     5
100
AcDbLine
 10
-573.6209991558173
 20
941.5146649334883
 30
0.0
 11
-573.6209991558173
 21
945.5146038983321
 31
0.0
  0
LINE
  5
142
330
1F
100
AcDbEntity
  8
C-A
  6
Continuous
 62
     6
370
     5
100
AcDbLine
 10
-573.6209991558173
 20
945.5146038983321
 30
0.0
 11
-578.6212699993232
 21
944.0148480389573
 31
0.0
  0
LINE
  5
143
330
1F
100
AcDbEntity
  8
C-A
  6
Continuous
 62
     6
370
     5
100
AcDbLine
 10
-578.6212699993232
 20
943.0149701092696
 30
0.0
 11
-578.6212699993232
 21
944.0148480389573
 31
0.0
  0
LINE
  5
144
330
1F
100
AcDbEntity
  8
C-A
  6
Continuous
 62
     6
370
     5
100
AcDbLine
 10
-578.6212699993232
 20
943.0149701092696
 30
0.0
 11
-573.6209991558173
 21
941.5146649334883
 31
0.0
  0
LINE
  5
145
330
1F
100
AcDbEntity
  8
C-A
  6
Continuous
 62
     6
370
     5
100
AcDbLine
 10
-579.1211975200752
 20
942.6428387616133
 30
0.0
 11
-573.1210678203681
 21
940.8428509686448
 31
0.0
  0
LINE
  5
146
330
1F
100
AcDbEntity
  8
C-A
  6
Continuous
 62
     6
370
     5
100
AcDbLine
 10
-573.1210678203681
 20
946.1869671795821
 30
0.0
 11
-579.1211975200752
 21
944.3869183514571
 31
0.0
  0
LINE
  5
147
330
1F
100
AcDbEntity
  8
C-A
  6
Continuous
 62
     6
370
     5
100
AcDbLine
 10
-578.6212699993232
 20
952.0146649334881
 30
0.0
 11
-578.6212699993232
 21
956.0146038983319
 31
0.0
  0
LINE
  5
148
330
1F
100
AcDbEntity
  8
C-A
  6
Continuous
 62
     6
370
     5
100
AcDbLine
 10
-578.6212699993232
 20
956.0146038983319
 30
0.0
 11
-573.6209991558173
 21
954.5147870038008
 31
0.0
  0
LINE
  5
149
330
1F
100
AcDbEntity
  8
C-A
  6
Continuous
 62
     6
370
     5
100
AcDbLine
 10
-573.6209991558173
 20
953.5149090741131
 30
0.0
 11
-573.6209991558173
 21
954.5147870038008
 31
0.0
  0
LINE
  5
14A
330
1F
100
AcDbEntity
  8
C-A
  6
Continuous
 62
     6
370
     5
100
AcDbLine
 10
-573.6209991558173
 20
953.5149090741131
 30
0.0
 11
-578.6212699993232
 21
952.0146649334881
 31
0.0
  0
LINE
  5
14B
330
1F
100
AcDbEntity
  8
C-A
  6
Continuous
 62
     6
370
     5
100
AcDbLine
 10
-573.1210678203681
 20
953.1428387616133
 30
0.0
 11
-579.1211975200752
 21
951.3427899334883
 31
0.0
  0
LINE
  5
14C
330
1F
100
AcDbEntity
  8
C-A
  6
Continuous
 62
     6
370
     5
100
AcDbLine
 10
-579.1211975200752
 20
956.6869061444256
 30
0.0
 11
-573.1210678203681
 21
954.8869183514571
 31
0.0
  0
LINE
  5
14D
330
1F
100
AcDbEntity
  8
C-A
  6
Continuous
 62
     6
370
     5
100
AcDbLine
 10
-578.6212699993232
 20
910.0147870038008
 30
0.0
 11
-578.6212699993232
 21
914.0146649334883
 31
0.0
  0
LINE
  5
14E
330
1F
100
AcDbEntity
  8
C-A
  6
Continuous
 62
     6
370
     5
100
AcDbLine
 10
-578.6212699993232
 20
914.0146649334883
 30
0.0
 11
-573.6209991558173
 21
912.5149090741132
 31
0.0
  0
LINE
  5
14F
330
1F
100
AcDbEntity
  8
C-A
  6
Continuous
 62
     6
370
     5
100
AcDbLine
 10
-573.6209991558173
 20
911.5150311444258
 30
0.0
 11
-573.6209991558173
 21
912.5149090741132
 31
0.0
  0
LINE
  5
150
330
1F
100
AcDbEntity
  8
C-A
  6
Continuous
 62
     6
370
     5
100
AcDbLine
 10
-573.6209991558173
 20
911.5150311444258
 30
0.0
 11
-578.6212699993232
 21
910.0147870038008
 31
0.0
  0
LINE
  5
151
330
1F
100
AcDbEntity
  8
C-A
  6
Continuous
 62
     6
370
     5
100
AcDbLine
 10
-573.1210678203681
 20
911.1429608319258
 30
0.0
 11
-579.1211975200752
 21
909.3429120038007
 31
0.0
  0
LINE
  5
152
330
1F
100
AcDbEntity
  8
C-A
  6
Continuous
 62
     6
370
     5
100
AcDbLine
 10
-579.1211975200752
 20
914.6870282147383
 30
0.0
 11
-573.1210678203681
 21
912.8869793866133
 31
0.0
  0
LINE
  5
153
330
1F
100
AcDbEntity
  8
C-A
  6
Continuous
 62
     6
370
     5
100
AcDbLine
 10
-573.6209991558173
 20
920.5147259686444
 30
0.0
 11
-573.6209991558173
 21
924.5146649334881
 31
0.0
  0
LINE
  5
154
330
1F
100
AcDbEntity
  8
C-A
  6
Continuous
 62
     6
370
     5
100
AcDbLine
 10
-573.6209991558173
 20
924.5146649334881
 30
0.0
 11
-578.6212699993232
 21
923.0148480389571
 31
0.0
  0
LINE
  5
155
330
1F
100
AcDbEntity
  8
C-A
  6
Continuous
 62
     6
370
     5
100
AcDbLine
 10
-578.6212699993232
 20
922.0150311444257
 30
0.0
 11
-578.6212699993232
 21
923.0148480389571
 31
0.0
  0
LINE
  5
156
330
1F
100
AcDbEntity
  8
C-A
  6
Continuous
 62
     6
370
     5
100
AcDbLine
 10
-578.6212699993232
 20
922.0150311444257
 30
0.0
 11
-573.6209991558173
 21
920.5147259686444
 31
0.0
  0
LINE
  5
157
330
1F
100
AcDbEntity
  8
C-A
  6
Continuous
 62
     6
370
     5
100
AcDbLine
 10
-579.1211975200752
 20
921.6428997967696
 30
0.0
 11
-573.1210678203681
 21
919.8428509686446
 31
0.0
  0
LINE
  5
158
330
1F
100
AcDbEntity
  8
C-A
  6
Continuous
 62
     6
370
     5
100
AcDbLine
 10
-573.1210678203681
 20
925.1870282147382
 30
0.0
 11
-579.1211975200752
 21
923.3869793866133
 31
0.0
  0
LINE
  5
159
330
1F
100
AcDbEntity
  8
C-A
  6
Continuous
 62
     6
370
     5
100
AcDbLine
 10
-578.6212699993232
 20
889.0147870038006
 30
0.0
 11
-578.6212699993232
 21
893.0147259686444
 31
0.0
  0
LINE
  5
15A
330
1F
100
AcDbEntity
  8
C-A
  6
Continuous
 62
     6
370
     5
100
AcDbLine
 10
-578.6212699993232
 20
893.0147259686444
 30
0.0
 11
-573.6209991558173
 21
891.5149701092696
 31
0.0
  0
LINE
  5
15B
330
1F
100
AcDbEntity
  8
C-A
  6
Continuous
 62
     6
370
     5
100
AcDbLine
 10
-573.6209991558173
 20
890.515092179582
 30
0.0
 11
-573.6209991558173
 21
891.5149701092696
 31
0.0
  0
LINE
  5
15C
330
1F
100
AcDbEntity
  8
C-A
  6
Continuous
 62
     6
370
     5
100
AcDbLine
 10
-573.6209991558173
 20
890.515092179582
 30
0.0
 11
-578.6212699993232
 21
889.0147870038006
 31
0.0
  0
LINE
  5
15D
330
1F
100
AcDbEntity
  8
C-A
  6
Continuous
 62
     6
370
     5
100
AcDbLine
 10
-573.1210678203681
 20
890.1430218670819
 30
0.0
 11
-579.1211975200752
 21
888.3429730389571
 31
0.0
  0
LINE
  5
15E
330
1F
100
AcDbEntity
  8
C-A
  6
Continuous
 62
     6
370
     5
100
AcDbLine
 10
-579.1211975200752
 20
893.6870892498945
 30
0.0
 11
-573.1210678203681
 21
891.8870404217696
 31
0.0
  0
LINE
  5
15F
330
1F
100
AcDbEntity
  8
C-A
  6
Continuous
 62
     6
370
     5
100
AcDbLine
 10
-573.6209991558173
 20
899.5147870038008
 30
0.0
 11
-573.6209991558173
 21
903.5147259686446
 31
0.0
  0
LINE
  5
160
330
1F
100
AcDbEntity
  8
C-A
  6
Continuous
 62
     6
370
     5
100
AcDbLine
 10
-573.6209991558173
 20
903.5147259686446
 30
0.0
 11
-578.6212699993232
 21
902.0149090741133
 31
0.0
  0
LINE
  5
161
330
1F
100
AcDbEntity
  8
C-A
  6
Continuous
 62
     6
370
     5
100
AcDbLine
 10
-578.6212699993232
 20
901.0150921795821
 30
0.0
 11
-578.6212699993232
 21
902.0149090741133
 31
0.0
  0
LINE
  5
162
330
1F
100
AcDbEntity
  8
C-A
  6
Continuous
 62
     6
370
     5
100
AcDbLine
 10
-578.6212699993232
 20
901.0150921795821
 30
0.0
 11
-573.6209991558173
 21
899.5147870038008
 31
0.0
  0
LINE
  5
163
330
1F
100
AcDbEntity
  8
C-A
  6
Continuous
 62
     6
370
     5
100
AcDbLine
 10
-579.1211975200752
 20
900.6429608319257
 30
0.0
 11
-573.1210678203681
 21
898.8429120038008
 31
0.0
  0
LINE
  5
164
330
1F
100
AcDbEntity
  8
C-A
  6
Continuous
 62
     6
370
     5
100
AcDbLine
 10
-573.1210678203681
 20
904.1870282147383
 30
0.0
 11
-579.1211975200752
 21
902.3870404217695
 31
0.0
  0
LINE
  5
165
330
1F
100
AcDbEntity
  8
C-A
  6
Continuous
 62
     6
370
     5
100
AcDbLine
 10
-578.6212699993232
 20
868.0148480389571
 30
0.0
 11
-578.6212699993232
 21
872.0147870038008
 31
0.0
  0
LINE
  5
166
330
1F
100
AcDbEntity
  8
C-A
  6
Continuous
 62
     6
370
     5
100
AcDbLine
 10
-578.6212699993232
 20
872.0147870038008
 30
0.0
 11
-573.6209991558173
 21
870.5149701092696
 31
0.0
  0
LINE
  5
167
330
1F
100
AcDbEntity
  8
C-A
  6
Continuous
 62
     6
370
     5
100
AcDbLine
 10
-573.6209991558173
 20
869.5151532147383
 30
0.0
 11
-573.6209991558173
 21
870.5149701092696
 31
0.0
  0
LINE
  5
168
330
1F
100
AcDbEntity
  8
C-A
  6
Continuous
 62
     6
370
     5
100
AcDbLine
 10
-573.6209991558173
 20
869.5151532147383
 30
0.0
 11
-578.6212699993232
 21
868.0148480389571
 31
0.0
  0
LINE
  5
169
330
1F
100
AcDbEntity
  8
C-A
  6
Continuous
 62
     6
370
     5
100
AcDbLine
 10
-573.1210678203681
 20
869.143021867082
 30
0.0
 11
-579.1211975200752
 21
867.3430340741131
 31
0.0
  0
LINE
  5
16A
330
1F
100
AcDbEntity
  8
C-A
  6
Continuous
 62
     6
370
     5
100
AcDbLine
 10
-579.1211975200752
 20
872.6871502850508
 30
0.0
 11
-573.1210678203681
 21
870.8871014569257
 31
0.0
  0
LINE
  5
16B
330
1F
100
AcDbEntity
  8
C-A
  6
Continuous
 62
     6
370
     5
100
AcDbLine
 10
-573.6209991558173
 20
878.5148480389571
 30
0.0
 11
-573.6209991558173
 21
882.5147259686446
 31
0.0
  0
LINE
  5
16C
330
1F
100
AcDbEntity
  8
C-A
  6
Continuous
 62
     6
370
     5
100
AcDbLine
 10
-573.6209991558173
 20
882.5147259686446
 30
0.0
 11
-578.6212699993232
 21
881.0149701092695
 31
0.0
  0
LINE
  5
16D
330
1F
100
AcDbEntity
  8
C-A
  6
Continuous
 62
     6
370
     5
100
AcDbLine
 10
-578.6212699993232
 20
880.0150921795821
 30
0.0
 11
-578.6212699993232
 21
881.0149701092695
 31
0.0
  0
LINE
  5
16E
330
1F
100
AcDbEntity
  8
C-A
  6
Continuous
 62
     6
370
     5
100
AcDbLine
 10
-578.6212699993232
 20
880.0150921795821
 30
0.0
 11
-573.6209991558173
 21
878.5148480389571
 31
0.0
  0
LINE
  5
16F
330
1F
100
AcDbEntity
  8
C-A
  6
Continuous
 62
     6
370
     5
100
AcDbLine
 10
-579.1211975200752
 20
879.6430218670821
 30
0.0
 11
-573.1210678203681
 21
877.842973038957
 31
0.0
  0
LINE
  5
170
330
1F
100
AcDbEntity
  8
C-A
  6
Continuous
 62
     6
370
     5
100
AcDbLine
 10
-573.1210678203681
 20
883.1870892498946
 30
0.0
 11
-579.1211975200752
 21
881.3870404217696
 31
0.0
  0
LINE
  5
171
330
1F
100
AcDbEntity
  8
C-A
  6
Continuous
 62
     6
370
     5
100
AcDbLine
 10
-578.6212699993232
 20
847.0149090741133
 30
0.0
 11
-578.6212699993232
 21
851.0148480389571
 31
0.0
  0
LINE
  5
172
330
1F
100
AcDbEntity
  8
C-A
  6
Continuous
 62
     6
370
     5
100
AcDbLine
 10
-578.6212699993232
 20
851.0148480389571
 30
0.0
 11
-573.6209991558173
 21
849.5150311444257
 31
0.0
  0
LINE
  5
173
330
1F
100
AcDbEntity
  8
C-A
  6
Continuous
 62
     6
370
     5
100
AcDbLine
 10
-573.6209991558173
 20
848.5152142498944
 30
0.0
 11
-573.6209991558173
 21
849.5150311444257
 31
0.0
  0
LINE
  5
174
330
1F
100
AcDbEntity
  8
C-A
  6
Continuous
 62
     6
370
     5
100
AcDbLine
 10
-573.6209991558173
 20
848.5152142498944
 30
0.0
 11
-578.6212699993232
 21
847.0149090741133
 31
0.0
  0
LINE
  5
175
330
1F
100
AcDbEntity
  8
C-A
  6
Continuous
 62
     6
370
     5
100
AcDbLine
 10
-573.1210678203681
 20
848.1430829022383
 30
0.0
 11
-579.1211975200752
 21
846.3430340741132
 31
0.0
  0
LINE
  5
176
330
1F
100
AcDbEntity
  8
C-A
  6
Continuous
 62
     6
370
     5
100
AcDbLine
 10
-579.1211975200752
 20
851.6872113202069
 30
0.0
 11
-573.1210678203681
 21
849.8871624920821
 31
0.0
  0
LINE
  5
177
330
1F
100
AcDbEntity
  8
C-A
  6
Continuous
 62
     6
370
     5
100
AcDbLine
 10
-573.6209991558173
 20
857.5149090741132
 30
0.0
 11
-573.6209991558173
 21
861.5147870038006
 31
0.0
  0
LINE
  5
178
330
1F
100
AcDbEntity
  8
C-A
  6
Continuous
 62
     6
370
     5
100
AcDbLine
 10
-573.6209991558173
 20
861.5147870038006
 30
0.0
 11
-578.6212699993232
 21
860.0150311444258
 31
0.0
  0
LINE
  5
179
330
1F
100
AcDbEntity
  8
C-A
  6
Continuous
 62
     6
370
     5
100
AcDbLine
 10
-578.6212699993232
 20
859.0151532147382
 30
0.0
 11
-578.6212699993232
 21
860.0150311444258
 31
0.0
  0
LINE
  5
17A
330
1F
100
AcDbEntity
  8
C-A
  6
Continuous
 62
     6
370
     5
100
AcDbLine
 10
-578.6212699993232
 20
859.0151532147382
 30
0.0
 11
-573.6209991558173
 21
857.5149090741132
 31
0.0
  0
LINE
  5
17B
330
1F
100
AcDbEntity
  8
C-A
  6
Continuous
 62
     6
370
     5
100
AcDbLine
 10
-579.1211975200752
 20
858.6430829022381
 30
0.0
 11
-573.1210678203681
 21
856.8430340741133
 31
0.0
  0
LINE
  5
17C
330
1F
100
AcDbEntity
  8
C-A
  6
Continuous
 62
     6
370
     5
100
AcDbLine
 10
-573.1210678203681
 20
862.1871502850507
 30
0.0
 11
-579.1211975200752
 21
860.3871014569258
 31
0.0
  0
LINE
  5
17D
330
1F
100
AcDbEntity
  8
C-A
  6
Continuous
 62
     3
370
     9
100
AcDbLine
 10
-259.1207054241278
 20
767.2108014080976
 30
0.0
 11
-250.1210105999091
 21
767.2108014080976
 31
0.0
  0
LINE
  5
17E
330
1F
100
AcDbEntity
  8
C-A
  6
Continuous
 62
     3
370
     9
100
AcDbLine
 10
-259.1207054241278
 20
763.67527894716
 30
0.0
 11
-250.1210105999091
 21
763.67527894716
 31
0.0
  0
LINE
  5
17F
330
1F
100
AcDbEntity
  8
C-A
  6
Continuous
 62
     3
370
     9
100
AcDbLine
 10
-259.1207054241278
 20
760.1397259686445
 30
0.0
 11
-250.1210105999091
 21
760.1397259686445
 31
0.0
  0
LINE
  5
180
330
1F
100
AcDbEntity
  8
C-A
  6
Continuous
 62
     3
370
     9
100
AcDbLine
 10
-274.1206443889716
 20
767.2108014080976
 30
0.0
 11
-265.1209495647529
 21
767.2108014080976
 31
0.0
  0
LINE
  5
181
330
1F
100
AcDbEntity
  8
C-A
  6
Continuous
 62
     3
370
     9
100
AcDbLine
 10
-274.1206443889716
 20
763.67527894716
 30
0.0
 11
-265.1209495647529
 21
763.67527894716
 31
0.0
  0
LINE
  5
182
330
1F
100
AcDbEntity
  8
C-A
  6
Continuous
 62
     3
370
     9
100
AcDbLine
 10
-274.1206443889716
 20
760.1397259686445
 30
0.0
 11
-265.1209495647529
 21
760.1397259686445
 31
0.0
  0
LINE
  5
183
330
1F
100
AcDbEntity
  8
C-A
  6
Continuous
 62
     3
370
     9
100
AcDbLine
 10
-289.1206443889716
 20
767.2108014080976
 30
0.0
 11
-280.1209495647529
 21
767.2108014080976
 31
0.0
  0
LINE
  5
184
330
1F
100
AcDbEntity
  8
C-A
  6
Continuous
 62
     3
370
     9
100
AcDbLine
 10
-289.1206443889716
 20
763.67527894716
 30
0.0
 11
-280.1209495647529
 21
763.67527894716
 31
0.0
  0
LINE
  5
185
330
1F
100
AcDbEntity
  8
C-A
  6
Continuous
 62
     3
370
     9
100
AcDbLine
 10
-289.1206443889716
 20
760.1397259686445
 30
0.0
 11
-280.1209495647529
 21
760.1397259686445
 31
0.0
  0
LINE
  5
186
330
1F
100
AcDbEntity
  8
C-A
  6
Continuous
 62
     3
370
     9
100
AcDbLine
 10
-304.1206443889716
 20
767.2108014080976
 30
0.0
 11
-295.1209495647529
 21
767.2108014080976
 31
0.0
  0
LINE
  5
187
330
1F
100
AcDbEntity
  8
C-A
  6
Continuous
 62
     3
370
     9
100
AcDbLine
 10
-304.1206443889716
 20
763.67527894716
 30
0.0
 11
-295.1209495647529
 21
763.67527894716
 31
0.0
  0
LINE
  5
188
330
1F
100
AcDbEntity
  8
C-A
  6
Continuous
 62
     3
370
     9
100
AcDbLine
 10
-304.1206443889716
 20
760.1397259686445
 30
0.0
 11
-295.1209495647529
 21
760.1397259686445
 31
0.0
  0
LINE
  5
189
330
1F
100
AcDbEntity
  8
C-A
  6
Continuous
 62
     3
370
     9
100
AcDbLine
 10
-319.1206138713935
 20
767.2108014080976
 30
0.0
 11
-310.1209190471748
 21
767.2108014080976
 31
0.0
  0
LINE
  5
18A
330
1F
100
AcDbEntity
  8
C-A
  6
Continuous
 62
     3
370
     9
100
AcDbLine
 10
-319.1206138713935
 20
763.67527894716
 30
0.0
 11
-310.1209190471748
 21
763.67527894716
 31
0.0
  0
LINE
  5
18B
330
1F
100
AcDbEntity
  8
C-A
  6
Continuous
 62
     3
370
     9
100
AcDbLine
 10
-319.1206138713935
 20
760.1397259686445
 30
0.0
 11
-310.1209190471748
 21
760.1397259686445
 31
0.0
  0
LINE
  5
18C
330
1F
100
AcDbEntity
  8
C-A
  6
Continuous
 62
     3
370
     9
100
AcDbLine
 10
-334.1206138713935
 20
767.2108014080976
 30
0.0
 11
-325.1209190471748
 21
767.2108014080976
 31
0.0
  0
LINE
  5
18D
330
1F
100
AcDbEntity
  8
C-A
  6
Continuous
 62
     3
370
     9
100
AcDbLine
 10
-334.1206138713935
 20
763.67527894716
 30
0.0
 11
-325.1209190471748
 21
763.67527894716
 31
0.0
  0
LINE
  5
18E
330
1F
100
AcDbEntity
  8
C-A
  6
Continuous
 62
     3
370
     9
100
AcDbLine
 10
-334.1206138713935
 20
760.1397259686445
 30
0.0
 11
-325.1209190471748
 21
760.1397259686445
 31
0.0
  0
LINE
  5
18F
330
1F
100
AcDbEntity
  8
C-A
  6
Continuous
 62
     3
370
     9
100
AcDbLine
 10
-349.1206138713935
 20
767.2108014080976
 30
0.0
 11
-340.1209190471748
 21
767.2108014080976
 31
0.0
  0
LINE
  5
190
330
1F
100
AcDbEntity
  8
C-A
  6
Continuous
 62
     3
370
     9
100
AcDbLine
 10
-349.1206138713935
 20
763.67527894716
 30
0.0
 11
-340.1209190471748
 21
763.67527894716
 31
0.0
  0
LINE
  5
191
330
1F
100
AcDbEntity
  8
C-A
  6
Continuous
 62
     3
370
     9
100
AcDbLine
 10
-349.1206138713935
 20
760.1397259686445
 30
0.0
 11
-340.1209190471748
 21
760.1397259686445
 31
0.0
  0
LINE
  5
192
330
1F
100
AcDbEntity
  8
C-A
  6
Continuous
 62
     3
370
     9
100
AcDbLine
 10
-364.1206138713935
 20
767.2108014080976
 30
0.0
 11
-355.1209190471748
 21
767.2108014080976
 31
0.0
  0
LINE
  5
193
330
1F
100
AcDbEntity
  8
C-A
  6
Continuous
 62
     3
370
     9
100
AcDbLine
 10
-364.1206138713935
 20
763.67527894716
 30
0.0
 11
-355.1209190471748
 21
763.67527894716
 31
0.0
  0
LINE
  5
194
330
1F
100
AcDbEntity
  8
C-A
  6
Continuous
 62
     3
370
     9
100
AcDbLine
 10
-364.1206138713935
 20
760.1397259686445
 30
0.0
 11
-355.1209190471748
 21
760.1397259686445
 31
0.0
  0
LINE
  5
195
330
1F
100
AcDbEntity
  8
C-A
  6
Continuous
 62
     3
370
     9
100
AcDbLine
 10
-379.1206138713935
 20
767.2108014080976
 30
0.0
 11
-370.1209190471748
 21
767.2108014080976
 31
0.0
  0
LINE
  5
196
330
1F
100
AcDbEntity
  8
C-A
  6
Continuous
 62
     3
370
     9
100
AcDbLine
 10
-379.1206138713935
 20
763.67527894716
 30
0.0
 11
-370.1209190471748
 21
763.67527894716
 31
0.0
  0
LINE
  5
197
330
1F
100
AcDbEntity
  8
C-A
  6
Continuous
 62
     3
370
     9
100
AcDbLine
 10
-379.1206138713935
 20
760.1397259686445
 30
0.0
 11
-370.1209190471748
 21
760.1397259686445
 31
0.0
  0
LINE
  5
198
330
1F
100
AcDbEntity
  8
C-A
  6
Continuous
 62
     3
370
     9
100
AcDbLine
 10
-394.1206138713935
 20
767.2108014080976
 30
0.0
 11
-385.1209190471748
 21
767.2108014080976
 31
0.0
  0
LINE
  5
199
330
1F
100
AcDbEntity
  8
C-A
  6
Continuous
 62
     3
370
     9
100
AcDbLine
 10
-394.1206138713935
 20
763.67527894716
 30
0.0
 11
-385.1209190471748
 21
763.67527894716
 31
0.0
  0
LINE
  5
19A
330
1F
100
AcDbEntity
  8
C-A
  6
Continuous
 62
     3
370
     9
100
AcDbLine
 10
-394.1206138713935
 20
760.1397259686445
 30
0.0
 11
-385.1209190471748
 21
760.1397259686445
 31
0.0
  0
LINE
  5
19B
330
1F
100
AcDbEntity
  8
C-A
  6
Continuous
 62
     3
370
     9
100
AcDbLine
 10
-409.1206138713935
 20
767.2108014080976
 30
0.0
 11
-400.1209190471748
 21
767.2108014080976
 31
0.0
  0
LINE
  5
19C
330
1F
100
AcDbEntity
  8
C-A
  6
Continuous
 62
     3
370
     9
100
AcDbLine
 10
-409.1206138713935
 20
763.67527894716
 30
0.0
 11
-400.1209190471748
 21
763.67527894716
 31
0.0
  0
LINE
  5
19D
330
1F
100
AcDbEntity
  8
C-A
  6
Continuous
 62
     3
370
     9
100
AcDbLine
 10
-409.1206138713935
 20
760.1397259686445
 30
0.0
 11
-400.1209190471748
 21
760.1397259686445
 31
0.0
  0
LINE
  5
19E
330
1F
100
AcDbEntity
  8
C-A
  6
Continuous
 62
     3
370
     9
100
AcDbLine
 10
-424.1206138713935
 20
767.2108014080976
 30
0.0
 11
-415.1209190471748
 21
767.2108014080976
 31
0.0
  0
LINE
  5
19F
330
1F
100
AcDbEntity
  8
C-A
  6
Continuous
 62
     3
370
     9
100
AcDbLine
 10
-424.1206138713935
 20
763.67527894716
 30
0.0
 11
-415.1209190471748
 21
763.67527894716
 31
0.0
  0
LINE
  5
1A0
330
1F
100
AcDbEntity
  8
C-A
  6
Continuous
 62
     3
370
     9
100
AcDbLine
 10
-424.1206138713935
 20
760.1397259686445
 30
0.0
 11
-415.1209190471748
 21
760.1397259686445
 31
0.0
  0
LINE
  5
1A1
330
1F
100
AcDbEntity
  8
C-A
  6
Continuous
 62
     3
370
     9
100
AcDbLine
 10
-439.1206138713935
 20
767.2108014080976
 30
0.0
 11
-430.1209190471748
 21
767.2108014080976
 31
0.0
  0
LINE
  5
1A2
330
1F
100
AcDbEntity
  8
C-A
  6
Continuous
 62
     3
370
     9
100
AcDbLine
 10
-439.1206138713935
 20
763.67527894716
 30
0.0
 11
-430.1209190471748
 21
763.67527894716
 31
0.0
  0
LINE
  5
1A3
330
1F
100
AcDbEntity
  8
C-A
  6
Continuous
 62
     3
370
     9
100
AcDbLine
 10
-439.1206138713935
 20
760.1397259686445
 30
0.0
 11
-430.1209190471748
 21
760.1397259686445
 31
0.0
  0
LINE
  5
1A4
330
1F
100
AcDbEntity
  8
C-A
  6
Continuous
 62
     3
370
     9
100
AcDbLine
 10
-454.1206138713935
 20
767.2108014080976
 30
0.0
 11
-445.1209190471748
 21
767.2108014080976
 31
0.0
  0
LINE
  5
1A5
330
1F
100
AcDbEntity
  8
C-A
  6
Continuous
 62
     3
370
     9
100
AcDbLine
 10
-454.1206138713935
 20
763.67527894716
 30
0.0
 11
-445.1209190471748
 21
763.67527894716
 31
0.0
  0
LINE
  5
1A6
330
1F
100
AcDbEntity
  8
C-A
  6
Continuous
 62
     3
370
     9
100
AcDbLine
 10
-454.1206138713935
 20
760.1397259686445
 30
0.0
 11
-445.1209190471748
 21
760.1397259686445
 31
0.0
  0
LINE
  5
1A7
330
1F
100
AcDbEntity
  8
C-A
  6
Continuous
 62
     3
370
     9
100
AcDbLine
 10
-469.1206138713935
 20
767.2108014080976
 30
0.0
 11
-460.1209190471748
 21
767.2108014080976
 31
0.0
  0
LINE
  5
1A8
330
1F
100
AcDbEntity
  8
C-A
  6
Continuous
 62
     3
370
     9
100
AcDbLine
 10
-469.1206138713935
 20
763.67527894716
 30
0.0
 11
-460.1209190471748
 21
763.67527894716
 31
0.0
  0
LINE
  5
1A9
330
1F
100
AcDbEntity
  8
C-A
  6
Continuous
 62
     3
370
     9
100
AcDbLine
 10
-469.1206138713935
 20
760.1397259686445
 30
0.0
 11
-460.1209190471748
 21
760.1397259686445
 31
0.0
  0
LINE
  5
1AA
330
1F
100
AcDbEntity
  8
C-A
  6
Continuous
 62
     3
370
     9
100
AcDbLine
 10
-484.1206138713935
 20
767.2108014080976
 30
0.0
 11
-475.1209190471748
 21
767.2108014080976
 31
0.0
  0
LINE
  5
1AB
330
1F
100
AcDbEntity
  8
C-A
  6
Continuous
 62
     3
370
     9
100
AcDbLine
 10
-484.1206138713935
 20
763.67527894716
 30
0.0
 11
-475.1209190471748
 21
763.67527894716
 31
0.0
  0
LINE
  5
1AC
330
1F
100
AcDbEntity
  8
C-A
  6
Continuous
 62
     3
370
     9
100
AcDbLine
 10
-484.1206138713935
 20
760.1397259686445
 30
0.0
 11
-475.1209190471748
 21
760.1397259686445
 31
0.0
  0
LINE
  5
1AD
330
1F
100
AcDbEntity
  8
C-A
  6
Continuous
 62
     3
370
     9
100
AcDbLine
 10
-499.120606241999
 20
767.2108014080976
 30
0.0
 11
-490.1209114177802
 21
767.2108014080976
 31
0.0
  0
LINE
  5
1AE
330
1F
100
AcDbEntity
  8
C-A
  6
Continuous
 62
     3
370
     9
100
AcDbLine
 10
-499.120606241999
 20
763.67527894716
 30
0.0
 11
-490.1209114177802
 21
763.67527894716
 31
0.0
  0
LINE
  5
1AF
330
1F
100
AcDbEntity
  8
C-A
  6
Continuous
 62
     3
370
     9
100
AcDbLine
 10
-499.120606241999
 20
760.1397259686445
 30
0.0
 11
-490.1209114177802
 21
760.1397259686445
 31
0.0
  0
LINE
  5
1B0
330
1F
100
AcDbEntity
  8
C-A
  6
Continuous
 62
     3
370
     9
100
AcDbLine
 10
-514.120606241999
 20
767.2108014080976
 30
0.0
 11
-505.1209114177802
 21
767.2108014080976
 31
0.0
  0
LINE
  5
1B1
330
1F
100
AcDbEntity
  8
C-A
  6
Continuous
 62
     3
370
     9
100
AcDbLine
 10
-514.120606241999
 20
763.67527894716
 30
0.0
 11
-505.1209114177802
 21
763.67527894716
 31
0.0
  0
LINE
  5
1B2
330
1F
100
AcDbEntity
  8
C-A
  6
Continuous
 62
     3
370
     9
100
AcDbLine
 10
-514.120606241999
 20
760.1397259686445
 30
0.0
 11
-505.1209114177802
 21
760.1397259686445
 31
0.0
  0
LINE
  5
1B3
330
1F
100
AcDbEntity
  8
C-A
  6
Continuous
 62
     3
370
     9
100
AcDbLine
 10
-529.120606241999
 20
767.2108014080976
 30
0.0
 11
-520.1209114177802
 21
767.2108014080976
 31
0.0
  0
LINE
  5
1B4
330
1F
100
AcDbEntity
  8
C-A
  6
Continuous
 62
     3
370
     9
100
AcDbLine
 10
-529.120606241999
 20
763.67527894716
 30
0.0
 11
-520.1209114177802
 21
763.67527894716
 31
0.0
  0
LINE
  5
1B5
330
1F
100
AcDbEntity
  8
C-A
  6
Continuous
 62
     3
370
     9
100
AcDbLine
 10
-529.120606241999
 20
760.1397259686445
 30
0.0
 11
-520.1209114177802
 21
760.1397259686445
 31
0.0
  0
LINE
  5
1B6
330
1F
100
AcDbEntity
  8
C-A
  6
Continuous
 62
     3
370
     9
100
AcDbLine
 10
-544.120606241999
 20
767.2108014080976
 30
0.0
 11
-535.1209114177802
 21
767.2108014080976
 31
0.0
  0
LINE
  5
1B7
330
1F
100
AcDbEntity
  8
C-A
  6
Continuous
 62
     3
370
     9
100
AcDbLine
 10
-544.120606241999
 20
763.67527894716
 30
0.0
 11
-535.1209114177802
 21
763.67527894716
 31
0.0
  0
LINE
  5
1B8
330
1F
100
AcDbEntity
  8
C-A
  6
Continuous
 62
     3
370
     9
100
AcDbLine
 10
-544.120606241999
 20
760.1397259686445
 30
0.0
 11
-535.1209114177802
 21
760.1397259686445
 31
0.0
  0
LINE
  5
1B9
330
1F
100
AcDbEntity
  8
C-A
  6
Continuous
 62
     3
370
     9
100
AcDbLine
 10
-559.120606241999
 20
767.2108014080976
 30
0.0
 11
-550.1209114177802
 21
767.2108014080976
 31
0.0
  0
LINE
  5
1BA
330
1F
100
AcDbEntity
  8
C-A
  6
Continuous
 62
     3
370
     9
100
AcDbLine
 10
-559.120606241999
 20
763.67527894716
 30
0.0
 11
-550.1209114177802
 21
763.67527894716
 31
0.0
  0
LINE
  5
1BB
330
1F
100
AcDbEntity
  8
C-A
  6
Continuous
 62
     3
370
     9
100
AcDbLine
 10
-559.120606241999
 20
760.1397259686445
 30
0.0
 11
-550.1209114177802
 21
760.1397259686445
 31
0.0
  0
LINE
  5
1BC
330
1F
100
AcDbEntity
  8
C-A
  6
Continuous
 62
     3
370
     9
100
AcDbLine
 10
-214.1207664592841
 20
767.2108014080976
 30
0.0
 11
-205.1210716350653
 21
767.2108014080976
 31
0.0
  0
LINE
  5
1BD
330
1F
100
AcDbEntity
  8
C-A
  6
Continuous
 62
     3
370
     9
100
AcDbLine
 10
-214.1207664592841
 20
763.67527894716
 30
0.0
 11
-205.1210716350653
 21
763.67527894716
 31
0.0
  0
LINE
  5
1BE
330
1F
100
AcDbEntity
  8
C-A
  6
Continuous
 62
     3
370
     9
100
AcDbLine
 10
-214.1207664592841
 20
760.1397259686445
 30
0.0
 11
-205.1210716350653
 21
760.1397259686445
 31
0.0
  0
LINE
  5
1BF
330
1F
100
AcDbEntity
  8
C-A
  6
Continuous
 62
     3
370
     9
100
AcDbLine
 10
-229.1207054241278
 20
767.2108014080976
 30
0.0
 11
-220.1210105999091
 21
767.2108014080976
 31
0.0
  0
LINE
  5
1C0
330
1F
100
AcDbEntity
  8
C-A
  6
Continuous
 62
     3
370
     9
100
AcDbLine
 10
-229.1207054241278
 20
763.67527894716
 30
0.0
 11
-220.1210105999091
 21
763.67527894716
 31
0.0
  0
LINE
  5
1C1
330
1F
100
AcDbEntity
  8
C-A
  6
Continuous
 62
     3
370
     9
100
AcDbLine
 10
-229.1207054241278
 20
760.1397259686445
 30
0.0
 11
-220.1210105999091
 21
760.1397259686445
 31
0.0
  0
LINE
  5
1C2
330
1F
100
AcDbEntity
  8
C-A
  6
Continuous
 62
     3
370
     9
100
AcDbLine
 10
-244.1207054241278
 20
767.2108014080976
 30
0.0
 11
-235.1210105999091
 21
767.2108014080976
 31
0.0
  0
LINE
  5
1C3
330
1F
100
AcDbEntity
  8
C-A
  6
Continuous
 62
     3
370
     9
100
AcDbLine
 10
-244.1207054241278
 20
763.67527894716
 30
0.0
 11
-235.1210105999091
 21
763.67527894716
 31
0.0
  0
LINE
  5
1C4
330
1F
100
AcDbEntity
  8
C-A
  6
Continuous
 62
     3
370
     9
100
AcDbLine
 10
-244.1207054241278
 20
760.1397259686445
 30
0.0
 11
-235.1210105999091
 21
760.1397259686445
 31
0.0
  0
LINE
  5
1C5
330
1F
100
AcDbEntity
  8
C-A
  6
Continuous
 62
     3
370
     9
100
AcDbLine
 10
-199.1207664592841
 20
767.2108014080976
 30
0.0
 11
-190.1210716350653
 21
767.2108014080976
 31
0.0
  0
LINE
  5
1C6
330
1F
100
AcDbEntity
  8
C-A
  6
Continuous
 62
     3
370
     9
100
AcDbLine
 10
-199.1207664592841
 20
763.67527894716
 30
0.0
 11
-190.1210716350653
 21
763.67527894716
 31
0.0
  0
LINE
  5
1C7
330
1F
100
AcDbEntity
  8
C-A
  6
Continuous
 62
     3
370
     9
100
AcDbLine
 10
-199.1207664592841
 20
760.1397259686445
 30
0.0
 11
-190.1210716350653
 21
760.1397259686445
 31
0.0
  0
LINE
  5
1C8
330
1F
100
AcDbEntity
  8
C-A
  6
Continuous
 62
     3
370
     9
100
AcDbLine
 10
-184.1207664592841
 20
767.2108014080976
 30
0.0
 11
-175.1213768108466
 21
767.2108014080976
 31
0.0
  0
LINE
  5
1C9
330
1F
100
AcDbEntity
  8
C-A
  6
Continuous
 62
     3
370
     9
100
AcDbLine
 10
-184.1207664592841
 20
763.67527894716
 30
0.0
 11
-175.1213768108466
 21
763.67527894716
 31
0.0
  0
LINE
  5
1CA
330
1F
100
AcDbEntity
  8
C-A
  6
Continuous
 62
     3
370
     9
100
AcDbLine
 10
-184.1207664592841
 20
760.1397259686445
 30
0.0
 11
-175.1213768108466
 21
760.1397259686445
 31
0.0
  0
LINE
  5
1CB
330
1F
100
AcDbEntity
  8
C-A
  6
Continuous
 62
     3
370
     9
100
AcDbLine
 10
-169.1211326702216
 20
767.2108014080976
 30
0.0
 11
-160.1214378460028
 21
767.2108014080976
 31
0.0
  0
LINE
  5
1CC
330
1F
100
AcDbEntity
  8
C-A
  6
Continuous
 62
     3
370
     9
100
AcDbLine
 10
-169.1211326702216
 20
763.67527894716
 30
0.0
 11
-160.1214378460028
 21
763.67527894716
 31
0.0
  0
LINE
  5
1CD
330
1F
100
AcDbEntity
  8
C-A
  6
Continuous
 62
     3
370
     9
100
AcDbLine
 10
-169.1211326702216
 20
760.1397259686445
 30
0.0
 11
-160.1214378460028
 21
760.1397259686445
 31
0.0
  0
LINE
  5
1CE
330
1F
100
AcDbEntity
  8
C-A
  6
Continuous
 62
     3
370
     9
100
AcDbLine
 10
-154.1211326702216
 20
767.2108014080976
 30
0.0
 11
-145.1214378460028
 21
767.2108014080976
 31
0.0
  0
LINE
  5
1CF
330
1F
100
AcDbEntity
  8
C-A
  6
Continuous
 62
     3
370
     9
100
AcDbLine
 10
-154.1211326702216
 20
763.67527894716
 30
0.0
 11
-145.1214378460028
 21
763.67527894716
 31
0.0
  0
LINE
  5
1D0
330
1F
100
AcDbEntity
  8
C-A
  6
Continuous
 62
     3
370
     9
100
AcDbLine
 10
-154.1211326702216
 20
760.1397259686445
 30
0.0
 11
-145.1214378460028
 21
760.1397259686445
 31
0.0
  0
LINE
  5
1D1
330
1F
100
AcDbEntity
  8
C-A
  6
Continuous
 62
     3
370
     9
100
AcDbLine
 10
-565.1212318523505
 20
760.1397259686445
 30
0.0
 11
-573.1210678203681
 21
760.1397259686445
 31
0.0
  0
LINE
  5
1D2
330
1F
100
AcDbEntity
  8
C-A
  6
Continuous
 62
     3
370
     9
100
AcDbLine
 10
-565.1212318523505
 20
763.67527894716
 30
0.0
 11
-573.1210678203681
 21
763.67527894716
 31
0.0
  0
LINE
  5
1D3
330
1F
100
AcDbEntity
  8
C-A
  6
Continuous
 62
     3
370
     9
100
AcDbLine
 10
-565.1212318523505
 20
767.2108014080976
 30
0.0
 11
-573.1210678203681
 21
767.2108014080976
 31
0.0
  0
LINE
  5
1D4
330
1F
100
AcDbEntity
  8
C-A
  6
Continuous
 62
     3
370
     9
100
AcDbLine
 10
-573.1210678203681
 20
466.6754773114181
 30
0.0
 11
-573.1210678203681
 21
960.6750653241133
 31
0.0
  0
LINE
  5
1D5
330
1F
100
AcDbEntity
  8
C-A
  6
Continuous
 62
     3
370
     9
100
AcDbLine
 10
-139.1211326702216
 20
767.2108014080976
 30
0.0
 11
-130.1214378460028
 21
767.2108014080976
 31
0.0
  0
LINE
  5
1D6
330
1F
100
AcDbEntity
  8
C-A
  6
Continuous
 62
     3
370
     9
100
AcDbLine
 10
-139.1211326702216
 20
763.67527894716
 30
0.0
 11
-130.1214378460028
 21
763.67527894716
 31
0.0
  0
LINE
  5
1D7
330
1F
100
AcDbEntity
  8
C-A
  6
Continuous
 62
     3
370
     9
100
AcDbLine
 10
-139.1211326702216
 20
760.1397259686445
 30
0.0
 11
-130.1214378460028
 21
760.1397259686445
 31
0.0
  0
LINE
  5
1D8
330
1F
100
AcDbEntity
  8
C-A
  6
Continuous
 62
     3
370
     9
100
AcDbLine
 10
-130.1214378460028
 20
960.6750653241133
 30
0.0
 11
-130.1214378460028
 21
662.6741497967694
 31
0.0
  0
LINE
  5
1D9
330
1F
100
AcDbEntity
  8
C-A
  6
Continuous
 62
     3
370
     9
100
AcDbLine
 10
-124.120980082331
 20
767.2108014080976
 30
0.0
 11
-115.1215904338935
 21
767.2108014080976
 31
0.0
  0
LINE
  5
1DA
330
1F
100
AcDbEntity
  8
C-A
  6
Continuous
 62
     3
370
     9
100
AcDbLine
 10
-124.120980082331
 20
763.67527894716
 30
0.0
 11
-115.1215904338935
 21
763.67527894716
 31
0.0
  0
LINE
  5
1DB
330
1F
100
AcDbEntity
  8
C-A
  6
Continuous
 62
     3
370
     9
100
AcDbLine
 10
-124.120980082331
 20
760.1397259686445
 30
0.0
 11
-115.1215904338935
 21
760.1397259686445
 31
0.0
  0
LINE
  5
1DC
330
1F
100
AcDbEntity
  8
C-A
  6
Continuous
 62
     3
370
     9
100
AcDbLine
 10
-109.1213462932685
 20
767.2108014080976
 30
0.0
 11
-100.1216819866278
 21
767.2108014080976
 31
0.0
  0
LINE
  5
1DD
330
1F
100
AcDbEntity
  8
C-A
  6
Continuous
 62
     3
370
     9
100
AcDbLine
 10
-109.1213462932685
 20
763.67527894716
 30
0.0
 11
-100.1216819866278
 21
763.67527894716
 31
0.0
  0
LINE
  5
1DE
330
1F
100
AcDbEntity
  8
C-A
  6
Continuous
 62
     3
370
     9
100
AcDbLine
 10
-109.1213462932685
 20
760.1397259686445
 30
0.0
 11
-100.1216819866278
 21
760.1397259686445
 31
0.0
  0
LINE
  5
1DF
330
1F
100
AcDbEntity
  8
C-A
  6
Continuous
 62
     3
370
     9
100
AcDbLine
 10
-94.12137681084658
 20
767.2108014080976
 30
0.0
 11
-85.12168198662785
 21
767.2108014080976
 31
0.0
  0
LINE
  5
1E0
330
1F
100
AcDbEntity
  8
C-A
  6
Continuous
 62
     3
370
     9
100
AcDbLine
 10
-94.12137681084658
 20
763.67527894716
 30
0.0
 11
-85.12168198662785
 21
763.67527894716
 31
0.0
  0
LINE
  5
1E1
330
1F
100
AcDbEntity
  8
C-A
  6
Continuous
 62
     3
370
     9
100
AcDbLine
 10
-94.12137681084658
 20
760.1397259686445
 30
0.0
 11
-85.12168198662785
 21
760.1397259686445
 31
0.0
  0
LINE
  5
1E2
330
1F
100
AcDbEntity
  8
C-A
  6
Continuous
 62
     3
370
     9
100
AcDbLine
 10
-259.1207054241278
 20
867.2108319256758
 30
0.0
 11
-250.1210105999091
 21
867.2108319256758
 31
0.0
  0
LINE
  5
1E3
330
1F
100
AcDbEntity
  8
C-A
  6
Continuous
 62
     3
370
     9
100
AcDbLine
 10
-259.1207054241278
 20
863.6752484295821
 30
0.0
 11
-250.1210105999091
 21
863.6752484295821
 31
0.0
  0
LINE
  5
1E4
330
1F
100
AcDbEntity
  8
C-A
  6
Continuous
 62
     3
370
     9
100
AcDbLine
 10
-259.1207054241278
 20
860.1397259686445
 30
0.0
 11
-250.1210105999091
 21
860.1397259686445
 31
0.0
  0
LINE
  5
1E5
330
1F
100
AcDbEntity
  8
C-A
  6
Continuous
 62
     3
370
     9
100
AcDbLine
 10
-274.1206443889716
 20
867.2108319256758
 30
0.0
 11
-265.1209495647529
 21
867.2108319256758
 31
0.0
  0
LINE
  5
1E6
330
1F
100
AcDbEntity
  8
C-A
  6
Continuous
 62
     3
370
     9
100
AcDbLine
 10
-274.1206443889716
 20
863.6752484295821
 30
0.0
 11
-265.1209495647529
 21
863.6752484295821
 31
0.0
  0
LINE
  5
1E7
330
1F
100
AcDbEntity
  8
C-A
  6
Continuous
 62
     3
370
     9
100
AcDbLine
 10
-274.1206443889716
 20
860.1397259686445
 30
0.0
 11
-265.1209495647529
 21
860.1397259686445
 31
0.0
  0
LINE
  5
1E8
330
1F
100
AcDbEntity
  8
C-A
  6
Continuous
 62
     3
370
     9
100
AcDbLine
 10
-289.1206443889716
 20
867.2108319256758
 30
0.0
 11
-280.1209495647529
 21
867.2108319256758
 31
0.0
  0
LINE
  5
1E9
330
1F
100
AcDbEntity
  8
C-A
  6
Continuous
 62
     3
370
     9
100
AcDbLine
 10
-289.1206443889716
 20
863.6752484295821
 30
0.0
 11
-280.1209495647529
 21
863.6752484295821
 31
0.0
  0
LINE
  5
1EA
330
1F
100
AcDbEntity
  8
C-A
  6
Continuous
 62
     3
370
     9
100
AcDbLine
 10
-289.1206443889716
 20
860.1397259686445
 30
0.0
 11
-280.1209495647529
 21
860.1397259686445
 31
0.0
  0
LINE
  5
1EB
330
1F
100
AcDbEntity
  8
C-A
  6
Continuous
 62
     3
370
     9
100
AcDbLine
 10
-304.1206443889716
 20
867.2108319256758
 30
0.0
 11
-295.1209495647529
 21
867.2108319256758
 31
0.0
  0
LINE
  5
1EC
330
1F
100
AcDbEntity
  8
C-A
  6
Continuous
 62
     3
370
     9
100
AcDbLine
 10
-304.1206443889716
 20
863.6752484295821
 30
0.0
 11
-295.1209495647529
 21
863.6752484295821
 31
0.0
  0
LINE
  5
1ED
330
1F
100
AcDbEntity
  8
C-A
  6
Continuous
 62
     3
370
     9
100
AcDbLine
 10
-304.1206443889716
 20
860.1397259686445
 30
0.0
 11
-295.1209495647529
 21
860.1397259686445
 31
0.0
  0
LINE
  5
1EE
330
1F
100
AcDbEntity
  8
C-A
  6
Continuous
 62
     3
370
     9
100
AcDbLine
 10
-319.1206138713935
 20
867.2108319256758
 30
0.0
 11
-310.1209190471748
 21
867.2108319256758
 31
0.0
  0
LINE
  5
1EF
330
1F
100
AcDbEntity
  8
C-A
  6
Continuous
 62
     3
370
     9
100
AcDbLine
 10
-319.1206138713935
 20
863.6752484295821
 30
0.0
 11
-310.1209190471748
 21
863.6752484295821
 31
0.0
  0
LINE
  5
1F0
330
1F
100
AcDbEntity
  8
C-A
  6
Continuous
 62
     3
370
     9
100
AcDbLine
 10
-319.1206138713935
 20
860.1397259686445
 30
0.0
 11
-310.1209190471748
 21
860.1397259686445
 31
0.0
  0
LINE
  5
1F1
330
1F
100
AcDbEntity
  8
C-A
  6
Continuous
 62
     3
370
     9
100
AcDbLine
 10
-334.1206138713935
 20
867.2108319256758
 30
0.0
 11
-325.1209190471748
 21
867.2108319256758
 31
0.0
  0
LINE
  5
1F2
330
1F
100
AcDbEntity
  8
C-A
  6
Continuous
 62
     3
370
     9
100
AcDbLine
 10
-334.1206138713935
 20
863.6752484295821
 30
0.0
 11
-325.1209190471748
 21
863.6752484295821
 31
0.0
  0
LINE
  5
1F3
330
1F
100
AcDbEntity
  8
C-A
  6
Continuous
 62
     3
370
     9
100
AcDbLine
 10
-334.1206138713935
 20
860.1397259686445
 30
0.0
 11
-325.1209190471748
 21
860.1397259686445
 31
0.0
  0
LINE
  5
1F4
330
1F
100
AcDbEntity
  8
C-A
  6
Continuous
 62
     3
370
     9
100
AcDbLine
 10
-349.1206138713935
 20
867.2108319256758
 30
0.0
 11
-340.1209190471748
 21
867.2108319256758
 31
0.0
  0
LINE
  5
1F5
330
1F
100
AcDbEntity
  8
C-A
  6
Continuous
 62
     3
370
     9
100
AcDbLine
 10
-349.1206138713935
 20
863.6752484295821
 30
0.0
 11
-340.1209190471748
 21
863.6752484295821
 31
0.0
  0
LINE
  5
1F6
330
1F
100
AcDbEntity
  8
C-A
  6
Continuous
 62
     3
370
     9
100
AcDbLine
 10
-349.1206138713935
 20
860.1397259686445
 30
0.0
 11
-340.1209190471748
 21
860.1397259686445
 31
0.0
  0
LINE
  5
1F7
330
1F
100
AcDbEntity
  8
C-A
  6
Continuous
 62
     3
370
     9
100
AcDbLine
 10
-364.1206138713935
 20
867.2108319256758
 30
0.0
 11
-355.1209190471748
 21
867.2108319256758
 31
0.0
  0
LINE
  5
1F8
330
1F
100
AcDbEntity
  8
C-A
  6
Continuous
 62
     3
370
     9
100
AcDbLine
 10
-364.1206138713935
 20
863.6752484295821
 30
0.0
 11
-355.1209190471748
 21
863.6752484295821
 31
0.0
  0
LINE
  5
1F9
330
1F
100
AcDbEntity
  8
C-A
  6
Continuous
 62
     3
370
     9
100
AcDbLine
 10
-364.1206138713935
 20
860.1397259686445
 30
0.0
 11
-355.1209190471748
 21
860.1397259686445
 31
0.0
  0
LINE
  5
1FA
330
1F
100
AcDbEntity
  8
C-A
  6
Continuous
 62
     3
370
     9
100
AcDbLine
 10
-379.1206138713935
 20
867.2108319256758
 30
0.0
 11
-370.1209190471748
 21
867.2108319256758
 31
0.0
  0
LINE
  5
1FB
330
1F
100
AcDbEntity
  8
C-A
  6
Continuous
 62
     3
370
     9
100
AcDbLine
 10
-379.1206138713935
 20
863.6752484295821
 30
0.0
 11
-370.1209190471748
 21
863.6752484295821
 31
0.0
  0
LINE
  5
1FC
330
1F
100
AcDbEntity
  8
C-A
  6
Continuous
 62
     3
370
     9
100
AcDbLine
 10
-379.1206138713935
 20
860.1397259686445
 30
0.0
 11
-370.1209190471748
 21
860.1397259686445
 31
0.0
  0
LINE
  5
1FD
330
1F
100
AcDbEntity
  8
C-A
  6
Continuous
 62
     3
370
     9
100
AcDbLine
 10
-394.1206138713935
 20
867.2108319256758
 30
0.0
 11
-385.1209190471748
 21
867.2108319256758
 31
0.0
  0
LINE
  5
1FE
330
1F
100
AcDbEntity
  8
C-A
  6
Continuous
 62
     3
370
     9
100
AcDbLine
 10
-394.1206138713935
 20
863.6752484295821
 30
0.0
 11
-385.1209190471748
 21
863.6752484295821
 31
0.0
  0
LINE
  5
1FF
330
1F
100
AcDbEntity
  8
C-A
  6
Continuous
 62
     3
370
     9
100
AcDbLine
 10
-394.1206138713935
 20
860.1397259686445
 30
0.0
 11
-385.1209190471748
 21
860.1397259686445
 31
0.0
  0
LINE
  5
200
330
1F
100
AcDbEntity
  8
C-A
  6
Continuous
 62
     3
370
     9
100
AcDbLine
 10
-409.1206138713935
 20
867.2108319256758
 30
0.0
 11
-400.1209190471748
 21
867.2108319256758
 31
0.0
  0
LINE
  5
201
330
1F
100
AcDbEntity
  8
C-A
  6
Continuous
 62
     3
370
     9
100
AcDbLine
 10
-409.1206138713935
 20
863.6752484295821
 30
0.0
 11
-400.1209190471748
 21
863.6752484295821
 31
0.0
  0
LINE
  5
202
330
1F
100
AcDbEntity
  8
C-A
  6
Continuous
 62
     3
370
     9
100
AcDbLine
 10
-409.1206138713935
 20
860.1397259686445
 30
0.0
 11
-400.1209190471748
 21
860.1397259686445
 31
0.0
  0
LINE
  5
203
330
1F
100
AcDbEntity
  8
C-A
  6
Continuous
 62
     3
370
     9
100
AcDbLine
 10
-424.1206138713935
 20
867.2108319256758
 30
0.0
 11
-415.1209190471748
 21
867.2108319256758
 31
0.0
  0
LINE
  5
204
330
1F
100
AcDbEntity
  8
C-A
  6
Continuous
 62
     3
370
     9
100
AcDbLine
 10
-424.1206138713935
 20
863.6752484295821
 30
0.0
 11
-415.1209190471748
 21
863.6752484295821
 31
0.0
  0
LINE
  5
205
330
1F
100
AcDbEntity
  8
C-A
  6
Continuous
 62
     3
370
     9
100
AcDbLine
 10
-424.1206138713935
 20
860.1397259686445
 30
0.0
 11
-415.1209190471748
 21
860.1397259686445
 31
0.0
  0
LINE
  5
206
330
1F
100
AcDbEntity
  8
C-A
  6
Continuous
 62
     3
370
     9
100
AcDbLine
 10
-439.1206138713935
 20
867.2108319256758
 30
0.0
 11
-430.1209190471748
 21
867.2108319256758
 31
0.0
  0
LINE
  5
207
330
1F
100
AcDbEntity
  8
C-A
  6
Continuous
 62
     3
370
     9
100
AcDbLine
 10
-439.1206138713935
 20
863.6752484295821
 30
0.0
 11
-430.1209190471748
 21
863.6752484295821
 31
0.0
  0
LINE
  5
208
330
1F
100
AcDbEntity
  8
C-A
  6
Continuous
 62
     3
370
     9
100
AcDbLine
 10
-439.1206138713935
 20
860.1397259686445
 30
0.0
 11
-430.1209190471748
 21
860.1397259686445
 31
0.0
  0
LINE
  5
209
330
1F
100
AcDbEntity
  8
C-A
  6
Continuous
 62
     3
370
     9
100
AcDbLine
 10
-454.1206138713935
 20
867.2108319256758
 30
0.0
 11
-445.1209190471748
 21
867.2108319256758
 31
0.0
  0
LINE
  5
20A
330
1F
100
AcDbEntity
  8
C-A
  6
Continuous
 62
     3
370
     9
100
AcDbLine
 10
-454.1206138713935
 20
863.6752484295821
 30
0.0
 11
-445.1209190471748
 21
863.6752484295821
 31
0.0
  0
LINE
  5
20B
330
1F
100
AcDbEntity
  8
C-A
  6
Continuous
 62
     3
370
     9
100
AcDbLine
 10
-454.1206138713935
 20
860.1397259686445
 30
0.0
 11
-445.1209190471748
 21
860.1397259686445
 31
0.0
  0
LINE
  5
20C
330
1F
100
AcDbEntity
  8
C-A
  6
Continuous
 62
     3
370
     9
100
AcDbLine
 10
-469.1206138713935
 20
867.2108319256758
 30
0.0
 11
-460.1209190471748
 21
867.2108319256758
 31
0.0
  0
LINE
  5
20D
330
1F
100
AcDbEntity
  8
C-A
  6
Continuous
 62
     3
370
     9
100
AcDbLine
 10
-469.1206138713935
 20
863.6752484295821
 30
0.0
 11
-460.1209190471748
 21
863.6752484295821
 31
0.0
  0
LINE
  5
20E
330
1F
100
AcDbEntity
  8
C-A
  6
Continuous
 62
     3
370
     9
100
AcDbLine
 10
-469.1206138713935
 20
860.1397259686445
 30
0.0
 11
-460.1209190471748
 21
860.1397259686445
 31
0.0
  0
LINE
  5
20F
330
1F
100
AcDbEntity
  8
C-A
  6
Continuous
 62
     3
370
     9
100
AcDbLine
 10
-484.1206138713935
 20
867.2108319256758
 30
0.0
 11
-475.1209190471748
 21
867.2108319256758
 31
0.0
  0
LINE
  5
210
330
1F
100
AcDbEntity
  8
C-A
  6
Continuous
 62
     3
370
     9
100
AcDbLine
 10
-484.1206138713935
 20
863.6752484295821
 30
0.0
 11
-475.1209190471748
 21
863.6752484295821
 31
0.0
  0
LINE
  5
211
330
1F
100
AcDbEntity
  8
C-A
  6
Continuous
 62
     3
370
     9
100
AcDbLine
 10
-484.1206138713935
 20
860.1397259686445
 30
0.0
 11
-475.1209190471748
 21
860.1397259686445
 31
0.0
  0
LINE
  5
212
330
1F
100
AcDbEntity
  8
C-A
  6
Continuous
 62
     3
370
     9
100
AcDbLine
 10
-499.120606241999
 20
867.2108319256758
 30
0.0
 11
-490.1209114177802
 21
867.2108319256758
 31
0.0
  0
LINE
  5
213
330
1F
100
AcDbEntity
  8
C-A
  6
Continuous
 62
     3
370
     9
100
AcDbLine
 10
-499.120606241999
 20
863.6752484295821
 30
0.0
 11
-490.1209114177802
 21
863.6752484295821
 31
0.0
  0
LINE
  5
214
330
1F
100
AcDbEntity
  8
C-A
  6
Continuous
 62
     3
370
     9
100
AcDbLine
 10
-499.120606241999
 20
860.1397259686445
 30
0.0
 11
-490.1209114177802
 21
860.1397259686445
 31
0.0
  0
LINE
  5
215
330
1F
100
AcDbEntity
  8
C-A
  6
Continuous
 62
     3
370
     9
100
AcDbLine
 10
-514.120606241999
 20
867.2108319256758
 30
0.0
 11
-505.1209114177802
 21
867.2108319256758
 31
0.0
  0
LINE
  5
216
330
1F
100
AcDbEntity
  8
C-A
  6
Continuous
 62
     3
370
     9
100
AcDbLine
 10
-514.120606241999
 20
863.6752484295821
 30
0.0
 11
-505.1209114177802
 21
863.6752484295821
 31
0.0
  0
LINE
  5
217
330
1F
100
AcDbEntity
  8
C-A
  6
Continuous
 62
     3
370
     9
100
AcDbLine
 10
-514.120606241999
 20
860.1397259686445
 30
0.0
 11
-505.1209114177802
 21
860.1397259686445
 31
0.0
  0
LINE
  5
218
330
1F
100
AcDbEntity
  8
C-A
  6
Continuous
 62
     3
370
     9
100
AcDbLine
 10
-529.120606241999
 20
867.2108319256758
 30
0.0
 11
-520.1209114177802
 21
867.2108319256758
 31
0.0
  0
LINE
  5
219
330
1F
100
AcDbEntity
  8
C-A
  6
Continuous
 62
     3
370
     9
100
AcDbLine
 10
-529.120606241999
 20
863.6752484295821
 30
0.0
 11
-520.1209114177802
 21
863.6752484295821
 31
0.0
  0
LINE
  5
21A
330
1F
100
AcDbEntity
  8
C-A
  6
Continuous
 62
     3
370
     9
100
AcDbLine
 10
-529.120606241999
 20
860.1397259686445
 30
0.0
 11
-520.1209114177802
 21
860.1397259686445
 31
0.0
  0
LINE
  5
21B
330
1F
100
AcDbEntity
  8
C-A
  6
Continuous
 62
     3
370
     9
100
AcDbLine
 10
-544.120606241999
 20
867.2108319256758
 30
0.0
 11
-535.1209114177802
 21
867.2108319256758
 31
0.0
  0
LINE
  5
21C
330
1F
100
AcDbEntity
  8
C-A
  6
Continuous
 62
     3
370
     9
100
AcDbLine
 10
-544.120606241999
 20
863.6752484295821
 30
0.0
 11
-535.1209114177802
 21
863.6752484295821
 31
0.0
  0
LINE
  5
21D
330
1F
100
AcDbEntity
  8
C-A
  6
Continuous
 62
     3
370
     9
100
AcDbLine
 10
-544.120606241999
 20
860.1397259686445
 30
0.0
 11
-535.1209114177802
 21
860.1397259686445
 31
0.0
  0
LINE
  5
21E
330
1F
100
AcDbEntity
  8
C-A
  6
Continuous
 62
     3
370
     9
100
AcDbLine
 10
-559.120606241999
 20
867.2108319256758
 30
0.0
 11
-550.1209114177802
 21
867.2108319256758
 31
0.0
  0
LINE
  5
21F
330
1F
100
AcDbEntity
  8
C-A
  6
Continuous
 62
     3
370
     9
100
AcDbLine
 10
-559.120606241999
 20
863.6752484295821
 30
0.0
 11
-550.1209114177802
 21
863.6752484295821
 31
0.0
  0
LINE
  5
220
330
1F
100
AcDbEntity
  8
C-A
  6
Continuous
 62
     3
370
     9
100
AcDbLine
 10
-559.120606241999
 20
860.1397259686445
 30
0.0
 11
-550.1209114177802
 21
860.1397259686445
 31
0.0
  0
LINE
  5
221
330
1F
100
AcDbEntity
  8
C-A
  6
Continuous
 62
     3
370
     9
100
AcDbLine
 10
-214.1207664592841
 20
867.2108319256758
 30
0.0
 11
-205.1210716350653
 21
867.2108319256758
 31
0.0
  0
LINE
  5
222
330
1F
100
AcDbEntity
  8
C-A
  6
Continuous
 62
     3
370
     9
100
AcDbLine
 10
-214.1207664592841
 20
863.6752484295821
 30
0.0
 11
-205.1210716350653
 21
863.6752484295821
 31
0.0
  0
LINE
  5
223
330
1F
100
AcDbEntity
  8
C-A
  6
Continuous
 62
     3
370
     9
100
AcDbLine
 10
-214.1207664592841
 20
860.1397259686445
 30
0.0
 11
-205.1210716350653
 21
860.1397259686445
 31
0.0
  0
LINE
  5
224
330
1F
100
AcDbEntity
  8
C-A
  6
Continuous
 62
     3
370
     9
100
AcDbLine
 10
-229.1207054241278
 20
867.2108319256758
 30
0.0
 11
-220.1210105999091
 21
867.2108319256758
 31
0.0
  0
LINE
  5
225
330
1F
100
AcDbEntity
  8
C-A
  6
Continuous
 62
     3
370
     9
100
AcDbLine
 10
-229.1207054241278
 20
863.6752484295821
 30
0.0
 11
-220.1210105999091
 21
863.6752484295821
 31
0.0
  0
LINE
  5
226
330
1F
100
AcDbEntity
  8
C-A
  6
Continuous
 62
     3
370
     9
100
AcDbLine
 10
-229.1207054241278
 20
860.1397259686445
 30
0.0
 11
-220.1210105999091
 21
860.1397259686445
 31
0.0
  0
LINE
  5
227
330
1F
100
AcDbEntity
  8
C-A
  6
Continuous
 62
     3
370
     9
100
AcDbLine
 10
-244.1207054241278
 20
867.2108319256758
 30
0.0
 11
-235.1210105999091
 21
867.2108319256758
 31
0.0
  0
LINE
  5
228
330
1F
100
AcDbEntity
  8
C-A
  6
Continuous
 62
     3
370
     9
100
AcDbLine
 10
-244.1207054241278
 20
863.6752484295821
 30
0.0
 11
-235.1210105999091
 21
863.6752484295821
 31
0.0
  0
LINE
  5
229
330
1F
100
AcDbEntity
  8
C-A
  6
Continuous
 62
     3
370
     9
100
AcDbLine
 10
-244.1207054241278
 20
860.1397259686445
 30
0.0
 11
-235.1210105999091
 21
860.1397259686445
 31
0.0
  0
LINE
  5
22A
330
1F
100
AcDbEntity
  8
C-A
  6
Continuous
 62
     3
370
     9
100
AcDbLine
 10
-199.1207664592841
 20
867.2108319256758
 30
0.0
 11
-190.1210716350653
 21
867.2108319256758
 31
0.0
  0
LINE
  5
22B
330
1F
100
AcDbEntity
  8
C-A
  6
Continuous
 62
     3
370
     9
100
AcDbLine
 10
-199.1207664592841
 20
863.6752484295821
 30
0.0
 11
-190.1210716350653
 21
863.6752484295821
 31
0.0
  0
LINE
  5
22C
330
1F
100
AcDbEntity
  8
C-A
  6
Continuous
 62
     3
370
     9
100
AcDbLine
 10
-199.1207664592841
 20
860.1397259686445
 30
0.0
 11
-190.1210716350653
 21
860.1397259686445
 31
0.0
  0
LINE
  5
22D
330
1F
100
AcDbEntity
  8
C-A
  6
Continuous
 62
     3
370
     9
100
AcDbLine
 10
-184.1207664592841
 20
867.2108319256758
 30
0.0
 11
-175.1213768108466
 21
867.2108319256758
 31
0.0
  0
LINE
  5
22E
330
1F
100
AcDbEntity
  8
C-A
  6
Continuous
 62
     3
370
     9
100
AcDbLine
 10
-184.1207664592841
 20
863.6752484295821
 30
0.0
 11
-175.1213768108466
 21
863.6752484295821
 31
0.0
  0
LINE
  5
22F
330
1F
100
AcDbEntity
  8
C-A
  6
Continuous
 62
     3
370
     9
100
AcDbLine
 10
-184.1207664592841
 20
860.1397259686445
 30
0.0
 11
-175.1213768108466
 21
860.1397259686445
 31
0.0
  0
LINE
  5
230
330
1F
100
AcDbEntity
  8
C-A
  6
Continuous
 62
     3
370
     9
100
AcDbLine
 10
-169.1211326702216
 20
867.2108319256758
 30
0.0
 11
-160.1214378460028
 21
867.2108319256758
 31
0.0
  0
LINE
  5
231
330
1F
100
AcDbEntity
  8
C-A
  6
Continuous
 62
     3
370
     9
100
AcDbLine
 10
-169.1211326702216
 20
863.6752484295821
 30
0.0
 11
-160.1214378460028
 21
863.6752484295821
 31
0.0
  0
LINE
  5
232
330
1F
100
AcDbEntity
  8
C-A
  6
Continuous
 62
     3
370
     9
100
AcDbLine
 10
-169.1211326702216
 20
860.1397259686445
 30
0.0
 11
-160.1214378460028
 21
860.1397259686445
 31
0.0
  0
LINE
  5
233
330
1F
100
AcDbEntity
  8
C-A
  6
Continuous
 62
     3
370
     9
100
AcDbLine
 10
-154.1211326702216
 20
867.2108319256758
 30
0.0
 11
-145.1214378460028
 21
867.2108319256758
 31
0.0
  0
LINE
  5
234
330
1F
100
AcDbEntity
  8
C-A
  6
Continuous
 62
     3
370
     9
100
AcDbLine
 10
-154.1211326702216
 20
863.6752484295821
 30
0.0
 11
-145.1214378460028
 21
863.6752484295821
 31
0.0
  0
LINE
  5
235
330
1F
100
AcDbEntity
  8
C-A
  6
Continuous
 62
     3
370
     9
100
AcDbLine
 10
-154.1211326702216
 20
860.1397259686445
 30
0.0
 11
-145.1214378460028
 21
860.1397259686445
 31
0.0
  0
LINE
  5
236
330
1F
100
AcDbEntity
  8
C-A
  6
Continuous
 62
     3
370
     9
100
AcDbLine
 10
-565.1212318523505
 20
860.1397259686445
 30
0.0
 11
-573.1210678203681
 21
860.1397259686445
 31
0.0
  0
LINE
  5
237
330
1F
100
AcDbEntity
  8
C-A
  6
Continuous
 62
     3
370
     9
100
AcDbLine
 10
-565.1212318523505
 20
863.6752484295821
 30
0.0
 11
-573.1210678203681
 21
863.6752484295821
 31
0.0
  0
LINE
  5
238
330
1F
100
AcDbEntity
  8
C-A
  6
Continuous
 62
     3
370
     9
100
AcDbLine
 10
-565.1212318523505
 20
867.2108319256758
 30
0.0
 11
-573.1210678203681
 21
867.2108319256758
 31
0.0
  0
LINE
  5
239
330
1F
100
AcDbEntity
  8
C-A
  6
Continuous
 62
     3
370
     9
100
AcDbLine
 10
-139.1211326702216
 20
867.2108319256758
 30
0.0
 11
-130.1214378460028
 21
867.2108319256758
 31
0.0
  0
LINE
  5
23A
330
1F
100
AcDbEntity
  8
C-A
  6
Continuous
 62
     3
370
     9
100
AcDbLine
 10
-139.1211326702216
 20
863.6752484295821
 30
0.0
 11
-130.1214378460028
 21
863.6752484295821
 31
0.0
  0
LINE
  5
23B
330
1F
100
AcDbEntity
  8
C-A
  6
Continuous
 62
     3
370
     9
100
AcDbLine
 10
-139.1211326702216
 20
860.1397259686445
 30
0.0
 11
-130.1214378460028
 21
860.1397259686445
 31
0.0
  0
LINE
  5
23C
330
1F
100
AcDbEntity
  8
C-A
  6
Continuous
 62
     3
370
     9
100
AcDbLine
 10
-124.120980082331
 20
867.2108319256758
 30
0.0
 11
-115.1215904338935
 21
867.2108319256758
 31
0.0
  0
LINE
  5
23D
330
1F
100
AcDbEntity
  8
C-A
  6
Continuous
 62
     3
370
     9
100
AcDbLine
 10
-124.120980082331
 20
863.6752484295821
 30
0.0
 11
-115.1215904338935
 21
863.6752484295821
 31
0.0
  0
LINE
  5
23E
330
1F
100
AcDbEntity
  8
C-A
  6
Continuous
 62
     3
370
     9
100
AcDbLine
 10
-124.120980082331
 20
860.1397259686445
 30
0.0
 11
-115.1215904338935
 21
860.1397259686445
 31
0.0
  0
LINE
  5
23F
330
1F
100
AcDbEntity
  8
C-A
  6
Continuous
 62
     3
370
     9
100
AcDbLine
 10
-109.1213462932685
 20
867.2108319256758
 30
0.0
 11
-100.1216819866278
 21
867.2108319256758
 31
0.0
  0
LINE
  5
240
330
1F
100
AcDbEntity
  8
C-A
  6
Continuous
 62
     3
370
     9
100
AcDbLine
 10
-109.1213462932685
 20
863.6752484295821
 30
0.0
 11
-100.1216819866278
 21
863.6752484295821
 31
0.0
  0
LINE
  5
241
330
1F
100
AcDbEntity
  8
C-A
  6
Continuous
 62
     3
370
     9
100
AcDbLine
 10
-109.1213462932685
 20
860.1397259686445
 30
0.0
 11
-100.1216819866278
 21
860.1397259686445
 31
0.0
  0
LINE
  5
242
330
1F
100
AcDbEntity
  8
C-A
  6
Continuous
 62
     3
370
     9
100
AcDbLine
 10
-94.12137681084658
 20
867.2108319256758
 30
0.0
 11
-85.12168198662785
 21
867.2108319256758
 31
0.0
  0
LINE
  5
243
330
1F
100
AcDbEntity
  8
C-A
  6
Continuous
 62
     3
370
     9
100
AcDbLine
 10
-94.12137681084658
 20
863.6752484295821
 30
0.0
 11
-85.12168198662785
 21
863.6752484295821
 31
0.0
  0
LINE
  5
244
330
1F
100
AcDbEntity
  8
C-A
  6
Continuous
 62
     3
370
     9
100
AcDbLine
 10
-94.12137681084658
 20
860.1397259686445
 30
0.0
 11
-85.12168198662785
 21
860.1397259686445
 31
0.0
  0
LINE
  5
245
330
1F
100
AcDbEntity
  8
C-A
  6
Continuous
 62
     3
370
     9
100
AcDbLine
 10
-259.1207054241278
 20
667.2108014080976
 30
0.0
 11
-250.1210105999091
 21
667.2108014080976
 31
0.0
  0
LINE
  5
246
330
1F
100
AcDbEntity
  8
C-A
  6
Continuous
 62
     3
370
     9
100
AcDbLine
 10
-259.1207054241278
 20
663.67527894716
 30
0.0
 11
-250.1210105999091
 21
663.67527894716
 31
0.0
  0
LINE
  5
247
330
1F
100
AcDbEntity
  8
C-A
  6
Continuous
 62
     3
370
     9
100
AcDbLine
 10
-259.1207054241278
 20
660.1397259686445
 30
0.0
 11
-250.1210105999091
 21
660.1397259686445
 31
0.0
  0
LINE
  5
248
330
1F
100
AcDbEntity
  8
C-A
  6
Continuous
 62
     3
370
     9
100
AcDbLine
 10
-274.1206443889716
 20
667.2108014080976
 30
0.0
 11
-265.1209495647529
 21
667.2108014080976
 31
0.0
  0
LINE
  5
249
330
1F
100
AcDbEntity
  8
C-A
  6
Continuous
 62
     3
370
     9
100
AcDbLine
 10
-274.1206443889716
 20
663.67527894716
 30
0.0
 11
-265.1209495647529
 21
663.67527894716
 31
0.0
  0
LINE
  5
24A
330
1F
100
AcDbEntity
  8
C-A
  6
Continuous
 62
     3
370
     9
100
AcDbLine
 10
-274.1206443889716
 20
660.1397259686445
 30
0.0
 11
-265.1209495647529
 21
660.1397259686445
 31
0.0
  0
LINE
  5
24B
330
1F
100
AcDbEntity
  8
C-A
  6
Continuous
 62
     3
370
     9
100
AcDbLine
 10
-289.1206443889716
 20
667.2108014080976
 30
0.0
 11
-280.1209495647529
 21
667.2108014080976
 31
0.0
  0
LINE
  5
24C
330
1F
100
AcDbEntity
  8
C-A
  6
Continuous
 62
     3
370
     9
100
AcDbLine
 10
-289.1206443889716
 20
663.67527894716
 30
0.0
 11
-280.1209495647529
 21
663.67527894716
 31
0.0
  0
LINE
  5
24D
330
1F
100
AcDbEntity
  8
C-A
  6
Continuous
 62
     3
370
     9
100
AcDbLine
 10
-289.1206443889716
 20
660.1397259686445
 30
0.0
 11
-280.1209495647529
 21
660.1397259686445
 31
0.0
  0
LINE
  5
24E
330
1F
100
AcDbEntity
  8
C-A
  6
Continuous
 62
     3
370
     9
100
AcDbLine
 10
-304.1206443889716
 20
667.2108014080976
 30
0.0
 11
-295.1209495647529
 21
667.2108014080976
 31
0.0
  0
LINE
  5
24F
330
1F
100
AcDbEntity
  8
C-A
  6
Continuous
 62
     3
370
     9
100
AcDbLine
 10
-304.1206443889716
 20
663.67527894716
 30
0.0
 11
-295.1209495647529
 21
663.67527894716
 31
0.0
  0
LINE
  5
250
330
1F
100
AcDbEntity
  8
C-A
  6
Continuous
 62
     3
370
     9
100
AcDbLine
 10
-304.1206443889716
 20
660.1397259686445
 30
0.0
 11
-295.1209495647529
 21
660.1397259686445
 31
0.0
  0
LINE
  5
251
330
1F
100
AcDbEntity
  8
C-A
  6
Continuous
 62
     3
370
     9
100
AcDbLine
 10
-319.1206138713935
 20
667.2108014080976
 30
0.0
 11
-310.1209190471748
 21
667.2108014080976
 31
0.0
  0
LINE
  5
252
330
1F
100
AcDbEntity
  8
C-A
  6
Continuous
 62
     3
370
     9
100
AcDbLine
 10
-319.1206138713935
 20
663.67527894716
 30
0.0
 11
-310.1209190471748
 21
663.67527894716
 31
0.0
  0
LINE
  5
253
330
1F
100
AcDbEntity
  8
C-A
  6
Continuous
 62
     3
370
     9
100
AcDbLine
 10
-319.1206138713935
 20
660.1397259686445
 30
0.0
 11
-310.1209190471748
 21
660.1397259686445
 31
0.0
  0
LINE
  5
254
330
1F
100
AcDbEntity
  8
C-A
  6
Continuous
 62
     3
370
     9
100
AcDbLine
 10
-334.1206138713935
 20
667.2108014080976
 30
0.0
 11
-325.1209190471748
 21
667.2108014080976
 31
0.0
  0
LINE
  5
255
330
1F
100
AcDbEntity
  8
C-A
  6
Continuous
 62
     3
370
     9
100
AcDbLine
 10
-334.1206138713935
 20
663.67527894716
 30
0.0
 11
-325.1209190471748
 21
663.67527894716
 31
0.0
  0
LINE
  5
256
330
1F
100
AcDbEntity
  8
C-A
  6
Continuous
 62
     3
370
     9
100
AcDbLine
 10
-334.1206138713935
 20
660.1397259686445
 30
0.0
 11
-325.1209190471748
 21
660.1397259686445
 31
0.0
  0
LINE
  5
257
330
1F
100
AcDbEntity
  8
C-A
  6
Continuous
 62
     3
370
     9
100
AcDbLine
 10
-349.1206138713935
 20
667.2108014080976
 30
0.0
 11
-340.1209190471748
 21
667.2108014080976
 31
0.0
  0
LINE
  5
258
330
1F
100
AcDbEntity
  8
C-A
  6
Continuous
 62
     3
370
     9
100
AcDbLine
 10
-349.1206138713935
 20
663.67527894716
 30
0.0
 11
-340.1209190471748
 21
663.67527894716
 31
0.0
  0
LINE
  5
259
330
1F
100
AcDbEntity
  8
C-A
  6
Continuous
 62
     3
370
     9
100
AcDbLine
 10
-349.1206138713935
 20
660.1397259686445
 30
0.0
 11
-340.1209190471748
 21
660.1397259686445
 31
0.0
  0
LINE
  5
25A
330
1F
100
AcDbEntity
  8
C-A
  6
Continuous
 62
     3
370
     9
100
AcDbLine
 10
-364.1206138713935
 20
667.2108014080976
 30
0.0
 11
-355.1209190471748
 21
667.2108014080976
 31
0.0
  0
LINE
  5
25B
330
1F
100
AcDbEntity
  8
C-A
  6
Continuous
 62
     3
370
     9
100
AcDbLine
 10
-364.1206138713935
 20
663.67527894716
 30
0.0
 11
-355.1209190471748
 21
663.67527894716
 31
0.0
  0
LINE
  5
25C
330
1F
100
AcDbEntity
  8
C-A
  6
Continuous
 62
     3
370
     9
100
AcDbLine
 10
-364.1206138713935
 20
660.1397259686445
 30
0.0
 11
-355.1209190471748
 21
660.1397259686445
 31
0.0
  0
LINE
  5
25D
330
1F
100
AcDbEntity
  8
C-A
  6
Continuous
 62
     3
370
     9
100
AcDbLine
 10
-379.1206138713935
 20
667.2108014080976
 30
0.0
 11
-370.1209190471748
 21
667.2108014080976
 31
0.0
  0
LINE
  5
25E
330
1F
100
AcDbEntity
  8
C-A
  6
Continuous
 62
     3
370
     9
100
AcDbLine
 10
-379.1206138713935
 20
663.67527894716
 30
0.0
 11
-370.1209190471748
 21
663.67527894716
 31
0.0
  0
LINE
  5
25F
330
1F
100
AcDbEntity
  8
C-A
  6
Continuous
 62
     3
370
     9
100
AcDbLine
 10
-379.1206138713935
 20
660.1397259686445
 30
0.0
 11
-370.1209190471748
 21
660.1397259686445
 31
0.0
  0
LINE
  5
260
330
1F
100
AcDbEntity
  8
C-A
  6
Continuous
 62
     3
370
     9
100
AcDbLine
 10
-394.1206138713935
 20
667.2108014080976
 30
0.0
 11
-385.1209190471748
 21
667.2108014080976
 31
0.0
  0
LINE
  5
261
330
1F
100
AcDbEntity
  8
C-A
  6
Continuous
 62
     3
370
     9
100
AcDbLine
 10
-394.1206138713935
 20
663.67527894716
 30
0.0
 11
-385.1209190471748
 21
663.67527894716
 31
0.0
  0
LINE
  5
262
330
1F
100
AcDbEntity
  8
C-A
  6
Continuous
 62
     3
370
     9
100
AcDbLine
 10
-394.1206138713935
 20
660.1397259686445
 30
0.0
 11
-385.1209190471748
 21
660.1397259686445
 31
0.0
  0
LINE
  5
263
330
1F
100
AcDbEntity
  8
C-A
  6
Continuous
 62
     3
370
     9
100
AcDbLine
 10
-409.1206138713935
 20
667.2108014080976
 30
0.0
 11
-400.1209190471748
 21
667.2108014080976
 31
0.0
  0
LINE
  5
264
330
1F
100
AcDbEntity
  8
C-A
  6
Continuous
 62
     3
370
     9
100
AcDbLine
 10
-409.1206138713935
 20
663.67527894716
 30
0.0
 11
-400.1209190471748
 21
663.67527894716
 31
0.0
  0
LINE
  5
265
330
1F
100
AcDbEntity
  8
C-A
  6
Continuous
 62
     3
370
     9
100
AcDbLine
 10
-409.1206138713935
 20
660.1397259686445
 30
0.0
 11
-400.1209190471748
 21
660.1397259686445
 31
0.0
  0
LINE
  5
266
330
1F
100
AcDbEntity
  8
C-A
  6
Continuous
 62
     3
370
     9
100
AcDbLine
 10
-424.1206138713935
 20
667.2108014080976
 30
0.0
 11
-415.1209190471748
 21
667.2108014080976
 31
0.0
  0
LINE
  5
267
330
1F
100
AcDbEntity
  8
C-A
  6
Continuous
 62
     3
370
     9
100
AcDbLine
 10
-424.1206138713935
 20
663.67527894716
 30
0.0
 11
-415.1209190471748
 21
663.67527894716
 31
0.0
  0
LINE
  5
268
330
1F
100
AcDbEntity
  8
C-A
  6
Continuous
 62
     3
370
     9
100
AcDbLine
 10
-424.1206138713935
 20
660.1397259686445
 30
0.0
 11
-415.1209190471748
 21
660.1397259686445
 31
0.0
  0
LINE
  5
269
330
1F
100
AcDbEntity
  8
C-A
  6
Continuous
 62
     3
370
     9
100
AcDbLine
 10
-439.1206138713935
 20
667.2108014080976
 30
0.0
 11
-430.1209190471748
 21
667.2108014080976
 31
0.0
  0
LINE
  5
26A
330
1F
100
AcDbEntity
  8
C-A
  6
Continuous
 62
     3
370
     9
100
AcDbLine
 10
-439.1206138713935
 20
663.67527894716
 30
0.0
 11
-430.1209190471748
 21
663.67527894716
 31
0.0
  0
LINE
  5
26B
330
1F
100
AcDbEntity
  8
C-A
  6
Continuous
 62
     3
370
     9
100
AcDbLine
 10
-439.1206138713935
 20
660.1397259686445
 30
0.0
 11
-430.1209190471748
 21
660.1397259686445
 31
0.0
  0
LINE
  5
26C
330
1F
100
AcDbEntity
  8
C-A
  6
Continuous
 62
     3
370
     9
100
AcDbLine
 10
-454.1206138713935
 20
667.2108014080976
 30
0.0
 11
-445.1209190471748
 21
667.2108014080976
 31
0.0
  0
LINE
  5
26D
330
1F
100
AcDbEntity
  8
C-A
  6
Continuous
 62
     3
370
     9
100
AcDbLine
 10
-454.1206138713935
 20
663.67527894716
 30
0.0
 11
-445.1209190471748
 21
663.67527894716
 31
0.0
  0
LINE
  5
26E
330
1F
100
AcDbEntity
  8
C-A
  6
Continuous
 62
     3
370
     9
100
AcDbLine
 10
-454.1206138713935
 20
660.1397259686445
 30
0.0
 11
-445.1209190471748
 21
660.1397259686445
 31
0.0
  0
LINE
  5
26F
330
1F
100
AcDbEntity
  8
C-A
  6
Continuous
 62
     3
370
     9
100
AcDbLine
 10
-469.1206138713935
 20
667.2108014080976
 30
0.0
 11
-460.1209190471748
 21
667.2108014080976
 31
0.0
  0
LINE
  5
270
330
1F
100
AcDbEntity
  8
C-A
  6
Continuous
 62
     3
370
     9
100
AcDbLine
 10
-469.1206138713935
 20
663.67527894716
 30
0.0
 11
-460.1209190471748
 21
663.67527894716
 31
0.0
  0
LINE
  5
271
330
1F
100
AcDbEntity
  8
C-A
  6
Continuous
 62
     3
370
     9
100
AcDbLine
 10
-469.1206138713935
 20
660.1397259686445
 30
0.0
 11
-460.1209190471748
 21
660.1397259686445
 31
0.0
  0
LINE
  5
272
330
1F
100
AcDbEntity
  8
C-A
  6
Continuous
 62
     3
370
     9
100
AcDbLine
 10
-484.1206138713935
 20
667.2108014080976
 30
0.0
 11
-475.1209190471748
 21
667.2108014080976
 31
0.0
  0
LINE
  5
273
330
1F
100
AcDbEntity
  8
C-A
  6
Continuous
 62
     3
370
     9
100
AcDbLine
 10
-484.1206138713935
 20
663.67527894716
 30
0.0
 11
-475.1209190471748
 21
663.67527894716
 31
0.0
  0
LINE
  5
274
330
1F
100
AcDbEntity
  8
C-A
  6
Continuous
 62
     3
370
     9
100
AcDbLine
 10
-484.1206138713935
 20
660.1397259686445
 30
0.0
 11
-475.1209190471748
 21
660.1397259686445
 31
0.0
  0
LINE
  5
275
330
1F
100
AcDbEntity
  8
C-A
  6
Continuous
 62
     3
370
     9
100
AcDbLine
 10
-499.120606241999
 20
667.2108014080976
 30
0.0
 11
-490.1209114177802
 21
667.2108014080976
 31
0.0
  0
LINE
  5
276
330
1F
100
AcDbEntity
  8
C-A
  6
Continuous
 62
     3
370
     9
100
AcDbLine
 10
-499.120606241999
 20
663.67527894716
 30
0.0
 11
-490.1209114177802
 21
663.67527894716
 31
0.0
  0
LINE
  5
277
330
1F
100
AcDbEntity
  8
C-A
  6
Continuous
 62
     3
370
     9
100
AcDbLine
 10
-499.120606241999
 20
660.1397259686445
 30
0.0
 11
-490.1209114177802
 21
660.1397259686445
 31
0.0
  0
LINE
  5
278
330
1F
100
AcDbEntity
  8
C-A
  6
Continuous
 62
     3
370
     9
100
AcDbLine
 10
-514.120606241999
 20
667.2108014080976
 30
0.0
 11
-505.1209114177802
 21
667.2108014080976
 31
0.0
  0
LINE
  5
279
330
1F
100
AcDbEntity
  8
C-A
  6
Continuous
 62
     3
370
     9
100
AcDbLine
 10
-514.120606241999
 20
663.67527894716
 30
0.0
 11
-505.1209114177802
 21
663.67527894716
 31
0.0
  0
LINE
  5
27A
330
1F
100
AcDbEntity
  8
C-A
  6
Continuous
 62
     3
370
     9
100
AcDbLine
 10
-514.120606241999
 20
660.1397259686445
 30
0.0
 11
-505.1209114177802
 21
660.1397259686445
 31
0.0
  0
LINE
  5
27B
330
1F
100
AcDbEntity
  8
C-A
  6
Continuous
 62
     3
370
     9
100
AcDbLine
 10
-529.120606241999
 20
667.2108014080976
 30
0.0
 11
-520.1209114177802
 21
667.2108014080976
 31
0.0
  0
LINE
  5
27C
330
1F
100
AcDbEntity
  8
C-A
  6
Continuous
 62
     3
370
     9
100
AcDbLine
 10
-529.120606241999
 20
663.67527894716
 30
0.0
 11
-520.1209114177802
 21
663.67527894716
 31
0.0
  0
LINE
  5
27D
330
1F
100
AcDbEntity
  8
C-A
  6
Continuous
 62
     3
370
     9
100
AcDbLine
 10
-529.120606241999
 20
660.1397259686445
 30
0.0
 11
-520.1209114177802
 21
660.1397259686445
 31
0.0
  0
LINE
  5
27E
330
1F
100
AcDbEntity
  8
C-A
  6
Continuous
 62
     3
370
     9
100
AcDbLine
 10
-544.120606241999
 20
667.2108014080976
 30
0.0
 11
-535.1209114177802
 21
667.2108014080976
 31
0.0
  0
LINE
  5
27F
330
1F
100
AcDbEntity
  8
C-A
  6
Continuous
 62
     3
370
     9
100
AcDbLine
 10
-544.120606241999
 20
663.67527894716
 30
0.0
 11
-535.1209114177802
 21
663.67527894716
 31
0.0
  0
LINE
  5
280
330
1F
100
AcDbEntity
  8
C-A
  6
Continuous
 62
     3
370
     9
100
AcDbLine
 10
-544.120606241999
 20
660.1397259686445
 30
0.0
 11
-535.1209114177802
 21
660.1397259686445
 31
0.0
  0
LINE
  5
281
330
1F
100
AcDbEntity
  8
C-A
  6
Continuous
 62
     3
370
     9
100
AcDbLine
 10
-559.120606241999
 20
667.2108014080976
 30
0.0
 11
-550.1209114177802
 21
667.2108014080976
 31
0.0
  0
LINE
  5
282
330
1F
100
AcDbEntity
  8
C-A
  6
Continuous
 62
     3
370
     9
100
AcDbLine
 10
-559.120606241999
 20
663.67527894716
 30
0.0
 11
-550.1209114177802
 21
663.67527894716
 31
0.0
  0
LINE
  5
283
330
1F
100
AcDbEntity
  8
C-A
  6
Continuous
 62
     3
370
     9
100
AcDbLine
 10
-559.120606241999
 20
660.1397259686445
 30
0.0
 11
-550.1209114177802
 21
660.1397259686445
 31
0.0
  0
LINE
  5
284
330
1F
100
AcDbEntity
  8
C-A
  6
Continuous
 62
     3
370
     9
100
AcDbLine
 10
-214.1207664592841
 20
667.2108014080976
 30
0.0
 11
-205.1210716350653
 21
667.2108014080976
 31
0.0
  0
LINE
  5
285
330
1F
100
AcDbEntity
  8
C-A
  6
Continuous
 62
     3
370
     9
100
AcDbLine
 10
-214.1207664592841
 20
663.67527894716
 30
0.0
 11
-205.1210716350653
 21
663.67527894716
 31
0.0
  0
LINE
  5
286
330
1F
100
AcDbEntity
  8
C-A
  6
Continuous
 62
     3
370
     9
100
AcDbLine
 10
-214.1207664592841
 20
660.1397259686445
 30
0.0
 11
-205.1210716350653
 21
660.1397259686445
 31
0.0
  0
LINE
  5
287
330
1F
100
AcDbEntity
  8
C-A
  6
Continuous
 62
     3
370
     9
100
AcDbLine
 10
-229.1207054241278
 20
667.2108014080976
 30
0.0
 11
-220.1210105999091
 21
667.2108014080976
 31
0.0
  0
LINE
  5
288
330
1F
100
AcDbEntity
  8
C-A
  6
Continuous
 62
     3
370
     9
100
AcDbLine
 10
-229.1207054241278
 20
663.67527894716
 30
0.0
 11
-220.1210105999091
 21
663.67527894716
 31
0.0
  0
LINE
  5
289
330
1F
100
AcDbEntity
  8
C-A
  6
Continuous
 62
     3
370
     9
100
AcDbLine
 10
-229.1207054241278
 20
660.1397259686445
 30
0.0
 11
-220.1210105999091
 21
660.1397259686445
 31
0.0
  0
LINE
  5
28A
330
1F
100
AcDbEntity
  8
C-A
  6
Continuous
 62
     3
370
     9
100
AcDbLine
 10
-244.1207054241278
 20
667.2108014080976
 30
0.0
 11
-235.1210105999091
 21
667.2108014080976
 31
0.0
  0
LINE
  5
28B
330
1F
100
AcDbEntity
  8
C-A
  6
Continuous
 62
     3
370
     9
100
AcDbLine
 10
-244.1207054241278
 20
663.67527894716
 30
0.0
 11
-235.1210105999091
 21
663.67527894716
 31
0.0
  0
LINE
  5
28C
330
1F
100
AcDbEntity
  8
C-A
  6
Continuous
 62
     3
370
     9
100
AcDbLine
 10
-244.1207054241278
 20
660.1397259686445
 30
0.0
 11
-235.1210105999091
 21
660.1397259686445
 31
0.0
  0
LINE
  5
28D
330
1F
100
AcDbEntity
  8
C-A
  6
Continuous
 62
     3
370
     9
100
AcDbLine
 10
-199.1207664592841
 20
667.2108014080976
 30
0.0
 11
-190.1210716350653
 21
667.2108014080976
 31
0.0
  0
LINE
  5
28E
330
1F
100
AcDbEntity
  8
C-A
  6
Continuous
 62
     3
370
     9
100
AcDbLine
 10
-199.1207664592841
 20
663.67527894716
 30
0.0
 11
-190.1210716350653
 21
663.67527894716
 31
0.0
  0
LINE
  5
28F
330
1F
100
AcDbEntity
  8
C-A
  6
Continuous
 62
     3
370
     9
100
AcDbLine
 10
-199.1207664592841
 20
660.1397259686445
 30
0.0
 11
-190.1210716350653
 21
660.1397259686445
 31
0.0
  0
LINE
  5
290
330
1F
100
AcDbEntity
  8
C-A
  6
Continuous
 62
     3
370
     9
100
AcDbLine
 10
-184.1207664592841
 20
667.2108014080976
 30
0.0
 11
-175.1213768108466
 21
667.2108014080976
 31
0.0
  0
LINE
  5
291
330
1F
100
AcDbEntity
  8
C-A
  6
Continuous
 62
     3
370
     9
100
AcDbLine
 10
-184.1207664592841
 20
663.67527894716
 30
0.0
 11
-175.1213768108466
 21
663.67527894716
 31
0.0
  0
LINE
  5
292
330
1F
100
AcDbEntity
  8
C-A
  6
Continuous
 62
     3
370
     9
100
AcDbLine
 10
-184.1207664592841
 20
660.1397259686445
 30
0.0
 11
-175.1213768108466
 21
660.1397259686445
 31
0.0
  0
LINE
  5
293
330
1F
100
AcDbEntity
  8
C-A
  6
Continuous
 62
     3
370
     9
100
AcDbLine
 10
-169.1211326702216
 20
667.2108014080976
 30
0.0
 11
-160.1214378460028
 21
667.2108014080976
 31
0.0
  0
LINE
  5
294
330
1F
100
AcDbEntity
  8
C-A
  6
Continuous
 62
     3
370
     9
100
AcDbLine
 10
-169.1211326702216
 20
663.67527894716
 30
0.0
 11
-160.1214378460028
 21
663.67527894716
 31
0.0
  0
LINE
  5
295
330
1F
100
AcDbEntity
  8
C-A
  6
Continuous
 62
     3
370
     9
100
AcDbLine
 10
-169.1211326702216
 20
660.1397259686445
 30
0.0
 11
-160.1214378460028
 21
660.1397259686445
 31
0.0
  0
LINE
  5
296
330
1F
100
AcDbEntity
  8
C-A
  6
Continuous
 62
     3
370
     9
100
AcDbLine
 10
-154.1211326702216
 20
667.2108014080976
 30
0.0
 11
-145.1214378460028
 21
667.2108014080976
 31
0.0
  0
LINE
  5
297
330
1F
100
AcDbEntity
  8
C-A
  6
Continuous
 62
     3
370
     9
100
AcDbLine
 10
-154.1211326702216
 20
663.67527894716
 30
0.0
 11
-145.1214378460028
 21
663.67527894716
 31
0.0
  0
LINE
  5
298
330
1F
100
AcDbEntity
  8
C-A
  6
Continuous
 62
     3
370
     9
100
AcDbLine
 10
-154.1211326702216
 20
660.1397259686445
 30
0.0
 11
-145.1214378460028
 21
660.1397259686445
 31
0.0
  0
LINE
  5
299
330
1F
100
AcDbEntity
  8
C-A
  6
Continuous
 62
     3
370
     9
100
AcDbLine
 10
-565.1212318523505
 20
660.1397259686445
 30
0.0
 11
-573.1210678203681
 21
660.1397259686445
 31
0.0
  0
LINE
  5
29A
330
1F
100
AcDbEntity
  8
C-A
  6
Continuous
 62
     3
370
     9
100
AcDbLine
 10
-565.1212318523505
 20
663.67527894716
 30
0.0
 11
-573.1210678203681
 21
663.67527894716
 31
0.0
  0
LINE
  5
29B
330
1F
100
AcDbEntity
  8
C-A
  6
Continuous
 62
     3
370
     9
100
AcDbLine
 10
-565.1212318523505
 20
667.2108014080976
 30
0.0
 11
-573.1210678203681
 21
667.2108014080976
 31
0.0
  0
LINE
  5
29C
330
1F
100
AcDbEntity
  8
C-A
  6
Continuous
 62
     3
370
     9
100
AcDbLine
 10
-139.1211326702216
 20
667.2108014080976
 30
0.0
 11
-130.1214378460028
 21
667.2108014080976
 31
0.0
  0
LINE
  5
29D
330
1F
100
AcDbEntity
  8
C-A
  6
Continuous
 62
     3
370
     9
100
AcDbLine
 10
-139.1211326702216
 20
663.67527894716
 30
0.0
 11
-130.1214378460028
 21
663.67527894716
 31
0.0
  0
LINE
  5
29E
330
1F
100
AcDbEntity
  8
C-A
  6
Continuous
 62
     3
370
     9
100
AcDbLine
 10
-259.1207054241278
 20
567.2108014080976
 30
0.0
 11
-250.1210105999091
 21
567.2108014080976
 31
0.0
  0
LINE
  5
29F
330
1F
100
AcDbEntity
  8
C-A
  6
Continuous
 62
     3
370
     9
100
AcDbLine
 10
-259.1207054241278
 20
563.67527894716
 30
0.0
 11
-250.1210105999091
 21
563.67527894716
 31
0.0
  0
LINE
  5
2A0
330
1F
100
AcDbEntity
  8
C-A
  6
Continuous
 62
     3
370
     9
100
AcDbLine
 10
-259.1207054241278
 20
560.1397259686445
 30
0.0
 11
-250.1210105999091
 21
560.1397259686445
 31
0.0
  0
LINE
  5
2A1
330
1F
100
AcDbEntity
  8
C-A
  6
Continuous
 62
     3
370
     9
100
AcDbLine
 10
-274.1206443889716
 20
567.2108014080976
 30
0.0
 11
-265.1209495647529
 21
567.2108014080976
 31
0.0
  0
LINE
  5
2A2
330
1F
100
AcDbEntity
  8
C-A
  6
Continuous
 62
     3
370
     9
100
AcDbLine
 10
-274.1206443889716
 20
563.67527894716
 30
0.0
 11
-265.1209495647529
 21
563.67527894716
 31
0.0
  0
LINE
  5
2A3
330
1F
100
AcDbEntity
  8
C-A
  6
Continuous
 62
     3
370
     9
100
AcDbLine
 10
-274.1206443889716
 20
560.1397259686445
 30
0.0
 11
-265.1209495647529
 21
560.1397259686445
 31
0.0
  0
LINE
  5
2A4
330
1F
100
AcDbEntity
  8
C-A
  6
Continuous
 62
     3
370
     9
100
AcDbLine
 10
-289.1206443889716
 20
567.2108014080976
 30
0.0
 11
-280.1209495647529
 21
567.2108014080976
 31
0.0
  0
LINE
  5
2A5
330
1F
100
AcDbEntity
  8
C-A
  6
Continuous
 62
     3
370
     9
100
AcDbLine
 10
-289.1206443889716
 20
563.67527894716
 30
0.0
 11
-280.1209495647529
 21
563.67527894716
 31
0.0
  0
LINE
  5
2A6
330
1F
100
AcDbEntity
  8
C-A
  6
Continuous
 62
     3
370
     9
100
AcDbLine
 10
-289.1206443889716
 20
560.1397259686445
 30
0.0
 11
-280.1209495647529
 21
560.1397259686445
 31
0.0
  0
LINE
  5
2A7
330
1F
100
AcDbEntity
  8
C-A
  6
Continuous
 62
     3
370
     9
100
AcDbLine
 10
-304.1206443889716
 20
567.2108014080976
 30
0.0
 11
-295.1209495647529
 21
567.2108014080976
 31
0.0
  0
LINE
  5
2A8
330
1F
100
AcDbEntity
  8
C-A
  6
Continuous
 62
     3
370
     9
100
AcDbLine
 10
-304.1206443889716
 20
563.67527894716
 30
0.0
 11
-295.1209495647529
 21
563.67527894716
 31
0.0
  0
LINE
  5
2A9
330
1F
100
AcDbEntity
  8
C-A
  6
Continuous
 62
     3
370
     9
100
AcDbLine
 10
-304.1206443889716
 20
560.1397259686445
 30
0.0
 11
-295.1209495647529
 21
560.1397259686445
 31
0.0
  0
LINE
  5
2AA
330
1F
100
AcDbEntity
  8
C-A
  6
Continuous
 62
     3
370
     9
100
AcDbLine
 10
-319.1206138713935
 20
567.2108014080976
 30
0.0
 11
-310.1209190471748
 21
567.2108014080976
 31
0.0
  0
LINE
  5
2AB
330
1F
100
AcDbEntity
  8
C-A
  6
Continuous
 62
     3
370
     9
100
AcDbLine
 10
-319.1206138713935
 20
563.67527894716
 30
0.0
 11
-310.1209190471748
 21
563.67527894716
 31
0.0
  0
LINE
  5
2AC
330
1F
100
AcDbEntity
  8
C-A
  6
Continuous
 62
     3
370
     9
100
AcDbLine
 10
-319.1206138713935
 20
560.1397259686445
 30
0.0
 11
-310.1209190471748
 21
560.1397259686445
 31
0.0
  0
LINE
  5
2AD
330
1F
100
AcDbEntity
  8
C-A
  6
Continuous
 62
     3
370
     9
100
AcDbLine
 10
-334.1206138713935
 20
567.2108014080976
 30
0.0
 11
-325.1209190471748
 21
567.2108014080976
 31
0.0
  0
LINE
  5
2AE
330
1F
100
AcDbEntity
  8
C-A
  6
Continuous
 62
     3
370
     9
100
AcDbLine
 10
-334.1206138713935
 20
563.67527894716
 30
0.0
 11
-325.1209190471748
 21
563.67527894716
 31
0.0
  0
LINE
  5
2AF
330
1F
100
AcDbEntity
  8
C-A
  6
Continuous
 62
     3
370
     9
100
AcDbLine
 10
-334.1206138713935
 20
560.1397259686445
 30
0.0
 11
-325.1209190471748
 21
560.1397259686445
 31
0.0
  0
LINE
  5
2B0
330
1F
100
AcDbEntity
  8
C-A
  6
Continuous
 62
     3
370
     9
100
AcDbLine
 10
-349.1206138713935
 20
567.2108014080976
 30
0.0
 11
-340.1209190471748
 21
567.2108014080976
 31
0.0
  0
LINE
  5
2B1
330
1F
100
AcDbEntity
  8
C-A
  6
Continuous
 62
     3
370
     9
100
AcDbLine
 10
-349.1206138713935
 20
563.67527894716
 30
0.0
 11
-340.1209190471748
 21
563.67527894716
 31
0.0
  0
LINE
  5
2B2
330
1F
100
AcDbEntity
  8
C-A
  6
Continuous
 62
     3
370
     9
100
AcDbLine
 10
-349.1206138713935
 20
560.1397259686445
 30
0.0
 11
-340.1209190471748
 21
560.1397259686445
 31
0.0
  0
LINE
  5
2B3
330
1F
100
AcDbEntity
  8
C-A
  6
Continuous
 62
     3
370
     9
100
AcDbLine
 10
-364.1206138713935
 20
567.2108014080976
 30
0.0
 11
-355.1209190471748
 21
567.2108014080976
 31
0.0
  0
LINE
  5
2B4
330
1F
100
AcDbEntity
  8
C-A
  6
Continuous
 62
     3
370
     9
100
AcDbLine
 10
-364.1206138713935
 20
563.67527894716
 30
0.0
 11
-355.1209190471748
 21
563.67527894716
 31
0.0
  0
LINE
  5
2B5
330
1F
100
AcDbEntity
  8
C-A
  6
Continuous
 62
     3
370
     9
100
AcDbLine
 10
-364.1206138713935
 20
560.1397259686445
 30
0.0
 11
-355.1209190471748
 21
560.1397259686445
 31
0.0
  0
LINE
  5
2B6
330
1F
100
AcDbEntity
  8
C-A
  6
Continuous
 62
     3
370
     9
100
AcDbLine
 10
-379.1206138713935
 20
567.2108014080976
 30
0.0
 11
-370.1209190471748
 21
567.2108014080976
 31
0.0
  0
LINE
  5
2B7
330
1F
100
AcDbEntity
  8
C-A
  6
Continuous
 62
     3
370
     9
100
AcDbLine
 10
-379.1206138713935
 20
563.67527894716
 30
0.0
 11
-370.1209190471748
 21
563.67527894716
 31
0.0
  0
LINE
  5
2B8
330
1F
100
AcDbEntity
  8
C-A
  6
Continuous
 62
     3
370
     9
100
AcDbLine
 10
-379.1206138713935
 20
560.1397259686445
 30
0.0
 11
-370.1209190471748
 21
560.1397259686445
 31
0.0
  0
LINE
  5
2B9
330
1F
100
AcDbEntity
  8
C-A
  6
Continuous
 62
     3
370
     9
100
AcDbLine
 10
-394.1206138713935
 20
567.2108014080976
 30
0.0
 11
-385.1209190471748
 21
567.2108014080976
 31
0.0
  0
LINE
  5
2BA
330
1F
100
AcDbEntity
  8
C-A
  6
Continuous
 62
     3
370
     9
100
AcDbLine
 10
-394.1206138713935
 20
563.67527894716
 30
0.0
 11
-385.1209190471748
 21
563.67527894716
 31
0.0
  0
LINE
  5
2BB
330
1F
100
AcDbEntity
  8
C-A
  6
Continuous
 62
     3
370
     9
100
AcDbLine
 10
-394.1206138713935
 20
560.1397259686445
 30
0.0
 11
-385.1209190471748
 21
560.1397259686445
 31
0.0
  0
LINE
  5
2BC
330
1F
100
AcDbEntity
  8
C-A
  6
Continuous
 62
     3
370
     9
100
AcDbLine
 10
-409.1206138713935
 20
567.2108014080976
 30
0.0
 11
-400.1209190471748
 21
567.2108014080976
 31
0.0
  0
LINE
  5
2BD
330
1F
100
AcDbEntity
  8
C-A
  6
Continuous
 62
     3
370
     9
100
AcDbLine
 10
-409.1206138713935
 20
563.67527894716
 30
0.0
 11
-400.1209190471748
 21
563.67527894716
 31
0.0
  0
LINE
  5
2BE
330
1F
100
AcDbEntity
  8
C-A
  6
Continuous
 62
     3
370
     9
100
AcDbLine
 10
-409.1206138713935
 20
560.1397259686445
 30
0.0
 11
-400.1209190471748
 21
560.1397259686445
 31
0.0
  0
LINE
  5
2BF
330
1F
100
AcDbEntity
  8
C-A
  6
Continuous
 62
     3
370
     9
100
AcDbLine
 10
-424.1206138713935
 20
567.2108014080976
 30
0.0
 11
-415.1209190471748
 21
567.2108014080976
 31
0.0
  0
LINE
  5
2C0
330
1F
100
AcDbEntity
  8
C-A
  6
Continuous
 62
     3
370
     9
100
AcDbLine
 10
-424.1206138713935
 20
563.67527894716
 30
0.0
 11
-415.1209190471748
 21
563.67527894716
 31
0.0
  0
LINE
  5
2C1
330
1F
100
AcDbEntity
  8
C-A
  6
Continuous
 62
     3
370
     9
100
AcDbLine
 10
-424.1206138713935
 20
560.1397259686445
 30
0.0
 11
-415.1209190471748
 21
560.1397259686445
 31
0.0
  0
LINE
  5
2C2
330
1F
100
AcDbEntity
  8
C-A
  6
Continuous
 62
     3
370
     9
100
AcDbLine
 10
-439.1206138713935
 20
567.2108014080976
 30
0.0
 11
-430.1209190471748
 21
567.2108014080976
 31
0.0
  0
LINE
  5
2C3
330
1F
100
AcDbEntity
  8
C-A
  6
Continuous
 62
     3
370
     9
100
AcDbLine
 10
-439.1206138713935
 20
563.67527894716
 30
0.0
 11
-430.1209190471748
 21
563.67527894716
 31
0.0
  0
LINE
  5
2C4
330
1F
100
AcDbEntity
  8
C-A
  6
Continuous
 62
     3
370
     9
100
AcDbLine
 10
-439.1206138713935
 20
560.1397259686445
 30
0.0
 11
-430.1209190471748
 21
560.1397259686445
 31
0.0
  0
LINE
  5
2C5
330
1F
100
AcDbEntity
  8
C-A
  6
Continuous
 62
     3
370
     9
100
AcDbLine
 10
-454.1206138713935
 20
567.2108014080976
 30
0.0
 11
-445.1209190471748
 21
567.2108014080976
 31
0.0
  0
LINE
  5
2C6
330
1F
100
AcDbEntity
  8
C-A
  6
Continuous
 62
     3
370
     9
100
AcDbLine
 10
-454.1206138713935
 20
563.67527894716
 30
0.0
 11
-445.1209190471748
 21
563.67527894716
 31
0.0
  0
LINE
  5
2C7
330
1F
100
AcDbEntity
  8
C-A
  6
Continuous
 62
     3
370
     9
100
AcDbLine
 10
-454.1206138713935
 20
560.1397259686445
 30
0.0
 11
-445.1209190471748
 21
560.1397259686445
 31
0.0
  0
LINE
  5
2C8
330
1F
100
AcDbEntity
  8
C-A
  6
Continuous
 62
     3
370
     9
100
AcDbLine
 10
-469.1206138713935
 20
567.2108014080976
 30
0.0
 11
-460.1209190471748
 21
567.2108014080976
 31
0.0
  0
LINE
  5
2C9
330
1F
100
AcDbEntity
  8
C-A
  6
Continuous
 62
     3
370
     9
100
AcDbLine
 10
-469.1206138713935
 20
563.67527894716
 30
0.0
 11
-460.1209190471748
 21
563.67527894716
 31
0.0
  0
LINE
  5
2CA
330
1F
100
AcDbEntity
  8
C-A
  6
Continuous
 62
     3
370
     9
100
AcDbLine
 10
-469.1206138713935
 20
560.1397259686445
 30
0.0
 11
-460.1209190471748
 21
560.1397259686445
 31
0.0
  0
LINE
  5
2CB
330
1F
100
AcDbEntity
  8
C-A
  6
Continuous
 62
     3
370
     9
100
AcDbLine
 10
-484.1206138713935
 20
567.2108014080976
 30
0.0
 11
-475.1209190471748
 21
567.2108014080976
 31
0.0
  0
LINE
  5
2CC
330
1F
100
AcDbEntity
  8
C-A
  6
Continuous
 62
     3
370
     9
100
AcDbLine
 10
-484.1206138713935
 20
563.67527894716
 30
0.0
 11
-475.1209190471748
 21
563.67527894716
 31
0.0
  0
LINE
  5
2CD
330
1F
100
AcDbEntity
  8
C-A
  6
Continuous
 62
     3
370
     9
100
AcDbLine
 10
-484.1206138713935
 20
560.1397259686445
 30
0.0
 11
-475.1209190471748
 21
560.1397259686445
 31
0.0
  0
LINE
  5
2CE
330
1F
100
AcDbEntity
  8
C-A
  6
Continuous
 62
     3
370
     9
100
AcDbLine
 10
-499.120606241999
 20
567.2108014080976
 30
0.0
 11
-490.1209114177802
 21
567.2108014080976
 31
0.0
  0
LINE
  5
2CF
330
1F
100
AcDbEntity
  8
C-A
  6
Continuous
 62
     3
370
     9
100
AcDbLine
 10
-499.120606241999
 20
563.67527894716
 30
0.0
 11
-490.1209114177802
 21
563.67527894716
 31
0.0
  0
LINE
  5
2D0
330
1F
100
AcDbEntity
  8
C-A
  6
Continuous
 62
     3
370
     9
100
AcDbLine
 10
-499.120606241999
 20
560.1397259686445
 30
0.0
 11
-490.1209114177802
 21
560.1397259686445
 31
0.0
  0
LINE
  5
2D1
330
1F
100
AcDbEntity
  8
C-A
  6
Continuous
 62
     3
370
     9
100
AcDbLine
 10
-514.120606241999
 20
567.2108014080976
 30
0.0
 11
-505.1209114177802
 21
567.2108014080976
 31
0.0
  0
LINE
  5
2D2
330
1F
100
AcDbEntity
  8
C-A
  6
Continuous
 62
     3
370
     9
100
AcDbLine
 10
-514.120606241999
 20
563.67527894716
 30
0.0
 11
-505.1209114177802
 21
563.67527894716
 31
0.0
  0
LINE
  5
2D3
330
1F
100
AcDbEntity
  8
C-A
  6
Continuous
 62
     3
370
     9
100
AcDbLine
 10
-514.120606241999
 20
560.1397259686445
 30
0.0
 11
-505.1209114177802
 21
560.1397259686445
 31
0.0
  0
LINE
  5
2D4
330
1F
100
AcDbEntity
  8
C-A
  6
Continuous
 62
     3
370
     9
100
AcDbLine
 10
-529.120606241999
 20
567.2108014080976
 30
0.0
 11
-520.1209114177802
 21
567.2108014080976
 31
0.0
  0
LINE
  5
2D5
330
1F
100
AcDbEntity
  8
C-A
  6
Continuous
 62
     3
370
     9
100
AcDbLine
 10
-529.120606241999
 20
563.67527894716
 30
0.0
 11
-520.1209114177802
 21
563.67527894716
 31
0.0
  0
LINE
  5
2D6
330
1F
100
AcDbEntity
  8
C-A
  6
Continuous
 62
     3
370
     9
100
AcDbLine
 10
-529.120606241999
 20
560.1397259686445
 30
0.0
 11
-520.1209114177802
 21
560.1397259686445
 31
0.0
  0
LINE
  5
2D7
330
1F
100
AcDbEntity
  8
C-A
  6
Continuous
 62
     3
370
     9
100
AcDbLine
 10
-544.120606241999
 20
567.2108014080976
 30
0.0
 11
-535.1209114177802
 21
567.2108014080976
 31
0.0
  0
LINE
  5
2D8
330
1F
100
AcDbEntity
  8
C-A
  6
Continuous
 62
     3
370
     9
100
AcDbLine
 10
-544.120606241999
 20
563.67527894716
 30
0.0
 11
-535.1209114177802
 21
563.67527894716
 31
0.0
  0
LINE
  5
2D9
330
1F
100
AcDbEntity
  8
C-A
  6
Continuous
 62
     3
370
     9
100
AcDbLine
 10
-544.120606241999
 20
560.1397259686445
 30
0.0
 11
-535.1209114177802
 21
560.1397259686445
 31
0.0
  0
LINE
  5
2DA
330
1F
100
AcDbEntity
  8
C-A
  6
Continuous
 62
     3
370
     9
100
AcDbLine
 10
-559.120606241999
 20
567.2108014080976
 30
0.0
 11
-550.1209114177802
 21
567.2108014080976
 31
0.0
  0
LINE
  5
2DB
330
1F
100
AcDbEntity
  8
C-A
  6
Continuous
 62
     3
370
     9
100
AcDbLine
 10
-559.120606241999
 20
563.67527894716
 30
0.0
 11
-550.1209114177802
 21
563.67527894716
 31
0.0
  0
LINE
  5
2DC
330
1F
100
AcDbEntity
  8
C-A
  6
Continuous
 62
     3
370
     9
100
AcDbLine
 10
-559.120606241999
 20
560.1397259686445
 30
0.0
 11
-550.1209114177802
 21
560.1397259686445
 31
0.0
  0
LINE
  5
2DD
330
1F
100
AcDbEntity
  8
C-A
  6
Continuous
 62
     3
370
     9
100
AcDbLine
 10
-244.1207054241278
 20
567.2108014080976
 30
0.0
 11
-235.1210105999091
 21
567.2108014080976
 31
0.0
  0
LINE
  5
2DE
330
1F
100
AcDbEntity
  8
C-A
  6
Continuous
 62
     3
370
     9
100
AcDbLine
 10
-244.1207054241278
 20
563.67527894716
 30
0.0
 11
-235.1210105999091
 21
563.67527894716
 31
0.0
  0
LINE
  5
2DF
330
1F
100
AcDbEntity
  8
C-A
  6
Continuous
 62
     3
370
     9
100
AcDbLine
 10
-244.1207054241278
 20
560.1397259686445
 30
0.0
 11
-235.1210105999091
 21
560.1397259686445
 31
0.0
  0
LINE
  5
2E0
330
1F
100
AcDbEntity
  8
C-A
  6
Continuous
 62
     3
370
     9
100
AcDbLine
 10
-565.1212318523505
 20
560.1397259686445
 30
0.0
 11
-573.1210678203681
 21
560.1397259686445
 31
0.0
  0
LINE
  5
2E1
330
1F
100
AcDbEntity
  8
C-A
  6
Continuous
 62
     3
370
     9
100
AcDbLine
 10
-565.1212318523505
 20
563.67527894716
 30
0.0
 11
-573.1210678203681
 21
563.67527894716
 31
0.0
  0
LINE
  5
2E2
330
1F
100
AcDbEntity
  8
C-A
  6
Continuous
 62
     3
370
     9
100
AcDbLine
 10
-565.1212318523505
 20
567.2108014080976
 30
0.0
 11
-573.1210678203681
 21
567.2108014080976
 31
0.0
  0
LINE
  5
2E3
330
1F
100
AcDbEntity
  8
C-A
  6
Continuous
 62
     3
370
     9
100
AcDbLine
 10
-229.1207054241278
 20
567.2108014080976
 30
0.0
 11
-225.5849388225653
 21
567.2108014080976
 31
0.0
  0
LINE
  5
2E4
330
1F
100
AcDbEntity
  8
C-A
  6
Continuous
 62
     3
370
     9
100
AcDbLine
 10
-139.1211326702216
 20
660.1397259686445
 30
0.0
 11
-132.6558006389716
 21
660.1397259686445
 31
0.0
  0
TEXT
  5
2E5
330
1F
100
AcDbEntity
  8
C-5
  6
Continuous
 62
     2
370
     9
100
AcDbText
 10
-152.8808067424873
 20
566.3856829998946
 30
0.0
 40
30.48
  1
Ａ
 41
0.9999999999999998
  7
ＭＳ ゴシック
100
AcDbText
  0
TEXT
  5
2E6
330
1F
100
AcDbEntity
  8
C-5
  6
Continuous
 62
     2
370
     9
100
AcDbText
 10
-596.6216495617011
 20
308.8153619168256
 30
0.0
 40
30.48
  1
平面詳細図　Ｓ＝１：１０
 41
1.114583333333333
  7
ＭＳ ゴシック
100
AcDbText
  0
LWPOLYLINE
  5
2E7
330
1F
100
AcDbEntity
  8
C-4
  6
Continuous
 62
     7
370
     9
100
AcDbPolyline
 90
        4
 70
     1
 43
1.0
 10
-579.6215484722236
 20
1098.674393937394
 42
0.4142135623731
 10
-580.1215484722236
 20
1099.174393937394
 42
0.4142135623731
 10
-580.6215484722236
 20
1098.674393937394
 42
0.4142135623731
 10
-580.1215484722236
 20
1098.174393937394
 42
0.4142135623731
  0
LINE
  5
2E8
330
1F
100
AcDbEntity
  8
C-4
  6
Continuous
 62
     7
370
     9
100
AcDbLine
 10
-580.1215484722236
 20
1098.674393937394
 30
0.0
 11
-579.1211975200752
 21
1098.674393937394
 31
0.0
  0
LWPOLYLINE
  5
2E9
330
1F
100
AcDbEntity
  8
C-4
  6
Continuous
 62
     7
370
     9
100
AcDbPolyline
 90
        4
 70
     1
 43
1.0
 10
-578.6211975200752
 20
1098.674393937394
 42
0.4142135623731
 10
-579.1211975200752
 20
1099.174393937394
 42
0.4142135623731
 10
-579.6211975200752
 20
1098.674393937394
 42
0.4142135623731
 10
-579.1211975200752
 20
1098.174393937394
 42
0.4142135623731
  0
LINE
  5
2EA
330
1F
100
AcDbEntity
  8
C-4
  6
Continuous
 62
     7
370
     9
100
AcDbLine
 10
-579.1211975200752
 20
1098.674393937394
 30
0.0
 11
-79.12131577569042
 21
1098.674393937394
 31
0.0
  0
LWPOLYLINE
  5
2EB
330
1F
100
AcDbEntity
  8
C-4
  6
Continuous
 62
     7
370
     9
100
AcDbPolyline
 90
        4
 70
     1
 43
1.0
 10
-78.62131577569042
 20
1098.674393937394
 42
0.4142135623731
 10
-79.12131577569042
 20
1099.174393937394
 42
0.4142135623731
 10
-79.62131577569042
 20
1098.674393937394
 42
0.4142135623731
 10
-79.12131577569042
 20
1098.174393937394
 42
0.4142135623731
  0
TEXT
  5
2EC
330
1F
100
AcDbEntity
  8
C-4
  6
Continuous
 62
     2
370
   211
100
AcDbText
 10
-361.6212566478828
 20
1110.314394175813
 30
0.0
 40
30.48
  1
500
 41
1.083333333333333
  7
ＭＳ ゴシック
100
AcDbText
  0
LINE
  5
2ED
330
1F
100
AcDbEntity
  8
C-4
  6
Continuous
 62
     7
370
     9
100
AcDbLine
 10
-79.12131577569042
 20
1098.674393937394
 30
0.0
 11
-78.12149888115911
 21
1098.674393937394
 31
0.0
  0
LWPOLYLINE
  5
2EE
330
1F
100
AcDbEntity
  8
C-4
  6
Continuous
 62
     7
370
     9
100
AcDbPolyline
 90
        4
 70
     1
 43
1.0
 10
-77.62149888115911
 20
1098.674393937394
 42
0.4142135623731
 10
-78.12149888115911
 20
1099.174393937394
 42
0.4142135623731
 10
-78.62149888115911
 20
1098.674393937394
 42
0.4142135623731
 10
-78.12149888115911
 20
1098.174393937394
 42
0.4142135623731
  0
LINE
  5
2EF
330
1F
100
AcDbEntity
  8
C-1
  6
JWW_DASHED3
 62
     2
370
     9
100
AcDbLine
 10
-554.1215313060859
 20
938.6751263592694
 30
0.0
 11
-554.1215313060859
 21
488.6750805829024
 31
0.0
  0
LINE
  5
2F0
330
1F
100
AcDbEntity
  8
C-1
  6
JWW_DASHED3
 62
     2
370
     9
100
AcDbLine
 10
-554.1215313060859
 20
488.6750805829024
 30
0.0
 11
-104.1214988811591
 21
488.6750805829024
 31
0.0
  0
LINE
  5
2F1
330
1F
100
AcDbEntity
  8
C-1
  6
JWW_DASHED3
 62
     2
370
     9
100
AcDbLine
 10
-104.1214988811591
 20
938.6751263592694
 30
0.0
 11
-554.1215313060859
 21
938.6751263592694
 31
0.0
  0
LINE
  5
2F2
330
1F
100
AcDbEntity
  8
C-1
  6
JWW_DASHED3
 62
     2
370
     9
100
AcDbLine
 10
-104.1214988811591
 20
488.6750805829024
 30
0.0
 11
-104.1214988811591
 21
938.6751263592694
 31
0.0
  0
LINE
  5
2F3
330
1F
100
AcDbEntity
  8
C-4
  6
Continuous
 62
     7
370
     9
100
AcDbLine
 10
-579.1211975200752
 20
1043.675126359269
 30
0.0
 11
-554.1215313060859
 21
1043.675126359269
 31
0.0
  0
LWPOLYLINE
  5
2F4
330
1F
100
AcDbEntity
  8
C-4
  6
Continuous
 62
     7
370
     9
100
AcDbPolyline
 90
        4
 70
     1
 43
1.0
 10
-578.6211975200752
 20
1043.675126359269
 42
0.4142135623731
 10
-579.1211975200752
 20
1044.175126359269
 42
0.4142135623731
 10
-579.6211975200752
 20
1043.675126359269
 42
0.4142135623731
 10
-579.1211975200752
 20
1043.175126359269
 42
0.4142135623731
  0
LWPOLYLINE
  5
2F5
330
1F
100
AcDbEntity
  8
C-4
  6
Continuous
 62
     7
370
     9
100
AcDbPolyline
 90
        4
 70
     1
 43
1.0
 10
-553.6215313060859
 20
1043.675126359269
 42
0.4142135623731
 10
-554.1215313060859
 20
1044.175126359269
 42
0.4142135623731
 10
-554.6215313060859
 20
1043.675126359269
 42
0.4142135623731
 10
-554.1215313060859
 20
1043.175126359269
 42
0.4142135623731
  0
LINE
  5
2F6
330
1F
100
AcDbEntity
  8
C-4
  6
Continuous
 62
     7
370
     9
100
AcDbLine
 10
-554.1215313060859
 20
1043.675126359269
 30
0.0
 11
-104.1214988811591
 21
1043.675126359269
 31
0.0
  0
LWPOLYLINE
  5
2F7
330
1F
100
AcDbEntity
  8
C-4
  6
Continuous
 62
     7
370
     9
100
AcDbPolyline
 90
        4
 70
     1
 43
1.0
 10
-103.6214988811591
 20
1043.675126359269
 42
0.4142135623731
 10
-104.1214988811591
 20
1044.175126359269
 42
0.4142135623731
 10
-104.6214988811591
 20
1043.675126359269
 42
0.4142135623731
 10
-104.1214988811591
 20
1043.175126359269
 42
0.4142135623731
  0
TEXT
  5
2F8
330
1F
100
AcDbEntity
  8
C-4
  6
Continuous
 62
     2
370
   211
100
AcDbText
 10
-361.6215150936225
 20
1055.315126597688
 30
0.0
 40
30.48
  1
450
 41
1.083333333333333
  7
ＭＳ ゴシック
100
AcDbText
  0
LINE
  5
2F9
330
1F
100
AcDbEntity
  8
C-4
  6
Continuous
 62
     7
370
     9
100
AcDbLine
 10
-104.1214988811591
 20
1043.675126359269
 30
0.0
 11
-79.12131577569042
 21
1043.675126359269
 31
0.0
  0
LWPOLYLINE
  5
2FA
330
1F
100
AcDbEntity
  8
C-4
  6
Continuous
 62
     7
370
     9
100
AcDbPolyline
 90
        4
 70
     1
 43
1.0
 10
-78.62131577569042
 20
1043.675126359269
 42
0.4142135623731
 10
-79.12131577569042
 20
1044.175126359269
 42
0.4142135623731
 10
-79.62131577569042
 20
1043.675126359269
 42
0.4142135623731
 10
-79.12131577569042
 20
1043.175126359269
 42
0.4142135623731
  0
LINE
  5
2FB
330
1F
100
AcDbEntity
  8
C-4
  6
Continuous
 62
     7
370
     9
100
AcDbLine
 10
-580.1215484722236
 20
1101.674394056604
 30
0.0
 11
-580.1215484722236
 21
991.6751263592696
 31
0.0
  0
LINE
  5
2FC
330
1F
100
AcDbEntity
  8
C-4
  6
Continuous
 62
     7
370
     9
100
AcDbLine
 10
-579.1211975200752
 20
1101.674394056604
 30
0.0
 11
-579.1211975200752
 21
991.6751263592696
 31
0.0
  0
LINE
  5
2FD
330
1F
100
AcDbEntity
  8
C-4
  6
Continuous
 62
     7
370
     9
100
AcDbLine
 10
-79.12131577569042
 20
1101.674394056604
 30
0.0
 11
-79.12131577569042
 21
991.6751263592696
 31
0.0
  0
LINE
  5
2FE
330
1F
100
AcDbEntity
  8
C-4
  6
Continuous
 62
     7
370
     9
100
AcDbLine
 10
-78.12149888115911
 20
1101.674394056604
 30
0.0
 11
-78.12149888115911
 21
991.6751263592696
 31
0.0
  0
LINE
  5
2FF
330
1F
100
AcDbEntity
  8
C-4
  6
Continuous
 62
     7
370
     9
100
AcDbLine
 10
-554.1215313060859
 20
1046.675126478479
 30
0.0
 11
-554.1215313060859
 21
991.6751263592696
 31
0.0
  0
LINE
  5
300
330
1F
100
AcDbEntity
  8
C-4
  6
Continuous
 62
     7
370
     9
100
AcDbLine
 10
-104.1214988811591
 20
1046.675126478479
 30
0.0
 11
-104.1214988811591
 21
991.6751263592696
 31
0.0
  0
TEXT
  5
301
330
1F
100
AcDbEntity
  8
C-4
  6
Continuous
 62
     2
370
   211
100
AcDbText
 10
-567.8713644130805
 20
1055.315126597688
 30
0.0
 40
30.48
  1
25
 41
1.0625
  7
ＭＳ ゴシック
100
AcDbText
  0
TEXT
  5
302
330
1F
100
AcDbEntity
  8
C-4
  6
Continuous
 62
     2
370
   211
100
AcDbText
 10
-569.6213729961494
 20
1110.314394175813
 30
0.0
 40
30.48
  1
1
 41
0.9999999999999998
  7
ＭＳ ゴシック
100
AcDbText
  0
TEXT
  5
303
330
1F
100
AcDbEntity
  8
C-4
  6
Continuous
 62
     2
370
   211
100
AcDbText
 10
-132.8714073284247
 20
1055.315126597688
 30
0.0
 40
30.48
  1
25
 41
1.0625
  7
ＭＳ ゴシック
100
AcDbText
  0
TEXT
  5
304
330
1F
100
AcDbEntity
  8
C-4
  6
Continuous
 62
     2
370
   211
100
AcDbText
 10
-108.6214073284248
 20
1110.314394175813
 30
0.0
 40
30.48
  1
1
 41
0.9999999999999998
  7
ＭＳ ゴシック
100
AcDbText
  0
LINE
  5
305
330
1F
100
AcDbEntity
  8
C-5
  6
Continuous
 62
     7
370
     9
100
AcDbLine
 10
108.3794166461847
 20
290.6756756756758
 30
0.0
 11
108.3794166461847
 21
355.6752331707929
 31
0.0
  0
LINE
  5
306
330
1F
100
AcDbEntity
  8
C-5
  6
Continuous
 62
     7
370
     9
100
AcDbLine
 10
108.3794166461847
 20
355.6752331707929
 30
0.0
 11
583.3798438922784
 21
355.6752331707929
 31
0.0
  0
LINE
  5
307
330
1F
100
AcDbEntity
  8
C-5
  6
Continuous
 62
     7
370
     9
100
AcDbLine
 10
583.3798438922784
 20
355.6752331707929
 30
0.0
 11
583.3798438922784
 21
290.6756756756758
 31
0.0
  0
LINE
  5
308
330
1F
100
AcDbEntity
  8
C-5
  6
Continuous
 62
     7
370
     9
100
AcDbLine
 10
583.3798438922784
 20
290.6756756756758
 30
0.0
 11
108.3794166461847
 21
290.6756756756758
 31
0.0
  0
LINE
  5
309
330
1F
100
AcDbEntity
  8
C-5
  6
Continuous
 62
     7
370
     9
100
AcDbLine
 10
117.1259376422783
 20
748.5448163006756
 30
0.0
 11
555.1609718219659
 21
748.5448163006756
 31
0.0
  0
LINE
  5
30A
330
1F
100
AcDbEntity
  8
C-5
  6
Continuous
 62
     7
370
     9
100
AcDbLine
 10
396.9047462360284
 20
1100.571915910051
 30
0.0
 11
642.6142188922785
 21
1100.571915910051
 31
0.0
  0
LINE
  5
30B
330
1F
100
AcDbEntity
  8
C-2
  6
Continuous
 62
     3
370
     9
100
AcDbLine
 10
305.8717872516535
 20
824.9906781170821
 30
0.0
 11
305.8717872516535
 21
1164.346696183489
 31
0.0
  0
LINE
  5
30C
330
1F
100
AcDbEntity
  8
C-2
  6
Continuous
 62
     3
370
     9
100
AcDbLine
 10
365.8710548297785
 20
811.5059979413011
 30
0.0
 11
365.8710548297785
 21
1150.862016007707
 31
0.0
  0
LINE
  5
30D
330
1F
100
AcDbEntity
  8
C-2
  6
Continuous
 62
     3
370
     9
100
AcDbLine
 10
310.8715431110284
 20
867.7447064373948
 30
0.0
 11
310.8715431110284
 21
907.7448895428633
 31
0.0
  0
LINE
  5
30E
330
1F
100
AcDbEntity
  8
C-2
  6
Continuous
 62
     3
370
     9
100
AcDbLine
 10
310.8715431110284
 20
907.7448895428633
 30
0.0
 11
360.8712989704034
 21
892.7445843670821
 31
0.0
  0
LINE
  5
30F
330
1F
100
AcDbEntity
  8
C-2
  6
Continuous
 62
     3
370
     9
100
AcDbLine
 10
360.8712989704034
 20
882.7450116131761
 30
0.0
 11
360.8712989704034
 21
892.7445843670821
 31
0.0
  0
LINE
  5
310
330
1F
100
AcDbEntity
  8
C-2
  6
Continuous
 62
     3
370
     9
100
AcDbLine
 10
360.8712989704034
 20
882.7450116131761
 30
0.0
 11
310.8715431110284
 21
867.7447064373948
 31
0.0
  0
LINE
  5
311
330
1F
100
AcDbEntity
  8
C-2
  6
Continuous
 62
     3
370
     9
100
AcDbLine
 10
365.8710548297785
 20
879.0250409100511
 30
0.0
 11
305.8717872516535
 21
861.0241864178633
 31
0.0
  0
LINE
  5
312
330
1F
100
AcDbEntity
  8
C-2
  6
Continuous
 62
     3
370
     9
100
AcDbLine
 10
305.8717872516535
 20
914.4654095623948
 30
0.0
 11
365.8710548297785
 21
896.4645550702071
 31
0.0
  0
LINE
  5
313
330
1F
100
AcDbEntity
  8
C-2
  6
Continuous
 62
     3
370
     9
100
AcDbLine
 10
360.8712989704034
 20
972.7449505780194
 30
0.0
 11
360.8712989704034
 21
1012.745133683489
 31
0.0
  0
LINE
  5
314
330
1F
100
AcDbEntity
  8
C-2
  6
Continuous
 62
     3
370
     9
100
AcDbLine
 10
360.8712989704034
 20
1012.745133683489
 30
0.0
 11
310.8715431110284
 21
997.7448285077073
 31
0.0
  0
LINE
  5
315
330
1F
100
AcDbEntity
  8
C-2
  6
Continuous
 62
     3
370
     9
100
AcDbLine
 10
310.8715431110284
 20
987.7452557538006
 30
0.0
 11
310.8715431110284
 21
997.7448285077073
 31
0.0
  0
LINE
  5
316
330
1F
100
AcDbEntity
  8
C-2
  6
Continuous
 62
     3
370
     9
100
AcDbLine
 10
310.8715431110284
 20
987.7452557538006
 30
0.0
 11
360.8712989704034
 21
972.7449505780194
 31
0.0
  0
LINE
  5
317
330
1F
100
AcDbEntity
  8
C-2
  6
Continuous
 62
     3
370
     9
100
AcDbLine
 10
305.8717872516535
 20
984.0252850506758
 30
0.0
 11
365.8710548297785
 21
966.0244305584886
 31
0.0
  0
LINE
  5
318
330
1F
100
AcDbEntity
  8
C-2
  6
Continuous
 62
     3
370
     9
100
AcDbLine
 10
365.8710548297785
 20
1019.46565370302
 30
0.0
 11
305.8717872516535
 21
1001.464799210832
 31
0.0
  0
LINE
  5
319
330
1F
100
AcDbEntity
  8
C-2
  6
Continuous
 62
     3
370
     9
100
AcDbLine
 10
310.8715431110284
 20
1077.744706437395
 30
0.0
 11
310.8715431110284
 21
1117.744889542863
 31
0.0
  0
LINE
  5
31A
330
1F
100
AcDbEntity
  8
C-2
  6
Continuous
 62
     3
370
     9
100
AcDbLine
 10
310.8715431110284
 20
1117.744889542863
 30
0.0
 11
360.8712989704034
 21
1102.744584367082
 31
0.0
  0
LINE
  5
31B
330
1F
100
AcDbEntity
  8
C-2
  6
Continuous
 62
     3
370
     9
100
AcDbLine
 10
360.8712989704034
 20
1092.745011613176
 30
0.0
 11
360.8712989704034
 21
1102.744584367082
 31
0.0
  0
LINE
  5
31C
330
1F
100
AcDbEntity
  8
C-2
  6
Continuous
 62
     3
370
     9
100
AcDbLine
 10
360.8712989704034
 20
1092.745011613176
 30
0.0
 11
310.8715431110284
 21
1077.744706437395
 31
0.0
  0
LINE
  5
31D
330
1F
100
AcDbEntity
  8
C-2
  6
Continuous
 62
     3
370
     9
100
AcDbLine
 10
365.8710548297785
 20
1089.025040910051
 30
0.0
 11
305.8717872516535
 21
1071.024186417863
 31
0.0
  0
LINE
  5
31E
330
1F
100
AcDbEntity
  8
C-2
  6
Continuous
 62
     3
370
     9
100
AcDbLine
 10
305.8717872516535
 20
1124.465409562395
 30
0.0
 11
365.8710548297785
 21
1106.464555070207
 31
0.0
  0
LINE
  5
31F
330
1F
100
AcDbEntity
  8
C-4
  6
Continuous
 62
     7
370
     9
100
AcDbLine
 10
234.1581031696222
 20
867.7447064373948
 30
0.0
 11
234.1581031696222
 21
907.7448895428633
 31
0.0
  0
LINE
  5
320
330
1F
100
AcDbEntity
  8
C-4
  6
Continuous
 62
     7
370
     9
100
AcDbLine
 10
294.621176900091
 20
867.7447064373948
 30
0.0
 11
231.1580421344659
 21
867.7447064373948
 31
0.0
  0
LINE
  5
321
330
1F
100
AcDbEntity
  8
C-4
  6
Continuous
 62
     7
370
     9
100
AcDbLine
 10
294.621176900091
 20
907.7448895428633
 30
0.0
 11
231.1580421344659
 21
907.7448895428633
 31
0.0
  0
LINE
  5
322
330
1F
100
AcDbEntity
  8
C-4
  6
Continuous
 62
     7
370
     9
100
AcDbLine
 10
234.1581031696222
 20
907.7448895428633
 30
0.0
 11
234.1581031696222
 21
987.7452557538006
 31
0.0
  0
LINE
  5
323
330
1F
100
AcDbEntity
  8
C-4
  6
Continuous
 62
     7
370
     9
100
AcDbLine
 10
294.621176900091
 20
987.7452557538006
 30
0.0
 11
231.1580421344659
 21
987.7452557538006
 31
0.0
  0
LINE
  5
324
330
1F
100
AcDbEntity
  8
C-4
  6
Continuous
 62
     7
370
     9
100
AcDbLine
 10
234.1581031696222
 20
987.7452557538006
 30
0.0
 11
234.1581031696222
 21
997.7448285077073
 31
0.0
  0
LINE
  5
325
330
1F
100
AcDbEntity
  8
C-4
  6
Continuous
 62
     7
370
     9
100
AcDbLine
 10
294.621176900091
 20
997.7448285077073
 30
0.0
 11
231.1580421344659
 21
997.7448285077073
 31
0.0
  0
LINE
  5
326
330
1F
100
AcDbEntity
  8
C-4
  6
Continuous
 62
     7
370
     9
100
AcDbLine
 10
234.1581031696222
 20
997.7448285077073
 30
0.0
 11
234.1581031696222
 21
1077.744706437395
 31
0.0
  0
LINE
  5
327
330
1F
100
AcDbEntity
  8
C-4
  6
Continuous
 62
     7
370
     9
100
AcDbLine
 10
294.621176900091
 20
1077.744706437395
 30
0.0
 11
231.1580421344659
 21
1077.744706437395
 31
0.0
  0
LINE
  5
328
330
1F
100
AcDbEntity
  8
C-4
  6
Continuous
 62
     7
370
     9
100
AcDbLine
 10
234.1581031696222
 20
1077.744706437395
 30
0.0
 11
234.1581031696222
 21
1117.744889542863
 31
0.0
  0
LINE
  5
329
330
1F
100
AcDbEntity
  8
C-4
  6
Continuous
 62
     7
370
     9
100
AcDbLine
 10
294.621176900091
 20
1117.744889542863
 30
0.0
 11
231.1580421344659
 21
1117.744889542863
 31
0.0
  0
LINE
  5
32A
330
1F
100
AcDbEntity
  8
C-4
  6
Continuous
 62
     7
370
     9
100
AcDbLine
 10
374.8905860797784
 20
963.3186810467694
 30
0.0
 11
451.1962501422784
 21
940.4265301678631
 31
0.0
  0
LINE
  5
32B
330
1F
100
AcDbEntity
  8
C-4
  6
Continuous
 62
     7
370
     9
100
AcDbLine
 10
376.3274146930597
 20
968.1078656170823
 30
0.0
 11
452.633139790716
 21
945.2157147381761
 31
0.0
  0
LINE
  5
32C
330
1F
100
AcDbEntity
  8
C-4
  6
Continuous
 62
     7
370
     9
100
AcDbLine
 10
448.3229591266535
 20
941.2886517498944
 30
0.0
 11
470.2345802204035
 21
1014.325700089738
 31
0.0
  0
LINE
  5
32D
330
1F
100
AcDbEntity
  8
C-4
  6
Continuous
 62
     7
370
     9
100
AcDbLine
 10
305.8717872516535
 20
1210.362138078019
 30
0.0
 11
365.8710548297785
 21
1210.362138078019
 31
0.0
  0
LINE
  5
32E
330
1F
100
AcDbEntity
  8
C-4
  6
Continuous
 62
     7
370
     9
100
AcDbLine
 10
305.8717872516535
 20
1171.087296769426
 30
0.0
 11
305.8717872516535
 21
1213.361954972551
 31
0.0
  0
LINE
  5
32F
330
1F
100
AcDbEntity
  8
C-4
  6
Continuous
 62
     7
370
     9
100
AcDbLine
 10
365.8710548297785
 20
1162.184953019426
 30
0.0
 11
365.8710548297785
 21
1213.361954972551
 31
0.0
  0
LINE
  5
330
330
1F
100
AcDbEntity
  8
C-5
  6
Continuous
 62
     7
370
     9
100
AcDbLine
 10
340.5243751422785
 20
1002.918473527239
 30
0.0
 11
396.9047462360284
 21
1100.571915910051
 31
0.0
  0
LINE
  5
331
330
1F
100
AcDbEntity
  8
C-5
  6
Continuous
 62
     7
370
     9
100
AcDbLine
 10
340.5243751422785
 20
1002.918473527239
 30
0.0
 11
350.0913917438409
 21
1026.015519425676
 31
0.0
  0
LINE
  5
332
330
1F
100
AcDbEntity
  8
C-5
  6
Continuous
 62
     7
370
     9
100
AcDbLine
 10
340.5243751422785
 20
1002.918473527239
 30
0.0
 11
355.7436744586846
 21
1022.752335831926
 31
0.0
  0
LINE
  5
333
330
1F
100
AcDbEntity
  8
C-2
  6
Continuous
 62
     3
370
     9
100
AcDbLine
 10
188.1736671344659
 20
408.2826245282149
 30
0.0
 11
188.1736671344659
 21
418.2826703045819
 31
0.0
  0
LINE
  5
334
330
1F
100
AcDbEntity
  8
C-2
  6
Continuous
 62
     3
370
     9
100
AcDbLine
 10
188.1736671344659
 20
508.2825940106366
 30
0.0
 11
188.1736671344659
 21
498.2825482342696
 31
0.0
  0
LINE
  5
335
330
1F
100
AcDbEntity
  8
C-2
  6
Continuous
 62
     3
370
     9
100
AcDbLine
 10
215.0241310016534
 20
498.2825482342696
 30
0.0
 11
215.0241310016534
 21
508.2825940106366
 31
0.0
  0
LINE
  5
336
330
1F
100
AcDbEntity
  8
C-2
  6
Continuous
 62
     3
370
     9
100
AcDbLine
 10
245.0237647907159
 20
508.2825940106366
 30
0.0
 11
245.0237647907159
 21
498.2825482342696
 31
0.0
  0
LINE
  5
337
330
1F
100
AcDbEntity
  8
C-2
  6
Continuous
 62
     3
370
     9
100
AcDbLine
 10
220.0238868610285
 20
498.2825482342696
 30
0.0
 11
215.0241310016534
 21
498.2825482342696
 31
0.0
  0
LINE
  5
338
330
1F
100
AcDbEntity
  8
C-2
  6
Continuous
 62
     3
370
     9
100
AcDbLine
 10
240.0239478961846
 20
498.2825482342696
 30
0.0
 11
245.0237647907159
 21
498.2825482342696
 31
0.0
  0
LINE
  5
339
330
1F
100
AcDbEntity
  8
C-2
  6
Continuous
 62
     3
370
     9
100
AcDbLine
 10
225.0236427204034
 20
493.2822735760664
 30
0.0
 11
225.0216895954034
 21
408.2826245282149
 31
0.0
  0
LINE
  5
33A
330
1F
100
AcDbEntity
  8
C-2
  6
Continuous
 62
     3
370
     9
100
AcDbLine
 10
235.0241920368097
 20
493.2827771161055
 30
0.0
 11
235.0241920368097
 21
408.2826245282149
 31
0.0
  0
LINE
  5
33B
330
1F
100
AcDbEntity
  8
C-2
  6
Continuous
 62
     3
370
     9
100
AcDbLine
 10
290.0241920368097
 20
498.2825482342696
 30
0.0
 11
290.0241920368097
 21
508.2825940106366
 31
0.0
  0
LINE
  5
33C
330
1F
100
AcDbEntity
  8
C-2
  6
Continuous
 62
     3
370
     9
100
AcDbLine
 10
320.0238258258722
 20
508.2825940106366
 30
0.0
 11
320.0238258258722
 21
498.2825482342696
 31
0.0
  0
LINE
  5
33D
330
1F
100
AcDbEntity
  8
C-2
  6
Continuous
 62
     3
370
     9
100
AcDbLine
 10
295.0239478961846
 20
498.2825482342696
 30
0.0
 11
290.0241920368097
 21
498.2825482342696
 31
0.0
  0
LINE
  5
33E
330
1F
100
AcDbEntity
  8
C-2
  6
Continuous
 62
     3
370
     9
100
AcDbLine
 10
315.0240699664971
 20
498.2825482342696
 30
0.0
 11
320.0238258258722
 21
498.2825482342696
 31
0.0
  0
LINE
  5
33F
330
1F
100
AcDbEntity
  8
C-2
  6
Continuous
 62
     3
370
     9
100
AcDbLine
 10
300.0237647907159
 20
493.2822735760664
 30
0.0
 11
300.0217506305597
 21
408.2826245282149
 31
0.0
  0
LINE
  5
340
330
1F
100
AcDbEntity
  8
C-2
  6
Continuous
 62
     3
370
     9
100
AcDbLine
 10
310.0243141071222
 20
493.2827771161055
 30
0.0
 11
310.0243141071222
 21
408.2826245282149
 31
0.0
  0
LINE
  5
341
330
1F
100
AcDbEntity
  8
C-2
  6
Continuous
 62
     3
370
     9
100
AcDbLine
 10
365.0243141071222
 20
498.2825482342696
 30
0.0
 11
365.0243141071222
 21
508.2825940106366
 31
0.0
  0
LINE
  5
342
330
1F
100
AcDbEntity
  8
C-2
  6
Continuous
 62
     3
370
     9
100
AcDbLine
 10
395.0239478961846
 20
508.2825940106366
 30
0.0
 11
395.0239478961846
 21
498.2825482342696
 31
0.0
  0
LINE
  5
343
330
1F
100
AcDbEntity
  8
C-2
  6
Continuous
 62
     3
370
     9
100
AcDbLine
 10
370.0235816852472
 20
498.2825482342696
 30
0.0
 11
365.0243141071222
 21
498.2825482342696
 31
0.0
  0
LINE
  5
344
330
1F
100
AcDbEntity
  8
C-2
  6
Continuous
 62
     3
370
     9
100
AcDbLine
 10
390.0237037555597
 20
498.2825482342696
 30
0.0
 11
395.0239478961846
 21
498.2825482342696
 31
0.0
  0
LINE
  5
345
330
1F
100
AcDbEntity
  8
C-2
  6
Continuous
 62
     3
370
     9
100
AcDbLine
 10
375.0238258258722
 20
493.2822735760664
 30
0.0
 11
375.0218727008722
 21
408.2826245282149
 31
0.0
  0
LINE
  5
346
330
1F
100
AcDbEntity
  8
C-2
  6
Continuous
 62
     3
370
     9
100
AcDbLine
 10
385.0238868610285
 20
493.2827771161055
 30
0.0
 11
385.0238868610285
 21
408.2826245282149
 31
0.0
  0
LINE
  5
347
330
1F
100
AcDbEntity
  8
C-2
  6
Continuous
 62
     3
370
     9
100
AcDbLine
 10
421.8704444782159
 20
408.2761853192304
 30
0.0
 11
421.8704444782159
 21
418.2762310955977
 31
0.0
  0
LINE
  5
348
330
1F
100
AcDbEntity
  8
C-2
  6
Continuous
 62
     3
370
     9
100
AcDbLine
 10
421.8753272907159
 20
508.2761548016524
 30
0.0
 11
421.8753272907159
 21
498.2761090252851
 31
0.0
  0
LINE
  5
349
330
1F
100
AcDbEntity
  8
C-2
  6
Continuous
 62
     3
370
     9
100
AcDbLine
 10
421.8753272907159
 20
508.2825940106366
 30
0.0
 11
188.1736671344659
 21
508.2825940106366
 31
0.0
  0
LINE
  5
34A
330
1F
100
AcDbEntity
  8
C-2
  6
Continuous
 62
     3
370
     9
100
AcDbLine
 10
188.1736671344659
 20
408.2826245282149
 30
0.0
 11
421.8704444782159
 21
408.2826245282149
 31
0.0
  0
LINE
  5
34B
330
1F
100
AcDbEntity
  8
C-4
  6
Continuous
 62
     7
370
     9
100
AcDbLine
 10
510.3170997516534
 20
408.2826245282149
 30
0.0
 11
510.3170997516534
 21
508.2825940106366
 31
0.0
  0
LINE
  5
34C
330
1F
100
AcDbEntity
  8
C-4
  6
Continuous
 62
     7
370
     9
100
AcDbLine
 10
433.5282813922784
 20
408.2826245282149
 30
0.0
 11
513.3166114704034
 21
408.2826245282149
 31
0.0
  0
LINE
  5
34D
330
1F
100
AcDbEntity
  8
C-4
  6
Continuous
 62
     7
370
     9
100
AcDbLine
 10
433.5282813922784
 20
508.2825940106366
 30
0.0
 11
513.3166114704034
 21
508.2825940106366
 31
0.0
  0
LINE
  5
34E
330
1F
100
AcDbEntity
  8
C-4
  6
Continuous
 62
     7
370
     9
100
AcDbLine
 10
215.0241310016534
 20
518.7424328778243
 30
0.0
 11
215.0241310016534
 21
637.284837052629
 31
0.0
  0
LINE
  5
34F
330
1F
100
AcDbEntity
  8
C-4
  6
Continuous
 62
     7
370
     9
100
AcDbLine
 10
245.0237647907159
 20
518.7424328778243
 30
0.0
 11
245.0237647907159
 21
574.1675579998946
 31
0.0
  0
LINE
  5
350
330
1F
100
AcDbEntity
  8
C-4
  6
Continuous
 62
     7
370
     9
100
AcDbLine
 10
245.0237647907159
 20
571.1674969647381
 30
0.0
 11
290.0241920368097
 21
571.1674969647381
 31
0.0
  0
LINE
  5
351
330
1F
100
AcDbEntity
  8
C-4
  6
Continuous
 62
     7
370
     9
100
AcDbLine
 10
290.0241920368097
 20
518.7424328778243
 30
0.0
 11
290.0241920368097
 21
637.284837052629
 31
0.0
  0
LINE
  5
352
330
1F
100
AcDbEntity
  8
C-4
  6
Continuous
 62
     7
370
     9
100
AcDbLine
 10
290.0241920368097
 20
571.1674969647381
 30
0.0
 11
320.0238258258722
 21
571.1674969647381
 31
0.0
  0
LINE
  5
353
330
1F
100
AcDbEntity
  8
C-4
  6
Continuous
 62
     7
370
     9
100
AcDbLine
 10
320.0238258258722
 20
518.7424328778243
 30
0.0
 11
320.0238258258722
 21
574.1675579998946
 31
0.0
  0
LINE
  5
354
330
1F
100
AcDbEntity
  8
C-4
  6
Continuous
 62
     7
370
     9
100
AcDbLine
 10
320.0238258258722
 20
571.1674969647381
 30
0.0
 11
365.0243141071222
 21
571.1674969647381
 31
0.0
  0
LINE
  5
355
330
1F
100
AcDbEntity
  8
C-4
  6
Continuous
 62
     7
370
     9
100
AcDbLine
 10
365.0243141071222
 20
518.7424328778243
 30
0.0
 11
365.0243141071222
 21
637.284837052629
 31
0.0
  0
LINE
  5
356
330
1F
100
AcDbEntity
  8
C-4
  6
Continuous
 62
     7
370
     9
100
AcDbLine
 10
395.0239478961846
 20
518.7424328778243
 30
0.0
 11
395.0239478961846
 21
574.1675579998946
 31
0.0
  0
LINE
  5
357
330
1F
100
AcDbEntity
  8
C-4
  6
Continuous
 62
     7
370
     9
100
AcDbLine
 10
188.1736671344659
 20
571.1674969647381
 30
0.0
 11
245.0237647907159
 21
571.1674969647381
 31
0.0
  0
LINE
  5
358
330
1F
100
AcDbEntity
  8
C-4
  6
Continuous
 62
     7
370
     9
100
AcDbLine
 10
188.1736671344659
 20
634.2847760174726
 30
0.0
 11
290.0241920368097
 21
634.2847760174726
 31
0.0
  0
LINE
  5
359
330
1F
100
AcDbEntity
  8
C-4
  6
Continuous
 62
     7
370
     9
100
AcDbLine
 10
365.0243141071222
 20
571.1674969647381
 30
0.0
 11
421.8753272907159
 21
571.1674969647381
 31
0.0
  0
LINE
  5
35A
330
1F
100
AcDbEntity
  8
C-4
  6
Continuous
 62
     7
370
     9
100
AcDbLine
 10
290.0241920368097
 20
634.2847760174726
 30
0.0
 11
421.8753272907159
 21
634.2847760174726
 31
0.0
  0
LINE
  5
35B
330
1F
100
AcDbEntity
  8
C-2
  6
Continuous
 62
     3
370
     9
100
AcDbLine
 10
235.0233985797784
 20
475.9605267498947
 30
0.0
 11
300.0224220172784
 21
475.9605267498947
 31
0.0
  0
LINE
  5
35C
330
1F
100
AcDbEntity
  8
C-2
  6
Continuous
 62
     3
370
     9
100
AcDbLine
 10
310.024008931341
 20
475.9605267498947
 30
0.0
 11
375.0225440875909
 21
475.9605267498947
 31
0.0
  0
LINE
  5
35D
330
1F
100
AcDbEntity
  8
C-2
  6
Continuous
 62
     3
370
     9
100
AcDbLine
 10
190.6749488727472
 20
475.9605267498947
 30
0.0
 11
225.0228492633721
 21
475.9605267498947
 31
0.0
  0
LINE
  5
35E
330
1F
100
AcDbEntity
  8
C-2
  6
Continuous
 62
     3
370
     9
100
AcDbLine
 10
419.371421040716
 20
475.9605267498947
 30
0.0
 11
385.0235816852472
 21
475.9605267498947
 31
0.0
  0
LINE
  5
35F
330
1F
100
AcDbEntity
  8
C-2
  6
Continuous
 62
     3
370
     9
100
AcDbLine
 10
235.0233985797784
 20
458.2828534100508
 30
0.0
 11
300.0224220172784
 21
458.2828534100508
 31
0.0
  0
LINE
  5
360
330
1F
100
AcDbEntity
  8
C-2
  6
Continuous
 62
     3
370
     9
100
AcDbLine
 10
310.024008931341
 20
458.2828534100508
 30
0.0
 11
375.0225440875909
 21
458.2828534100508
 31
0.0
  0
LINE
  5
361
330
1F
100
AcDbEntity
  8
C-2
  6
Continuous
 62
     3
370
     9
100
AcDbLine
 10
190.6749488727472
 20
458.2828534100508
 30
0.0
 11
225.0228492633721
 21
458.2828534100508
 31
0.0
  0
LINE
  5
362
330
1F
100
AcDbEntity
  8
C-2
  6
Continuous
 62
     3
370
     9
100
AcDbLine
 10
419.371421040716
 20
458.2828534100508
 30
0.0
 11
385.0235816852472
 21
458.2828534100508
 31
0.0
  0
LINE
  5
363
330
1F
100
AcDbEntity
  8
C-2
  6
Continuous
 62
     3
370
     9
100
AcDbLine
 10
235.0233985797784
 20
440.605180070207
 30
0.0
 11
300.0224220172784
 21
440.605180070207
 31
0.0
  0
LINE
  5
364
330
1F
100
AcDbEntity
  8
C-2
  6
Continuous
 62
     3
370
     9
100
AcDbLine
 10
310.024008931341
 20
440.605180070207
 30
0.0
 11
375.0225440875909
 21
440.605180070207
 31
0.0
  0
LINE
  5
365
330
1F
100
AcDbEntity
  8
C-2
  6
Continuous
 62
     3
370
     9
100
AcDbLine
 10
190.6749488727472
 20
440.605180070207
 30
0.0
 11
225.0228492633721
 21
440.605180070207
 31
0.0
  0
LINE
  5
366
330
1F
100
AcDbEntity
  8
C-2
  6
Continuous
 62
     3
370
     9
100
AcDbLine
 10
419.371421040716
 20
440.605180070207
 30
0.0
 11
385.0235816852472
 21
440.605180070207
 31
0.0
  0
ARC
  5
367
330
1F
100
AcDbEntity
  8
C-2
  6
Continuous
 62
     3
370
     9
100
AcDbCircle
 10
313.371176900091
 20
1127.604203507707
 30
0.0
 40
37.50014114379883
100
AcDbArc
 50
53.13009643554687
 51
126.8699035644531
  0
ARC
  5
368
330
1F
100
AcDbEntity
  8
C-2
  6
Continuous
 62
     3
370
     9
100
AcDbCircle
 10
358.371665181341
 20
1187.604508683488
 30
0.0
 40
37.50014114379883
100
AcDbArc
 50
233.1300964355469
 51
306.8699035644532
  0
ARC
  5
369
330
1F
100
AcDbEntity
  8
C-2
  6
Continuous
 62
     3
370
     9
100
AcDbCircle
 10
313.371176900091
 20
788.2482159588792
 30
0.0
 40
37.50014114379883
100
AcDbArc
 50
53.13009643554687
 51
126.8699035644531
  0
ARC
  5
36A
330
1F
100
AcDbEntity
  8
C-2
  6
Continuous
 62
     3
370
     9
100
AcDbCircle
 10
358.371665181341
 20
848.2484906170819
 30
0.0
 40
37.50014114379883
100
AcDbArc
 50
233.1300964355469
 51
306.8699035644532
  0
ARC
  5
36B
330
1F
100
AcDbEntity
  8
C-2
  6
Continuous
 62
     3
370
     9
100
AcDbCircle
 10
220.0238868610285
 20
493.2827771161055
 30
0.0
 40
5.0
100
AcDbArc
 50
359.9943237304688
 51
90.0
  0
ARC
  5
36C
330
1F
100
AcDbEntity
  8
C-2
  6
Continuous
 62
     3
370
     9
100
AcDbCircle
 10
240.0239478961846
 20
493.2827771161055
 30
0.0
 40
5.0
100
AcDbArc
 50
90.0
 51
180.0
  0
ARC
  5
36D
330
1F
100
AcDbEntity
  8
C-2
  6
Continuous
 62
     3
370
     9
100
AcDbCircle
 10
295.0239478961846
 20
493.2827771161055
 30
0.0
 40
5.0
100
AcDbArc
 50
359.9943237304688
 51
90.0
  0
ARC
  5
36E
330
1F
100
AcDbEntity
  8
C-2
  6
Continuous
 62
     3
370
     9
100
AcDbCircle
 10
315.0240699664971
 20
493.2827771161055
 30
0.0
 40
5.0
100
AcDbArc
 50
90.0
 51
180.0
  0
ARC
  5
36F
330
1F
100
AcDbEntity
  8
C-2
  6
Continuous
 62
     3
370
     9
100
AcDbCircle
 10
370.0235816852472
 20
493.2827771161055
 30
0.0
 40
5.0
100
AcDbArc
 50
359.9943237304688
 51
90.0
  0
ARC
  5
370
330
1F
100
AcDbEntity
  8
C-2
  6
Continuous
 62
     3
370
     9
100
AcDbCircle
 10
390.0237037555597
 20
493.2827771161055
 30
0.0
 40
5.0
100
AcDbArc
 50
90.0
 51
180.0
  0
LWPOLYLINE
  5
371
330
1F
100
AcDbEntity
  8
C-4
  6
Continuous
 62
     7
370
     9
100
AcDbPolyline
 90
        4
 70
     1
 43
1.0
 10
234.6581031696222
 20
867.7447064373948
 42
0.4142135623731
 10
234.1581031696222
 20
868.2447064373947
 42
0.4142135623731
 10
233.6581031696222
 20
867.7447064373948
 42
0.4142135623731
 10
234.1581031696222
 20
867.2447064373948
 42
0.4142135623731
  0
LWPOLYLINE
  5
372
330
1F
100
AcDbEntity
  8
C-4
  6
Continuous
 62
     7
370
     9
100
AcDbPolyline
 90
        4
 70
     1
 43
1.0
 10
234.6581031696222
 20
907.7448895428633
 42
0.4142135623731
 10
234.1581031696222
 20
908.2448895428633
 42
0.4142135623731
 10
233.6581031696222
 20
907.7448895428633
 42
0.4142135623731
 10
234.1581031696222
 20
907.2448895428635
 42
0.4142135623731
  0
LWPOLYLINE
  5
373
330
1F
100
AcDbEntity
  8
C-4
  6
Continuous
 62
     7
370
     9
100
AcDbPolyline
 90
        4
 70
     1
 43
1.0
 10
234.6581031696222
 20
987.7452557538006
 42
0.4142135623731
 10
234.1581031696222
 20
988.2452557538006
 42
0.4142135623731
 10
233.6581031696222
 20
987.7452557538006
 42
0.4142135623731
 10
234.1581031696222
 20
987.2452557538007
 42
0.4142135623731
  0
LWPOLYLINE
  5
374
330
1F
100
AcDbEntity
  8
C-4
  6
Continuous
 62
     7
370
     9
100
AcDbPolyline
 90
        4
 70
     1
 43
1.0
 10
234.6581031696222
 20
997.7448285077073
 42
0.4142135623731
 10
234.1581031696222
 20
998.2448285077073
 42
0.4142135623731
 10
233.6581031696222
 20
997.7448285077073
 42
0.4142135623731
 10
234.1581031696222
 20
997.2448285077074
 42
0.4142135623731
  0
LWPOLYLINE
  5
375
330
1F
100
AcDbEntity
  8
C-4
  6
Continuous
 62
     7
370
     9
100
AcDbPolyline
 90
        4
 70
     1
 43
1.0
 10
234.6581031696222
 20
1077.744706437395
 42
0.4142135623731
 10
234.1581031696222
 20
1078.244706437395
 42
0.4142135623731
 10
233.6581031696222
 20
1077.744706437395
 42
0.4142135623731
 10
234.1581031696222
 20
1077.244706437395
 42
0.4142135623731
  0
LWPOLYLINE
  5
376
330
1F
100
AcDbEntity
  8
C-4
  6
Continuous
 62
     7
370
     9
100
AcDbPolyline
 90
        4
 70
     1
 43
1.0
 10
234.6581031696222
 20
1117.744889542863
 42
0.4142135623731
 10
234.1581031696222
 20
1118.244889542863
 42
0.4142135623731
 10
233.6581031696222
 20
1117.744889542863
 42
0.4142135623731
 10
234.1581031696222
 20
1117.244889542863
 42
0.4142135623731
  0
LWPOLYLINE
  5
377
330
1F
100
AcDbEntity
  8
C-4
  6
Continuous
 62
     7
370
     9
100
AcDbPolyline
 90
        4
 70
     1
 43
1.0
 10
448.8229591266534
 20
941.2886517498944
 42
0.4142135623731
 10
448.3229591266535
 20
941.7886517498944
 42
0.4142135623731
 10
447.8229591266535
 20
941.2886517498944
 42
0.4142135623731
 10
448.3229591266535
 20
940.7886517498945
 42
0.4142135623731
  0
LWPOLYLINE
  5
378
330
1F
100
AcDbEntity
  8
C-4
  6
Continuous
 62
     7
370
     9
100
AcDbPolyline
 90
        4
 70
     1
 43
1.0
 10
450.2598487750909
 20
946.0778363202073
 42
0.4142135623731
 10
449.7598487750909
 20
946.5778363202072
 42
0.4142135623731
 10
449.259848775091
 20
946.0778363202073
 42
0.4142135623731
 10
449.7598487750909
 20
945.5778363202073
 42
0.4142135623731
  0
LWPOLYLINE
  5
379
330
1F
100
AcDbEntity
  8
C-4
  6
Continuous
 62
     7
370
     9
100
AcDbPolyline
 90
        4
 70
     1
 43
1.0
 10
306.3717872516535
 20
1210.362138078019
 42
0.4142135623731
 10
305.8717872516535
 20
1210.862138078019
 42
0.4142135623731
 10
305.3717872516534
 20
1210.362138078019
 42
0.4142135623731
 10
305.8717872516535
 20
1209.862138078019
 42
0.4142135623731
  0
LWPOLYLINE
  5
37A
330
1F
100
AcDbEntity
  8
C-4
  6
Continuous
 62
     7
370
     9
100
AcDbPolyline
 90
        4
 70
     1
 43
1.0
 10
366.3710548297785
 20
1210.362138078019
 42
0.4142135623731
 10
365.8710548297785
 20
1210.862138078019
 42
0.4142135623731
 10
365.3710548297785
 20
1210.362138078019
 42
0.4142135623731
 10
365.8710548297785
 20
1209.862138078019
 42
0.4142135623731
  0
LWPOLYLINE
  5
37B
330
1F
100
AcDbEntity
  8
C-4
  6
Continuous
 62
     7
370
     9
100
AcDbPolyline
 90
        4
 70
     1
 43
1.0
 10
510.8170997516534
 20
408.2826245282149
 42
0.4142135623731
 10
510.3170997516534
 20
408.7826245282149
 42
0.4142135623731
 10
509.8170997516535
 20
408.2826245282149
 42
0.4142135623731
 10
510.3170997516534
 20
407.7826245282149
 42
0.4142135623731
  0
LWPOLYLINE
  5
37C
330
1F
100
AcDbEntity
  8
C-4
  6
Continuous
 62
     7
370
     9
100
AcDbPolyline
 90
        4
 70
     1
 43
1.0
 10
510.8170997516534
 20
508.2825940106366
 42
0.4142135623731
 10
510.3170997516534
 20
508.7825940106366
 42
0.4142135623731
 10
509.8170997516535
 20
508.2825940106366
 42
0.4142135623731
 10
510.3170997516534
 20
507.7825940106367
 42
0.4142135623731
  0
LWPOLYLINE
  5
37D
330
1F
100
AcDbEntity
  8
C-4
  6
Continuous
 62
     7
370
     9
100
AcDbPolyline
 90
        4
 70
     1
 43
1.0
 10
215.5241310016534
 20
571.1674969647381
 42
0.4142135623731
 10
215.0241310016534
 20
571.6674969647381
 42
0.4142135623731
 10
214.5241310016534
 20
571.1674969647381
 42
0.4142135623731
 10
215.0241310016534
 20
570.6674969647382
 42
0.4142135623731
  0
LWPOLYLINE
  5
37E
330
1F
100
AcDbEntity
  8
C-4
  6
Continuous
 62
     7
370
     9
100
AcDbPolyline
 90
        4
 70
     1
 43
1.0
 10
245.5237647907159
 20
571.1674969647381
 42
0.4142135623731
 10
245.0237647907159
 20
571.6674969647381
 42
0.4142135623731
 10
244.5237647907159
 20
571.1674969647381
 42
0.4142135623731
 10
245.0237647907159
 20
570.6674969647382
 42
0.4142135623731
  0
LWPOLYLINE
  5
37F
330
1F
100
AcDbEntity
  8
C-4
  6
Continuous
 62
     7
370
     9
100
AcDbPolyline
 90
        4
 70
     1
 43
1.0
 10
290.5241920368097
 20
571.1674969647381
 42
0.4142135623731
 10
290.0241920368097
 20
571.6674969647381
 42
0.4142135623731
 10
289.5241920368097
 20
571.1674969647381
 42
0.4142135623731
 10
290.0241920368097
 20
570.6674969647382
 42
0.4142135623731
  0
LWPOLYLINE
  5
380
330
1F
100
AcDbEntity
  8
C-4
  6
Continuous
 62
     7
370
     9
100
AcDbPolyline
 90
        4
 70
     1
 43
1.0
 10
320.5238258258721
 20
571.1674969647381
 42
0.4142135623731
 10
320.0238258258722
 20
571.6674969647381
 42
0.4142135623731
 10
319.5238258258722
 20
571.1674969647381
 42
0.4142135623731
 10
320.0238258258722
 20
570.6674969647382
 42
0.4142135623731
  0
LWPOLYLINE
  5
381
330
1F
100
AcDbEntity
  8
C-4
  6
Continuous
 62
     7
370
     9
100
AcDbPolyline
 90
        4
 70
     1
 43
1.0
 10
365.5243141071222
 20
571.1674969647381
 42
0.4142135623731
 10
365.0243141071222
 20
571.6674969647381
 42
0.4142135623731
 10
364.5243141071222
 20
571.1674969647381
 42
0.4142135623731
 10
365.0243141071222
 20
570.6674969647382
 42
0.4142135623731
  0
LWPOLYLINE
  5
382
330
1F
100
AcDbEntity
  8
C-4
  6
Continuous
 62
     7
370
     9
100
AcDbPolyline
 90
        4
 70
     1
 43
1.0
 10
395.5239478961846
 20
571.1674969647381
 42
0.4142135623731
 10
395.0239478961846
 20
571.6674969647381
 42
0.4142135623731
 10
394.5239478961847
 20
571.1674969647381
 42
0.4142135623731
 10
395.0239478961846
 20
570.6674969647382
 42
0.4142135623731
  0
LWPOLYLINE
  5
383
330
1F
100
AcDbEntity
  8
C-4
  6
Continuous
 62
     7
370
     9
100
AcDbPolyline
 90
        4
 70
     1
 43
1.0
 10
215.5241310016534
 20
634.2847760174726
 42
0.4142135623731
 10
215.0241310016534
 20
634.7847760174726
 42
0.4142135623731
 10
214.5241310016534
 20
634.2847760174726
 42
0.4142135623731
 10
215.0241310016534
 20
633.7847760174726
 42
0.4142135623731
  0
LWPOLYLINE
  5
384
330
1F
100
AcDbEntity
  8
C-4
  6
Continuous
 62
     7
370
     9
100
AcDbPolyline
 90
        4
 70
     1
 43
1.0
 10
290.5241920368097
 20
634.2847760174726
 42
0.4142135623731
 10
290.0241920368097
 20
634.7847760174726
 42
0.4142135623731
 10
289.5241920368097
 20
634.2847760174726
 42
0.4142135623731
 10
290.0241920368097
 20
633.7847760174726
 42
0.4142135623731
  0
LWPOLYLINE
  5
385
330
1F
100
AcDbEntity
  8
C-4
  6
Continuous
 62
     7
370
     9
100
AcDbPolyline
 90
        4
 70
     1
 43
1.0
 10
365.5243141071222
 20
634.2847760174726
 42
0.4142135623731
 10
365.0243141071222
 20
634.7847760174726
 42
0.4142135623731
 10
364.5243141071222
 20
634.2847760174726
 42
0.4142135623731
 10
365.0243141071222
 20
633.7847760174726
 42
0.4142135623731
  0
TEXT
  5
386
330
1F
100
AcDbEntity
  8
C-5
  6
Continuous
 62
     2
370
     9
100
AcDbText
 10
124.3047706500909
 20
312.2856253979658
 30
0.0
 40
30.48
  1
Ａ断面図　Ｓ＝１：２
 41
1.1125
  7
ＭＳ ゴシック
100
AcDbText
  0
TEXT
  5
387
330
1F
100
AcDbEntity
  8
C-5
  6
Continuous
 62
     7
370
     9
100
AcDbText
 10
113.5654518024346
 20
759.4760492108321
 30
0.0
 40
22.86
  1
メインバー表面　Ｓ＝１：１
 41
1.153846153846154
  7
ＭＳ ゴシック
100
AcDbText
  0
TEXT
  5
388
330
1F
100
AcDbEntity
  8
C-5
  6
Continuous
 62
     7
370
     9
100
AcDbText
 10
399.8106910602472
 20
1106.90024354677
 30
0.0
 40
22.86
  1
デルタパターン
 41
1.142857142857143
  7
ＭＳ ゴシック
100
AcDbText
  0
TEXT
  5
389
330
1F
100
AcDbEntity
  8
C-4
  6
Continuous
 62
     2
370
     9
100
AcDbText
 10
223.5183473102472
 20
877.7447672260187
 30
0.0
 40
30.48
  1
4
 50
90.00000250447768
 41
1.000000000000001
  7
ＭＳ ゴシック
100
AcDbText
  0
TEXT
  5
38A
330
1F
100
AcDbEntity
  8
C-4
  6
Continuous
 62
     2
370
     9
100
AcDbText
 10
223.5183473102472
 20
937.7450113666439
 30
0.0
 40
30.48
  1
8
 50
90.00000250447768
 41
1.000000000000001
  7
ＭＳ ゴシック
100
AcDbText
  0
TEXT
  5
38B
330
1F
100
AcDbEntity
  8
C-4
  6
Continuous
 62
     2
370
     9
100
AcDbText
 10
223.5183473102472
 20
982.7450113666439
 30
0.0
 40
30.48
  1
1
 50
90.00000250447768
 41
1.000000000000001
  7
ＭＳ ゴシック
100
AcDbText
  0
TEXT
  5
38C
330
1F
100
AcDbEntity
  8
C-4
  6
Continuous
 62
     2
370
     9
100
AcDbText
 10
223.5183473102472
 20
1027.744706190863
 30
0.0
 40
30.48
  1
8
 50
90.00000250447768
 41
1.000000000000001
  7
ＭＳ ゴシック
100
AcDbText
  0
TEXT
  5
38D
330
1F
100
AcDbEntity
  8
C-4
  6
Continuous
 62
     2
370
     9
100
AcDbText
 10
223.5183473102472
 20
1087.744767226019
 30
0.0
 40
30.48
  1
4
 50
90.00000250447768
 41
1.000000000000001
  7
ＭＳ ゴシック
100
AcDbText
  0
TEXT
  5
38E
330
1F
100
AcDbEntity
  8
C-4
  6
Continuous
 62
     2
370
     9
100
AcDbText
 10
442.2852020133759
 20
958.7484159944323
 30
0.0
 40
30.48
  1
0.5
 50
73.30064077628148
 41
1.083333333333329
  7
ＭＳ ゴシック
100
AcDbText
  0
TEXT
  5
38F
330
1F
100
AcDbEntity
  8
C-4
  6
Continuous
 62
     2
370
     9
100
AcDbText
 10
325.8713600055597
 20
1221.002138078019
 30
0.0
 40
30.48
  1
6
 41
0.9999999999999998
  7
ＭＳ ゴシック
100
AcDbText
  0
TEXT
  5
390
330
1F
100
AcDbEntity
  8
C-4
  6
Continuous
 62
     2
370
     9
100
AcDbText
 10
499.6767335407159
 20
437.032700575628
 30
0.0
 40
30.48
  1
20
 50
90.00000250447789
 41
1.062500000000001
  7
ＭＳ ゴシック
100
AcDbText
  0
TEXT
  5
391
330
1F
100
AcDbEntity
  8
C-4
  6
Continuous
 62
     2
370
     9
100
AcDbText
 10
220.0238868610285
 20
581.8072833416915
 30
0.0
 40
30.48
  1
6
 41
0.9999999999999998
  7
ＭＳ ゴシック
100
AcDbText
  0
TEXT
  5
392
330
1F
100
AcDbEntity
  8
C-4
  6
Continuous
 62
     2
370
     9
100
AcDbText
 10
257.5239478961846
 20
581.8072833416915
 30
0.0
 40
30.48
  1
9
 41
0.9999999999999998
  7
ＭＳ ゴシック
100
AcDbText
  0
TEXT
  5
393
330
1F
100
AcDbEntity
  8
C-4
  6
Continuous
 62
     2
370
     9
100
AcDbText
 10
295.0239478961846
 20
581.8072833416915
 30
0.0
 40
30.48
  1
6
 41
0.9999999999999998
  7
ＭＳ ゴシック
100
AcDbText
  0
TEXT
  5
394
330
1F
100
AcDbEntity
  8
C-4
  6
Continuous
 62
     2
370
     9
100
AcDbText
 10
332.524008931341
 20
581.8072833416915
 30
0.0
 40
30.48
  1
9
 41
0.9999999999999998
  7
ＭＳ ゴシック
100
AcDbText
  0
TEXT
  5
395
330
1F
100
AcDbEntity
  8
C-4
  6
Continuous
 62
     2
370
     9
100
AcDbText
 10
370.0240699664971
 20
581.8072833416915
 30
0.0
 40
30.48
  1
6
 41
0.9999999999999998
  7
ＭＳ ゴシック
100
AcDbText
  0
TEXT
  5
396
330
1F
100
AcDbEntity
  8
C-4
  6
Continuous
 62
     2
370
     9
100
AcDbText
 10
231.2740089313409
 20
644.9245318768477
 30
0.0
 40
30.48
  1
15
 41
1.0625
  7
ＭＳ ゴシック
100
AcDbText
  0
TEXT
  5
397
330
1F
100
AcDbEntity
  8
C-4
  6
Continuous
 62
     2
370
     9
100
AcDbText
 10
306.2740699664971
 20
644.9245318768477
 30
0.0
 40
30.48
  1
15
 41
1.0625
  7
ＭＳ ゴシック
100
AcDbText
  0
TEXT
  5
398
330
1F
100
AcDbEntity
  8
C-5
  6
Continuous
 62
     7
370
     9
100
AcDbText
 10
-25.00028306084658
 20
700.7947137616134
 30
0.0
 40
22.86
  1
※デルタパターンの配列は一定ではありません。
 41
1.159090909090909
  7
ＭＳ ゴシック
100
AcDbText
  0
LINE
  5
399
330
1F
100
AcDbEntity
  8
D-9
  6
Continuous
 62
     4
370
     9
100
AcDbLine
 10
-459.1824814355871
 20
-398.7008766001654
 30
0.0
 11
-462.8073310530683
 21
-402.3257259196234
 31
0.0
  0
LINE
  5
39A
330
1F
100
AcDbEntity
  8
D-9
  6
Continuous
 62
     4
370
     9
100
AcDbLine
 10
-574.1827627695103
 20
-389.8255447215033
 30
0.0
 11
-459.1824814355871
 21
-389.8255447215033
 31
0.0
  0
LINE
  5
39B
330
1F
100
AcDbEntity
  8
D-9
  6
Continuous
 62
     4
370
     9
100
AcDbLine
 10
-459.1824814355871
 20
-391.6300395792913
 30
0.0
 11
-469.8786613023779
 21
-402.3257259196234
 31
0.0
  0
LINE
  5
39C
330
1F
100
AcDbEntity
  8
D-9
  6
Continuous
 62
     4
370
     9
100
AcDbLine
 10
-464.4493145546815
 20
-389.8255447215033
 30
0.0
 11
-476.9499918497106
 21
-402.3257259196234
 31
0.0
  0
LINE
  5
39D
330
1F
100
AcDbEntity
  8
D-9
  6
Continuous
 62
     4
370
     9
100
AcDbLine
 10
-471.5206446922323
 20
-389.8255447215033
 30
0.0
 11
-484.0213223970434
 21
-402.3257259196234
 31
0.0
  0
LINE
  5
39E
330
1F
100
AcDbEntity
  8
D-9
  6
Continuous
 62
     4
370
     9
100
AcDbLine
 10
-478.5919758356115
 20
-389.8255447215033
 30
0.0
 11
-491.0916611230871
 21
-402.3257259196234
 31
0.0
  0
LINE
  5
39F
330
1F
100
AcDbEntity
  8
D-9
  6
Continuous
 62
     4
370
     9
100
AcDbLine
 10
-485.6623145616552
 20
-389.8255447215033
 30
0.0
 11
-498.1629916704198
 21
-402.3257259196234
 31
0.0
  0
LINE
  5
3A0
330
1F
100
AcDbEntity
  8
D-9
  6
Continuous
 62
     4
370
     9
100
AcDbLine
 10
-492.733645108988
 20
-389.8255447215033
 30
0.0
 11
-505.2343222177526
 21
-402.3257259196234
 31
0.0
  0
LINE
  5
3A1
330
1F
100
AcDbEntity
  8
D-9
  6
Continuous
 62
     4
370
     9
100
AcDbLine
 10
-499.8049756563207
 20
-389.8255447215033
 30
0.0
 11
-511.2899395502111
 21
-401.3100150889349
 31
0.0
  0
LINE
  5
3A2
330
1F
100
AcDbEntity
  8
D-9
  6
Continuous
 62
     4
370
     9
100
AcDbLine
 10
-506.8763062036535
 20
-389.8255447215033
 30
0.0
 11
-516.7034336603185
 21
-399.6526721781683
 31
0.0
  0
LINE
  5
3A3
330
1F
100
AcDbEntity
  8
D-9
  6
Continuous
 62
     4
370
     9
100
AcDbLine
 10
-513.946647313883
 20
-389.8255447215033
 30
0.0
 11
-521.9197269952795
 21
-397.7986244028997
 31
0.0
  0
LINE
  5
3A4
330
1F
100
AcDbEntity
  8
D-9
  6
Continuous
 62
     4
370
     9
100
AcDbLine
 10
-521.01797547703
 20
-389.8255447215033
 30
0.0
 11
-527.136025098612
 21
-395.9440807169867
 31
0.0
  0
LINE
  5
3A5
330
1F
100
AcDbEntity
  8
D-9
  6
Continuous
 62
     4
370
     9
100
AcDbLine
 10
-528.0893036401769
 20
-389.8255447215033
 30
0.0
 11
-533.0895754373571
 21
-394.8258117503119
 31
0.0
  0
LINE
  5
3A6
330
1F
100
AcDbEntity
  8
D-9
  6
Continuous
 62
     4
370
     9
100
AcDbLine
 10
-535.1606365716955
 20
-389.8255447215033
 30
0.0
 11
-540.1599165475866
 21
-394.8258117503119
 31
0.0
  0
LINE
  5
3A7
330
1F
100
AcDbEntity
  8
D-9
  6
Continuous
 62
     4
370
     9
100
AcDbLine
 10
-570.5162951028843
 20
-389.8255447215033
 30
0.0
 11
-575.515579847147
 21
-394.8258117503119
 31
0.0
  0
LINE
  5
3A8
330
1F
100
AcDbEntity
  8
D-A
  6
JWW_DASHED3
 62
     3
370
     9
100
AcDbLine
 10
-439.1823884523412
 20
-372.3255828684759
 30
0.0
 11
-439.1823884523412
 21
-322.3253516024542
 31
0.0
  0
LINE
  5
3A9
330
1F
100
AcDbEntity
  8
D-A
  6
Continuous
 62
     3
370
     9
100
AcDbLine
 10
-414.1820236719152
 20
-347.3257163828802
 30
0.0
 11
-414.1820236719152
 21
-331.8259671992254
 31
0.0
  0
LINE
  5
3AA
330
1F
100
AcDbEntity
  8
D-A
  6
Continuous
 62
     3
370
     9
100
AcDbLine
 10
-439.1823884523412
 20
-322.3253516024542
 30
0.0
 11
-439.1823884523412
 21
-292.3257086342764
 31
0.0
  0
LINE
  5
3AB
330
1F
100
AcDbEntity
  8
D-A
  6
Continuous
 62
     3
370
     9
100
AcDbLine
 10
-289.1821810281774
 20
-410.8254913157415
 30
0.0
 11
-414.1820236719152
 21
-410.8254913157415
 31
0.0
  0
LINE
  5
3AC
330
1F
100
AcDbEntity
  8
D-A
  6
Continuous
 62
     3
370
     9
100
AcDbLine
 10
-417.1122261560461
 20
-394.3962386912298
 30
0.0
 11
-439.1823884523412
 21
-372.3255828684759
 31
0.0
  0
LINE
  5
3AD
330
1F
100
AcDbEntity
  8
D-A
  6
Continuous
 62
     3
370
     9
100
AcDbLine
 10
-414.1820236719152
 20
-422.3253158396673
 30
0.0
 11
-414.1820236719152
 21
-401.4675716227484
 31
0.0
  0
LINE
  5
3AE
330
1F
100
AcDbEntity
  8
D-A
  6
Continuous
 62
     3
370
     9
100
AcDbLine
 10
-289.1821810281774
 20
-422.3253158396673
 30
0.0
 11
-414.1820236719152
 21
-422.3253158396673
 31
0.0
  0
LINE
  5
3AF
330
1F
100
AcDbEntity
  8
D-A
  6
Continuous
 62
     3
370
     9
100
AcDbLine
 10
-439.1823884523412
 20
-404.8253635233831
 30
0.0
 11
-439.1823884523412
 21
-372.3255828684759
 31
0.0
  0
LINE
  5
3B0
330
1F
100
AcDbEntity
  8
D-A
  6
Continuous
 62
     3
370
     9
100
AcDbLine
 10
-439.1823884523412
 20
-404.8253635233831
 30
0.0
 11
-450.6822189367315
 21
-404.8253635233831
 31
0.0
  0
LINE
  5
3B1
330
1F
100
AcDbEntity
  8
D-A
  6
Continuous
 62
     3
370
     9
100
AcDbLine
 10
-450.6822189367315
 20
-292.3257086342764
 30
0.0
 11
-450.6822189367315
 21
-404.8253635233831
 31
0.0
  0
LINE
  5
3B2
330
1F
100
AcDbEntity
  8
D-A
  6
JWW_CENTER2
 62
     3
370
     9
100
AcDbLine
 10
-396.1875912225744
 20
-349.8258498972845
 30
0.0
 11
-456.6050526178381
 21
-349.8258498972845
 31
0.0
  0
LINE
  5
3B3
330
1F
100
AcDbEntity
  8
D-A
  6
JWW_DASHED3
 62
     3
370
     9
100
AcDbLine
 10
-414.1820236719152
 20
-359.8258975810003
 30
0.0
 11
-450.6822189367315
 21
-359.8258975810003
 31
0.0
  0
LINE
  5
3B4
330
1F
100
AcDbEntity
  8
D-A
  6
JWW_DASHED3
 62
     3
370
     9
100
AcDbLine
 10
-414.1820236719152
 20
-367.8257373637152
 30
0.0
 11
-414.1820236719152
 21
-347.3257163828802
 31
0.0
  0
LINE
  5
3B5
330
1F
100
AcDbEntity
  8
D-A
  6
JWW_DASHED3
 62
     3
370
     9
100
AcDbLine
 10
-414.1820236719152
 20
-358.5763267344427
 30
0.0
 11
-450.6822189367315
 21
-358.5763267344427
 31
0.0
  0
LINE
  5
3B6
330
1F
100
AcDbEntity
  8
D-A
  6
Continuous
 62
     3
370
     9
100
AcDbLine
 10
-452.9326387918493
 20
-339.8258069819403
 30
0.0
 11
-454.1822108304998
 21
-341.0758737391424
 31
0.0
  0
LINE
  5
3B7
330
1F
100
AcDbEntity
  8
D-A
  6
Continuous
 62
     3
370
     9
100
AcDbLine
 10
-452.9326387918493
 20
-359.8258975810003
 30
0.0
 11
-454.1822108304998
 21
-358.5763267344427
 31
0.0
  0
LINE
  5
3B8
330
1F
100
AcDbEntity
  8
D-A
  6
Continuous
 62
     3
370
     9
100
AcDbLine
 10
-452.9326387918493
 20
-339.8258069819403
 30
0.0
 11
-452.9326387918493
 21
-359.8258975810003
 31
0.0
  0
LINE
  5
3B9
330
1F
100
AcDbEntity
  8
D-A
  6
Continuous
 62
     3
370
     9
100
AcDbLine
 10
-450.6822189367315
 20
-341.0758737391424
 30
0.0
 11
-454.1822108304998
 21
-341.0758737391424
 31
0.0
  0
LINE
  5
3BA
330
1F
100
AcDbEntity
  8
D-A
  6
Continuous
 62
     3
370
     9
100
AcDbLine
 10
-450.6822189367315
 20
-339.8258069819403
 30
0.0
 11
-452.9326387918493
 21
-339.8258069819403
 31
0.0
  0
LINE
  5
3BB
330
1F
100
AcDbEntity
  8
D-A
  6
Continuous
 62
     3
370
     9
100
AcDbLine
 10
-450.6822189367315
 20
-358.5763267344427
 30
0.0
 11
-454.1822108304998
 21
-358.5763267344427
 31
0.0
  0
LINE
  5
3BC
330
1F
100
AcDbEntity
  8
D-A
  6
Continuous
 62
     3
370
     9
100
AcDbLine
 10
-450.6822189367315
 20
-359.8258975810003
 30
0.0
 11
-452.9326387918493
 21
-359.8258975810003
 31
0.0
  0
LINE
  5
3BD
330
1F
100
AcDbEntity
  8
D-A
  6
Continuous
 62
     3
370
     9
100
AcDbLine
 10
-407.682466176798
 20
-331.8259671992254
 30
0.0
 11
-414.1820236719152
 21
-331.8259671992254
 31
0.0
  0
LINE
  5
3BE
330
1F
100
AcDbEntity
  8
D-A
  6
JWW_DASHED3
 62
     3
370
     9
100
AcDbLine
 10
-407.682466176798
 20
-367.8257373637152
 30
0.0
 11
-414.1820236719152
 21
-367.8257373637152
 31
0.0
  0
LINE
  5
3BF
330
1F
100
AcDbEntity
  8
D-A
  6
JWW_DASHED3
 62
     3
370
     9
100
AcDbLine
 10
-401.1829086816808
 20
-361.3256791895819
 30
0.0
 11
-401.1829086816808
 21
-360.3263191050482
 31
0.0
  0
LINE
  5
3C0
330
1F
100
AcDbEntity
  8
D-A
  6
Continuous
 62
     3
370
     9
100
AcDbLine
 10
-401.1829086816808
 20
-338.3250287836981
 30
0.0
 11
-401.1829086816808
 21
-360.3263191050482
 31
0.0
  0
LINE
  5
3C1
330
1F
100
AcDbEntity
  8
D-A
  6
Continuous
 62
     3
370
     9
100
AcDbLine
 10
-414.1820236719152
 20
-339.8258069819403
 30
0.0
 11
-421.6824337518713
 21
-339.8258069819403
 31
0.0
  0
LINE
  5
3C2
330
1F
100
AcDbEntity
  8
D-A
  6
Continuous
 62
     3
370
     9
100
AcDbLine
 10
-414.1820236719152
 20
-341.0758737391424
 30
0.0
 11
-420.4328581369421
 21
-341.0758737391424
 31
0.0
  0
LINE
  5
3C3
330
1F
100
AcDbEntity
  8
D-A
  6
JWW_DASHED3
 62
     3
370
     9
100
AcDbLine
 10
-421.6824337518713
 20
-339.8258069819403
 30
0.0
 11
-450.6822189367315
 21
-339.8258069819403
 31
0.0
  0
LINE
  5
3C4
330
1F
100
AcDbEntity
  8
D-A
  6
JWW_DASHED3
 62
     3
370
     9
100
AcDbLine
 10
-450.6822189367315
 20
-341.0758737391424
 30
0.0
 11
-420.4328581369421
 21
-341.0758737391424
 31
0.0
  0
LINE
  5
3C5
330
1F
100
AcDbEntity
  8
D-A
  6
Continuous
 62
     3
370
     9
100
AcDbLine
 10
-397.9702850854894
 20
-363.5384467905951
 30
0.0
 11
-439.1823884523412
 21
-322.3253516024542
 31
0.0
  0
LINE
  5
3C6
330
1F
100
AcDbEntity
  8
D-A
  6
Continuous
 62
     3
370
     9
100
AcDbLine
 10
-376.7563005960485
 20
-372.3255828684759
 30
0.0
 11
-299.1827341592809
 21
-372.3255828684759
 31
0.0
  0
LINE
  5
3C7
330
1F
100
AcDbEntity
  8
D-4
  6
Continuous
 62
     7
370
     9
100
AcDbLine
 10
-1161.850371030619
 20
-166.4067748850775
 30
0.0
 11
-589.1825911081334
 21
-166.4067748850775
 31
0.0
  0
LINE
  5
3C8
330
1F
100
AcDbEntity
  8
D-4
  6
Continuous
 62
     7
370
     9
100
AcDbLine
 10
-589.1825911081334
 20
-271.8697849577856
 30
0.0
 11
-589.1825911081334
 21
-163.4057239359808
 31
0.0
  0
LINE
  5
3C9
330
1F
100
AcDbEntity
  8
D-4
  6
Continuous
 62
     7
370
     9
100
AcDbLine
 10
-589.1825911081334
 20
-166.4067748850775
 30
0.0
 11
-464.1817614114782
 21
-166.4067748850775
 31
0.0
  0
LINE
  5
3CA
330
1F
100
AcDbEntity
  8
D-4
  6
Continuous
 62
     7
370
     9
100
AcDbLine
 10
-464.1817614114782
 20
-271.8697849577856
 30
0.0
 11
-464.1817614114782
 21
-54.65478933515072
 31
0.0
  0
LINE
  5
3CB
330
1F
100
AcDbEntity
  8
D-4
  6
Continuous
 62
     7
370
     9
100
AcDbLine
 10
-459.1814908063909
 20
-271.8697849577856
 30
0.0
 11
-459.1814908063909
 21
-54.65478933515072
 31
0.0
  0
LINE
  5
3CC
330
1F
100
AcDbEntity
  8
D-4
  6
Continuous
 62
     7
370
     9
100
AcDbLine
 10
-434.1831084764501
 20
-271.8697849577856
 30
0.0
 11
-434.1831084764501
 21
56.04185067949771
 31
0.0
  0
LINE
  5
3CD
330
1F
100
AcDbEntity
  8
D-5
  6
Continuous
 62
     7
370
     9
100
AcDbLine
 10
-297.7518221414587
 20
-179.2770770853949
 30
0.0
 11
-38.37045159702505
 21
-179.2770770853949
 31
0.0
  0
LINE
  5
3CE
330
1F
100
AcDbEntity
  8
D-4
  6
Continuous
 62
     7
370
     9
100
AcDbLine
 10
-589.1815992868443
 20
-847.4093059367135
 30
0.0
 11
-189.1807314432165
 21
-847.4093059367135
 31
0.0
  0
LINE
  5
3CF
330
1F
100
AcDbEntity
  8
D-4
  6
Continuous
 62
     7
370
     9
100
AcDbLine
 10
-189.1807314432165
 20
-607.1990970438912
 30
0.0
 11
-189.1807314432165
 21
-850.4083446330026
 31
0.0
  0
LINE
  5
3D0
330
1F
100
AcDbEntity
  8
D-4
  6
Continuous
 62
     7
370
     9
100
AcDbLine
 10
-589.1815992868443
 20
-692.9444316691354
 30
0.0
 11
-439.1823884523412
 21
-692.9444316691354
 31
0.0
  0
LINE
  5
3D1
330
1F
100
AcDbEntity
  8
D-4
  6
Continuous
 62
     7
370
     9
100
AcDbLine
 10
82.503114076803
 20
-537.32610738935
 30
0.0
 11
82.503114076803
 21
-287.3259333437872
 31
0.0
  0
LINE
  5
3D2
330
1F
100
AcDbEntity
  8
D-4
  6
Continuous
 62
     7
370
     9
100
AcDbLine
 10
-13.15206017856802
 20
-287.3259333437872
 30
0.0
 11
85.50367865199831
 21
-287.3259333437872
 31
0.0
  0
LINE
  5
3D3
330
1F
100
AcDbEntity
  8
D-6
  6
Continuous
 62
     6
370
     5
100
AcDbLine
 10
-439.1823884523412
 20
-537.32610738935
 30
0.0
 11
-439.1823884523412
 21
-787.3257640665963
 31
0.0
  0
LINE
  5
3D4
330
1F
100
AcDbEntity
  8
D-6
  6
JWW_DASHED3
 62
     6
370
     5
100
AcDbLine
 10
-345.6804987466833
 20
-664.825573331733
 30
0.0
 11
-345.6804987466833
 21
-537.32610738935
 31
0.0
  0
LINE
  5
3D5
330
1F
100
AcDbEntity
  8
D-6
  6
JWW_DASHED3
 62
     6
370
     5
100
AcDbLine
 10
-300.6810328043005
 20
-537.32610738935
 30
0.0
 11
-300.6810328043005
 21
-664.825573331733
 31
0.0
  0
LINE
  5
3D6
330
1F
100
AcDbEntity
  8
D-6
  6
Continuous
 62
     6
370
     5
100
AcDbLine
 10
-189.1827150857946
 20
-437.3261359995794
 30
0.0
 11
-24.18221917515005
 21
-437.3261359995794
 31
0.0
  0
LINE
  5
3D7
330
1F
100
AcDbEntity
  8
D-6
  6
Continuous
 62
     6
370
     5
100
AcDbLine
 10
-189.1827150857946
 20
-437.3261359995794
 30
0.0
 11
-189.1827150857946
 21
-537.32610738935
 31
0.0
  0
LINE
  5
3D8
330
1F
100
AcDbEntity
  8
D-4
  6
Continuous
 62
     7
370
     9
100
AcDbLine
 10
-133.4028383768102
 20
-537.32610738935
 30
0.0
 11
85.50367865199831
 21
-537.32610738935
 31
0.0
  0
LINE
  5
3D9
330
1F
100
AcDbEntity
  8
D-6
  6
Continuous
 62
     6
370
     5
100
AcDbLine
 10
-439.1823884523412
 20
-537.32610738935
 30
0.0
 11
-189.1827150857946
 21
-537.32610738935
 31
0.0
  0
LINE
  5
3DA
330
1F
100
AcDbEntity
  8
D-6
  6
Continuous
 62
     6
370
     5
100
AcDbLine
 10
-345.6804987466833
 20
-339.8262981242132
 30
0.0
 11
-300.6810328043005
 21
-339.8262981242132
 31
0.0
  0
LINE
  5
3DB
330
1F
100
AcDbEntity
  8
D-6
  6
JWW_CENTER2
 62
     6
370
     5
100
AcDbLine
 10
-323.1812616861364
 20
-335.7461170023871
 30
0.0
 11
-323.1812616861364
 21
-664.825573331733
 31
0.0
  0
LINE
  5
3DC
330
1F
100
AcDbEntity
  8
D-4
  6
Continuous
 62
     7
370
     9
100
AcDbLine
 10
-434.1821190393468
 20
-425.2936748331976
 30
0.0
 11
-434.1821190393468
 21
-480.8565334147406
 31
0.0
  0
LINE
  5
3DD
330
1F
100
AcDbEntity
  8
D-4
  6
Continuous
 62
     7
370
     9
100
AcDbLine
 10
-277.3553415811559
 20
-422.3258117503119
 30
0.0
 11
-198.1318804300329
 21
-422.3258117503119
 31
0.0
  0
LINE
  5
3DE
330
1F
100
AcDbEntity
  8
D-4
  6
Continuous
 62
     7
370
     9
100
AcDbLine
 10
-277.3553415811559
 20
-372.3260787791205
 30
0.0
 11
-198.1318804300329
 21
-372.3260787791205
 31
0.0
  0
LINE
  5
3DF
330
1F
100
AcDbEntity
  8
D-4
  6
Continuous
 62
     7
370
     9
100
AcDbLine
 10
-201.1314341104528
 20
-372.3260787791205
 30
0.0
 11
-201.1314341104528
 21
-287.3259333437872
 31
0.0
  0
LINE
  5
3E0
330
1F
100
AcDbEntity
  8
D-6
  6
Continuous
 62
     6
370
     5
100
AcDbLine
 10
-345.6804987466833
 20
-372.3255828684759
 30
0.0
 11
-345.6804987466833
 21
-339.8262981242132
 31
0.0
  0
LINE
  5
3E1
330
1F
100
AcDbEntity
  8
D-6
  6
Continuous
 62
     6
370
     5
100
AcDbLine
 10
-300.6810328043005
 20
-372.3255828684759
 30
0.0
 11
-300.6810328043005
 21
-339.8262981242132
 31
0.0
  0
LINE
  5
3E2
330
1F
100
AcDbEntity
  8
D-6
  6
Continuous
 62
     6
370
     5
100
AcDbLine
 10
-345.6804987466833
 20
-537.32610738935
 30
0.0
 11
-345.6804987466833
 21
-422.3253158396673
 31
0.0
  0
LINE
  5
3E3
330
1F
100
AcDbEntity
  8
D-6
  6
Continuous
 62
     6
370
     5
100
AcDbLine
 10
-300.6810328043005
 20
-537.32610738935
 30
0.0
 11
-300.6810328043005
 21
-422.3253158396673
 31
0.0
  0
LINE
  5
3E4
330
1F
100
AcDbEntity
  8
D-4
  6
Continuous
 62
     7
370
     9
100
AcDbLine
 10
-734.6651026285191
 20
-412.3257736033392
 30
0.0
 11
-734.6651026285191
 21
-287.3259333437872
 31
0.0
  0
LINE
  5
3E5
330
1F
100
AcDbEntity
  8
D-4
  6
Continuous
 62
     7
370
     9
100
AcDbLine
 10
-594.1065546548863
 20
-412.3257736033392
 30
0.0
 11
-737.6646753824253
 21
-412.3257736033392
 31
0.0
  0
LINE
  5
3E6
330
1F
100
AcDbEntity
  8
D-4
  6
Continuous
 62
     7
370
     9
100
AcDbLine
 10
-1161.850371030619
 20
53.0412861043024
 30
0.0
 11
-434.1831084764501
 21
53.0412861043024
 31
0.0
  0
LINE
  5
3E7
330
1F
100
AcDbEntity
  8
D-4
  6
Continuous
 62
     7
370
     9
100
AcDbLine
 10
-471.462179688265
 20
-287.3259333437872
 30
0.0
 11
-737.6646753824253
 21
-287.3259333437872
 31
0.0
  0
LINE
  5
3E8
330
1F
100
AcDbEntity
  8
D-4
  6
Continuous
 62
     7
370
     9
100
AcDbLine
 10
-1161.850371030619
 20
-57.65436208905697
 30
0.0
 11
-434.1831084764501
 21
-57.65436208905697
 31
0.0
  0
LINE
  5
3E9
330
1F
100
AcDbEntity
  8
D-4
  6
Continuous
 62
     7
370
     9
100
AcDbLine
 10
-434.1821190393468
 20
-477.8564647501898
 30
0.0
 11
-289.1821810281774
 21
-477.8564647501898
 31
0.0
  0
LINE
  5
3EA
330
1F
100
AcDbEntity
  8
D-5
  6
Continuous
 62
     2
370
     9
100
AcDbLine
 10
-931.1769243753453
 20
-983.2678035563424
 30
0.0
 11
-931.1769243753453
 21
-918.2682613200143
 31
0.0
  0
LINE
  5
3EB
330
1F
100
AcDbEntity
  8
D-5
  6
Continuous
 62
     2
370
     9
100
AcDbLine
 10
-931.1769243753453
 20
-918.2682613200143
 30
0.0
 11
-356.1765047586462
 21
-918.2682613200143
 31
0.0
  0
LINE
  5
3EC
330
1F
100
AcDbEntity
  8
D-5
  6
Continuous
 62
     2
370
     9
100
AcDbLine
 10
-356.1765047586462
 20
-918.2682613200143
 30
0.0
 11
-356.1765047586462
 21
-983.2678035563424
 31
0.0
  0
LINE
  5
3ED
330
1F
100
AcDbEntity
  8
D-5
  6
Continuous
 62
     2
370
     9
100
AcDbLine
 10
-356.1765047586462
 20
-983.2678035563424
 30
0.0
 11
-931.1769243753453
 21
-983.2678035563424
 31
0.0
  0
LINE
  5
3EE
330
1F
100
AcDbEntity
  8
D-4
  6
Continuous
 62
     7
370
     9
100
AcDbLine
 10
-201.1314341104528
 20
-422.3258117503119
 30
0.0
 11
-201.1314341104528
 21
-372.3260787791205
 31
0.0
  0
LINE
  5
3EF
330
1F
100
AcDbEntity
  8
D-4
  6
Continuous
 62
     7
370
     9
100
AcDbLine
 10
-589.1815992868443
 20
-812.3261455363229
 30
0.0
 11
-589.1815992868443
 21
-850.4083446330026
 31
0.0
  0
LINE
  5
3F0
330
1F
100
AcDbEntity
  8
D-A
  6
Continuous
 62
     3
370
     9
100
AcDbLine
 10
-450.6822189367315
 20
-292.3257086342764
 30
0.0
 11
-439.1823884523412
 21
-292.3257086342764
 31
0.0
  0
LINE
  5
3F1
330
1F
100
AcDbEntity
  8
D-5
  6
Continuous
 62
     7
370
     9
100
AcDbLine
 10
-408.9835688150426
 20
-381.0433582133246
 30
0.0
 11
-395.172872213175
 21
-360.2039388483954
 31
0.0
  0
LINE
  5
3F2
330
1F
100
AcDbEntity
  8
D-5
  6
Continuous
 62
     7
370
     9
100
AcDbLine
 10
-408.9835688150426
 20
-381.0433582133246
 30
0.0
 11
-390.2489038980505
 21
-364.4892505473089
 31
0.0
  0
LINE
  5
3F3
330
1F
100
AcDbEntity
  8
D-5
  6
Continuous
 62
     7
370
     9
100
AcDbLine
 10
-408.9825769937536
 20
-381.0423663920355
 30
0.0
 11
-283.074049619486
 21
-236.3798526591253
 31
0.0
  0
LINE
  5
3F4
330
1F
100
AcDbEntity
  8
D-5
  6
Continuous
 62
     7
370
     9
100
AcDbLine
 10
-283.074049619486
 20
-236.3798526591253
 30
0.0
 11
103.6269238912561
 21
-236.3798526591253
 31
0.0
  0
LINE
  5
3F5
330
1F
100
AcDbEntity
  8
D-5
  6
Continuous
 62
     7
370
     9
100
AcDbLine
 10
-486.2657949007055
 20
-395.8677867716742
 30
0.0
 11
-472.4531170404455
 21
-375.029850370307
 31
0.0
  0
LINE
  5
3F6
330
1F
100
AcDbEntity
  8
D-5
  6
Continuous
 62
     7
370
     9
100
AcDbLine
 10
-486.2657949007055
 20
-395.8677867716742
 30
0.0
 11
-467.5321212089559
 21
-379.3136791056585
 31
0.0
  0
LINE
  5
3F7
330
1F
100
AcDbEntity
  8
D-5
  6
Continuous
 62
     7
370
     9
100
AcDbLine
 10
-436.1342641389867
 20
-290.1218636623216
 30
0.0
 11
-422.3235699213049
 21
-269.2834380930853
 31
0.0
  0
LINE
  5
3F8
330
1F
100
AcDbEntity
  8
D-5
  6
Continuous
 62
     7
370
     9
100
AcDbLine
 10
-436.1342641389867
 20
-290.1218636623216
 30
0.0
 11
-417.3996016061803
 21
-273.5677567786169
 31
0.0
  0
LINE
  5
3F9
330
1F
100
AcDbEntity
  8
D-5
  6
Continuous
 62
     7
370
     9
100
AcDbLine
 10
-291.9082590616247
 20
-124.4143108195257
 30
0.0
 11
-436.1342641389867
 21
-290.1218636623216
 31
0.0
  0
LINE
  5
3FA
330
1F
100
AcDbEntity
  8
D-5
  6
Continuous
 62
     7
370
     9
100
AcDbLine
 10
-291.9082590616247
 20
-124.4143108195257
 30
0.0
 11
156.8799069845178
 21
-124.4143108195257
 31
0.0
  0
LINE
  5
3FB
330
1F
100
AcDbEntity
  8
D-6
  6
Continuous
 62
     6
370
     5
100
AcDbLine
 10
-437.1826764619848
 20
-287.3259333437872
 30
0.0
 11
-24.18221917515005
 21
-287.3259333437872
 31
0.0
  0
LINE
  5
3FC
330
1F
100
AcDbEntity
  8
D-6
  6
Continuous
 62
     6
370
     5
100
AcDbLine
 10
-589.1815992868443
 20
-407.3254970377874
 30
0.0
 11
-589.1815992868443
 21
-787.3257640665963
 31
0.0
  0
LINE
  5
3FD
330
1F
100
AcDbEntity
  8
D-A
  6
Continuous
 62
     3
370
     9
100
AcDbLine
 10
-289.1821810281774
 20
-382.3256305521917
 30
0.0
 11
-289.1821810281774
 21
-422.3253158396673
 31
0.0
  0
LINE
  5
3FE
330
1F
100
AcDbEntity
  8
D-1
  6
Continuous
 62
     2
370
     9
100
AcDbLine
 10
-439.1833802736303
 20
-292.3257086342764
 30
0.0
 11
-454.183201459696
 21
-292.3257086342764
 31
0.0
  0
LINE
  5
3FF
330
1F
100
AcDbEntity
  8
D-1
  6
Continuous
 62
     2
370
     9
100
AcDbLine
 10
-434.1831084764501
 20
-384.825764066596
 30
0.0
 11
-439.1833802736303
 21
-384.825764066596
 31
0.0
  0
LINE
  5
400
330
1F
100
AcDbEntity
  8
D-1
  6
Continuous
 62
     2
370
     9
100
AcDbLine
 10
-439.1833802736303
 20
-407.3254970377874
 30
0.0
 11
-439.1833802736303
 21
-384.825764066596
 31
0.0
  0
LINE
  5
401
330
1F
100
AcDbEntity
  8
D-1
  6
Continuous
 62
     2
370
     9
100
AcDbLine
 10
-434.1831084764501
 20
-314.8254422015142
 30
0.0
 11
-439.1833802736303
 21
-314.8254422015142
 31
0.0
  0
LINE
  5
402
330
1F
100
AcDbEntity
  8
D-1
  6
Continuous
 62
     2
370
     9
100
AcDbLine
 10
-439.1833802736303
 20
-314.8254422015142
 30
0.0
 11
-439.1833802736303
 21
-292.3257086342764
 31
0.0
  0
LINE
  5
403
330
1F
100
AcDbEntity
  8
D-1
  6
Continuous
 62
     2
370
     9
100
AcDbLine
 10
-434.1831084764501
 20
-290.3255013293219
 30
0.0
 11
-434.1831084764501
 21
-314.8254422015142
 31
0.0
  0
LINE
  5
404
330
1F
100
AcDbEntity
  8
D-1
  6
Continuous
 62
     2
370
     9
100
AcDbLine
 10
-434.1831084764501
 20
-409.3257049387884
 30
0.0
 11
-434.1831084764501
 21
-384.825764066596
 31
0.0
  0
LINE
  5
405
330
1F
100
AcDbEntity
  8
D-1
  6
Continuous
 62
     2
370
     9
100
AcDbLine
 10
-459.1834723628065
 20
-402.3257259196234
 30
0.0
 11
-509.1832062280675
 21
-402.3257259196234
 31
0.0
  0
LINE
  5
406
330
1F
100
AcDbEntity
  8
D-1
  6
Continuous
 62
     2
370
     9
100
AcDbLine
 10
-454.183201459696
 20
-402.3257259196234
 30
0.0
 11
-454.183201459696
 21
-292.3257086342764
 31
0.0
  0
LINE
  5
407
330
1F
100
AcDbEntity
  8
D-1
  6
Continuous
 62
     2
370
     9
100
AcDbLine
 10
-459.1834723628065
 20
-402.3257259196234
 30
0.0
 11
-459.1834723628065
 21
-290.3255013293219
 31
0.0
  0
LINE
  5
408
330
1F
100
AcDbEntity
  8
D-1
  6
Continuous
 62
     2
370
     9
100
AcDbLine
 10
-529.4706722772619
 20
-395.1146701640081
 30
0.0
 11
-509.1832062280675
 21
-402.3257259196234
 31
0.0
  0
LINE
  5
409
330
1F
100
AcDbEntity
  8
D-1
  6
Continuous
 62
     2
370
     9
100
AcDbLine
 10
-510.553674367716
 20
-407.0371345347357
 30
0.0
 11
-530.8495613611242
 21
-399.8255828684759
 31
0.0
  0
LINE
  5
40A
330
1F
100
AcDbEntity
  8
D-1
  6
Continuous
 62
     2
370
     9
100
AcDbLine
 10
-456.1829134500524
 20
-287.3259333437872
 30
0.0
 11
-437.1831723726293
 21
-287.3259333437872
 31
0.0
  0
LINE
  5
40B
330
1F
100
AcDbEntity
  8
D-1
  6
Continuous
 62
     2
370
     9
100
AcDbLine
 10
-584.1833063638707
 20
-407.3254970377874
 30
0.0
 11
-439.1833802736303
 21
-407.3254970377874
 31
0.0
  0
LINE
  5
40C
330
1F
100
AcDbEntity
  8
D-1
  6
Continuous
 62
     2
370
     9
100
AcDbLine
 10
-584.1833063638707
 20
-407.3254970377874
 30
0.0
 11
-584.1833063638707
 21
-399.8255828684759
 31
0.0
  0
LINE
  5
40D
330
1F
100
AcDbEntity
  8
D-1
  6
Continuous
 62
     2
370
     9
100
AcDbLine
 10
-584.1833063638707
 20
-412.3257736033392
 30
0.0
 11
-437.1831723726293
 21
-412.3257736033392
 31
0.0
  0
LINE
  5
40E
330
1F
100
AcDbEntity
  8
D-1
  6
Continuous
 62
     2
370
     9
100
AcDbLine
 10
-589.1830870187779
 20
-407.3254970377874
 30
0.0
 11
-589.1830870187779
 21
-399.8255828684759
 31
0.0
  0
LINE
  5
40F
330
1F
100
AcDbEntity
  8
D-1
  6
Continuous
 62
     2
370
     9
100
AcDbLine
 10
-547.3531290567419
 20
-395.4956821268988
 30
0.0
 11
-559.183439878275
 21
-402.3257259196234
 31
0.0
  0
LINE
  5
410
330
1F
100
AcDbEntity
  8
D-1
  6
Continuous
 62
     2
370
     9
100
AcDbLine
 10
-556.6833063638707
 20
-406.6556266612005
 30
0.0
 11
-544.8529955423376
 21
-399.8255828684759
 31
0.0
  0
LINE
  5
411
330
1F
100
AcDbEntity
  8
D-1
  6
Continuous
 62
     2
370
     9
100
AcDbLine
 10
-561.6830774820347
 20
-406.6556266612005
 30
0.0
 11
-573.5133883035679
 21
-399.8255828684759
 31
0.0
  0
LINE
  5
412
330
1F
100
AcDbEntity
  8
D-1
  6
Continuous
 62
     2
370
     9
100
AcDbLine
 10
-571.0132547891636
 20
-395.4956821268988
 30
0.0
 11
-559.183439878275
 21
-402.3257259196234
 31
0.0
  0
LINE
  5
413
330
1F
100
AcDbEntity
  8
D-1
  6
Continuous
 62
     2
370
     9
100
AcDbLine
 10
-530.8495613611242
 20
-399.8255828684759
 30
0.0
 11
-544.8529955423376
 21
-399.8255828684759
 31
0.0
  0
LINE
  5
414
330
1F
100
AcDbEntity
  8
D-1
  6
Continuous
 62
     2
370
     9
100
AcDbLine
 10
-573.5133883035679
 20
-399.8255828684759
 30
0.0
 11
-584.1833063638707
 21
-399.8255828684759
 31
0.0
  0
LINE
  5
415
330
1F
100
AcDbEntity
  8
D-1
  6
Continuous
 62
     2
370
     9
100
AcDbLine
 10
-531.1453577554723
 20
-394.8258117503119
 30
0.0
 11
-544.8529955423376
 21
-394.8258117503119
 31
0.0
  0
LINE
  5
416
330
1F
100
AcDbEntity
  8
D-1
  6
Continuous
 62
     2
370
     9
100
AcDbLine
 10
-573.5133883035679
 20
-394.8258117503119
 30
0.0
 11
-584.1833063638707
 21
-394.8258117503119
 31
0.0
  0
LINE
  5
417
330
1F
100
AcDbEntity
  8
D-9
  6
Continuous
 62
     4
370
     9
100
AcDbLine
 10
-542.230977681925
 20
-389.8255447215033
 30
0.0
 11
-548.6492773569128
 21
-396.2438396281195
 31
0.0
  0
LINE
  5
418
330
1F
100
AcDbEntity
  8
D-9
  6
Continuous
 62
     4
370
     9
100
AcDbLine
 10
-549.3023058450719
 20
-389.8255447215033
 30
0.0
 11
-560.8437582529087
 21
-401.366987592597
 31
0.0
  0
LINE
  5
419
330
1F
100
AcDbEntity
  8
D-9
  6
Continuous
 62
     4
370
     9
100
AcDbLine
 10
-556.3736387765904
 20
-389.8255447215033
 30
0.0
 11
-565.3267618692417
 21
-398.7786582774115
 31
0.0
  0
LINE
  5
41A
330
1F
100
AcDbEntity
  8
D-9
  6
Continuous
 62
     4
370
     9
100
AcDbLine
 10
-563.4449621713658
 20
-389.8255447215033
 30
0.0
 11
-569.8087641275425
 21
-396.1908248728705
 31
0.0
  0
LINE
  5
41B
330
1F
100
AcDbEntity
  8
D-4
  6
Continuous
 62
     7
370
     9
100
AcDbLine
 10
-289.1821810281774
 20
-432.2019962138128
 30
0.0
 11
-289.1821810281774
 21
-480.8565334147406
 31
0.0
  0
LINE
  5
41C
330
1F
100
AcDbEntity
  8
D-5
  6
Continuous
 62
     7
370
     9
100
AcDbLine
 10
-297.7518221414587
 20
-179.2770770853949
 30
0.0
 11
-486.2653013742467
 21
-395.8672908610296
 31
0.0
  0
LINE
  5
41D
330
1F
100
AcDbEntity
  8
D-6
  6
Continuous
 62
     6
370
     5
100
AcDbLine
 10
-189.1827150857946
 20
-484.6661952799749
 30
0.0
 11
-141.8426653421423
 21
-437.3261359995794
 31
0.0
  0
LINE
  5
41E
330
1F
100
AcDbEntity
  8
D-6
  6
Continuous
 62
     6
370
     5
100
AcDbLine
 10
-439.1823884523412
 20
-734.6638683146432
 30
0.0
 11
-241.8431231058141
 21
-537.32610738935
 31
0.0
  0
LINE
  5
41F
330
1F
100
AcDbEntity
  8
D-6
  6
Continuous
 62
     6
370
     5
100
AcDbLine
 10
-439.1823884523412
 20
-748.8045696085885
 30
0.0
 11
-227.7024408853551
 21
-537.32610738935
 31
0.0
  0
LINE
  5
420
330
1F
100
AcDbEntity
  8
D-6
  6
Continuous
 62
     6
370
     5
100
AcDbLine
 10
-189.1827150857946
 20
-498.8068775004339
 30
0.0
 11
-127.7019640481969
 21
-437.3261359995794
 31
0.0
  0
LINE
  5
421
330
1F
100
AcDbEntity
  8
D-6
  6
Continuous
 62
     6
370
     5
100
AcDbLine
 10
-439.1823884523412
 20
-762.9452327555612
 30
0.0
 11
-213.5617586648962
 21
-537.32610738935
 31
0.0
  0
LINE
  5
422
330
1F
100
AcDbEntity
  8
D-6
  6
Continuous
 62
     6
370
     5
100
AcDbLine
 10
-189.1827150857946
 20
-512.9475406474066
 30
0.0
 11
-113.5613009012243
 21
-437.3261359995794
 31
0.0
  0
LINE
  5
423
330
1F
100
AcDbEntity
  8
D-6
  6
Continuous
 62
     6
370
     5
100
AcDbLine
 10
-100.0102373636266
 20
-787.3257640665963
 30
0.0
 11
-24.18122735386099
 21
-711.4977458781198
 31
0.0
  0
LINE
  5
424
330
1F
100
AcDbEntity
  8
D-6
  6
Continuous
 62
     6
370
     5
100
AcDbLine
 10
-114.1509005105993
 20
-787.3257640665963
 30
0.0
 11
-24.18122735386099
 21
-697.3570827311471
 31
0.0
  0
LINE
  5
425
330
1F
100
AcDbEntity
  8
D-6
  6
Continuous
 62
     6
370
     5
100
AcDbLine
 10
-85.8695360696813
 20
-787.3257640665963
 30
0.0
 11
-24.18122735386099
 21
-725.6384090250924
 31
0.0
  0
LINE
  5
426
330
1F
100
AcDbEntity
  8
D-0
  6
Continuous
 62
     7
370
     9
100
AcDbLine
 10
-162.3372217691442
 20
-308.2758394545507
 30
0.0
 11
-162.3372217691442
 21
-306.7755595511389
 31
0.0
  0
LINE
  5
427
330
1F
100
AcDbEntity
  8
D-0
  6
Continuous
 62
     7
370
     9
100
AcDbLine
 10
-162.3372217691442
 20
-306.7755595511389
 30
0.0
 11
-160.8374353921911
 21
-306.7755595511389
 31
0.0
  0
LINE
  5
428
330
1F
100
AcDbEntity
  8
D-0
  6
Continuous
 62
     7
370
     9
100
AcDbLine
 10
-160.8374353921911
 20
-306.7755595511389
 30
0.0
 11
-160.8374353921911
 21
-308.2758394545507
 31
0.0
  0
LINE
  5
429
330
1F
100
AcDbEntity
  8
D-0
  6
Continuous
 62
     7
370
     9
100
AcDbLine
 10
-160.8374353921911
 20
-308.2758394545507
 30
0.0
 11
-162.3372217691442
 21
-308.2758394545507
 31
0.0
  0
LINE
  5
42A
330
1F
100
AcDbEntity
  8
D-0
  6
Continuous
 62
     7
370
     9
100
AcDbLine
 10
-111.5813967264196
 20
-310.9830812281561
 30
0.0
 11
-111.5813967264196
 21
-309.4828013247442
 31
0.0
  0
LINE
  5
42B
330
1F
100
AcDbEntity
  8
D-0
  6
Continuous
 62
     7
370
     9
100
AcDbLine
 10
-111.5813967264196
 20
-309.4828013247442
 30
0.0
 11
-110.0811144388219
 21
-309.4828013247442
 31
0.0
  0
LINE
  5
42C
330
1F
100
AcDbEntity
  8
D-0
  6
Continuous
 62
     7
370
     9
100
AcDbLine
 10
-110.0811144388219
 20
-309.4828013247442
 30
0.0
 11
-110.0811144388219
 21
-310.9830812281561
 31
0.0
  0
LINE
  5
42D
330
1F
100
AcDbEntity
  8
D-0
  6
Continuous
 62
     7
370
     9
100
AcDbLine
 10
-110.0811144388219
 20
-310.9830812281561
 30
0.0
 11
-111.5813967264196
 21
-310.9830812281561
 31
0.0
  0
LINE
  5
42E
330
1F
100
AcDbEntity
  8
D-0
  6
Continuous
 62
     7
370
     9
100
AcDbLine
 10
-46.61405053501333
 20
-308.9526501959753
 30
0.0
 11
-46.61405053501333
 21
-307.4523702925634
 31
0.0
  0
LINE
  5
42F
330
1F
100
AcDbEntity
  8
D-0
  6
Continuous
 62
     7
370
     9
100
AcDbLine
 10
-46.61405053501333
 20
-307.4523702925634
 30
0.0
 11
-45.11376824741568
 21
-307.4523702925634
 31
0.0
  0
LINE
  5
430
330
1F
100
AcDbEntity
  8
D-0
  6
Continuous
 62
     7
370
     9
100
AcDbLine
 10
-45.11376824741568
 20
-307.4523702925634
 30
0.0
 11
-45.11376824741568
 21
-308.9526501959753
 31
0.0
  0
LINE
  5
431
330
1F
100
AcDbEntity
  8
D-0
  6
Continuous
 62
     7
370
     9
100
AcDbLine
 10
-45.11376824741568
 20
-308.9526501959753
 30
0.0
 11
-46.61405053501333
 21
-308.9526501959753
 31
0.0
  0
LINE
  5
432
330
1F
100
AcDbEntity
  8
D-0
  6
Continuous
 62
     7
370
     9
100
AcDbLine
 10
-70.97676720981802
 20
-341.4365724390936
 30
0.0
 11
-70.97676720981802
 21
-339.9362949198675
 31
0.0
  0
LINE
  5
433
330
1F
100
AcDbEntity
  8
D-0
  6
Continuous
 62
     7
370
     9
100
AcDbLine
 10
-70.97676720981802
 20
-339.9362949198675
 30
0.0
 11
-69.47648492222037
 21
-339.9362949198675
 31
0.0
  0
LINE
  5
434
330
1F
100
AcDbEntity
  8
D-0
  6
Continuous
 62
     7
370
     9
100
AcDbLine
 10
-69.47648492222037
 20
-339.9362949198675
 30
0.0
 11
-69.47648492222037
 21
-341.4365724390936
 31
0.0
  0
LINE
  5
435
330
1F
100
AcDbEntity
  8
D-0
  6
Continuous
 62
     7
370
     9
100
AcDbLine
 10
-69.47648492222037
 20
-341.4365724390936
 30
0.0
 11
-70.97676720981802
 21
-341.4365724390936
 31
0.0
  0
LINE
  5
436
330
1F
100
AcDbEntity
  8
D-0
  6
Continuous
 62
     7
370
     9
100
AcDbLine
 10
-121.5418001688024
 20
-345.3676227396917
 30
0.0
 11
-121.5418001688024
 21
-343.8673452204657
 31
0.0
  0
LINE
  5
437
330
1F
100
AcDbEntity
  8
D-0
  6
Continuous
 62
     7
370
     9
100
AcDbLine
 10
-121.5418001688024
 20
-343.8673452204657
 30
0.0
 11
-120.0420137918493
 21
-343.8673452204657
 31
0.0
  0
LINE
  5
438
330
1F
100
AcDbEntity
  8
D-0
  6
Continuous
 62
     7
370
     9
100
AcDbLine
 10
-120.0420137918493
 20
-343.8673452204657
 30
0.0
 11
-120.0420137918493
 21
-345.3676227396917
 31
0.0
  0
LINE
  5
439
330
1F
100
AcDbEntity
  8
D-0
  6
Continuous
 62
     7
370
     9
100
AcDbLine
 10
-120.0420137918493
 20
-345.3676227396917
 30
0.0
 11
-121.5418001688024
 21
-345.3676227396917
 31
0.0
  0
LINE
  5
43A
330
1F
100
AcDbEntity
  8
D-0
  6
Continuous
 62
     7
370
     9
100
AcDbLine
 10
-138.651327756693
 20
-379.3344882792425
 30
0.0
 11
-138.651327756693
 21
-377.8342059916449
 31
0.0
  0
LINE
  5
43B
330
1F
100
AcDbEntity
  8
D-0
  6
Continuous
 62
     7
370
     9
100
AcDbLine
 10
-138.651327756693
 20
-377.8342059916449
 30
0.0
 11
-137.1510454690954
 21
-377.8342059916449
 31
0.0
  0
LINE
  5
43C
330
1F
100
AcDbEntity
  8
D-0
  6
Continuous
 62
     7
370
     9
100
AcDbLine
 10
-137.1510454690954
 20
-377.8342059916449
 30
0.0
 11
-137.1510454690954
 21
-379.3344882792425
 31
0.0
  0
LINE
  5
43D
330
1F
100
AcDbEntity
  8
D-0
  6
Continuous
 62
     7
370
     9
100
AcDbLine
 10
-137.1510454690954
 20
-379.3344882792425
 30
0.0
 11
-138.651327756693
 21
-379.3344882792425
 31
0.0
  0
LINE
  5
43E
330
1F
100
AcDbEntity
  8
D-0
  6
Continuous
 62
     7
370
     9
100
AcDbLine
 10
-170.007586149027
 20
-364.7627500361395
 30
0.0
 11
-170.007586149027
 21
-363.2624677485418
 31
0.0
  0
LINE
  5
43F
330
1F
100
AcDbEntity
  8
D-0
  6
Continuous
 62
     7
370
     9
100
AcDbLine
 10
-170.007586149027
 20
-363.2624677485418
 30
0.0
 11
-168.5077997720739
 21
-363.2624677485418
 31
0.0
  0
LINE
  5
440
330
1F
100
AcDbEntity
  8
D-0
  6
Continuous
 62
     7
370
     9
100
AcDbLine
 10
-168.5077997720739
 20
-363.2624677485418
 30
0.0
 11
-168.5077997720739
 21
-364.7627500361395
 31
0.0
  0
LINE
  5
441
330
1F
100
AcDbEntity
  8
D-0
  6
Continuous
 62
     7
370
     9
100
AcDbLine
 10
-168.5077997720739
 20
-364.7627500361395
 30
0.0
 11
-170.007586149027
 21
-364.7627500361395
 31
0.0
  0
LINE
  5
442
330
1F
100
AcDbEntity
  8
D-0
  6
Continuous
 62
     7
370
     9
100
AcDbLine
 10
-180.7319971597692
 20
-405.9827808207464
 30
0.0
 11
-180.7319971597692
 21
-404.4824985331488
 31
0.0
  0
LINE
  5
443
330
1F
100
AcDbEntity
  8
D-0
  6
Continuous
 62
     7
370
     9
100
AcDbLine
 10
-180.7319971597692
 20
-404.4824985331488
 30
0.0
 11
-179.2317148721716
 21
-404.4824985331488
 31
0.0
  0
LINE
  5
444
330
1F
100
AcDbEntity
  8
D-0
  6
Continuous
 62
     7
370
     9
100
AcDbLine
 10
-179.2317148721716
 20
-404.4824985331488
 30
0.0
 11
-179.2317148721716
 21
-405.9827808207464
 31
0.0
  0
LINE
  5
445
330
1F
100
AcDbEntity
  8
D-0
  6
Continuous
 62
     7
370
     9
100
AcDbLine
 10
-179.2317148721716
 20
-405.9827808207464
 30
0.0
 11
-180.7319971597692
 21
-405.9827808207464
 31
0.0
  0
LINE
  5
446
330
1F
100
AcDbEntity
  8
D-0
  6
Continuous
 62
     7
370
     9
100
AcDbLine
 10
-143.3885332620641
 20
-414.5251563853216
 30
0.0
 11
-143.3885332620641
 21
-413.024874097724
 31
0.0
  0
LINE
  5
447
330
1F
100
AcDbEntity
  8
D-0
  6
Continuous
 62
     7
370
     9
100
AcDbLine
 10
-143.3885332620641
 20
-413.024874097724
 30
0.0
 11
-141.8882509744665
 21
-413.024874097724
 31
0.0
  0
LINE
  5
448
330
1F
100
AcDbEntity
  8
D-0
  6
Continuous
 62
     7
370
     9
100
AcDbLine
 10
-141.8882509744665
 20
-413.024874097724
 30
0.0
 11
-141.8882509744665
 21
-414.5251563853216
 31
0.0
  0
LINE
  5
449
330
1F
100
AcDbEntity
  8
D-0
  6
Continuous
 62
     7
370
     9
100
AcDbLine
 10
-141.8882509744665
 20
-414.5251563853216
 30
0.0
 11
-143.3885332620641
 21
-414.5251563853216
 31
0.0
  0
LINE
  5
44A
330
1F
100
AcDbEntity
  8
D-0
  6
Continuous
 62
     7
370
     9
100
AcDbLine
 10
-91.18344750766958
 20
-419.2499450510931
 30
0.0
 11
-91.18344750766958
 21
-417.7496627634955
 31
0.0
  0
LINE
  5
44B
330
1F
100
AcDbEntity
  8
D-0
  6
Continuous
 62
     7
370
     9
100
AcDbLine
 10
-91.18344750766958
 20
-417.7496627634955
 30
0.0
 11
-89.68366113071646
 21
-417.7496627634955
 31
0.0
  0
LINE
  5
44C
330
1F
100
AcDbEntity
  8
D-0
  6
Continuous
 62
     7
370
     9
100
AcDbLine
 10
-89.68366113071646
 20
-417.7496627634955
 30
0.0
 11
-89.68366113071646
 21
-419.2499450510931
 31
0.0
  0
LINE
  5
44D
330
1F
100
AcDbEntity
  8
D-0
  6
Continuous
 62
     7
370
     9
100
AcDbLine
 10
-89.68366113071646
 20
-419.2499450510931
 30
0.0
 11
-91.18344750766958
 21
-419.2499450510931
 31
0.0
  0
LINE
  5
44E
330
1F
100
AcDbEntity
  8
D-0
  6
Continuous
 62
     7
370
     9
100
AcDbLine
 10
-36.46287408237662
 20
-412.4947265452337
 30
0.0
 11
-36.46287408237662
 21
-410.9944442576361
 31
0.0
  0
LINE
  5
44F
330
1F
100
AcDbEntity
  8
D-0
  6
Continuous
 62
     7
370
     9
100
AcDbLine
 10
-36.46287408237662
 20
-410.9944442576361
 30
0.0
 11
-34.96262994175162
 21
-410.9944442576361
 31
0.0
  0
LINE
  5
450
330
1F
100
AcDbEntity
  8
D-0
  6
Continuous
 62
     7
370
     9
100
AcDbLine
 10
-34.96262994175162
 20
-410.9944442576361
 30
0.0
 11
-34.96262994175162
 21
-412.4947265452337
 31
0.0
  0
LINE
  5
451
330
1F
100
AcDbEntity
  8
D-0
  6
Continuous
 62
     7
370
     9
100
AcDbLine
 10
-34.96262994175162
 20
-412.4947265452337
 30
0.0
 11
-36.46287408237662
 21
-412.4947265452337
 31
0.0
  0
LINE
  5
452
330
1F
100
AcDbEntity
  8
D-0
  6
Continuous
 62
     7
370
     9
100
AcDbLine
 10
-48.64350762729849
 20
-372.566881544013
 30
0.0
 11
-48.64350762729849
 21
-371.0665992564154
 31
0.0
  0
LINE
  5
453
330
1F
100
AcDbEntity
  8
D-0
  6
Continuous
 62
     7
370
     9
100
AcDbLine
 10
-48.64350762729849
 20
-371.0665992564154
 30
0.0
 11
-47.14322533970083
 21
-371.0665992564154
 31
0.0
  0
LINE
  5
454
330
1F
100
AcDbEntity
  8
D-0
  6
Continuous
 62
     7
370
     9
100
AcDbLine
 10
-47.14322533970083
 20
-371.0665992564154
 30
0.0
 11
-47.14322533970083
 21
-372.566881544013
 31
0.0
  0
LINE
  5
455
330
1F
100
AcDbEntity
  8
D-0
  6
Continuous
 62
     7
370
     9
100
AcDbLine
 10
-47.14322533970083
 20
-372.566881544013
 30
0.0
 11
-48.64350762729849
 21
-372.566881544013
 31
0.0
  0
LINE
  5
456
330
1F
100
AcDbEntity
  8
D-0
  6
Continuous
 62
     7
370
     9
100
AcDbLine
 10
-89.67275109653677
 20
-381.6844943827581
 30
0.0
 11
-89.67275109653677
 21
-380.1842120951605
 31
0.0
  0
LINE
  5
457
330
1F
100
AcDbEntity
  8
D-0
  6
Continuous
 62
     7
370
     9
100
AcDbLine
 10
-89.67275109653677
 20
-380.1842120951605
 30
0.0
 11
-88.1730028665563
 21
-380.1842120951605
 31
0.0
  0
LINE
  5
458
330
1F
100
AcDbEntity
  8
D-0
  6
Continuous
 62
     7
370
     9
100
AcDbLine
 10
-88.1730028665563
 20
-380.1842120951605
 30
0.0
 11
-88.1730028665563
 21
-381.6844943827581
 31
0.0
  0
LINE
  5
459
330
1F
100
AcDbEntity
  8
D-0
  6
Continuous
 62
     7
370
     9
100
AcDbLine
 10
-88.1730028665563
 20
-381.6844943827581
 30
0.0
 11
-89.67275109653677
 21
-381.6844943827581
 31
0.0
  0
LINE
  5
45A
330
1F
100
AcDbEntity
  8
D-0
  6
Continuous
 62
     7
370
     9
100
AcDbLine
 10
-29.18744531040396
 20
-342.1961263483954
 30
0.0
 11
-29.18744531040396
 21
-340.6958488291693
 31
0.0
  0
LINE
  5
45B
330
1F
100
AcDbEntity
  8
D-0
  6
Continuous
 62
     7
370
     9
100
AcDbLine
 10
-29.18744531040396
 20
-340.6958488291693
 30
0.0
 11
-27.6871630228063
 21
-340.6958488291693
 31
0.0
  0
LINE
  5
45C
330
1F
100
AcDbEntity
  8
D-0
  6
Continuous
 62
     7
370
     9
100
AcDbLine
 10
-27.6871630228063
 20
-340.6958488291693
 30
0.0
 11
-27.6871630228063
 21
-342.1961263483954
 31
0.0
  0
LINE
  5
45D
330
1F
100
AcDbEntity
  8
D-0
  6
Continuous
 62
     7
370
     9
100
AcDbLine
 10
-27.6871630228063
 20
-342.1961263483954
 30
0.0
 11
-29.18744531040396
 21
-342.1961263483954
 31
0.0
  0
LINE
  5
45E
330
1F
100
AcDbEntity
  8
D-0
  6
Continuous
 62
     7
370
     9
100
AcDbLine
 10
-183.1885286844274
 20
-331.30324876966
 30
0.0
 11
-183.1885286844274
 21
-329.8029664820623
 31
0.0
  0
LINE
  5
45F
330
1F
100
AcDbEntity
  8
D-0
  6
Continuous
 62
     7
370
     9
100
AcDbLine
 10
-183.1885286844274
 20
-329.8029664820623
 30
0.0
 11
-181.6882654703161
 21
-329.8029664820623
 31
0.0
  0
LINE
  5
460
330
1F
100
AcDbEntity
  8
D-0
  6
Continuous
 62
     7
370
     9
100
AcDbLine
 10
-181.6882654703161
 20
-329.8029664820623
 30
0.0
 11
-181.6882654703161
 21
-331.30324876966
 31
0.0
  0
LINE
  5
461
330
1F
100
AcDbEntity
  8
D-0
  6
Continuous
 62
     7
370
     9
100
AcDbLine
 10
-181.6882654703161
 20
-331.30324876966
 30
0.0
 11
-183.1885286844274
 21
-331.30324876966
 31
0.0
  0
LINE
  5
462
330
1F
100
AcDbEntity
  8
D-0
  6
Continuous
 62
     7
370
     9
100
AcDbLine
 10
-266.5382715738317
 20
-454.5535854166937
 30
0.0
 11
-266.5382715738317
 21
-453.053303129096
 31
0.0
  0
LINE
  5
463
330
1F
100
AcDbEntity
  8
D-0
  6
Continuous
 62
     7
370
     9
100
AcDbLine
 10
-266.5382715738317
 20
-453.053303129096
 30
0.0
 11
-265.0379892862341
 21
-453.053303129096
 31
0.0
  0
LINE
  5
464
330
1F
100
AcDbEntity
  8
D-0
  6
Continuous
 62
     7
370
     9
100
AcDbLine
 10
-265.0379892862341
 20
-453.053303129096
 30
0.0
 11
-265.0379892862341
 21
-454.5535854166937
 31
0.0
  0
LINE
  5
465
330
1F
100
AcDbEntity
  8
D-0
  6
Continuous
 62
     7
370
     9
100
AcDbLine
 10
-265.0379892862341
 20
-454.5535854166937
 30
0.0
 11
-266.5382715738317
 21
-454.5535854166937
 31
0.0
  0
LINE
  5
466
330
1F
100
AcDbEntity
  8
D-0
  6
Continuous
 62
     7
370
     9
100
AcDbLine
 10
-217.1737238443395
 20
-462.4518588847113
 30
0.0
 11
-217.1737238443395
 21
-460.9515765971136
 31
0.0
  0
LINE
  5
467
330
1F
100
AcDbEntity
  8
D-0
  6
Continuous
 62
     7
370
     9
100
AcDbLine
 10
-217.1737238443395
 20
-460.9515765971136
 30
0.0
 11
-215.6734606302282
 21
-460.9515765971136
 31
0.0
  0
LINE
  5
468
330
1F
100
AcDbEntity
  8
D-0
  6
Continuous
 62
     7
370
     9
100
AcDbLine
 10
-215.6734606302282
 20
-460.9515765971136
 30
0.0
 11
-215.6734606302282
 21
-462.4518588847113
 31
0.0
  0
LINE
  5
469
330
1F
100
AcDbEntity
  8
D-0
  6
Continuous
 62
     7
370
     9
100
AcDbLine
 10
-215.6734606302282
 20
-462.4518588847113
 30
0.0
 11
-217.1737238443395
 21
-462.4518588847113
 31
0.0
  0
LINE
  5
46A
330
1F
100
AcDbEntity
  8
D-0
  6
Continuous
 62
     7
370
     9
100
AcDbLine
 10
-234.0548464334508
 20
-483.0326274699163
 30
0.0
 11
-234.0548464334508
 21
-481.5323451823187
 31
0.0
  0
LINE
  5
46B
330
1F
100
AcDbEntity
  8
D-0
  6
Continuous
 62
     7
370
     9
100
AcDbLine
 10
-234.0548464334508
 20
-481.5323451823187
 30
0.0
 11
-232.5550600564977
 21
-481.5323451823187
 31
0.0
  0
LINE
  5
46C
330
1F
100
AcDbEntity
  8
D-0
  6
Continuous
 62
     7
370
     9
100
AcDbLine
 10
-232.5550600564977
 20
-481.5323451823187
 30
0.0
 11
-232.5550600564977
 21
-483.0326274699163
 31
0.0
  0
LINE
  5
46D
330
1F
100
AcDbEntity
  8
D-0
  6
Continuous
 62
     7
370
     9
100
AcDbLine
 10
-232.5550600564977
 20
-483.0326274699163
 30
0.0
 11
-234.0548464334508
 21
-483.0326274699163
 31
0.0
  0
LINE
  5
46E
330
1F
100
AcDbEntity
  8
D-0
  6
Continuous
 62
     7
370
     9
100
AcDbLine
 10
-282.3348185098669
 20
-517.7407077616645
 30
0.0
 11
-282.3348185098669
 21
-516.2404445475531
 31
0.0
  0
LINE
  5
46F
330
1F
100
AcDbEntity
  8
D-0
  6
Continuous
 62
     7
370
     9
100
AcDbLine
 10
-282.3348185098669
 20
-516.2404445475531
 30
0.0
 11
-280.8350321329137
 21
-516.2404445475531
 31
0.0
  0
LINE
  5
470
330
1F
100
AcDbEntity
  8
D-0
  6
Continuous
 62
     7
370
     9
100
AcDbLine
 10
-280.8350321329137
 20
-516.2404445475531
 30
0.0
 11
-280.8350321329137
 21
-517.7407077616645
 31
0.0
  0
LINE
  5
471
330
1F
100
AcDbEntity
  8
D-0
  6
Continuous
 62
     7
370
     9
100
AcDbLine
 10
-280.8350321329137
 20
-517.7407077616645
 30
0.0
 11
-282.3348185098669
 21
-517.7407077616645
 31
0.0
  0
LINE
  5
472
330
1F
100
AcDbEntity
  8
D-0
  6
Continuous
 62
     7
370
     9
100
AcDbLine
 10
-211.2498995340368
 20
-515.7657817667914
 30
0.0
 11
-211.2498995340368
 21
-514.2654994791937
 31
0.0
  0
LINE
  5
473
330
1F
100
AcDbEntity
  8
D-0
  6
Continuous
 62
     7
370
     9
100
AcDbLine
 10
-211.2498995340368
 20
-514.2654994791937
 30
0.0
 11
-209.7496172464391
 21
-514.2654994791937
 31
0.0
  0
LINE
  5
474
330
1F
100
AcDbEntity
  8
D-0
  6
Continuous
 62
     7
370
     9
100
AcDbLine
 10
-209.7496172464391
 20
-514.2654994791937
 30
0.0
 11
-209.7496172464391
 21
-515.7657817667914
 31
0.0
  0
LINE
  5
475
330
1F
100
AcDbEntity
  8
D-0
  6
Continuous
 62
     7
370
     9
100
AcDbLine
 10
-209.7496172464391
 20
-515.7657817667914
 30
0.0
 11
-211.2498995340368
 21
-515.7657817667914
 31
0.0
  0
LINE
  5
476
330
1F
100
AcDbEntity
  8
D-0
  6
Continuous
 62
     7
370
     9
100
AcDbLine
 10
-268.5127207315466
 20
-484.1727069682074
 30
0.0
 11
-268.5127207315466
 21
-482.6724246806097
 31
0.0
  0
LINE
  5
477
330
1F
100
AcDbEntity
  8
D-0
  6
Continuous
 62
     7
370
     9
100
AcDbLine
 10
-268.5127207315466
 20
-482.6724246806097
 30
0.0
 11
-267.0129343545934
 21
-482.6724246806097
 31
0.0
  0
LINE
  5
478
330
1F
100
AcDbEntity
  8
D-0
  6
Continuous
 62
     7
370
     9
100
AcDbLine
 10
-267.0129343545934
 20
-482.6724246806097
 30
0.0
 11
-267.0129343545934
 21
-484.1727069682074
 31
0.0
  0
LINE
  5
479
330
1F
100
AcDbEntity
  8
D-0
  6
Continuous
 62
     7
370
     9
100
AcDbLine
 10
-267.0129343545934
 20
-484.1727069682074
 30
0.0
 11
-268.5127207315466
 21
-484.1727069682074
 31
0.0
  0
LINE
  5
47A
330
1F
100
AcDbEntity
  8
D-0
  6
Continuous
 62
     7
370
     9
100
AcDbLine
 10
-236.6456553018591
 20
-440.293989545722
 30
0.0
 11
-236.6456553018591
 21
-438.7937072581244
 31
0.0
  0
LINE
  5
47B
330
1F
100
AcDbEntity
  8
D-0
  6
Continuous
 62
     7
370
     9
100
AcDbLine
 10
-236.6456553018591
 20
-438.7937072581244
 30
0.0
 11
-235.1453730142614
 21
-438.7937072581244
 31
0.0
  0
LINE
  5
47C
330
1F
100
AcDbEntity
  8
D-0
  6
Continuous
 62
     7
370
     9
100
AcDbLine
 10
-235.1453730142614
 20
-438.7937072581244
 30
0.0
 11
-235.1453730142614
 21
-440.293989545722
 31
0.0
  0
LINE
  5
47D
330
1F
100
AcDbEntity
  8
D-0
  6
Continuous
 62
     7
370
     9
100
AcDbLine
 10
-235.1453730142614
 20
-440.293989545722
 30
0.0
 11
-236.6456553018591
 21
-440.293989545722
 31
0.0
  0
LINE
  5
47E
330
1F
100
AcDbEntity
  8
D-0
  6
Continuous
 62
     7
370
     9
100
AcDbLine
 10
-245.9292551553747
 20
-511.7336467570257
 30
0.0
 11
-245.9292551553747
 21
-510.2333644694281
 31
0.0
  0
LINE
  5
47F
330
1F
100
AcDbEntity
  8
D-0
  6
Continuous
 62
     7
370
     9
100
AcDbLine
 10
-245.9292551553747
 20
-510.2333644694281
 30
0.0
 11
-244.428972867777
 21
-510.2333644694281
 31
0.0
  0
LINE
  5
480
330
1F
100
AcDbEntity
  8
D-0
  6
Continuous
 62
     7
370
     9
100
AcDbLine
 10
-244.428972867777
 20
-510.2333644694281
 30
0.0
 11
-244.428972867777
 21
-511.7336467570257
 31
0.0
  0
LINE
  5
481
330
1F
100
AcDbEntity
  8
D-0
  6
Continuous
 62
     7
370
     9
100
AcDbLine
 10
-244.428972867777
 20
-511.7336467570257
 30
0.0
 11
-245.9292551553747
 21
-511.7336467570257
 31
0.0
  0
LINE
  5
482
330
1F
100
AcDbEntity
  8
D-0
  6
Continuous
 62
     7
370
     9
100
AcDbLine
 10
-421.5600487268468
 20
-299.7730997866583
 30
0.0
 11
-421.5600487268468
 21
-298.2728204792929
 31
0.0
  0
LINE
  5
483
330
1F
100
AcDbEntity
  8
D-0
  6
Continuous
 62
     7
370
     9
100
AcDbLine
 10
-421.5600487268468
 20
-298.2728204792929
 30
0.0
 11
-420.0597712076208
 21
-298.2728204792929
 31
0.0
  0
LINE
  5
484
330
1F
100
AcDbEntity
  8
D-0
  6
Continuous
 62
     7
370
     9
100
AcDbLine
 10
-420.0597712076208
 20
-298.2728204792929
 30
0.0
 11
-420.0597712076208
 21
-299.7730997866583
 31
0.0
  0
LINE
  5
485
330
1F
100
AcDbEntity
  8
D-0
  6
Continuous
 62
     7
370
     9
100
AcDbLine
 10
-420.0597712076208
 20
-299.7730997866583
 30
0.0
 11
-421.5600487268468
 21
-299.7730997866583
 31
0.0
  0
LINE
  5
486
330
1F
100
AcDbEntity
  8
D-0
  6
Continuous
 62
     7
370
     9
100
AcDbLine
 10
-393.3678766763708
 20
-308.624649412055
 30
0.0
 11
-393.3678766763708
 21
-307.1243707007361
 31
0.0
  0
LINE
  5
487
330
1F
100
AcDbEntity
  8
D-0
  6
Continuous
 62
     7
370
     9
100
AcDbLine
 10
-393.3678766763708
 20
-307.1243707007361
 30
0.0
 11
-391.8675991571447
 21
-307.1243707007361
 31
0.0
  0
LINE
  5
488
330
1F
100
AcDbEntity
  8
D-0
  6
Continuous
 62
     7
370
     9
100
AcDbLine
 10
-391.8675991571447
 20
-307.1243707007361
 30
0.0
 11
-391.8675991571447
 21
-308.624649412055
 31
0.0
  0
LINE
  5
489
330
1F
100
AcDbEntity
  8
D-0
  6
Continuous
 62
     7
370
     9
100
AcDbLine
 10
-391.8675991571447
 20
-308.624649412055
 30
0.0
 11
-393.3678766763708
 21
-308.624649412055
 31
0.0
  0
LINE
  5
48A
330
1F
100
AcDbEntity
  8
D-0
  6
Continuous
 62
     7
370
     9
100
AcDbLine
 10
-363.9439722574255
 20
-358.7363628214788
 30
0.0
 11
-363.9439722574255
 21
-357.2360805338812
 31
0.0
  0
LINE
  5
48B
330
1F
100
AcDbEntity
  8
D-0
  6
Continuous
 62
     7
370
     9
100
AcDbLine
 10
-363.9439722574255
 20
-357.2360805338812
 30
0.0
 11
-362.4441858804723
 21
-357.2360805338812
 31
0.0
  0
LINE
  5
48C
330
1F
100
AcDbEntity
  8
D-0
  6
Continuous
 62
     7
370
     9
100
AcDbLine
 10
-362.4441858804723
 20
-357.2360805338812
 30
0.0
 11
-362.4441858804723
 21
-358.7363628214788
 31
0.0
  0
LINE
  5
48D
330
1F
100
AcDbEntity
  8
D-0
  6
Continuous
 62
     7
370
     9
100
AcDbLine
 10
-362.4441858804723
 20
-358.7363628214788
 30
0.0
 11
-363.9439722574255
 21
-358.7363628214788
 31
0.0
  0
LINE
  5
48E
330
1F
100
AcDbEntity
  8
D-0
  6
Continuous
 62
     7
370
     9
100
AcDbLine
 10
-305.5524775064489
 20
-305.7806590861273
 30
0.0
 11
-305.5524775064489
 21
-304.2803791827154
 31
0.0
  0
LINE
  5
48F
330
1F
100
AcDbEntity
  8
D-0
  6
Continuous
 62
     7
370
     9
100
AcDbLine
 10
-305.5524775064489
 20
-304.2803791827154
 30
0.0
 11
-304.0526911294958
 21
-304.2803791827154
 31
0.0
  0
LINE
  5
490
330
1F
100
AcDbEntity
  8
D-0
  6
Continuous
 62
     7
370
     9
100
AcDbLine
 10
-304.0526911294958
 20
-304.2803791827154
 30
0.0
 11
-304.0526911294958
 21
-305.7806590861273
 31
0.0
  0
LINE
  5
491
330
1F
100
AcDbEntity
  8
D-0
  6
Continuous
 62
     7
370
     9
100
AcDbLine
 10
-304.0526911294958
 20
-305.7806590861273
 30
0.0
 11
-305.5524775064489
 21
-305.7806590861273
 31
0.0
  0
LINE
  5
492
330
1F
100
AcDbEntity
  8
D-0
  6
Continuous
 62
     7
370
     9
100
AcDbLine
 10
-270.6214281595251
 20
-300.3820315665197
 30
0.0
 11
-270.6214281595251
 21
-298.8817516631079
 31
0.0
  0
LINE
  5
493
330
1F
100
AcDbEntity
  8
D-0
  6
Continuous
 62
     7
370
     9
100
AcDbLine
 10
-270.6214281595251
 20
-298.8817516631079
 30
0.0
 11
-269.1216417825719
 21
-298.8817516631079
 31
0.0
  0
LINE
  5
494
330
1F
100
AcDbEntity
  8
D-0
  6
Continuous
 62
     7
370
     9
100
AcDbLine
 10
-269.1216417825719
 20
-298.8817516631079
 30
0.0
 11
-269.1216417825719
 21
-300.3820315665197
 31
0.0
  0
LINE
  5
495
330
1F
100
AcDbEntity
  8
D-0
  6
Continuous
 62
     7
370
     9
100
AcDbLine
 10
-269.1216417825719
 20
-300.3820315665197
 30
0.0
 11
-270.6214281595251
 21
-300.3820315665197
 31
0.0
  0
LINE
  5
496
330
1F
100
AcDbEntity
  8
D-0
  6
Continuous
 62
     7
370
     9
100
AcDbLine
 10
-274.4509073770544
 20
-325.113850004096
 30
0.0
 11
-274.4509073770544
 21
-323.6135701006842
 31
0.0
  0
LINE
  5
497
330
1F
100
AcDbEntity
  8
D-0
  6
Continuous
 62
     7
370
     9
100
AcDbLine
 10
-274.4509073770544
 20
-323.6135701006842
 30
0.0
 11
-272.9506250894567
 21
-323.6135701006842
 31
0.0
  0
LINE
  5
498
330
1F
100
AcDbEntity
  8
D-0
  6
Continuous
 62
     7
370
     9
100
AcDbLine
 10
-272.9506250894567
 20
-323.6135701006842
 30
0.0
 11
-272.9506250894567
 21
-325.113850004096
 31
0.0
  0
LINE
  5
499
330
1F
100
AcDbEntity
  8
D-0
  6
Continuous
 62
     7
370
     9
100
AcDbLine
 10
-272.9506250894567
 20
-325.113850004096
 30
0.0
 11
-274.4509073770544
 21
-325.113850004096
 31
0.0
  0
LINE
  5
49A
330
1F
100
AcDbEntity
  8
D-0
  6
Continuous
 62
     7
370
     9
100
AcDbLine
 10
-265.8773180521032
 20
-358.0828384226751
 30
0.0
 11
-265.8773180521032
 21
-356.5825609034491
 31
0.0
  0
LINE
  5
49B
330
1F
100
AcDbEntity
  8
D-0
  6
Continuous
 62
     7
370
     9
100
AcDbLine
 10
-265.8773180521032
 20
-356.5825609034491
 30
0.0
 11
-264.3770357645055
 21
-356.5825609034491
 31
0.0
  0
LINE
  5
49C
330
1F
100
AcDbEntity
  8
D-0
  6
Continuous
 62
     7
370
     9
100
AcDbLine
 10
-264.3770357645055
 20
-356.5825609034491
 30
0.0
 11
-264.3770357645055
 21
-358.0828384226751
 31
0.0
  0
LINE
  5
49D
330
1F
100
AcDbEntity
  8
D-0
  6
Continuous
 62
     7
370
     9
100
AcDbLine
 10
-264.3770357645055
 20
-358.0828384226751
 30
0.0
 11
-265.8773180521032
 21
-358.0828384226751
 31
0.0
  0
LINE
  5
49E
330
1F
100
AcDbEntity
  8
D-0
  6
Continuous
 62
     7
370
     9
100
AcDbLine
 10
-261.9542070901891
 20
-396.6555789774847
 30
0.0
 11
-261.9542070901891
 21
-395.1552966898871
 31
0.0
  0
LINE
  5
49F
330
1F
100
AcDbEntity
  8
D-0
  6
Continuous
 62
     7
370
     9
100
AcDbLine
 10
-261.9542070901891
 20
-395.1552966898871
 30
0.0
 11
-260.454420713236
 21
-395.1552966898871
 31
0.0
  0
LINE
  5
4A0
330
1F
100
AcDbEntity
  8
D-0
  6
Continuous
 62
     7
370
     9
100
AcDbLine
 10
-260.454420713236
 20
-395.1552966898871
 30
0.0
 11
-260.454420713236
 21
-396.6555789774847
 31
0.0
  0
LINE
  5
4A1
330
1F
100
AcDbEntity
  8
D-0
  6
Continuous
 62
     7
370
     9
100
AcDbLine
 10
-260.454420713236
 20
-396.6555789774847
 30
0.0
 11
-261.9542070901891
 21
-396.6555789774847
 31
0.0
  0
LINE
  5
4A2
330
1F
100
AcDbEntity
  8
D-0
  6
Continuous
 62
     7
370
     9
100
AcDbLine
 10
-329.4152494943639
 20
-320.9132651156378
 30
0.0
 11
-329.4152494943639
 21
-319.4129875964117
 31
0.0
  0
LINE
  5
4A3
330
1F
100
AcDbEntity
  8
D-0
  6
Continuous
 62
     7
370
     9
100
AcDbLine
 10
-329.4152494943639
 20
-319.4129875964117
 30
0.0
 11
-327.9149672067663
 21
-319.4129875964117
 31
0.0
  0
LINE
  5
4A4
330
1F
100
AcDbEntity
  8
D-0
  6
Continuous
 62
     7
370
     9
100
AcDbLine
 10
-327.9149672067663
 20
-319.4129875964117
 30
0.0
 11
-327.9149672067663
 21
-320.9132651156378
 31
0.0
  0
LINE
  5
4A5
330
1F
100
AcDbEntity
  8
D-0
  6
Continuous
 62
     7
370
     9
100
AcDbLine
 10
-327.9149672067663
 20
-320.9132651156378
 30
0.0
 11
-329.4152494943639
 21
-320.9132651156378
 31
0.0
  0
LINE
  5
4A6
330
1F
100
AcDbEntity
  8
D-0
  6
Continuous
 62
     7
370
     9
100
AcDbLine
 10
-566.676411298563
 20
-436.7821029490423
 30
0.0
 11
-566.676411298563
 21
-435.2818301981878
 31
0.0
  0
LINE
  5
4A7
330
1F
100
AcDbEntity
  8
D-0
  6
Continuous
 62
     7
370
     9
100
AcDbLine
 10
-566.676411298563
 20
-435.2818301981878
 30
0.0
 11
-565.1761385477085
 21
-435.2818301981878
 31
0.0
  0
LINE
  5
4A8
330
1F
100
AcDbEntity
  8
D-0
  6
Continuous
 62
     7
370
     9
100
AcDbLine
 10
-565.1761385477085
 20
-435.2818301981878
 30
0.0
 11
-565.1761385477085
 21
-436.7821029490423
 31
0.0
  0
LINE
  5
4A9
330
1F
100
AcDbEntity
  8
D-0
  6
Continuous
 62
     7
370
     9
100
AcDbLine
 10
-565.1761385477085
 20
-436.7821029490423
 30
0.0
 11
-566.676411298563
 21
-436.7821029490423
 31
0.0
  0
LINE
  5
4AA
330
1F
100
AcDbEntity
  8
D-0
  6
Continuous
 62
     7
370
     9
100
AcDbLine
 10
-491.6411372697851
 20
-451.5911678141546
 30
0.0
 11
-491.6411372697851
 21
-450.090885526557
 31
0.0
  0
LINE
  5
4AB
330
1F
100
AcDbEntity
  8
D-0
  6
Continuous
 62
     7
370
     9
100
AcDbLine
 10
-491.6411372697851
 20
-450.090885526557
 30
0.0
 11
-490.1408573663732
 21
-450.090885526557
 31
0.0
  0
LINE
  5
4AC
330
1F
100
AcDbEntity
  8
D-0
  6
Continuous
 62
     7
370
     9
100
AcDbLine
 10
-490.1408573663732
 20
-450.090885526557
 30
0.0
 11
-490.1408573663732
 21
-451.5911678141546
 31
0.0
  0
LINE
  5
4AD
330
1F
100
AcDbEntity
  8
D-0
  6
Continuous
 62
     7
370
     9
100
AcDbLine
 10
-490.1408573663732
 20
-451.5911678141546
 30
0.0
 11
-491.6411372697851
 21
-451.5911678141546
 31
0.0
  0
LINE
  5
4AE
330
1F
100
AcDbEntity
  8
D-0
  6
Continuous
 62
     7
370
     9
100
AcDbLine
 10
-477.819538978388
 20
-480.2233318156195
 30
0.0
 11
-477.819538978388
 21
-478.7230495280218
 31
0.0
  0
LINE
  5
4AF
330
1F
100
AcDbEntity
  8
D-0
  6
Continuous
 62
     7
370
     9
100
AcDbLine
 10
-477.819538978388
 20
-478.7230495280218
 30
0.0
 11
-476.3197549856206
 21
-478.7230495280218
 31
0.0
  0
LINE
  5
4B0
330
1F
100
AcDbEntity
  8
D-0
  6
Continuous
 62
     7
370
     9
100
AcDbLine
 10
-476.3197549856206
 20
-478.7230495280218
 30
0.0
 11
-476.3197549856206
 21
-480.2233318156195
 31
0.0
  0
LINE
  5
4B1
330
1F
100
AcDbEntity
  8
D-0
  6
Continuous
 62
     7
370
     9
100
AcDbLine
 10
-476.3197549856206
 20
-480.2233318156195
 30
0.0
 11
-477.819538978388
 21
-480.2233318156195
 31
0.0
  0
LINE
  5
4B2
330
1F
100
AcDbEntity
  8
D-0
  6
Continuous
 62
     7
370
     9
100
AcDbLine
 10
-507.4381681955358
 20
-541.4355090922309
 30
0.0
 11
-507.4381681955358
 21
-539.9352458781195
 31
0.0
  0
LINE
  5
4B3
330
1F
100
AcDbEntity
  8
D-0
  6
Continuous
 62
     7
370
     9
100
AcDbLine
 10
-507.4381681955358
 20
-539.9352458781195
 30
0.0
 11
-505.9383818185827
 21
-539.9352458781195
 31
0.0
  0
LINE
  5
4B4
330
1F
100
AcDbEntity
  8
D-0
  6
Continuous
 62
     7
370
     9
100
AcDbLine
 10
-505.9383818185827
 20
-539.9352458781195
 30
0.0
 11
-505.9383818185827
 21
-541.4355090922309
 31
0.0
  0
LINE
  5
4B5
330
1F
100
AcDbEntity
  8
D-0
  6
Continuous
 62
     7
370
     9
100
AcDbLine
 10
-505.9383818185827
 20
-541.4355090922309
 30
0.0
 11
-507.4381681955358
 21
-541.4355090922309
 31
0.0
  0
LINE
  5
4B6
330
1F
100
AcDbEntity
  8
D-0
  6
Continuous
 62
     7
370
     9
100
AcDbLine
 10
-521.2607571161291
 20
-600.6732753581
 30
0.0
 11
-521.2607571161291
 21
-599.1729930705023
 31
0.0
  0
LINE
  5
4B7
330
1F
100
AcDbEntity
  8
D-0
  6
Continuous
 62
     7
370
     9
100
AcDbLine
 10
-521.2607571161291
 20
-599.1729930705023
 30
0.0
 11
-519.7604748285314
 21
-599.1729930705023
 31
0.0
  0
LINE
  5
4B8
330
1F
100
AcDbEntity
  8
D-0
  6
Continuous
 62
     7
370
     9
100
AcDbLine
 10
-519.7604748285314
 20
-599.1729930705023
 30
0.0
 11
-519.7604748285314
 21
-600.6732753581
 31
0.0
  0
LINE
  5
4B9
330
1F
100
AcDbEntity
  8
D-0
  6
Continuous
 62
     7
370
     9
100
AcDbLine
 10
-519.7604748285314
 20
-600.6732753581
 30
0.0
 11
-521.2607571161291
 21
-600.6732753581
 31
0.0
  0
LINE
  5
4BA
330
1F
100
AcDbEntity
  8
D-0
  6
Continuous
 62
     7
370
     9
100
AcDbLine
 10
-551.8668505228063
 20
-611.533451444526
 30
0.0
 11
-551.8668505228063
 21
-610.0331691569284
 31
0.0
  0
LINE
  5
4BB
330
1F
100
AcDbEntity
  8
D-0
  6
Continuous
 62
     7
370
     9
100
AcDbLine
 10
-551.8668505228063
 20
-610.0331691569284
 30
0.0
 11
-550.3665777719518
 21
-610.0331691569284
 31
0.0
  0
LINE
  5
4BC
330
1F
100
AcDbEntity
  8
D-0
  6
Continuous
 62
     7
370
     9
100
AcDbLine
 10
-550.3665777719518
 20
-610.0331691569284
 30
0.0
 11
-550.3665777719518
 21
-611.533451444526
 31
0.0
  0
LINE
  5
4BD
330
1F
100
AcDbEntity
  8
D-0
  6
Continuous
 62
     7
370
     9
100
AcDbLine
 10
-550.3665777719518
 20
-611.533451444526
 30
0.0
 11
-551.8668505228063
 21
-611.533451444526
 31
0.0
  0
LINE
  5
4BE
330
1F
100
AcDbEntity
  8
D-0
  6
Continuous
 62
     7
370
     9
100
AcDbLine
 10
-574.7203489816685
 20
-545.3849033183051
 30
0.0
 11
-574.7203489816685
 21
-543.8846210307074
 31
0.0
  0
LINE
  5
4BF
330
1F
100
AcDbEntity
  8
D-0
  6
Continuous
 62
     7
370
     9
100
AcDbLine
 10
-574.7203489816685
 20
-543.8846210307074
 30
0.0
 11
-573.2205626047154
 21
-543.8846210307074
 31
0.0
  0
LINE
  5
4C0
330
1F
100
AcDbEntity
  8
D-0
  6
Continuous
 62
     7
370
     9
100
AcDbLine
 10
-573.2205626047154
 20
-543.8846210307074
 30
0.0
 11
-573.2205626047154
 21
-545.3849033183051
 31
0.0
  0
LINE
  5
4C1
330
1F
100
AcDbEntity
  8
D-0
  6
Continuous
 62
     7
370
     9
100
AcDbLine
 10
-573.2205626047154
 20
-545.3849033183051
 30
0.0
 11
-574.7203489816685
 21
-545.3849033183051
 31
0.0
  0
LINE
  5
4C2
330
1F
100
AcDbEntity
  8
D-0
  6
Continuous
 62
     7
370
     9
100
AcDbLine
 10
-541.0066744363805
 20
-464.4262889689398
 30
0.0
 11
-541.0066744363805
 21
-462.9260066813421
 31
0.0
  0
LINE
  5
4C3
330
1F
100
AcDbEntity
  8
D-0
  6
Continuous
 62
     7
370
     9
100
AcDbLine
 10
-541.0066744363805
 20
-462.9260066813421
 30
0.0
 11
-539.5063921487829
 21
-462.9260066813421
 31
0.0
  0
LINE
  5
4C4
330
1F
100
AcDbEntity
  8
D-0
  6
Continuous
 62
     7
370
     9
100
AcDbLine
 10
-539.5063921487829
 20
-462.9260066813421
 30
0.0
 11
-539.5063921487829
 21
-464.4262889689398
 31
0.0
  0
LINE
  5
4C5
330
1F
100
AcDbEntity
  8
D-0
  6
Continuous
 62
     7
370
     9
100
AcDbLine
 10
-539.5063921487829
 20
-464.4262889689398
 30
0.0
 11
-541.0066744363805
 21
-464.4262889689398
 31
0.0
  0
LINE
  5
4C6
330
1F
100
AcDbEntity
  8
D-0
  6
Continuous
 62
     7
370
     9
100
AcDbLine
 10
-548.904938367655
 20
-523.6645320719672
 30
0.0
 11
-548.904938367655
 21
-522.1642688578559
 31
0.0
  0
LINE
  5
4C7
330
1F
100
AcDbEntity
  8
D-0
  6
Continuous
 62
     7
370
     9
100
AcDbLine
 10
-548.904938367655
 20
-522.1642688578559
 30
0.0
 11
-547.4046560800573
 21
-522.1642688578559
 31
0.0
  0
LINE
  5
4C8
330
1F
100
AcDbEntity
  8
D-0
  6
Continuous
 62
     7
370
     9
100
AcDbLine
 10
-547.4046560800573
 20
-522.1642688578559
 30
0.0
 11
-547.4046560800573
 21
-523.6645320719672
 31
0.0
  0
LINE
  5
4C9
330
1F
100
AcDbEntity
  8
D-0
  6
Continuous
 62
     7
370
     9
100
AcDbLine
 10
-547.4046560800573
 20
-523.6645320719672
 30
0.0
 11
-548.904938367655
 21
-523.6645320719672
 31
0.0
  0
LINE
  5
4CA
330
1F
100
AcDbEntity
  8
D-0
  6
Continuous
 62
     7
370
     9
100
AcDbLine
 10
-485.7178064859411
 20
-576.1574748820258
 30
0.0
 11
-485.7178064859411
 21
-574.6571925944281
 31
0.0
  0
LINE
  5
4CB
330
1F
100
AcDbEntity
  8
D-0
  6
Continuous
 62
     7
370
     9
100
AcDbLine
 10
-485.7178064859411
 20
-574.6571925944281
 30
0.0
 11
-484.2180224931737
 21
-574.6571925944281
 31
0.0
  0
LINE
  5
4CC
330
1F
100
AcDbEntity
  8
D-0
  6
Continuous
 62
     7
370
     9
100
AcDbLine
 10
-484.2180224931737
 20
-574.6571925944281
 30
0.0
 11
-484.2180224931737
 21
-576.1574748820258
 31
0.0
  0
LINE
  5
4CD
330
1F
100
AcDbEntity
  8
D-0
  6
Continuous
 62
     7
370
     9
100
AcDbLine
 10
-484.2180224931737
 20
-576.1574748820258
 30
0.0
 11
-485.7178064859411
 21
-576.1574748820258
 31
0.0
  0
LINE
  5
4CE
330
1F
100
AcDbEntity
  8
D-0
  6
Continuous
 62
     7
370
     9
100
AcDbLine
 10
-562.7270361459751
 20
-714.0365413493112
 30
0.0
 11
-562.7270361459751
 21
-712.5362590617135
 31
0.0
  0
LINE
  5
4CF
330
1F
100
AcDbEntity
  8
D-0
  6
Continuous
 62
     7
370
     9
100
AcDbLine
 10
-562.7270361459751
 20
-712.5362590617135
 30
0.0
 11
-561.227249769022
 21
-712.5362590617135
 31
0.0
  0
LINE
  5
4D0
330
1F
100
AcDbEntity
  8
D-0
  6
Continuous
 62
     7
370
     9
100
AcDbLine
 10
-561.227249769022
 20
-712.5362590617135
 30
0.0
 11
-561.227249769022
 21
-714.0365413493112
 31
0.0
  0
LINE
  5
4D1
330
1F
100
AcDbEntity
  8
D-0
  6
Continuous
 62
     7
370
     9
100
AcDbLine
 10
-561.227249769022
 20
-714.0365413493112
 30
0.0
 11
-562.7270361459751
 21
-714.0365413493112
 31
0.0
  0
LINE
  5
4D2
330
1F
100
AcDbEntity
  8
D-0
  6
Continuous
 62
     7
370
     9
100
AcDbLine
 10
-492.3367735422155
 20
-717.7485851115182
 30
0.0
 11
-492.3367735422155
 21
-716.2483028239205
 31
0.0
  0
LINE
  5
4D3
330
1F
100
AcDbEntity
  8
D-0
  6
Continuous
 62
     7
370
     9
100
AcDbLine
 10
-492.3367735422155
 20
-716.2483028239205
 30
0.0
 11
-490.8369895494482
 21
-716.2483028239205
 31
0.0
  0
LINE
  5
4D4
330
1F
100
AcDbEntity
  8
D-0
  6
Continuous
 62
     7
370
     9
100
AcDbLine
 10
-490.8369895494482
 20
-716.2483028239205
 30
0.0
 11
-490.8369895494482
 21
-717.7485851115182
 31
0.0
  0
LINE
  5
4D5
330
1F
100
AcDbEntity
  8
D-0
  6
Continuous
 62
     7
370
     9
100
AcDbLine
 10
-490.8369895494482
 20
-717.7485851115182
 30
0.0
 11
-492.3367735422155
 21
-717.7485851115182
 31
0.0
  0
LINE
  5
4D6
330
1F
100
AcDbEntity
  8
D-0
  6
Continuous
 62
     7
370
     9
100
AcDbLine
 10
-467.9463332570097
 20
-743.655147916694
 30
0.0
 11
-467.9463332570097
 21
-742.1548656290963
 31
0.0
  0
LINE
  5
4D7
330
1F
100
AcDbEntity
  8
D-0
  6
Continuous
 62
     7
370
     9
100
AcDbLine
 10
-467.9463332570097
 20
-742.1548656290963
 30
0.0
 11
-466.4465491152307
 21
-742.1548656290963
 31
0.0
  0
LINE
  5
4D8
330
1F
100
AcDbEntity
  8
D-0
  6
Continuous
 62
     7
370
     9
100
AcDbLine
 10
-466.4465491152307
 20
-742.1548656290963
 30
0.0
 11
-466.4465491152307
 21
-743.655147916694
 31
0.0
  0
LINE
  5
4D9
330
1F
100
AcDbEntity
  8
D-0
  6
Continuous
 62
     7
370
     9
100
AcDbLine
 10
-466.4465491152307
 20
-743.655147916694
 30
0.0
 11
-467.9463332570097
 21
-743.655147916694
 31
0.0
  0
LINE
  5
4DA
330
1F
100
AcDbEntity
  8
D-0
  6
Continuous
 62
     7
370
     9
100
AcDbLine
 10
-461.6677528298399
 20
-781.8671993082955
 30
0.0
 11
-461.6677528298399
 21
-780.3669170206979
 31
0.0
  0
LINE
  5
4DB
330
1F
100
AcDbEntity
  8
D-0
  6
Continuous
 62
     7
370
     9
100
AcDbLine
 10
-461.6677528298399
 20
-780.3669170206979
 30
0.0
 11
-460.1674735224744
 21
-780.3669170206979
 31
0.0
  0
LINE
  5
4DC
330
1F
100
AcDbEntity
  8
D-0
  6
Continuous
 62
     7
370
     9
100
AcDbLine
 10
-460.1674735224744
 20
-780.3669170206979
 30
0.0
 11
-460.1674735224744
 21
-781.8671993082955
 31
0.0
  0
LINE
  5
4DD
330
1F
100
AcDbEntity
  8
D-0
  6
Continuous
 62
     7
370
     9
100
AcDbLine
 10
-460.1674735224744
 20
-781.8671993082955
 30
0.0
 11
-461.6677528298399
 21
-781.8671993082955
 31
0.0
  0
LINE
  5
4DE
330
1F
100
AcDbEntity
  8
D-0
  6
Continuous
 62
     7
370
     9
100
AcDbLine
 10
-535.8964058435461
 20
-787.3257640665963
 30
0.0
 11
-535.8964058435461
 21
-785.8254817789987
 31
0.0
  0
LINE
  5
4DF
330
1F
100
AcDbEntity
  8
D-0
  6
Continuous
 62
     7
370
     9
100
AcDbLine
 10
-535.8964058435461
 20
-785.8254817789987
 30
0.0
 11
-534.39612832432
 21
-785.8254817789987
 31
0.0
  0
LINE
  5
4E0
330
1F
100
AcDbEntity
  8
D-0
  6
Continuous
 62
     7
370
     9
100
AcDbLine
 10
-534.39612832432
 20
-785.8254817789987
 30
0.0
 11
-534.39612832432
 21
-787.3257640665963
 31
0.0
  0
LINE
  5
4E1
330
1F
100
AcDbEntity
  8
D-0
  6
Continuous
 62
     7
370
     9
100
AcDbLine
 10
-534.39612832432
 20
-787.3257640665963
 30
0.0
 11
-535.8964058435461
 21
-787.3257640665963
 31
0.0
  0
LINE
  5
4E2
330
1F
100
AcDbEntity
  8
D-0
  6
Continuous
 62
     7
370
     9
100
AcDbLine
 10
-570.6253000772496
 20
-778.0293086832955
 30
0.0
 11
-570.6253000772496
 21
-776.5290263956979
 31
0.0
  0
LINE
  5
4E3
330
1F
100
AcDbEntity
  8
D-0
  6
Continuous
 62
     7
370
     9
100
AcDbLine
 10
-570.6253000772496
 20
-776.5290263956979
 30
0.0
 11
-569.1250177896519
 21
-776.5290263956979
 31
0.0
  0
LINE
  5
4E4
330
1F
100
AcDbEntity
  8
D-0
  6
Continuous
 62
     7
370
     9
100
AcDbLine
 10
-569.1250177896519
 20
-776.5290263956979
 30
0.0
 11
-569.1250177896519
 21
-778.0293086832955
 31
0.0
  0
LINE
  5
4E5
330
1F
100
AcDbEntity
  8
D-0
  6
Continuous
 62
     7
370
     9
100
AcDbLine
 10
-569.1250177896519
 20
-778.0293086832955
 30
0.0
 11
-570.6253000772496
 21
-778.0293086832955
 31
0.0
  0
LINE
  5
4E6
330
1F
100
AcDbEntity
  8
D-0
  6
Continuous
 62
     7
370
     9
100
AcDbLine
 10
-572.8365751779576
 20
-737.7313426798776
 30
0.0
 11
-572.8365751779576
 21
-736.2310603922799
 31
0.0
  0
LINE
  5
4E7
330
1F
100
AcDbEntity
  8
D-0
  6
Continuous
 62
     7
370
     9
100
AcDbLine
 10
-572.8365751779576
 20
-736.2310603922799
 30
0.0
 11
-571.3367888010044
 21
-736.2310603922799
 31
0.0
  0
LINE
  5
4E8
330
1F
100
AcDbEntity
  8
D-0
  6
Continuous
 62
     7
370
     9
100
AcDbLine
 10
-571.3367888010044
 20
-736.2310603922799
 30
0.0
 11
-571.3367888010044
 21
-737.7313426798776
 31
0.0
  0
LINE
  5
4E9
330
1F
100
AcDbEntity
  8
D-0
  6
Continuous
 62
     7
370
     9
100
AcDbLine
 10
-571.3367888010044
 20
-737.7313426798776
 30
0.0
 11
-572.8365751779576
 21
-737.7313426798776
 31
0.0
  0
LINE
  5
4EA
330
1F
100
AcDbEntity
  8
D-0
  6
Continuous
 62
     7
370
     9
100
AcDbLine
 10
-515.3369328058263
 20
-757.4772456950143
 30
0.0
 11
-515.3369328058263
 21
-755.9769634074166
 31
0.0
  0
LINE
  5
4EB
330
1F
100
AcDbEntity
  8
D-0
  6
Continuous
 62
     7
370
     9
100
AcDbLine
 10
-515.3369328058263
 20
-755.9769634074166
 30
0.0
 11
-513.8366505182287
 21
-755.9769634074166
 31
0.0
  0
LINE
  5
4EC
330
1F
100
AcDbEntity
  8
D-0
  6
Continuous
 62
     7
370
     9
100
AcDbLine
 10
-513.8366505182287
 20
-755.9769634074166
 30
0.0
 11
-513.8366505182287
 21
-757.4772456950143
 31
0.0
  0
LINE
  5
4ED
330
1F
100
AcDbEntity
  8
D-0
  6
Continuous
 62
     7
370
     9
100
AcDbLine
 10
-513.8366505182287
 20
-757.4772456950143
 30
0.0
 11
-515.3369328058263
 21
-757.4772456950143
 31
0.0
  0
LINE
  5
4EE
330
1F
100
AcDbEntity
  8
D-0
  6
Continuous
 62
     7
370
     9
100
AcDbLine
 10
-527.1845814264318
 20
-723.9092449015573
 30
0.0
 11
-527.1845814264318
 21
-722.4089626139596
 31
0.0
  0
LINE
  5
4EF
330
1F
100
AcDbEntity
  8
D-0
  6
Continuous
 62
     7
370
     9
100
AcDbLine
 10
-527.1845814264318
 20
-722.4089626139596
 30
0.0
 11
-525.6842991388341
 21
-722.4089626139596
 31
0.0
  0
LINE
  5
4F0
330
1F
100
AcDbEntity
  8
D-0
  6
Continuous
 62
     7
370
     9
100
AcDbLine
 10
-525.6842991388341
 20
-722.4089626139596
 30
0.0
 11
-525.6842991388341
 21
-723.9092449015573
 31
0.0
  0
LINE
  5
4F1
330
1F
100
AcDbEntity
  8
D-0
  6
Continuous
 62
     7
370
     9
100
AcDbLine
 10
-525.6842991388341
 20
-723.9092449015573
 30
0.0
 11
-527.1845814264318
 21
-723.9092449015573
 31
0.0
  0
LINE
  5
4F2
330
1F
100
AcDbEntity
  8
D-0
  6
Continuous
 62
     7
370
     9
100
AcDbLine
 10
-471.8957146680852
 20
-609.725475675483
 30
0.0
 11
-471.8957146680852
 21
-608.2252124613717
 31
0.0
  0
LINE
  5
4F3
330
1F
100
AcDbEntity
  8
D-0
  6
Continuous
 62
     7
370
     9
100
AcDbLine
 10
-471.8957146680852
 20
-608.2252124613717
 30
0.0
 11
-470.3959306753179
 21
-608.2252124613717
 31
0.0
  0
LINE
  5
4F4
330
1F
100
AcDbEntity
  8
D-0
  6
Continuous
 62
     7
370
     9
100
AcDbLine
 10
-470.3959306753179
 20
-608.2252124613717
 30
0.0
 11
-470.3959306753179
 21
-609.725475675483
 31
0.0
  0
LINE
  5
4F5
330
1F
100
AcDbEntity
  8
D-0
  6
Continuous
 62
     7
370
     9
100
AcDbLine
 10
-470.3959306753179
 20
-609.725475675483
 30
0.0
 11
-471.8957146680852
 21
-609.725475675483
 31
0.0
  0
LINE
  5
4F6
330
1F
100
AcDbEntity
  8
D-0
  6
Continuous
 62
     7
370
     9
100
AcDbLine
 10
-460.0485607660314
 20
-509.8419574564886
 30
0.0
 11
-460.0485607660314
 21
-508.341675168891
 31
0.0
  0
LINE
  5
4F7
330
1F
100
AcDbEntity
  8
D-0
  6
Continuous
 62
     7
370
     9
100
AcDbLine
 10
-460.0485607660314
 20
-508.341675168891
 30
0.0
 11
-458.548281458666
 21
-508.341675168891
 31
0.0
  0
LINE
  5
4F8
330
1F
100
AcDbEntity
  8
D-0
  6
Continuous
 62
     7
370
     9
100
AcDbLine
 10
-458.548281458666
 20
-508.341675168891
 30
0.0
 11
-458.548281458666
 21
-509.8419574564886
 31
0.0
  0
LINE
  5
4F9
330
1F
100
AcDbEntity
  8
D-0
  6
Continuous
 62
     7
370
     9
100
AcDbLine
 10
-458.548281458666
 20
-509.8419574564886
 30
0.0
 11
-460.0485607660314
 21
-509.8419574564886
 31
0.0
  0
LINE
  5
4FA
330
1F
100
AcDbEntity
  8
D-0
  6
Continuous
 62
     7
370
     9
100
AcDbLine
 10
-363.9375254190466
 20
-521.0663036173773
 30
0.0
 11
-363.9375254190466
 21
-519.5660213297797
 31
0.0
  0
LINE
  5
4FB
330
1F
100
AcDbEntity
  8
D-0
  6
Continuous
 62
     7
370
     9
100
AcDbLine
 10
-363.9375254190466
 20
-519.5660213297797
 30
0.0
 11
-362.4377390420934
 21
-519.5660213297797
 31
0.0
  0
LINE
  5
4FC
330
1F
100
AcDbEntity
  8
D-0
  6
Continuous
 62
     7
370
     9
100
AcDbLine
 10
-362.4377390420934
 20
-519.5660213297797
 30
0.0
 11
-362.4377390420934
 21
-521.0663036173773
 31
0.0
  0
LINE
  5
4FD
330
1F
100
AcDbEntity
  8
D-0
  6
Continuous
 62
     7
370
     9
100
AcDbLine
 10
-362.4377390420934
 20
-521.0663036173773
 30
0.0
 11
-363.9375254190466
 21
-521.0663036173773
 31
0.0
  0
LINE
  5
4FE
330
1F
100
AcDbEntity
  8
D-0
  6
Continuous
 62
     7
370
     9
100
AcDbLine
 10
-425.6541105783483
 20
-506.3196567362738
 30
0.0
 11
-425.6541105783483
 21
-504.8193935221624
 31
0.0
  0
LINE
  5
4FF
330
1F
100
AcDbEntity
  8
D-0
  6
Continuous
 62
     7
370
     9
100
AcDbLine
 10
-425.6541105783483
 20
-504.8193935221624
 30
0.0
 11
-424.1543242013952
 21
-504.8193935221624
 31
0.0
  0
LINE
  5
500
330
1F
100
AcDbEntity
  8
D-0
  6
Continuous
 62
     7
370
     9
100
AcDbLine
 10
-424.1543242013952
 20
-504.8193935221624
 30
0.0
 11
-424.1543242013952
 21
-506.3196567362738
 31
0.0
  0
LINE
  5
501
330
1F
100
AcDbEntity
  8
D-0
  6
Continuous
 62
     7
370
     9
100
AcDbLine
 10
-424.1543242013952
 20
-506.3196567362738
 30
0.0
 11
-425.6541105783483
 21
-506.3196567362738
 31
0.0
  0
LINE
  5
502
330
1F
100
AcDbEntity
  8
D-0
  6
Continuous
 62
     7
370
     9
100
AcDbLine
 10
-552.8538271463414
 20
-573.0290798014594
 30
0.0
 11
-552.8538271463414
 21
-571.5287975138617
 31
0.0
  0
LINE
  5
503
330
1F
100
AcDbEntity
  8
D-0
  6
Continuous
 62
     7
370
     9
100
AcDbLine
 10
-552.8538271463414
 20
-571.5287975138617
 30
0.0
 11
-551.3540407693883
 21
-571.5287975138617
 31
0.0
  0
LINE
  5
504
330
1F
100
AcDbEntity
  8
D-0
  6
Continuous
 62
     7
370
     9
100
AcDbLine
 10
-551.3540407693883
 20
-571.5287975138617
 30
0.0
 11
-551.3540407693883
 21
-573.0290798014594
 31
0.0
  0
LINE
  5
505
330
1F
100
AcDbEntity
  8
D-0
  6
Continuous
 62
     7
370
     9
100
AcDbLine
 10
-551.3540407693883
 20
-573.0290798014594
 30
0.0
 11
-552.8538271463414
 21
-573.0290798014594
 31
0.0
  0
LINE
  5
506
330
1F
100
AcDbEntity
  8
D-0
  6
Continuous
 62
     7
370
     9
100
AcDbLine
 10
-509.413103727152
 20
-497.9948047465277
 30
0.0
 11
-509.413103727152
 21
-496.49452245893
 31
0.0
  0
LINE
  5
507
330
1F
100
AcDbEntity
  8
D-0
  6
Continuous
 62
     7
370
     9
100
AcDbLine
 10
-509.413103727152
 20
-496.49452245893
 30
0.0
 11
-507.9128262079259
 21
-496.49452245893
 31
0.0
  0
LINE
  5
508
330
1F
100
AcDbEntity
  8
D-0
  6
Continuous
 62
     7
370
     9
100
AcDbLine
 10
-507.9128262079259
 20
-496.49452245893
 30
0.0
 11
-507.9128262079259
 21
-497.9948047465277
 31
0.0
  0
LINE
  5
509
330
1F
100
AcDbEntity
  8
D-0
  6
Continuous
 62
     7
370
     9
100
AcDbLine
 10
-507.9128262079259
 20
-497.9948047465277
 30
0.0
 11
-509.413103727152
 21
-497.9948047465277
 31
0.0
  0
LINE
  5
50A
330
1F
100
AcDbEntity
  8
D-0
  6
Continuous
 62
     7
370
     9
100
AcDbLine
 10
-574.5746847665806
 20
-494.0454105204535
 30
0.0
 11
-574.5746847665806
 21
-492.5451282328558
 31
0.0
  0
LINE
  5
50B
330
1F
100
AcDbEntity
  8
D-0
  6
Continuous
 62
     7
370
     9
100
AcDbLine
 10
-574.5746847665806
 20
-492.5451282328558
 30
0.0
 11
-573.074402478983
 21
-492.5451282328558
 31
0.0
  0
LINE
  5
50C
330
1F
100
AcDbEntity
  8
D-0
  6
Continuous
 62
     7
370
     9
100
AcDbLine
 10
-573.074402478983
 20
-492.5451282328558
 30
0.0
 11
-573.074402478983
 21
-494.0454105204535
 31
0.0
  0
LINE
  5
50D
330
1F
100
AcDbEntity
  8
D-0
  6
Continuous
 62
     7
370
     9
100
AcDbLine
 10
-573.074402478983
 20
-494.0454105204535
 30
0.0
 11
-574.5746847665806
 21
-494.0454105204535
 31
0.0
  0
LINE
  5
50E
330
1F
100
AcDbEntity
  8
D-0
  6
Continuous
 62
     7
370
     9
100
AcDbLine
 10
-521.7334314859411
 20
-431.2581256693792
 30
0.0
 11
-521.7334314859411
 21
-429.7578433817816
 31
0.0
  0
LINE
  5
50F
330
1F
100
AcDbEntity
  8
D-0
  6
Continuous
 62
     7
370
     9
100
AcDbLine
 10
-521.7334314859411
 20
-429.7578433817816
 30
0.0
 11
-520.233153966715
 21
-429.7578433817816
 31
0.0
  0
LINE
  5
510
330
1F
100
AcDbEntity
  8
D-0
  6
Continuous
 62
     7
370
     9
100
AcDbLine
 10
-520.233153966715
 20
-429.7578433817816
 30
0.0
 11
-520.233153966715
 21
-431.2581256693792
 31
0.0
  0
LINE
  5
511
330
1F
100
AcDbEntity
  8
D-0
  6
Continuous
 62
     7
370
     9
100
AcDbLine
 10
-520.233153966715
 20
-431.2581256693792
 30
0.0
 11
-521.7334314859411
 21
-431.2581256693792
 31
0.0
  0
LINE
  5
512
330
1F
100
AcDbEntity
  8
D-0
  6
Continuous
 62
     7
370
     9
100
AcDbLine
 10
-465.972385523369
 20
-542.5894740885687
 30
0.0
 11
-465.972385523369
 21
-541.0891918009711
 31
0.0
  0
LINE
  5
513
330
1F
100
AcDbEntity
  8
D-0
  6
Continuous
 62
     7
370
     9
100
AcDbLine
 10
-465.972385523369
 20
-541.0891918009711
 30
0.0
 11
-464.4721061228713
 21
-541.0891918009711
 31
0.0
  0
LINE
  5
514
330
1F
100
AcDbEntity
  8
D-0
  6
Continuous
 62
     7
370
     9
100
AcDbLine
 10
-464.4721061228713
 20
-541.0891918009711
 30
0.0
 11
-464.4721061228713
 21
-542.5894740885687
 31
0.0
  0
LINE
  5
515
330
1F
100
AcDbEntity
  8
D-0
  6
Continuous
 62
     7
370
     9
100
AcDbLine
 10
-464.4721061228713
 20
-542.5894740885687
 30
0.0
 11
-465.972385523369
 21
-542.5894740885687
 31
0.0
  0
LINE
  5
516
330
1F
100
AcDbEntity
  8
D-0
  6
Continuous
 62
     7
370
     9
100
AcDbLine
 10
-525.209641126444
 20
-565.1308254069281
 30
0.0
 11
-525.209641126444
 21
-563.6305431193305
 31
0.0
  0
LINE
  5
517
330
1F
100
AcDbEntity
  8
D-0
  6
Continuous
 62
     7
370
     9
100
AcDbLine
 10
-525.209641126444
 20
-563.6305431193305
 30
0.0
 11
-523.7098595178625
 21
-563.6305431193305
 31
0.0
  0
LINE
  5
518
330
1F
100
AcDbEntity
  8
D-0
  6
Continuous
 62
     7
370
     9
100
AcDbLine
 10
-523.7098595178625
 20
-563.6305431193305
 30
0.0
 11
-523.7098595178625
 21
-565.1308254069281
 31
0.0
  0
LINE
  5
519
330
1F
100
AcDbEntity
  8
D-0
  6
Continuous
 62
     7
370
     9
100
AcDbLine
 10
-523.7098595178625
 20
-565.1308254069281
 30
0.0
 11
-525.209641126444
 21
-565.1308254069281
 31
0.0
  0
LINE
  5
51A
330
1F
100
AcDbEntity
  8
D-0
  6
Continuous
 62
     7
370
     9
100
AcDbLine
 10
-513.3619925058385
 20
-638.1906703776315
 30
0.0
 11
-513.3619925058385
 21
-636.6903880900338
 31
0.0
  0
LINE
  5
51B
330
1F
100
AcDbEntity
  8
D-0
  6
Continuous
 62
     7
370
     9
100
AcDbLine
 10
-513.3619925058385
 20
-636.6903880900338
 30
0.0
 11
-511.8622061288854
 21
-636.6903880900338
 31
0.0
  0
LINE
  5
51C
330
1F
100
AcDbEntity
  8
D-0
  6
Continuous
 62
     7
370
     9
100
AcDbLine
 10
-511.8622061288854
 20
-636.6903880900338
 30
0.0
 11
-511.8622061288854
 21
-638.1906703776315
 31
0.0
  0
LINE
  5
51D
330
1F
100
AcDbEntity
  8
D-0
  6
Continuous
 62
     7
370
     9
100
AcDbLine
 10
-511.8622061288854
 20
-638.1906703776315
 30
0.0
 11
-513.3619925058385
 21
-638.1906703776315
 31
0.0
  0
LINE
  5
51E
330
1F
100
AcDbEntity
  8
D-0
  6
Continuous
 62
     7
370
     9
100
AcDbLine
 10
-561.7395636117955
 20
-637.2031978434518
 30
0.0
 11
-561.7395636117955
 21
-635.7029155558541
 31
0.0
  0
LINE
  5
51F
330
1F
100
AcDbEntity
  8
D-0
  6
Continuous
 62
     7
370
     9
100
AcDbLine
 10
-561.7395636117955
 20
-635.7029155558541
 30
0.0
 11
-560.2392813241978
 21
-635.7029155558541
 31
0.0
  0
LINE
  5
520
330
1F
100
AcDbEntity
  8
D-0
  6
Continuous
 62
     7
370
     9
100
AcDbLine
 10
-560.2392813241978
 20
-635.7029155558541
 30
0.0
 11
-560.2392813241978
 21
-637.2031978434518
 31
0.0
  0
LINE
  5
521
330
1F
100
AcDbEntity
  8
D-0
  6
Continuous
 62
     7
370
     9
100
AcDbLine
 10
-560.2392813241978
 20
-637.2031978434518
 30
0.0
 11
-561.7395636117955
 21
-637.2031978434518
 31
0.0
  0
LINE
  5
522
330
1F
100
AcDbEntity
  8
D-0
  6
Continuous
 62
     7
370
     9
100
AcDbLine
 10
-548.7865206277868
 20
-756.3089183634713
 30
0.0
 11
-548.7865206277868
 21
-754.8086360758737
 31
0.0
  0
LINE
  5
523
330
1F
100
AcDbEntity
  8
D-0
  6
Continuous
 62
     7
370
     9
100
AcDbLine
 10
-548.7865206277868
 20
-754.8086360758737
 30
0.0
 11
-547.2867437875768
 21
-754.8086360758737
 31
0.0
  0
LINE
  5
524
330
1F
100
AcDbEntity
  8
D-0
  6
Continuous
 62
     7
370
     9
100
AcDbLine
 10
-547.2867437875768
 20
-754.8086360758737
 30
0.0
 11
-547.2867437875768
 21
-756.3089183634713
 31
0.0
  0
LINE
  5
525
330
1F
100
AcDbEntity
  8
D-0
  6
Continuous
 62
     7
370
     9
100
AcDbLine
 10
-547.2867437875768
 20
-756.3089183634713
 30
0.0
 11
-548.7865206277868
 21
-756.3089183634713
 31
0.0
  0
LINE
  5
526
330
1F
100
AcDbEntity
  8
D-0
  6
Continuous
 62
     7
370
     9
100
AcDbLine
 10
-498.260600236704
 20
-785.8165553873971
 30
0.0
 11
-498.260600236704
 21
-784.3163112467721
 31
0.0
  0
LINE
  5
527
330
1F
100
AcDbEntity
  8
D-0
  6
Continuous
 62
     7
370
     9
100
AcDbLine
 10
-498.260600236704
 20
-784.3163112467721
 30
0.0
 11
-496.7608162439367
 21
-784.3163112467721
 31
0.0
  0
LINE
  5
528
330
1F
100
AcDbEntity
  8
D-0
  6
Continuous
 62
     7
370
     9
100
AcDbLine
 10
-496.7608162439367
 20
-784.3163112467721
 30
0.0
 11
-496.7608162439367
 21
-785.8165553873971
 31
0.0
  0
LINE
  5
529
330
1F
100
AcDbEntity
  8
D-0
  6
Continuous
 62
     7
370
     9
100
AcDbLine
 10
-496.7608162439367
 20
-785.8165553873971
 30
0.0
 11
-498.260600236704
 21
-785.8165553873971
 31
0.0
  0
LINE
  5
52A
330
1F
100
AcDbEntity
  8
D-0
  6
Continuous
 62
     7
370
     9
100
AcDbLine
 10
-462.0230039632818
 20
-710.087147123237
 30
0.0
 11
-462.0230039632818
 21
-708.5868648356393
 31
0.0
  0
LINE
  5
52B
330
1F
100
AcDbEntity
  8
D-0
  6
Continuous
 62
     7
370
     9
100
AcDbLine
 10
-462.0230039632818
 20
-708.5868648356393
 30
0.0
 11
-460.5227243578931
 21
-708.5868648356393
 31
0.0
  0
LINE
  5
52C
330
1F
100
AcDbEntity
  8
D-0
  6
Continuous
 62
     7
370
     9
100
AcDbLine
 10
-460.5227243578931
 20
-708.5868648356393
 30
0.0
 11
-460.5227243578931
 21
-710.087147123237
 31
0.0
  0
LINE
  5
52D
330
1F
100
AcDbEntity
  8
D-0
  6
Continuous
 62
     7
370
     9
100
AcDbLine
 10
-460.5227243578931
 20
-710.087147123237
 30
0.0
 11
-462.0230039632818
 21
-710.087147123237
 31
0.0
  0
LINE
  5
52E
330
1F
100
AcDbEntity
  8
D-0
  6
Continuous
 62
     7
370
     9
100
AcDbLine
 10
-579.0557047403355
 20
-592.0238689249945
 30
0.0
 11
-579.0557047403355
 21
-590.5235866373969
 31
0.0
  0
LINE
  5
52F
330
1F
100
AcDbEntity
  8
D-0
  6
Continuous
 62
     7
370
     9
100
AcDbLine
 10
-579.0557047403355
 20
-590.5235866373969
 30
0.0
 11
-577.5554224527378
 21
-590.5235866373969
 31
0.0
  0
LINE
  5
530
330
1F
100
AcDbEntity
  8
D-0
  6
Continuous
 62
     7
370
     9
100
AcDbLine
 10
-577.5554224527378
 20
-590.5235866373969
 30
0.0
 11
-577.5554224527378
 21
-592.0238689249945
 31
0.0
  0
LINE
  5
531
330
1F
100
AcDbEntity
  8
D-0
  6
Continuous
 62
     7
370
     9
100
AcDbLine
 10
-577.5554224527378
 20
-592.0238689249945
 30
0.0
 11
-579.0557047403355
 21
-592.0238689249945
 31
0.0
  0
LINE
  5
532
330
1F
100
AcDbEntity
  8
D-0
  6
Continuous
 62
     7
370
     9
100
AcDbLine
 10
-462.1339890039465
 20
-635.7579234904244
 30
0.0
 11
-462.1339890039465
 21
-634.2576412028268
 31
0.0
  0
LINE
  5
533
330
1F
100
AcDbEntity
  8
D-0
  6
Continuous
 62
     7
370
     9
100
AcDbLine
 10
-462.1339890039465
 20
-634.2576412028268
 30
0.0
 11
-460.6337093985578
 21
-634.2576412028268
 31
0.0
  0
LINE
  5
534
330
1F
100
AcDbEntity
  8
D-0
  6
Continuous
 62
     7
370
     9
100
AcDbLine
 10
-460.6337093985578
 20
-634.2576412028268
 30
0.0
 11
-460.6337093985578
 21
-635.7579234904244
 31
0.0
  0
LINE
  5
535
330
1F
100
AcDbEntity
  8
D-0
  6
Continuous
 62
     7
370
     9
100
AcDbLine
 10
-460.6337093985578
 20
-635.7579234904244
 30
0.0
 11
-462.1339890039465
 21
-635.7579234904244
 31
0.0
  0
LINE
  5
536
330
1F
100
AcDbEntity
  8
D-0
  6
Continuous
 62
     7
370
     9
100
AcDbLine
 10
-486.864320901682
 20
-759.1038707560494
 30
0.0
 11
-486.864320901682
 21
-757.6035884684518
 31
0.0
  0
LINE
  5
537
330
1F
100
AcDbEntity
  8
D-0
  6
Continuous
 62
     7
370
     9
100
AcDbLine
 10
-486.864320901682
 20
-757.6035884684518
 30
0.0
 11
-485.364043382456
 21
-757.6035884684518
 31
0.0
  0
LINE
  5
538
330
1F
100
AcDbEntity
  8
D-0
  6
Continuous
 62
     7
370
     9
100
AcDbLine
 10
-485.364043382456
 20
-757.6035884684518
 30
0.0
 11
-485.364043382456
 21
-759.1038707560494
 31
0.0
  0
LINE
  5
539
330
1F
100
AcDbEntity
  8
D-0
  6
Continuous
 62
     7
370
     9
100
AcDbLine
 10
-485.364043382456
 20
-759.1038707560494
 30
0.0
 11
-486.864320901682
 21
-759.1038707560494
 31
0.0
  0
LINE
  5
53A
330
1F
100
AcDbEntity
  8
D-0
  6
Continuous
 62
     7
370
     9
100
AcDbLine
 10
-455.0205436027547
 20
-446.6419318980169
 30
0.0
 11
-455.0205436027547
 21
-445.1416591471624
 31
0.0
  0
LINE
  5
53B
330
1F
100
AcDbEntity
  8
D-0
  6
Continuous
 62
     7
370
     9
100
AcDbLine
 10
-455.0205436027547
 20
-445.1416591471624
 30
0.0
 11
-453.5202642953893
 21
-445.1416591471624
 31
0.0
  0
LINE
  5
53C
330
1F
100
AcDbEntity
  8
D-0
  6
Continuous
 62
     7
370
     9
100
AcDbLine
 10
-453.5202642953893
 20
-445.1416591471624
 30
0.0
 11
-453.5202642953893
 21
-446.6419318980169
 31
0.0
  0
LINE
  5
53D
330
1F
100
AcDbEntity
  8
D-0
  6
Continuous
 62
     7
370
     9
100
AcDbLine
 10
-453.5202642953893
 20
-446.6419318980169
 30
0.0
 11
-455.0205436027547
 21
-446.6419318980169
 31
0.0
  0
LINE
  5
53E
330
1F
100
AcDbEntity
  8
D-0
  6
Continuous
 62
     7
370
     9
100
AcDbLine
 10
-361.4101454294225
 20
-300.2878919905615
 30
0.0
 11
-361.4101454294225
 21
-298.7876126831961
 31
0.0
  0
LINE
  5
53F
330
1F
100
AcDbEntity
  8
D-0
  6
Continuous
 62
     7
370
     9
100
AcDbLine
 10
-361.4101454294225
 20
-298.7876126831961
 30
0.0
 11
-359.9098631418249
 21
-298.7876126831961
 31
0.0
  0
LINE
  5
540
330
1F
100
AcDbEntity
  8
D-0
  6
Continuous
 62
     7
370
     9
100
AcDbLine
 10
-359.9098631418249
 20
-298.7876126831961
 30
0.0
 11
-359.9098631418249
 21
-300.2878919905615
 31
0.0
  0
LINE
  5
541
330
1F
100
AcDbEntity
  8
D-0
  6
Continuous
 62
     7
370
     9
100
AcDbLine
 10
-359.9098631418249
 20
-300.2878919905615
 30
0.0
 11
-361.4101454294225
 21
-300.2878919905615
 31
0.0
  0
LINE
  5
542
330
1F
100
AcDbEntity
  8
D-0
  6
Continuous
 62
     7
370
     9
100
AcDbLine
 10
-382.9466864145299
 20
-331.5509799784613
 30
0.0
 11
-382.9466864145299
 21
-330.0507024592352
 31
0.0
  0
LINE
  5
543
330
1F
100
AcDbEntity
  8
D-0
  6
Continuous
 62
     7
370
     9
100
AcDbLine
 10
-382.9466864145299
 20
-330.0507024592352
 30
0.0
 11
-381.4464041269323
 21
-330.0507024592352
 31
0.0
  0
LINE
  5
544
330
1F
100
AcDbEntity
  8
D-0
  6
Continuous
 62
     7
370
     9
100
AcDbLine
 10
-381.4464041269323
 20
-330.0507024592352
 30
0.0
 11
-381.4464041269323
 21
-331.5509799784613
 31
0.0
  0
LINE
  5
545
330
1F
100
AcDbEntity
  8
D-0
  6
Continuous
 62
     7
370
     9
100
AcDbLine
 10
-381.4464041269323
 20
-331.5509799784613
 30
0.0
 11
-382.9466864145299
 21
-331.5509799784613
 31
0.0
  0
LINE
  5
546
330
1F
100
AcDbEntity
  8
D-0
  6
Continuous
 62
     7
370
     9
100
AcDbLine
 10
-391.3751026666662
 20
-500.8105472392035
 30
0.0
 11
-391.3751026666662
 21
-499.3102649516058
 31
0.0
  0
LINE
  5
547
330
1F
100
AcDbEntity
  8
D-0
  6
Continuous
 62
     7
370
     9
100
AcDbLine
 10
-391.3751026666662
 20
-499.3102649516058
 30
0.0
 11
-389.8753162897131
 21
-499.3102649516058
 31
0.0
  0
LINE
  5
548
330
1F
100
AcDbEntity
  8
D-0
  6
Continuous
 62
     7
370
     9
100
AcDbLine
 10
-389.8753162897131
 20
-499.3102649516058
 30
0.0
 11
-389.8753162897131
 21
-500.8105472392035
 31
0.0
  0
LINE
  5
549
330
1F
100
AcDbEntity
  8
D-0
  6
Continuous
 62
     7
370
     9
100
AcDbLine
 10
-389.8753162897131
 20
-500.8105472392035
 30
0.0
 11
-391.3751026666662
 21
-500.8105472392035
 31
0.0
  0
ARC
  5
54A
330
1F
100
AcDbEntity
  8
D-9
  6
Continuous
 62
     4
370
     9
100
AcDbCircle
 10
-574.1827627695103
 20
-394.8258117503119
 30
0.0
 40
5.0
100
AcDbArc
 50
90.0
 51
180.0
  0
ARC
  5
54B
330
1F
100
AcDbEntity
  8
D-A
  6
Continuous
 62
     3
370
     9
100
AcDbCircle
 10
-407.682466176798
 20
-338.3250287836981
 30
0.0
 40
6.499999761581421
100
AcDbArc
 50
0.0
 51
90.0
  0
ARC
  5
54C
330
1F
100
AcDbEntity
  8
D-A
  6
JWW_DASHED3
 62
     3
370
     9
100
AcDbCircle
 10
-407.682466176798
 20
-361.3256791895819
 30
0.0
 40
6.499999761581421
100
AcDbArc
 50
270.0
 51
0.0
  0
ARC
  5
54D
330
1F
100
AcDbEntity
  8
D-A
  6
Continuous
 62
     3
370
     9
100
AcDbCircle
 10
-424.1825672662756
 20
-401.4675716227484
 30
0.0
 40
10.0
100
AcDbArc
 50
0.0
 51
45.0
  0
ARC
  5
54E
330
1F
100
AcDbEntity
  8
D-A
  6
Continuous
 62
     3
370
     9
100
AcDbCircle
 10
-376.7563005960485
 20
-342.3259404963446
 30
0.0
 40
30.0
100
AcDbArc
 50
224.9996643066406
 51
270.0
  0
ARC
  5
54F
330
1F
100
AcDbEntity
  8
D-A
  6
Continuous
 62
     3
370
     9
100
AcDbCircle
 10
-299.1827341592809
 20
-382.3256305521917
 30
0.0
 40
10.0
100
AcDbArc
 50
0.0
 51
90.0
  0
ARC
  5
550
330
1F
100
AcDbEntity
  8
D-1
  6
Continuous
 62
     2
370
     9
100
AcDbCircle
 10
-584.1833063638707
 20
-399.8255828684759
 30
0.0
 40
5.0
100
AcDbArc
 50
90.0
 51
180.0
  0
ARC
  5
551
330
1F
100
AcDbEntity
  8
D-1
  6
Continuous
 62
     2
370
     9
100
AcDbCircle
 10
-437.1831723726293
 20
-290.3255013293219
 30
0.0
 40
3.00000011920929
100
AcDbArc
 50
0.0
 51
90.0
  0
ARC
  5
552
330
1F
100
AcDbEntity
  8
D-1
  6
Continuous
 62
     2
370
     9
100
AcDbCircle
 10
-456.1829134500524
 20
-290.3255013293219
 30
0.0
 40
3.00000011920929
100
AcDbArc
 50
90.0
 51
180.0
  0
ARC
  5
553
330
1F
100
AcDbEntity
  8
D-1
  6
Continuous
 62
     2
370
     9
100
AcDbCircle
 10
-437.1831723726293
 20
-409.3257049387884
 30
0.0
 40
3.00000011920929
100
AcDbArc
 50
270.0
 51
0.0
  0
ARC
  5
554
330
1F
100
AcDbEntity
  8
D-1
  6
Continuous
 62
     2
370
     9
100
AcDbCircle
 10
-459.1834723628065
 20
-402.3257259196234
 30
0.0
 40
5.0
100
AcDbArc
 50
270.0
 51
0.0
  0
ARC
  5
555
330
1F
100
AcDbEntity
  8
D-1
  6
Continuous
 62
     2
370
     9
100
AcDbCircle
 10
-531.1453577554723
 20
-399.8255828684759
 30
0.0
 40
5.0
100
AcDbArc
 50
70.43162536621094
 51
90.0
  0
ARC
  5
556
330
1F
100
AcDbEntity
  8
D-1
  6
Continuous
 62
     2
370
     9
100
AcDbCircle
 10
-508.8794848001501
 20
-402.3257259196234
 30
0.0
 40
5.0
100
AcDbArc
 50
250.4390106201172
 51
270.0
  0
ARC
  5
557
330
1F
100
AcDbEntity
  8
D-1
  6
Continuous
 62
     2
370
     9
100
AcDbCircle
 10
-584.1833063638707
 20
-407.3254970377874
 30
0.0
 40
5.0
100
AcDbArc
 50
180.0
 51
270.0
  0
ARC
  5
558
330
1F
100
AcDbEntity
  8
D-1
  6
Continuous
 62
     2
370
     9
100
AcDbCircle
 10
-573.5133883035679
 20
-399.8255828684759
 30
0.0
 40
5.0
100
AcDbArc
 50
59.99996948242189
 51
90.00000000000001
  0
ARC
  5
559
330
1F
100
AcDbEntity
  8
D-1
  6
Continuous
 62
     2
370
     9
100
AcDbCircle
 10
-544.8529955423376
 20
-399.8255828684759
 30
0.0
 40
5.0
100
AcDbArc
 50
90.0
 51
120.0000305175781
  0
ARC
  5
55A
330
1F
100
AcDbEntity
  8
D-1
  6
Continuous
 62
     2
370
     9
100
AcDbCircle
 10
-559.183439878275
 20
-402.3257259196234
 30
0.0
 40
5.0
100
AcDbArc
 50
239.9999694824219
 51
300.0000305175781
  0
LWPOLYLINE
  5
55B
330
1F
100
AcDbEntity
  8
D-4
  6
Continuous
 62
     7
370
     9
100
AcDbPolyline
 90
        4
 70
     1
 43
1.0
 10
-433.6831084764501
 20
53.0412861043024
 42
0.4142135623731
 10
-434.1831084764501
 20
53.5412861043024
 42
0.4142135623731
 10
-434.6831084764501
 20
53.0412861043024
 42
0.4142135623731
 10
-434.1831084764501
 20
52.5412861043024
 42
0.4142135623731
  0
LWPOLYLINE
  5
55C
330
1F
100
AcDbEntity
  8
D-4
  6
Continuous
 62
     7
370
     9
100
AcDbPolyline
 90
        4
 70
     1
 43
1.0
 10
-588.6825911081335
 20
-166.4067748850775
 42
0.4142135623731
 10
-589.1825911081334
 20
-165.9067748850775
 42
0.4142135623731
 10
-589.6825911081334
 20
-166.4067748850775
 42
0.4142135623731
 10
-589.1825911081334
 20
-166.9067748850775
 42
0.4142135623731
  0
LWPOLYLINE
  5
55D
330
1F
100
AcDbEntity
  8
D-4
  6
Continuous
 62
     7
370
     9
100
AcDbPolyline
 90
        4
 70
     1
 43
1.0
 10
-463.6817614114782
 20
-166.4067748850775
 42
0.4142135623731
 10
-464.1817614114782
 20
-165.9067748850775
 42
0.4142135623731
 10
-464.6817614114781
 20
-166.4067748850775
 42
0.4142135623731
 10
-464.1817614114782
 20
-166.9067748850775
 42
0.4142135623731
  0
LWPOLYLINE
  5
55E
330
1F
100
AcDbEntity
  8
D-4
  6
Continuous
 62
     7
370
     9
100
AcDbPolyline
 90
        4
 70
     1
 43
1.0
 10
-463.6817614114782
 20
-57.65436208905697
 42
0.4142135623731
 10
-464.1817614114782
 20
-57.15436208905697
 42
0.4142135623731
 10
-464.6817614114781
 20
-57.65436208905697
 42
0.4142135623731
 10
-464.1817614114782
 20
-58.15436208905697
 42
0.4142135623731
  0
LWPOLYLINE
  5
55F
330
1F
100
AcDbEntity
  8
D-4
  6
Continuous
 62
     7
370
     9
100
AcDbPolyline
 90
        4
 70
     1
 43
1.0
 10
-458.6814908063909
 20
-57.65436208905697
 42
0.4142135623731
 10
-459.1814908063909
 20
-57.15436208905697
 42
0.4142135623731
 10
-459.6814908063909
 20
-57.65436208905697
 42
0.4142135623731
 10
-459.1814908063909
 20
-58.15436208905697
 42
0.4142135623731
  0
LWPOLYLINE
  5
560
330
1F
100
AcDbEntity
  8
D-4
  6
Continuous
 62
     7
370
     9
100
AcDbPolyline
 90
        4
 70
     1
 43
1.0
 10
-433.6831084764501
 20
-57.65436208905697
 42
0.4142135623731
 10
-434.1831084764501
 20
-57.15436208905697
 42
0.4142135623731
 10
-434.6831084764501
 20
-57.65436208905697
 42
0.4142135623731
 10
-434.1831084764501
 20
-58.15436208905697
 42
0.4142135623731
  0
LWPOLYLINE
  5
561
330
1F
100
AcDbEntity
  8
D-4
  6
Continuous
 62
     7
370
     9
100
AcDbPolyline
 90
        4
 70
     1
 43
1.0
 10
-734.1651026285192
 20
-412.3257736033392
 42
0.4142135623731
 10
-734.6651026285191
 20
-411.8257736033393
 42
0.4142135623731
 10
-735.1651026285191
 20
-412.3257736033392
 42
0.4142135623731
 10
-734.6651026285191
 20
-412.8257736033391
 42
0.4142135623731
  0
LWPOLYLINE
  5
562
330
1F
100
AcDbEntity
  8
D-4
  6
Continuous
 62
     7
370
     9
100
AcDbPolyline
 90
        4
 70
     1
 43
1.0
 10
-734.1651026285192
 20
-287.3259333437872
 42
0.4142135623731
 10
-734.6651026285191
 20
-286.8259333437872
 42
0.4142135623731
 10
-735.1651026285191
 20
-287.3259333437872
 42
0.4142135623731
 10
-734.6651026285191
 20
-287.8259333437872
 42
0.4142135623731
  0
LWPOLYLINE
  5
563
330
1F
100
AcDbEntity
  8
D-4
  6
Continuous
 62
     7
370
     9
100
AcDbPolyline
 90
        4
 70
     1
 43
1.0
 10
-433.6821190393468
 20
-477.8564647501898
 42
0.4142135623731
 10
-434.1821190393468
 20
-477.3564647501898
 42
0.4142135623731
 10
-434.6821190393468
 20
-477.8564647501898
 42
0.4142135623731
 10
-434.1821190393468
 20
-478.3564647501897
 42
0.4142135623731
  0
LWPOLYLINE
  5
564
330
1F
100
AcDbEntity
  8
D-4
  6
Continuous
 62
     7
370
     9
100
AcDbPolyline
 90
        4
 70
     1
 43
1.0
 10
-288.6821810281774
 20
-477.8564647501898
 42
0.4142135623731
 10
-289.1821810281774
 20
-477.3564647501898
 42
0.4142135623731
 10
-289.6821810281774
 20
-477.8564647501898
 42
0.4142135623731
 10
-289.1821810281774
 20
-478.3564647501897
 42
0.4142135623731
  0
LWPOLYLINE
  5
565
330
1F
100
AcDbEntity
  8
D-4
  6
Continuous
 62
     7
370
     9
100
AcDbPolyline
 90
        4
 70
     1
 43
1.0
 10
-200.6314341104528
 20
-287.3259333437872
 42
0.4142135623731
 10
-201.1314341104528
 20
-286.8259333437872
 42
0.4142135623731
 10
-201.6314341104528
 20
-287.3259333437872
 42
0.4142135623731
 10
-201.1314341104528
 20
-287.8259333437872
 42
0.4142135623731
  0
LWPOLYLINE
  5
566
330
1F
100
AcDbEntity
  8
D-4
  6
Continuous
 62
     7
370
     9
100
AcDbPolyline
 90
        4
 70
     1
 43
1.0
 10
-200.6314341104528
 20
-372.3260787791205
 42
0.4142135623731
 10
-201.1314341104528
 20
-371.8260787791205
 42
0.4142135623731
 10
-201.6314341104528
 20
-372.3260787791205
 42
0.4142135623731
 10
-201.1314341104528
 20
-372.8260787791204
 42
0.4142135623731
  0
LWPOLYLINE
  5
567
330
1F
100
AcDbEntity
  8
D-4
  6
Continuous
 62
     7
370
     9
100
AcDbPolyline
 90
        4
 70
     1
 43
1.0
 10
-200.6314341104528
 20
-422.3258117503119
 42
0.4142135623731
 10
-201.1314341104528
 20
-421.8258117503119
 42
0.4142135623731
 10
-201.6314341104528
 20
-422.3258117503119
 42
0.4142135623731
 10
-201.1314341104528
 20
-422.8258117503118
 42
0.4142135623731
  0
LWPOLYLINE
  5
568
330
1F
100
AcDbEntity
  8
D-4
  6
Continuous
 62
     7
370
     9
100
AcDbPolyline
 90
        4
 70
     1
 43
1.0
 10
83.003114076803
 20
-537.32610738935
 42
0.4142135623731
 10
82.503114076803
 20
-536.82610738935
 42
0.4142135623731
 10
82.003114076803
 20
-537.32610738935
 42
0.4142135623731
 10
82.503114076803
 20
-537.8261073893499
 42
0.4142135623731
  0
LWPOLYLINE
  5
569
330
1F
100
AcDbEntity
  8
D-4
  6
Continuous
 62
     7
370
     9
100
AcDbPolyline
 90
        4
 70
     1
 43
1.0
 10
83.003114076803
 20
-287.3259333437872
 42
0.4142135623731
 10
82.503114076803
 20
-286.8259333437872
 42
0.4142135623731
 10
82.003114076803
 20
-287.3259333437872
 42
0.4142135623731
 10
82.503114076803
 20
-287.8259333437872
 42
0.4142135623731
  0
LWPOLYLINE
  5
56A
330
1F
100
AcDbEntity
  8
D-4
  6
Continuous
 62
     7
370
     9
100
AcDbPolyline
 90
        4
 70
     1
 43
1.0
 10
-588.6815992868444
 20
-692.9444316691354
 42
0.4142135623731
 10
-589.1815992868443
 20
-692.4444316691354
 42
0.4142135623731
 10
-589.6815992868443
 20
-692.9444316691354
 42
0.4142135623731
 10
-589.1815992868443
 20
-693.4444316691354
 42
0.4142135623731
  0
LWPOLYLINE
  5
56B
330
1F
100
AcDbEntity
  8
D-4
  6
Continuous
 62
     7
370
     9
100
AcDbPolyline
 90
        4
 70
     1
 43
1.0
 10
-438.6823884523412
 20
-692.9444316691354
 42
0.4142135623731
 10
-439.1823884523412
 20
-692.4444316691354
 42
0.4142135623731
 10
-439.6823884523412
 20
-692.9444316691354
 42
0.4142135623731
 10
-439.1823884523412
 20
-693.4444316691354
 42
0.4142135623731
  0
LWPOLYLINE
  5
56C
330
1F
100
AcDbEntity
  8
D-4
  6
Continuous
 62
     7
370
     9
100
AcDbPolyline
 90
        4
 70
     1
 43
1.0
 10
-588.6815992868444
 20
-847.4093059367135
 42
0.4142135623731
 10
-589.1815992868443
 20
-846.9093059367135
 42
0.4142135623731
 10
-589.6815992868443
 20
-847.4093059367135
 42
0.4142135623731
 10
-589.1815992868443
 20
-847.9093059367135
 42
0.4142135623731
  0
LWPOLYLINE
  5
56D
330
1F
100
AcDbEntity
  8
D-4
  6
Continuous
 62
     7
370
     9
100
AcDbPolyline
 90
        4
 70
     1
 43
1.0
 10
-188.6807314432164
 20
-847.4093059367135
 42
0.4142135623731
 10
-189.1807314432165
 20
-846.9093059367135
 42
0.4142135623731
 10
-189.6807314432165
 20
-847.4093059367135
 42
0.4142135623731
 10
-189.1807314432165
 20
-847.9093059367135
 42
0.4142135623731
  0
TEXT
  5
56E
330
1F
100
AcDbEntity
  8
D-4
  6
Continuous
 62
     2
370
     9
100
AcDbText
 10
-497.1274611032507
 20
-47.01506780805111
 30
0.0
 40
30.48
  1
1
 41
0.9999999999999998
  7
ＭＳ ゴシック
100
AcDbText
  0
TEXT
  5
56F
330
1F
100
AcDbEntity
  8
D-4
  6
Continuous
 62
     2
370
     9
100
AcDbText
 10
-547.9318377054235
 20
-155.7665078562689
 30
0.0
 40
30.48
  1
25
 41
1.062500000000002
  7
ＭＳ ゴシック
100
AcDbText
  0
TEXT
  5
570
330
1F
100
AcDbEntity
  8
D-5
  6
Continuous
 62
     7
370
     9
100
AcDbText
 10
-296.919436124613
 20
-171.5252818125677
 30
0.0
 40
22.86
  1
塩ビクッション
 41
1.142857142857143
  7
ＭＳ ゴシック
100
AcDbText
  0
TEXT
  5
571
330
1F
100
AcDbEntity
  8
D-4
  6
Continuous
 62
     2
370
     9
100
AcDbText
 10
-580.4316183603306
 20
-682.3046605509713
 30
0.0
 40
30.48
  1
25～30
 41
1.104166666666666
  7
ＭＳ ゴシック
100
AcDbText
  0
TEXT
  5
572
330
1F
100
AcDbEntity
  8
D-4
  6
Continuous
 62
     2
370
     9
100
AcDbText
 10
-457.0499840057394
 20
-836.7690007609323
 30
0.0
 40
30.48
  1
75～80
 41
1.104166666666667
  7
ＭＳ ゴシック
100
AcDbText
  0
TEXT
  5
573
330
1F
100
AcDbEntity
  8
D-4
  6
Continuous
 62
     2
370
     9
100
AcDbText
 10
71.8628470479944
 20
-478.575401916888
 30
0.0
 40
30.48
  1
40～50
 50
90.00000250447816
 41
1.104166666666667
  7
ＭＳ ゴシック
100
AcDbText
  0
TEXT
  5
574
330
1F
100
AcDbEntity
  8
D-4
  6
Continuous
 62
     2
370
     9
100
AcDbText
 10
-410.1925131357214
 20
-467.2166936320257
 30
0.0
 40
30.48
  1
29
 41
1.0625
  7
ＭＳ ゴシック
100
AcDbText
  0
TEXT
  5
575
330
1F
100
AcDbEntity
  8
D-4
  6
Continuous
 62
     2
370
     9
100
AcDbText
 10
-211.7717202127477
 20
-418.5756117252376
 30
0.0
 40
30.48
  1
10
 50
90.00000250447819
 41
1.062500000000001
  7
ＭＳ ゴシック
100
AcDbText
  0
TEXT
  5
576
330
1F
100
AcDbEntity
  8
D-4
  6
Continuous
 62
     2
370
     9
100
AcDbText
 10
-211.7717202127477
 20
-351.0759169010189
 30
0.0
 40
30.48
  1
17
 50
90.00000250447819
 41
1.062500000000001
  7
ＭＳ ゴシック
100
AcDbText
  0
TEXT
  5
577
330
1F
100
AcDbEntity
  8
D-4
  6
Continuous
 62
     2
370
     9
100
AcDbText
 10
-456.5396508253118
 20
-47.01506780805111
 30
0.0
 40
30.48
  1
5
 41
0.9999999999999998
  7
ＭＳ ゴシック
100
AcDbText
  0
TEXT
  5
578
330
1F
100
AcDbEntity
  8
D-5
  6
Continuous
 62
     2
370
     9
100
AcDbText
 10
-888.6766130524496
 20
-965.128108732127
 30
0.0
 40
30.48
  1
断面詳細図　Ｓ＝１：２
 50
359.9999375525338
 41
1.113636363636363
  7
ＭＳ ゴシック
100
AcDbText
  0
TEXT
  5
579
330
1F
100
AcDbEntity
  8
D-5
  6
Continuous
 62
     7
370
     9
100
AcDbText
 10
-282.6320978677769
 20
-265.9101034659338
 30
0.0
 40
22.86
  1
ｔ＝２．３（ＳＰＨＣ）
 41
1.151515151515151
  7
ＭＳ ゴシック
100
AcDbText
  0
TEXT
  5
57A
330
1F
100
AcDbEntity
  8
D-5
  6
Continuous
 62
     7
370
     9
100
AcDbText
 10
-292.2699495828648
 20
-115.4263342875433
 30
0.0
 40
22.86
  1
ステンレス製受枠ＳＦ２０Ｂ
 41
1.153846153846153
  7
ＭＳ ゴシック
100
AcDbText
  0
TEXT
  5
57B
330
1F
100
AcDbEntity
  8
D-4
  6
Continuous
 62
     2
370
     9
100
AcDbText
 10
-745.3053696573277
 20
-371.0760122684505
 30
0.0
 40
30.48
  1
25
 50
90.00000250447827
 41
1.062500000000001
  7
ＭＳ ゴシック
100
AcDbText
  0
TEXT
  5
57C
330
1F
100
AcDbEntity
  8
D-5
  6
Continuous
 62
     2
370
     9
100
AcDbText
 10
472.291398378561
 20
-794.368793241401
 30
0.0
 40
30.48
  1
材質：冷間圧延ステンレス鋼板（ＳＵＳ３０４－２Ｂ）
 41
1.119999999999999
  7
ＭＳ ゴシック
100
AcDbText
  0
LINE
  5
57D
330
1F
100
AcDbEntity
  8
D-2
  6
Continuous
 62
     3
370
     9
100
AcDbLine
 10
-479.1820785081884
 20
-289.8255733317328
 30
0.0
 11
-479.1820785081884
 21
-389.8255447215033
 31
0.0
  0
LINE
  5
57E
330
1F
100
AcDbEntity
  8
D-2
  6
Continuous
 62
     3
370
     9
100
AcDbLine
 10
-1136.850447324564
 20
-445.069322950263
 30
0.0
 11
-1136.850447324564
 21
-221.1268476313543
 31
0.0
  0
LINE
  5
57F
330
1F
100
AcDbEntity
  8
D-2
  6
Continuous
 62
     3
370
     9
100
AcDbLine
 10
-479.1820785081884
 20
-299.8251239127111
 30
0.0
 11
-1136.850447324564
 21
-299.8251239127111
 31
0.0
  0
LINE
  5
580
330
1F
100
AcDbEntity
  8
D-2
  6
Continuous
 62
     3
370
     9
100
AcDbLine
 10
-464.1817614114782
 20
-289.8255733317328
 30
0.0
 11
-464.1817614114782
 21
-389.8255447215033
 31
0.0
  0
LINE
  5
581
330
1F
100
AcDbEntity
  8
D-2
  6
Continuous
 62
     3
370
     9
100
AcDbLine
 10
-464.1842387554291
 20
-389.8255447215033
 30
0.0
 11
-1136.850447324564
 21
-389.8255447215033
 31
0.0
  0
LINE
  5
582
330
1F
100
AcDbEntity
  8
D-2
  6
Continuous
 62
     3
370
     9
100
AcDbLine
 10
-464.1817614114782
 20
-289.8255733317328
 30
0.0
 11
-1136.850447324564
 21
-289.8255733317328
 31
0.0
  0
LINE
  5
583
330
1F
100
AcDbEntity
  8
D-5
  6
Continuous
 62
     7
370
     9
100
AcDbLine
 10
-339.6595617807409
 20
-63.5796741312933
 30
0.0
 11
-537.1722408807775
 21
-292.3257086342764
 31
0.0
  0
LINE
  5
584
330
1F
100
AcDbEntity
  8
D-5
  6
Continuous
 62
     7
370
     9
100
AcDbLine
 10
-537.1722408807775
 20
-292.3257086342764
 30
0.0
 11
-523.4437891519567
 21
-271.4327815836859
 31
0.0
  0
LINE
  5
585
330
1F
100
AcDbEntity
  8
D-5
  6
Continuous
 62
     7
370
     9
100
AcDbLine
 10
-537.1722408807775
 20
-292.3257086342764
 30
0.0
 11
-518.5039660013219
 21
-275.6977764433813
 31
0.0
  0
LINE
  5
586
330
1F
100
AcDbEntity
  8
D-5
  6
Continuous
 62
     2
370
     9
100
AcDbLine
 10
535.4899457418421
 20
-274.8257497614813
 30
0.0
 11
310.4906323873499
 21
-274.8257497614813
 31
0.0
  0
LINE
  5
587
330
1F
100
AcDbEntity
  8
D-5
  6
Continuous
 62
     2
370
     9
100
AcDbLine
 10
535.4899457418421
 20
-224.8255161112738
 30
0.0
 11
535.4899457418421
 21
-274.8257497614813
 31
0.0
  0
LINE
  5
588
330
1F
100
AcDbEntity
  8
D-5
  6
Continuous
 62
     2
370
     9
100
AcDbLine
 10
310.4906323873499
 20
-224.8255161112738
 30
0.0
 11
535.4899457418421
 21
-224.8255161112738
 31
0.0
  0
LINE
  5
589
330
1F
100
AcDbEntity
  8
D-5
  6
Continuous
 62
     2
370
     9
100
AcDbLine
 10
310.4906323873499
 20
-274.8257497614813
 30
0.0
 11
310.4906323873499
 21
-224.8255161112738
 31
0.0
  0
TEXT
  5
58A
330
1F
100
AcDbEntity
  8
D-5
  6
Continuous
 62
     2
370
     9
100
AcDbText
 10
472.2923901998497
 20
-457.1061627787543
 30
0.0
 40
30.48
  1
材質：メインバー　ＳＵＳ３０４　＠１５
 41
1.118421052631579
  7
ＭＳ ゴシック
100
AcDbText
  0
TEXT
  5
58B
330
1F
100
AcDbEntity
  8
D-5
  6
Continuous
 62
     2
370
     9
100
AcDbText
 10
472.29239019985
 20
-522.1062199992133
 30
0.0
 40
30.48
  1
　　　クロスバー　ＳＵＳ３０４　＠１００
 41
1.118749999999999
  7
ＭＳ ゴシック
100
AcDbText
  0
TEXT
  5
58C
330
1F
100
AcDbEntity
  8
D-5
  6
Continuous
 62
     2
370
     9
100
AcDbText
 10
472.2923901998497
 20
-587.106258146186
 30
0.0
 40
30.48
  1
　　　サイドバー　ＳＵＳ３０４
 41
1.116666666666667
  7
ＭＳ ゴシック
100
AcDbText
  0
TEXT
  5
58D
330
1F
100
AcDbEntity
  8
D-5
  6
Continuous
 62
     2
370
     9
100
AcDbText
 10
357.990174623678
 20
-264.1854779643011
 30
0.0
 40
30.48
  1
仕　様
 41
1.083333333333333
  7
ＭＳ ゴシック
100
AcDbText
  0
TEXT
  5
58E
330
1F
100
AcDbEntity
  8
D-5
  6
Continuous
 62
     7
370
     9
100
AcDbText
 10
-282.632097867777
 20
-224.6861113566351
 30
0.0
 40
22.86
  1
溶接用アンカー
 41
1.142857142857143
  7
ＭＳ ゴシック
100
AcDbText
  0
TEXT
  5
58F
330
1F
100
AcDbEntity
  8
D-5
  6
Continuous
 62
     2
370
     9
100
AcDbText
 10
412.5794843160606
 20
-729.3692128581002
 30
0.0
 40
30.48
  1
ステンレス製受枠　ＳＦ２０Ｂ（四方枠）
 41
1.118421052631579
  7
ＭＳ ゴシック
100
AcDbText
  0
TEXT
  5
590
330
1F
100
AcDbEntity
  8
D-4
  6
Continuous
 62
     2
370
     9
100
AcDbText
 10
-1159.255736252267
 20
-47.44751622806625
 30
0.0
 40
30.48
  1
□500
 41
1.1
  7
ＭＳ ゴシック
100
AcDbText
  0
TEXT
  5
591
330
1F
100
AcDbEntity
  8
D-4
  6
Continuous
 62
     2
370
     9
100
AcDbText
 10
-1159.255736252267
 20
-156.2475162280662
 30
0.0
 40
30.48
  1
□450
 41
1.1
  7
ＭＳ ゴシック
100
AcDbText
  0
TEXT
  5
592
330
1F
100
AcDbEntity
  8
D-4
  6
Continuous
 62
     2
370
     9
100
AcDbText
 10
-1159.255736252267
 20
63.25248377193368
 30
0.0
 40
30.48
  1
□512
 41
1.1
  7
ＭＳ ゴシック
100
AcDbText
  0
LINE
  5
593
330
1F
100
AcDbEntity
  8
D-2
  6
JWW_CENTER2
 62
     3
370
     9
100
AcDbLine
 10
-964.1817614114782
 20
-372.7645686930609
 30
0.0
 11
-964.1817614114782
 21
-308.2456163233709
 31
0.0
  0
LINE
  5
594
330
1F
100
AcDbEntity
  8
D-2
  6
JWW_CENTER2
 62
     3
370
     9
100
AcDbLine
 10
-994.5064302957555
 20
-339.8253110712957
 30
0.0
 11
-933.5350557840368
 21
-339.8253110712957
 31
0.0
  0
LINE
  5
595
330
1F
100
AcDbEntity
  8
D-0
  6
Continuous
 62
     3
370
     9
100
AcDbLine
 10
-951.6820665872594
 20
-327.3251632517767
 30
0.0
 11
-951.6820665872594
 21
-334.6478799647284
 31
0.0
  0
LINE
  5
596
330
1F
100
AcDbEntity
  8
D-0
  6
Continuous
 62
     3
370
     9
100
AcDbLine
 10
-951.6820665872594
 20
-327.3251632517767
 30
0.0
 11
-959.0040728128454
 21
-327.3251632517767
 31
0.0
  0
LINE
  5
597
330
1F
100
AcDbEntity
  8
D-0
  6
Continuous
 62
     3
370
     9
100
AcDbLine
 10
-969.3591448343298
 20
-327.3251632517767
 30
0.0
 11
-976.6814562356969
 21
-327.3251632517767
 31
0.0
  0
LINE
  5
598
330
1F
100
AcDbEntity
  8
D-0
  6
Continuous
 62
     3
370
     9
100
AcDbLine
 10
-976.6814562356969
 20
-327.3251632517767
 30
0.0
 11
-976.6814562356969
 21
-334.6473554438543
 31
0.0
  0
LINE
  5
599
330
1F
100
AcDbEntity
  8
D-0
  6
Continuous
 62
     3
370
     9
100
AcDbLine
 10
-969.3591448343298
 20
-352.3254588908148
 30
0.0
 11
-976.6814562356969
 21
-352.3254588908148
 31
0.0
  0
LINE
  5
59A
330
1F
100
AcDbEntity
  8
D-0
  6
Continuous
 62
     3
370
     9
100
AcDbLine
 10
-976.6814562356969
 20
-345.0032666987371
 30
0.0
 11
-976.6814562356969
 21
-352.3254588908148
 31
0.0
  0
LINE
  5
59B
330
1F
100
AcDbEntity
  8
D-0
  6
Continuous
 62
     3
370
     9
100
AcDbLine
 10
-951.6820665872594
 20
-352.3254588908148
 30
0.0
 11
-959.0040728128454
 21
-352.3254588908148
 31
0.0
  0
LINE
  5
59C
330
1F
100
AcDbEntity
  8
D-0
  6
Continuous
 62
     3
370
     9
100
AcDbLine
 10
-951.6820665872594
 20
-345.0032666987371
 30
0.0
 11
-951.6820665872594
 21
-352.3254588908148
 31
0.0
  0
LINE
  5
59D
330
1F
100
AcDbEntity
  8
D-0
  6
Continuous
 62
     3
370
     9
100
AcDbLine
 10
-964.1816088235876
 20
-322.1476439303351
 30
0.0
 11
-981.8596788919469
 21
-339.8255733317328
 31
0.0
  0
LINE
  5
59E
330
1F
100
AcDbEntity
  8
D-0
  6
Continuous
 62
     3
370
     9
100
AcDbLine
 10
-964.1816088235876
 20
-357.5031522578192
 30
0.0
 11
-946.5038439310094
 21
-339.8255733317328
 31
0.0
  0
LINE
  5
59F
330
1F
100
AcDbEntity
  8
D-0
  6
Continuous
 62
     3
370
     9
100
AcDbLine
 10
-946.5038439310094
 20
-339.8255733317328
 30
0.0
 11
-964.1816088235876
 21
-322.1476439303351
 31
0.0
  0
LINE
  5
5A0
330
1F
100
AcDbEntity
  8
D-0
  6
Continuous
 62
     3
370
     9
100
AcDbLine
 10
-981.8596788919469
 20
-339.8255733317328
 30
0.0
 11
-964.1816088235876
 21
-357.5031522578192
 31
0.0
  0
LINE
  5
5A1
330
1F
100
AcDbEntity
  8
D-4
  6
Continuous
 62
     7
370
     9
100
AcDbLine
 10
-845.9082170999548
 20
-389.8255447215033
 30
0.0
 11
-845.9082170999548
 21
-289.8255733317328
 31
0.0
  0
LWPOLYLINE
  5
5A2
330
1F
100
AcDbEntity
  8
D-4
  6
Continuous
 62
     7
370
     9
100
AcDbPolyline
 90
        4
 70
     1
 43
1.0
 10
-845.4082170999549
 20
-289.8255733317328
 42
0.4142135623731
 10
-845.9082170999548
 20
-289.3255733317328
 42
0.4142135623731
 10
-846.4082170999548
 20
-289.8255733317328
 42
0.4142135623731
 10
-845.9082170999548
 20
-290.3255733317328
 42
0.4142135623731
  0
LWPOLYLINE
  5
5A3
330
1F
100
AcDbEntity
  8
D-4
  6
Continuous
 62
     7
370
     9
100
AcDbPolyline
 90
        4
 70
     1
 43
1.0
 10
-845.4082170999549
 20
-389.8255447215033
 42
0.4142135623731
 10
-845.9082170999548
 20
-389.3255447215033
 42
0.4142135623731
 10
-846.4082170999548
 20
-389.8255447215033
 42
0.4142135623731
 10
-845.9082170999548
 20
-390.3255447215032
 42
0.4142135623731
  0
TEXT
  5
5A4
330
1F
100
AcDbEntity
  8
D-4
  6
Continuous
 62
     2
370
     9
100
AcDbText
 10
-856.5479882181188
 20
-361.0754686740902
 30
0.0
 40
30.48
  1
20
 50
90.00000250447809
 41
1.062500000000001
  7
ＭＳ ゴシック
100
AcDbText
  0
LINE
  5
5A5
330
1F
100
AcDbEntity
  8
C-1
  6
Continuous
 62
     2
370
     9
100
AcDbLine
 10
-585.1215484722236
 20
457.6749432538008
 30
0.0
 11
-585.1215484722236
 21
969.6751263592696
 31
0.0
  0
LINE
  5
5A6
330
1F
100
AcDbEntity
  8
C-1
  6
Continuous
 62
     2
370
     9
100
AcDbLine
 10
-585.1215484722236
 20
969.6751263592696
 30
0.0
 11
-73.12149888115911
 21
969.6751263592696
 31
0.0
  0
LINE
  5
5A7
330
1F
100
AcDbEntity
  8
C-1
  6
Continuous
 62
     2
370
     9
100
AcDbLine
 10
-73.12149888115911
 20
457.6749432538008
 30
0.0
 11
-585.1215484722236
 21
457.6749432538008
 31
0.0
  0
LINE
  5
5A8
330
1F
100
AcDbEntity
  8
C-1
  6
Continuous
 62
     2
370
     9
100
AcDbLine
 10
-73.12149888115911
 20
969.6751263592696
 30
0.0
 11
-73.12149888115911
 21
457.6749432538008
 31
0.0
  0
LWPOLYLINE
  5
5A9
330
1F
100
AcDbEntity
  8
C-4
  6
Continuous
 62
     7
370
     9
100
AcDbPolyline
 90
        4
 70
     1
 43
1.0
 10
-584.6215484722236
 20
1153.674393937395
 42
0.4142135623731
 10
-585.1215484722236
 20
1154.174393937395
 42
0.4142135623731
 10
-585.6215484722236
 20
1153.674393937395
 42
0.4142135623731
 10
-585.1215484722236
 20
1153.174393937395
 42
0.4142135623731
  0
LWPOLYLINE
  5
5AA
330
1F
100
AcDbEntity
  8
C-4
  6
Continuous
 62
     7
370
     9
100
AcDbPolyline
 90
        4
 70
     1
 43
1.0
 10
-584.6215484722236
 20
1098.674393937394
 42
0.4142135623731
 10
-585.1215484722236
 20
1099.174393937394
 42
0.4142135623731
 10
-585.6215484722236
 20
1098.674393937394
 42
0.4142135623731
 10
-585.1215484722236
 20
1098.174393937394
 42
0.4142135623731
  0
LINE
  5
5AB
330
1F
100
AcDbEntity
  8
C-4
  6
Continuous
 62
     7
370
     9
100
AcDbLine
 10
-585.1215484722236
 20
1156.674394056604
 30
0.0
 11
-585.1215484722236
 21
991.6751263592696
 31
0.0
  0
LINE
  5
5AC
330
1F
100
AcDbEntity
  8
C-4
  6
Continuous
 62
     7
370
     9
100
AcDbLine
 10
-585.1215484722236
 20
1098.674393937394
 30
0.0
 11
-635.1215484722236
 21
1098.674393937394
 31
0.0
  0
LINE
  5
5AD
330
1F
100
AcDbEntity
  8
C-4
  6
Continuous
 62
     7
370
     9
100
AcDbLine
 10
-73.12149888115911
 20
1098.674393937394
 30
0.0
 11
-23.12149888115911
 21
1098.674393937394
 31
0.0
  0
LWPOLYLINE
  5
5AE
330
1F
100
AcDbEntity
  8
C-4
  6
Continuous
 62
     7
370
     9
100
AcDbPolyline
 90
        4
 70
     1
 43
1.0
 10
-72.62149888115911
 20
1153.674393937395
 42
0.4142135623731
 10
-73.12149888115911
 20
1154.174393937395
 42
0.4142135623731
 10
-73.62149888115911
 20
1153.674393937395
 42
0.4142135623731
 10
-73.12149888115911
 20
1153.174393937395
 42
0.4142135623731
  0
LWPOLYLINE
  5
5AF
330
1F
100
AcDbEntity
  8
C-4
  6
Continuous
 62
     7
370
     9
100
AcDbPolyline
 90
        4
 70
     1
 43
1.0
 10
-72.62149888115911
 20
1098.674393937394
 42
0.4142135623731
 10
-73.12149888115911
 20
1099.174393937394
 42
0.4142135623731
 10
-73.62149888115911
 20
1098.674393937394
 42
0.4142135623731
 10
-73.12149888115911
 20
1098.174393937394
 42
0.4142135623731
  0
LINE
  5
5B0
330
1F
100
AcDbEntity
  8
C-4
  6
Continuous
 62
     7
370
     9
100
AcDbLine
 10
-73.12149888115911
 20
1156.674394056604
 30
0.0
 11
-73.12149888115911
 21
991.6751263592696
 31
0.0
  0
LINE
  5
5B1
330
1F
100
AcDbEntity
  8
C-4
  6
Continuous
 62
     7
370
     9
100
AcDbLine
 10
-585.1215484722236
 20
1098.674393937394
 30
0.0
 11
-580.1215484722236
 21
1098.674393937394
 31
0.0
  0
TEXT
  5
5B2
330
1F
100
AcDbEntity
  8
C-4
  6
Continuous
 62
     2
370
   211
100
AcDbText
 10
-621.6215570552926
 20
1110.314394175813
 30
0.0
 40
30.48
  1
5
 41
0.9999999999999998
  7
ＭＳ ゴシック
100
AcDbText
  0
LINE
  5
5B3
330
1F
100
AcDbEntity
  8
C-4
  6
Continuous
 62
     7
370
     9
100
AcDbLine
 10
-585.1215484722236
 20
1153.674393937395
 30
0.0
 11
-73.12149888115911
 21
1153.674393937395
 31
0.0
  0
TEXT
  5
5B4
330
1F
100
AcDbEntity
  8
C-4
  6
Continuous
 62
     2
370
   211
100
AcDbText
 10
-361.6215236766914
 20
1165.314394175813
 30
0.0
 40
30.48
  1
512
 41
1.083333333333333
  7
ＭＳ ゴシック
100
AcDbText
  0
LINE
  5
5B5
330
1F
100
AcDbEntity
  8
C-4
  6
Continuous
 62
     7
370
     9
100
AcDbLine
 10
-78.12149888115911
 20
1098.674393937394
 30
0.0
 11
-73.12149888115911
 21
1098.674393937394
 31
0.0
  0
TEXT
  5
5B6
330
1F
100
AcDbEntity
  8
C-4
  6
Continuous
 62
     2
370
   211
100
AcDbText
 10
-56.62149888115913
 20
1110.314394175813
 30
0.0
 40
30.48
  1
5
 41
0.9999999999999998
  7
ＭＳ ゴシック
100
AcDbText
  0
LWPOLYLINE
  5
5B7
330
1F
100
AcDbEntity
  8
C-4
  6
Continuous
 62
     7
370
     9
100
AcDbPolyline
 90
        4
 70
     1
 43
1.0
 10
-713.6208160503484
 20
462.6750767682051
 42
0.4142135623731
 10
-714.1208160503483
 20
463.1750767682051
 42
0.4142135623731
 10
-714.6208160503483
 20
462.6750767682051
 42
0.4142135623731
 10
-714.1208160503483
 20
462.1750767682051
 42
0.4142135623731
  0
LINE
  5
5B8
330
1F
100
AcDbEntity
  8
C-4
  6
Continuous
 62
     7
370
     9
100
AcDbLine
 10
-714.1208160503483
 20
462.6750767682051
 30
0.0
 11
-714.1208160503483
 21
463.6754277203536
 31
0.0
  0
LWPOLYLINE
  5
5B9
330
1F
100
AcDbEntity
  8
C-4
  6
Continuous
 62
     7
370
     9
100
AcDbPolyline
 90
        4
 70
     1
 43
1.0
 10
-713.6208160503484
 20
463.6754277203536
 42
0.4142135623731
 10
-714.1208160503483
 20
464.1754277203536
 42
0.4142135623731
 10
-714.6208160503483
 20
463.6754277203536
 42
0.4142135623731
 10
-714.1208160503483
 20
463.1754277203537
 42
0.4142135623731
  0
LINE
  5
5BA
330
1F
100
AcDbEntity
  8
C-4
  6
Continuous
 62
     7
370
     9
100
AcDbLine
 10
-714.1208160503483
 20
463.6754277203536
 30
0.0
 11
-714.1208160503483
 21
963.6753094647383
 31
0.0
  0
LWPOLYLINE
  5
5BB
330
1F
100
AcDbEntity
  8
C-4
  6
Continuous
 62
     7
370
     9
100
AcDbPolyline
 90
        4
 70
     1
 43
1.0
 10
-713.6208160503484
 20
963.6753094647383
 42
0.4142135623731
 10
-714.1208160503483
 20
964.1753094647383
 42
0.4142135623731
 10
-714.6208160503483
 20
963.6753094647383
 42
0.4142135623731
 10
-714.1208160503483
 20
963.1753094647383
 42
0.4142135623731
  0
TEXT
  5
5BC
330
1F
100
AcDbEntity
  8
C-4
  6
Continuous
 62
     2
370
   211
100
AcDbText
 10
-725.7608162887668
 20
681.175368592546
 30
0.0
 40
30.48
  1
500
 50
90.0
 41
1.083333333333333
  7
ＭＳ ゴシック
100
AcDbText
  0
LINE
  5
5BD
330
1F
100
AcDbEntity
  8
C-4
  6
Continuous
 62
     7
370
     9
100
AcDbLine
 10
-714.1208160503483
 20
963.6753094647383
 30
0.0
 11
-714.1208160503483
 21
964.6751263592696
 31
0.0
  0
LWPOLYLINE
  5
5BE
330
1F
100
AcDbEntity
  8
C-4
  6
Continuous
 62
     7
370
     9
100
AcDbPolyline
 90
        4
 70
     1
 43
1.0
 10
-713.6208160503484
 20
964.6751263592696
 42
0.4142135623731
 10
-714.1208160503483
 20
965.1751263592696
 42
0.4142135623731
 10
-714.6208160503483
 20
964.6751263592696
 42
0.4142135623731
 10
-714.1208160503483
 20
964.1751263592697
 42
0.4142135623731
  0
LINE
  5
5BF
330
1F
100
AcDbEntity
  8
C-4
  6
Continuous
 62
     7
370
     9
100
AcDbLine
 10
-659.1215484722234
 20
463.6754277203536
 30
0.0
 11
-659.1215484722234
 21
488.6750939343429
 31
0.0
  0
LWPOLYLINE
  5
5C0
330
1F
100
AcDbEntity
  8
C-4
  6
Continuous
 62
     7
370
     9
100
AcDbPolyline
 90
        4
 70
     1
 43
1.0
 10
-658.6215484722234
 20
463.6754277203536
 42
0.4142135623731
 10
-659.1215484722234
 20
464.1754277203536
 42
0.4142135623731
 10
-659.6215484722234
 20
463.6754277203536
 42
0.4142135623731
 10
-659.1215484722234
 20
463.1754277203537
 42
0.4142135623731
  0
LWPOLYLINE
  5
5C1
330
1F
100
AcDbEntity
  8
C-4
  6
Continuous
 62
     7
370
     9
100
AcDbPolyline
 90
        4
 70
     1
 43
1.0
 10
-658.6215484722234
 20
488.6750939343429
 42
0.4142135623731
 10
-659.1215484722234
 20
489.1750939343428
 42
0.4142135623731
 10
-659.6215484722234
 20
488.6750939343429
 42
0.4142135623731
 10
-659.1215484722234
 20
488.175093934343
 42
0.4142135623731
  0
LINE
  5
5C2
330
1F
100
AcDbEntity
  8
C-4
  6
Continuous
 62
     7
370
     9
100
AcDbLine
 10
-659.1215484722234
 20
488.6750939343429
 30
0.0
 11
-659.1215484722234
 21
938.6751263592697
 31
0.0
  0
LWPOLYLINE
  5
5C3
330
1F
100
AcDbEntity
  8
C-4
  6
Continuous
 62
     7
370
     9
100
AcDbPolyline
 90
        4
 70
     1
 43
1.0
 10
-658.6215484722234
 20
938.6751263592697
 42
0.4142135623731
 10
-659.1215484722234
 20
939.1751263592697
 42
0.4142135623731
 10
-659.6215484722234
 20
938.6751263592697
 42
0.4142135623731
 10
-659.1215484722234
 20
938.1751263592697
 42
0.4142135623731
  0
TEXT
  5
5C4
330
1F
100
AcDbEntity
  8
C-4
  6
Continuous
 62
     2
370
   211
100
AcDbText
 10
-670.7615487106419
 20
681.1751101468063
 30
0.0
 40
30.48
  1
450
 50
90.0
 41
1.083333333333333
  7
ＭＳ ゴシック
100
AcDbText
  0
LINE
  5
5C5
330
1F
100
AcDbEntity
  8
C-4
  6
Continuous
 62
     7
370
     9
100
AcDbLine
 10
-659.1215484722234
 20
938.6751263592697
 30
0.0
 11
-659.1215484722234
 21
963.6753094647383
 31
0.0
  0
LWPOLYLINE
  5
5C6
330
1F
100
AcDbEntity
  8
C-4
  6
Continuous
 62
     7
370
     9
100
AcDbPolyline
 90
        4
 70
     1
 43
1.0
 10
-658.6215484722234
 20
963.6753094647383
 42
0.4142135623731
 10
-659.1215484722234
 20
964.1753094647383
 42
0.4142135623731
 10
-659.6215484722234
 20
963.6753094647383
 42
0.4142135623731
 10
-659.1215484722234
 20
963.1753094647383
 42
0.4142135623731
  0
LINE
  5
5C7
330
1F
100
AcDbEntity
  8
C-4
  6
Continuous
 62
     7
370
     9
100
AcDbLine
 10
-717.1208161695575
 20
462.6750767682051
 30
0.0
 11
-607.1215484722235
 21
462.6750767682051
 31
0.0
  0
LINE
  5
5C8
330
1F
100
AcDbEntity
  8
C-4
  6
Continuous
 62
     7
370
     9
100
AcDbLine
 10
-717.1208161695575
 20
463.6754277203536
 30
0.0
 11
-607.1215484722235
 21
463.6754277203536
 31
0.0
  0
LINE
  5
5C9
330
1F
100
AcDbEntity
  8
C-4
  6
Continuous
 62
     7
370
     9
100
AcDbLine
 10
-717.1208161695575
 20
963.6753094647383
 30
0.0
 11
-607.1215484722235
 21
963.6753094647383
 31
0.0
  0
LINE
  5
5CA
330
1F
100
AcDbEntity
  8
C-4
  6
Continuous
 62
     7
370
     9
100
AcDbLine
 10
-717.1208161695575
 20
964.6751263592696
 30
0.0
 11
-607.1215484722235
 21
964.6751263592696
 31
0.0
  0
LINE
  5
5CB
330
1F
100
AcDbEntity
  8
C-4
  6
Continuous
 62
     7
370
     9
100
AcDbLine
 10
-662.1215485914327
 20
488.6750939343429
 30
0.0
 11
-607.1215484722235
 21
488.6750939343429
 31
0.0
  0
LINE
  5
5CC
330
1F
100
AcDbEntity
  8
C-4
  6
Continuous
 62
     7
370
     9
100
AcDbLine
 10
-662.1215485914327
 20
938.6751263592697
 30
0.0
 11
-607.1215484722235
 21
938.6751263592697
 31
0.0
  0
TEXT
  5
5CD
330
1F
100
AcDbEntity
  8
C-4
  6
Continuous
 62
     2
370
   211
100
AcDbText
 10
-670.7615487106419
 20
474.9252608273483
 30
0.0
 40
30.48
  1
25
 50
90.0
 41
1.0625
  7
ＭＳ ゴシック
100
AcDbText
  0
TEXT
  5
5CE
330
1F
100
AcDbEntity
  8
C-4
  6
Continuous
 62
     2
370
   211
100
AcDbText
 10
-725.7608162887668
 20
473.1752522442794
 30
0.0
 40
30.48
  1
1
 50
90.0
 41
0.9999999999999998
  7
ＭＳ ゴシック
100
AcDbText
  0
TEXT
  5
5CF
330
1F
100
AcDbEntity
  8
C-4
  6
Continuous
 62
     2
370
   211
100
AcDbText
 10
-670.7615487106419
 20
909.925217912004
 30
0.0
 40
30.48
  1
25
 50
90.0
 41
1.0625
  7
ＭＳ ゴシック
100
AcDbText
  0
TEXT
  5
5D0
330
1F
100
AcDbEntity
  8
C-4
  6
Continuous
 62
     2
370
   211
100
AcDbText
 10
-725.7608162887668
 20
934.175217912004
 30
0.0
 40
30.48
  1
1
 50
90.0
 41
0.9999999999999998
  7
ＭＳ ゴシック
100
AcDbText
  0
LWPOLYLINE
  5
5D1
330
1F
100
AcDbEntity
  8
C-4
  6
Continuous
 62
     7
370
     9
100
AcDbPolyline
 90
        4
 70
     1
 43
1.0
 10
-768.6208160503486
 20
457.6750767682051
 42
0.4142135623731
 10
-769.1208160503486
 20
458.1750767682051
 42
0.4142135623731
 10
-769.6208160503486
 20
457.6750767682051
 42
0.4142135623731
 10
-769.1208160503486
 20
457.1750767682051
 42
0.4142135623731
  0
LWPOLYLINE
  5
5D2
330
1F
100
AcDbEntity
  8
C-4
  6
Continuous
 62
     7
370
     9
100
AcDbPolyline
 90
        4
 70
     1
 43
1.0
 10
-713.6208160503484
 20
457.6750767682051
 42
0.4142135623731
 10
-714.1208160503483
 20
458.1750767682051
 42
0.4142135623731
 10
-714.6208160503483
 20
457.6750767682051
 42
0.4142135623731
 10
-714.1208160503483
 20
457.1750767682051
 42
0.4142135623731
  0
LINE
  5
5D3
330
1F
100
AcDbEntity
  8
C-4
  6
Continuous
 62
     7
370
     9
100
AcDbLine
 10
-772.1208161695579
 20
457.6750767682051
 30
0.0
 11
-607.1215484722235
 21
457.6750767682051
 31
0.0
  0
LINE
  5
5D4
330
1F
100
AcDbEntity
  8
C-4
  6
Continuous
 62
     7
370
     9
100
AcDbLine
 10
-714.1208160503483
 20
457.6750767682051
 30
0.0
 11
-714.1208160503483
 21
407.6750767682051
 31
0.0
  0
LINE
  5
5D5
330
1F
100
AcDbEntity
  8
C-4
  6
Continuous
 62
     7
370
     9
100
AcDbLine
 10
-714.1208160503483
 20
969.6751263592696
 30
0.0
 11
-714.1208160503483
 21
1019.67512635927
 31
0.0
  0
LWPOLYLINE
  5
5D6
330
1F
100
AcDbEntity
  8
C-4
  6
Continuous
 62
     7
370
     9
100
AcDbPolyline
 90
        4
 70
     1
 43
1.0
 10
-768.6208160503486
 20
969.6751263592696
 42
0.4142135623731
 10
-769.1208160503486
 20
970.1751263592696
 42
0.4142135623731
 10
-769.6208160503486
 20
969.6751263592696
 42
0.4142135623731
 10
-769.1208160503486
 20
969.1751263592697
 42
0.4142135623731
  0
LWPOLYLINE
  5
5D7
330
1F
100
AcDbEntity
  8
C-4
  6
Continuous
 62
     7
370
     9
100
AcDbPolyline
 90
        4
 70
     1
 43
1.0
 10
-713.6208160503484
 20
969.6751263592696
 42
0.4142135623731
 10
-714.1208160503483
 20
970.1751263592696
 42
0.4142135623731
 10
-714.6208160503483
 20
969.6751263592696
 42
0.4142135623731
 10
-714.1208160503483
 20
969.1751263592697
 42
0.4142135623731
  0
LINE
  5
5D8
330
1F
100
AcDbEntity
  8
C-4
  6
Continuous
 62
     7
370
     9
100
AcDbLine
 10
-772.1208161695579
 20
969.6751263592696
 30
0.0
 11
-607.1215484722235
 21
969.6751263592696
 31
0.0
  0
LINE
  5
5D9
330
1F
100
AcDbEntity
  8
C-4
  6
Continuous
 62
     7
370
     9
100
AcDbLine
 10
-714.1208160503483
 20
457.6750767682051
 30
0.0
 11
-714.1208160503483
 21
462.6750767682051
 31
0.0
  0
TEXT
  5
5DA
330
1F
100
AcDbEntity
  8
C-4
  6
Continuous
 62
     2
370
   211
100
AcDbText
 10
-725.7608162887668
 20
421.1750681851362
 30
0.0
 40
30.48
  1
5
 50
90.0
 41
0.9999999999999998
  7
ＭＳ ゴシック
100
AcDbText
  0
LINE
  5
5DB
330
1F
100
AcDbEntity
  8
C-4
  6
Continuous
 62
     7
370
     9
100
AcDbLine
 10
-769.1208160503486
 20
457.6750767682051
 30
0.0
 11
-769.1208160503486
 21
969.6751263592696
 31
0.0
  0
TEXT
  5
5DC
330
1F
100
AcDbEntity
  8
C-4
  6
Continuous
 62
     2
370
   211
100
AcDbText
 10
-780.7608162887672
 20
681.1751015637374
 30
0.0
 40
30.48
  1
512
 50
90.0
 41
1.083333333333333
  7
ＭＳ ゴシック
100
AcDbText
  0
LINE
  5
5DD
330
1F
100
AcDbEntity
  8
C-4
  6
Continuous
 62
     7
370
     9
100
AcDbLine
 10
-714.1208160503483
 20
964.6751263592696
 30
0.0
 11
-714.1208160503483
 21
969.6751263592696
 31
0.0
  0
TEXT
  5
5DE
330
1F
100
AcDbEntity
  8
C-4
  6
Continuous
 62
     2
370
   211
100
AcDbText
 10
-725.7608162887668
 20
986.1751263592697
 30
0.0
 40
30.48
  1
5
 50
90.0
 41
0.9999999999999998
  7
ＭＳ ゴシック
100
AcDbText
  0
TEXT
  5
5DF
330
1F
100
AcDbEntity
  8
F-4ﾚｲﾔ
  6
Continuous
 62
     2
370
     9
100
AcDbText
 10
-767.3313624353841
 20
-1329.432522372265
 30
0.0
 40
30.48
  1
ステンレス製　細目ノンスリップタイプ（デルタ模様）
 41
0.7739999999999999
  7
ＭＳ ゴシック
100
AcDbText
  0
TEXT
  5
5E0
330
1F
100
AcDbEntity
  8
D-5
  6
Continuous
 62
     2
370
     9
100
AcDbText
 10
412.5804761373499
 20
-327.1061103266669
 30
0.0
 40
30.48
  1
ステンレス製　細目ノンスリップタイプ（デルタ模様）
 41
1.119999999999999
  7
ＭＳ ゴシック
100
AcDbText
  0
LINE
  5
5E1
330
1F
100
AcDbEntity
  8
D-5
  6
Continuous
 62
     7
370
     9
100
AcDbLine
 10
-339.6595617807409
 20
-63.5796741312933
 30
0.0
 11
520.9682361276643
 21
-63.5796741312933
 31
0.0
  0
TEXT
  5
5E2
330
1F
100
AcDbEntity
  8
D-5
  6
Continuous
 62
     7
370
     9
100
AcDbText
 10
-339.6595645437823
 20
-51.42265691938015
 30
0.0
 40
22.86
  1
グレーチング（すきま9mm）ＤＱ－２０（h=20）
 50
0.0000374256994594
 41
1.158914728682171
  7
ＭＳ ゴシック
100
AcDbText
  0
TEXT
  5
5E3
330
1F
100
AcDbEntity
  8
D-5
  6
Continuous
 62
     7
370
     9
100
AcDbText
 10
-339.6595617807409
 20
-18.71769323529721
 30
0.0
 40
22.86
  1
ステンレス製　細目ノンスリップタイプ（デルタ模様）
 41
1.16
  7
ＭＳ ゴシック
100
AcDbText
  0
TEXT
  5
5E4
330
1F
100
AcDbEntity
  8
D-5
  6
Continuous
 62
     2
370
     9
100
AcDbText
 10
412.5804765170259
 20
-392.105604879279
 30
0.0
 40
30.48
  1
グレーチング（すきま9mm）ＤＱ－２０　５００×５００×２０
 50
359.999996142952
 41
1.120614035087719
  7
ＭＳ ゴシック
100
AcDbText
  0
TEXT
  5
5E5
330
1F
100
AcDbEntity
  8
F-4ﾚｲﾔ
  6
Continuous
 62
     2
370
     9
100
AcDbText
 10
-767.3313624353843
 20
-1371.63542092299
 30
0.0
 40
30.48
  1
グレーチング（すきま9mm）ＤＱ－２０　５００×５００×２０＋ＳＦ２０Ｂ（四方枠）
 41
0.6999999999999998
  7
ＭＳ ゴシック
100
AcDbText
  0
ENDSEC
  0
SECTION
  2
OBJECTS
  0
DICTIONARY
  5
C
330
0
100
AcDbDictionary
281
     1
  3
ACAD_GROUP
350
D
  3
ACAD_LAYOUT
350
1A
  3
ACAD_MLEADERSTYLE
350
5E7
  3
ACAD_MLINESTYLE
350
17
  3
ACAD_PLOTSETTINGS
350
19
  3
ACAD_PLOTSTYLENAME
350
E
  3
ACAD_TABLESTYLE
350
5E6
  3
ACAD_VISUALSTYLE
350
2A
  0
DICTIONARY
  5
D
102
{ACAD_REACTORS
330
C
102
}
330
C
100
AcDbDictionary
281
     1
  0
DICTIONARY
  5
1A
102
{ACAD_REACTORS
330
C
102
}
330
C
100
AcDbDictionary
281
     1
  3
Layout1
350
1E
  3
Layout2
350
26
  3
Model
350
22
  0
DICTIONARY
  5
5E7
102
{ACAD_REACTORS
330
C
102
}
330
C
100
AcDbDictionary
281
     1
  0
DICTIONARY
  5
17
102
{ACAD_REACTORS
330
C
102
}
330
C
100
AcDbDictionary
281
     1
  3
Standard
350
18
  0
DICTIONARY
  5
19
102
{ACAD_REACTORS
330
C
102
}
330
C
100
AcDbDictionary
281
     1
  0
ACDBDICTIONARYWDFLT
  5
E
102
{ACAD_REACTORS
330
C
102
}
330
C
100
AcDbDictionary
281
     1
  3
Normal
350
F
100
AcDbDictionaryWithDefault
340
F
  0
DICTIONARY
  5
5E6
102
{ACAD_REACTORS
330
C
102
}
330
C
100
AcDbDictionary
281
     1
  0
DICTIONARY
  5
2A
102
{ACAD_REACTORS
330
C
102
}
330
C
100
AcDbDictionary
281
     1
  3
2dWireframe
350
2F
  3
3D Hidden
350
31
  3
3dWireframe
350
30
  3
Basic
350
32
  3
Brighten
350
36
  3
ColorChange
350
3A
  3
Conceptual
350
34
  3
Dim
350
35
  3
Facepattern
350
39
  3
Flat
350
2B
  3
FlatWithEdges
350
2C
  3
Gouraud
350
2D
  3
GouraudWithEdges
350
2E
  3
Linepattern
350
38
  3
Realistic
350
33
  3
Thicken
350
37
  0
LAYOUT
  5
1E
102
{ACAD_REACTORS
330
1A
102
}
330
1A
100
AcDbPlotSettings
  1

  2
none_device
  4

  6

 40
0.0
 41
0.0
 42
0.0
 43
0.0
 44
0.0
 45
0.0
 46
0.0
 47
0.0
 48
0.0
 49
0.0
140
0.0
141
0.0
142
1.0
143
1.0
 70
   688
 72
     0
 73
     0
 74
     5
  7

 75
    16
 76
     0
 77
     5
 78
   300
147
1.0
148
0.0
149
0.0
100
AcDbLayout
  1
Layout1
 70
     1
 71
     1
 10
0.0
 20
0.0
 11
420.0
 21
297.0
 12
0.0
 22
0.0
 32
0.0
 14
1.000000000000000E+20
 24
1.000000000000000E+20
 34
1.000000000000000E+20
 15
-1.000000000000000E+20
 25
-1.000000000000000E+20
 35
-1.000000000000000E+20
146
0.0
 13
0.0
 23
0.0
 33
0.0
 16
1.0
 26
0.0
 36
0.0
 17
0.0
 27
1.0
 37
0.0
 76
     0
330
1B
  0
LAYOUT
  5
26
102
{ACAD_REACTORS
330
1A
102
}
330
1A
100
AcDbPlotSettings
  1

  2
none_device
  4

  6

 40
0.0
 41
0.0
 42
0.0
 43
0.0
 44
0.0
 45
0.0
 46
0.0
 47
0.0
 48
0.0
 49
0.0
140
0.0
141
0.0
142
1.0
143
1.0
 70
   688
 72
     0
 73
     0
 74
     5
  7

 75
    16
 76
     0
 77
     5
 78
   300
147
1.0
148
0.0
149
0.0
100
AcDbLayout
  1
Layout2
 70
     1
 71
     2
 10
0.0
 20
0.0
 11
0.0
 21
0.0
 12
0.0
 22
0.0
 32
0.0
 14
0.0
 24
0.0
 34
0.0
 15
0.0
 25
0.0
 35
0.0
146
0.0
 13
0.0
 23
0.0
 33
0.0
 16
1.0
 26
0.0
 36
0.0
 17
0.0
 27
1.0
 37
0.0
 76
     0
330
23
  0
LAYOUT
  5
22
102
{ACAD_REACTORS
330
1A
102
}
330
1A
100
AcDbPlotSettings
  1

  2
none_device
  4

  6

 40
0.0
 41
0.0
 42
0.0
 43
0.0
 44
0.0
 45
0.0
 46
0.0
 47
0.0
 48
0.0
 49
0.0
140
0.0
141
0.0
142
1.0
143
1.0
 70
  1712
 72
     0
 73
     0
 74
     0
  7

 75
     0
 76
     0
 77
     5
 78
   300
147
1.0
148
0.0
149
0.0
100
AcDbLayout
  1
Model
 70
     1
 71
     0
 10
-2100.0
 20
-1485.0
 11
2100.0
 21
1485.0
 12
0.0
 22
0.0
 32
0.0
 14
-2100.0
 24
-1485.0
 34
0.0
 15
2100.0
 25
1485.0
 35
0.0
146
0.0
 13
0.0
 23
0.0
 33
0.0
 16
1.0
 26
0.0
 36
0.0
 17
0.0
 27
1.0
 37
0.0
 76
     0
330
1F
331
29
  0
MLINESTYLE
  5
18
102
{ACAD_REACTORS
330
17
102
}
330
17
100
AcDbMlineStyle
  2
Standard
 70
     0
  3

 62
   256
 51
90.0
 52
90.0
 71
     2
 49
0.5
 62
   256
  6
BYLAYER
 49
-0.5
 62
   256
  6
BYLAYER
  0
ACDBPLACEHOLDER
  5
F
102
{ACAD_REACTORS
330
E
102
}
330
E
  0
VISUALSTYLE
  5
2F
102
{ACAD_REACTORS
330
2A
102
}
330
2A
100
AcDbVisualStyle
  2
2dWireframe
 70
     4
 71
     0
 72
     2
 73
     0
 90
        0
 40
-0.6
 41
-30.0
 62
     5
 63
     7
421
 16777215
 74
     1
 91
        4
 64
     7
 65
   257
 75
     1
175
     1
 42
1.0
 92
        0
 66
   257
 43
1.0
 76
     1
 77
     6
 78
     2
 67
     7
 79
     5
170
     0
171
     0
290
     0
174
     0
 93
        1
 44
0.0
173
     0
291
     0
 45
0.0
1001
ACAD
1000
AcDbSavedByObjectVersion
1070
     0
  0
VISUALSTYLE
  5
31
102
{ACAD_REACTORS
330
2A
102
}
330
2A
100
AcDbVisualStyle
  2
3D Hidden
 70
     6
 71
     1
 72
     2
 73
     2
 90
        0
 40
-0.6
 41
-30.0
 62
     5
 63
     7
421
 16777215
 74
     2
 91
        2
 64
     7
 65
   257
 75
     2
175
     1
 42
40.0
 92
        0
 66
   257
 43
1.0
 76
     1
 77
     6
 78
     2
 67
     7
 79
     3
170
     0
171
     0
290
     0
174
     0
 93
        1
 44
0.0
173
     0
291
     0
 45
0.0
1001
ACAD
1000
AcDbSavedByObjectVersion
1070
     0
  0
VISUALSTYLE
  5
30
102
{ACAD_REACTORS
330
2A
102
}
330
2A
100
AcDbVisualStyle
  2
3dWireframe
 70
     5
 71
     0
 72
     2
 73
     0
 90
        0
 40
-0.6
 41
-30.0
 62
     5
 63
     7
421
 16777215
 74
     1
 91
        4
 64
     7
 65
   257
 75
     1
175
     1
 42
1.0
 92
        0
 66
   257
 43
1.0
 76
     1
 77
     6
 78
     2
 67
     7
 79
     5
170
     0
171
     0
290
     0
174
     0
 93
        1
 44
0.0
173
     0
291
     0
 45
0.0
1001
ACAD
1000
AcDbSavedByObjectVersion
1070
     0
  0
VISUALSTYLE
  5
32
102
{ACAD_REACTORS
330
2A
102
}
330
2A
100
AcDbVisualStyle
  2
Basic
 70
     7
 71
     1
 72
     0
 73
     1
 90
        0
 40
-0.6
 41
-30.0
 62
     5
 63
     7
421
 16777215
 74
     0
 91
        4
 64
     7
 65
   257
 75
     1
175
     1
 42
1.0
 92
        8
 66
     7
 43
1.0
 76
     1
 77
     6
 78
     2
 67
     7
 79
     5
170
     0
171
     0
290
     0
174
     0
 93
        1
 44
0.0
173
     0
291
     1
 45
0.0
1001
ACAD
1000
AcDbSavedByObjectVersion
1070
     0
  0
VISUALSTYLE
  5
36
102
{ACAD_REACTORS
330
2A
102
}
330
2A
100
AcDbVisualStyle
  2
Brighten
 70
    12
 71
     2
 72
     2
 73
     0
 90
        0
 40
-0.6
 41
-30.0
 62
     5
 63
     7
421
 16777215
 74
     1
 91
        4
 64
     7
 65
   257
 75
     1
175
     1
 42
1.0
 92
        8
 66
     7
 43
1.0
 76
     1
 77
     6
 78
     2
 67
     7
 79
     5
170
     0
171
     0
290
     0
174
     0
 93
        1
 44
50.0
173
     0
291
     1
 45
0.0
1001
ACAD
1000
AcDbSavedByObjectVersion
1070
     0
  0
VISUALSTYLE
  5
3A
102
{ACAD_REACTORS
330
2A
102
}
330
2A
100
AcDbVisualStyle
  2
ColorChange
 70
    16
 71
     2
 72
     2
 73
     3
 90
        0
 40
-0.6
 41
-30.0
 62
     5
 63
     8
421
  8421504
 74
     1
 91
        4
 64
     7
 65
   257
 75
     1
175
     1
 42
1.0
 92
        8
 66
     8
424
  8421504
 43
1.0
 76
     1
 77
     6
 78
     2
 67
     7
 79
     5
170
     0
171
     0
290
     0
174
     0
 93
        1
 44
0.0
173
     0
291
     1
 45
0.0
1001
ACAD
1000
AcDbSavedByObjectVersion
1070
     0
  0
VISUALSTYLE
  5
34
102
{ACAD_REACTORS
330
2A
102
}
330
2A
100
AcDbVisualStyle
  2
Conceptual
 70
     9
 71
     3
 72
     2
 73
     0
 90
        0
 40
-0.6
 41
-30.0
 62
     5
 63
     7
421
 16777215
 74
     2
 91
        2
 64
     7
 65
   257
 75
     1
175
     1
 42
40.0
 92
        8
 66
     7
 43
1.0
 76
     1
 77
     6
 78
     2
 67
     7
 79
     3
170
     0
171
     0
290
     0
174
     0
 93
        1
 44
0.0
173
     0
291
     0
 45
0.0
1001
ACAD
1000
AcDbSavedByObjectVersion
1070
     0
  0
VISUALSTYLE
  5
35
102
{ACAD_REACTORS
330
2A
102
}
330
2A
100
AcDbVisualStyle
  2
Dim
 70
    11
 71
     2
 72
     2
 73
     0
 90
        0
 40
-0.6
 41
-30.0
 62
     5
 63
     7
421
 16777215
 74
     1
 91
        4
 64
     7
 65
   257
 75
     1
175
     1
 42
1.0
 92
        8
 66
     7
 43
1.0
 76
     1
 77
     6
 78
     2
 67
     7
 79
     5
170
     0
171
     0
290
     0
174
     0
 93
        1
 44
-50.0
173
     0
291
     1
 45
0.0
1001
ACAD
1000
AcDbSavedByObjectVersion
1070
     0
  0
VISUALSTYLE
  5
39
102
{ACAD_REACTORS
330
2A
102
}
330
2A
100
AcDbVisualStyle
  2
Facepattern
 70
    15
 71
     2
 72
     2
 73
     0
 90
        0
 40
-0.6
 41
-30.0
 62
     5
 63
     7
421
 16777215
 74
     1
 91
        4
 64
     7
 65
   257
 75
     1
175
     1
 42
1.0
 92
        8
 66
     7
 43
1.0
 76
     1
 77
     6
 78
     2
 67
     7
 79
     5
170
     0
171
     0
290
     0
174
     0
 93
        1
 44
0.0
173
     0
291
     1
 45
0.0
1001
ACAD
1000
AcDbSavedByObjectVersion
1070
     0
  0
VISUALSTYLE
  5
2B
102
{ACAD_REACTORS
330
2A
102
}
330
2A
100
AcDbVisualStyle
  2
Flat
 70
     0
 71
     2
 72
     1
 73
     1
 90
        2
 40
-0.6
 41
30.0
 62
     5
 63
     7
421
 16777215
 74
     0
 91
        4
 64
     7
 65
   257
 75
     1
175
     1
 42
1.0
 92
        8
 66
     7
 43
1.0
 76
     1
 77
     6
 78
     2
 67
     7
 79
     5
170
     0
171
     0
290
     0
174
     0
 93
       13
 44
0.0
173
     0
291
     1
 45
0.0
1001
ACAD
1000
AcDbSavedByObjectVersion
1070
     0
  0
VISUALSTYLE
  5
2C
102
{ACAD_REACTORS
330
2A
102
}
330
2A
100
AcDbVisualStyle
  2
FlatWithEdges
 70
     1
 71
     2
 72
     1
 73
     1
 90
        2
 40
-0.6
 41
30.0
 62
     5
 63
     7
421
 16777215
 74
     1
 91
        4
 64
     7
 65
   257
 75
     1
175
     1
 42
1.0
 92
        0
 66
   257
 43
1.0
 76
     1
 77
     6
 78
     2
 67
     7
 79
     5
170
     0
171
     0
290
     0
174
     0
 93
       13
 44
0.0
173
     0
291
     1
 45
0.0
1001
ACAD
1000
AcDbSavedByObjectVersion
1070
     0
  0
VISUALSTYLE
  5
2D
102
{ACAD_REACTORS
330
2A
102
}
330
2A
100
AcDbVisualStyle
  2
Gouraud
 70
     2
 71
     2
 72
     2
 73
     1
 90
        2
 40
-0.6
 41
30.0
 62
     5
 63
     7
421
 16777215
 74
     0
 91
        4
 64
     7
 65
   257
 75
     1
175
     1
 42
1.0
 92
        0
 66
     7
 43
1.0
 76
     1
 77
     6
 78
     2
 67
     7
 79
     5
170
     0
171
     0
290
     0
174
     0
 93
       13
 44
0.0
173
     0
291
     1
 45
0.0
1001
ACAD
1000
AcDbSavedByObjectVersion
1070
     0
  0
VISUALSTYLE
  5
2E
102
{ACAD_REACTORS
330
2A
102
}
330
2A
100
AcDbVisualStyle
  2
GouraudWithEdges
 70
     3
 71
     2
 72
     2
 73
     1
 90
        2
 40
-0.6
 41
30.0
 62
     5
 63
     7
421
 16777215
 74
     1
 91
        4
 64
     7
 65
   257
 75
     1
175
     1
 42
1.0
 92
        0
 66
   257
 43
1.0
 76
     1
 77
     6
 78
     2
 67
     7
 79
     5
170
     0
171
     0
290
     0
174
     0
 93
       13
 44
0.0
173
     0
291
     1
 45
0.0
1001
ACAD
1000
AcDbSavedByObjectVersion
1070
     0
  0
VISUALSTYLE
  5
38
102
{ACAD_REACTORS
330
2A
102
}
330
2A
100
AcDbVisualStyle
  2
Linepattern
 70
    14
 71
     2
 72
     2
 73
     0
 90
        0
 40
-0.6
 41
-30.0
 62
     5
 63
     7
421
 16777215
 74
     1
 91
        4
 64
     7
 65
   257
 75
     7
175
     7
 42
1.0
 92
        8
 66
     7
 43
1.0
 76
     1
 77
     6
 78
     2
 67
     7
 79
     5
170
     0
171
     0
290
     0
174
     0
 93
        1
 44
0.0
173
     0
291
     1
 45
0.0
1001
ACAD
1000
AcDbSavedByObjectVersion
1070
     0
  0
VISUALSTYLE
  5
33
102
{ACAD_REACTORS
330
2A
102
}
330
2A
100
AcDbVisualStyle
  2
Realistic
 70
     8
 71
     2
 72
     2
 73
     0
 90
        0
 40
-0.6
 41
-30.0
 62
     5
 63
     7
421
 16777215
 74
     1
 91
        0
 64
     7
 65
   257
 75
     1
175
     1
 42
1.0
 92
        8
 66
     8
424
  7895160
 43
1.0
 76
     1
 77
     6
 78
     2
 67
     7
 79
     5
170
     0
171
     0
290
     0
174
     0
 93
       13
 44
0.0
173
     0
291
     0
 45
0.0
1001
ACAD
1000
AcDbSavedByObjectVersion
1070
     0
  0
VISUALSTYLE
  5
37
102
{ACAD_REACTORS
330
2A
102
}
330
2A
100
AcDbVisualStyle
  2
Thicken
 70
    13
 71
     2
 72
     2
 73
     0
 90
        0
 40
-0.6
 41
-30.0
 62
     5
 63
     7
421
 16777215
 74
     1
 91
        4
 64
     7
 65
   257
 75
     1
175
     1
 42
1.0
 92
       12
 66
     7
 43
1.0
 76
     1
 77
     6
 78
     2
 67
     7
 79
     5
170
     0
171
     0
290
     0
174
     0
 93
        1
 44
0.0
173
     0
291
     1
 45
0.0
1001
ACAD
1000
AcDbSavedByObjectVersion
1070
     0
  0
ENDSEC
  0
EOF
