  0
SECTION
  2
HEADER
  9
$ACADVER
  1
AC1018
  9
$ACADMAINTVER
 70
     0
  9
$DWGCODEPAGE
  3
ANSI_932
  9
$INSBASE
 10
0.0
 20
0.0
 30
0.0
  9
$EXTMIN
 10
-2100.0
 20
-1485.0
 30
0.0
  9
$EXTMAX
 10
2100.0
 20
1485.0
 30
0.0
  9
$LIMMIN
 10
-2100.0
 20
-1485.0
  9
$LIMMAX
 10
2100.0
 20
1485.0
  9
$ORTHOMODE
 70
     0
  9
$REGENMODE
 70
     1
  9
$FILLMODE
 70
     1
  9
$QTEXTMODE
 70
     0
  9
$MIRRTEXT
 70
     1
  9
$LTSCALE
 40
10.0
  9
$ATTMODE
 70
     1
  9
$TEXTSIZE
 40
2.5
  9
$TRACEWID
 40
1.0
  9
$TEXTSTYLE
  7
Standard
  9
$CLAYER
  8
0
  9
$CELTYPE
  6
ByLayer
  9
$CECOLOR
 62
   256
  9
$CELTSCALE
 40
1.0
  9
$DISPSILH
 70
     0
  9
$DIMSCALE
 40
1.0
  9
$DIMASZ
 40
2.5
  9
$DIMEXO
 40
0.625
  9
$DIMDLI
 40
3.75
  9
$DIMRND
 40
0.0
  9
$DIMDLE
 40
0.0
  9
$DIMEXE
 40
1.25
  9
$DIMTP
 40
0.0
  9
$DIMTM
 40
0.0
  9
$DIMTXT
 40
2.5
  9
$DIMCEN
 40
2.5
  9
$DIMTSZ
 40
0.0
  9
$DIMTOL
 70
     0
  9
$DIMLIM
 70
     0
  9
$DIMTIH
 70
     0
  9
$DIMTOH
 70
     0
  9
$DIMSE1
 70
     0
  9
$DIMSE2
 70
     0
  9
$DIMTAD
 70
     1
  9
$DIMZIN
 70
     8
  9
$DIMBLK
  1

  9
$DIMASO
 70
     1
  9
$DIMSHO
 70
     1
  9
$DIMPOST
  1

  9
$DIMAPOST
  1

  9
$DIMALT
 70
     0
  9
$DIMALTD
 70
     3
  9
$DIMALTF
 40
0.03937007874016
  9
$DIMLFAC
 40
1.0
  9
$DIMTOFL
 70
     1
  9
$DIMTVP
 40
0.0
  9
$DIMTIX
 70
     0
  9
$DIMSOXD
 70
     0
  9
$DIMSAH
 70
     0
  9
$DIMBLK1
  1

  9
$DIMBLK2
  1

  9
$DIMSTYLE
  2
ISO-25
  9
$DIMCLRD
 70
     0
  9
$DIMCLRE
 70
     0
  9
$DIMCLRT
 70
     0
  9
$DIMTFAC
 40
1.0
  9
$DIMGAP
 40
0.625
  9
$DIMJUST
 70
     0
  9
$DIMSD1
 70
     0
  9
$DIMSD2
 70
     0
  9
$DIMTOLJ
 70
     0
  9
$DIMTZIN
 70
     8
  9
$DIMALTZ
 70
     0
  9
$DIMALTTZ
 70
     0
  9
$DIMUPT
 70
     0
  9
$DIMDEC
 70
     2
  9
$DIMTDEC
 70
     2
  9
$DIMALTU
 70
     2
  9
$DIMALTTD
 70
     3
  9
$DIMTXSTY
  7
Standard
  9
$DIMAUNIT
 70
     0
  9
$DIMADEC
 70
     0
  9
$DIMALTRND
 40
0.0
  9
$DIMAZIN
 70
     0
  9
$DIMDSEP
 70
    44
  9
$DIMATFIT
 70
     3
  9
$DIMFRAC
 70
     0
  9
$DIMLDRBLK
  1

  9
$DIMLUNIT
 70
     2
  9
$DIMLWD
 70
    -2
  9
$DIMLWE
 70
    -2
  9
$DIMTMOVE
 70
     0
  9
$LUNITS
 70
     2
  9
$LUPREC
 70
     4
  9
$SKETCHINC
 40
1.0
  9
$FILLETRAD
 40
10.0
  9
$AUNITS
 70
     0
  9
$AUPREC
 70
     0
  9
$MENU
  1
.
  9
$ELEVATION
 40
0.0
  9
$PELEVATION
 40
0.0
  9
$THICKNESS
 40
0.0
  9
$LIMCHECK
 70
     0
  9
$CHAMFERA
 40
10.0
  9
$CHAMFERB
 40
10.0
  9
$CHAMFERC
 40
20.0
  9
$CHAMFERD
 40
0.0
  9
$SKPOLY
 70
     0
  9
$TDCREATE
 40
2457189.471840173
  9
$TDUCREATE
 40
2457189.096840173
  9
$TDUPDATE
 40
2457189.471840185
  9
$TDUUPDATE
 40
2457189.096840185
  9
$TDINDWG
 40
0.0000000116
  9
$TDUSRTIMER
 40
0.0000000116
  9
$USRTIMER
 70
     1
  9
$ANGBASE
 50
0.0
  9
$ANGDIR
 70
     0
  9
$PDMODE
 70
     0
  9
$PDSIZE
 40
0.0
  9
$PLINEWID
 40
0.0
  9
$SPLFRAME
 70
     0
  9
$SPLINETYPE
 70
     6
  9
$SPLINESEGS
 70
     8
  9
$HANDSEED
  5
585
  9
$SURFTAB1
 70
     6
  9
$SURFTAB2
 70
     6
  9
$SURFTYPE
 70
     6
  9
$SURFU
 70
     6
  9
$SURFV
 70
     6
  9
$UCSBASE
  2

  9
$UCSNAME
  2

  9
$UCSORG
 10
0.0
 20
0.0
 30
0.0
  9
$UCSXDIR
 10
1.0
 20
0.0
 30
0.0
  9
$UCSYDIR
 10
0.0
 20
1.0
 30
0.0
  9
$UCSORTHOREF
  2

  9
$UCSORTHOVIEW
 70
     0
  9
$UCSORGTOP
 10
0.0
 20
0.0
 30
0.0
  9
$UCSORGBOTTOM
 10
0.0
 20
0.0
 30
0.0
  9
$UCSORGLEFT
 10
0.0
 20
0.0
 30
0.0
  9
$UCSORGRIGHT
 10
0.0
 20
0.0
 30
0.0
  9
$UCSORGFRONT
 10
0.0
 20
0.0
 30
0.0
  9
$UCSORGBACK
 10
0.0
 20
0.0
 30
0.0
  9
$PUCSBASE
  2

  9
$PUCSNAME
  2

  9
$PUCSORG
 10
0.0
 20
0.0
 30
0.0
  9
$PUCSXDIR
 10
1.0
 20
0.0
 30
0.0
  9
$PUCSYDIR
 10
0.0
 20
1.0
 30
0.0
  9
$PUCSORTHOREF
  2

  9
$PUCSORTHOVIEW
 70
     0
  9
$PUCSORGTOP
 10
0.0
 20
0.0
 30
0.0
  9
$PUCSORGBOTTOM
 10
0.0
 20
0.0
 30
0.0
  9
$PUCSORGLEFT
 10
0.0
 20
0.0
 30
0.0
  9
$PUCSORGRIGHT
 10
0.0
 20
0.0
 30
0.0
  9
$PUCSORGFRONT
 10
0.0
 20
0.0
 30
0.0
  9
$PUCSORGBACK
 10
0.0
 20
0.0
 30
0.0
  9
$USERI1
 70
     0
  9
$USERI2
 70
     0
  9
$USERI3
 70
     0
  9
$USERI4
 70
     0
  9
$USERI5
 70
     0
  9
$USERR1
 40
0.0
  9
$USERR2
 40
0.0
  9
$USERR3
 40
0.0
  9
$USERR4
 40
0.0
  9
$USERR5
 40
0.0
  9
$WORLDVIEW
 70
     1
  9
$SHADEDGE
 70
     3
  9
$SHADEDIF
 70
    70
  9
$TILEMODE
 70
     1
  9
$MAXACTVP
 70
    64
  9
$PINSBASE
 10
0.0
 20
0.0
 30
0.0
  9
$PLIMCHECK
 70
     0
  9
$PEXTMIN
 10
1.000000000000000E+20
 20
1.000000000000000E+20
 30
1.000000000000000E+20
  9
$PEXTMAX
 10
-1.000000000000000E+20
 20
-1.000000000000000E+20
 30
-1.000000000000000E+20
  9
$PLIMMIN
 10
0.0
 20
0.0
  9
$PLIMMAX
 10
420.0
 20
297.0
  9
$UNITMODE
 70
     0
  9
$VISRETAIN
 70
     1
  9
$PLINEGEN
 70
     0
  9
$PSLTSCALE
 70
     1
  9
$TREEDEPTH
 70
  3020
  9
$CMLSTYLE
  2
Standard
  9
$CMLJUST
 70
     0
  9
$CMLSCALE
 40
20.0
  9
$PROXYGRAPHICS
 70
     1
  9
$MEASUREMENT
 70
     1
  9
$CELWEIGHT
370
    -1
  9
$ENDCAPS
280
     0
  9
$JOINSTYLE
280
     0
  9
$LWDISPLAY
290
     0
  9
$INSUNITS
 70
     4
  9
$HYPERLINKBASE
  1

  9
$STYLESHEET
  1

  9
$XEDIT
290
     1
  9
$CEPSNTYPE
380
     0
  9
$PSTYLEMODE
290
     1
  9
$FINGERPRINTGUID
  2
{65C84ECC-2C0D-437A-AFFC-3488C4BB9628}
  9
$VERSIONGUID
  2
{FAEB1C32-E019-11D5-929B-00C0DF256EC4}
  9
$EXTNAMES
290
     1
  9
$PSVPSCALE
 40
0.0
  9
$OLESTARTUP
290
     0
  9
$SORTENTS
280
   127
  9
$INDEXCTL
280
     0
  9
$HIDETEXT
280
     1
  9
$XCLIPFRAME
290
     0
  9
$HALOGAP
280
     0
  9
$OBSCOLOR
 70
   257
  9
$OBSLTYPE
280
     0
  9
$INTERSECTIONDISPLAY
280
     0
  9
$INTERSECTIONCOLOR
 70
   257
  9
$DIMASSOC
280
     2
  9
$PROJECTNAME
  1

  0
ENDSEC
  0
SECTION
  2
CLASSES
  0
CLASS
  1
ACDBDICTIONARYWDFLT
  2
AcDbDictionaryWithDefault
  3
ObjectDBX Classes
 90
        0
 91
        4
280
     0
281
     0
  0
CLASS
  1
VISUALSTYLE
  2
AcDbVisualStyle
  3
ObjectDBX Classes
 90
     4095
 91
        4
280
     0
281
     0
  0
ENDSEC
  0
SECTION
  2
TABLES
  0
TABLE
  2
VPORT
  5
8
330
0
100
AcDbSymbolTable
 70
     1
  0
VPORT
  5
29
330
8
100
AcDbSymbolTableRecord
100
AcDbViewportTableRecord
  2
*Active
 70
     0
 10
0.0
 20
0.0
 11
1.0
 21
1.0
 12
0.0
 22
0.0
 13
0.0
 23
0.0
 14
10.0
 24
10.0
 15
10.0
 25
10.0
 16
0.0
 26
0.0
 36
1.0
 17
0.0
 27
0.0
 37
0.0
 40
3267.0
 41
1.414141414141414
 42
50.0
 43
0.0
 44
0.0
 50
0.0
 51
0.0
 71
     0
 72
 10000
 73
     1
 74
     3
 75
     0
 76
     0
 77
     0
 78
     0
281
     0
 65
     1
110
0.0
120
0.0
130
0.0
111
1.0
121
0.0
131
0.0
112
0.0
122
1.0
132
0.0
 79
     0
146
0.0
  0
ENDTAB
  0
TABLE
  2
LTYPE
  5
5
330
0
100
AcDbSymbolTable
 70
     5
  0
LTYPE
  5
14
330
5
100
AcDbSymbolTableRecord
100
AcDbLinetypeTableRecord
  2
ByBlock
 70
     0
  3

 72
    65
 73
     0
 40
0.0
  0
LTYPE
  5
15
330
5
100
AcDbSymbolTableRecord
100
AcDbLinetypeTableRecord
  2
ByLayer
 70
     0
  3

 72
    65
 73
     0
 40
0.0
  0
LTYPE
  5
16
330
5
100
AcDbSymbolTableRecord
100
AcDbLinetypeTableRecord
  2
Continuous
 70
     0
  3
Solid line
 72
    65
 73
     0
 40
0.0
  0
LTYPE
  5
3C
330
5
100
AcDbSymbolTableRecord
100
AcDbLinetypeTableRecord
  2
JWW_DASHED3
 70
     0
  3
---  ------  ------  ------  ---
 72
    65
 73
     2
 40
3.386666666666667
 49
2.54
 74
     0
 49
-0.8466666666666667
 74
     0
  0
LTYPE
  5
3D
330
5
100
AcDbSymbolTableRecord
100
AcDbLinetypeTableRecord
  2
JWW_CENTER2
 70
     0
  3
-------------  --  -------------
 72
    65
 73
     4
 40
13.54666666666667
 49
11.00666666666667
 74
     0
 49
-0.8466666666666667
 74
     0
 49
0.8466666666666667
 74
     0
 49
-0.8466666666666667
 74
     0
  0
LTYPE
  5
3E
330
5
100
AcDbSymbolTableRecord
100
AcDbLinetypeTableRecord
  2
JWW_CENTER1
 70
     0
  3
-----  --  ----------  --  -----
 72
    65
 73
     4
 40
6.773333333333333
 49
4.233333333333333
 74
     0
 49
-0.8466666666666667
 74
     0
 49
0.8466666666666667
 74
     0
 49
-0.8466666666666667
 74
     0
  0
LTYPE
  5
3F
330
5
100
AcDbSymbolTableRecord
100
AcDbLinetypeTableRecord
  2
JWW_DASHED2
 70
     0
  3
--    ----    ----    ----    --
 72
    65
 73
     2
 40
3.386666666666667
 49
1.693333333333333
 74
     0
 49
-1.693333333333333
 74
     0
  0
ENDTAB
  0
TABLE
  2
LAYER
  5
2
330
0
100
AcDbSymbolTable
 70
    16
  0
LAYER
  5
10
330
2
100
AcDbSymbolTableRecord
100
AcDbLayerTableRecord
  2
0
 70
     0
 62
     7
  6
Continuous
370
    -3
390
F
  0
LAYER
  5
40
330
2
100
AcDbSymbolTableRecord
100
AcDbLayerTableRecord
  2
C-4
 70
     0
 62
     7
  6
Continuous
370
    -3
390
F
  0
LAYER
  5
41
330
2
100
AcDbSymbolTableRecord
100
AcDbLayerTableRecord
  2
C-2
 70
     0
 62
     7
  6
Continuous
370
    -3
390
F
  0
LAYER
  5
42
330
2
100
AcDbSymbolTableRecord
100
AcDbLayerTableRecord
  2
C-1
 70
     0
 62
     7
  6
Continuous
370
    -3
390
F
  0
LAYER
  5
43
330
2
100
AcDbSymbolTableRecord
100
AcDbLayerTableRecord
  2
C-5
 70
     0
 62
     7
  6
Continuous
370
    -3
390
F
  0
LAYER
  5
44
330
2
100
AcDbSymbolTableRecord
100
AcDbLayerTableRecord
  2
C-A
 70
     0
 62
     7
  6
Continuous
370
    -3
390
F
  0
LAYER
  5
45
330
2
100
AcDbSymbolTableRecord
100
AcDbLayerTableRecord
  2
F-5
 70
     0
 62
     7
  6
Continuous
370
    -3
390
F
  0
LAYER
  5
46
330
2
100
AcDbSymbolTableRecord
100
AcDbLayerTableRecord
  2
D-4
 70
     0
 62
     7
  6
Continuous
370
    -3
390
F
  0
LAYER
  5
47
330
2
100
AcDbSymbolTableRecord
100
AcDbLayerTableRecord
  2
D-6
 70
     0
 62
     7
  6
Continuous
370
    -3
390
F
  0
LAYER
  5
48
330
2
100
AcDbSymbolTableRecord
100
AcDbLayerTableRecord
  2
D-5
 70
     0
 62
     7
  6
Continuous
370
    -3
390
F
  0
LAYER
  5
49
330
2
100
AcDbSymbolTableRecord
100
AcDbLayerTableRecord
  2
D-0
 70
     0
 62
     7
  6
Continuous
370
    -3
390
F
  0
LAYER
  5
4A
330
2
100
AcDbSymbolTableRecord
100
AcDbLayerTableRecord
  2
D-9
 70
     0
 62
     7
  6
Continuous
370
    -3
390
F
  0
LAYER
  5
4B
330
2
100
AcDbSymbolTableRecord
100
AcDbLayerTableRecord
  2
D-1
 70
     0
 62
     7
  6
Continuous
370
    -3
390
F
  0
LAYER
  5
4C
330
2
100
AcDbSymbolTableRecord
100
AcDbLayerTableRecord
  2
D-3
 70
     0
 62
     7
  6
Continuous
370
    -3
390
F
  0
LAYER
  5
4D
330
2
100
AcDbSymbolTableRecord
100
AcDbLayerTableRecord
  2
D-A
 70
     0
 62
     7
  6
Continuous
370
    -3
390
F
  0
LAYER
  5
4E
330
2
100
AcDbSymbolTableRecord
100
AcDbLayerTableRecord
  2
D-2
 70
     0
 62
     7
  6
Continuous
370
    -3
390
F
  0
ENDTAB
  0
TABLE
  2
STYLE
  5
3
330
0
100
AcDbSymbolTable
 70
     2
  0
STYLE
  5
11
330
3
100
AcDbSymbolTableRecord
100
AcDbTextStyleTableRecord
  2
Standard
 70
     0
 40
0.0
 41
1.0
 50
0.0
 71
     0
 42
2.5
  3
txt
  4

1001
ACAD
1000

1071
        0
  0
STYLE
  5
3B
330
3
100
AcDbSymbolTableRecord
100
AcDbTextStyleTableRecord
  2
ＭＳ ゴシック
 70
     0
 40
1.0
 41
1.0
 50
0.0
 71
     0
 42
10.0
  3
msgothic.ttc
  4

1001
ACAD
1000
MS Gothic
1071
    32817
  0
ENDTAB
  0
TABLE
  2
VIEW
  5
6
330
0
100
AcDbSymbolTable
 70
     0
  0
ENDTAB
  0
TABLE
  2
UCS
  5
7
330
0
100
AcDbSymbolTable
 70
     0
  0
ENDTAB
  0
TABLE
  2
APPID
  5
9
330
0
100
AcDbSymbolTable
 70
     1
  0
APPID
  5
12
330
9
100
AcDbSymbolTableRecord
100
AcDbRegAppTableRecord
  2
ACAD
 70
     0
  0
ENDTAB
  0
TABLE
  2
DIMSTYLE
  5
A
330
0
100
AcDbSymbolTable
 70
     1
100
AcDbDimStyleTable
  0
DIMSTYLE
105
27
330
A
100
AcDbSymbolTableRecord
100
AcDbDimStyleTableRecord
  2
ISO-25
 70
     0
 41
2.5
 42
0.625
 43
3.75
 44
1.25
 73
     0
 74
     0
 77
     1
 78
     8
140
2.5
141
2.5
143
0.03937007874016
147
0.625
171
     3
172
     1
271
     2
272
     2
274
     3
278
    44
283
     0
284
     8
340
11
  0
ENDTAB
  0
TABLE
  2
BLOCK_RECORD
  5
1
330
0
100
AcDbSymbolTable
 70
     1
  0
BLOCK_RECORD
  5
1F
330
1
100
AcDbSymbolTableRecord
100
AcDbBlockTableRecord
  2
*Model_Space
340
22
  0
BLOCK_RECORD
  5
1B
330
1
100
AcDbSymbolTableRecord
100
AcDbBlockTableRecord
  2
*Paper_Space
340
1E
  0
BLOCK_RECORD
  5
23
330
1
100
AcDbSymbolTableRecord
100
AcDbBlockTableRecord
  2
*Paper_Space0
340
26
  0
ENDTAB
  0
ENDSEC
  0
SECTION
  2
BLOCKS
  0
BLOCK
  5
20
330
1F
100
AcDbEntity
  8
0
100
AcDbBlockBegin
  2
*Model_Space
 70
     0
 10
0.0
 20
0.0
 30
0.0
  3
*Model_Space
  1

  0
ENDBLK
  5
21
330
1F
100
AcDbEntity
  8
0
100
AcDbBlockEnd
  0
BLOCK
  5
1C
330
1B
100
AcDbEntity
 67
     1
  8
0
100
AcDbBlockBegin
  2
*Paper_Space
 70
     0
 10
0.0
 20
0.0
 30
0.0
  3
*Paper_Space
  1

  0
ENDBLK
  5
1D
330
1B
100
AcDbEntity
 67
     1
  8
0
100
AcDbBlockEnd
  0
BLOCK
  5
24
330
23
100
AcDbEntity
  8
0
100
AcDbBlockBegin
  2
*Paper_Space0
 70
     0
 10
0.0
 20
0.0
 30
0.0
  3
*Paper_Space0
  1

  0
ENDBLK
  5
25
330
23
100
AcDbEntity
  8
0
100
AcDbBlockEnd
  0
ENDSEC
  0
SECTION
  2
ENTITIES
  0
TEXT
  5
4F
330
1F
100
AcDbEntity
  8
C-4
  6
Continuous
 62
     2
370
   211
100
AcDbText
 10
-698.5043485211032
 20
804.7410414412218
 30
0.0
 40
30.48
  1
5
 50
90.0
 41
0.9999999999999998
  7
ＭＳ ゴシック
100
AcDbText
  0
LINE
  5
50
330
1F
100
AcDbEntity
  8
C-4
  6
Continuous
 62
     7
370
     9
100
AcDbLine
 10
-686.8643482826847
 20
790.8654158308701
 30
0.0
 11
-686.8643482826847
 21
795.8654158308701
 31
0.0
  0
TEXT
  5
51
330
1F
100
AcDbEntity
  8
C-4
  6
Continuous
 62
     2
370
   211
100
AcDbText
 10
-753.5043485211032
 20
582.3652403547959
 30
0.0
 40
30.48
  1
362
 50
90.0
 41
1.083333333333333
  7
ＭＳ ゴシック
100
AcDbText
  0
LINE
  5
52
330
1F
100
AcDbEntity
  8
C-4
  6
Continuous
 62
     7
370
     9
100
AcDbLine
 10
-741.8643482826847
 20
433.8650648787217
 30
0.0
 11
-741.8643482826847
 21
795.8654158308701
 31
0.0
  0
TEXT
  5
53
330
1F
100
AcDbEntity
  8
C-4
  6
Continuous
 62
     2
370
   211
100
AcDbText
 10
-698.5043485211032
 20
406.7064860060412
 30
0.0
 40
30.48
  1
5
 50
90.0
 41
0.9999999999999998
  7
ＭＳ ゴシック
100
AcDbText
  0
LINE
  5
54
330
1F
100
AcDbEntity
  8
C-4
  6
Continuous
 62
     7
370
     9
100
AcDbLine
 10
-686.8643482826847
 20
438.8650648787217
 30
0.0
 11
-686.8643482826847
 21
433.8650648787217
 31
0.0
  0
LINE
  5
55
330
1F
100
AcDbEntity
  8
C-4
  6
Continuous
 62
     7
370
     9
100
AcDbLine
 10
-686.8643482826847
 20
795.8654158308701
 30
0.0
 11
-686.8643482826847
 21
840.6166365339953
 31
0.0
  0
LWPOLYLINE
  5
56
330
1F
100
AcDbEntity
  8
C-4
  6
Continuous
 62
     7
370
     9
100
AcDbPolyline
 90
        4
 70
     1
 43
1.0
 10
-686.3643482826847
 20
795.8654158308701
 42
0.4142135623731
 10
-686.8643482826847
 20
796.3654158308701
 42
0.4142135623731
 10
-687.3643482826845
 20
795.8654158308701
 42
0.4142135623731
 10
-686.8643482826847
 20
795.3654158308701
 42
0.4142135623731
  0
LWPOLYLINE
  5
57
330
1F
100
AcDbEntity
  8
C-4
  6
Continuous
 62
     7
370
     9
100
AcDbPolyline
 90
        4
 70
     1
 43
1.0
 10
-741.3643482826847
 20
795.8654158308701
 42
0.4142135623731
 10
-741.8643482826847
 20
796.3654158308701
 42
0.4142135623731
 10
-742.3643482826845
 20
795.8654158308701
 42
0.4142135623731
 10
-741.8643482826847
 20
795.3654158308701
 42
0.4142135623731
  0
LINE
  5
58
330
1F
100
AcDbEntity
  8
C-4
  6
Continuous
 62
     7
370
     9
100
AcDbLine
 10
-571.8650807045594
 20
795.8654158308701
 30
0.0
 11
-689.8644093178407
 21
795.8654158308701
 31
0.0
  0
LINE
  5
59
330
1F
100
AcDbEntity
  8
C-4
  6
Continuous
 62
     7
370
     9
100
AcDbLine
 10
-571.8650807045594
 20
795.8654158308701
 30
0.0
 11
-744.8644093178407
 21
795.8654158308701
 31
0.0
  0
TEXT
  5
5A
330
1F
100
AcDbEntity
  8
C-4
  6
Continuous
 62
     2
370
   211
100
AcDbText
 10
-698.5043485211032
 20
757.842011267677
 30
0.0
 40
30.48
  1
1
 50
90.0
 41
0.9999999999999998
  7
ＭＳ ゴシック
100
AcDbText
  0
TEXT
  5
5B
330
1F
100
AcDbEntity
  8
C-4
  6
Continuous
 62
     2
370
   211
100
AcDbText
 10
-698.5043485211032
 20
451.472707358065
 30
0.0
 40
30.48
  1
1
 50
90.0
 41
0.9999999999999998
  7
ＭＳ ゴシック
100
AcDbText
  0
TEXT
  5
5C
330
1F
100
AcDbEntity
  8
C-4
  6
Continuous
 62
     2
370
   211
100
AcDbText
 10
-643.504836802353
 20
741.6650512362253
 30
0.0
 40
30.48
  1
25
 50
90.0
 41
1.0625
  7
ＭＳ ゴシック
100
AcDbText
  0
TEXT
  5
5D
330
1F
100
AcDbEntity
  8
C-4
  6
Continuous
 62
     2
370
   211
100
AcDbText
 10
-643.504836802353
 20
446.127496547038
 30
0.0
 40
30.48
  1
25
 50
90.0
 41
1.0625
  7
ＭＳ ゴシック
100
AcDbText
  0
TEXT
  5
5E
330
1F
100
AcDbEntity
  8
C-4
  6
Continuous
 62
     2
370
   211
100
AcDbText
 10
-698.5043485211032
 20
582.3654921248152
 30
0.0
 40
30.48
  1
350
 50
90.0
 41
1.083333333333333
  7
ＭＳ ゴシック
100
AcDbText
  0
LWPOLYLINE
  5
5F
330
1F
100
AcDbEntity
  8
C-4
  6
Continuous
 62
     7
370
     9
100
AcDbPolyline
 90
        4
 70
     1
 43
1.0
 10
-631.3648365639345
 20
789.8655684187605
 42
0.4142135623731
 10
-631.8648365639344
 20
790.3655684187605
 42
0.4142135623731
 10
-632.3648365639344
 20
789.8655684187605
 42
0.4142135623731
 10
-631.8648365639344
 20
789.3655684187605
 42
0.4142135623731
  0
LWPOLYLINE
  5
60
330
1F
100
AcDbEntity
  8
C-4
  6
Continuous
 62
     7
370
     9
100
AcDbPolyline
 90
        4
 70
     1
 43
1.0
 10
-631.3648365639345
 20
764.8656904890731
 42
0.4142135623731
 10
-631.8648365639344
 20
765.3656904890731
 42
0.4142135623731
 10
-632.3648365639344
 20
764.8656904890731
 42
0.4142135623731
 10
-631.8648365639344
 20
764.3656904890731
 42
0.4142135623731
  0
LINE
  5
61
330
1F
100
AcDbEntity
  8
C-4
  6
Continuous
 62
     7
370
     9
100
AcDbLine
 10
-631.8648365639344
 20
764.8656904890731
 30
0.0
 11
-631.8648365639344
 21
789.8655684187605
 31
0.0
  0
TEXT
  5
62
330
1F
100
AcDbEntity
  8
C-4
  6
Continuous
 62
     2
370
   211
100
AcDbText
 10
-643.504836802353
 20
582.3654844954211
 30
0.0
 40
30.48
  1
300
 50
90.0
 41
1.083333333333324
  7
ＭＳ ゴシック
100
AcDbText
  0
LWPOLYLINE
  5
63
330
1F
100
AcDbEntity
  8
C-4
  6
Continuous
 62
     7
370
     9
100
AcDbPolyline
 90
        4
 70
     1
 43
1.0
 10
-686.3643482826847
 20
790.8654158308701
 42
0.4142135623731
 10
-686.8643482826847
 20
791.3654158308701
 42
0.4142135623731
 10
-687.3643482826845
 20
790.8654158308701
 42
0.4142135623731
 10
-686.8643482826847
 20
790.3654158308701
 42
0.4142135623731
  0
LWPOLYLINE
  5
64
330
1F
100
AcDbEntity
  8
C-4
  6
Continuous
 62
     7
370
     9
100
AcDbPolyline
 90
        4
 70
     1
 43
1.0
 10
-686.3643482826847
 20
438.8650648787217
 42
0.4142135623731
 10
-686.8643482826847
 20
439.3650648787217
 42
0.4142135623731
 10
-687.3643482826845
 20
438.8650648787217
 42
0.4142135623731
 10
-686.8643482826847
 20
438.3650648787217
 42
0.4142135623731
  0
LWPOLYLINE
  5
65
330
1F
100
AcDbEntity
  8
C-4
  6
Continuous
 62
     7
370
     9
100
AcDbPolyline
 90
        4
 70
     1
 43
1.0
 10
-631.3648365639345
 20
439.8654158308699
 42
0.4142135623731
 10
-631.8648365639344
 20
440.3654158308699
 42
0.4142135623731
 10
-632.3648365639344
 20
439.8654158308699
 42
0.4142135623731
 10
-631.8648365639344
 20
439.3654158308699
 42
0.4142135623731
  0
LWPOLYLINE
  5
66
330
1F
100
AcDbEntity
  8
C-4
  6
Continuous
 62
     7
370
     9
100
AcDbPolyline
 90
        4
 70
     1
 43
1.0
 10
-631.3648365639345
 20
764.8656904890731
 42
0.4142135623731
 10
-631.8648365639344
 20
765.3656904890731
 42
0.4142135623731
 10
-632.3648365639344
 20
764.8656904890731
 42
0.4142135623731
 10
-631.8648365639344
 20
764.3656904890731
 42
0.4142135623731
  0
LWPOLYLINE
  5
67
330
1F
100
AcDbEntity
  8
C-4
  6
Continuous
 62
     7
370
     9
100
AcDbPolyline
 90
        4
 70
     1
 43
1.0
 10
-631.3648365639345
 20
464.8652785017686
 42
0.4142135623731
 10
-631.8648365639344
 20
465.3652785017686
 42
0.4142135623731
 10
-632.3648365639344
 20
464.8652785017686
 42
0.4142135623731
 10
-631.8648365639344
 20
464.3652785017686
 42
0.4142135623731
  0
LWPOLYLINE
  5
68
330
1F
100
AcDbEntity
  8
C-4
  6
Continuous
 62
     7
370
     9
100
AcDbPolyline
 90
        4
 70
     1
 43
1.0
 10
-686.3643482826847
 20
789.8655684187605
 42
0.4142135623731
 10
-686.8643482826847
 20
790.3655684187605
 42
0.4142135623731
 10
-687.3643482826845
 20
789.8655684187605
 42
0.4142135623731
 10
-686.8643482826847
 20
789.3655684187605
 42
0.4142135623731
  0
LWPOLYLINE
  5
69
330
1F
100
AcDbEntity
  8
C-4
  6
Continuous
 62
     7
370
     9
100
AcDbPolyline
 90
        4
 70
     1
 43
1.0
 10
-686.3643482826847
 20
439.8654158308699
 42
0.4142135623731
 10
-686.8643482826847
 20
440.3654158308699
 42
0.4142135623731
 10
-687.3643482826845
 20
439.8654158308699
 42
0.4142135623731
 10
-686.8643482826847
 20
439.3654158308699
 42
0.4142135623731
  0
LINE
  5
6A
330
1F
100
AcDbEntity
  8
C-4
  6
Continuous
 62
     7
370
     9
100
AcDbLine
 10
-571.8650807045594
 20
790.8654158308701
 30
0.0
 11
-689.8644093178407
 21
790.8654158308701
 31
0.0
  0
LINE
  5
6B
330
1F
100
AcDbEntity
  8
C-4
  6
Continuous
 62
     7
370
     9
100
AcDbLine
 10
-686.8643482826847
 20
789.8655684187605
 30
0.0
 11
-686.8643482826847
 21
790.8654158308701
 31
0.0
  0
LINE
  5
6C
330
1F
100
AcDbEntity
  8
C-4
  6
Continuous
 62
     7
370
     9
100
AcDbLine
 10
-571.8650807045594
 20
438.8650648787217
 30
0.0
 11
-689.8644093178407
 21
438.8650648787217
 31
0.0
  0
LINE
  5
6D
330
1F
100
AcDbEntity
  8
C-4
  6
Continuous
 62
     7
370
     9
100
AcDbLine
 10
-686.8643482826847
 20
439.8654158308699
 30
0.0
 11
-686.8643482826847
 21
438.8650648787217
 31
0.0
  0
LINE
  5
6E
330
1F
100
AcDbEntity
  8
C-4
  6
Continuous
 62
     7
370
     9
100
AcDbLine
 10
-631.8648365639344
 20
439.8654158308699
 30
0.0
 11
-628.8647755287781
 21
439.8654158308699
 31
0.0
  0
LINE
  5
6F
330
1F
100
AcDbEntity
  8
C-4
  6
Continuous
 62
     7
370
     9
100
AcDbLine
 10
-631.8648365639344
 20
439.8654158308699
 30
0.0
 11
-631.8648365639344
 21
464.8652785017686
 31
0.0
  0
LINE
  5
70
330
1F
100
AcDbEntity
  8
C-4
  6
Continuous
 62
     7
370
     9
100
AcDbLine
 10
-571.8650807045594
 20
764.8656904890731
 30
0.0
 11
-634.8648975990907
 21
764.8656904890731
 31
0.0
  0
LINE
  5
71
330
1F
100
AcDbEntity
  8
C-4
  6
Continuous
 62
     7
370
     9
100
AcDbLine
 10
-571.8650807045594
 20
464.8652785017686
 30
0.0
 11
-634.8648975990907
 21
464.8652785017686
 31
0.0
  0
LINE
  5
72
330
1F
100
AcDbEntity
  8
C-4
  6
Continuous
 62
     7
370
     9
100
AcDbLine
 10
-631.8648365639344
 20
464.8652785017686
 30
0.0
 11
-631.8648365639344
 21
764.8656904890731
 31
0.0
  0
LINE
  5
73
330
1F
100
AcDbEntity
  8
C-4
  6
Continuous
 62
     7
370
     9
100
AcDbLine
 10
-571.8650807045594
 20
789.8655684187605
 30
0.0
 11
-689.8644093178407
 21
789.8655684187605
 31
0.0
  0
LINE
  5
74
330
1F
100
AcDbEntity
  8
C-4
  6
Continuous
 62
     7
370
     9
100
AcDbLine
 10
-571.8650807045594
 20
439.8654158308699
 30
0.0
 11
-689.8644093178407
 21
439.8654158308699
 31
0.0
  0
LINE
  5
75
330
1F
100
AcDbEntity
  8
C-4
  6
Continuous
 62
     7
370
     9
100
AcDbLine
 10
-686.8643482826847
 20
439.8654158308699
 30
0.0
 11
-686.8643482826847
 21
789.8655684187605
 31
0.0
  0
LINE
  5
76
330
1F
100
AcDbEntity
  8
C-4
  6
Continuous
 62
     7
370
     9
100
AcDbLine
 10
-571.8650807045594
 20
433.8650648787217
 30
0.0
 11
-689.8644093178407
 21
433.8650648787217
 31
0.0
  0
LINE
  5
77
330
1F
100
AcDbEntity
  8
C-4
  6
Continuous
 62
     7
370
     9
100
AcDbLine
 10
-571.8650807045594
 20
433.8650648787217
 30
0.0
 11
-744.8644093178407
 21
433.8650648787217
 31
0.0
  0
LWPOLYLINE
  5
78
330
1F
100
AcDbEntity
  8
C-4
  6
Continuous
 62
     7
370
     9
100
AcDbPolyline
 90
        4
 70
     1
 43
1.0
 10
-741.3643482826847
 20
433.8650648787217
 42
0.4142135623731
 10
-741.8643482826847
 20
434.3650648787217
 42
0.4142135623731
 10
-742.3643482826845
 20
433.8650648787217
 42
0.4142135623731
 10
-741.8643482826847
 20
433.3650648787217
 42
0.4142135623731
  0
LWPOLYLINE
  5
79
330
1F
100
AcDbEntity
  8
C-4
  6
Continuous
 62
     7
370
     9
100
AcDbPolyline
 90
        4
 70
     1
 43
1.0
 10
-686.3643482826847
 20
433.8650648787217
 42
0.4142135623731
 10
-686.8643482826847
 20
434.3650648787217
 42
0.4142135623731
 10
-687.3643482826845
 20
433.8650648787217
 42
0.4142135623731
 10
-686.8643482826847
 20
433.3650648787217
 42
0.4142135623731
  0
LINE
  5
7A
330
1F
100
AcDbEntity
  8
C-4
  6
Continuous
 62
     7
370
     9
100
AcDbLine
 10
-686.8643482826847
 20
433.8650648787217
 30
0.0
 11
-686.8643482826847
 21
390.5479376509385
 31
0.0
  0
LINE
  5
7B
330
1F
100
AcDbEntity
  8
C-4
  6
Continuous
 62
     7
370
     9
100
AcDbLine
 10
-557.8648365639344
 20
924.8649275496202
 30
0.0
 11
-601.1819637917176
 21
924.8649275496202
 31
0.0
  0
LWPOLYLINE
  5
7C
330
1F
100
AcDbEntity
  8
C-4
  6
Continuous
 62
     7
370
     9
100
AcDbPolyline
 90
        4
 70
     1
 43
1.0
 10
-557.3648365639344
 20
924.8649275496202
 42
0.4142135623731
 10
-557.8648365639344
 20
925.3649275496202
 42
0.4142135623731
 10
-558.3648365639344
 20
924.8649275496202
 42
0.4142135623731
 10
-557.8648365639344
 20
924.3649275496203
 42
0.4142135623731
  0
LWPOLYLINE
  5
7D
330
1F
100
AcDbEntity
  8
C-4
  6
Continuous
 62
     7
370
     9
100
AcDbPolyline
 90
        4
 70
     1
 43
1.0
 10
-557.3648365639344
 20
979.8649275496202
 42
0.4142135623731
 10
-557.8648365639344
 20
980.3649275496202
 42
0.4142135623731
 10
-558.3648365639344
 20
979.8649275496202
 42
0.4142135623731
 10
-557.8648365639344
 20
979.3649275496203
 42
0.4142135623731
  0
LINE
  5
7E
330
1F
100
AcDbEntity
  8
C-4
  6
Continuous
 62
     7
370
     9
100
AcDbLine
 10
-557.8648365639344
 20
809.8656599714951
 30
0.0
 11
-557.8648365639344
 21
982.8649885847765
 31
0.0
  0
LINE
  5
7F
330
1F
100
AcDbEntity
  8
C-4
  6
Continuous
 62
     7
370
     9
100
AcDbLine
 10
-557.8648365639344
 20
809.8656599714951
 30
0.0
 11
-557.8648365639344
 21
927.8649885847765
 31
0.0
  0
LINE
  5
80
330
1F
100
AcDbEntity
  8
C-2
  6
Continuous
 62
     3
370
     9
100
AcDbLine
 10
-201.8643330238956
 20
789.8655379011825
 30
0.0
 11
-201.8643330238956
 21
439.8654005720809
 31
0.0
  0
LINE
  5
81
330
1F
100
AcDbEntity
  8
C-2
  6
Continuous
 62
     3
370
     9
100
AcDbLine
 10
-201.8643330238956
 20
439.8654005720809
 30
0.0
 11
-551.8644856117862
 21
439.8654005720809
 31
0.0
  0
LINE
  5
82
330
1F
100
AcDbEntity
  8
C-1
  6
JWW_DASHED3
 62
     2
370
     9
100
AcDbLine
 10
-226.864210953583
 20
764.8656599714951
 30
0.0
 11
-226.864210953583
 21
464.8652632429796
 31
0.0
  0
LINE
  5
83
330
1F
100
AcDbEntity
  8
C-1
  6
JWW_DASHED3
 62
     2
370
     9
100
AcDbLine
 10
-226.864210953583
 20
464.8652632429796
 30
0.0
 11
-526.8646229408876
 21
464.8652632429796
 31
0.0
  0
LINE
  5
84
330
1F
100
AcDbEntity
  8
C-1
  6
JWW_DASHED3
 62
     2
370
     9
100
AcDbLine
 10
-526.8646229408876
 20
464.8652632429796
 30
0.0
 11
-526.8646229408876
 21
764.8656599714951
 31
0.0
  0
LINE
  5
85
330
1F
100
AcDbEntity
  8
C-1
  6
JWW_DASHED3
 62
     2
370
     9
100
AcDbLine
 10
-526.8646229408876
 20
764.8656599714951
 30
0.0
 11
-226.864210953583
 21
764.8656599714951
 31
0.0
  0
LINE
  5
86
330
1F
100
AcDbEntity
  8
C-1
  6
Continuous
 62
     2
370
     9
100
AcDbLine
 10
-200.864485611786
 20
790.8654158308701
 30
0.0
 11
-200.864485611786
 21
438.8655379011826
 31
0.0
  0
LINE
  5
87
330
1F
100
AcDbEntity
  8
C-1
  6
Continuous
 62
     2
370
     9
100
AcDbLine
 10
-200.864485611786
 20
438.8655379011826
 30
0.0
 11
-552.8648365639344
 21
438.8655379011826
 31
0.0
  0
LINE
  5
88
330
1F
100
AcDbEntity
  8
C-2
  6
Continuous
 62
     3
370
     9
100
AcDbLine
 10
-551.8644856117862
 20
439.8654005720809
 30
0.0
 11
-551.8644856117862
 21
789.8655379011825
 31
0.0
  0
LINE
  5
89
330
1F
100
AcDbEntity
  8
C-2
  6
Continuous
 62
     3
370
     9
100
AcDbLine
 10
-201.8643330238956
 20
789.8655379011825
 30
0.0
 11
-551.8644856117862
 21
789.8655379011825
 31
0.0
  0
LINE
  5
8A
330
1F
100
AcDbEntity
  8
C-1
  6
Continuous
 62
     2
370
     9
100
AcDbLine
 10
-200.864485611786
 20
790.8654158308701
 30
0.0
 11
-552.8648365639344
 21
790.8654158308701
 31
0.0
  0
LINE
  5
8B
330
1F
100
AcDbEntity
  8
C-1
  6
Continuous
 62
     2
370
     9
100
AcDbLine
 10
-552.8648365639344
 20
438.8655379011826
 30
0.0
 11
-552.8648365639344
 21
790.8654158308701
 31
0.0
  0
LINE
  5
8C
330
1F
100
AcDbEntity
  8
C-4
  6
Continuous
 62
     7
370
     9
100
AcDbLine
 10
-551.8644856117862
 20
924.8649275496202
 30
0.0
 11
-201.8643330238956
 21
924.8649275496202
 31
0.0
  0
LINE
  5
8D
330
1F
100
AcDbEntity
  8
C-4
  6
Continuous
 62
     7
370
     9
100
AcDbLine
 10
-551.8644856117862
 20
809.8656599714951
 30
0.0
 11
-551.8644856117862
 21
927.8649885847765
 31
0.0
  0
LINE
  5
8E
330
1F
100
AcDbEntity
  8
C-4
  6
Continuous
 62
     7
370
     9
100
AcDbLine
 10
-201.8643330238956
 20
809.8656599714951
 30
0.0
 11
-201.8643330238956
 21
927.8649885847765
 31
0.0
  0
LINE
  5
8F
330
1F
100
AcDbEntity
  8
C-4
  6
Continuous
 62
     7
370
     9
100
AcDbLine
 10
-526.8646229408876
 20
869.8654158308702
 30
0.0
 11
-226.864210953583
 21
869.8654158308702
 31
0.0
  0
LINE
  5
90
330
1F
100
AcDbEntity
  8
C-4
  6
Continuous
 62
     7
370
     9
100
AcDbLine
 10
-526.8646229408876
 20
809.8656599714951
 30
0.0
 11
-526.8646229408876
 21
872.8654768660263
 31
0.0
  0
LINE
  5
91
330
1F
100
AcDbEntity
  8
C-4
  6
Continuous
 62
     7
370
     9
100
AcDbLine
 10
-226.864210953583
 20
809.8656599714951
 30
0.0
 11
-226.864210953583
 21
872.8654768660263
 31
0.0
  0
LINE
  5
92
330
1F
100
AcDbEntity
  8
C-4
  6
Continuous
 62
     7
370
     9
100
AcDbLine
 10
-551.8644856117862
 20
869.8654158308702
 30
0.0
 11
-526.8646229408876
 21
869.8654158308702
 31
0.0
  0
LINE
  5
93
330
1F
100
AcDbEntity
  8
C-4
  6
Continuous
 62
     7
370
     9
100
AcDbLine
 10
-551.8644856117862
 20
869.8654158308702
 30
0.0
 11
-551.8644856117862
 21
866.8653547957138
 31
0.0
  0
LINE
  5
94
330
1F
100
AcDbEntity
  8
C-4
  6
Continuous
 62
     7
370
     9
100
AcDbLine
 10
-551.8644856117862
 20
924.8649275496202
 30
0.0
 11
-552.8648365639344
 21
924.8649275496202
 31
0.0
  0
LINE
  5
95
330
1F
100
AcDbEntity
  8
C-4
  6
Continuous
 62
     7
370
     9
100
AcDbLine
 10
-552.8648365639344
 20
809.8656599714951
 30
0.0
 11
-552.8648365639344
 21
927.8649885847765
 31
0.0
  0
LINE
  5
96
330
1F
100
AcDbEntity
  8
C-4
  6
Continuous
 62
     7
370
     9
100
AcDbLine
 10
-201.8643330238956
 20
924.8649275496202
 30
0.0
 11
-200.864485611786
 21
924.8649275496202
 31
0.0
  0
LINE
  5
97
330
1F
100
AcDbEntity
  8
C-4
  6
Continuous
 62
     7
370
     9
100
AcDbLine
 10
-200.864485611786
 20
809.8656599714951
 30
0.0
 11
-200.864485611786
 21
927.8649885847765
 31
0.0
  0
LINE
  5
98
330
1F
100
AcDbEntity
  8
C-5
  6
Continuous
 62
     7
370
     9
100
AcDbLine
 10
-89.36421095358298
 20
331.8655836775497
 30
0.0
 11
-89.36421095358298
 21
266.8660261824326
 31
0.0
  0
LINE
  5
99
330
1F
100
AcDbEntity
  8
C-5
  6
Continuous
 62
     7
370
     9
100
AcDbLine
 10
-89.36421095358298
 20
266.8660261824326
 30
0.0
 11
-664.3646381996768
 21
266.8660261824326
 31
0.0
  0
LINE
  5
9A
330
1F
100
AcDbEntity
  8
C-5
  6
Continuous
 62
     7
370
     9
100
AcDbLine
 10
-664.3646381996768
 20
331.8655836775497
 30
0.0
 11
-89.36421095358298
 21
331.8655836775497
 31
0.0
  0
LINE
  5
9B
330
1F
100
AcDbEntity
  8
C-5
  6
Continuous
 62
     7
370
     9
100
AcDbLine
 10
-664.3646381996768
 20
266.8660261824326
 30
0.0
 11
-664.3646381996768
 21
331.8655836775497
 31
0.0
  0
LINE
  5
9C
330
1F
100
AcDbEntity
  8
C-A
  6
Continuous
 62
     3
370
     9
100
AcDbLine
 10
-551.8644856117862
 20
786.8654768660264
 30
0.0
 11
-201.8643330238956
 21
786.8654768660264
 31
0.0
  0
LINE
  5
9D
330
1F
100
AcDbEntity
  8
C-5
  6
Continuous
 62
     7
370
     9
100
AcDbLine
 10
-498.7125691078796
 20
487.4982741072373
 30
0.0
 11
-298.7116535805359
 21
487.4982741072373
 31
0.0
  0
LINE
  5
9E
330
1F
100
AcDbEntity
  8
C-5
  6
Continuous
 62
     7
370
     9
100
AcDbLine
 10
-298.7116535805359
 20
487.4982741072373
 30
0.0
 11
-298.7116535805359
 21
577.2633650496201
 31
0.0
  0
LINE
  5
9F
330
1F
100
AcDbEntity
  8
C-5
  6
Continuous
 62
     7
370
     9
100
AcDbLine
 10
-298.7116535805359
 20
577.2633650496201
 30
0.0
 11
-278.7125385903016
 21
527.263609190245
 31
0.0
  0
LINE
  5
A0
330
1F
100
AcDbEntity
  8
C-5
  6
Continuous
 62
     7
370
     9
100
AcDbLine
 10
-278.7125385903016
 20
527.263609190245
 30
0.0
 11
-308.9787434242862
 21
527.263609190245
 31
0.0
  0
LINE
  5
A1
330
1F
100
AcDbEntity
  8
C-A
  6
Continuous
 62
     3
370
     9
100
AcDbLine
 10
-448.8639515541689
 20
442.8659498884872
 30
0.0
 11
-551.8644856117862
 21
442.8659498884872
 31
0.0
  0
LINE
  5
A2
330
1F
100
AcDbEntity
  8
C-A
  6
Continuous
 62
     3
370
     9
100
AcDbLine
 10
-451.8645161293642
 20
439.8654005720809
 30
0.0
 11
-201.8643330238956
 21
689.8650801375106
 31
0.0
  0
LINE
  5
A3
330
1F
100
AcDbEntity
  8
C-A
  6
Continuous
 62
     3
370
     9
100
AcDbLine
 10
-542.8642948769226
 20
442.8659498884872
 30
0.0
 11
-542.8642948769226
 21
786.8654768660264
 31
0.0
  0
LINE
  5
A4
330
1F
100
AcDbEntity
  8
C-A
  6
Continuous
 62
     3
370
     9
100
AcDbLine
 10
-538.8638828896183
 20
442.8659498884872
 30
0.0
 11
-538.8638828896183
 21
786.8654768660264
 31
0.0
  0
LINE
  5
A5
330
1F
100
AcDbEntity
  8
C-A
  6
Continuous
 62
     3
370
     9
100
AcDbLine
 10
-529.8636921547546
 20
442.8659498884872
 30
0.0
 11
-529.8636921547546
 21
786.8654768660264
 31
0.0
  0
LINE
  5
A6
330
1F
100
AcDbEntity
  8
C-A
  6
Continuous
 62
     3
370
     9
100
AcDbLine
 10
-523.8640583656922
 20
442.8659498884872
 30
0.0
 11
-523.8640583656922
 21
786.8654768660264
 31
0.0
  0
LINE
  5
A7
330
1F
100
AcDbEntity
  8
C-A
  6
Continuous
 62
     3
370
     9
100
AcDbLine
 10
-514.8638600014345
 20
442.8659498884872
 30
0.0
 11
-514.8638600014345
 21
786.8654768660264
 31
0.0
  0
LINE
  5
A8
330
1F
100
AcDbEntity
  8
C-A
  6
Continuous
 62
     3
370
     9
100
AcDbLine
 10
-508.8637379311217
 20
442.8659498884872
 30
0.0
 11
-508.8637379311217
 21
786.8654768660264
 31
0.0
  0
LINE
  5
A9
330
1F
100
AcDbEntity
  8
C-A
  6
Continuous
 62
     3
370
     9
100
AcDbLine
 10
-499.8635548256533
 20
442.8659498884872
 30
0.0
 11
-499.8635548256533
 21
786.8654768660264
 31
0.0
  0
LINE
  5
AA
330
1F
100
AcDbEntity
  8
C-A
  6
Continuous
 62
     3
370
     9
100
AcDbLine
 10
-493.8639210365909
 20
442.8659498884872
 30
0.0
 11
-493.8639210365909
 21
786.8654768660264
 31
0.0
  0
LINE
  5
AB
330
1F
100
AcDbEntity
  8
C-A
  6
Continuous
 62
     3
370
     9
100
AcDbLine
 10
-484.8637226723326
 20
442.8659498884872
 30
0.0
 11
-484.8637226723326
 21
786.8654768660264
 31
0.0
  0
LINE
  5
AC
330
1F
100
AcDbEntity
  8
C-A
  6
Continuous
 62
     3
370
     9
100
AcDbLine
 10
-478.8640888832703
 20
442.8659498884872
 30
0.0
 11
-478.8640888832703
 21
786.8654768660264
 31
0.0
  0
LINE
  5
AD
330
1F
100
AcDbEntity
  8
C-A
  6
Continuous
 62
     3
370
     9
100
AcDbLine
 10
-469.8639057778018
 20
442.8659498884872
 30
0.0
 11
-469.8639057778018
 21
786.8654768660264
 31
0.0
  0
LINE
  5
AE
330
1F
100
AcDbEntity
  8
C-A
  6
Continuous
 62
     3
370
     9
100
AcDbLine
 10
-463.863783707489
 20
442.8659498884872
 30
0.0
 11
-463.863783707489
 21
786.8654768660264
 31
0.0
  0
LINE
  5
AF
330
1F
100
AcDbEntity
  8
C-A
  6
Continuous
 62
     3
370
     9
100
AcDbLine
 10
-454.8635853432313
 20
442.8659498884872
 30
0.0
 11
-454.8635853432313
 21
786.8654768660264
 31
0.0
  0
LINE
  5
B0
330
1F
100
AcDbEntity
  8
C-A
  6
Continuous
 62
     3
370
     9
100
AcDbLine
 10
-448.8639515541689
 20
442.8659498884872
 30
0.0
 11
-448.8639515541689
 21
786.8654768660264
 31
0.0
  0
LINE
  5
B1
330
1F
100
AcDbEntity
  8
C-A
  6
Continuous
 62
     3
370
     9
100
AcDbLine
 10
-439.8637684486999
 20
451.8661482527452
 30
0.0
 11
-439.8637684486999
 21
786.8654768660264
 31
0.0
  0
LINE
  5
B2
330
1F
100
AcDbEntity
  8
C-A
  6
Continuous
 62
     3
370
     9
100
AcDbLine
 10
-433.8636311195984
 20
457.8662703230574
 30
0.0
 11
-433.8636311195984
 21
786.8654768660264
 31
0.0
  0
LINE
  5
B3
330
1F
100
AcDbEntity
  8
C-A
  6
Continuous
 62
     3
370
     9
100
AcDbLine
 10
-424.86344801413
 20
466.8664686873154
 30
0.0
 11
-424.86344801413
 21
786.8654768660264
 31
0.0
  0
LINE
  5
B4
330
1F
100
AcDbEntity
  8
C-A
  6
Continuous
 62
     3
370
     9
100
AcDbLine
 10
-418.863814225067
 20
472.8660872175888
 30
0.0
 11
-418.863814225067
 21
786.8654768660264
 31
0.0
  0
LINE
  5
B5
330
1F
100
AcDbEntity
  8
C-A
  6
Continuous
 62
     3
370
     9
100
AcDbLine
 10
-409.8636311195986
 20
481.8662855818465
 30
0.0
 11
-409.8636311195986
 21
786.8654768660264
 31
0.0
  0
LINE
  5
B6
330
1F
100
AcDbEntity
  8
C-A
  6
Continuous
 62
     3
370
     9
100
AcDbLine
 10
-403.8639973305362
 20
487.8659193709092
 30
0.0
 11
-403.8639973305362
 21
786.8654768660264
 31
0.0
  0
LINE
  5
B7
330
1F
100
AcDbEntity
  8
C-A
  6
Continuous
 62
     3
370
     9
100
AcDbLine
 10
-394.8638142250672
 20
496.8661024763779
 30
0.0
 11
-394.8638142250672
 21
786.8654768660264
 31
0.0
  0
LINE
  5
B8
330
1F
100
AcDbEntity
  8
C-A
  6
Continuous
 62
     3
370
     9
100
AcDbLine
 10
-388.8636616371764
 20
502.8662398054794
 30
0.0
 11
-388.8636616371764
 21
786.8654768660264
 31
0.0
  0
LINE
  5
B9
330
1F
100
AcDbEntity
  8
C-A
  6
Continuous
 62
     3
370
     9
100
AcDbLine
 10
-379.863478531708
 20
511.8664229109481
 30
0.0
 11
-379.863478531708
 21
786.8654768660264
 31
0.0
  0
LINE
  5
BA
330
1F
100
AcDbEntity
  8
C-A
  6
Continuous
 62
     3
370
     9
100
AcDbLine
 10
-373.8638447426456
 20
517.8660567000109
 30
0.0
 11
-373.8638447426456
 21
786.8654768660264
 31
0.0
  0
LINE
  5
BB
330
1F
100
AcDbEntity
  8
C-A
  6
Continuous
 62
     3
370
     9
100
AcDbLine
 10
-364.8636616371766
 20
526.8662398054795
 30
0.0
 11
-364.8636616371766
 21
786.8654768660264
 31
0.0
  0
LINE
  5
BC
330
1F
100
AcDbEntity
  8
C-A
  6
Continuous
 62
     3
370
     9
100
AcDbLine
 10
-358.8640278481142
 20
532.8658735945419
 30
0.0
 11
-358.8640278481142
 21
786.8654768660264
 31
0.0
  0
LINE
  5
BD
330
1F
100
AcDbEntity
  8
C-A
  6
Continuous
 62
     3
370
     9
100
AcDbLine
 10
-349.8638447426453
 20
541.8660567000106
 30
0.0
 11
-349.8638447426453
 21
786.8654768660264
 31
0.0
  0
LINE
  5
BE
330
1F
100
AcDbEntity
  8
C-A
  6
Continuous
 62
     3
370
     9
100
AcDbLine
 10
-343.863722672333
 20
547.8662092879015
 30
0.0
 11
-343.863722672333
 21
786.8654768660264
 31
0.0
  0
LINE
  5
BF
330
1F
100
AcDbEntity
  8
C-A
  6
Continuous
 62
     3
370
     9
100
AcDbLine
 10
-334.863509049286
 20
556.8663923933702
 30
0.0
 11
-334.863509049286
 21
786.8654768660264
 31
0.0
  0
LINE
  5
C0
330
1F
100
AcDbEntity
  8
C-A
  6
Continuous
 62
     3
370
     9
100
AcDbLine
 10
-328.8639057778016
 20
562.8655073836044
 30
0.0
 11
-328.8639057778016
 21
786.8654768660264
 31
0.0
  0
LINE
  5
C1
330
1F
100
AcDbEntity
  8
C-A
  6
Continuous
 62
     3
370
     9
100
AcDbLine
 10
-319.8636921547546
 20
571.8657210066514
 30
0.0
 11
-319.8636921547546
 21
786.8654768660264
 31
0.0
  0
LINE
  5
C2
330
1F
100
AcDbEntity
  8
C-A
  6
Continuous
 62
     3
370
     9
100
AcDbLine
 10
-313.8635700844424
 20
577.865843076964
 30
0.0
 11
-313.8635700844424
 21
786.8654768660264
 31
0.0
  0
LINE
  5
C3
330
1F
100
AcDbEntity
  8
C-A
  6
Continuous
 62
     3
370
     9
100
AcDbLine
 10
-304.8638752602233
 20
586.8655379011827
 30
0.0
 11
-304.8638752602233
 21
786.8654768660264
 31
0.0
  0
LINE
  5
C4
330
1F
100
AcDbEntity
  8
C-A
  6
Continuous
 62
     3
370
     9
100
AcDbLine
 10
-298.863753189911
 20
592.865659971495
 30
0.0
 11
-298.863753189911
 21
786.8654768660264
 31
0.0
  0
LINE
  5
C5
330
1F
100
AcDbEntity
  8
C-A
  6
Continuous
 62
     3
370
     9
100
AcDbLine
 10
-289.863570084442
 20
601.865843076964
 30
0.0
 11
-289.863570084442
 21
786.8654768660264
 31
0.0
  0
LINE
  5
C6
330
1F
100
AcDbEntity
  8
C-A
  6
Continuous
 62
     3
370
     9
100
AcDbLine
 10
-283.8639362953796
 20
607.8654768660264
 30
0.0
 11
-283.8639362953796
 21
786.8654768660264
 31
0.0
  0
LINE
  5
C7
330
1F
100
AcDbEntity
  8
C-A
  6
Continuous
 62
     3
370
     9
100
AcDbLine
 10
-274.8637531899112
 20
616.8656599714951
 30
0.0
 11
-274.8637531899112
 21
786.8654768660264
 31
0.0
  0
LINE
  5
C8
330
1F
100
AcDbEntity
  8
C-A
  6
Continuous
 62
     3
370
     9
100
AcDbLine
 10
-268.8636006020204
 20
622.8658125593856
 30
0.0
 11
-268.8636006020204
 21
786.8654768660264
 31
0.0
  0
LINE
  5
C9
330
1F
100
AcDbEntity
  8
C-A
  6
Continuous
 62
     3
370
     9
100
AcDbLine
 10
-259.8634174965514
 20
631.8659956648546
 30
0.0
 11
-259.8634174965514
 21
786.8654768660264
 31
0.0
  0
LINE
  5
CA
330
1F
100
AcDbEntity
  8
C-A
  6
Continuous
 62
     3
370
     9
100
AcDbLine
 10
-253.863783707489
 20
637.865629453917
 30
0.0
 11
-253.863783707489
 21
786.8654768660264
 31
0.0
  0
LINE
  5
CB
330
1F
100
AcDbEntity
  8
C-A
  6
Continuous
 62
     3
370
     9
100
AcDbLine
 10
-244.8636006020206
 20
646.8658125593856
 30
0.0
 11
-244.8636006020206
 21
786.8654768660264
 31
0.0
  0
LINE
  5
CC
330
1F
100
AcDbEntity
  8
C-A
  6
Continuous
 62
     3
370
     9
100
AcDbLine
 10
-238.8639668129576
 20
652.8654463484484
 30
0.0
 11
-238.8639668129576
 21
786.8654768660264
 31
0.0
  0
LINE
  5
CD
330
1F
100
AcDbEntity
  8
C-A
  6
Continuous
 62
     3
370
     9
100
AcDbLine
 10
-229.8637837074892
 20
661.865629453917
 30
0.0
 11
-229.8637837074892
 21
786.8654768660264
 31
0.0
  0
LINE
  5
CE
330
1F
100
AcDbEntity
  8
C-A
  6
Continuous
 62
     3
370
     9
100
AcDbLine
 10
-223.8636616371764
 20
667.8657515242296
 30
0.0
 11
-223.8636616371764
 21
786.8654768660264
 31
0.0
  0
LINE
  5
CF
330
1F
100
AcDbEntity
  8
C-A
  6
Continuous
 62
     3
370
     9
100
AcDbLine
 10
-214.86344801413
 20
676.8659651472763
 30
0.0
 11
-214.86344801413
 21
786.8654768660264
 31
0.0
  0
LINE
  5
D0
330
1F
100
AcDbEntity
  8
C-A
  6
Continuous
 62
     3
370
     9
100
AcDbLine
 10
-210.8640278481141
 20
680.8653853132919
 30
0.0
 11
-210.8640278481141
 21
786.8654768660264
 31
0.0
  0
LINE
  5
D1
330
1F
100
AcDbEntity
  8
C-A
  6
Continuous
 62
     6
370
     9
100
AcDbLine
 10
-543.364226212372
 20
752.6523726179795
 30
0.0
 11
-551.3645542763368
 21
750.6526472761825
 31
0.0
  0
LINE
  5
D2
330
1F
100
AcDbEntity
  8
C-A
  6
Continuous
 62
     6
370
     9
100
AcDbLine
 10
-543.364226212372
 20
754.1526472761825
 30
0.0
 11
-551.3645542763368
 21
756.1523421004015
 31
0.0
  0
LINE
  5
D3
330
1F
100
AcDbEntity
  8
C-A
  6
Continuous
 62
     6
370
     9
100
AcDbLine
 10
-543.364226212372
 20
752.6523726179795
 30
0.0
 11
-543.364226212372
 21
754.1526472761825
 31
0.0
  0
LINE
  5
D4
330
1F
100
AcDbEntity
  8
C-A
  6
Continuous
 62
     6
370
     9
100
AcDbLine
 10
-551.3645542763368
 20
750.6526472761825
 30
0.0
 11
-551.3645542763368
 21
756.1523421004015
 31
0.0
  0
LINE
  5
D5
330
1F
100
AcDbEntity
  8
C-A
  6
Continuous
 62
     6
370
     9
100
AcDbLine
 10
-542.8642948769226
 20
752.2619307234481
 30
0.0
 11
-551.8644856117862
 21
750.0120222761825
 31
0.0
  0
LINE
  5
D6
330
1F
100
AcDbEntity
  8
C-A
  6
Continuous
 62
     6
370
     9
100
AcDbLine
 10
-542.8642948769226
 20
754.5430891707139
 30
0.0
 11
-551.8644856117862
 21
756.7929976179795
 31
0.0
  0
LINE
  5
D7
330
1F
100
AcDbEntity
  8
C-A
  6
Continuous
 62
     6
370
     9
100
AcDbLine
 10
-542.8642948769226
 20
752.2619307234481
 30
0.0
 11
-543.364226212372
 21
752.6523726179795
 31
0.0
  0
LINE
  5
D8
330
1F
100
AcDbEntity
  8
C-A
  6
Continuous
 62
     6
370
     9
100
AcDbLine
 10
-542.8642948769226
 20
754.5430891707139
 30
0.0
 11
-543.364226212372
 21
754.1526472761825
 31
0.0
  0
LINE
  5
D9
330
1F
100
AcDbEntity
  8
C-A
  6
Continuous
 62
     6
370
     9
100
AcDbLine
 10
-551.3645542763368
 20
756.1523421004015
 30
0.0
 11
-551.8644856117862
 21
756.7929976179795
 31
0.0
  0
LINE
  5
DA
330
1F
100
AcDbEntity
  8
C-A
  6
Continuous
 62
     6
370
     9
100
AcDbLine
 10
-551.8644856117862
 20
750.0120222761825
 30
0.0
 11
-551.3645542763368
 21
750.6526472761825
 31
0.0
  0
LINE
  5
DB
330
1F
100
AcDbEntity
  8
C-A
  6
Continuous
 62
     6
370
     9
100
AcDbLine
 10
-551.3645542763368
 20
767.6521895125106
 30
0.0
 11
-543.364226212372
 21
769.6524031355577
 31
0.0
  0
LINE
  5
DC
330
1F
100
AcDbEntity
  8
C-A
  6
Continuous
 62
     6
370
     9
100
AcDbLine
 10
-551.3645542763368
 20
766.1524031355575
 30
0.0
 11
-551.3645542763368
 21
767.6521895125106
 31
0.0
  0
LINE
  5
DD
330
1F
100
AcDbEntity
  8
C-A
  6
Continuous
 62
     6
370
     9
100
AcDbLine
 10
-543.364226212372
 20
764.1521895125106
 30
0.0
 11
-543.364226212372
 21
769.6524031355577
 31
0.0
  0
LINE
  5
DE
330
1F
100
AcDbEntity
  8
C-A
  6
Continuous
 62
     6
370
     9
100
AcDbLine
 10
-542.8642948769226
 20
763.5120527937607
 30
0.0
 11
-551.8644856117862
 21
765.7619612410264
 31
0.0
  0
LINE
  5
DF
330
1F
100
AcDbEntity
  8
C-A
  6
Continuous
 62
     6
370
     9
100
AcDbLine
 10
-551.8644856117862
 20
768.0426314070419
 30
0.0
 11
-542.8642948769226
 21
770.2930281355575
 31
0.0
  0
LINE
  5
E0
330
1F
100
AcDbEntity
  8
C-A
  6
Continuous
 62
     6
370
     9
100
AcDbLine
 10
-543.364226212372
 20
779.6524641707138
 30
0.0
 11
-551.3645542763368
 21
777.6522200300889
 31
0.0
  0
LINE
  5
E1
330
1F
100
AcDbEntity
  8
C-A
  6
Continuous
 62
     6
370
     9
100
AcDbLine
 10
-543.364226212372
 20
781.1522200300888
 30
0.0
 11
-551.3645542763368
 21
783.1524031355576
 31
0.0
  0
LINE
  5
E2
330
1F
100
AcDbEntity
  8
C-A
  6
Continuous
 62
     6
370
     9
100
AcDbLine
 10
-543.364226212372
 20
779.6524641707138
 30
0.0
 11
-543.364226212372
 21
781.1522200300888
 31
0.0
  0
LINE
  5
E3
330
1F
100
AcDbEntity
  8
C-A
  6
Continuous
 62
     6
370
     9
100
AcDbLine
 10
-551.3645542763368
 20
777.6522200300889
 30
0.0
 11
-551.3645542763368
 21
783.1524031355576
 31
0.0
  0
LINE
  5
E4
330
1F
100
AcDbEntity
  8
C-A
  6
Continuous
 62
     6
370
     9
100
AcDbLine
 10
-542.8642948769226
 20
779.2620222761826
 30
0.0
 11
-551.8644856117862
 21
777.0120833113388
 31
0.0
  0
LINE
  5
E5
330
1F
100
AcDbEntity
  8
C-A
  6
Continuous
 62
     6
370
     9
100
AcDbLine
 10
-542.8642948769226
 20
781.5426619246202
 30
0.0
 11
-551.8644856117862
 21
783.7926008894638
 31
0.0
  0
LINE
  5
E6
330
1F
100
AcDbEntity
  8
C-A
  6
Continuous
 62
     6
370
     9
100
AcDbLine
 10
-542.8642948769226
 20
779.2620222761826
 30
0.0
 11
-543.364226212372
 21
779.6524641707138
 31
0.0
  0
LINE
  5
E7
330
1F
100
AcDbEntity
  8
C-A
  6
Continuous
 62
     6
370
     9
100
AcDbLine
 10
-542.8642948769226
 20
781.5426619246202
 30
0.0
 11
-543.364226212372
 21
781.1522200300888
 31
0.0
  0
LINE
  5
E8
330
1F
100
AcDbEntity
  8
C-A
  6
Continuous
 62
     6
370
     9
100
AcDbLine
 10
-551.3645542763368
 20
783.1524031355576
 30
0.0
 11
-551.8644856117862
 21
783.7926008894638
 31
0.0
  0
LINE
  5
E9
330
1F
100
AcDbEntity
  8
C-A
  6
Continuous
 62
     6
370
     9
100
AcDbLine
 10
-551.8644856117862
 20
777.0120833113388
 30
0.0
 11
-551.3645542763368
 21
777.6522200300889
 31
0.0
  0
LINE
  5
EA
330
1F
100
AcDbEntity
  8
C-A
  6
Continuous
 62
     6
370
     9
100
AcDbLine
 10
-543.364226212372
 20
764.1521895125106
 30
0.0
 11
-551.3645542763368
 21
766.1524031355575
 31
0.0
  0
LINE
  5
EB
330
1F
100
AcDbEntity
  8
C-A
  6
Continuous
 62
     6
370
     9
100
AcDbLine
 10
-542.8642948769226
 20
763.5120527937607
 30
0.0
 11
-543.364226212372
 21
764.1521895125106
 31
0.0
  0
LINE
  5
EC
330
1F
100
AcDbEntity
  8
C-A
  6
Continuous
 62
     6
370
     9
100
AcDbLine
 10
-543.364226212372
 20
769.6524031355577
 30
0.0
 11
-542.8642948769226
 21
770.2930281355575
 31
0.0
  0
LINE
  5
ED
330
1F
100
AcDbEntity
  8
C-A
  6
Continuous
 62
     6
370
     9
100
AcDbLine
 10
-551.3645542763368
 20
767.6521895125106
 30
0.0
 11
-551.8644856117862
 21
768.0426314070419
 31
0.0
  0
LINE
  5
EE
330
1F
100
AcDbEntity
  8
C-A
  6
Continuous
 62
     6
370
     9
100
AcDbLine
 10
-551.8644856117862
 20
765.7619612410264
 30
0.0
 11
-551.3645542763368
 21
766.1524031355575
 31
0.0
  0
LINE
  5
EF
330
1F
100
AcDbEntity
  8
C-A
  6
Continuous
 62
     6
370
     9
100
AcDbLine
 10
-543.364226212372
 20
725.6527693464952
 30
0.0
 11
-551.3645542763368
 21
723.6530745222763
 31
0.0
  0
LINE
  5
F0
330
1F
100
AcDbEntity
  8
C-A
  6
Continuous
 62
     6
370
     9
100
AcDbLine
 10
-543.364226212372
 20
727.1530745222763
 30
0.0
 11
-551.3645542763368
 21
729.1527693464951
 31
0.0
  0
LINE
  5
F1
330
1F
100
AcDbEntity
  8
C-A
  6
Continuous
 62
     6
370
     9
100
AcDbLine
 10
-543.364226212372
 20
725.6527693464952
 30
0.0
 11
-543.364226212372
 21
727.1530745222763
 31
0.0
  0
LINE
  5
F2
330
1F
100
AcDbEntity
  8
C-A
  6
Continuous
 62
     6
370
     9
100
AcDbLine
 10
-551.3645542763368
 20
723.6530745222763
 30
0.0
 11
-551.3645542763368
 21
729.1527693464951
 31
0.0
  0
LINE
  5
F3
330
1F
100
AcDbEntity
  8
C-A
  6
Continuous
 62
     6
370
     9
100
AcDbLine
 10
-542.8642948769226
 20
725.2623579695419
 30
0.0
 11
-551.8644856117862
 21
723.0124190046981
 31
0.0
  0
LINE
  5
F4
330
1F
100
AcDbEntity
  8
C-A
  6
Continuous
 62
     6
370
     9
100
AcDbLine
 10
-542.8642948769226
 20
727.5434858992296
 30
0.0
 11
-551.8644856117862
 21
729.7934248640731
 31
0.0
  0
LINE
  5
F5
330
1F
100
AcDbEntity
  8
C-A
  6
Continuous
 62
     6
370
     9
100
AcDbLine
 10
-542.8642948769226
 20
725.2623579695419
 30
0.0
 11
-543.364226212372
 21
725.6527693464952
 31
0.0
  0
LINE
  5
F6
330
1F
100
AcDbEntity
  8
C-A
  6
Continuous
 62
     6
370
     9
100
AcDbLine
 10
-542.8642948769226
 20
727.5434858992296
 30
0.0
 11
-543.364226212372
 21
727.1530745222763
 31
0.0
  0
LINE
  5
F7
330
1F
100
AcDbEntity
  8
C-A
  6
Continuous
 62
     6
370
     9
100
AcDbLine
 10
-551.3645542763368
 20
729.1527693464951
 30
0.0
 11
-551.8644856117862
 21
729.7934248640731
 31
0.0
  0
LINE
  5
F8
330
1F
100
AcDbEntity
  8
C-A
  6
Continuous
 62
     6
370
     9
100
AcDbLine
 10
-551.8644856117862
 20
723.0124190046981
 30
0.0
 11
-551.3645542763368
 21
723.6530745222763
 31
0.0
  0
LINE
  5
F9
330
1F
100
AcDbEntity
  8
C-A
  6
Continuous
 62
     6
370
     9
100
AcDbLine
 10
-551.3645542763368
 20
740.6526167586046
 30
0.0
 11
-543.364226212372
 21
742.6527998640731
 31
0.0
  0
LINE
  5
FA
330
1F
100
AcDbEntity
  8
C-A
  6
Continuous
 62
     6
370
     9
100
AcDbLine
 10
-551.3645542763368
 20
739.1528303816515
 30
0.0
 11
-551.3645542763368
 21
740.6526167586046
 31
0.0
  0
LINE
  5
FB
330
1F
100
AcDbEntity
  8
C-A
  6
Continuous
 62
     6
370
     9
100
AcDbLine
 10
-543.364226212372
 20
737.1526167586044
 30
0.0
 11
-543.364226212372
 21
742.6527998640731
 31
0.0
  0
LINE
  5
FC
330
1F
100
AcDbEntity
  8
C-A
  6
Continuous
 62
     6
370
     9
100
AcDbLine
 10
-542.8642948769226
 20
736.5124800398544
 30
0.0
 11
-551.8644856117862
 21
738.76238848712
 31
0.0
  0
LINE
  5
FD
330
1F
100
AcDbEntity
  8
C-A
  6
Continuous
 62
     6
370
     9
100
AcDbLine
 10
-551.8644856117862
 20
741.0430281355576
 30
0.0
 11
-542.8642948769226
 21
743.2934553816515
 31
0.0
  0
LINE
  5
FE
330
1F
100
AcDbEntity
  8
C-A
  6
Continuous
 62
     6
370
     9
100
AcDbLine
 10
-543.364226212372
 20
737.1526167586044
 30
0.0
 11
-551.3645542763368
 21
739.1528303816515
 31
0.0
  0
LINE
  5
FF
330
1F
100
AcDbEntity
  8
C-A
  6
Continuous
 62
     6
370
     9
100
AcDbLine
 10
-542.8642948769226
 20
736.5124800398544
 30
0.0
 11
-543.364226212372
 21
737.1526167586044
 31
0.0
  0
LINE
  5
100
330
1F
100
AcDbEntity
  8
C-A
  6
Continuous
 62
     6
370
     9
100
AcDbLine
 10
-543.364226212372
 20
742.6527998640731
 30
0.0
 11
-542.8642948769226
 21
743.2934553816515
 31
0.0
  0
LINE
  5
101
330
1F
100
AcDbEntity
  8
C-A
  6
Continuous
 62
     6
370
     9
100
AcDbLine
 10
-551.3645542763368
 20
740.6526167586046
 30
0.0
 11
-551.8644856117862
 21
741.0430281355576
 31
0.0
  0
LINE
  5
102
330
1F
100
AcDbEntity
  8
C-A
  6
Continuous
 62
     6
370
     9
100
AcDbLine
 10
-551.8644856117862
 20
738.76238848712
 30
0.0
 11
-551.3645542763368
 21
739.1528303816515
 31
0.0
  0
LINE
  5
103
330
1F
100
AcDbEntity
  8
C-A
  6
Continuous
 62
     6
370
     9
100
AcDbLine
 10
-543.364226212372
 20
698.6531965925889
 30
0.0
 11
-551.3645542763368
 21
696.65350176837
 31
0.0
  0
LINE
  5
104
330
1F
100
AcDbEntity
  8
C-A
  6
Continuous
 62
     6
370
     9
100
AcDbLine
 10
-543.364226212372
 20
700.1534712507919
 30
0.0
 11
-551.3645542763368
 21
702.1531965925888
 31
0.0
  0
LINE
  5
105
330
1F
100
AcDbEntity
  8
C-A
  6
Continuous
 62
     6
370
     9
100
AcDbLine
 10
-543.364226212372
 20
698.6531965925889
 30
0.0
 11
-543.364226212372
 21
700.1534712507919
 31
0.0
  0
LINE
  5
106
330
1F
100
AcDbEntity
  8
C-A
  6
Continuous
 62
     6
370
     9
100
AcDbLine
 10
-551.3645542763368
 20
696.65350176837
 30
0.0
 11
-551.3645542763368
 21
702.1531965925888
 31
0.0
  0
LINE
  5
107
330
1F
100
AcDbEntity
  8
C-A
  6
Continuous
 62
     6
370
     9
100
AcDbLine
 10
-542.8642948769226
 20
698.2627852156359
 30
0.0
 11
-551.8644856117862
 21
696.0128462507919
 31
0.0
  0
LINE
  5
108
330
1F
100
AcDbEntity
  8
C-A
  6
Continuous
 62
     6
370
     9
100
AcDbLine
 10
-542.8642948769226
 20
700.5439131453232
 30
0.0
 11
-551.8644856117862
 21
702.7938215925889
 31
0.0
  0
LINE
  5
109
330
1F
100
AcDbEntity
  8
C-A
  6
Continuous
 62
     6
370
     9
100
AcDbLine
 10
-542.8642948769226
 20
698.2627852156359
 30
0.0
 11
-543.364226212372
 21
698.6531965925889
 31
0.0
  0
LINE
  5
10A
330
1F
100
AcDbEntity
  8
C-A
  6
Continuous
 62
     6
370
     9
100
AcDbLine
 10
-542.8642948769226
 20
700.5439131453232
 30
0.0
 11
-543.364226212372
 21
700.1534712507919
 31
0.0
  0
LINE
  5
10B
330
1F
100
AcDbEntity
  8
C-A
  6
Continuous
 62
     6
370
     9
100
AcDbLine
 10
-551.3645542763368
 20
702.1531965925888
 30
0.0
 11
-551.8644856117862
 21
702.7938215925889
 31
0.0
  0
LINE
  5
10C
330
1F
100
AcDbEntity
  8
C-A
  6
Continuous
 62
     6
370
     9
100
AcDbLine
 10
-551.8644856117862
 20
696.0128462507919
 30
0.0
 11
-551.3645542763368
 21
696.65350176837
 31
0.0
  0
LINE
  5
10D
330
1F
100
AcDbEntity
  8
C-A
  6
Continuous
 62
     6
370
     9
100
AcDbLine
 10
-551.3645542763368
 20
713.65301348712
 30
0.0
 11
-543.364226212372
 21
715.6532271101671
 31
0.0
  0
LINE
  5
10E
330
1F
100
AcDbEntity
  8
C-A
  6
Continuous
 62
     6
370
     9
100
AcDbLine
 10
-551.3645542763368
 20
712.1532271101669
 30
0.0
 11
-551.3645542763368
 21
713.65301348712
 31
0.0
  0
LINE
  5
10F
330
1F
100
AcDbEntity
  8
C-A
  6
Continuous
 62
     6
370
     9
100
AcDbLine
 10
-543.364226212372
 20
710.1530440046984
 30
0.0
 11
-543.364226212372
 21
715.6532271101671
 31
0.0
  0
LINE
  5
110
330
1F
100
AcDbEntity
  8
C-A
  6
Continuous
 62
     6
370
     9
100
AcDbLine
 10
-542.8642948769226
 20
709.5128767683701
 30
0.0
 11
-551.8644856117862
 21
711.7628157332138
 31
0.0
  0
LINE
  5
111
330
1F
100
AcDbEntity
  8
C-A
  6
Continuous
 62
     6
370
     9
100
AcDbLine
 10
-551.8644856117862
 20
714.0434553816513
 30
0.0
 11
-542.8642948769226
 21
716.2938826277451
 31
0.0
  0
LINE
  5
112
330
1F
100
AcDbEntity
  8
C-A
  6
Continuous
 62
     6
370
     9
100
AcDbLine
 10
-543.364226212372
 20
710.1530440046984
 30
0.0
 11
-551.3645542763368
 21
712.1532271101669
 31
0.0
  0
LINE
  5
113
330
1F
100
AcDbEntity
  8
C-A
  6
Continuous
 62
     6
370
     9
100
AcDbLine
 10
-542.8642948769226
 20
709.5128767683701
 30
0.0
 11
-543.364226212372
 21
710.1530440046984
 31
0.0
  0
LINE
  5
114
330
1F
100
AcDbEntity
  8
C-A
  6
Continuous
 62
     6
370
     9
100
AcDbLine
 10
-543.364226212372
 20
715.6532271101671
 30
0.0
 11
-542.8642948769226
 21
716.2938826277451
 31
0.0
  0
LINE
  5
115
330
1F
100
AcDbEntity
  8
C-A
  6
Continuous
 62
     6
370
     9
100
AcDbLine
 10
-551.3645542763368
 20
713.65301348712
 30
0.0
 11
-551.8644856117862
 21
714.0434553816513
 31
0.0
  0
LINE
  5
116
330
1F
100
AcDbEntity
  8
C-A
  6
Continuous
 62
     6
370
     9
100
AcDbLine
 10
-551.8644856117862
 20
711.7628157332138
 30
0.0
 11
-551.3645542763368
 21
712.1532271101669
 31
0.0
  0
LINE
  5
117
330
1F
100
AcDbEntity
  8
C-A
  6
Continuous
 62
     6
370
     9
100
AcDbLine
 10
-543.364226212372
 20
671.6536238386825
 30
0.0
 11
-551.3645542763368
 21
669.6538984968856
 31
0.0
  0
LINE
  5
118
330
1F
100
AcDbEntity
  8
C-A
  6
Continuous
 62
     6
370
     9
100
AcDbLine
 10
-543.364226212372
 20
673.1538984968856
 30
0.0
 11
-551.3645542763368
 21
675.1536238386825
 31
0.0
  0
LINE
  5
119
330
1F
100
AcDbEntity
  8
C-A
  6
Continuous
 62
     6
370
     9
100
AcDbLine
 10
-543.364226212372
 20
671.6536238386825
 30
0.0
 11
-543.364226212372
 21
673.1538984968856
 31
0.0
  0
LINE
  5
11A
330
1F
100
AcDbEntity
  8
C-A
  6
Continuous
 62
     6
370
     9
100
AcDbLine
 10
-551.3645542763368
 20
669.6538984968856
 30
0.0
 11
-551.3645542763368
 21
675.1536238386825
 31
0.0
  0
LINE
  5
11B
330
1F
100
AcDbEntity
  8
C-A
  6
Continuous
 62
     6
370
     9
100
AcDbLine
 10
-542.8642948769226
 20
671.2631819441513
 30
0.0
 11
-551.8644856117862
 21
669.0132734968856
 31
0.0
  0
LINE
  5
11C
330
1F
100
AcDbEntity
  8
C-A
  6
Continuous
 62
     6
370
     9
100
AcDbLine
 10
-542.8642948769226
 20
673.5443403914169
 30
0.0
 11
-551.8644856117862
 21
675.7942488386825
 31
0.0
  0
LINE
  5
11D
330
1F
100
AcDbEntity
  8
C-A
  6
Continuous
 62
     6
370
     9
100
AcDbLine
 10
-542.8642948769226
 20
671.2631819441513
 30
0.0
 11
-543.364226212372
 21
671.6536238386825
 31
0.0
  0
LINE
  5
11E
330
1F
100
AcDbEntity
  8
C-A
  6
Continuous
 62
     6
370
     9
100
AcDbLine
 10
-542.8642948769226
 20
673.5443403914169
 30
0.0
 11
-543.364226212372
 21
673.1538984968856
 31
0.0
  0
LINE
  5
11F
330
1F
100
AcDbEntity
  8
C-A
  6
Continuous
 62
     6
370
     9
100
AcDbLine
 10
-551.3645542763368
 20
675.1536238386825
 30
0.0
 11
-551.8644856117862
 21
675.7942488386825
 31
0.0
  0
LINE
  5
120
330
1F
100
AcDbEntity
  8
C-A
  6
Continuous
 62
     6
370
     9
100
AcDbLine
 10
-551.8644856117862
 20
669.0132734968856
 30
0.0
 11
-551.3645542763368
 21
669.6538984968856
 31
0.0
  0
LINE
  5
121
330
1F
100
AcDbEntity
  8
C-A
  6
Continuous
 62
     6
370
     9
100
AcDbLine
 10
-551.3645542763368
 20
686.653440733214
 30
0.0
 11
-543.364226212372
 21
688.6536543562607
 31
0.0
  0
LINE
  5
122
330
1F
100
AcDbEntity
  8
C-A
  6
Continuous
 62
     6
370
     9
100
AcDbLine
 10
-551.3645542763368
 20
685.1536543562609
 30
0.0
 11
-551.3645542763368
 21
686.653440733214
 31
0.0
  0
LINE
  5
123
330
1F
100
AcDbEntity
  8
C-A
  6
Continuous
 62
     6
370
     9
100
AcDbLine
 10
-543.364226212372
 20
683.1534407332138
 30
0.0
 11
-543.364226212372
 21
688.6536543562607
 31
0.0
  0
LINE
  5
124
330
1F
100
AcDbEntity
  8
C-A
  6
Continuous
 62
     6
370
     9
100
AcDbLine
 10
-542.8642948769226
 20
682.5133040144638
 30
0.0
 11
-551.8644856117862
 21
684.7632429793075
 31
0.0
  0
LINE
  5
125
330
1F
100
AcDbEntity
  8
C-A
  6
Continuous
 62
     6
370
     9
100
AcDbLine
 10
-551.8644856117862
 20
687.043882627745
 30
0.0
 11
-542.8642948769226
 21
689.2942793562609
 31
0.0
  0
LINE
  5
126
330
1F
100
AcDbEntity
  8
C-A
  6
Continuous
 62
     6
370
     9
100
AcDbLine
 10
-543.364226212372
 20
683.1534407332138
 30
0.0
 11
-551.3645542763368
 21
685.1536543562609
 31
0.0
  0
LINE
  5
127
330
1F
100
AcDbEntity
  8
C-A
  6
Continuous
 62
     6
370
     9
100
AcDbLine
 10
-542.8642948769226
 20
682.5133040144638
 30
0.0
 11
-543.364226212372
 21
683.1534407332138
 31
0.0
  0
LINE
  5
128
330
1F
100
AcDbEntity
  8
C-A
  6
Continuous
 62
     6
370
     9
100
AcDbLine
 10
-543.364226212372
 20
688.6536543562607
 30
0.0
 11
-542.8642948769226
 21
689.2942793562609
 31
0.0
  0
LINE
  5
129
330
1F
100
AcDbEntity
  8
C-A
  6
Continuous
 62
     6
370
     9
100
AcDbLine
 10
-551.3645542763368
 20
686.653440733214
 30
0.0
 11
-551.8644856117862
 21
687.043882627745
 31
0.0
  0
LINE
  5
12A
330
1F
100
AcDbEntity
  8
C-A
  6
Continuous
 62
     6
370
     9
100
AcDbLine
 10
-551.8644856117862
 20
684.7632429793075
 30
0.0
 11
-551.3645542763368
 21
685.1536543562609
 31
0.0
  0
LINE
  5
12B
330
1F
100
AcDbEntity
  8
C-A
  6
Continuous
 62
     6
370
     9
100
AcDbLine
 10
-530.3636158608094
 20
767.4321882918076
 30
0.0
 11
-538.3639515541688
 21
765.4324934675888
 31
0.0
  0
LINE
  5
12C
330
1F
100
AcDbEntity
  8
C-A
  6
Continuous
 62
     6
370
     9
100
AcDbLine
 10
-530.3636158608094
 20
768.932493467589
 30
0.0
 11
-538.3639515541688
 21
770.9321882918075
 31
0.0
  0
LINE
  5
12D
330
1F
100
AcDbEntity
  8
C-A
  6
Continuous
 62
     6
370
     9
100
AcDbLine
 10
-530.3636158608094
 20
767.4321882918076
 30
0.0
 11
-530.3636158608094
 21
768.932493467589
 31
0.0
  0
LINE
  5
12E
330
1F
100
AcDbEntity
  8
C-A
  6
Continuous
 62
     6
370
     9
100
AcDbLine
 10
-538.3639515541688
 20
765.4324934675888
 30
0.0
 11
-538.3639515541688
 21
770.9321882918075
 31
0.0
  0
LINE
  5
12F
330
1F
100
AcDbEntity
  8
C-A
  6
Continuous
 62
     6
370
     9
100
AcDbLine
 10
-529.8636921547546
 20
767.0417769148546
 30
0.0
 11
-538.8638828896183
 21
764.7918379500106
 31
0.0
  0
LINE
  5
130
330
1F
100
AcDbEntity
  8
C-A
  6
Continuous
 62
     6
370
     9
100
AcDbLine
 10
-529.8636921547546
 20
769.322904844542
 30
0.0
 11
-538.8638828896183
 21
771.5728438093856
 31
0.0
  0
LINE
  5
131
330
1F
100
AcDbEntity
  8
C-A
  6
Continuous
 62
     6
370
     9
100
AcDbLine
 10
-529.8636921547546
 20
767.0417769148546
 30
0.0
 11
-530.3636158608094
 21
767.4321882918076
 31
0.0
  0
LINE
  5
132
330
1F
100
AcDbEntity
  8
C-A
  6
Continuous
 62
     6
370
     9
100
AcDbLine
 10
-529.8636921547546
 20
769.322904844542
 30
0.0
 11
-530.3636158608094
 21
768.932493467589
 31
0.0
  0
LINE
  5
133
330
1F
100
AcDbEntity
  8
C-A
  6
Continuous
 62
     6
370
     9
100
AcDbLine
 10
-538.3639515541688
 20
770.9321882918075
 30
0.0
 11
-538.8638828896183
 21
771.5728438093856
 31
0.0
  0
LINE
  5
134
330
1F
100
AcDbEntity
  8
C-A
  6
Continuous
 62
     6
370
     9
100
AcDbLine
 10
-538.8638828896183
 20
764.7918379500106
 30
0.0
 11
-538.3639515541688
 21
765.4324934675888
 31
0.0
  0
LINE
  5
135
330
1F
100
AcDbEntity
  8
C-A
  6
Continuous
 62
     6
370
     9
100
AcDbLine
 10
-538.3639515541688
 20
782.4320051863388
 30
0.0
 11
-530.3636158608094
 21
784.4322493269638
 31
0.0
  0
LINE
  5
136
330
1F
100
AcDbEntity
  8
C-A
  6
Continuous
 62
     6
370
     9
100
AcDbLine
 10
-538.3639515541688
 20
780.9322493269639
 30
0.0
 11
-538.3639515541688
 21
782.4320051863388
 31
0.0
  0
LINE
  5
137
330
1F
100
AcDbEntity
  8
C-A
  6
Continuous
 62
     6
370
     9
100
AcDbLine
 10
-530.3636158608094
 20
778.9320051863388
 30
0.0
 11
-530.3636158608094
 21
784.4322493269638
 31
0.0
  0
LINE
  5
138
330
1F
100
AcDbEntity
  8
C-A
  6
Continuous
 62
     6
370
     9
100
AcDbLine
 10
-529.8636921547546
 20
778.2918989851669
 30
0.0
 11
-538.8638828896183
 21
780.5418074324325
 31
0.0
  0
LINE
  5
139
330
1F
100
AcDbEntity
  8
C-A
  6
Continuous
 62
     6
370
     9
100
AcDbLine
 10
-538.8638828896183
 20
782.82244708087
 30
0.0
 11
-529.8636921547546
 21
785.0728743269639
 31
0.0
  0
LINE
  5
13A
330
1F
100
AcDbEntity
  8
C-A
  6
Continuous
 62
     6
370
     9
100
AcDbLine
 10
-530.3636158608094
 20
778.9320051863388
 30
0.0
 11
-538.3639515541688
 21
780.9322493269639
 31
0.0
  0
LINE
  5
13B
330
1F
100
AcDbEntity
  8
C-A
  6
Continuous
 62
     6
370
     9
100
AcDbLine
 10
-529.8636921547546
 20
778.2918989851669
 30
0.0
 11
-530.3636158608094
 21
778.9320051863388
 31
0.0
  0
LINE
  5
13C
330
1F
100
AcDbEntity
  8
C-A
  6
Continuous
 62
     6
370
     9
100
AcDbLine
 10
-530.3636158608094
 20
784.4322493269638
 30
0.0
 11
-529.8636921547546
 21
785.0728743269639
 31
0.0
  0
LINE
  5
13D
330
1F
100
AcDbEntity
  8
C-A
  6
Continuous
 62
     6
370
     9
100
AcDbLine
 10
-538.3639515541688
 20
782.4320051863388
 30
0.0
 11
-538.8638828896183
 21
782.82244708087
 31
0.0
  0
LINE
  5
13E
330
1F
100
AcDbEntity
  8
C-A
  6
Continuous
 62
     6
370
     9
100
AcDbLine
 10
-538.8638828896183
 20
780.5418074324325
 30
0.0
 11
-538.3639515541688
 21
780.9322493269639
 31
0.0
  0
LINE
  5
13F
330
1F
100
AcDbEntity
  8
C-A
  6
Continuous
 62
     6
370
     9
100
AcDbLine
 10
-530.3636158608094
 20
740.4326155379013
 30
0.0
 11
-538.3639515541688
 21
738.4329207136827
 31
0.0
  0
LINE
  5
140
330
1F
100
AcDbEntity
  8
C-A
  6
Continuous
 62
     6
370
     9
100
AcDbLine
 10
-530.3636158608094
 20
741.9328901961044
 30
0.0
 11
-538.3639515541688
 21
743.9326155379013
 31
0.0
  0
LINE
  5
141
330
1F
100
AcDbEntity
  8
C-A
  6
Continuous
 62
     6
370
     9
100
AcDbLine
 10
-530.3636158608094
 20
740.4326155379013
 30
0.0
 11
-530.3636158608094
 21
741.9328901961044
 31
0.0
  0
LINE
  5
142
330
1F
100
AcDbEntity
  8
C-A
  6
Continuous
 62
     6
370
     9
100
AcDbLine
 10
-538.3639515541688
 20
738.4329207136827
 30
0.0
 11
-538.3639515541688
 21
743.9326155379013
 31
0.0
  0
LINE
  5
143
330
1F
100
AcDbEntity
  8
C-A
  6
Continuous
 62
     6
370
     9
100
AcDbLine
 10
-529.8636921547546
 20
740.0422041609482
 30
0.0
 11
-538.8638828896183
 21
737.7922651961044
 31
0.0
  0
LINE
  5
144
330
1F
100
AcDbEntity
  8
C-A
  6
Continuous
 62
     6
370
     9
100
AcDbLine
 10
-529.8636921547546
 20
742.3233320906356
 30
0.0
 11
-538.8638828896183
 21
744.5732405379013
 31
0.0
  0
LINE
  5
145
330
1F
100
AcDbEntity
  8
C-A
  6
Continuous
 62
     6
370
     9
100
AcDbLine
 10
-529.8636921547546
 20
740.0422041609482
 30
0.0
 11
-530.3636158608094
 21
740.4326155379013
 31
0.0
  0
LINE
  5
146
330
1F
100
AcDbEntity
  8
C-A
  6
Continuous
 62
     6
370
     9
100
AcDbLine
 10
-529.8636921547546
 20
742.3233320906356
 30
0.0
 11
-530.3636158608094
 21
741.9328901961044
 31
0.0
  0
LINE
  5
147
330
1F
100
AcDbEntity
  8
C-A
  6
Continuous
 62
     6
370
     9
100
AcDbLine
 10
-538.3639515541688
 20
743.9326155379013
 30
0.0
 11
-538.8638828896183
 21
744.5732405379013
 31
0.0
  0
LINE
  5
148
330
1F
100
AcDbEntity
  8
C-A
  6
Continuous
 62
     6
370
     9
100
AcDbLine
 10
-538.8638828896183
 20
737.7922651961044
 30
0.0
 11
-538.3639515541688
 21
738.4329207136827
 31
0.0
  0
LINE
  5
149
330
1F
100
AcDbEntity
  8
C-A
  6
Continuous
 62
     6
370
     9
100
AcDbLine
 10
-538.3639515541688
 20
755.4324324324327
 30
0.0
 11
-530.3636158608094
 21
757.4326460554795
 31
0.0
  0
LINE
  5
14A
330
1F
100
AcDbEntity
  8
C-A
  6
Continuous
 62
     6
370
     9
100
AcDbLine
 10
-538.3639515541688
 20
753.9326460554796
 30
0.0
 11
-538.3639515541688
 21
755.4324324324327
 31
0.0
  0
LINE
  5
14B
330
1F
100
AcDbEntity
  8
C-A
  6
Continuous
 62
     6
370
     9
100
AcDbLine
 10
-530.3636158608094
 20
751.9324629500107
 30
0.0
 11
-530.3636158608094
 21
757.4326460554795
 31
0.0
  0
LINE
  5
14C
330
1F
100
AcDbEntity
  8
C-A
  6
Continuous
 62
     6
370
     9
100
AcDbLine
 10
-529.8636921547546
 20
751.2922957136825
 30
0.0
 11
-538.8638828896183
 21
753.5422346785263
 31
0.0
  0
LINE
  5
14D
330
1F
100
AcDbEntity
  8
C-A
  6
Continuous
 62
     6
370
     9
100
AcDbLine
 10
-538.8638828896183
 20
755.8228743269638
 30
0.0
 11
-529.8636921547546
 21
758.0733015730575
 31
0.0
  0
LINE
  5
14E
330
1F
100
AcDbEntity
  8
C-A
  6
Continuous
 62
     6
370
     9
100
AcDbLine
 10
-530.3636158608094
 20
751.9324629500107
 30
0.0
 11
-538.3639515541688
 21
753.9326460554796
 31
0.0
  0
LINE
  5
14F
330
1F
100
AcDbEntity
  8
C-A
  6
Continuous
 62
     6
370
     9
100
AcDbLine
 10
-529.8636921547546
 20
751.2922957136825
 30
0.0
 11
-530.3636158608094
 21
751.9324629500107
 31
0.0
  0
LINE
  5
150
330
1F
100
AcDbEntity
  8
C-A
  6
Continuous
 62
     6
370
     9
100
AcDbLine
 10
-530.3636158608094
 20
757.4326460554795
 30
0.0
 11
-529.8636921547546
 21
758.0733015730575
 31
0.0
  0
LINE
  5
151
330
1F
100
AcDbEntity
  8
C-A
  6
Continuous
 62
     6
370
     9
100
AcDbLine
 10
-538.3639515541688
 20
755.4324324324327
 30
0.0
 11
-538.8638828896183
 21
755.8228743269638
 31
0.0
  0
LINE
  5
152
330
1F
100
AcDbEntity
  8
C-A
  6
Continuous
 62
     6
370
     9
100
AcDbLine
 10
-538.8638828896183
 20
753.5422346785263
 30
0.0
 11
-538.3639515541688
 21
753.9326460554796
 31
0.0
  0
LINE
  5
153
330
1F
100
AcDbEntity
  8
C-A
  6
Continuous
 62
     6
370
     9
100
AcDbLine
 10
-530.3636158608094
 20
713.433042783995
 30
0.0
 11
-538.3639515541688
 21
711.4333174421981
 31
0.0
  0
LINE
  5
154
330
1F
100
AcDbEntity
  8
C-A
  6
Continuous
 62
     6
370
     9
100
AcDbLine
 10
-530.3636158608094
 20
714.9333174421984
 30
0.0
 11
-538.3639515541688
 21
716.933042783995
 31
0.0
  0
LINE
  5
155
330
1F
100
AcDbEntity
  8
C-A
  6
Continuous
 62
     6
370
     9
100
AcDbLine
 10
-530.3636158608094
 20
713.433042783995
 30
0.0
 11
-530.3636158608094
 21
714.9333174421984
 31
0.0
  0
LINE
  5
156
330
1F
100
AcDbEntity
  8
C-A
  6
Continuous
 62
     6
370
     9
100
AcDbLine
 10
-538.3639515541688
 20
711.4333174421981
 30
0.0
 11
-538.3639515541688
 21
716.933042783995
 31
0.0
  0
LINE
  5
157
330
1F
100
AcDbEntity
  8
C-A
  6
Continuous
 62
     6
370
     9
100
AcDbLine
 10
-529.8636921547546
 20
713.042600889464
 30
0.0
 11
-538.8638828896183
 21
710.7926924421984
 31
0.0
  0
LINE
  5
158
330
1F
100
AcDbEntity
  8
C-A
  6
Continuous
 62
     6
370
     9
100
AcDbLine
 10
-529.8636921547546
 20
715.3237593367294
 30
0.0
 11
-538.8638828896183
 21
717.573667783995
 31
0.0
  0
LINE
  5
159
330
1F
100
AcDbEntity
  8
C-A
  6
Continuous
 62
     6
370
     9
100
AcDbLine
 10
-529.8636921547546
 20
713.042600889464
 30
0.0
 11
-530.3636158608094
 21
713.433042783995
 31
0.0
  0
LINE
  5
15A
330
1F
100
AcDbEntity
  8
C-A
  6
Continuous
 62
     6
370
     9
100
AcDbLine
 10
-529.8636921547546
 20
715.3237593367294
 30
0.0
 11
-530.3636158608094
 21
714.9333174421984
 31
0.0
  0
LINE
  5
15B
330
1F
100
AcDbEntity
  8
C-A
  6
Continuous
 62
     6
370
     9
100
AcDbLine
 10
-538.3639515541688
 20
716.933042783995
 30
0.0
 11
-538.8638828896183
 21
717.573667783995
 31
0.0
  0
LINE
  5
15C
330
1F
100
AcDbEntity
  8
C-A
  6
Continuous
 62
     6
370
     9
100
AcDbLine
 10
-538.8638828896183
 20
710.7926924421984
 30
0.0
 11
-538.3639515541688
 21
711.4333174421981
 31
0.0
  0
LINE
  5
15D
330
1F
100
AcDbEntity
  8
C-A
  6
Continuous
 62
     6
370
     9
100
AcDbLine
 10
-538.3639515541688
 20
728.4328596785264
 30
0.0
 11
-530.3636158608094
 21
730.4330733015731
 31
0.0
  0
LINE
  5
15E
330
1F
100
AcDbEntity
  8
C-A
  6
Continuous
 62
     6
370
     9
100
AcDbLine
 10
-538.3639515541688
 20
726.9330733015732
 30
0.0
 11
-538.3639515541688
 21
728.4328596785264
 31
0.0
  0
LINE
  5
15F
330
1F
100
AcDbEntity
  8
C-A
  6
Continuous
 62
     6
370
     9
100
AcDbLine
 10
-530.3636158608094
 20
724.9328596785265
 30
0.0
 11
-530.3636158608094
 21
730.4330733015731
 31
0.0
  0
LINE
  5
160
330
1F
100
AcDbEntity
  8
C-A
  6
Continuous
 62
     6
370
     9
100
AcDbLine
 10
-529.8636921547546
 20
724.2927229597763
 30
0.0
 11
-538.8638828896183
 21
726.5426314070419
 31
0.0
  0
LINE
  5
161
330
1F
100
AcDbEntity
  8
C-A
  6
Continuous
 62
     6
370
     9
100
AcDbLine
 10
-538.8638828896183
 20
728.8233015730575
 30
0.0
 11
-529.8636921547546
 21
731.0736983015732
 31
0.0
  0
LINE
  5
162
330
1F
100
AcDbEntity
  8
C-A
  6
Continuous
 62
     6
370
     9
100
AcDbLine
 10
-530.3636158608094
 20
724.9328596785265
 30
0.0
 11
-538.3639515541688
 21
726.9330733015732
 31
0.0
  0
LINE
  5
163
330
1F
100
AcDbEntity
  8
C-A
  6
Continuous
 62
     6
370
     9
100
AcDbLine
 10
-529.8636921547546
 20
724.2927229597763
 30
0.0
 11
-530.3636158608094
 21
724.9328596785265
 31
0.0
  0
LINE
  5
164
330
1F
100
AcDbEntity
  8
C-A
  6
Continuous
 62
     6
370
     9
100
AcDbLine
 10
-530.3636158608094
 20
730.4330733015731
 30
0.0
 11
-529.8636921547546
 21
731.0736983015732
 31
0.0
  0
LINE
  5
165
330
1F
100
AcDbEntity
  8
C-A
  6
Continuous
 62
     6
370
     9
100
AcDbLine
 10
-538.3639515541688
 20
728.4328596785264
 30
0.0
 11
-538.8638828896183
 21
728.8233015730575
 31
0.0
  0
LINE
  5
166
330
1F
100
AcDbEntity
  8
C-A
  6
Continuous
 62
     6
370
     9
100
AcDbLine
 10
-538.8638828896183
 20
726.5426314070419
 30
0.0
 11
-538.3639515541688
 21
726.9330733015732
 31
0.0
  0
LINE
  5
167
330
1F
100
AcDbEntity
  8
C-A
  6
Continuous
 62
     6
370
     9
100
AcDbLine
 10
-530.3636158608094
 20
686.4334700300888
 30
0.0
 11
-538.3639515541688
 21
684.4337446882921
 31
0.0
  0
LINE
  5
168
330
1F
100
AcDbEntity
  8
C-A
  6
Continuous
 62
     6
370
     9
100
AcDbLine
 10
-530.3636158608094
 20
687.933744688292
 30
0.0
 11
-538.3639515541688
 21
689.9334395125106
 31
0.0
  0
LINE
  5
169
330
1F
100
AcDbEntity
  8
C-A
  6
Continuous
 62
     6
370
     9
100
AcDbLine
 10
-530.3636158608094
 20
686.4334700300888
 30
0.0
 11
-530.3636158608094
 21
687.933744688292
 31
0.0
  0
LINE
  5
16A
330
1F
100
AcDbEntity
  8
C-A
  6
Continuous
 62
     6
370
     9
100
AcDbLine
 10
-538.3639515541688
 20
684.4337446882921
 30
0.0
 11
-538.3639515541688
 21
689.9334395125106
 31
0.0
  0
LINE
  5
16B
330
1F
100
AcDbEntity
  8
C-A
  6
Continuous
 62
     6
370
     9
100
AcDbLine
 10
-529.8636921547546
 20
686.0430281355576
 30
0.0
 11
-538.8638828896183
 21
683.7930891707138
 31
0.0
  0
LINE
  5
16C
330
1F
100
AcDbEntity
  8
C-A
  6
Continuous
 62
     6
370
     9
100
AcDbLine
 10
-529.8636921547546
 20
688.324156065245
 30
0.0
 11
-538.8638828896183
 21
690.5740950300888
 31
0.0
  0
LINE
  5
16D
330
1F
100
AcDbEntity
  8
C-A
  6
Continuous
 62
     6
370
     9
100
AcDbLine
 10
-529.8636921547546
 20
686.0430281355576
 30
0.0
 11
-530.3636158608094
 21
686.4334700300888
 31
0.0
  0
LINE
  5
16E
330
1F
100
AcDbEntity
  8
C-A
  6
Continuous
 62
     6
370
     9
100
AcDbLine
 10
-529.8636921547546
 20
688.324156065245
 30
0.0
 11
-530.3636158608094
 21
687.933744688292
 31
0.0
  0
LINE
  5
16F
330
1F
100
AcDbEntity
  8
C-A
  6
Continuous
 62
     6
370
     9
100
AcDbLine
 10
-538.3639515541688
 20
689.9334395125106
 30
0.0
 11
-538.8638828896183
 21
690.5740950300888
 31
0.0
  0
LINE
  5
170
330
1F
100
AcDbEntity
  8
C-A
  6
Continuous
 62
     6
370
     9
100
AcDbLine
 10
-538.8638828896183
 20
683.7930891707138
 30
0.0
 11
-538.3639515541688
 21
684.4337446882921
 31
0.0
  0
LINE
  5
171
330
1F
100
AcDbEntity
  8
C-A
  6
Continuous
 62
     6
370
     9
100
AcDbLine
 10
-538.3639515541688
 20
701.43328692462
 30
0.0
 11
-530.3636158608094
 21
703.4335005476669
 31
0.0
  0
LINE
  5
172
330
1F
100
AcDbEntity
  8
C-A
  6
Continuous
 62
     6
370
     9
100
AcDbLine
 10
-538.3639515541688
 20
699.9335005476669
 30
0.0
 11
-538.3639515541688
 21
701.43328692462
 31
0.0
  0
LINE
  5
173
330
1F
100
AcDbEntity
  8
C-A
  6
Continuous
 62
     6
370
     9
100
AcDbLine
 10
-530.3636158608094
 20
697.9332869246201
 30
0.0
 11
-530.3636158608094
 21
703.4335005476669
 31
0.0
  0
LINE
  5
174
330
1F
100
AcDbEntity
  8
C-A
  6
Continuous
 62
     6
370
     9
100
AcDbLine
 10
-529.8636921547546
 20
697.29315020587
 30
0.0
 11
-538.8638828896183
 21
699.5430586531356
 31
0.0
  0
LINE
  5
175
330
1F
100
AcDbEntity
  8
C-A
  6
Continuous
 62
     6
370
     9
100
AcDbLine
 10
-538.8638828896183
 20
701.8236983015731
 30
0.0
 11
-529.8636921547546
 21
704.0741255476669
 31
0.0
  0
LINE
  5
176
330
1F
100
AcDbEntity
  8
C-A
  6
Continuous
 62
     6
370
     9
100
AcDbLine
 10
-530.3636158608094
 20
697.9332869246201
 30
0.0
 11
-538.3639515541688
 21
699.9335005476669
 31
0.0
  0
LINE
  5
177
330
1F
100
AcDbEntity
  8
C-A
  6
Continuous
 62
     6
370
     9
100
AcDbLine
 10
-529.8636921547546
 20
697.29315020587
 30
0.0
 11
-530.3636158608094
 21
697.9332869246201
 31
0.0
  0
LINE
  5
178
330
1F
100
AcDbEntity
  8
C-A
  6
Continuous
 62
     6
370
     9
100
AcDbLine
 10
-530.3636158608094
 20
703.4335005476669
 30
0.0
 11
-529.8636921547546
 21
704.0741255476669
 31
0.0
  0
LINE
  5
179
330
1F
100
AcDbEntity
  8
C-A
  6
Continuous
 62
     6
370
     9
100
AcDbLine
 10
-538.3639515541688
 20
701.43328692462
 30
0.0
 11
-538.8638828896183
 21
701.8236983015731
 31
0.0
  0
LINE
  5
17A
330
1F
100
AcDbEntity
  8
C-A
  6
Continuous
 62
     6
370
     9
100
AcDbLine
 10
-538.8638828896183
 20
699.5430586531356
 30
0.0
 11
-538.3639515541688
 21
699.9335005476669
 31
0.0
  0
LINE
  5
17B
330
1F
100
AcDbEntity
  8
C-A
  6
Continuous
 62
     6
370
     9
100
AcDbLine
 10
-515.3637989662781
 20
776.996244688292
 30
0.0
 11
-523.3636311195983
 21
774.996519346495
 31
0.0
  0
LINE
  5
17C
330
1F
100
AcDbEntity
  8
C-A
  6
Continuous
 62
     6
370
     9
100
AcDbLine
 10
-515.3637989662781
 20
778.496519346495
 30
0.0
 11
-523.3636311195983
 21
780.496214170714
 31
0.0
  0
LINE
  5
17D
330
1F
100
AcDbEntity
  8
C-A
  6
Continuous
 62
     6
370
     9
100
AcDbLine
 10
-515.3637989662781
 20
776.996244688292
 30
0.0
 11
-515.3637989662781
 21
778.496519346495
 31
0.0
  0
LINE
  5
17E
330
1F
100
AcDbEntity
  8
C-A
  6
Continuous
 62
     6
370
     9
100
AcDbLine
 10
-523.3636311195983
 20
774.996519346495
 30
0.0
 11
-523.3636311195983
 21
780.496214170714
 31
0.0
  0
LINE
  5
17F
330
1F
100
AcDbEntity
  8
C-A
  6
Continuous
 62
     6
370
     9
100
AcDbLine
 10
-514.8633717201847
 20
776.6058027937606
 30
0.0
 11
-523.8635548256531
 21
774.355894346495
 31
0.0
  0
LINE
  5
180
330
1F
100
AcDbEntity
  8
C-A
  6
Continuous
 62
     6
370
     9
100
AcDbLine
 10
-514.8633717201847
 20
778.8869612410264
 30
0.0
 11
-523.8635548256531
 21
781.1368391707138
 31
0.0
  0
LINE
  5
181
330
1F
100
AcDbEntity
  8
C-A
  6
Continuous
 62
     6
370
     9
100
AcDbLine
 10
-514.8633717201847
 20
776.6058027937606
 30
0.0
 11
-515.3637989662781
 21
776.996244688292
 31
0.0
  0
LINE
  5
182
330
1F
100
AcDbEntity
  8
C-A
  6
Continuous
 62
     6
370
     9
100
AcDbLine
 10
-514.8633717201847
 20
778.8869612410264
 30
0.0
 11
-515.3637989662781
 21
778.496519346495
 31
0.0
  0
LINE
  5
183
330
1F
100
AcDbEntity
  8
C-A
  6
Continuous
 62
     6
370
     9
100
AcDbLine
 10
-523.3636311195983
 20
780.496214170714
 30
0.0
 11
-523.8635548256531
 21
781.1368391707138
 31
0.0
  0
LINE
  5
184
330
1F
100
AcDbEntity
  8
C-A
  6
Continuous
 62
     6
370
     9
100
AcDbLine
 10
-523.8635548256531
 20
774.355894346495
 30
0.0
 11
-523.3636311195983
 21
774.996519346495
 31
0.0
  0
LINE
  5
185
330
1F
100
AcDbEntity
  8
C-A
  6
Continuous
 62
     6
370
     9
100
AcDbLine
 10
-515.3637989662781
 20
749.9966414168077
 30
0.0
 11
-523.3636311195983
 21
747.9969465925888
 31
0.0
  0
LINE
  5
186
330
1F
100
AcDbEntity
  8
C-A
  6
Continuous
 62
     6
370
     9
100
AcDbLine
 10
-515.3637989662781
 20
751.4969465925888
 30
0.0
 11
-523.3636311195983
 21
753.4966414168076
 31
0.0
  0
LINE
  5
187
330
1F
100
AcDbEntity
  8
C-A
  6
Continuous
 62
     6
370
     9
100
AcDbLine
 10
-515.3637989662781
 20
749.9966414168077
 30
0.0
 11
-515.3637989662781
 21
751.4969465925888
 31
0.0
  0
LINE
  5
188
330
1F
100
AcDbEntity
  8
C-A
  6
Continuous
 62
     6
370
     9
100
AcDbLine
 10
-523.3636311195983
 20
747.9969465925888
 30
0.0
 11
-523.3636311195983
 21
753.4966414168076
 31
0.0
  0
LINE
  5
189
330
1F
100
AcDbEntity
  8
C-A
  6
Continuous
 62
     6
370
     9
100
AcDbLine
 10
-514.8633717201847
 20
749.6062300398544
 30
0.0
 11
-523.8635548256531
 21
747.3562910750106
 31
0.0
  0
LINE
  5
18A
330
1F
100
AcDbEntity
  8
C-A
  6
Continuous
 62
     6
370
     9
100
AcDbLine
 10
-514.8633717201847
 20
751.8873579695421
 30
0.0
 11
-523.8635548256531
 21
754.1372969343856
 31
0.0
  0
LINE
  5
18B
330
1F
100
AcDbEntity
  8
C-A
  6
Continuous
 62
     6
370
     9
100
AcDbLine
 10
-514.8633717201847
 20
749.6062300398544
 30
0.0
 11
-515.3637989662781
 21
749.9966414168077
 31
0.0
  0
LINE
  5
18C
330
1F
100
AcDbEntity
  8
C-A
  6
Continuous
 62
     6
370
     9
100
AcDbLine
 10
-514.8633717201847
 20
751.8873579695421
 30
0.0
 11
-515.3637989662781
 21
751.4969465925888
 31
0.0
  0
LINE
  5
18D
330
1F
100
AcDbEntity
  8
C-A
  6
Continuous
 62
     6
370
     9
100
AcDbLine
 10
-523.3636311195983
 20
753.4966414168076
 30
0.0
 11
-523.8635548256531
 21
754.1372969343856
 31
0.0
  0
LINE
  5
18E
330
1F
100
AcDbEntity
  8
C-A
  6
Continuous
 62
     6
370
     9
100
AcDbLine
 10
-523.8635548256531
 20
747.3562910750106
 30
0.0
 11
-523.3636311195983
 21
747.9969465925888
 31
0.0
  0
LINE
  5
18F
330
1F
100
AcDbEntity
  8
C-A
  6
Continuous
 62
     6
370
     9
100
AcDbLine
 10
-523.3636311195983
 20
764.9964888289171
 30
0.0
 11
-515.3637989662781
 21
766.9966719343856
 31
0.0
  0
LINE
  5
190
330
1F
100
AcDbEntity
  8
C-A
  6
Continuous
 62
     6
370
     9
100
AcDbLine
 10
-523.3636311195983
 20
763.496702451964
 30
0.0
 11
-523.3636311195983
 21
764.9964888289171
 31
0.0
  0
LINE
  5
191
330
1F
100
AcDbEntity
  8
C-A
  6
Continuous
 62
     6
370
     9
100
AcDbLine
 10
-515.3637989662781
 20
761.4964888289169
 30
0.0
 11
-515.3637989662781
 21
766.9966719343856
 31
0.0
  0
LINE
  5
192
330
1F
100
AcDbEntity
  8
C-A
  6
Continuous
 62
     6
370
     9
100
AcDbLine
 10
-514.8633717201847
 20
760.8563521101669
 30
0.0
 11
-523.8635548256531
 21
763.1062605574325
 31
0.0
  0
LINE
  5
193
330
1F
100
AcDbEntity
  8
C-A
  6
Continuous
 62
     6
370
     9
100
AcDbLine
 10
-523.8635548256531
 20
765.3869002058701
 30
0.0
 11
-514.8633717201847
 21
767.637327451964
 31
0.0
  0
LINE
  5
194
330
1F
100
AcDbEntity
  8
C-A
  6
Continuous
 62
     6
370
     9
100
AcDbLine
 10
-515.3637989662781
 20
761.4964888289169
 30
0.0
 11
-523.3636311195983
 21
763.496702451964
 31
0.0
  0
LINE
  5
195
330
1F
100
AcDbEntity
  8
C-A
  6
Continuous
 62
     6
370
     9
100
AcDbLine
 10
-514.8633717201847
 20
760.8563521101669
 30
0.0
 11
-515.3637989662781
 21
761.4964888289169
 31
0.0
  0
LINE
  5
196
330
1F
100
AcDbEntity
  8
C-A
  6
Continuous
 62
     6
370
     9
100
AcDbLine
 10
-515.3637989662781
 20
766.9966719343856
 30
0.0
 11
-514.8633717201847
 21
767.637327451964
 31
0.0
  0
LINE
  5
197
330
1F
100
AcDbEntity
  8
C-A
  6
Continuous
 62
     6
370
     9
100
AcDbLine
 10
-523.3636311195983
 20
764.9964888289171
 30
0.0
 11
-523.8635548256531
 21
765.3869002058701
 31
0.0
  0
LINE
  5
198
330
1F
100
AcDbEntity
  8
C-A
  6
Continuous
 62
     6
370
     9
100
AcDbLine
 10
-523.8635548256531
 20
763.1062605574325
 30
0.0
 11
-523.3636311195983
 21
763.496702451964
 31
0.0
  0
LINE
  5
199
330
1F
100
AcDbEntity
  8
C-A
  6
Continuous
 62
     6
370
     9
100
AcDbLine
 10
-515.3637989662781
 20
722.9970686629014
 30
0.0
 11
-523.3636311195983
 21
720.9973738386825
 31
0.0
  0
LINE
  5
19A
330
1F
100
AcDbEntity
  8
C-A
  6
Continuous
 62
     6
370
     9
100
AcDbLine
 10
-515.3637989662781
 20
724.4973433211044
 30
0.0
 11
-523.3636311195983
 21
726.4970686629013
 31
0.0
  0
LINE
  5
19B
330
1F
100
AcDbEntity
  8
C-A
  6
Continuous
 62
     6
370
     9
100
AcDbLine
 10
-515.3637989662781
 20
722.9970686629014
 30
0.0
 11
-515.3637989662781
 21
724.4973433211044
 31
0.0
  0
LINE
  5
19C
330
1F
100
AcDbEntity
  8
C-A
  6
Continuous
 62
     6
370
     9
100
AcDbLine
 10
-523.3636311195983
 20
720.9973738386825
 30
0.0
 11
-523.3636311195983
 21
726.4970686629013
 31
0.0
  0
LINE
  5
19D
330
1F
100
AcDbEntity
  8
C-A
  6
Continuous
 62
     6
370
     9
100
AcDbLine
 10
-514.8633717201847
 20
722.6066572859484
 30
0.0
 11
-523.8635548256531
 21
720.3567183211044
 31
0.0
  0
LINE
  5
19E
330
1F
100
AcDbEntity
  8
C-A
  6
Continuous
 62
     6
370
     9
100
AcDbLine
 10
-514.8633717201847
 20
724.8877852156357
 30
0.0
 11
-523.8635548256531
 21
727.1376936629014
 31
0.0
  0
LINE
  5
19F
330
1F
100
AcDbEntity
  8
C-A
  6
Continuous
 62
     6
370
     9
100
AcDbLine
 10
-514.8633717201847
 20
722.6066572859484
 30
0.0
 11
-515.3637989662781
 21
722.9970686629014
 31
0.0
  0
LINE
  5
1A0
330
1F
100
AcDbEntity
  8
C-A
  6
Continuous
 62
     6
370
     9
100
AcDbLine
 10
-514.8633717201847
 20
724.8877852156357
 30
0.0
 11
-515.3637989662781
 21
724.4973433211044
 31
0.0
  0
LINE
  5
1A1
330
1F
100
AcDbEntity
  8
C-A
  6
Continuous
 62
     6
370
     9
100
AcDbLine
 10
-523.3636311195983
 20
726.4970686629013
 30
0.0
 11
-523.8635548256531
 21
727.1376936629014
 31
0.0
  0
LINE
  5
1A2
330
1F
100
AcDbEntity
  8
C-A
  6
Continuous
 62
     6
370
     9
100
AcDbLine
 10
-523.8635548256531
 20
720.3567183211044
 30
0.0
 11
-523.3636311195983
 21
720.9973738386825
 31
0.0
  0
LINE
  5
1A3
330
1F
100
AcDbEntity
  8
C-A
  6
Continuous
 62
     6
370
     9
100
AcDbLine
 10
-523.3636311195983
 20
737.9968855574325
 30
0.0
 11
-515.3637989662781
 21
739.9970991804796
 31
0.0
  0
LINE
  5
1A4
330
1F
100
AcDbEntity
  8
C-A
  6
Continuous
 62
     6
370
     9
100
AcDbLine
 10
-523.3636311195983
 20
736.4970991804794
 30
0.0
 11
-523.3636311195983
 21
737.9968855574325
 31
0.0
  0
LINE
  5
1A5
330
1F
100
AcDbEntity
  8
C-A
  6
Continuous
 62
     6
370
     9
100
AcDbLine
 10
-515.3637989662781
 20
734.4969160750109
 30
0.0
 11
-515.3637989662781
 21
739.9970991804796
 31
0.0
  0
LINE
  5
1A6
330
1F
100
AcDbEntity
  8
C-A
  6
Continuous
 62
     6
370
     9
100
AcDbLine
 10
-514.8633717201847
 20
733.8567488386826
 30
0.0
 11
-523.8635548256531
 21
736.1066878035263
 31
0.0
  0
LINE
  5
1A7
330
1F
100
AcDbEntity
  8
C-A
  6
Continuous
 62
     6
370
     9
100
AcDbLine
 10
-523.8635548256531
 20
738.3873274519638
 30
0.0
 11
-514.8633717201847
 21
740.6377546980576
 31
0.0
  0
LINE
  5
1A8
330
1F
100
AcDbEntity
  8
C-A
  6
Continuous
 62
     6
370
     9
100
AcDbLine
 10
-515.3637989662781
 20
734.4969160750109
 30
0.0
 11
-523.3636311195983
 21
736.4970991804794
 31
0.0
  0
LINE
  5
1A9
330
1F
100
AcDbEntity
  8
C-A
  6
Continuous
 62
     6
370
     9
100
AcDbLine
 10
-514.8633717201847
 20
733.8567488386826
 30
0.0
 11
-515.3637989662781
 21
734.4969160750109
 31
0.0
  0
LINE
  5
1AA
330
1F
100
AcDbEntity
  8
C-A
  6
Continuous
 62
     6
370
     9
100
AcDbLine
 10
-515.3637989662781
 20
739.9970991804796
 30
0.0
 11
-514.8633717201847
 21
740.6377546980576
 31
0.0
  0
LINE
  5
1AB
330
1F
100
AcDbEntity
  8
C-A
  6
Continuous
 62
     6
370
     9
100
AcDbLine
 10
-523.3636311195983
 20
737.9968855574325
 30
0.0
 11
-523.8635548256531
 21
738.3873274519638
 31
0.0
  0
LINE
  5
1AC
330
1F
100
AcDbEntity
  8
C-A
  6
Continuous
 62
     6
370
     9
100
AcDbLine
 10
-523.8635548256531
 20
736.1066878035263
 30
0.0
 11
-523.3636311195983
 21
736.4970991804794
 31
0.0
  0
LINE
  5
1AD
330
1F
100
AcDbEntity
  8
C-A
  6
Continuous
 62
     6
370
     9
100
AcDbLine
 10
-515.3637989662781
 20
695.997495908995
 30
0.0
 11
-523.3636311195983
 21
693.9977705671981
 31
0.0
  0
LINE
  5
1AE
330
1F
100
AcDbEntity
  8
C-A
  6
Continuous
 62
     6
370
     9
100
AcDbLine
 10
-515.3637989662781
 20
697.4977705671981
 30
0.0
 11
-523.3636311195983
 21
699.497495908995
 31
0.0
  0
LINE
  5
1AF
330
1F
100
AcDbEntity
  8
C-A
  6
Continuous
 62
     6
370
     9
100
AcDbLine
 10
-515.3637989662781
 20
695.997495908995
 30
0.0
 11
-515.3637989662781
 21
697.4977705671981
 31
0.0
  0
LINE
  5
1B0
330
1F
100
AcDbEntity
  8
C-A
  6
Continuous
 62
     6
370
     9
100
AcDbLine
 10
-523.3636311195983
 20
693.9977705671981
 30
0.0
 11
-523.3636311195983
 21
699.497495908995
 31
0.0
  0
LINE
  5
1B1
330
1F
100
AcDbEntity
  8
C-A
  6
Continuous
 62
     6
370
     9
100
AcDbLine
 10
-514.8633717201847
 20
695.6070540144638
 30
0.0
 11
-523.8635548256531
 21
693.3571455671981
 31
0.0
  0
LINE
  5
1B2
330
1F
100
AcDbEntity
  8
C-A
  6
Continuous
 62
     6
370
     9
100
AcDbLine
 10
-514.8633717201847
 20
697.8882124617294
 30
0.0
 11
-523.8635548256531
 21
700.138120908995
 31
0.0
  0
LINE
  5
1B3
330
1F
100
AcDbEntity
  8
C-A
  6
Continuous
 62
     6
370
     9
100
AcDbLine
 10
-514.8633717201847
 20
695.6070540144638
 30
0.0
 11
-515.3637989662781
 21
695.997495908995
 31
0.0
  0
LINE
  5
1B4
330
1F
100
AcDbEntity
  8
C-A
  6
Continuous
 62
     6
370
     9
100
AcDbLine
 10
-514.8633717201847
 20
697.8882124617294
 30
0.0
 11
-515.3637989662781
 21
697.4977705671981
 31
0.0
  0
LINE
  5
1B5
330
1F
100
AcDbEntity
  8
C-A
  6
Continuous
 62
     6
370
     9
100
AcDbLine
 10
-523.3636311195983
 20
699.497495908995
 30
0.0
 11
-523.8635548256531
 21
700.138120908995
 31
0.0
  0
LINE
  5
1B6
330
1F
100
AcDbEntity
  8
C-A
  6
Continuous
 62
     6
370
     9
100
AcDbLine
 10
-523.8635548256531
 20
693.3571455671981
 30
0.0
 11
-523.3636311195983
 21
693.9977705671981
 31
0.0
  0
LINE
  5
1B7
330
1F
100
AcDbEntity
  8
C-A
  6
Continuous
 62
     6
370
     9
100
AcDbLine
 10
-523.3636311195983
 20
710.9973128035265
 30
0.0
 11
-515.3637989662781
 21
712.9975264265732
 31
0.0
  0
LINE
  5
1B8
330
1F
100
AcDbEntity
  8
C-A
  6
Continuous
 62
     6
370
     9
100
AcDbLine
 10
-523.3636311195983
 20
709.4975264265734
 30
0.0
 11
-523.3636311195983
 21
710.9973128035265
 31
0.0
  0
LINE
  5
1B9
330
1F
100
AcDbEntity
  8
C-A
  6
Continuous
 62
     6
370
     9
100
AcDbLine
 10
-515.3637989662781
 20
707.4973128035263
 30
0.0
 11
-515.3637989662781
 21
712.9975264265732
 31
0.0
  0
LINE
  5
1BA
330
1F
100
AcDbEntity
  8
C-A
  6
Continuous
 62
     6
370
     9
100
AcDbLine
 10
-514.8633717201847
 20
706.8571760847763
 30
0.0
 11
-523.8635548256531
 21
709.1070845320419
 31
0.0
  0
LINE
  5
1BB
330
1F
100
AcDbEntity
  8
C-A
  6
Continuous
 62
     6
370
     9
100
AcDbLine
 10
-523.8635548256531
 20
711.3877546980575
 30
0.0
 11
-514.8633717201847
 21
713.6381514265734
 31
0.0
  0
LINE
  5
1BC
330
1F
100
AcDbEntity
  8
C-A
  6
Continuous
 62
     6
370
     9
100
AcDbLine
 10
-515.3637989662781
 20
707.4973128035263
 30
0.0
 11
-523.3636311195983
 21
709.4975264265734
 31
0.0
  0
LINE
  5
1BD
330
1F
100
AcDbEntity
  8
C-A
  6
Continuous
 62
     6
370
     9
100
AcDbLine
 10
-514.8633717201847
 20
706.8571760847763
 30
0.0
 11
-515.3637989662781
 21
707.4973128035263
 31
0.0
  0
LINE
  5
1BE
330
1F
100
AcDbEntity
  8
C-A
  6
Continuous
 62
     6
370
     9
100
AcDbLine
 10
-515.3637989662781
 20
712.9975264265732
 30
0.0
 11
-514.8633717201847
 21
713.6381514265734
 31
0.0
  0
LINE
  5
1BF
330
1F
100
AcDbEntity
  8
C-A
  6
Continuous
 62
     6
370
     9
100
AcDbLine
 10
-523.3636311195983
 20
710.9973128035265
 30
0.0
 11
-523.8635548256531
 21
711.3877546980575
 31
0.0
  0
LINE
  5
1C0
330
1F
100
AcDbEntity
  8
C-A
  6
Continuous
 62
     6
370
     9
100
AcDbLine
 10
-523.8635548256531
 20
709.1070845320419
 30
0.0
 11
-523.3636311195983
 21
709.4975264265734
 31
0.0
  0
LINE
  5
1C1
330
1F
100
AcDbEntity
  8
C-A
  6
Continuous
 62
     6
370
     9
100
AcDbLine
 10
-500.363966812958
 20
763.9074385359481
 30
0.0
 11
-508.3638142250675
 21
761.9077131941513
 31
0.0
  0
LINE
  5
1C2
330
1F
100
AcDbEntity
  8
C-A
  6
Continuous
 62
     6
370
     9
100
AcDbLine
 10
-500.363966812958
 20
765.4077131941515
 30
0.0
 11
-508.3638142250675
 21
767.4074385359481
 31
0.0
  0
LINE
  5
1C3
330
1F
100
AcDbEntity
  8
C-A
  6
Continuous
 62
     6
370
     9
100
AcDbLine
 10
-500.363966812958
 20
763.9074385359481
 30
0.0
 11
-500.363966812958
 21
765.4077131941515
 31
0.0
  0
LINE
  5
1C4
330
1F
100
AcDbEntity
  8
C-A
  6
Continuous
 62
     6
370
     9
100
AcDbLine
 10
-508.3638142250675
 20
761.9077131941513
 30
0.0
 11
-508.3638142250675
 21
767.4074385359481
 31
0.0
  0
LINE
  5
1C5
330
1F
100
AcDbEntity
  8
C-A
  6
Continuous
 62
     6
370
     9
100
AcDbLine
 10
-499.8635548256533
 20
763.5169966414171
 30
0.0
 11
-508.8637379311217
 21
761.2670881941515
 31
0.0
  0
LINE
  5
1C6
330
1F
100
AcDbEntity
  8
C-A
  6
Continuous
 62
     6
370
     9
100
AcDbLine
 10
-499.8635548256533
 20
765.7981550886825
 30
0.0
 11
-508.8637379311217
 21
768.0480635359481
 31
0.0
  0
LINE
  5
1C7
330
1F
100
AcDbEntity
  8
C-A
  6
Continuous
 62
     6
370
     9
100
AcDbLine
 10
-499.8635548256533
 20
763.5169966414171
 30
0.0
 11
-500.363966812958
 21
763.9074385359481
 31
0.0
  0
LINE
  5
1C8
330
1F
100
AcDbEntity
  8
C-A
  6
Continuous
 62
     6
370
     9
100
AcDbLine
 10
-499.8635548256533
 20
765.7981550886825
 30
0.0
 11
-500.363966812958
 21
765.4077131941515
 31
0.0
  0
LINE
  5
1C9
330
1F
100
AcDbEntity
  8
C-A
  6
Continuous
 62
     6
370
     9
100
AcDbLine
 10
-508.3638142250675
 20
767.4074385359481
 30
0.0
 11
-508.8637379311217
 21
768.0480635359481
 31
0.0
  0
LINE
  5
1CA
330
1F
100
AcDbEntity
  8
C-A
  6
Continuous
 62
     6
370
     9
100
AcDbLine
 10
-508.8637379311217
 20
761.2670881941515
 30
0.0
 11
-508.3638142250675
 21
761.9077131941513
 31
0.0
  0
LINE
  5
1CB
330
1F
100
AcDbEntity
  8
C-A
  6
Continuous
 62
     6
370
     9
100
AcDbLine
 10
-508.3638142250675
 20
778.9072859480575
 30
0.0
 11
-500.363966812958
 21
780.9074690535263
 31
0.0
  0
LINE
  5
1CC
330
1F
100
AcDbEntity
  8
C-A
  6
Continuous
 62
     6
370
     9
100
AcDbLine
 10
-508.3638142250675
 20
777.4074690535264
 30
0.0
 11
-508.3638142250675
 21
778.9072859480575
 31
0.0
  0
LINE
  5
1CD
330
1F
100
AcDbEntity
  8
C-A
  6
Continuous
 62
     6
370
     9
100
AcDbLine
 10
-500.363966812958
 20
775.4072554304796
 30
0.0
 11
-500.363966812958
 21
780.9074690535263
 31
0.0
  0
LINE
  5
1CE
330
1F
100
AcDbEntity
  8
C-A
  6
Continuous
 62
     6
370
     9
100
AcDbLine
 10
-499.8635548256533
 20
774.7671187117294
 30
0.0
 11
-508.8637379311217
 21
777.0170576765734
 31
0.0
  0
LINE
  5
1CF
330
1F
100
AcDbEntity
  8
C-A
  6
Continuous
 62
     6
370
     9
100
AcDbLine
 10
-508.8637379311217
 20
779.2976668074325
 30
0.0
 11
-499.8635548256533
 21
781.5480940535264
 31
0.0
  0
LINE
  5
1D0
330
1F
100
AcDbEntity
  8
C-A
  6
Continuous
 62
     6
370
     9
100
AcDbLine
 10
-500.363966812958
 20
775.4072554304796
 30
0.0
 11
-508.3638142250675
 21
777.4074690535264
 31
0.0
  0
LINE
  5
1D1
330
1F
100
AcDbEntity
  8
C-A
  6
Continuous
 62
     6
370
     9
100
AcDbLine
 10
-499.8635548256533
 20
774.7671187117294
 30
0.0
 11
-500.363966812958
 21
775.4072554304796
 31
0.0
  0
LINE
  5
1D2
330
1F
100
AcDbEntity
  8
C-A
  6
Continuous
 62
     6
370
     9
100
AcDbLine
 10
-500.363966812958
 20
780.9074690535263
 30
0.0
 11
-499.8635548256533
 21
781.5480940535264
 31
0.0
  0
LINE
  5
1D3
330
1F
100
AcDbEntity
  8
C-A
  6
Continuous
 62
     6
370
     9
100
AcDbLine
 10
-508.3638142250675
 20
778.9072859480575
 30
0.0
 11
-508.8637379311217
 21
779.2976668074325
 31
0.0
  0
LINE
  5
1D4
330
1F
100
AcDbEntity
  8
C-A
  6
Continuous
 62
     6
370
     9
100
AcDbLine
 10
-508.8637379311217
 20
777.0170576765734
 30
0.0
 11
-508.3638142250675
 21
777.4074690535264
 31
0.0
  0
LINE
  5
1D5
330
1F
100
AcDbEntity
  8
C-A
  6
Continuous
 62
     6
370
     9
100
AcDbLine
 10
-500.363966812958
 20
736.9078657820419
 30
0.0
 11
-508.3638142250675
 21
734.9081404402452
 31
0.0
  0
LINE
  5
1D6
330
1F
100
AcDbEntity
  8
C-A
  6
Continuous
 62
     6
370
     9
100
AcDbLine
 10
-500.363966812958
 20
738.4081404402451
 30
0.0
 11
-508.3638142250675
 21
740.4078352644638
 31
0.0
  0
LINE
  5
1D7
330
1F
100
AcDbEntity
  8
C-A
  6
Continuous
 62
     6
370
     9
100
AcDbLine
 10
-500.363966812958
 20
736.9078657820419
 30
0.0
 11
-500.363966812958
 21
738.4081404402451
 31
0.0
  0
LINE
  5
1D8
330
1F
100
AcDbEntity
  8
C-A
  6
Continuous
 62
     6
370
     9
100
AcDbLine
 10
-508.3638142250675
 20
734.9081404402452
 30
0.0
 11
-508.3638142250675
 21
740.4078352644638
 31
0.0
  0
LINE
  5
1D9
330
1F
100
AcDbEntity
  8
C-A
  6
Continuous
 62
     6
370
     9
100
AcDbLine
 10
-499.8635548256533
 20
736.5174238875107
 30
0.0
 11
-508.8637379311217
 21
734.2675154402451
 31
0.0
  0
LINE
  5
1DA
330
1F
100
AcDbEntity
  8
C-A
  6
Continuous
 62
     6
370
     9
100
AcDbLine
 10
-499.8635548256533
 20
738.7985518171981
 30
0.0
 11
-508.8637379311217
 21
741.0484907820419
 31
0.0
  0
LINE
  5
1DB
330
1F
100
AcDbEntity
  8
C-A
  6
Continuous
 62
     6
370
     9
100
AcDbLine
 10
-499.8635548256533
 20
736.5174238875107
 30
0.0
 11
-500.363966812958
 21
736.9078657820419
 31
0.0
  0
LINE
  5
1DC
330
1F
100
AcDbEntity
  8
C-A
  6
Continuous
 62
     6
370
     9
100
AcDbLine
 10
-499.8635548256533
 20
738.7985518171981
 30
0.0
 11
-500.363966812958
 21
738.4081404402451
 31
0.0
  0
LINE
  5
1DD
330
1F
100
AcDbEntity
  8
C-A
  6
Continuous
 62
     6
370
     9
100
AcDbLine
 10
-508.3638142250675
 20
740.4078352644638
 30
0.0
 11
-508.8637379311217
 21
741.0484907820419
 31
0.0
  0
LINE
  5
1DE
330
1F
100
AcDbEntity
  8
C-A
  6
Continuous
 62
     6
370
     9
100
AcDbLine
 10
-508.8637379311217
 20
734.2675154402451
 30
0.0
 11
-508.3638142250675
 21
734.9081404402452
 31
0.0
  0
LINE
  5
1DF
330
1F
100
AcDbEntity
  8
C-A
  6
Continuous
 62
     6
370
     9
100
AcDbLine
 10
-508.3638142250675
 20
751.9076826765731
 30
0.0
 11
-500.363966812958
 21
753.90789629962
 31
0.0
  0
LINE
  5
1E0
330
1F
100
AcDbEntity
  8
C-A
  6
Continuous
 62
     6
370
     9
100
AcDbLine
 10
-508.3638142250675
 20
750.40789629962
 30
0.0
 11
-508.3638142250675
 21
751.9076826765731
 31
0.0
  0
LINE
  5
1E1
330
1F
100
AcDbEntity
  8
C-A
  6
Continuous
 62
     6
370
     9
100
AcDbLine
 10
-500.363966812958
 20
748.4076826765732
 30
0.0
 11
-500.363966812958
 21
753.90789629962
 31
0.0
  0
LINE
  5
1E2
330
1F
100
AcDbEntity
  8
C-A
  6
Continuous
 62
     6
370
     9
100
AcDbLine
 10
-499.8635548256533
 20
747.7675459578231
 30
0.0
 11
-508.8637379311217
 21
750.0174544050888
 31
0.0
  0
LINE
  5
1E3
330
1F
100
AcDbEntity
  8
C-A
  6
Continuous
 62
     6
370
     9
100
AcDbLine
 10
-508.8637379311217
 20
752.2980940535263
 30
0.0
 11
-499.8635548256533
 21
754.54852129962
 31
0.0
  0
LINE
  5
1E4
330
1F
100
AcDbEntity
  8
C-A
  6
Continuous
 62
     6
370
     9
100
AcDbLine
 10
-500.363966812958
 20
748.4076826765732
 30
0.0
 11
-508.3638142250675
 21
750.40789629962
 31
0.0
  0
LINE
  5
1E5
330
1F
100
AcDbEntity
  8
C-A
  6
Continuous
 62
     6
370
     9
100
AcDbLine
 10
-499.8635548256533
 20
747.7675459578231
 30
0.0
 11
-500.363966812958
 21
748.4076826765732
 31
0.0
  0
LINE
  5
1E6
330
1F
100
AcDbEntity
  8
C-A
  6
Continuous
 62
     6
370
     9
100
AcDbLine
 10
-500.363966812958
 20
753.90789629962
 30
0.0
 11
-499.8635548256533
 21
754.54852129962
 31
0.0
  0
LINE
  5
1E7
330
1F
100
AcDbEntity
  8
C-A
  6
Continuous
 62
     6
370
     9
100
AcDbLine
 10
-508.3638142250675
 20
751.9076826765731
 30
0.0
 11
-508.8637379311217
 21
752.2980940535263
 31
0.0
  0
LINE
  5
1E8
330
1F
100
AcDbEntity
  8
C-A
  6
Continuous
 62
     6
370
     9
100
AcDbLine
 10
-508.8637379311217
 20
750.0174544050888
 30
0.0
 11
-508.3638142250675
 21
750.40789629962
 31
0.0
  0
LINE
  5
1E9
330
1F
100
AcDbEntity
  8
C-A
  6
Continuous
 62
     6
370
     9
100
AcDbLine
 10
-500.363966812958
 20
709.9082625105575
 30
0.0
 11
-508.3638142250675
 21
707.9085676863389
 31
0.0
  0
LINE
  5
1EA
330
1F
100
AcDbEntity
  8
C-A
  6
Continuous
 62
     6
370
     9
100
AcDbLine
 10
-500.363966812958
 20
711.4085371687609
 30
0.0
 11
-508.3638142250675
 21
713.4082625105575
 31
0.0
  0
LINE
  5
1EB
330
1F
100
AcDbEntity
  8
C-A
  6
Continuous
 62
     6
370
     9
100
AcDbLine
 10
-500.363966812958
 20
709.9082625105575
 30
0.0
 11
-500.363966812958
 21
711.4085371687609
 31
0.0
  0
LINE
  5
1EC
330
1F
100
AcDbEntity
  8
C-A
  6
Continuous
 62
     6
370
     9
100
AcDbLine
 10
-508.3638142250675
 20
707.9085676863389
 30
0.0
 11
-508.3638142250675
 21
713.4082625105575
 31
0.0
  0
LINE
  5
1ED
330
1F
100
AcDbEntity
  8
C-A
  6
Continuous
 62
     6
370
     9
100
AcDbLine
 10
-499.8635548256533
 20
709.5178511336044
 30
0.0
 11
-508.8637379311217
 21
707.2679121687609
 31
0.0
  0
LINE
  5
1EE
330
1F
100
AcDbEntity
  8
C-A
  6
Continuous
 62
     6
370
     9
100
AcDbLine
 10
-499.8635548256533
 20
711.7989790632919
 30
0.0
 11
-508.8637379311217
 21
714.0489180281359
 31
0.0
  0
LINE
  5
1EF
330
1F
100
AcDbEntity
  8
C-A
  6
Continuous
 62
     6
370
     9
100
AcDbLine
 10
-499.8635548256533
 20
709.5178511336044
 30
0.0
 11
-500.363966812958
 21
709.9082625105575
 31
0.0
  0
LINE
  5
1F0
330
1F
100
AcDbEntity
  8
C-A
  6
Continuous
 62
     6
370
     9
100
AcDbLine
 10
-499.8635548256533
 20
711.7989790632919
 30
0.0
 11
-500.363966812958
 21
711.4085371687609
 31
0.0
  0
LINE
  5
1F1
330
1F
100
AcDbEntity
  8
C-A
  6
Continuous
 62
     6
370
     9
100
AcDbLine
 10
-508.3638142250675
 20
713.4082625105575
 30
0.0
 11
-508.8637379311217
 21
714.0489180281359
 31
0.0
  0
LINE
  5
1F2
330
1F
100
AcDbEntity
  8
C-A
  6
Continuous
 62
     6
370
     9
100
AcDbLine
 10
-508.8637379311217
 20
707.2679121687609
 30
0.0
 11
-508.3638142250675
 21
707.9085676863389
 31
0.0
  0
LINE
  5
1F3
330
1F
100
AcDbEntity
  8
C-A
  6
Continuous
 62
     6
370
     9
100
AcDbLine
 10
-508.3638142250675
 20
724.9081099226669
 30
0.0
 11
-500.363966812958
 21
726.9082930281356
 31
0.0
  0
LINE
  5
1F4
330
1F
100
AcDbEntity
  8
C-A
  6
Continuous
 62
     6
370
     9
100
AcDbLine
 10
-508.3638142250675
 20
723.4083235457138
 30
0.0
 11
-508.3638142250675
 21
724.9081099226669
 31
0.0
  0
LINE
  5
1F5
330
1F
100
AcDbEntity
  8
C-A
  6
Continuous
 62
     6
370
     9
100
AcDbLine
 10
-500.363966812958
 20
721.4081099226669
 30
0.0
 11
-500.363966812958
 21
726.9082930281356
 31
0.0
  0
LINE
  5
1F6
330
1F
100
AcDbEntity
  8
C-A
  6
Continuous
 62
     6
370
     9
100
AcDbLine
 10
-499.8635548256533
 20
720.7679426863388
 30
0.0
 11
-508.8637379311217
 21
723.0178816511827
 31
0.0
  0
LINE
  5
1F7
330
1F
100
AcDbEntity
  8
C-A
  6
Continuous
 62
     6
370
     9
100
AcDbLine
 10
-508.8637379311217
 20
725.29852129962
 30
0.0
 11
-499.8635548256533
 21
727.5489485457138
 31
0.0
  0
LINE
  5
1F8
330
1F
100
AcDbEntity
  8
C-A
  6
Continuous
 62
     6
370
     9
100
AcDbLine
 10
-500.363966812958
 20
721.4081099226669
 30
0.0
 11
-508.3638142250675
 21
723.4083235457138
 31
0.0
  0
LINE
  5
1F9
330
1F
100
AcDbEntity
  8
C-A
  6
Continuous
 62
     6
370
     9
100
AcDbLine
 10
-499.8635548256533
 20
720.7679426863388
 30
0.0
 11
-500.363966812958
 21
721.4081099226669
 31
0.0
  0
LINE
  5
1FA
330
1F
100
AcDbEntity
  8
C-A
  6
Continuous
 62
     6
370
     9
100
AcDbLine
 10
-500.363966812958
 20
726.9082930281356
 30
0.0
 11
-499.8635548256533
 21
727.5489485457138
 31
0.0
  0
LINE
  5
1FB
330
1F
100
AcDbEntity
  8
C-A
  6
Continuous
 62
     6
370
     9
100
AcDbLine
 10
-508.3638142250675
 20
724.9081099226669
 30
0.0
 11
-508.8637379311217
 21
725.29852129962
 31
0.0
  0
LINE
  5
1FC
330
1F
100
AcDbEntity
  8
C-A
  6
Continuous
 62
     6
370
     9
100
AcDbLine
 10
-508.8637379311217
 20
723.0178816511827
 30
0.0
 11
-508.3638142250675
 21
723.4083235457138
 31
0.0
  0
LINE
  5
1FD
330
1F
100
AcDbEntity
  8
C-A
  6
Continuous
 62
     6
370
     9
100
AcDbLine
 10
-485.3636616371767
 20
781.6006453230577
 30
0.0
 11
-493.3639973305361
 21
779.6008894636825
 31
0.0
  0
LINE
  5
1FE
330
1F
100
AcDbEntity
  8
C-A
  6
Continuous
 62
     6
370
     9
100
AcDbLine
 10
-485.3636616371767
 20
783.1008894636827
 30
0.0
 11
-493.3639973305361
 21
785.1006453230576
 31
0.0
  0
LINE
  5
1FF
330
1F
100
AcDbEntity
  8
C-A
  6
Continuous
 62
     6
370
     9
100
AcDbLine
 10
-485.3636616371767
 20
781.6006453230577
 30
0.0
 11
-485.3636616371767
 21
783.1008894636827
 31
0.0
  0
LINE
  5
200
330
1F
100
AcDbEntity
  8
C-A
  6
Continuous
 62
     6
370
     9
100
AcDbLine
 10
-493.3639973305361
 20
779.6008894636825
 30
0.0
 11
-493.3639973305361
 21
785.1006453230576
 31
0.0
  0
LINE
  5
201
330
1F
100
AcDbEntity
  8
C-A
  6
Continuous
 62
     6
370
     9
100
AcDbLine
 10
-484.8637226723326
 20
781.2102034285263
 30
0.0
 11
-493.8634174965517
 21
778.9602644636827
 31
0.0
  0
LINE
  5
202
330
1F
100
AcDbEntity
  8
C-A
  6
Continuous
 62
     6
370
     9
100
AcDbLine
 10
-484.8637226723326
 20
783.4913313582138
 30
0.0
 11
-493.8634174965517
 21
785.7412703230577
 31
0.0
  0
LINE
  5
203
330
1F
100
AcDbEntity
  8
C-A
  6
Continuous
 62
     6
370
     9
100
AcDbLine
 10
-484.8637226723326
 20
781.2102034285263
 30
0.0
 11
-485.3636616371767
 21
781.6006453230577
 31
0.0
  0
LINE
  5
204
330
1F
100
AcDbEntity
  8
C-A
  6
Continuous
 62
     6
370
     9
100
AcDbLine
 10
-484.8637226723326
 20
783.4913313582138
 30
0.0
 11
-485.3636616371767
 21
783.1008894636827
 31
0.0
  0
LINE
  5
205
330
1F
100
AcDbEntity
  8
C-A
  6
Continuous
 62
     6
370
     9
100
AcDbLine
 10
-493.3639973305361
 20
785.1006453230576
 30
0.0
 11
-493.8634174965517
 21
785.7412703230577
 31
0.0
  0
LINE
  5
206
330
1F
100
AcDbEntity
  8
C-A
  6
Continuous
 62
     6
370
     9
100
AcDbLine
 10
-493.8634174965517
 20
778.9602644636827
 30
0.0
 11
-493.3639973305361
 21
779.6008894636825
 31
0.0
  0
LINE
  5
207
330
1F
100
AcDbEntity
  8
C-A
  6
Continuous
 62
     6
370
     9
100
AcDbLine
 10
-485.3636616371767
 20
754.6010420515731
 30
0.0
 11
-493.3639973305361
 21
752.6013472273544
 31
0.0
  0
LINE
  5
208
330
1F
100
AcDbEntity
  8
C-A
  6
Continuous
 62
     6
370
     9
100
AcDbLine
 10
-485.3636616371767
 20
756.1013167097764
 30
0.0
 11
-493.3639973305361
 21
758.1010420515734
 31
0.0
  0
LINE
  5
209
330
1F
100
AcDbEntity
  8
C-A
  6
Continuous
 62
     6
370
     9
100
AcDbLine
 10
-485.3636616371767
 20
754.6010420515731
 30
0.0
 11
-485.3636616371767
 21
756.1013167097764
 31
0.0
  0
LINE
  5
20A
330
1F
100
AcDbEntity
  8
C-A
  6
Continuous
 62
     6
370
     9
100
AcDbLine
 10
-493.3639973305361
 20
752.6013472273544
 30
0.0
 11
-493.3639973305361
 21
758.1010420515734
 31
0.0
  0
LINE
  5
20B
330
1F
100
AcDbEntity
  8
C-A
  6
Continuous
 62
     6
370
     9
100
AcDbLine
 10
-484.8637226723326
 20
754.210600157042
 30
0.0
 11
-493.8634174965517
 21
751.9606917097764
 31
0.0
  0
LINE
  5
20C
330
1F
100
AcDbEntity
  8
C-A
  6
Continuous
 62
     6
370
     9
100
AcDbLine
 10
-484.8637226723326
 20
756.4917586043075
 30
0.0
 11
-493.8634174965517
 21
758.7416670515731
 31
0.0
  0
LINE
  5
20D
330
1F
100
AcDbEntity
  8
C-A
  6
Continuous
 62
     6
370
     9
100
AcDbLine
 10
-484.8637226723326
 20
754.210600157042
 30
0.0
 11
-485.3636616371767
 21
754.6010420515731
 31
0.0
  0
LINE
  5
20E
330
1F
100
AcDbEntity
  8
C-A
  6
Continuous
 62
     6
370
     9
100
AcDbLine
 10
-484.8637226723326
 20
756.4917586043075
 30
0.0
 11
-485.3636616371767
 21
756.1013167097764
 31
0.0
  0
LINE
  5
20F
330
1F
100
AcDbEntity
  8
C-A
  6
Continuous
 62
     6
370
     9
100
AcDbLine
 10
-493.3639973305361
 20
758.1010420515734
 30
0.0
 11
-493.8634174965517
 21
758.7416670515731
 31
0.0
  0
LINE
  5
210
330
1F
100
AcDbEntity
  8
C-A
  6
Continuous
 62
     6
370
     9
100
AcDbLine
 10
-493.8634174965517
 20
751.9606917097764
 30
0.0
 11
-493.3639973305361
 21
752.6013472273544
 31
0.0
  0
LINE
  5
211
330
1F
100
AcDbEntity
  8
C-A
  6
Continuous
 62
     6
370
     9
100
AcDbLine
 10
-493.3639973305361
 20
769.6008589461044
 30
0.0
 11
-485.3636616371767
 21
771.6010725691513
 31
0.0
  0
LINE
  5
212
330
1F
100
AcDbEntity
  8
C-A
  6
Continuous
 62
     6
370
     9
100
AcDbLine
 10
-493.3639973305361
 20
768.1010725691513
 30
0.0
 11
-493.3639973305361
 21
769.6008589461044
 31
0.0
  0
LINE
  5
213
330
1F
100
AcDbEntity
  8
C-A
  6
Continuous
 62
     6
370
     9
100
AcDbLine
 10
-485.3636616371767
 20
766.1008894636825
 30
0.0
 11
-485.3636616371767
 21
771.6010725691513
 31
0.0
  0
LINE
  5
214
330
1F
100
AcDbEntity
  8
C-A
  6
Continuous
 62
     6
370
     9
100
AcDbLine
 10
-484.8637226723326
 20
765.4607222273544
 30
0.0
 11
-493.8634174965517
 21
767.7106611921982
 31
0.0
  0
LINE
  5
215
330
1F
100
AcDbEntity
  8
C-A
  6
Continuous
 62
     6
370
     9
100
AcDbLine
 10
-493.8634174965517
 20
769.9913008406359
 30
0.0
 11
-484.8637226723326
 21
772.2417280867294
 31
0.0
  0
LINE
  5
216
330
1F
100
AcDbEntity
  8
C-A
  6
Continuous
 62
     6
370
     9
100
AcDbLine
 10
-485.3636616371767
 20
766.1008894636825
 30
0.0
 11
-493.3639973305361
 21
768.1010725691513
 31
0.0
  0
LINE
  5
217
330
1F
100
AcDbEntity
  8
C-A
  6
Continuous
 62
     6
370
     9
100
AcDbLine
 10
-484.8637226723326
 20
765.4607222273544
 30
0.0
 11
-485.3636616371767
 21
766.1008894636825
 31
0.0
  0
LINE
  5
218
330
1F
100
AcDbEntity
  8
C-A
  6
Continuous
 62
     6
370
     9
100
AcDbLine
 10
-485.3636616371767
 20
771.6010725691513
 30
0.0
 11
-484.8637226723326
 21
772.2417280867294
 31
0.0
  0
LINE
  5
219
330
1F
100
AcDbEntity
  8
C-A
  6
Continuous
 62
     6
370
     9
100
AcDbLine
 10
-493.3639973305361
 20
769.6008589461044
 30
0.0
 11
-493.8634174965517
 21
769.9913008406359
 31
0.0
  0
LINE
  5
21A
330
1F
100
AcDbEntity
  8
C-A
  6
Continuous
 62
     6
370
     9
100
AcDbLine
 10
-493.8634174965517
 20
767.7106611921982
 30
0.0
 11
-493.3639973305361
 21
768.1010725691513
 31
0.0
  0
LINE
  5
21B
330
1F
100
AcDbEntity
  8
C-A
  6
Continuous
 62
     6
370
     9
100
AcDbLine
 10
-485.3636616371767
 20
727.6014692976671
 30
0.0
 11
-493.3639973305361
 21
725.6017439558701
 31
0.0
  0
LINE
  5
21C
330
1F
100
AcDbEntity
  8
C-A
  6
Continuous
 62
     6
370
     9
100
AcDbLine
 10
-485.3636616371767
 20
729.10174395587
 30
0.0
 11
-493.3639973305361
 21
731.101469297667
 31
0.0
  0
LINE
  5
21D
330
1F
100
AcDbEntity
  8
C-A
  6
Continuous
 62
     6
370
     9
100
AcDbLine
 10
-485.3636616371767
 20
727.6014692976671
 30
0.0
 11
-485.3636616371767
 21
729.10174395587
 31
0.0
  0
LINE
  5
21E
330
1F
100
AcDbEntity
  8
C-A
  6
Continuous
 62
     6
370
     9
100
AcDbLine
 10
-493.3639973305361
 20
725.6017439558701
 30
0.0
 11
-493.3639973305361
 21
731.101469297667
 31
0.0
  0
LINE
  5
21F
330
1F
100
AcDbEntity
  8
C-A
  6
Continuous
 62
     6
370
     9
100
AcDbLine
 10
-484.8637226723326
 20
727.2110274031356
 30
0.0
 11
-493.8634174965517
 21
724.96111895587
 31
0.0
  0
LINE
  5
220
330
1F
100
AcDbEntity
  8
C-A
  6
Continuous
 62
     6
370
     9
100
AcDbLine
 10
-484.8637226723326
 20
729.4921858504015
 30
0.0
 11
-493.8634174965517
 21
731.7420942976671
 31
0.0
  0
LINE
  5
221
330
1F
100
AcDbEntity
  8
C-A
  6
Continuous
 62
     6
370
     9
100
AcDbLine
 10
-484.8637226723326
 20
727.2110274031356
 30
0.0
 11
-485.3636616371767
 21
727.6014692976671
 31
0.0
  0
LINE
  5
222
330
1F
100
AcDbEntity
  8
C-A
  6
Continuous
 62
     6
370
     9
100
AcDbLine
 10
-484.8637226723326
 20
729.4921858504015
 30
0.0
 11
-485.3636616371767
 21
729.10174395587
 31
0.0
  0
LINE
  5
223
330
1F
100
AcDbEntity
  8
C-A
  6
Continuous
 62
     6
370
     9
100
AcDbLine
 10
-493.3639973305361
 20
731.101469297667
 30
0.0
 11
-493.8634174965517
 21
731.7420942976671
 31
0.0
  0
LINE
  5
224
330
1F
100
AcDbEntity
  8
C-A
  6
Continuous
 62
     6
370
     9
100
AcDbLine
 10
-493.8634174965517
 20
724.96111895587
 30
0.0
 11
-493.3639973305361
 21
725.6017439558701
 31
0.0
  0
LINE
  5
225
330
1F
100
AcDbEntity
  8
C-A
  6
Continuous
 62
     6
370
     9
100
AcDbLine
 10
-493.3639973305361
 20
742.6012861921981
 30
0.0
 11
-485.3636616371767
 21
744.601499815245
 31
0.0
  0
LINE
  5
226
330
1F
100
AcDbEntity
  8
C-A
  6
Continuous
 62
     6
370
     9
100
AcDbLine
 10
-493.3639973305361
 20
741.101499815245
 30
0.0
 11
-493.3639973305361
 21
742.6012861921981
 31
0.0
  0
LINE
  5
227
330
1F
100
AcDbEntity
  8
C-A
  6
Continuous
 62
     6
370
     9
100
AcDbLine
 10
-485.3636616371767
 20
739.1012861921981
 30
0.0
 11
-485.3636616371767
 21
744.601499815245
 31
0.0
  0
LINE
  5
228
330
1F
100
AcDbEntity
  8
C-A
  6
Continuous
 62
     6
370
     9
100
AcDbLine
 10
-484.8637226723326
 20
738.4611494734484
 30
0.0
 11
-493.8634174965517
 21
740.711057920714
 31
0.0
  0
LINE
  5
229
330
1F
100
AcDbEntity
  8
C-A
  6
Continuous
 62
     6
370
     9
100
AcDbLine
 10
-493.8634174965517
 20
742.9917280867295
 30
0.0
 11
-484.8637226723326
 21
745.242124815245
 31
0.0
  0
LINE
  5
22A
330
1F
100
AcDbEntity
  8
C-A
  6
Continuous
 62
     6
370
     9
100
AcDbLine
 10
-485.3636616371767
 20
739.1012861921981
 30
0.0
 11
-493.3639973305361
 21
741.101499815245
 31
0.0
  0
LINE
  5
22B
330
1F
100
AcDbEntity
  8
C-A
  6
Continuous
 62
     6
370
     9
100
AcDbLine
 10
-484.8637226723326
 20
738.4611494734484
 30
0.0
 11
-485.3636616371767
 21
739.1012861921981
 31
0.0
  0
LINE
  5
22C
330
1F
100
AcDbEntity
  8
C-A
  6
Continuous
 62
     6
370
     9
100
AcDbLine
 10
-485.3636616371767
 20
744.601499815245
 30
0.0
 11
-484.8637226723326
 21
745.242124815245
 31
0.0
  0
LINE
  5
22D
330
1F
100
AcDbEntity
  8
C-A
  6
Continuous
 62
     6
370
     9
100
AcDbLine
 10
-493.3639973305361
 20
742.6012861921981
 30
0.0
 11
-493.8634174965517
 21
742.9917280867295
 31
0.0
  0
LINE
  5
22E
330
1F
100
AcDbEntity
  8
C-A
  6
Continuous
 62
     6
370
     9
100
AcDbLine
 10
-493.8634174965517
 20
740.711057920714
 30
0.0
 11
-493.3639973305361
 21
741.101499815245
 31
0.0
  0
LINE
  5
22F
330
1F
100
AcDbEntity
  8
C-5
  6
Continuous
 62
     7
370
     9
100
AcDbLine
 10
60.63603318704224
 20
266.8660261824326
 30
0.0
 11
60.63603318704224
 21
331.8655836775497
 31
0.0
  0
LINE
  5
230
330
1F
100
AcDbEntity
  8
C-5
  6
Continuous
 62
     7
370
     9
100
AcDbLine
 10
60.63603318704224
 20
331.8655836775497
 30
0.0
 11
535.6364604331361
 21
331.8655836775497
 31
0.0
  0
LINE
  5
231
330
1F
100
AcDbEntity
  8
C-5
  6
Continuous
 62
     7
370
     9
100
AcDbLine
 10
535.6364604331361
 20
331.8655836775497
 30
0.0
 11
535.6364604331361
 21
266.8660261824326
 31
0.0
  0
LINE
  5
232
330
1F
100
AcDbEntity
  8
C-5
  6
Continuous
 62
     7
370
     9
100
AcDbLine
 10
535.6364604331361
 20
266.8660261824326
 30
0.0
 11
60.63603318704224
 21
266.8660261824326
 31
0.0
  0
LINE
  5
233
330
1F
100
AcDbEntity
  8
C-2
  6
Continuous
 62
     3
370
     9
100
AcDbLine
 10
257.8638163901672
 20
1125.550596494933
 30
0.0
 11
337.8651591636049
 21
1145.550718565245
 31
0.0
  0
LINE
  5
234
330
1F
100
AcDbEntity
  8
C-2
  6
Continuous
 62
     3
370
     9
100
AcDbLine
 10
257.8638163901672
 20
1110.550291319151
 30
0.0
 11
337.8651591636049
 21
1090.550169248839
 31
0.0
  0
LINE
  5
235
330
1F
100
AcDbEntity
  8
C-2
  6
Continuous
 62
     3
370
     9
100
AcDbLine
 10
257.8638163901672
 20
1125.550596494933
 30
0.0
 11
257.8638163901672
 21
1110.550291319151
 31
0.0
  0
LINE
  5
236
330
1F
100
AcDbEntity
  8
C-2
  6
Continuous
 62
     3
370
     9
100
AcDbLine
 10
337.8651591636049
 20
1145.550718565245
 30
0.0
 11
337.8651591636049
 21
1090.550169248839
 31
0.0
  0
LINE
  5
237
330
1F
100
AcDbEntity
  8
C-2
  6
Continuous
 62
     3
370
     9
100
AcDbLine
 10
252.863511214386
 20
1129.454405088683
 30
0.0
 11
342.8644267417297
 21
1151.954649229308
 31
0.0
  0
LINE
  5
238
330
1F
100
AcDbEntity
  8
C-2
  6
Continuous
 62
     3
370
     9
100
AcDbLine
 10
252.863511214386
 20
1106.646482725401
 30
0.0
 11
342.8644267417297
 21
1084.146726866026
 31
0.0
  0
LINE
  5
239
330
1F
100
AcDbEntity
  8
C-2
  6
Continuous
 62
     3
370
     9
100
AcDbLine
 10
252.863511214386
 20
1129.454405088683
 30
0.0
 11
257.8638163901672
 21
1125.550596494933
 31
0.0
  0
LINE
  5
23A
330
1F
100
AcDbEntity
  8
C-2
  6
Continuous
 62
     3
370
     9
100
AcDbLine
 10
252.863511214386
 20
1106.646482725401
 30
0.0
 11
257.8638163901672
 21
1110.550291319151
 31
0.0
  0
LINE
  5
23B
330
1F
100
AcDbEntity
  8
C-2
  6
Continuous
 62
     3
370
     9
100
AcDbLine
 10
337.8651591636049
 20
1090.550169248839
 30
0.0
 11
342.8644267417297
 21
1084.146726866026
 31
0.0
  0
LINE
  5
23C
330
1F
100
AcDbEntity
  8
C-2
  6
Continuous
 62
     3
370
     9
100
AcDbLine
 10
342.8644267417297
 20
1151.954649229308
 30
0.0
 11
337.8651591636049
 21
1145.550718565245
 31
0.0
  0
LINE
  5
23D
330
1F
100
AcDbEntity
  8
C-2
  6
Continuous
 62
     3
370
     9
100
AcDbLine
 10
337.8651591636049
 20
975.5509016707138
 30
0.0
 11
257.8638163901672
 21
955.5507796004014
 31
0.0
  0
LINE
  5
23E
330
1F
100
AcDbEntity
  8
C-2
  6
Continuous
 62
     3
370
     9
100
AcDbLine
 10
337.8651591636049
 20
990.5502302839952
 30
0.0
 11
337.8651591636049
 21
975.5509016707138
 31
0.0
  0
LINE
  5
23F
330
1F
100
AcDbEntity
  8
C-2
  6
Continuous
 62
     3
370
     9
100
AcDbLine
 10
257.8638163901672
 20
1010.550779600401
 30
0.0
 11
257.8638163901672
 21
955.5507796004014
 31
0.0
  0
LINE
  5
240
330
1F
100
AcDbEntity
  8
C-2
  6
Continuous
 62
     3
370
     9
100
AcDbLine
 10
252.863511214386
 20
1016.954221983214
 30
0.0
 11
342.8644267417297
 21
994.4540388777452
 31
0.0
  0
LINE
  5
241
330
1F
100
AcDbEntity
  8
C-2
  6
Continuous
 62
     3
370
     9
100
AcDbLine
 10
342.8644267417297
 20
971.6466047957138
 30
0.0
 11
252.863511214386
 21
949.1463606550889
 31
0.0
  0
LINE
  5
242
330
1F
100
AcDbEntity
  8
C-2
  6
Continuous
 62
     3
370
     9
100
AcDbLine
 10
257.8638163901672
 20
855.5503523543075
 30
0.0
 11
337.8651591636049
 21
875.5504133894638
 31
0.0
  0
LINE
  5
243
330
1F
100
AcDbEntity
  8
C-2
  6
Continuous
 62
     3
370
     9
100
AcDbLine
 10
257.8638163901672
 20
840.5505354597765
 30
0.0
 11
337.8651591636049
 21
820.5504133894638
 31
0.0
  0
LINE
  5
244
330
1F
100
AcDbEntity
  8
C-2
  6
Continuous
 62
     3
370
     9
100
AcDbLine
 10
257.8638163901672
 20
855.5503523543075
 30
0.0
 11
257.8638163901672
 21
840.5505354597765
 31
0.0
  0
LINE
  5
245
330
1F
100
AcDbEntity
  8
C-2
  6
Continuous
 62
     3
370
     9
100
AcDbLine
 10
337.8651591636049
 20
875.5504133894638
 30
0.0
 11
337.8651591636049
 21
820.5504133894638
 31
0.0
  0
LINE
  5
246
330
1F
100
AcDbEntity
  8
C-2
  6
Continuous
 62
     3
370
     9
100
AcDbLine
 10
252.863511214386
 20
859.4546492293077
 30
0.0
 11
342.8644267417297
 21
881.9543440535265
 31
0.0
  0
LINE
  5
247
330
1F
100
AcDbEntity
  8
C-2
  6
Continuous
 62
     3
370
     9
100
AcDbLine
 10
252.863511214386
 20
836.6467268660265
 30
0.0
 11
342.8644267417297
 21
814.1464827254013
 31
0.0
  0
LINE
  5
248
330
1F
100
AcDbEntity
  8
C-2
  6
Continuous
 62
     3
370
     9
100
AcDbLine
 10
252.863511214386
 20
859.4546492293077
 30
0.0
 11
257.8638163901672
 21
855.5503523543075
 31
0.0
  0
LINE
  5
249
330
1F
100
AcDbEntity
  8
C-2
  6
Continuous
 62
     3
370
     9
100
AcDbLine
 10
252.863511214386
 20
836.6467268660265
 30
0.0
 11
257.8638163901672
 21
840.5505354597765
 31
0.0
  0
LINE
  5
24A
330
1F
100
AcDbEntity
  8
C-2
  6
Continuous
 62
     3
370
     9
100
AcDbLine
 10
337.8651591636049
 20
820.5504133894638
 30
0.0
 11
342.8644267417297
 21
814.1464827254013
 31
0.0
  0
LINE
  5
24B
330
1F
100
AcDbEntity
  8
C-2
  6
Continuous
 62
     3
370
     9
100
AcDbLine
 10
342.8644267417297
 20
881.9543440535265
 30
0.0
 11
337.8651591636049
 21
875.5504133894638
 31
0.0
  0
LINE
  5
24C
330
1F
100
AcDbEntity
  8
C-2
  6
Continuous
 62
     3
370
     9
100
AcDbLine
 10
252.863511214386
 20
1200.550718565245
 30
0.0
 11
252.863511214386
 21
795.3459456160263
 31
0.0
  0
LINE
  5
24D
330
1F
100
AcDbEntity
  8
C-2
  6
Continuous
 62
     3
370
     9
100
AcDbLine
 10
342.8644267417297
 20
1170.549558897277
 30
0.0
 11
342.8644267417297
 21
765.3452742293075
 31
0.0
  0
LINE
  5
24E
330
1F
100
AcDbEntity
  8
C-5
  6
Continuous
 62
     7
370
     9
100
AcDbLine
 10
79.11851609719861
 20
710.6420576765731
 30
0.0
 11
517.1535502768859
 21
710.6420576765731
 31
0.0
  0
LINE
  5
24F
330
1F
100
AcDbEntity
  8
C-2
  6
Continuous
 62
     3
370
     9
100
AcDbLine
 10
257.8638163901672
 20
1010.550779600401
 30
0.0
 11
337.8651591636049
 21
990.5502302839952
 31
0.0
  0
LINE
  5
250
330
1F
100
AcDbEntity
  8
C-4
  6
Continuous
 62
     7
370
     9
100
AcDbLine
 10
237.1968242026674
 20
840.5505354597765
 30
0.0
 11
154.7230693198549
 21
840.5505354597765
 31
0.0
  0
LINE
  5
251
330
1F
100
AcDbEntity
  8
C-4
  6
Continuous
 62
     7
370
     9
100
AcDbLine
 10
237.1968242026674
 20
855.5503523543075
 30
0.0
 11
154.7230693198549
 21
855.5503523543075
 31
0.0
  0
LINE
  5
252
330
1F
100
AcDbEntity
  8
C-4
  6
Continuous
 62
     7
370
     9
100
AcDbLine
 10
237.1968242026674
 20
955.5507796004014
 30
0.0
 11
154.7230693198549
 21
955.5507796004014
 31
0.0
  0
LINE
  5
253
330
1F
100
AcDbEntity
  8
C-4
  6
Continuous
 62
     7
370
     9
100
AcDbLine
 10
237.1968242026674
 20
1010.550779600401
 30
0.0
 11
154.7230693198549
 21
1010.550779600401
 31
0.0
  0
LINE
  5
254
330
1F
100
AcDbEntity
  8
C-4
  6
Continuous
 62
     7
370
     9
100
AcDbLine
 10
237.1968242026674
 20
1110.550291319151
 30
0.0
 11
154.7230693198549
 21
1110.550291319151
 31
0.0
  0
LINE
  5
255
330
1F
100
AcDbEntity
  8
C-4
  6
Continuous
 62
     7
370
     9
100
AcDbLine
 10
237.1968242026674
 20
1125.550596494933
 30
0.0
 11
154.7230693198549
 21
1125.550596494933
 31
0.0
  0
LINE
  5
256
330
1F
100
AcDbEntity
  8
C-4
  6
Continuous
 62
     7
370
     9
100
AcDbLine
 10
252.863511214386
 20
1241.440733213683
 30
0.0
 11
342.8644267417297
 21
1241.440733213683
 31
0.0
  0
LINE
  5
257
330
1F
100
AcDbEntity
  8
C-4
  6
Continuous
 62
     7
370
     9
100
AcDbLine
 10
252.863511214386
 20
1209.434934873839
 30
0.0
 11
252.863511214386
 21
1244.440305967589
 31
0.0
  0
LINE
  5
258
330
1F
100
AcDbEntity
  8
C-4
  6
Continuous
 62
     7
370
     9
100
AcDbLine
 10
342.8644267417297
 20
1182.353147764464
 30
0.0
 11
342.8644267417297
 21
1244.440305967589
 31
0.0
  0
LINE
  5
259
330
1F
100
AcDbEntity
  8
C-4
  6
Continuous
 62
     7
370
     9
100
AcDbLine
 10
354.5842753745421
 20
986.3704207136825
 30
0.0
 11
420.6321879721986
 21
969.8584578230575
 31
0.0
  0
LINE
  5
25A
330
1F
100
AcDbEntity
  8
C-4
  6
Continuous
 62
     7
370
     9
100
AcDbLine
 10
355.7971659995422
 20
991.2210676863388
 30
0.0
 11
421.8452006675108
 21
974.7091047957139
 31
0.0
  0
LINE
  5
25B
330
1F
100
AcDbEntity
  8
C-4
  6
Continuous
 62
     7
370
     9
100
AcDbLine
 10
417.721909651886
 20
970.5858137800888
 30
0.0
 11
436.2469340659482
 21
1044.683164854308
 31
0.0
  0
LINE
  5
25C
330
1F
100
AcDbEntity
  8
C-2
  6
Continuous
 62
     3
370
     9
100
AcDbLine
 10
252.863511214386
 20
1016.954221983214
 30
0.0
 11
257.8638163901672
 21
1010.550779600401
 31
0.0
  0
LINE
  5
25D
330
1F
100
AcDbEntity
  8
C-2
  6
Continuous
 62
     3
370
     9
100
AcDbLine
 10
257.8638163901672
 20
955.5507796004014
 30
0.0
 11
252.863511214386
 21
949.1463606550889
 31
0.0
  0
LINE
  5
25E
330
1F
100
AcDbEntity
  8
C-2
  6
Continuous
 62
     3
370
     9
100
AcDbLine
 10
337.8651591636049
 20
975.5509016707138
 30
0.0
 11
342.8644267417297
 21
971.6466047957138
 31
0.0
  0
LINE
  5
25F
330
1F
100
AcDbEntity
  8
C-2
  6
Continuous
 62
     3
370
     9
100
AcDbLine
 10
342.8644267417297
 20
994.4540388777452
 30
0.0
 11
337.8651591636049
 21
990.5502302839952
 31
0.0
  0
LINE
  5
260
330
1F
100
AcDbEntity
  8
C-5
  6
Continuous
 62
     7
370
     9
100
AcDbLine
 10
316.6194926596984
 20
988.6218245222765
 30
0.0
 11
379.9046489096986
 21
1098.235410948058
 31
0.0
  0
LINE
  5
261
330
1F
100
AcDbEntity
  8
C-5
  6
Continuous
 62
     7
370
     9
100
AcDbLine
 10
316.6194926596984
 20
988.6218245222765
 30
0.0
 11
326.1869975425111
 21
1011.719114561339
 31
0.0
  0
LINE
  5
262
330
1F
100
AcDbEntity
  8
C-5
  6
Continuous
 62
     7
370
     9
100
AcDbLine
 10
316.6194926596984
 20
988.6218245222765
 30
0.0
 11
331.8387919761045
 21
1008.455992002745
 31
0.0
  0
LINE
  5
263
330
1F
100
AcDbEntity
  8
C-5
  6
Continuous
 62
     7
370
     9
100
AcDbLine
 10
379.9046489096986
 20
1098.235410948058
 30
0.0
 11
621.2425395346986
 21
1098.235410948058
 31
0.0
  0
LINE
  5
264
330
1F
100
AcDbEntity
  8
C-4
  6
Continuous
 62
     7
370
     9
100
AcDbLine
 10
157.7226420737611
 20
774.4842207625106
 30
0.0
 11
157.7226420737611
 21
1193.714231748839
 31
0.0
  0
LINE
  5
265
330
1F
100
AcDbEntity
  8
C-2
  6
Continuous
 62
     3
370
     9
100
AcDbLine
 10
142.9313823081361
 20
384.4719832136826
 30
0.0
 11
142.9313823081361
 21
394.4720289900496
 31
0.0
  0
LINE
  5
266
330
1F
100
AcDbEntity
  8
C-2
  6
Continuous
 62
     3
370
     9
100
AcDbLine
 10
142.9313823081361
 20
459.4720900252059
 30
0.0
 11
142.9313823081361
 21
449.4720442488389
 31
0.0
  0
LINE
  5
267
330
1F
100
AcDbEntity
  8
C-2
  6
Continuous
 62
     3
370
     9
100
AcDbLine
 10
169.7793437339169
 20
449.4725325300888
 30
0.0
 11
159.7793437339169
 21
449.4725325300888
 31
0.0
  0
LINE
  5
268
330
1F
100
AcDbEntity
  8
C-2
  6
Continuous
 62
     3
370
     9
100
AcDbLine
 10
177.2792826987609
 20
441.9726240828231
 30
0.0
 11
177.2792826987609
 21
384.4729750349717
 31
0.0
  0
LINE
  5
269
330
1F
100
AcDbEntity
  8
C-2
  6
Continuous
 62
     3
370
     9
100
AcDbLine
 10
194.7797099448547
 20
449.4725325300888
 30
0.0
 11
204.7797709800108
 21
449.4725325300888
 31
0.0
  0
LINE
  5
26A
330
1F
100
AcDbEntity
  8
C-2
  6
Continuous
 62
     3
370
     9
100
AcDbLine
 10
187.2798320151674
 20
441.9726240828231
 30
0.0
 11
187.2798320151674
 21
384.4729750349717
 31
0.0
  0
LINE
  5
26B
330
1F
100
AcDbEntity
  8
C-2
  6
Continuous
 62
     3
370
     9
100
AcDbLine
 10
371.6279155112608
 20
384.4719832136826
 30
0.0
 11
371.6279155112608
 21
394.4720289900496
 31
0.0
  0
LINE
  5
26C
330
1F
100
AcDbEntity
  8
C-2
  6
Continuous
 62
     3
370
     9
100
AcDbLine
 10
371.6279155112608
 20
459.4720900252059
 30
0.0
 11
371.6279155112608
 21
449.4720442488389
 31
0.0
  0
LINE
  5
26D
330
1F
100
AcDbEntity
  8
C-2
  6
Continuous
 62
     3
370
     9
100
AcDbLine
 10
371.6279155112608
 20
459.4725783064561
 30
0.0
 11
142.9313823081361
 21
459.4725783064561
 31
0.0
  0
LINE
  5
26E
330
1F
100
AcDbEntity
  8
C-2
  6
Continuous
 62
     3
370
     9
100
AcDbLine
 10
142.9313823081361
 20
384.4729750349717
 30
0.0
 11
371.6279155112608
 21
384.4729750349717
 31
0.0
  0
LINE
  5
26F
330
1F
100
AcDbEntity
  8
C-2
  6
Continuous
 62
     3
370
     9
100
AcDbLine
 10
159.7793437339169
 20
456.9729445173934
 30
0.0
 11
162.2794658042295
 21
459.4725783064561
 31
0.0
  0
LINE
  5
270
330
1F
100
AcDbEntity
  8
C-2
  6
Continuous
 62
     3
370
     9
100
AcDbLine
 10
159.7793437339169
 20
449.4725325300888
 30
0.0
 11
159.7793437339169
 21
456.9729445173934
 31
0.0
  0
LINE
  5
271
330
1F
100
AcDbEntity
  8
C-2
  6
Continuous
 62
     3
370
     9
100
AcDbLine
 10
204.7797709800108
 20
456.9729445173934
 30
0.0
 11
202.2801371909486
 21
459.4725783064561
 31
0.0
  0
LINE
  5
272
330
1F
100
AcDbEntity
  8
C-2
  6
Continuous
 62
     3
370
     9
100
AcDbLine
 10
204.7797709800108
 20
456.9729445173934
 30
0.0
 11
159.7793437339169
 21
456.9729445173934
 31
0.0
  0
LINE
  5
273
330
1F
100
AcDbEntity
  8
C-2
  6
Continuous
 62
     3
370
     9
100
AcDbLine
 10
204.7797709800108
 20
449.4725325300888
 30
0.0
 11
204.7797709800108
 21
456.9729445173934
 31
0.0
  0
LINE
  5
274
330
1F
100
AcDbEntity
  8
C-2
  6
Continuous
 62
     3
370
     9
100
AcDbLine
 10
244.7794658042295
 20
449.4725325300888
 30
0.0
 11
234.7798930503234
 21
449.4725325300888
 31
0.0
  0
LINE
  5
275
330
1F
100
AcDbEntity
  8
C-2
  6
Continuous
 62
     3
370
     9
100
AcDbLine
 10
252.2794047690735
 20
441.9726240828231
 30
0.0
 11
252.2794047690735
 21
384.4729750349717
 31
0.0
  0
LINE
  5
276
330
1F
100
AcDbEntity
  8
C-2
  6
Continuous
 62
     3
370
     9
100
AcDbLine
 10
269.7798320151674
 20
449.4725325300888
 30
0.0
 11
279.7798930503234
 21
449.4725325300888
 31
0.0
  0
LINE
  5
277
330
1F
100
AcDbEntity
  8
C-2
  6
Continuous
 62
     3
370
     9
100
AcDbLine
 10
262.2804423667299
 20
441.9726240828231
 30
0.0
 11
262.2804423667299
 21
384.4729750349717
 31
0.0
  0
LINE
  5
278
330
1F
100
AcDbEntity
  8
C-2
  6
Continuous
 62
     3
370
     9
100
AcDbLine
 10
234.7798930503234
 20
456.9729445173934
 30
0.0
 11
237.2795268393861
 21
459.4725783064561
 31
0.0
  0
LINE
  5
279
330
1F
100
AcDbEntity
  8
C-2
  6
Continuous
 62
     3
370
     9
100
AcDbLine
 10
234.7798930503234
 20
449.4725325300888
 30
0.0
 11
234.7798930503234
 21
456.9729445173934
 31
0.0
  0
LINE
  5
27A
330
1F
100
AcDbEntity
  8
C-2
  6
Continuous
 62
     3
370
     9
100
AcDbLine
 10
279.7798930503234
 20
456.9729445173934
 30
0.0
 11
277.2797709800108
 21
459.4725783064561
 31
0.0
  0
LINE
  5
27B
330
1F
100
AcDbEntity
  8
C-2
  6
Continuous
 62
     3
370
     9
100
AcDbLine
 10
279.7798930503234
 20
456.9729445173934
 30
0.0
 11
234.7798930503234
 21
456.9729445173934
 31
0.0
  0
LINE
  5
27C
330
1F
100
AcDbEntity
  8
C-2
  6
Continuous
 62
     3
370
     9
100
AcDbLine
 10
279.7798930503234
 20
449.4725325300888
 30
0.0
 11
279.7798930503234
 21
456.9729445173934
 31
0.0
  0
LINE
  5
27D
330
1F
100
AcDbEntity
  8
C-2
  6
Continuous
 62
     3
370
     9
100
AcDbLine
 10
319.7795878745421
 20
449.4725325300888
 30
0.0
 11
309.7795268393861
 21
449.4725325300888
 31
0.0
  0
LINE
  5
27E
330
1F
100
AcDbEntity
  8
C-2
  6
Continuous
 62
     3
370
     9
100
AcDbLine
 10
327.2794658042295
 20
441.9726240828231
 30
0.0
 11
327.2794658042295
 21
384.4729750349717
 31
0.0
  0
LINE
  5
27F
330
1F
100
AcDbEntity
  8
C-2
  6
Continuous
 62
     3
370
     9
100
AcDbLine
 10
344.7809306479797
 20
449.4725325300888
 30
0.0
 11
354.7799540854794
 21
449.4725325300888
 31
0.0
  0
LINE
  5
280
330
1F
100
AcDbEntity
  8
C-2
  6
Continuous
 62
     3
370
     9
100
AcDbLine
 10
337.280015120636
 20
441.9726240828231
 30
0.0
 11
337.280015120636
 21
384.4729750349717
 31
0.0
  0
LINE
  5
281
330
1F
100
AcDbEntity
  8
C-2
  6
Continuous
 62
     3
370
     9
100
AcDbLine
 10
309.7795268393861
 20
456.9729445173934
 30
0.0
 11
312.2801371909486
 21
459.4725783064561
 31
0.0
  0
LINE
  5
282
330
1F
100
AcDbEntity
  8
C-2
  6
Continuous
 62
     3
370
     9
100
AcDbLine
 10
309.7795268393861
 20
449.4725325300888
 30
0.0
 11
309.7795268393861
 21
456.9729445173934
 31
0.0
  0
LINE
  5
283
330
1F
100
AcDbEntity
  8
C-2
  6
Continuous
 62
     3
370
     9
100
AcDbLine
 10
354.7799540854794
 20
456.9729445173934
 30
0.0
 11
352.2798320151674
 21
459.4725783064561
 31
0.0
  0
LINE
  5
284
330
1F
100
AcDbEntity
  8
C-2
  6
Continuous
 62
     3
370
     9
100
AcDbLine
 10
354.7799540854794
 20
456.9729445173934
 30
0.0
 11
309.7795268393861
 21
456.9729445173934
 31
0.0
  0
LINE
  5
285
330
1F
100
AcDbEntity
  8
C-2
  6
Continuous
 62
     3
370
     9
100
AcDbLine
 10
354.7799540854794
 20
449.4725325300888
 30
0.0
 11
354.7799540854794
 21
456.9729445173934
 31
0.0
  0
LINE
  5
286
330
1F
100
AcDbEntity
  8
C-4
  6
Continuous
 62
     7
370
     9
100
AcDbLine
 10
159.7793437339169
 20
468.7918532087997
 30
0.0
 11
159.7793437339169
 21
574.7855208113388
 31
0.0
  0
LINE
  5
287
330
1F
100
AcDbEntity
  8
C-4
  6
Continuous
 62
     7
370
     9
100
AcDbLine
 10
204.7797709800108
 20
468.7918532087997
 30
0.0
 11
204.7797709800108
 21
520.8363936140731
 31
0.0
  0
LINE
  5
288
330
1F
100
AcDbEntity
  8
C-4
  6
Continuous
 62
     7
370
     9
100
AcDbLine
 10
142.9313823081361
 20
517.8363325789169
 30
0.0
 11
371.6279155112608
 21
517.8363325789169
 31
0.0
  0
LINE
  5
289
330
1F
100
AcDbEntity
  8
C-4
  6
Continuous
 62
     7
370
     9
100
AcDbLine
 10
234.7798930503234
 20
468.7918532087997
 30
0.0
 11
234.7798930503234
 21
574.7855208113388
 31
0.0
  0
LINE
  5
28A
330
1F
100
AcDbEntity
  8
C-4
  6
Continuous
 62
     7
370
     9
100
AcDbLine
 10
279.7798930503234
 20
468.7918532087997
 30
0.0
 11
279.7798930503234
 21
520.8363936140731
 31
0.0
  0
LINE
  5
28B
330
1F
100
AcDbEntity
  8
C-4
  6
Continuous
 62
     7
370
     9
100
AcDbLine
 10
309.7795268393861
 20
468.7918532087997
 30
0.0
 11
309.7795268393861
 21
574.7855208113388
 31
0.0
  0
LINE
  5
28C
330
1F
100
AcDbEntity
  8
C-4
  6
Continuous
 62
     7
370
     9
100
AcDbLine
 10
354.7799540854794
 20
468.7918532087997
 30
0.0
 11
354.7799540854794
 21
520.8363936140731
 31
0.0
  0
LINE
  5
28D
330
1F
100
AcDbEntity
  8
C-4
  6
Continuous
 62
     7
370
     9
100
AcDbLine
 10
142.9313823081361
 20
571.7854597761826
 30
0.0
 11
371.6279155112608
 21
571.7854597761826
 31
0.0
  0
LINE
  5
28E
330
1F
100
AcDbEntity
  8
C-4
  6
Continuous
 62
     7
370
     9
100
AcDbLine
 10
447.532700667511
 20
384.4719832136826
 30
0.0
 11
447.532700667511
 21
459.4725783064561
 31
0.0
  0
LINE
  5
28F
330
1F
100
AcDbEntity
  8
C-4
  6
Continuous
 62
     7
370
     9
100
AcDbLine
 10
379.4647075034482
 20
384.4719832136826
 30
0.0
 11
450.5328227378232
 21
384.4719832136826
 31
0.0
  0
LINE
  5
290
330
1F
100
AcDbEntity
  8
C-4
  6
Continuous
 62
     7
370
     9
100
AcDbLine
 10
379.4647075034482
 20
459.4725783064561
 30
0.0
 11
450.5328227378232
 21
459.4725783064561
 31
0.0
  0
LINE
  5
291
330
1F
100
AcDbEntity
  8
C-2
  6
Continuous
 62
     3
370
     9
100
AcDbLine
 10
187.2798320151674
 20
439.6502058699326
 30
0.0
 11
252.278855452667
 21
439.6502058699326
 31
0.0
  0
LINE
  5
292
330
1F
100
AcDbEntity
  8
C-2
  6
Continuous
 62
     3
370
     9
100
AcDbLine
 10
262.2804423667299
 20
439.6502058699326
 30
0.0
 11
327.2789775229796
 21
439.6502058699326
 31
0.0
  0
LINE
  5
293
330
1F
100
AcDbEntity
  8
C-2
  6
Continuous
 62
     3
370
     9
100
AcDbLine
 10
142.9313823081361
 20
439.6502058699326
 30
0.0
 11
177.2792826987609
 21
439.6502058699326
 31
0.0
  0
LINE
  5
294
330
1F
100
AcDbEntity
  8
C-2
  6
Continuous
 62
     3
370
     9
100
AcDbLine
 10
371.6279155112608
 20
439.6502058699326
 30
0.0
 11
337.280015120636
 21
439.6502058699326
 31
0.0
  0
LINE
  5
295
330
1F
100
AcDbEntity
  8
C-2
  6
Continuous
 62
     3
370
     9
100
AcDbLine
 10
187.2798320151674
 20
421.9725325300888
 30
0.0
 11
252.278855452667
 21
421.9725325300888
 31
0.0
  0
LINE
  5
296
330
1F
100
AcDbEntity
  8
C-2
  6
Continuous
 62
     3
370
     9
100
AcDbLine
 10
262.2804423667299
 20
421.9725325300888
 30
0.0
 11
327.2789775229796
 21
421.9725325300888
 31
0.0
  0
LINE
  5
297
330
1F
100
AcDbEntity
  8
C-2
  6
Continuous
 62
     3
370
     9
100
AcDbLine
 10
142.9313823081361
 20
421.9725325300888
 30
0.0
 11
177.2792826987609
 21
421.9725325300888
 31
0.0
  0
LINE
  5
298
330
1F
100
AcDbEntity
  8
C-2
  6
Continuous
 62
     3
370
     9
100
AcDbLine
 10
371.6279155112608
 20
421.9725325300888
 30
0.0
 11
337.280015120636
 21
421.9725325300888
 31
0.0
  0
LINE
  5
299
330
1F
100
AcDbEntity
  8
C-2
  6
Continuous
 62
     3
370
     9
100
AcDbLine
 10
187.2798320151674
 20
404.294859190245
 30
0.0
 11
252.278855452667
 21
404.294859190245
 31
0.0
  0
LINE
  5
29A
330
1F
100
AcDbEntity
  8
C-2
  6
Continuous
 62
     3
370
     9
100
AcDbLine
 10
262.2804423667299
 20
404.294859190245
 30
0.0
 11
327.2789775229796
 21
404.294859190245
 31
0.0
  0
LINE
  5
29B
330
1F
100
AcDbEntity
  8
C-2
  6
Continuous
 62
     3
370
     9
100
AcDbLine
 10
142.9313823081361
 20
404.294859190245
 30
0.0
 11
177.2792826987609
 21
404.294859190245
 31
0.0
  0
LINE
  5
29C
330
1F
100
AcDbEntity
  8
C-2
  6
Continuous
 62
     3
370
     9
100
AcDbLine
 10
371.6279155112608
 20
404.294859190245
 30
0.0
 11
337.280015120636
 21
404.294859190245
 31
0.0
  0
LINE
  5
29D
330
1F
100
AcDbEntity
  8
C-A
  6
Continuous
 62
     3
370
     9
100
AcDbLine
 10
-538.8638828896183
 20
511.3301985457139
 30
0.0
 11
-542.8642948769226
 21
511.3301985457139
 31
0.0
  0
LINE
  5
29E
330
1F
100
AcDbEntity
  8
C-A
  6
Continuous
 62
     3
370
     9
100
AcDbLine
 10
-538.8638828896183
 20
611.3301680281356
 30
0.0
 11
-542.8642948769226
 21
611.3301680281356
 31
0.0
  0
LINE
  5
29F
330
1F
100
AcDbEntity
  8
C-A
  6
Continuous
 62
     3
370
     9
100
AcDbLine
 10
-523.8640583656922
 20
511.3301985457139
 30
0.0
 11
-529.8641804360045
 21
511.3301985457139
 31
0.0
  0
LINE
  5
2A0
330
1F
100
AcDbEntity
  8
C-A
  6
Continuous
 62
     3
370
     9
100
AcDbLine
 10
-523.8640583656922
 20
611.3301680281356
 30
0.0
 11
-529.8641804360045
 21
611.3301680281356
 31
0.0
  0
LINE
  5
2A1
330
1F
100
AcDbEntity
  8
C-A
  6
Continuous
 62
     3
370
     9
100
AcDbLine
 10
-508.8637379311217
 20
511.3301985457139
 30
0.0
 11
-514.8638600014345
 21
511.3301985457139
 31
0.0
  0
LINE
  5
2A2
330
1F
100
AcDbEntity
  8
C-A
  6
Continuous
 62
     3
370
     9
100
AcDbLine
 10
-508.8637379311217
 20
611.3301680281356
 30
0.0
 11
-514.8638600014345
 21
611.3301680281356
 31
0.0
  0
LINE
  5
2A3
330
1F
100
AcDbEntity
  8
C-A
  6
Continuous
 62
     3
370
     9
100
AcDbLine
 10
-493.8639210365909
 20
511.3301985457139
 30
0.0
 11
-499.8640431069032
 21
511.3301985457139
 31
0.0
  0
LINE
  5
2A4
330
1F
100
AcDbEntity
  8
C-A
  6
Continuous
 62
     3
370
     9
100
AcDbLine
 10
-493.8639210365909
 20
611.3301680281356
 30
0.0
 11
-499.8640431069032
 21
611.3301680281356
 31
0.0
  0
LINE
  5
2A5
330
1F
100
AcDbEntity
  8
C-A
  6
Continuous
 62
     3
370
     9
100
AcDbLine
 10
-478.8640888832703
 20
511.3301985457139
 30
0.0
 11
-484.8642262123718
 21
511.3301985457139
 31
0.0
  0
LINE
  5
2A6
330
1F
100
AcDbEntity
  8
C-A
  6
Continuous
 62
     3
370
     9
100
AcDbLine
 10
-478.8640888832703
 20
611.3301680281356
 30
0.0
 11
-484.8642262123718
 21
611.3301680281356
 31
0.0
  0
LINE
  5
2A7
330
1F
100
AcDbEntity
  8
C-A
  6
Continuous
 62
     3
370
     9
100
AcDbLine
 10
-478.8640888832703
 20
711.3301375105575
 30
0.0
 11
-484.8642262123718
 21
711.3301375105575
 31
0.0
  0
LINE
  5
2A8
330
1F
100
AcDbEntity
  8
C-A
  6
Continuous
 62
     3
370
     9
100
AcDbLine
 10
-463.863783707489
 20
511.3301985457139
 30
0.0
 11
-469.8639057778018
 21
511.3301985457139
 31
0.0
  0
LINE
  5
2A9
330
1F
100
AcDbEntity
  8
C-A
  6
Continuous
 62
     3
370
     9
100
AcDbLine
 10
-463.863783707489
 20
611.3301680281356
 30
0.0
 11
-469.8639057778018
 21
611.3301680281356
 31
0.0
  0
LINE
  5
2AA
330
1F
100
AcDbEntity
  8
C-A
  6
Continuous
 62
     3
370
     9
100
AcDbLine
 10
-463.863783707489
 20
711.3301375105575
 30
0.0
 11
-469.8639057778018
 21
711.3301375105575
 31
0.0
  0
LINE
  5
2AB
330
1F
100
AcDbEntity
  8
C-A
  6
Continuous
 62
     3
370
     9
100
AcDbLine
 10
-448.8639515541689
 20
511.3301985457139
 30
0.0
 11
-454.8640888832705
 21
511.3301985457139
 31
0.0
  0
LINE
  5
2AC
330
1F
100
AcDbEntity
  8
C-A
  6
Continuous
 62
     3
370
     9
100
AcDbLine
 10
-448.8639515541689
 20
611.3301680281356
 30
0.0
 11
-454.8640888832705
 21
611.3301680281356
 31
0.0
  0
LINE
  5
2AD
330
1F
100
AcDbEntity
  8
C-A
  6
Continuous
 62
     3
370
     9
100
AcDbLine
 10
-448.8639515541689
 20
711.3301375105575
 30
0.0
 11
-454.8640888832705
 21
711.3301375105575
 31
0.0
  0
LINE
  5
2AE
330
1F
100
AcDbEntity
  8
C-A
  6
Continuous
 62
     3
370
     9
100
AcDbLine
 10
-433.8636311195984
 20
511.3301985457139
 30
0.0
 11
-439.8637684486999
 21
511.3301985457139
 31
0.0
  0
LINE
  5
2AF
330
1F
100
AcDbEntity
  8
C-A
  6
Continuous
 62
     3
370
     9
100
AcDbLine
 10
-433.8636311195984
 20
611.3301680281356
 30
0.0
 11
-439.8637684486999
 21
611.3301680281356
 31
0.0
  0
LINE
  5
2B0
330
1F
100
AcDbEntity
  8
C-A
  6
Continuous
 62
     3
370
     9
100
AcDbLine
 10
-433.8636311195984
 20
711.3301375105575
 30
0.0
 11
-439.8637684486999
 21
711.3301375105575
 31
0.0
  0
LINE
  5
2B1
330
1F
100
AcDbEntity
  8
C-A
  6
Continuous
 62
     3
370
     9
100
AcDbLine
 10
-418.863814225067
 20
511.3301985457139
 30
0.0
 11
-424.8639362953799
 21
511.3301985457139
 31
0.0
  0
LINE
  5
2B2
330
1F
100
AcDbEntity
  8
C-A
  6
Continuous
 62
     3
370
     9
100
AcDbLine
 10
-418.863814225067
 20
611.3301680281356
 30
0.0
 11
-424.8639362953799
 21
611.3301680281356
 31
0.0
  0
LINE
  5
2B3
330
1F
100
AcDbEntity
  8
C-A
  6
Continuous
 62
     3
370
     9
100
AcDbLine
 10
-418.863814225067
 20
711.3301375105575
 30
0.0
 11
-424.8639362953799
 21
711.3301375105575
 31
0.0
  0
LINE
  5
2B4
330
1F
100
AcDbEntity
  8
C-A
  6
Continuous
 62
     3
370
     9
100
AcDbLine
 10
-403.8639973305362
 20
511.3301985457139
 30
0.0
 11
-409.8641194008485
 21
511.3301985457139
 31
0.0
  0
LINE
  5
2B5
330
1F
100
AcDbEntity
  8
C-A
  6
Continuous
 62
     3
370
     9
100
AcDbLine
 10
-403.8639973305362
 20
611.3301680281356
 30
0.0
 11
-409.8641194008485
 21
611.3301680281356
 31
0.0
  0
LINE
  5
2B6
330
1F
100
AcDbEntity
  8
C-A
  6
Continuous
 62
     3
370
     9
100
AcDbLine
 10
-403.8639973305362
 20
711.3301375105575
 30
0.0
 11
-409.8641194008485
 21
711.3301375105575
 31
0.0
  0
LINE
  5
2B7
330
1F
100
AcDbEntity
  8
C-A
  6
Continuous
 62
     3
370
     9
100
AcDbLine
 10
-388.8636616371764
 20
511.3301985457139
 30
0.0
 11
-394.8638142250672
 21
511.3301985457139
 31
0.0
  0
LINE
  5
2B8
330
1F
100
AcDbEntity
  8
C-A
  6
Continuous
 62
     3
370
     9
100
AcDbLine
 10
-388.8636616371764
 20
611.3301680281356
 30
0.0
 11
-394.8638142250672
 21
611.3301680281356
 31
0.0
  0
LINE
  5
2B9
330
1F
100
AcDbEntity
  8
C-A
  6
Continuous
 62
     3
370
     9
100
AcDbLine
 10
-388.8636616371764
 20
711.3301375105575
 30
0.0
 11
-394.8638142250672
 21
711.3301375105575
 31
0.0
  0
LINE
  5
2BA
330
1F
100
AcDbEntity
  8
C-A
  6
Continuous
 62
     3
370
     9
100
AcDbLine
 10
-373.8638447426456
 20
611.3301680281356
 30
0.0
 11
-379.8639668129579
 21
611.3301680281356
 31
0.0
  0
LINE
  5
2BB
330
1F
100
AcDbEntity
  8
C-A
  6
Continuous
 62
     3
370
     9
100
AcDbLine
 10
-373.8638447426456
 20
711.3301375105575
 30
0.0
 11
-379.8639668129579
 21
711.3301375105575
 31
0.0
  0
LINE
  5
2BC
330
1F
100
AcDbEntity
  8
C-A
  6
Continuous
 62
     3
370
     9
100
AcDbLine
 10
-358.8640278481142
 20
611.3301680281356
 30
0.0
 11
-364.8641499184265
 21
611.3301680281356
 31
0.0
  0
LINE
  5
2BD
330
1F
100
AcDbEntity
  8
C-A
  6
Continuous
 62
     3
370
     9
100
AcDbLine
 10
-358.8640278481142
 20
711.3301375105575
 30
0.0
 11
-364.8641499184265
 21
711.3301375105575
 31
0.0
  0
LINE
  5
2BE
330
1F
100
AcDbEntity
  8
C-A
  6
Continuous
 62
     3
370
     9
100
AcDbLine
 10
-343.863722672333
 20
611.3301680281356
 30
0.0
 11
-349.8638447426453
 21
611.3301680281356
 31
0.0
  0
LINE
  5
2BF
330
1F
100
AcDbEntity
  8
C-A
  6
Continuous
 62
     3
370
     9
100
AcDbLine
 10
-343.863722672333
 20
711.3301375105575
 30
0.0
 11
-349.8638447426453
 21
711.3301375105575
 31
0.0
  0
LINE
  5
2C0
330
1F
100
AcDbEntity
  8
C-A
  6
Continuous
 62
     3
370
     9
100
AcDbLine
 10
-328.8639057778016
 20
611.3301680281356
 30
0.0
 11
-334.8640278481139
 21
611.3301680281356
 31
0.0
  0
LINE
  5
2C1
330
1F
100
AcDbEntity
  8
C-A
  6
Continuous
 62
     3
370
     9
100
AcDbLine
 10
-328.8639057778016
 20
711.3301375105575
 30
0.0
 11
-334.8640278481139
 21
711.3301375105575
 31
0.0
  0
LINE
  5
2C2
330
1F
100
AcDbEntity
  8
C-A
  6
Continuous
 62
     3
370
     9
100
AcDbLine
 10
-313.8635700844424
 20
611.3301680281356
 30
0.0
 11
-319.8636921547546
 21
611.3301680281356
 31
0.0
  0
LINE
  5
2C3
330
1F
100
AcDbEntity
  8
C-A
  6
Continuous
 62
     3
370
     9
100
AcDbLine
 10
-313.8635700844424
 20
711.3301375105575
 30
0.0
 11
-319.8636921547546
 21
711.3301375105575
 31
0.0
  0
LINE
  5
2C4
330
1F
100
AcDbEntity
  8
C-A
  6
Continuous
 62
     3
370
     9
100
AcDbLine
 10
-298.863753189911
 20
611.3301680281356
 30
0.0
 11
-304.8638752602233
 21
611.3301680281356
 31
0.0
  0
LINE
  5
2C5
330
1F
100
AcDbEntity
  8
C-A
  6
Continuous
 62
     3
370
     9
100
AcDbLine
 10
-298.863753189911
 20
711.3301375105575
 30
0.0
 11
-304.8638752602233
 21
711.3301375105575
 31
0.0
  0
LINE
  5
2C6
330
1F
100
AcDbEntity
  8
C-A
  6
Continuous
 62
     3
370
     9
100
AcDbLine
 10
-283.8639362953796
 20
611.3301680281356
 30
0.0
 11
-289.8640583656925
 21
611.3301680281356
 31
0.0
  0
LINE
  5
2C7
330
1F
100
AcDbEntity
  8
C-A
  6
Continuous
 62
     3
370
     9
100
AcDbLine
 10
-283.8639362953796
 20
711.3301375105575
 30
0.0
 11
-289.8640583656925
 21
711.3301375105575
 31
0.0
  0
LINE
  5
2C8
330
1F
100
AcDbEntity
  8
C-A
  6
Continuous
 62
     3
370
     9
100
AcDbLine
 10
-268.8636006020204
 20
711.3301375105575
 30
0.0
 11
-274.8637531899112
 21
711.3301375105575
 31
0.0
  0
LINE
  5
2C9
330
1F
100
AcDbEntity
  8
C-A
  6
Continuous
 62
     3
370
     9
100
AcDbLine
 10
-253.863783707489
 20
711.3301375105575
 30
0.0
 11
-259.8639057778018
 21
711.3301375105575
 31
0.0
  0
LINE
  5
2CA
330
1F
100
AcDbEntity
  8
C-A
  6
Continuous
 62
     3
370
     9
100
AcDbLine
 10
-238.8639668129576
 20
711.3301375105575
 30
0.0
 11
-244.8640888832705
 21
711.3301375105575
 31
0.0
  0
LINE
  5
2CB
330
1F
100
AcDbEntity
  8
C-A
  6
Continuous
 62
     3
370
     9
100
AcDbLine
 10
-223.8636616371764
 20
711.3301375105575
 30
0.0
 11
-229.8637837074892
 21
711.3301375105575
 31
0.0
  0
LINE
  5
2CC
330
1F
100
AcDbEntity
  8
C-A
  6
Continuous
 62
     3
370
     9
100
AcDbLine
 10
-210.8640278481141
 20
711.3301375105575
 30
0.0
 11
-214.8639668129579
 21
711.3301375105575
 31
0.0
  0
LINE
  5
2CD
330
1F
100
AcDbEntity
  8
C-A
  6
Continuous
 62
     3
370
     9
100
AcDbLine
 10
-538.8638828896183
 20
514.8657362654404
 30
0.0
 11
-542.8642948769226
 21
514.8657362654404
 31
0.0
  0
LINE
  5
2CE
330
1F
100
AcDbEntity
  8
C-A
  6
Continuous
 62
     3
370
     9
100
AcDbLine
 10
-538.8638828896183
 20
614.8657210066515
 30
0.0
 11
-542.8642948769226
 21
614.8657210066515
 31
0.0
  0
LINE
  5
2CF
330
1F
100
AcDbEntity
  8
C-A
  6
Continuous
 62
     3
370
     9
100
AcDbLine
 10
-523.8640583656922
 20
514.8657362654404
 30
0.0
 11
-529.8641804360045
 21
514.8657362654404
 31
0.0
  0
LINE
  5
2D0
330
1F
100
AcDbEntity
  8
C-A
  6
Continuous
 62
     3
370
     9
100
AcDbLine
 10
-523.8640583656922
 20
614.8657210066515
 30
0.0
 11
-529.8641804360045
 21
614.8657210066515
 31
0.0
  0
LINE
  5
2D1
330
1F
100
AcDbEntity
  8
C-A
  6
Continuous
 62
     3
370
     9
100
AcDbLine
 10
-508.8637379311217
 20
514.8657362654404
 30
0.0
 11
-514.8638600014345
 21
514.8657362654404
 31
0.0
  0
LINE
  5
2D2
330
1F
100
AcDbEntity
  8
C-A
  6
Continuous
 62
     3
370
     9
100
AcDbLine
 10
-508.8637379311217
 20
614.8657210066515
 30
0.0
 11
-514.8638600014345
 21
614.8657210066515
 31
0.0
  0
LINE
  5
2D3
330
1F
100
AcDbEntity
  8
C-A
  6
Continuous
 62
     3
370
     9
100
AcDbLine
 10
-493.8639210365909
 20
514.8657362654404
 30
0.0
 11
-499.8640431069032
 21
514.8657362654404
 31
0.0
  0
LINE
  5
2D4
330
1F
100
AcDbEntity
  8
C-A
  6
Continuous
 62
     3
370
     9
100
AcDbLine
 10
-493.8639210365909
 20
614.8657210066515
 30
0.0
 11
-499.8640431069032
 21
614.8657210066515
 31
0.0
  0
LINE
  5
2D5
330
1F
100
AcDbEntity
  8
C-A
  6
Continuous
 62
     3
370
     9
100
AcDbLine
 10
-478.8640888832703
 20
514.8657362654404
 30
0.0
 11
-484.8642262123718
 21
514.8657362654404
 31
0.0
  0
LINE
  5
2D6
330
1F
100
AcDbEntity
  8
C-A
  6
Continuous
 62
     3
370
     9
100
AcDbLine
 10
-478.8640888832703
 20
614.8657210066515
 30
0.0
 11
-484.8642262123718
 21
614.8657210066515
 31
0.0
  0
LINE
  5
2D7
330
1F
100
AcDbEntity
  8
C-A
  6
Continuous
 62
     3
370
     9
100
AcDbLine
 10
-478.8640888832703
 20
714.8656904890731
 30
0.0
 11
-484.8642262123718
 21
714.8656904890731
 31
0.0
  0
LINE
  5
2D8
330
1F
100
AcDbEntity
  8
C-A
  6
Continuous
 62
     3
370
     9
100
AcDbLine
 10
-463.863783707489
 20
514.8657362654404
 30
0.0
 11
-469.8639057778018
 21
514.8657362654404
 31
0.0
  0
LINE
  5
2D9
330
1F
100
AcDbEntity
  8
C-A
  6
Continuous
 62
     3
370
     9
100
AcDbLine
 10
-463.863783707489
 20
614.8657210066515
 30
0.0
 11
-469.8639057778018
 21
614.8657210066515
 31
0.0
  0
LINE
  5
2DA
330
1F
100
AcDbEntity
  8
C-A
  6
Continuous
 62
     3
370
     9
100
AcDbLine
 10
-463.863783707489
 20
714.8656904890731
 30
0.0
 11
-469.8639057778018
 21
714.8656904890731
 31
0.0
  0
LINE
  5
2DB
330
1F
100
AcDbEntity
  8
C-A
  6
Continuous
 62
     3
370
     9
100
AcDbLine
 10
-448.8639515541689
 20
514.8657362654404
 30
0.0
 11
-454.8640888832705
 21
514.8657362654404
 31
0.0
  0
LINE
  5
2DC
330
1F
100
AcDbEntity
  8
C-A
  6
Continuous
 62
     3
370
     9
100
AcDbLine
 10
-448.8639515541689
 20
614.8657210066515
 30
0.0
 11
-454.8640888832705
 21
614.8657210066515
 31
0.0
  0
LINE
  5
2DD
330
1F
100
AcDbEntity
  8
C-A
  6
Continuous
 62
     3
370
     9
100
AcDbLine
 10
-448.8639515541689
 20
714.8656904890731
 30
0.0
 11
-454.8640888832705
 21
714.8656904890731
 31
0.0
  0
LINE
  5
2DE
330
1F
100
AcDbEntity
  8
C-A
  6
Continuous
 62
     3
370
     9
100
AcDbLine
 10
-433.8636311195984
 20
514.8657362654404
 30
0.0
 11
-439.8637684486999
 21
514.8657362654404
 31
0.0
  0
LINE
  5
2DF
330
1F
100
AcDbEntity
  8
C-A
  6
Continuous
 62
     3
370
     9
100
AcDbLine
 10
-433.8636311195984
 20
614.8657210066515
 30
0.0
 11
-439.8637684486999
 21
614.8657210066515
 31
0.0
  0
LINE
  5
2E0
330
1F
100
AcDbEntity
  8
C-A
  6
Continuous
 62
     3
370
     9
100
AcDbLine
 10
-433.8636311195984
 20
714.8656904890731
 30
0.0
 11
-439.8637684486999
 21
714.8656904890731
 31
0.0
  0
LINE
  5
2E1
330
1F
100
AcDbEntity
  8
C-A
  6
Continuous
 62
     3
370
     9
100
AcDbLine
 10
-418.863814225067
 20
514.8657362654404
 30
0.0
 11
-424.8639362953799
 21
514.8657362654404
 31
0.0
  0
LINE
  5
2E2
330
1F
100
AcDbEntity
  8
C-A
  6
Continuous
 62
     3
370
     9
100
AcDbLine
 10
-418.863814225067
 20
614.8657210066515
 30
0.0
 11
-424.8639362953799
 21
614.8657210066515
 31
0.0
  0
LINE
  5
2E3
330
1F
100
AcDbEntity
  8
C-A
  6
Continuous
 62
     3
370
     9
100
AcDbLine
 10
-418.863814225067
 20
714.8656904890731
 30
0.0
 11
-424.8639362953799
 21
714.8656904890731
 31
0.0
  0
LINE
  5
2E4
330
1F
100
AcDbEntity
  8
C-A
  6
Continuous
 62
     3
370
     9
100
AcDbLine
 10
-403.8639973305362
 20
514.8657362654404
 30
0.0
 11
-409.8641194008485
 21
514.8657362654404
 31
0.0
  0
LINE
  5
2E5
330
1F
100
AcDbEntity
  8
C-A
  6
Continuous
 62
     3
370
     9
100
AcDbLine
 10
-403.8639973305362
 20
614.8657210066515
 30
0.0
 11
-409.8641194008485
 21
614.8657210066515
 31
0.0
  0
LINE
  5
2E6
330
1F
100
AcDbEntity
  8
C-A
  6
Continuous
 62
     3
370
     9
100
AcDbLine
 10
-403.8639973305362
 20
714.8656904890731
 30
0.0
 11
-409.8641194008485
 21
714.8656904890731
 31
0.0
  0
LINE
  5
2E7
330
1F
100
AcDbEntity
  8
C-A
  6
Continuous
 62
     3
370
     9
100
AcDbLine
 10
-388.8636616371764
 20
514.8657362654404
 30
0.0
 11
-394.8638142250672
 21
514.8657362654404
 31
0.0
  0
LINE
  5
2E8
330
1F
100
AcDbEntity
  8
C-A
  6
Continuous
 62
     3
370
     9
100
AcDbLine
 10
-388.8636616371764
 20
614.8657210066515
 30
0.0
 11
-394.8638142250672
 21
614.8657210066515
 31
0.0
  0
LINE
  5
2E9
330
1F
100
AcDbEntity
  8
C-A
  6
Continuous
 62
     3
370
     9
100
AcDbLine
 10
-388.8636616371764
 20
714.8656904890731
 30
0.0
 11
-394.8638142250672
 21
714.8656904890731
 31
0.0
  0
LINE
  5
2EA
330
1F
100
AcDbEntity
  8
C-A
  6
Continuous
 62
     3
370
     9
100
AcDbLine
 10
-373.8638447426456
 20
614.8657210066515
 30
0.0
 11
-379.8639668129579
 21
614.8657210066515
 31
0.0
  0
LINE
  5
2EB
330
1F
100
AcDbEntity
  8
C-A
  6
Continuous
 62
     3
370
     9
100
AcDbLine
 10
-373.8638447426456
 20
714.8656904890731
 30
0.0
 11
-379.8639668129579
 21
714.8656904890731
 31
0.0
  0
LINE
  5
2EC
330
1F
100
AcDbEntity
  8
C-A
  6
Continuous
 62
     3
370
     9
100
AcDbLine
 10
-358.8640278481142
 20
614.8657210066515
 30
0.0
 11
-364.8641499184265
 21
614.8657210066515
 31
0.0
  0
LINE
  5
2ED
330
1F
100
AcDbEntity
  8
C-A
  6
Continuous
 62
     3
370
     9
100
AcDbLine
 10
-358.8640278481142
 20
714.8656904890731
 30
0.0
 11
-364.8641499184265
 21
714.8656904890731
 31
0.0
  0
LINE
  5
2EE
330
1F
100
AcDbEntity
  8
C-A
  6
Continuous
 62
     3
370
     9
100
AcDbLine
 10
-343.863722672333
 20
614.8657210066515
 30
0.0
 11
-349.8638447426453
 21
614.8657210066515
 31
0.0
  0
LINE
  5
2EF
330
1F
100
AcDbEntity
  8
C-A
  6
Continuous
 62
     3
370
     9
100
AcDbLine
 10
-343.863722672333
 20
714.8656904890731
 30
0.0
 11
-349.8638447426453
 21
714.8656904890731
 31
0.0
  0
LINE
  5
2F0
330
1F
100
AcDbEntity
  8
C-A
  6
Continuous
 62
     3
370
     9
100
AcDbLine
 10
-328.8639057778016
 20
614.8657210066515
 30
0.0
 11
-334.8640278481139
 21
614.8657210066515
 31
0.0
  0
LINE
  5
2F1
330
1F
100
AcDbEntity
  8
C-A
  6
Continuous
 62
     3
370
     9
100
AcDbLine
 10
-328.8639057778016
 20
714.8656904890731
 30
0.0
 11
-334.8640278481139
 21
714.8656904890731
 31
0.0
  0
LINE
  5
2F2
330
1F
100
AcDbEntity
  8
C-A
  6
Continuous
 62
     3
370
     9
100
AcDbLine
 10
-313.8635700844424
 20
614.8657210066515
 30
0.0
 11
-319.8636921547546
 21
614.8657210066515
 31
0.0
  0
LINE
  5
2F3
330
1F
100
AcDbEntity
  8
C-A
  6
Continuous
 62
     3
370
     9
100
AcDbLine
 10
-313.8635700844424
 20
714.8656904890731
 30
0.0
 11
-319.8636921547546
 21
714.8656904890731
 31
0.0
  0
LINE
  5
2F4
330
1F
100
AcDbEntity
  8
C-A
  6
Continuous
 62
     3
370
     9
100
AcDbLine
 10
-298.863753189911
 20
614.8657210066515
 30
0.0
 11
-304.8638752602233
 21
614.8657210066515
 31
0.0
  0
LINE
  5
2F5
330
1F
100
AcDbEntity
  8
C-A
  6
Continuous
 62
     3
370
     9
100
AcDbLine
 10
-298.863753189911
 20
714.8656904890731
 30
0.0
 11
-304.8638752602233
 21
714.8656904890731
 31
0.0
  0
LINE
  5
2F6
330
1F
100
AcDbEntity
  8
C-A
  6
Continuous
 62
     3
370
     9
100
AcDbLine
 10
-283.8639362953796
 20
614.8657210066515
 30
0.0
 11
-289.8640583656925
 21
614.8657210066515
 31
0.0
  0
LINE
  5
2F7
330
1F
100
AcDbEntity
  8
C-A
  6
Continuous
 62
     3
370
     9
100
AcDbLine
 10
-283.8639362953796
 20
714.8656904890731
 30
0.0
 11
-289.8640583656925
 21
714.8656904890731
 31
0.0
  0
LINE
  5
2F8
330
1F
100
AcDbEntity
  8
C-A
  6
Continuous
 62
     3
370
     9
100
AcDbLine
 10
-268.8636006020204
 20
714.8656904890731
 30
0.0
 11
-274.8637531899112
 21
714.8656904890731
 31
0.0
  0
LINE
  5
2F9
330
1F
100
AcDbEntity
  8
C-A
  6
Continuous
 62
     3
370
     9
100
AcDbLine
 10
-253.863783707489
 20
714.8656904890731
 30
0.0
 11
-259.8639057778018
 21
714.8656904890731
 31
0.0
  0
LINE
  5
2FA
330
1F
100
AcDbEntity
  8
C-A
  6
Continuous
 62
     3
370
     9
100
AcDbLine
 10
-238.8639668129576
 20
714.8656904890731
 30
0.0
 11
-244.8640888832705
 21
714.8656904890731
 31
0.0
  0
LINE
  5
2FB
330
1F
100
AcDbEntity
  8
C-A
  6
Continuous
 62
     3
370
     9
100
AcDbLine
 10
-223.8636616371764
 20
714.8656904890731
 30
0.0
 11
-229.8637837074892
 21
714.8656904890731
 31
0.0
  0
LINE
  5
2FC
330
1F
100
AcDbEntity
  8
C-A
  6
Continuous
 62
     3
370
     9
100
AcDbLine
 10
-210.8640278481141
 20
714.8656904890731
 30
0.0
 11
-214.8639668129579
 21
714.8656904890731
 31
0.0
  0
LINE
  5
2FD
330
1F
100
AcDbEntity
  8
C-A
  6
Continuous
 62
     3
370
     9
100
AcDbLine
 10
-538.8638828896183
 20
518.401258726378
 30
0.0
 11
-542.8642948769226
 21
518.401258726378
 31
0.0
  0
LINE
  5
2FE
330
1F
100
AcDbEntity
  8
C-A
  6
Continuous
 62
     3
370
     9
100
AcDbLine
 10
-538.8638828896183
 20
618.4012434675888
 30
0.0
 11
-542.8642948769226
 21
618.4012434675888
 31
0.0
  0
LINE
  5
2FF
330
1F
100
AcDbEntity
  8
C-A
  6
Continuous
 62
     3
370
     9
100
AcDbLine
 10
-523.8640583656922
 20
518.401258726378
 30
0.0
 11
-529.8641804360045
 21
518.401258726378
 31
0.0
  0
LINE
  5
300
330
1F
100
AcDbEntity
  8
C-A
  6
Continuous
 62
     3
370
     9
100
AcDbLine
 10
-523.8640583656922
 20
618.4012434675888
 30
0.0
 11
-529.8641804360045
 21
618.4012434675888
 31
0.0
  0
LINE
  5
301
330
1F
100
AcDbEntity
  8
C-A
  6
Continuous
 62
     3
370
     9
100
AcDbLine
 10
-508.8637379311217
 20
518.401258726378
 30
0.0
 11
-514.8638600014345
 21
518.401258726378
 31
0.0
  0
LINE
  5
302
330
1F
100
AcDbEntity
  8
C-A
  6
Continuous
 62
     3
370
     9
100
AcDbLine
 10
-508.8637379311217
 20
618.4012434675888
 30
0.0
 11
-514.8638600014345
 21
618.4012434675888
 31
0.0
  0
LINE
  5
303
330
1F
100
AcDbEntity
  8
C-A
  6
Continuous
 62
     3
370
     9
100
AcDbLine
 10
-493.8639210365909
 20
518.401258726378
 30
0.0
 11
-499.8640431069032
 21
518.401258726378
 31
0.0
  0
LINE
  5
304
330
1F
100
AcDbEntity
  8
C-A
  6
Continuous
 62
     3
370
     9
100
AcDbLine
 10
-493.8639210365909
 20
618.4012434675888
 30
0.0
 11
-499.8640431069032
 21
618.4012434675888
 31
0.0
  0
LINE
  5
305
330
1F
100
AcDbEntity
  8
C-A
  6
Continuous
 62
     3
370
     9
100
AcDbLine
 10
-478.8640888832703
 20
518.401258726378
 30
0.0
 11
-484.8642262123718
 21
518.401258726378
 31
0.0
  0
LINE
  5
306
330
1F
100
AcDbEntity
  8
C-A
  6
Continuous
 62
     3
370
     9
100
AcDbLine
 10
-478.8640888832703
 20
618.4012434675888
 30
0.0
 11
-484.8642262123718
 21
618.4012434675888
 31
0.0
  0
LINE
  5
307
330
1F
100
AcDbEntity
  8
C-A
  6
Continuous
 62
     3
370
     9
100
AcDbLine
 10
-463.863783707489
 20
518.401258726378
 30
0.0
 11
-469.8639057778018
 21
518.401258726378
 31
0.0
  0
LINE
  5
308
330
1F
100
AcDbEntity
  8
C-A
  6
Continuous
 62
     3
370
     9
100
AcDbLine
 10
-463.863783707489
 20
618.4012434675888
 30
0.0
 11
-469.8639057778018
 21
618.4012434675888
 31
0.0
  0
LINE
  5
309
330
1F
100
AcDbEntity
  8
C-A
  6
Continuous
 62
     3
370
     9
100
AcDbLine
 10
-448.8639515541689
 20
518.401258726378
 30
0.0
 11
-454.8640888832705
 21
518.401258726378
 31
0.0
  0
LINE
  5
30A
330
1F
100
AcDbEntity
  8
C-A
  6
Continuous
 62
     3
370
     9
100
AcDbLine
 10
-448.8639515541689
 20
618.4012434675888
 30
0.0
 11
-454.8640888832705
 21
618.4012434675888
 31
0.0
  0
LINE
  5
30B
330
1F
100
AcDbEntity
  8
C-A
  6
Continuous
 62
     3
370
     9
100
AcDbLine
 10
-433.8636311195984
 20
518.401258726378
 30
0.0
 11
-439.8637684486999
 21
518.401258726378
 31
0.0
  0
LINE
  5
30C
330
1F
100
AcDbEntity
  8
C-A
  6
Continuous
 62
     3
370
     9
100
AcDbLine
 10
-433.8636311195984
 20
618.4012434675888
 30
0.0
 11
-439.8637684486999
 21
618.4012434675888
 31
0.0
  0
LINE
  5
30D
330
1F
100
AcDbEntity
  8
C-A
  6
Continuous
 62
     3
370
     9
100
AcDbLine
 10
-418.863814225067
 20
518.401258726378
 30
0.0
 11
-424.8639362953799
 21
518.401258726378
 31
0.0
  0
LINE
  5
30E
330
1F
100
AcDbEntity
  8
C-A
  6
Continuous
 62
     3
370
     9
100
AcDbLine
 10
-418.863814225067
 20
618.4012434675888
 30
0.0
 11
-424.8639362953799
 21
618.4012434675888
 31
0.0
  0
LINE
  5
30F
330
1F
100
AcDbEntity
  8
C-A
  6
Continuous
 62
     3
370
     9
100
AcDbLine
 10
-403.8639973305362
 20
518.401258726378
 30
0.0
 11
-409.8641194008485
 21
518.401258726378
 31
0.0
  0
LINE
  5
310
330
1F
100
AcDbEntity
  8
C-A
  6
Continuous
 62
     3
370
     9
100
AcDbLine
 10
-403.8639973305362
 20
618.4012434675888
 30
0.0
 11
-409.8641194008485
 21
618.4012434675888
 31
0.0
  0
LINE
  5
311
330
1F
100
AcDbEntity
  8
C-A
  6
Continuous
 62
     3
370
     9
100
AcDbLine
 10
-388.8636616371764
 20
518.401258726378
 30
0.0
 11
-394.8638142250672
 21
518.401258726378
 31
0.0
  0
LINE
  5
312
330
1F
100
AcDbEntity
  8
C-A
  6
Continuous
 62
     3
370
     9
100
AcDbLine
 10
-388.8636616371764
 20
618.4012434675888
 30
0.0
 11
-394.8638142250672
 21
618.4012434675888
 31
0.0
  0
LINE
  5
313
330
1F
100
AcDbEntity
  8
C-A
  6
Continuous
 62
     3
370
     9
100
AcDbLine
 10
-373.8638447426456
 20
618.4012434675888
 30
0.0
 11
-379.8639668129579
 21
618.4012434675888
 31
0.0
  0
LINE
  5
314
330
1F
100
AcDbEntity
  8
C-A
  6
Continuous
 62
     3
370
     9
100
AcDbLine
 10
-358.8640278481142
 20
618.4012434675888
 30
0.0
 11
-364.8641499184265
 21
618.4012434675888
 31
0.0
  0
LINE
  5
315
330
1F
100
AcDbEntity
  8
C-A
  6
Continuous
 62
     3
370
     9
100
AcDbLine
 10
-343.863722672333
 20
618.4012434675888
 30
0.0
 11
-349.8638447426453
 21
618.4012434675888
 31
0.0
  0
LINE
  5
316
330
1F
100
AcDbEntity
  8
C-A
  6
Continuous
 62
     3
370
     9
100
AcDbLine
 10
-328.8639057778016
 20
618.4012434675888
 30
0.0
 11
-334.8640278481139
 21
618.4012434675888
 31
0.0
  0
LINE
  5
317
330
1F
100
AcDbEntity
  8
C-A
  6
Continuous
 62
     3
370
     9
100
AcDbLine
 10
-313.8635700844424
 20
618.4012434675888
 30
0.0
 11
-319.8636921547546
 21
618.4012434675888
 31
0.0
  0
LINE
  5
318
330
1F
100
AcDbEntity
  8
C-A
  6
Continuous
 62
     3
370
     9
100
AcDbLine
 10
-298.863753189911
 20
618.4012434675888
 30
0.0
 11
-304.8638752602233
 21
618.4012434675888
 31
0.0
  0
LINE
  5
319
330
1F
100
AcDbEntity
  8
C-A
  6
Continuous
 62
     3
370
     9
100
AcDbLine
 10
-283.8639362953796
 20
618.4012434675888
 30
0.0
 11
-289.8640583656925
 21
618.4012434675888
 31
0.0
  0
LINE
  5
31A
330
1F
100
AcDbEntity
  8
C-A
  6
Continuous
 62
     3
370
     9
100
AcDbLine
 10
-373.8643635414735
 20
518.401258726378
 30
0.0
 11
-379.8639668129579
 21
518.401258726378
 31
0.0
  0
LINE
  5
31B
330
1F
100
AcDbEntity
  8
C-A
  6
Continuous
 62
     3
370
     9
100
AcDbLine
 10
-478.8640888832703
 20
718.4012129500106
 30
0.0
 11
-484.8642262123718
 21
718.4012129500106
 31
0.0
  0
LINE
  5
31C
330
1F
100
AcDbEntity
  8
C-A
  6
Continuous
 62
     3
370
     9
100
AcDbLine
 10
-463.863783707489
 20
718.4012129500106
 30
0.0
 11
-469.8639057778018
 21
718.4012129500106
 31
0.0
  0
LINE
  5
31D
330
1F
100
AcDbEntity
  8
C-A
  6
Continuous
 62
     3
370
     9
100
AcDbLine
 10
-448.8639515541689
 20
718.4012129500106
 30
0.0
 11
-454.8640888832705
 21
718.4012129500106
 31
0.0
  0
LINE
  5
31E
330
1F
100
AcDbEntity
  8
C-A
  6
Continuous
 62
     3
370
     9
100
AcDbLine
 10
-433.8636311195984
 20
718.4012129500106
 30
0.0
 11
-439.8637684486999
 21
718.4012129500106
 31
0.0
  0
LINE
  5
31F
330
1F
100
AcDbEntity
  8
C-A
  6
Continuous
 62
     3
370
     9
100
AcDbLine
 10
-418.863814225067
 20
718.4012129500106
 30
0.0
 11
-424.8639362953799
 21
718.4012129500106
 31
0.0
  0
LINE
  5
320
330
1F
100
AcDbEntity
  8
C-A
  6
Continuous
 62
     3
370
     9
100
AcDbLine
 10
-403.8639973305362
 20
718.4012129500106
 30
0.0
 11
-409.8641194008485
 21
718.4012129500106
 31
0.0
  0
LINE
  5
321
330
1F
100
AcDbEntity
  8
C-A
  6
Continuous
 62
     3
370
     9
100
AcDbLine
 10
-388.8636616371764
 20
718.4012129500106
 30
0.0
 11
-394.8638142250672
 21
718.4012129500106
 31
0.0
  0
LINE
  5
322
330
1F
100
AcDbEntity
  8
C-A
  6
Continuous
 62
     3
370
     9
100
AcDbLine
 10
-373.8638447426456
 20
718.4012129500106
 30
0.0
 11
-379.8639668129579
 21
718.4012129500106
 31
0.0
  0
LINE
  5
323
330
1F
100
AcDbEntity
  8
C-A
  6
Continuous
 62
     3
370
     9
100
AcDbLine
 10
-358.8640278481142
 20
718.4012129500106
 30
0.0
 11
-364.8641499184265
 21
718.4012129500106
 31
0.0
  0
LINE
  5
324
330
1F
100
AcDbEntity
  8
C-A
  6
Continuous
 62
     3
370
     9
100
AcDbLine
 10
-343.863722672333
 20
718.4012129500106
 30
0.0
 11
-349.8638447426453
 21
718.4012129500106
 31
0.0
  0
LINE
  5
325
330
1F
100
AcDbEntity
  8
C-A
  6
Continuous
 62
     3
370
     9
100
AcDbLine
 10
-328.8639057778016
 20
718.4012129500106
 30
0.0
 11
-334.8640278481139
 21
718.4012129500106
 31
0.0
  0
LINE
  5
326
330
1F
100
AcDbEntity
  8
C-A
  6
Continuous
 62
     3
370
     9
100
AcDbLine
 10
-313.8635700844424
 20
718.4012129500106
 30
0.0
 11
-319.8636921547546
 21
718.4012129500106
 31
0.0
  0
LINE
  5
327
330
1F
100
AcDbEntity
  8
C-A
  6
Continuous
 62
     3
370
     9
100
AcDbLine
 10
-298.863753189911
 20
718.4012129500106
 30
0.0
 11
-304.8638752602233
 21
718.4012129500106
 31
0.0
  0
LINE
  5
328
330
1F
100
AcDbEntity
  8
C-A
  6
Continuous
 62
     3
370
     9
100
AcDbLine
 10
-283.8639362953796
 20
718.4012129500106
 30
0.0
 11
-289.8640583656925
 21
718.4012129500106
 31
0.0
  0
LINE
  5
329
330
1F
100
AcDbEntity
  8
C-A
  6
Continuous
 62
     3
370
     9
100
AcDbLine
 10
-268.8636006020204
 20
718.4012129500106
 30
0.0
 11
-274.8637531899112
 21
718.4012129500106
 31
0.0
  0
LINE
  5
32A
330
1F
100
AcDbEntity
  8
C-A
  6
Continuous
 62
     3
370
     9
100
AcDbLine
 10
-253.863783707489
 20
718.4012129500106
 30
0.0
 11
-259.8639057778018
 21
718.4012129500106
 31
0.0
  0
LINE
  5
32B
330
1F
100
AcDbEntity
  8
C-A
  6
Continuous
 62
     3
370
     9
100
AcDbLine
 10
-238.8639668129576
 20
718.4012129500106
 30
0.0
 11
-244.8640888832705
 21
718.4012129500106
 31
0.0
  0
LINE
  5
32C
330
1F
100
AcDbEntity
  8
C-A
  6
Continuous
 62
     3
370
     9
100
AcDbLine
 10
-223.8636616371764
 20
718.4012129500106
 30
0.0
 11
-229.8637837074892
 21
718.4012129500106
 31
0.0
  0
LINE
  5
32D
330
1F
100
AcDbEntity
  8
C-A
  6
Continuous
 62
     3
370
     9
100
AcDbLine
 10
-210.8640278481141
 20
718.4012129500106
 30
0.0
 11
-214.8639668129579
 21
718.4012129500106
 31
0.0
  0
LINE
  5
32E
330
1F
100
AcDbEntity
  8
C-A
  6
Continuous
 62
     3
370
     9
100
AcDbLine
 10
-376.8640278481143
 20
514.8657362654404
 30
0.0
 11
-379.863478531708
 21
514.8657362654404
 31
0.0
  0
LINE
  5
32F
330
1F
100
AcDbEntity
  8
C-A
  6
Continuous
 62
     3
370
     9
100
AcDbLine
 10
-273.3283222817079
 20
618.4012434675888
 30
0.0
 11
-274.8637531899112
 21
618.4012434675888
 31
0.0
  0
LINE
  5
330
330
1F
100
AcDbEntity
  8
C-A
  6
Continuous
 62
     3
370
     9
100
AcDbLine
 10
-538.8638828896183
 20
711.3301375105575
 30
0.0
 11
-542.8642948769226
 21
711.3301375105575
 31
0.0
  0
LINE
  5
331
330
1F
100
AcDbEntity
  8
C-A
  6
Continuous
 62
     3
370
     9
100
AcDbLine
 10
-523.8640583656922
 20
711.3301375105575
 30
0.0
 11
-529.8641804360045
 21
711.3301375105575
 31
0.0
  0
LINE
  5
332
330
1F
100
AcDbEntity
  8
C-A
  6
Continuous
 62
     3
370
     9
100
AcDbLine
 10
-508.8637379311217
 20
711.3301375105575
 30
0.0
 11
-514.8638600014345
 21
711.3301375105575
 31
0.0
  0
LINE
  5
333
330
1F
100
AcDbEntity
  8
C-A
  6
Continuous
 62
     3
370
     9
100
AcDbLine
 10
-493.8639210365909
 20
711.3301375105575
 30
0.0
 11
-499.8640431069032
 21
711.3301375105575
 31
0.0
  0
LINE
  5
334
330
1F
100
AcDbEntity
  8
C-A
  6
Continuous
 62
     3
370
     9
100
AcDbLine
 10
-493.8639210365909
 20
714.8656904890731
 30
0.0
 11
-499.8640431069032
 21
714.8656904890731
 31
0.0
  0
LINE
  5
335
330
1F
100
AcDbEntity
  8
C-A
  6
Continuous
 62
     3
370
     9
100
AcDbLine
 10
-508.8637379311217
 20
714.8656904890731
 30
0.0
 11
-514.8638600014345
 21
714.8656904890731
 31
0.0
  0
LINE
  5
336
330
1F
100
AcDbEntity
  8
C-A
  6
Continuous
 62
     3
370
     9
100
AcDbLine
 10
-523.8640583656922
 20
714.8656904890731
 30
0.0
 11
-529.8641804360045
 21
714.8656904890731
 31
0.0
  0
LINE
  5
337
330
1F
100
AcDbEntity
  8
C-A
  6
Continuous
 62
     3
370
     9
100
AcDbLine
 10
-538.8638828896183
 20
714.8656904890731
 30
0.0
 11
-542.8642948769226
 21
714.8656904890731
 31
0.0
  0
LINE
  5
338
330
1F
100
AcDbEntity
  8
C-A
  6
Continuous
 62
     3
370
     9
100
AcDbLine
 10
-493.8639210365909
 20
718.4012129500106
 30
0.0
 11
-499.8640431069032
 21
718.4012129500106
 31
0.0
  0
LINE
  5
339
330
1F
100
AcDbEntity
  8
C-A
  6
Continuous
 62
     3
370
     9
100
AcDbLine
 10
-508.8637379311217
 20
718.4012129500106
 30
0.0
 11
-514.8638600014345
 21
718.4012129500106
 31
0.0
  0
LINE
  5
33A
330
1F
100
AcDbEntity
  8
C-A
  6
Continuous
 62
     3
370
     9
100
AcDbLine
 10
-523.8640583656922
 20
718.4012129500106
 30
0.0
 11
-529.8641804360045
 21
718.4012129500106
 31
0.0
  0
LINE
  5
33B
330
1F
100
AcDbEntity
  8
C-A
  6
Continuous
 62
     3
370
     9
100
AcDbLine
 10
-538.8638828896183
 20
718.4012129500106
 30
0.0
 11
-542.8642948769226
 21
718.4012129500106
 31
0.0
  0
ARC
  5
33C
330
1F
100
AcDbEntity
  8
C-2
  6
Continuous
 62
     3
370
     9
100
AcDbCircle
 10
252.863511214386
 20
1125.550108213683
 30
0.0
 40
75.00027465820312
100
AcDbArc
 50
53.13009643554687
 51
126.8699035644531
  0
ARC
  5
33D
330
1F
100
AcDbEntity
  8
C-2
  6
Continuous
 62
     3
370
     9
100
AcDbCircle
 10
342.8644267417297
 20
1245.550657530089
 30
0.0
 40
75.00027465820312
100
AcDbArc
 50
233.1300964355469
 51
306.8699035644532
  0
ARC
  5
33E
330
1F
100
AcDbEntity
  8
C-2
  6
Continuous
 62
     3
370
     9
100
AcDbCircle
 10
252.863511214386
 20
720.3453352644638
 30
0.0
 40
75.00027465820312
100
AcDbArc
 50
53.13009643554687
 51
126.8699035644531
  0
ARC
  5
33F
330
1F
100
AcDbEntity
  8
C-2
  6
Continuous
 62
     3
370
     9
100
AcDbCircle
 10
342.8644267417297
 20
840.34588458087
 30
0.0
 40
75.00027465820312
100
AcDbArc
 50
233.1300964355469
 51
306.8699035644532
  0
ARC
  5
340
330
1F
100
AcDbEntity
  8
C-2
  6
Continuous
 62
     3
370
     9
100
AcDbCircle
 10
169.7793437339169
 20
441.9726240828231
 30
0.0
 40
7.5
100
AcDbArc
 50
0.0
 51
90.0
  0
ARC
  5
341
330
1F
100
AcDbEntity
  8
C-2
  6
Continuous
 62
     3
370
     9
100
AcDbCircle
 10
194.7797099448547
 20
441.9726240828231
 30
0.0
 40
7.5
100
AcDbArc
 50
90.0
 51
180.0
  0
ARC
  5
342
330
1F
100
AcDbEntity
  8
C-2
  6
Continuous
 62
     3
370
     9
100
AcDbCircle
 10
244.7794658042295
 20
441.9726240828231
 30
0.0
 40
7.5
100
AcDbArc
 50
0.0
 51
90.0
  0
ARC
  5
343
330
1F
100
AcDbEntity
  8
C-2
  6
Continuous
 62
     3
370
     9
100
AcDbCircle
 10
269.7798320151674
 20
441.9726240828231
 30
0.0
 40
7.5
100
AcDbArc
 50
90.0
 51
180.0
  0
ARC
  5
344
330
1F
100
AcDbEntity
  8
C-2
  6
Continuous
 62
     3
370
     9
100
AcDbCircle
 10
319.7795878745421
 20
441.9726240828231
 30
0.0
 40
7.5
100
AcDbArc
 50
0.0
 51
90.0
  0
ARC
  5
345
330
1F
100
AcDbEntity
  8
C-2
  6
Continuous
 62
     3
370
     9
100
AcDbCircle
 10
344.7809306479797
 20
441.9726240828231
 30
0.0
 40
7.5
100
AcDbArc
 50
90.0
 51
180.0
  0
LWPOLYLINE
  5
346
330
1F
100
AcDbEntity
  8
C-4
  6
Continuous
 62
     7
370
     9
100
AcDbPolyline
 90
        4
 70
     1
 43
1.0
 10
-551.3644856117862
 20
924.8649275496202
 42
0.4142135623731
 10
-551.8644856117862
 20
925.3649275496202
 42
0.4142135623731
 10
-552.3644856117862
 20
924.8649275496202
 42
0.4142135623731
 10
-551.8644856117862
 20
924.3649275496203
 42
0.4142135623731
  0
LWPOLYLINE
  5
347
330
1F
100
AcDbEntity
  8
C-4
  6
Continuous
 62
     7
370
     9
100
AcDbPolyline
 90
        4
 70
     1
 43
1.0
 10
-201.3643330238956
 20
924.8649275496202
 42
0.4142135623731
 10
-201.8643330238956
 20
925.3649275496202
 42
0.4142135623731
 10
-202.3643330238956
 20
924.8649275496202
 42
0.4142135623731
 10
-201.8643330238956
 20
924.3649275496203
 42
0.4142135623731
  0
LWPOLYLINE
  5
348
330
1F
100
AcDbEntity
  8
C-4
  6
Continuous
 62
     7
370
     9
100
AcDbPolyline
 90
        4
 70
     1
 43
1.0
 10
-526.3646229408876
 20
869.8654158308702
 42
0.4142135623731
 10
-526.8646229408876
 20
870.3654158308701
 42
0.4142135623731
 10
-527.3646229408876
 20
869.8654158308702
 42
0.4142135623731
 10
-526.8646229408876
 20
869.3654158308702
 42
0.4142135623731
  0
LWPOLYLINE
  5
349
330
1F
100
AcDbEntity
  8
C-4
  6
Continuous
 62
     7
370
     9
100
AcDbPolyline
 90
        4
 70
     1
 43
1.0
 10
-226.364210953583
 20
869.8654158308702
 42
0.4142135623731
 10
-226.864210953583
 20
870.3654158308701
 42
0.4142135623731
 10
-227.364210953583
 20
869.8654158308702
 42
0.4142135623731
 10
-226.864210953583
 20
869.3654158308702
 42
0.4142135623731
  0
LWPOLYLINE
  5
34A
330
1F
100
AcDbEntity
  8
C-4
  6
Continuous
 62
     7
370
     9
100
AcDbPolyline
 90
        4
 70
     1
 43
1.0
 10
-551.3644856117862
 20
869.8654158308702
 42
0.4142135623731
 10
-551.8644856117862
 20
870.3654158308701
 42
0.4142135623731
 10
-552.3644856117862
 20
869.8654158308702
 42
0.4142135623731
 10
-551.8644856117862
 20
869.3654158308702
 42
0.4142135623731
  0
LWPOLYLINE
  5
34B
330
1F
100
AcDbEntity
  8
C-4
  6
Continuous
 62
     7
370
     9
100
AcDbPolyline
 90
        4
 70
     1
 43
1.0
 10
-552.3648365639344
 20
924.8649275496202
 42
0.4142135623731
 10
-552.8648365639344
 20
925.3649275496202
 42
0.4142135623731
 10
-553.3648365639344
 20
924.8649275496202
 42
0.4142135623731
 10
-552.8648365639344
 20
924.3649275496203
 42
0.4142135623731
  0
LWPOLYLINE
  5
34C
330
1F
100
AcDbEntity
  8
C-4
  6
Continuous
 62
     7
370
     9
100
AcDbPolyline
 90
        4
 70
     1
 43
1.0
 10
-200.364485611786
 20
924.8649275496202
 42
0.4142135623731
 10
-200.864485611786
 20
925.3649275496202
 42
0.4142135623731
 10
-201.364485611786
 20
924.8649275496202
 42
0.4142135623731
 10
-200.864485611786
 20
924.3649275496203
 42
0.4142135623731
  0
LWPOLYLINE
  5
34D
330
1F
100
AcDbEntity
  8
C-4
  6
Continuous
 62
     7
370
     9
100
AcDbPolyline
 90
        4
 70
     1
 43
1.0
 10
158.2226420737611
 20
840.5505354597765
 42
0.4142135623731
 10
157.7226420737611
 20
841.0505354597764
 42
0.4142135623731
 10
157.2226420737611
 20
840.5505354597765
 42
0.4142135623731
 10
157.7226420737611
 20
840.0505354597765
 42
0.4142135623731
  0
LWPOLYLINE
  5
34E
330
1F
100
AcDbEntity
  8
C-4
  6
Continuous
 62
     7
370
     9
100
AcDbPolyline
 90
        4
 70
     1
 43
1.0
 10
158.2226420737611
 20
855.5503523543075
 42
0.4142135623731
 10
157.7226420737611
 20
856.0503523543075
 42
0.4142135623731
 10
157.2226420737611
 20
855.5503523543075
 42
0.4142135623731
 10
157.7226420737611
 20
855.0503523543075
 42
0.4142135623731
  0
LWPOLYLINE
  5
34F
330
1F
100
AcDbEntity
  8
C-4
  6
Continuous
 62
     7
370
     9
100
AcDbPolyline
 90
        4
 70
     1
 43
1.0
 10
158.2226420737611
 20
955.5507796004014
 42
0.4142135623731
 10
157.7226420737611
 20
956.0507796004014
 42
0.4142135623731
 10
157.2226420737611
 20
955.5507796004014
 42
0.4142135623731
 10
157.7226420737611
 20
955.0507796004014
 42
0.4142135623731
  0
LWPOLYLINE
  5
350
330
1F
100
AcDbEntity
  8
C-4
  6
Continuous
 62
     7
370
     9
100
AcDbPolyline
 90
        4
 70
     1
 43
1.0
 10
158.2226420737611
 20
1010.550779600401
 42
0.4142135623731
 10
157.7226420737611
 20
1011.050779600401
 42
0.4142135623731
 10
157.2226420737611
 20
1010.550779600401
 42
0.4142135623731
 10
157.7226420737611
 20
1010.050779600401
 42
0.4142135623731
  0
LWPOLYLINE
  5
351
330
1F
100
AcDbEntity
  8
C-4
  6
Continuous
 62
     7
370
     9
100
AcDbPolyline
 90
        4
 70
     1
 43
1.0
 10
158.2226420737611
 20
1110.550291319151
 42
0.4142135623731
 10
157.7226420737611
 20
1111.050291319151
 42
0.4142135623731
 10
157.2226420737611
 20
1110.550291319151
 42
0.4142135623731
 10
157.7226420737611
 20
1110.050291319151
 42
0.4142135623731
  0
LWPOLYLINE
  5
352
330
1F
100
AcDbEntity
  8
C-4
  6
Continuous
 62
     7
370
     9
100
AcDbPolyline
 90
        4
 70
     1
 43
1.0
 10
158.2226420737611
 20
1125.550596494933
 42
0.4142135623731
 10
157.7226420737611
 20
1126.050596494933
 42
0.4142135623731
 10
157.2226420737611
 20
1125.550596494933
 42
0.4142135623731
 10
157.7226420737611
 20
1125.050596494933
 42
0.4142135623731
  0
LWPOLYLINE
  5
353
330
1F
100
AcDbEntity
  8
C-4
  6
Continuous
 62
     7
370
     9
100
AcDbPolyline
 90
        4
 70
     1
 43
1.0
 10
253.363511214386
 20
1241.440733213683
 42
0.4142135623731
 10
252.863511214386
 20
1241.940733213683
 42
0.4142135623731
 10
252.363511214386
 20
1241.440733213683
 42
0.4142135623731
 10
252.863511214386
 20
1240.940733213683
 42
0.4142135623731
  0
LWPOLYLINE
  5
354
330
1F
100
AcDbEntity
  8
C-4
  6
Continuous
 62
     7
370
     9
100
AcDbPolyline
 90
        4
 70
     1
 43
1.0
 10
343.3644267417297
 20
1241.440733213683
 42
0.4142135623731
 10
342.8644267417297
 20
1241.940733213683
 42
0.4142135623731
 10
342.3644267417297
 20
1241.440733213683
 42
0.4142135623731
 10
342.8644267417297
 20
1240.940733213683
 42
0.4142135623731
  0
LWPOLYLINE
  5
355
330
1F
100
AcDbEntity
  8
C-4
  6
Continuous
 62
     7
370
     9
100
AcDbPolyline
 90
        4
 70
     1
 43
1.0
 10
418.221909651886
 20
970.5858137800888
 42
0.4142135623731
 10
417.721909651886
 20
971.0858137800888
 42
0.4142135623731
 10
417.221909651886
 20
970.5858137800888
 42
0.4142135623731
 10
417.721909651886
 20
970.0858137800889
 42
0.4142135623731
  0
LWPOLYLINE
  5
356
330
1F
100
AcDbEntity
  8
C-4
  6
Continuous
 62
     7
370
     9
100
AcDbPolyline
 90
        4
 70
     1
 43
1.0
 10
419.4348002768861
 20
975.436460752745
 42
0.4142135623731
 10
418.9348002768861
 20
975.9364607527449
 42
0.4142135623731
 10
418.4348002768861
 20
975.436460752745
 42
0.4142135623731
 10
418.9348002768861
 20
974.936460752745
 42
0.4142135623731
  0
LWPOLYLINE
  5
357
330
1F
100
AcDbEntity
  8
C-4
  6
Continuous
 62
     7
370
     9
100
AcDbPolyline
 90
        4
 70
     1
 43
1.0
 10
160.2793437339169
 20
517.8363325789169
 42
0.4142135623731
 10
159.7793437339169
 20
518.3363325789169
 42
0.4142135623731
 10
159.2793437339169
 20
517.8363325789169
 42
0.4142135623731
 10
159.7793437339169
 20
517.336332578917
 42
0.4142135623731
  0
LWPOLYLINE
  5
358
330
1F
100
AcDbEntity
  8
C-4
  6
Continuous
 62
     7
370
     9
100
AcDbPolyline
 90
        4
 70
     1
 43
1.0
 10
205.2797709800108
 20
517.8363325789169
 42
0.4142135623731
 10
204.7797709800108
 20
518.3363325789169
 42
0.4142135623731
 10
204.2797709800108
 20
517.8363325789169
 42
0.4142135623731
 10
204.7797709800108
 20
517.336332578917
 42
0.4142135623731
  0
LWPOLYLINE
  5
359
330
1F
100
AcDbEntity
  8
C-4
  6
Continuous
 62
     7
370
     9
100
AcDbPolyline
 90
        4
 70
     1
 43
1.0
 10
235.2798930503234
 20
517.8363325789169
 42
0.4142135623731
 10
234.7798930503234
 20
518.3363325789169
 42
0.4142135623731
 10
234.2798930503234
 20
517.8363325789169
 42
0.4142135623731
 10
234.7798930503234
 20
517.336332578917
 42
0.4142135623731
  0
LWPOLYLINE
  5
35A
330
1F
100
AcDbEntity
  8
C-4
  6
Continuous
 62
     7
370
     9
100
AcDbPolyline
 90
        4
 70
     1
 43
1.0
 10
280.2798930503234
 20
517.8363325789169
 42
0.4142135623731
 10
279.7798930503234
 20
518.3363325789169
 42
0.4142135623731
 10
279.2798930503234
 20
517.8363325789169
 42
0.4142135623731
 10
279.7798930503234
 20
517.336332578917
 42
0.4142135623731
  0
LWPOLYLINE
  5
35B
330
1F
100
AcDbEntity
  8
C-4
  6
Continuous
 62
     7
370
     9
100
AcDbPolyline
 90
        4
 70
     1
 43
1.0
 10
310.2795268393861
 20
517.8363325789169
 42
0.4142135623731
 10
309.7795268393861
 20
518.3363325789169
 42
0.4142135623731
 10
309.2795268393861
 20
517.8363325789169
 42
0.4142135623731
 10
309.7795268393861
 20
517.336332578917
 42
0.4142135623731
  0
LWPOLYLINE
  5
35C
330
1F
100
AcDbEntity
  8
C-4
  6
Continuous
 62
     7
370
     9
100
AcDbPolyline
 90
        4
 70
     1
 43
1.0
 10
355.2799540854794
 20
517.8363325789169
 42
0.4142135623731
 10
354.7799540854794
 20
518.3363325789169
 42
0.4142135623731
 10
354.2799540854794
 20
517.8363325789169
 42
0.4142135623731
 10
354.7799540854794
 20
517.336332578917
 42
0.4142135623731
  0
LWPOLYLINE
  5
35D
330
1F
100
AcDbEntity
  8
C-4
  6
Continuous
 62
     7
370
     9
100
AcDbPolyline
 90
        4
 70
     1
 43
1.0
 10
160.2793437339169
 20
571.7854597761826
 42
0.4142135623731
 10
159.7793437339169
 20
572.2854597761826
 42
0.4142135623731
 10
159.2793437339169
 20
571.7854597761826
 42
0.4142135623731
 10
159.7793437339169
 20
571.2854597761826
 42
0.4142135623731
  0
LWPOLYLINE
  5
35E
330
1F
100
AcDbEntity
  8
C-4
  6
Continuous
 62
     7
370
     9
100
AcDbPolyline
 90
        4
 70
     1
 43
1.0
 10
235.2798930503234
 20
571.7854597761826
 42
0.4142135623731
 10
234.7798930503234
 20
572.2854597761826
 42
0.4142135623731
 10
234.2798930503234
 20
571.7854597761826
 42
0.4142135623731
 10
234.7798930503234
 20
571.2854597761826
 42
0.4142135623731
  0
LWPOLYLINE
  5
35F
330
1F
100
AcDbEntity
  8
C-4
  6
Continuous
 62
     7
370
     9
100
AcDbPolyline
 90
        4
 70
     1
 43
1.0
 10
310.2795268393861
 20
571.7854597761826
 42
0.4142135623731
 10
309.7795268393861
 20
572.2854597761826
 42
0.4142135623731
 10
309.2795268393861
 20
571.7854597761826
 42
0.4142135623731
 10
309.7795268393861
 20
571.2854597761826
 42
0.4142135623731
  0
LWPOLYLINE
  5
360
330
1F
100
AcDbEntity
  8
C-4
  6
Continuous
 62
     7
370
     9
100
AcDbPolyline
 90
        4
 70
     1
 43
1.0
 10
448.032700667511
 20
384.4719832136826
 42
0.4142135623731
 10
447.532700667511
 20
384.9719832136826
 42
0.4142135623731
 10
447.032700667511
 20
384.4719832136826
 42
0.4142135623731
 10
447.532700667511
 20
383.9719832136826
 42
0.4142135623731
  0
LWPOLYLINE
  5
361
330
1F
100
AcDbEntity
  8
C-4
  6
Continuous
 62
     7
370
     9
100
AcDbPolyline
 90
        4
 70
     1
 43
1.0
 10
448.032700667511
 20
459.4725783064561
 42
0.4142135623731
 10
447.532700667511
 20
459.9725783064561
 42
0.4142135623731
 10
447.032700667511
 20
459.4725783064561
 42
0.4142135623731
 10
447.532700667511
 20
458.9725783064562
 42
0.4142135623731
  0
TEXT
  5
362
330
1F
100
AcDbEntity
  8
C-5
  6
Continuous
 62
     2
370
     9
100
AcDbText
 10
-644.3645447395937
 20
285.0057124235824
 30
0.0
 40
30.48
  1
平面詳細図　Ｓ＝１：１０
 41
1.114583333333333
  7
ＭＳ ゴシック
100
AcDbText
  0
TEXT
  5
363
330
1F
100
AcDbEntity
  8
C-5
  6
Continuous
 62
     2
370
     9
100
AcDbText
 10
-275.6242817543642
 20
542.5761555769637
 30
0.0
 40
30.48
  1
Ａ
 41
0.9999999999999998
  7
ＭＳ ゴシック
100
AcDbText
  0
TEXT
  5
364
330
1F
100
AcDbEntity
  8
C-5
  6
Continuous
 62
     2
370
     9
100
AcDbText
 10
76.56138719094827
 20
288.4759759047225
 30
0.0
 40
30.48
  1
Ａ断面図　Ｓ＝１：２
 41
1.1125
  7
ＭＳ ゴシック
100
AcDbText
  0
TEXT
  5
365
330
1F
100
AcDbEntity
  8
C-5
  6
Continuous
 62
     7
370
     9
100
AcDbText
 10
-84.36341749655185
 20
663.7357051375108
 30
0.0
 40
22.86
  1
※デルタパターンの配列は一定ではありません。
 41
1.159090909090909
  7
ＭＳ ゴシック
100
AcDbText
  0
TEXT
  5
366
330
1F
100
AcDbEntity
  8
C-5
  6
Continuous
 62
     7
370
     9
100
AcDbText
 10
75.55803025735486
 20
721.5732905867296
 30
0.0
 40
22.86
  1
メインバー表面　Ｓ＝１：１
 41
1.153846153846154
  7
ＭＳ ゴシック
100
AcDbText
  0
TEXT
  5
367
330
1F
100
AcDbEntity
  8
C-5
  6
Continuous
 62
     7
370
     9
100
AcDbText
 10
382.8121196128234
 20
1104.563250303527
 30
0.0
 40
22.86
  1
デルタパターン
 41
1.142857142857143
  7
ＭＳ ゴシック
100
AcDbText
  0
TEXT
  5
368
330
1F
100
AcDbEntity
  8
C-4
  6
Continuous
 62
     2
370
     9
100
AcDbText
 10
147.0833744956357
 20
775.0163250081663
 30
0.0
 40
30.48
  1
1.5
 50
90.00000250447673
 41
1.083333333333334
  7
ＭＳ ゴシック
100
AcDbText
  0
TEXT
  5
369
330
1F
100
AcDbEntity
  8
C-4
  6
Continuous
 62
     2
370
     9
100
AcDbText
 10
147.0833744956357
 20
884.3004131429316
 30
0.0
 40
30.48
  1
10
 50
90.00000250447789
 41
1.062500000000001
  7
ＭＳ ゴシック
100
AcDbText
  0
TEXT
  5
36A
330
1F
100
AcDbEntity
  8
C-4
  6
Continuous
 62
     2
370
     9
100
AcDbText
 10
147.0833744956357
 20
950.5510234944942
 30
0.0
 40
30.48
  1
5.5
 50
90.00000250447673
 41
1.083333333333334
  7
ＭＳ ゴシック
100
AcDbText
  0
TEXT
  5
36B
330
1F
100
AcDbEntity
  8
C-4
  6
Continuous
 62
     2
370
     9
100
AcDbText
 10
147.0833744956357
 20
1039.300413142932
 30
0.0
 40
30.48
  1
10
 50
90.00000250447789
 41
1.062500000000001
  7
ＭＳ ゴシック
100
AcDbText
  0
TEXT
  5
36C
330
1F
100
AcDbEntity
  8
C-4
  6
Continuous
 62
     2
370
     9
100
AcDbText
 10
147.0833744956357
 20
1129.633237849963
 30
0.0
 40
30.48
  1
1.5
 50
90.00000250447673
 41
1.083333333333334
  7
ＭＳ ゴシック
100
AcDbText
  0
TEXT
  5
36D
330
1F
100
AcDbEntity
  8
C-4
  6
Continuous
 62
     2
370
     9
100
AcDbText
 10
287.8639384604799
 20
1252.080550108214
 30
0.0
 40
30.48
  1
9
 41
0.9999999999999998
  7
ＭＳ ゴシック
100
AcDbText
  0
TEXT
  5
36E
330
1F
100
AcDbEntity
  8
C-4
  6
Continuous
 62
     2
370
     9
100
AcDbText
 10
410.1851219794149
 20
983.9648904397679
 30
0.0
 40
30.48
  1
0.5
 50
75.96369055253467
 41
1.083333333333333
  7
ＭＳ ゴシック
100
AcDbText
  0
TEXT
  5
36F
330
1F
100
AcDbEntity
  8
C-4
  6
Continuous
 62
     2
370
     9
100
AcDbText
 10
172.2795268393861
 20
528.4765919783309
 30
0.0
 40
30.48
  1
9
 41
0.9999999999999998
  7
ＭＳ ゴシック
100
AcDbText
  0
TEXT
  5
370
330
1F
100
AcDbEntity
  8
C-4
  6
Continuous
 62
     2
370
     9
100
AcDbText
 10
209.7795268393861
 20
482.6893300154405
 30
0.0
 40
30.48
  1
6
 41
0.9999999999999998
  7
ＭＳ ゴシック
100
AcDbText
  0
TEXT
  5
371
330
1F
100
AcDbEntity
  8
C-4
  6
Continuous
 62
     2
370
     9
100
AcDbText
 10
247.2795878745421
 20
528.4765919783309
 30
0.0
 40
30.48
  1
9
 41
0.9999999999999998
  7
ＭＳ ゴシック
100
AcDbText
  0
TEXT
  5
372
330
1F
100
AcDbEntity
  8
C-4
  6
Continuous
 62
     2
370
     9
100
AcDbText
 10
284.7796489096982
 20
482.6893300154405
 30
0.0
 40
30.48
  1
6
 41
0.9999999999999998
  7
ＭＳ ゴシック
100
AcDbText
  0
TEXT
  5
373
330
1F
100
AcDbEntity
  8
C-4
  6
Continuous
 62
     2
370
     9
100
AcDbText
 10
322.2797099448547
 20
528.4765919783309
 30
0.0
 40
30.48
  1
9
 41
0.9999999999999998
  7
ＭＳ ゴシック
100
AcDbText
  0
TEXT
  5
374
330
1F
100
AcDbEntity
  8
C-4
  6
Continuous
 62
     2
370
     9
100
AcDbText
 10
176.0292216636049
 20
582.4257039168076
 30
0.0
 40
30.48
  1
15
 41
1.0625
  7
ＭＳ ゴシック
100
AcDbText
  0
TEXT
  5
375
330
1F
100
AcDbEntity
  8
C-4
  6
Continuous
 62
     2
370
     9
100
AcDbText
 10
251.0292826987609
 20
582.4257039168076
 30
0.0
 40
30.48
  1
15
 41
1.0625
  7
ＭＳ ゴシック
100
AcDbText
  0
TEXT
  5
376
330
1F
100
AcDbEntity
  8
C-4
  6
Continuous
 62
     2
370
     9
100
AcDbText
 10
436.8929448081357
 20
400.722364436877
 30
0.0
 40
30.48
  1
15
 50
90.00000250447789
 41
1.062500000000001
  7
ＭＳ ゴシック
100
AcDbText
  0
TEXT
  5
377
330
1F
100
AcDbEntity
  8
C-4
  6
Continuous
 62
     2
370
   211
100
AcDbText
 10
-409.364416947235
 20
881.5054160692888
 30
0.0
 40
30.48
  1
300
 41
1.083333333333324
  7
ＭＳ ゴシック
100
AcDbText
  0
LINE
  5
378
330
1F
100
AcDbEntity
  8
C-4
  6
Continuous
 62
     7
370
     9
100
AcDbLine
 10
-226.864210953583
 20
869.8654158308702
 30
0.0
 11
-201.8643330238956
 21
869.8654158308702
 31
0.0
  0
LWPOLYLINE
  5
379
330
1F
100
AcDbEntity
  8
C-4
  6
Continuous
 62
     7
370
     9
100
AcDbPolyline
 90
        4
 70
     1
 43
1.0
 10
-226.364210953583
 20
869.8654158308702
 42
0.4142135623731
 10
-226.864210953583
 20
870.3654158308701
 42
0.4142135623731
 10
-227.364210953583
 20
869.8654158308702
 42
0.4142135623731
 10
-226.864210953583
 20
869.3654158308702
 42
0.4142135623731
  0
LWPOLYLINE
  5
37A
330
1F
100
AcDbEntity
  8
C-4
  6
Continuous
 62
     7
370
     9
100
AcDbPolyline
 90
        4
 70
     1
 43
1.0
 10
-201.3643330238956
 20
869.8654158308702
 42
0.4142135623731
 10
-201.8643330238956
 20
870.3654158308701
 42
0.4142135623731
 10
-202.3643330238956
 20
869.8654158308702
 42
0.4142135623731
 10
-201.8643330238956
 20
869.3654158308702
 42
0.4142135623731
  0
TEXT
  5
37B
330
1F
100
AcDbEntity
  8
C-4
  6
Continuous
 62
     2
370
   211
100
AcDbText
 10
-409.3644093178409
 20
936.5049277880388
 30
0.0
 40
30.48
  1
350
 41
1.083333333333333
  7
ＭＳ ゴシック
100
AcDbText
  0
TEXT
  5
37C
330
1F
100
AcDbEntity
  8
C-4
  6
Continuous
 62
     2
370
   211
100
AcDbText
 10
-545.6024048956181
 20
881.5054160692888
 30
0.0
 40
30.48
  1
25
 41
1.0625
  7
ＭＳ ゴシック
100
AcDbText
  0
TEXT
  5
37D
330
1F
100
AcDbEntity
  8
C-4
  6
Continuous
 62
     2
370
   211
100
AcDbText
 10
-250.0648502064308
 20
881.5054160692888
 30
0.0
 40
30.48
  1
25
 41
1.0625
  7
ＭＳ ゴシック
100
AcDbText
  0
TEXT
  5
37E
330
1F
100
AcDbEntity
  8
C-4
  6
Continuous
 62
     2
370
   211
100
AcDbText
 10
-540.2571940845911
 20
936.5049277880388
 30
0.0
 40
30.48
  1
1
 41
0.9999999999999998
  7
ＭＳ ゴシック
100
AcDbText
  0
TEXT
  5
37F
330
1F
100
AcDbEntity
  8
C-4
  6
Continuous
 62
     2
370
   211
100
AcDbText
 10
-233.8878901749791
 20
936.5049277880388
 30
0.0
 40
30.48
  1
1
 41
0.9999999999999998
  7
ＭＳ ゴシック
100
AcDbText
  0
LINE
  5
380
330
1F
100
AcDbEntity
  8
C-1
  6
Continuous
 62
     2
370
     9
100
AcDbLine
 10
-557.8648365639344
 20
795.8654158308701
 30
0.0
 11
-557.8648365639344
 21
433.8655379011826
 31
0.0
  0
LINE
  5
381
330
1F
100
AcDbEntity
  8
C-1
  6
Continuous
 62
     2
370
     9
100
AcDbLine
 10
-557.8648365639344
 20
433.8655379011826
 30
0.0
 11
-195.864485611786
 21
433.8655379011826
 31
0.0
  0
LINE
  5
382
330
1F
100
AcDbEntity
  8
C-1
  6
Continuous
 62
     2
370
     9
100
AcDbLine
 10
-195.864485611786
 20
795.8654158308701
 30
0.0
 11
-557.8648365639344
 21
795.8654158308701
 31
0.0
  0
LINE
  5
383
330
1F
100
AcDbEntity
  8
C-1
  6
Continuous
 62
     2
370
     9
100
AcDbLine
 10
-195.864485611786
 20
433.8655379011826
 30
0.0
 11
-195.864485611786
 21
795.8654158308701
 31
0.0
  0
LINE
  5
384
330
1F
100
AcDbEntity
  8
C-4
  6
Continuous
 62
     7
370
     9
100
AcDbLine
 10
-195.864485611786
 20
809.8656599714951
 30
0.0
 11
-195.864485611786
 21
982.8649885847765
 31
0.0
  0
LINE
  5
385
330
1F
100
AcDbEntity
  8
C-4
  6
Continuous
 62
     7
370
     9
100
AcDbLine
 10
-195.864485611786
 20
809.8656599714951
 30
0.0
 11
-195.864485611786
 21
927.8649885847765
 31
0.0
  0
LWPOLYLINE
  5
386
330
1F
100
AcDbEntity
  8
C-4
  6
Continuous
 62
     7
370
     9
100
AcDbPolyline
 90
        4
 70
     1
 43
1.0
 10
-195.364485611786
 20
979.8649275496202
 42
0.4142135623731
 10
-195.864485611786
 20
980.3649275496202
 42
0.4142135623731
 10
-196.364485611786
 20
979.8649275496202
 42
0.4142135623731
 10
-195.864485611786
 20
979.3649275496203
 42
0.4142135623731
  0
LWPOLYLINE
  5
387
330
1F
100
AcDbEntity
  8
C-4
  6
Continuous
 62
     7
370
     9
100
AcDbPolyline
 90
        4
 70
     1
 43
1.0
 10
-195.364485611786
 20
924.8649275496202
 42
0.4142135623731
 10
-195.864485611786
 20
925.3649275496202
 42
0.4142135623731
 10
-196.364485611786
 20
924.8649275496202
 42
0.4142135623731
 10
-195.864485611786
 20
924.3649275496203
 42
0.4142135623731
  0
LINE
  5
388
330
1F
100
AcDbEntity
  8
C-4
  6
Continuous
 62
     7
370
     9
100
AcDbLine
 10
-195.864485611786
 20
924.8649275496202
 30
0.0
 11
-151.1132649086608
 21
924.8649275496202
 31
0.0
  0
LINE
  5
389
330
1F
100
AcDbEntity
  8
C-4
  6
Continuous
 62
     7
370
     9
100
AcDbLine
 10
-552.8648365639344
 20
924.8649275496202
 30
0.0
 11
-557.8648365639344
 21
924.8649275496202
 31
0.0
  0
TEXT
  5
38A
330
1F
100
AcDbEntity
  8
C-4
  6
Continuous
 62
     2
370
   211
100
AcDbText
 10
-585.0234154366149
 20
936.5049277880388
 30
0.0
 40
30.48
  1
5
 41
0.9999999999999998
  7
ＭＳ ゴシック
100
AcDbText
  0
LINE
  5
38B
330
1F
100
AcDbEntity
  8
C-4
  6
Continuous
 62
     7
370
     9
100
AcDbLine
 10
-557.8648365639344
 20
979.8649275496202
 30
0.0
 11
-195.864485611786
 21
979.8649275496202
 31
0.0
  0
TEXT
  5
38C
330
1F
100
AcDbEntity
  8
C-4
  6
Continuous
 62
     2
370
   211
100
AcDbText
 10
-409.3646610878602
 20
991.5049277880388
 30
0.0
 40
30.48
  1
362
 41
1.083333333333333
  7
ＭＳ ゴシック
100
AcDbText
  0
LINE
  5
38D
330
1F
100
AcDbEntity
  8
C-4
  6
Continuous
 62
     7
370
     9
100
AcDbLine
 10
-200.864485611786
 20
924.8649275496202
 30
0.0
 11
-195.864485611786
 21
924.8649275496202
 31
0.0
  0
TEXT
  5
38E
330
1F
100
AcDbEntity
  8
C-4
  6
Continuous
 62
     2
370
   211
100
AcDbText
 10
-186.9888600014343
 20
936.5049277880388
 30
0.0
 40
30.48
  1
5
 41
0.9999999999999998
  7
ＭＳ ゴシック
100
AcDbText
  0
TEXT
  5
38F
330
1F
100
AcDbEntity
  8
F-5
  6
Continuous
 62
     2
370
     9
100
AcDbText
 10
-731.5901402992006
 20
-1326.310621578057
 30
0.0
 40
30.48
  1
ステンレス製　細目ノンスリップタイプ（デルタ模様）グレーチング（すきま6mm）
 41
0.7743333333333332
  7
ＭＳ ゴシック
100
AcDbText
  0
TEXT
  5
390
330
1F
100
AcDbEntity
  8
F-5
  6
Continuous
 62
     2
370
     9
100
AcDbText
 10
-824.5901402992004
 20
-1373.238621242842
 30
0.0
 40
30.48
  1
　　　　　　　　　　　　　　　　ＤＱ－Ｗ－１５　３５０×３５０×１５＋ＳＦ１５Ｂ
 41
0.7743749999999999
  7
ＭＳ ゴシック
100
AcDbText
  0
LINE
  5
391
330
1F
100
AcDbEntity
  8
D-4
  6
Continuous
 62
     7
370
     9
100
AcDbLine
 10
-1242.052708706268
 20
-209.5529900138015
 30
0.0
 11
-669.3849287837826
 21
-209.5529900138015
 31
0.0
  0
LINE
  5
392
330
1F
100
AcDbEntity
  8
D-4
  6
Continuous
 62
     7
370
     9
100
AcDbLine
 10
-669.3849287837826
 20
-315.0164888445968
 30
0.0
 11
-669.3849287837826
 21
-206.5524254386062
 31
0.0
  0
LINE
  5
393
330
1F
100
AcDbEntity
  8
D-4
  6
Continuous
 62
     7
370
     9
100
AcDbLine
 10
-669.3849287837826
 20
-209.5529900138015
 30
0.0
 11
-544.3850909084164
 21
-209.5529900138015
 31
0.0
  0
LINE
  5
394
330
1F
100
AcDbEntity
  8
D-4
  6
Continuous
 62
     7
370
     9
100
AcDbLine
 10
-544.3850909084164
 20
-315.0164888445968
 30
0.0
 11
-544.3850909084164
 21
-97.80099492713163
 31
0.0
  0
LINE
  5
395
330
1F
100
AcDbEntity
  8
D-4
  6
Continuous
 62
     7
370
     9
100
AcDbLine
 10
-539.3848203033291
 20
-315.0164888445968
 30
0.0
 11
-539.3848203033291
 21
-97.80099492713163
 31
0.0
  0
LINE
  5
396
330
1F
100
AcDbEntity
  8
D-4
  6
Continuous
 62
     7
370
     9
100
AcDbLine
 10
-514.3859420627438
 20
-315.0164888445968
 30
0.0
 11
-514.3859420627438
 21
12.89566416100314
 31
0.0
  0
LINE
  5
397
330
1F
100
AcDbEntity
  8
D-4
  6
Continuous
 62
     7
370
     9
100
AcDbLine
 10
-669.3849287837826
 20
-890.5549965445632
 30
0.0
 11
-269.3840609401546
 21
-890.5549965445632
 31
0.0
  0
LINE
  5
398
330
1F
100
AcDbEntity
  8
D-4
  6
Continuous
 62
     7
370
     9
100
AcDbLine
 10
-269.3840609401546
 20
-650.3457985465163
 30
0.0
 11
-269.3840609401546
 21
-893.5545692984695
 31
0.0
  0
LINE
  5
399
330
1F
100
AcDbEntity
  8
D-4
  6
Continuous
 62
     7
370
     9
100
AcDbLine
 10
-669.3849287837826
 20
-736.0906181876296
 30
0.0
 11
-519.3857179492794
 21
-736.0906181876296
 31
0.0
  0
LINE
  5
39A
330
1F
100
AcDbEntity
  8
D-4
  6
Continuous
 62
     7
370
     9
100
AcDbLine
 10
2.300280490509472
 20
-580.4718170706863
 30
0.0
 11
2.300280490509472
 21
-330.4721413199539
 31
0.0
  0
LINE
  5
39B
330
1F
100
AcDbEntity
  8
D-4
  6
Continuous
 62
     7
370
     9
100
AcDbLine
 10
-93.35489376486163
 20
-330.4721413199539
 30
0.0
 11
5.299853244415722
 21
-330.4721413199539
 31
0.0
  0
LINE
  5
39C
330
1F
100
AcDbEntity
  8
D-6
  6
Continuous
 62
     6
370
     9
100
AcDbLine
 10
-519.3857179492794
 20
-580.4718170706863
 30
0.0
 11
-519.3857179492794
 21
-830.4714928214187
 31
0.0
  0
LINE
  5
39D
330
1F
100
AcDbEntity
  8
D-6
  6
JWW_DASHED3
 62
     6
370
     9
100
AcDbLine
 10
-425.8838282436215
 20
-707.9717979971999
 30
0.0
 11
-425.8838282436215
 21
-580.4718170706863
 31
0.0
  0
LINE
  5
39E
330
1F
100
AcDbEntity
  8
D-6
  6
JWW_DASHED3
 62
     6
370
     9
100
AcDbLine
 10
-380.8833704799496
 20
-580.4718170706863
 30
0.0
 11
-380.8833704799496
 21
-707.9717979971999
 31
0.0
  0
LINE
  5
39F
330
1F
100
AcDbEntity
  8
D-6
  6
Continuous
 62
     6
370
     9
100
AcDbLine
 10
-269.3850527614437
 20
-480.4723415915603
 30
0.0
 11
-104.3840609401546
 21
-480.4723415915603
 31
0.0
  0
LINE
  5
3A0
330
1F
100
AcDbEntity
  8
D-6
  6
Continuous
 62
     6
370
     9
100
AcDbLine
 10
-269.3850527614437
 20
-480.4723415915603
 30
0.0
 11
-269.3850527614437
 21
-580.4718170706863
 31
0.0
  0
LINE
  5
3A1
330
1F
100
AcDbEntity
  8
D-4
  6
Continuous
 62
     7
370
     9
100
AcDbLine
 10
-213.6061678737483
 20
-580.4718170706863
 30
0.0
 11
5.299853244415722
 21
-580.4718170706863
 31
0.0
  0
LINE
  5
3A2
330
1F
100
AcDbEntity
  8
D-6
  6
Continuous
 62
     6
370
     9
100
AcDbLine
 10
-519.3857179492794
 20
-580.4718170706863
 30
0.0
 11
-269.3850527614437
 21
-580.4718170706863
 31
0.0
  0
LINE
  5
3A3
330
1F
100
AcDbEntity
  8
D-6
  6
Continuous
 62
     6
370
     9
100
AcDbLine
 10
-425.8838282436215
 20
-382.9720125739212
 30
0.0
 11
-380.8833704799496
 21
-382.9720125739212
 31
0.0
  0
LINE
  5
3A4
330
1F
100
AcDbEntity
  8
D-6
  6
JWW_CENTER2
 62
     6
370
     9
100
AcDbLine
 10
-403.3835993617855
 20
-378.8928185050125
 30
0.0
 11
-403.3835993617855
 21
-707.9717979971999
 31
0.0
  0
LINE
  5
3A5
330
1F
100
AcDbEntity
  8
D-4
  6
Continuous
 62
     7
370
     9
100
AcDbLine
 10
-514.3859420627438
 20
-468.439384514534
 30
0.0
 11
-514.3859420627438
 21
-539.781929070198
 31
0.0
  0
LINE
  5
3A6
330
1F
100
AcDbEntity
  8
D-6
  6
Continuous
 62
     6
370
     9
100
AcDbLine
 10
-425.8838282436215
 20
-415.4717884604568
 30
0.0
 11
-425.8838282436215
 21
-382.9720125739212
 31
0.0
  0
LINE
  5
3A7
330
1F
100
AcDbEntity
  8
D-6
  6
Continuous
 62
     6
370
     9
100
AcDbLine
 10
-380.8833704799496
 20
-415.4717884604568
 30
0.0
 11
-380.8833704799496
 21
-382.9720125739212
 31
0.0
  0
LINE
  5
3A8
330
1F
100
AcDbEntity
  8
D-6
  6
Continuous
 62
     6
370
     9
100
AcDbLine
 10
-425.8838282436215
 20
-580.4718170706863
 30
0.0
 11
-425.8838282436215
 21
-465.4715309683914
 31
0.0
  0
LINE
  5
3A9
330
1F
100
AcDbEntity
  8
D-6
  6
Continuous
 62
     6
370
     9
100
AcDbLine
 10
-380.8833704799496
 20
-580.4718170706863
 30
0.0
 11
-380.8833704799496
 21
-465.4715309683914
 31
0.0
  0
LINE
  5
3AA
330
1F
100
AcDbEntity
  8
D-4
  6
Continuous
 62
     7
370
     9
100
AcDbLine
 10
-814.8674403041683
 20
-455.4719791953201
 30
0.0
 11
-814.8674403041683
 21
-330.4721413199539
 31
0.0
  0
LINE
  5
3AB
330
1F
100
AcDbEntity
  8
D-4
  6
Continuous
 62
     7
370
     9
100
AcDbLine
 10
-542.5300557822071
 20
-330.4721413199539
 30
0.0
 11
-817.8680048793636
 21
-330.4721413199539
 31
0.0
  0
LINE
  5
3AC
330
1F
100
AcDbEntity
  8
D-4
  6
Continuous
 62
     7
370
     9
100
AcDbLine
 10
-1242.052708706268
 20
9.895099585807827
 30
0.0
 11
-514.3859420627438
 21
9.895099585807827
 31
0.0
  0
LINE
  5
3AD
330
1F
100
AcDbEntity
  8
D-4
  6
Continuous
 62
     7
370
     9
100
AcDbLine
 10
-1242.052708706268
 20
-100.8005676810379
 30
0.0
 11
-478.2994662135922
 21
-100.8005676810379
 31
0.0
  0
LINE
  5
3AE
330
1F
100
AcDbEntity
  8
D-4
  6
Continuous
 62
     7
370
     9
100
AcDbLine
 10
-514.3859420627438
 20
-536.781383568489
 30
0.0
 11
-369.3855105251156
 21
-536.781383568489
 31
0.0
  0
LINE
  5
3AF
330
1F
100
AcDbEntity
  8
D-5
  6
Continuous
 62
     2
370
     9
100
AcDbLine
 10
-1011.380253872284
 20
-1026.414295250618
 30
0.0
 11
-1011.380253872284
 21
-961.4147148673171
 31
0.0
  0
LINE
  5
3B0
330
1F
100
AcDbEntity
  8
D-5
  6
Continuous
 62
     2
370
     9
100
AcDbLine
 10
-1011.380253872284
 20
-961.4147148673171
 30
0.0
 11
-436.3798342555843
 21
-961.4147148673171
 31
0.0
  0
LINE
  5
3B1
330
1F
100
AcDbEntity
  8
D-5
  6
Continuous
 62
     2
370
     9
100
AcDbLine
 10
-436.3798342555843
 20
-961.4147148673171
 30
0.0
 11
-436.3798342555843
 21
-1026.414295250618
 31
0.0
  0
LINE
  5
3B2
330
1F
100
AcDbEntity
  8
D-5
  6
Continuous
 62
     2
370
     9
100
AcDbLine
 10
-436.3798342555843
 20
-1026.414295250618
 30
0.0
 11
-1011.380253872284
 21
-1026.414295250618
 31
0.0
  0
LINE
  5
3B3
330
1F
100
AcDbEntity
  8
D-4
  6
Continuous
 62
     7
370
     9
100
AcDbLine
 10
-669.3849287837826
 20
-855.4718361441726
 30
0.0
 11
-669.3849287837826
 21
-893.5545692984695
 31
0.0
  0
LINE
  5
3B4
330
1F
100
AcDbEntity
  8
D-5
  6
Continuous
 62
     7
370
     9
100
AcDbLine
 10
-330.0403414577328
 20
-222.4232826773758
 30
0.0
 11
-70.65748318136554
 21
-222.4232826773758
 31
0.0
  0
LINE
  5
3B5
330
1F
100
AcDbEntity
  8
D-5
  6
Continuous
 62
     7
370
     9
100
AcDbLine
 10
-521.3279567569576
 20
-330.4721413199539
 30
0.0
 11
-507.51726015509
 21
-309.6337161604995
 31
0.0
  0
LINE
  5
3B6
330
1F
100
AcDbEntity
  8
D-5
  6
Continuous
 62
     7
370
     9
100
AcDbLine
 10
-521.3279567569576
 20
-330.4721413199539
 30
0.0
 11
-502.5942812770687
 21
-313.9180336539383
 31
0.0
  0
LINE
  5
3B7
330
1F
100
AcDbEntity
  8
D-5
  6
Continuous
 62
     7
370
     9
100
AcDbLine
 10
-379.5356951564632
 20
-167.5610123221512
 30
0.0
 11
-521.3279567569576
 21
-330.4721413199539
 31
0.0
  0
LINE
  5
3B8
330
1F
100
AcDbEntity
  8
D-5
  6
Continuous
 62
     7
370
     9
100
AcDbLine
 10
-330.0403414577328
 20
-222.4232826773758
 30
0.0
 11
-544.868668420621
 21
-469.2489777152176
 31
0.0
  0
LINE
  5
3B9
330
1F
100
AcDbEntity
  8
D-5
  6
Continuous
 62
     7
370
     9
100
AcDbLine
 10
-379.5356951564632
 20
-167.5610123221512
 30
0.0
 11
71.25467197000165
 21
-167.5610123221512
 31
0.0
  0
LINE
  5
3BA
330
1F
100
AcDbEntity
  8
D-6
  6
Continuous
 62
     6
370
     9
100
AcDbLine
 10
-269.3850527614437
 20
-527.8119049613113
 30
0.0
 11
-222.0450030177913
 21
-480.4718456809158
 31
0.0
  0
LINE
  5
3BB
330
1F
100
AcDbEntity
  8
D-6
  6
Continuous
 62
     6
370
     9
100
AcDbLine
 10
-519.3847285121761
 20
-777.8095970694656
 30
0.0
 11
-322.0454607814632
 21
-580.4718170706863
 31
0.0
  0
LINE
  5
3BC
330
1F
100
AcDbEntity
  8
D-6
  6
Continuous
 62
     6
370
     9
100
AcDbLine
 10
-519.3847285121761
 20
-791.9502602164382
 30
0.0
 11
-307.9047785610042
 21
-580.4718170706863
 31
0.0
  0
LINE
  5
3BD
330
1F
100
AcDbEntity
  8
D-6
  6
Continuous
 62
     6
370
     9
100
AcDbLine
 10
-269.3850527614437
 20
-541.9525871817702
 30
0.0
 11
-207.904301723846
 21
-480.4718456809158
 31
0.0
  0
LINE
  5
3BE
330
1F
100
AcDbEntity
  8
D-6
  6
Continuous
 62
     6
370
     9
100
AcDbLine
 10
-519.3847285121761
 20
-806.0909615103835
 30
0.0
 11
-293.7640963405452
 21
-580.4718170706863
 31
0.0
  0
LINE
  5
3BF
330
1F
100
AcDbEntity
  8
D-6
  6
Continuous
 62
     6
370
     9
100
AcDbLine
 10
-269.3850527614437
 20
-556.0932694022292
 30
0.0
 11
-193.7636385768733
 21
-480.4718456809158
 31
0.0
  0
LINE
  5
3C0
330
1F
100
AcDbEntity
  8
D-6
  6
Continuous
 62
     6
370
     9
100
AcDbLine
 10
-180.2125750392757
 20
-830.4714928214187
 30
0.0
 11
-104.3840609401546
 21
-754.6434746329421
 31
0.0
  0
LINE
  5
3C1
330
1F
100
AcDbEntity
  8
D-6
  6
Continuous
 62
     6
370
     9
100
AcDbLine
 10
-194.3532381862483
 20
-830.4714928214187
 30
0.0
 11
-104.3840609401546
 21
-740.5027733389968
 31
0.0
  0
LINE
  5
3C2
330
1F
100
AcDbEntity
  8
D-6
  6
Continuous
 62
     6
370
     9
100
AcDbLine
 10
-166.0718737453304
 20
-830.4714928214187
 30
0.0
 11
-104.3840609401546
 21
-768.7841377799148
 31
0.0
  0
LINE
  5
3C3
330
1F
100
AcDbEntity
  8
D-0
  6
Continuous
 62
     7
370
     9
100
AcDbLine
 10
-242.5395594447933
 20
-351.4215527121658
 30
0.0
 11
-242.5395594447933
 21
-349.9212728087539
 31
0.0
  0
LINE
  5
3C4
330
1F
100
AcDbEntity
  8
D-0
  6
Continuous
 62
     7
370
     9
100
AcDbLine
 10
-242.5395594447933
 20
-349.9212728087539
 30
0.0
 11
-241.0397921413265
 21
-349.9212728087539
 31
0.0
  0
LINE
  5
3C5
330
1F
100
AcDbEntity
  8
D-0
  6
Continuous
 62
     7
370
     9
100
AcDbLine
 10
-241.0397921413265
 20
-349.9212728087539
 30
0.0
 11
-241.0397921413265
 21
-351.4215527121658
 31
0.0
  0
LINE
  5
3C6
330
1F
100
AcDbEntity
  8
D-0
  6
Continuous
 62
     7
370
     9
100
AcDbLine
 10
-241.0397921413265
 20
-351.4215527121658
 30
0.0
 11
-242.5395594447933
 21
-351.4215527121658
 31
0.0
  0
LINE
  5
3C7
330
1F
100
AcDbEntity
  8
D-0
  6
Continuous
 62
     7
370
     9
100
AcDbLine
 10
-191.7837344020687
 20
-354.1287932936783
 30
0.0
 11
-191.7837344020687
 21
-352.6285133902664
 31
0.0
  0
LINE
  5
3C8
330
1F
100
AcDbEntity
  8
D-0
  6
Continuous
 62
     7
370
     9
100
AcDbLine
 10
-191.7837344020687
 20
-352.6285133902664
 30
0.0
 11
-190.283452114471
 21
-352.6285133902664
 31
0.0
  0
LINE
  5
3C9
330
1F
100
AcDbEntity
  8
D-0
  6
Continuous
 62
     7
370
     9
100
AcDbLine
 10
-190.283452114471
 20
-352.6285133902664
 30
0.0
 11
-190.283452114471
 21
-354.1287932936783
 31
0.0
  0
LINE
  5
3CA
330
1F
100
AcDbEntity
  8
D-0
  6
Continuous
 62
     7
370
     9
100
AcDbLine
 10
-190.283452114471
 20
-354.1287932936783
 30
0.0
 11
-191.7837344020687
 21
-354.1287932936783
 31
0.0
  0
LINE
  5
3CB
330
1F
100
AcDbEntity
  8
D-0
  6
Continuous
 62
     7
370
     9
100
AcDbLine
 10
-126.8158923000179
 20
-352.0983634535904
 30
0.0
 11
-126.8158923000179
 21
-350.5980835501785
 31
0.0
  0
LINE
  5
3CC
330
1F
100
AcDbEntity
  8
D-0
  6
Continuous
 62
     7
370
     9
100
AcDbLine
 10
-126.8158923000179
 20
-350.5980835501785
 30
0.0
 11
-125.3161059230648
 21
-350.5980835501785
 31
0.0
  0
LINE
  5
3CD
330
1F
100
AcDbEntity
  8
D-0
  6
Continuous
 62
     7
370
     9
100
AcDbLine
 10
-125.3161059230648
 20
-350.5980835501785
 30
0.0
 11
-125.3161059230648
 21
-352.0983634535904
 31
0.0
  0
LINE
  5
3CE
330
1F
100
AcDbEntity
  8
D-0
  6
Continuous
 62
     7
370
     9
100
AcDbLine
 10
-125.3161059230648
 20
-352.0983634535904
 30
0.0
 11
-126.8158923000179
 21
-352.0983634535904
 31
0.0
  0
LINE
  5
3CF
330
1F
100
AcDbEntity
  8
D-0
  6
Continuous
 62
     7
370
     9
100
AcDbLine
 10
-151.1791048854671
 20
-384.5822868888015
 30
0.0
 11
-151.1791048854671
 21
-383.0820046012039
 31
0.0
  0
LINE
  5
3D0
330
1F
100
AcDbEntity
  8
D-0
  6
Continuous
 62
     7
370
     9
100
AcDbLine
 10
-151.1791048854671
 20
-383.0820046012039
 30
0.0
 11
-149.6788225978694
 21
-383.0820046012039
 31
0.0
  0
LINE
  5
3D1
330
1F
100
AcDbEntity
  8
D-0
  6
Continuous
 62
     7
370
     9
100
AcDbLine
 10
-149.6788225978694
 20
-383.0820046012039
 30
0.0
 11
-149.6788225978694
 21
-384.5822868888015
 31
0.0
  0
LINE
  5
3D2
330
1F
100
AcDbEntity
  8
D-0
  6
Continuous
 62
     7
370
     9
100
AcDbLine
 10
-149.6788225978694
 20
-384.5822868888015
 30
0.0
 11
-151.1791048854671
 21
-384.5822868888015
 31
0.0
  0
LINE
  5
3D3
330
1F
100
AcDbEntity
  8
D-0
  6
Continuous
 62
     7
370
     9
100
AcDbLine
 10
-201.7441378444515
 20
-388.5133371893997
 30
0.0
 11
-201.7441378444515
 21
-387.013054901802
 31
0.0
  0
LINE
  5
3D4
330
1F
100
AcDbEntity
  8
D-0
  6
Continuous
 62
     7
370
     9
100
AcDbLine
 10
-201.7441378444515
 20
-387.013054901802
 30
0.0
 11
-200.244389614471
 21
-387.013054901802
 31
0.0
  0
LINE
  5
3D5
330
1F
100
AcDbEntity
  8
D-0
  6
Continuous
 62
     7
370
     9
100
AcDbLine
 10
-200.244389614471
 20
-387.013054901802
 30
0.0
 11
-200.244389614471
 21
-388.5133371893997
 31
0.0
  0
LINE
  5
3D6
330
1F
100
AcDbEntity
  8
D-0
  6
Continuous
 62
     7
370
     9
100
AcDbLine
 10
-200.244389614471
 20
-388.5133371893997
 30
0.0
 11
-201.7441378444515
 21
-388.5133371893997
 31
0.0
  0
LINE
  5
3D7
330
1F
100
AcDbEntity
  8
D-0
  6
Continuous
 62
     7
370
     9
100
AcDbLine
 10
-218.8536654323421
 20
-422.4801979605789
 30
0.0
 11
-218.8536654323421
 21
-420.9799156729812
 31
0.0
  0
LINE
  5
3D8
330
1F
100
AcDbEntity
  8
D-0
  6
Continuous
 62
     7
370
     9
100
AcDbLine
 10
-218.8536654323421
 20
-420.9799156729812
 30
0.0
 11
-217.3534212917171
 21
-420.9799156729812
 31
0.0
  0
LINE
  5
3D9
330
1F
100
AcDbEntity
  8
D-0
  6
Continuous
 62
     7
370
     9
100
AcDbLine
 10
-217.3534212917171
 20
-420.9799156729812
 30
0.0
 11
-217.3534212917171
 21
-422.4801979605789
 31
0.0
  0
LINE
  5
3DA
330
1F
100
AcDbEntity
  8
D-0
  6
Continuous
 62
     7
370
     9
100
AcDbLine
 10
-217.3534212917171
 20
-422.4801979605789
 30
0.0
 11
-218.8536654323421
 21
-422.4801979605789
 31
0.0
  0
LINE
  5
3DB
330
1F
100
AcDbEntity
  8
D-0
  6
Continuous
 62
     7
370
     9
100
AcDbLine
 10
-250.2099238246761
 20
-407.9084597174759
 30
0.0
 11
-250.2099238246761
 21
-406.4081821982498
 31
0.0
  0
LINE
  5
3DC
330
1F
100
AcDbEntity
  8
D-0
  6
Continuous
 62
     7
370
     9
100
AcDbLine
 10
-250.2099238246761
 20
-406.4081821982498
 30
0.0
 11
-248.710137447723
 21
-406.4081821982498
 31
0.0
  0
LINE
  5
3DD
330
1F
100
AcDbEntity
  8
D-0
  6
Continuous
 62
     7
370
     9
100
AcDbLine
 10
-248.710137447723
 20
-406.4081821982498
 30
0.0
 11
-248.710137447723
 21
-407.9084597174759
 31
0.0
  0
LINE
  5
3DE
330
1F
100
AcDbEntity
  8
D-0
  6
Continuous
 62
     7
370
     9
100
AcDbLine
 10
-248.710137447723
 20
-407.9084597174759
 30
0.0
 11
-250.2099238246761
 21
-407.9084597174759
 31
0.0
  0
LINE
  5
3DF
330
1F
100
AcDbEntity
  8
D-0
  6
Continuous
 62
     7
370
     9
100
AcDbLine
 10
-260.9343348354183
 20
-449.1284905020828
 30
0.0
 11
-260.9343348354183
 21
-447.6282082144851
 31
0.0
  0
LINE
  5
3E0
330
1F
100
AcDbEntity
  8
D-0
  6
Continuous
 62
     7
370
     9
100
AcDbLine
 10
-260.9343348354183
 20
-447.6282082144851
 30
0.0
 11
-259.4340525478206
 21
-447.6282082144851
 31
0.0
  0
LINE
  5
3E1
330
1F
100
AcDbEntity
  8
D-0
  6
Continuous
 62
     7
370
     9
100
AcDbLine
 10
-259.4340525478206
 20
-447.6282082144851
 30
0.0
 11
-259.4340525478206
 21
-449.1284905020828
 31
0.0
  0
LINE
  5
3E2
330
1F
100
AcDbEntity
  8
D-0
  6
Continuous
 62
     7
370
     9
100
AcDbLine
 10
-259.4340525478206
 20
-449.1284905020828
 30
0.0
 11
-260.9343348354183
 21
-449.1284905020828
 31
0.0
  0
LINE
  5
3E3
330
1F
100
AcDbEntity
  8
D-0
  6
Continuous
 62
     7
370
     9
100
AcDbLine
 10
-223.5908709377132
 20
-457.670866066658
 30
0.0
 11
-223.5908709377132
 21
-456.1705837790603
 31
0.0
  0
LINE
  5
3E4
330
1F
100
AcDbEntity
  8
D-0
  6
Continuous
 62
     7
370
     9
100
AcDbLine
 10
-223.5908709377132
 20
-456.1705837790603
 30
0.0
 11
-222.0905886501155
 21
-456.1705837790603
 31
0.0
  0
LINE
  5
3E5
330
1F
100
AcDbEntity
  8
D-0
  6
Continuous
 62
     7
370
     9
100
AcDbLine
 10
-222.0905886501155
 20
-456.1705837790603
 30
0.0
 11
-222.0905886501155
 21
-457.670866066658
 31
0.0
  0
LINE
  5
3E6
330
1F
100
AcDbEntity
  8
D-0
  6
Continuous
 62
     7
370
     9
100
AcDbLine
 10
-222.0905886501155
 20
-457.670866066658
 30
0.0
 11
-223.5908709377132
 21
-457.670866066658
 31
0.0
  0
LINE
  5
3E7
330
1F
100
AcDbEntity
  8
D-0
  6
Continuous
 62
     7
370
     9
100
AcDbLine
 10
-171.3857851833187
 20
-462.3956547324295
 30
0.0
 11
-171.3857851833187
 21
-460.895381981575
 31
0.0
  0
LINE
  5
3E8
330
1F
100
AcDbEntity
  8
D-0
  6
Continuous
 62
     7
370
     9
100
AcDbLine
 10
-171.3857851833187
 20
-460.895381981575
 30
0.0
 11
-169.8859988063655
 21
-460.895381981575
 31
0.0
  0
LINE
  5
3E9
330
1F
100
AcDbEntity
  8
D-0
  6
Continuous
 62
     7
370
     9
100
AcDbLine
 10
-169.8859988063655
 20
-460.895381981575
 30
0.0
 11
-169.8859988063655
 21
-462.3956547324295
 31
0.0
  0
LINE
  5
3EA
330
1F
100
AcDbEntity
  8
D-0
  6
Continuous
 62
     7
370
     9
100
AcDbLine
 10
-169.8859988063655
 20
-462.3956547324295
 30
0.0
 11
-171.3857851833187
 21
-462.3956547324295
 31
0.0
  0
LINE
  5
3EB
330
1F
100
AcDbEntity
  8
D-0
  6
Continuous
 62
     7
370
     9
100
AcDbLine
 10
-116.6647158473812
 20
-455.6404362265701
 30
0.0
 11
-116.6647158473812
 21
-454.1401539389724
 31
0.0
  0
LINE
  5
3EC
330
1F
100
AcDbEntity
  8
D-0
  6
Continuous
 62
     7
370
     9
100
AcDbLine
 10
-116.6647158473812
 20
-454.1401539389724
 30
0.0
 11
-115.1649676174007
 21
-454.1401539389724
 31
0.0
  0
LINE
  5
3ED
330
1F
100
AcDbEntity
  8
D-0
  6
Continuous
 62
     7
370
     9
100
AcDbLine
 10
-115.1649676174007
 20
-454.1401539389724
 30
0.0
 11
-115.1649676174007
 21
-455.6404362265701
 31
0.0
  0
LINE
  5
3EE
330
1F
100
AcDbEntity
  8
D-0
  6
Continuous
 62
     7
370
     9
100
AcDbLine
 10
-115.1649676174007
 20
-455.6404362265701
 30
0.0
 11
-116.6647158473812
 21
-455.6404362265701
 31
0.0
  0
LINE
  5
3EF
330
1F
100
AcDbEntity
  8
D-0
  6
Continuous
 62
     7
370
     9
100
AcDbLine
 10
-128.8463412135921
 20
-415.7125912253494
 30
0.0
 11
-128.8463412135921
 21
-414.2123089377517
 31
0.0
  0
LINE
  5
3F0
330
1F
100
AcDbEntity
  8
D-0
  6
Continuous
 62
     7
370
     9
100
AcDbLine
 10
-128.8463412135921
 20
-414.2123089377517
 30
0.0
 11
-127.3460589259944
 21
-414.2123089377517
 31
0.0
  0
LINE
  5
3F1
330
1F
100
AcDbEntity
  8
D-0
  6
Continuous
 62
     7
370
     9
100
AcDbLine
 10
-127.3460589259944
 20
-414.2123089377517
 30
0.0
 11
-127.3460589259944
 21
-415.7125912253494
 31
0.0
  0
LINE
  5
3F2
330
1F
100
AcDbEntity
  8
D-0
  6
Continuous
 62
     7
370
     9
100
AcDbLine
 10
-127.3460589259944
 20
-415.7125912253494
 30
0.0
 11
-128.8463412135921
 21
-415.7125912253494
 31
0.0
  0
LINE
  5
3F3
330
1F
100
AcDbEntity
  8
D-0
  6
Continuous
 62
     7
370
     9
100
AcDbLine
 10
-169.8750887721858
 20
-424.8302040640945
 30
0.0
 11
-169.8750887721858
 21
-423.3299217764969
 31
0.0
  0
LINE
  5
3F4
330
1F
100
AcDbEntity
  8
D-0
  6
Continuous
 62
     7
370
     9
100
AcDbLine
 10
-169.8750887721858
 20
-423.3299217764969
 30
0.0
 11
-168.3753405422054
 21
-423.3299217764969
 31
0.0
  0
LINE
  5
3F5
330
1F
100
AcDbEntity
  8
D-0
  6
Continuous
 62
     7
370
     9
100
AcDbLine
 10
-168.3753405422054
 20
-423.3299217764969
 30
0.0
 11
-168.3753405422054
 21
-424.8302040640945
 31
0.0
  0
LINE
  5
3F6
330
1F
100
AcDbEntity
  8
D-0
  6
Continuous
 62
     7
370
     9
100
AcDbLine
 10
-168.3753405422054
 20
-424.8302040640945
 30
0.0
 11
-169.8750887721858
 21
-424.8302040640945
 31
0.0
  0
LINE
  5
3F7
330
1F
100
AcDbEntity
  8
D-0
  6
Continuous
 62
     7
370
     9
100
AcDbLine
 10
-109.3902788966976
 20
-385.3418407981033
 30
0.0
 11
-109.3902788966976
 21
-383.8415585105056
 31
0.0
  0
LINE
  5
3F8
330
1F
100
AcDbEntity
  8
D-0
  6
Continuous
 62
     7
370
     9
100
AcDbLine
 10
-109.3902788966976
 20
-383.8415585105056
 30
0.0
 11
-107.8899966090999
 21
-383.8415585105056
 31
0.0
  0
LINE
  5
3F9
330
1F
100
AcDbEntity
  8
D-0
  6
Continuous
 62
     7
370
     9
100
AcDbLine
 10
-107.8899966090999
 20
-383.8415585105056
 30
0.0
 11
-107.8899966090999
 21
-385.3418407981033
 31
0.0
  0
LINE
  5
3FA
330
1F
100
AcDbEntity
  8
D-0
  6
Continuous
 62
     7
370
     9
100
AcDbLine
 10
-107.8899966090999
 20
-385.3418407981033
 30
0.0
 11
-109.3902788966976
 21
-385.3418407981033
 31
0.0
  0
LINE
  5
3FB
330
1F
100
AcDbEntity
  8
D-0
  6
Continuous
 62
     7
370
     9
100
AcDbLine
 10
-263.3908663600765
 20
-374.4489584509964
 30
0.0
 11
-263.3908663600765
 21
-372.9486809317703
 31
0.0
  0
LINE
  5
3FC
330
1F
100
AcDbEntity
  8
D-0
  6
Continuous
 62
     7
370
     9
100
AcDbLine
 10
-263.3908663600765
 20
-372.9486809317703
 30
0.0
 11
-261.8906031459651
 21
-372.9486809317703
 31
0.0
  0
LINE
  5
3FD
330
1F
100
AcDbEntity
  8
D-0
  6
Continuous
 62
     7
370
     9
100
AcDbLine
 10
-261.8906031459651
 20
-372.9486809317703
 30
0.0
 11
-261.8906031459651
 21
-374.4489584509964
 31
0.0
  0
LINE
  5
3FE
330
1F
100
AcDbEntity
  8
D-0
  6
Continuous
 62
     7
370
     9
100
AcDbLine
 10
-261.8906031459651
 20
-374.4489584509964
 30
0.0
 11
-263.3908663600765
 21
-374.4489584509964
 31
0.0
  0
LINE
  5
3FF
330
1F
100
AcDbEntity
  8
D-0
  6
Continuous
 62
     7
370
     9
100
AcDbLine
 10
-346.7406092494808
 20
-497.6992950980301
 30
0.0
 11
-346.7406092494808
 21
-496.1990128104324
 31
0.0
  0
LINE
  5
400
330
1F
100
AcDbEntity
  8
D-0
  6
Continuous
 62
     7
370
     9
100
AcDbLine
 10
-346.7406092494808
 20
-496.1990128104324
 30
0.0
 11
-345.2403269618832
 21
-496.1990128104324
 31
0.0
  0
LINE
  5
401
330
1F
100
AcDbEntity
  8
D-0
  6
Continuous
 62
     7
370
     9
100
AcDbLine
 10
-345.2403269618832
 20
-496.1990128104324
 30
0.0
 11
-345.2403269618832
 21
-497.6992950980301
 31
0.0
  0
LINE
  5
402
330
1F
100
AcDbEntity
  8
D-0
  6
Continuous
 62
     7
370
     9
100
AcDbLine
 10
-345.2403269618832
 20
-497.6992950980301
 30
0.0
 11
-346.7406092494808
 21
-497.6992950980301
 31
0.0
  0
LINE
  5
403
330
1F
100
AcDbEntity
  8
D-0
  6
Continuous
 62
     7
370
     9
100
AcDbLine
 10
-297.3760615199886
 20
-505.5975685660476
 30
0.0
 11
-297.3760615199886
 21
-504.09728627845
 31
0.0
  0
LINE
  5
404
330
1F
100
AcDbEntity
  8
D-0
  6
Continuous
 62
     7
370
     9
100
AcDbLine
 10
-297.3760615199886
 20
-504.09728627845
 30
0.0
 11
-295.8757983058773
 21
-504.09728627845
 31
0.0
  0
LINE
  5
405
330
1F
100
AcDbEntity
  8
D-0
  6
Continuous
 62
     7
370
     9
100
AcDbLine
 10
-295.8757983058773
 20
-504.09728627845
 30
0.0
 11
-295.8757983058773
 21
-505.5975685660476
 31
0.0
  0
LINE
  5
406
330
1F
100
AcDbEntity
  8
D-0
  6
Continuous
 62
     7
370
     9
100
AcDbLine
 10
-295.8757983058773
 20
-505.5975685660476
 30
0.0
 11
-297.3760615199886
 21
-505.5975685660476
 31
0.0
  0
LINE
  5
407
330
1F
100
AcDbEntity
  8
D-0
  6
Continuous
 62
     7
370
     9
100
AcDbLine
 10
-314.2571841090999
 20
-526.1783371512527
 30
0.0
 11
-314.2571841090999
 21
-524.6780739371413
 31
0.0
  0
LINE
  5
408
330
1F
100
AcDbEntity
  8
D-0
  6
Continuous
 62
     7
370
     9
100
AcDbLine
 10
-314.2571841090999
 20
-524.6780739371413
 30
0.0
 11
-312.7573977321468
 21
-524.6780739371413
 31
0.0
  0
LINE
  5
409
330
1F
100
AcDbEntity
  8
D-0
  6
Continuous
 62
     7
370
     9
100
AcDbLine
 10
-312.7573977321468
 20
-524.6780739371413
 30
0.0
 11
-312.7573977321468
 21
-526.1783371512527
 31
0.0
  0
LINE
  5
40A
330
1F
100
AcDbEntity
  8
D-0
  6
Continuous
 62
     7
370
     9
100
AcDbLine
 10
-312.7573977321468
 20
-526.1783371512527
 30
0.0
 11
-314.2571841090999
 21
-526.1783371512527
 31
0.0
  0
LINE
  5
40B
330
1F
100
AcDbEntity
  8
D-0
  6
Continuous
 62
     7
370
     9
100
AcDbLine
 10
-362.537156185516
 20
-560.886436516487
 30
0.0
 11
-362.537156185516
 21
-559.3861542288894
 31
0.0
  0
LINE
  5
40C
330
1F
100
AcDbEntity
  8
D-0
  6
Continuous
 62
     7
370
     9
100
AcDbLine
 10
-362.537156185516
 20
-559.3861542288894
 30
0.0
 11
-361.0373698085629
 21
-559.3861542288894
 31
0.0
  0
LINE
  5
40D
330
1F
100
AcDbEntity
  8
D-0
  6
Continuous
 62
     7
370
     9
100
AcDbLine
 10
-361.0373698085629
 20
-559.3861542288894
 30
0.0
 11
-361.0373698085629
 21
-560.886436516487
 31
0.0
  0
LINE
  5
40E
330
1F
100
AcDbEntity
  8
D-0
  6
Continuous
 62
     7
370
     9
100
AcDbLine
 10
-361.0373698085629
 20
-560.886436516487
 30
0.0
 11
-362.537156185516
 21
-560.886436516487
 31
0.0
  0
LINE
  5
40F
330
1F
100
AcDbEntity
  8
D-0
  6
Continuous
 62
     7
370
     9
100
AcDbLine
 10
-291.4522372096858
 20
-558.9114914481277
 30
0.0
 11
-291.4522372096858
 21
-557.41120916053
 31
0.0
  0
LINE
  5
410
330
1F
100
AcDbEntity
  8
D-0
  6
Continuous
 62
     7
370
     9
100
AcDbLine
 10
-291.4522372096858
 20
-557.41120916053
 30
0.0
 11
-289.9519739955745
 21
-557.41120916053
 31
0.0
  0
LINE
  5
411
330
1F
100
AcDbEntity
  8
D-0
  6
Continuous
 62
     7
370
     9
100
AcDbLine
 10
-289.9519739955745
 20
-557.41120916053
 30
0.0
 11
-289.9519739955745
 21
-558.9114914481277
 31
0.0
  0
LINE
  5
412
330
1F
100
AcDbEntity
  8
D-0
  6
Continuous
 62
     7
370
     9
100
AcDbLine
 10
-289.9519739955745
 20
-558.9114914481277
 30
0.0
 11
-291.4522372096858
 21
-558.9114914481277
 31
0.0
  0
LINE
  5
413
330
1F
100
AcDbEntity
  8
D-0
  6
Continuous
 62
     7
370
     9
100
AcDbLine
 10
-348.7150584071957
 20
-527.3184166495437
 30
0.0
 11
-348.7150584071957
 21
-525.818134361946
 31
0.0
  0
LINE
  5
414
330
1F
100
AcDbEntity
  8
D-0
  6
Continuous
 62
     7
370
     9
100
AcDbLine
 10
-348.7150584071957
 20
-525.818134361946
 30
0.0
 11
-347.2152720302425
 21
-525.818134361946
 31
0.0
  0
LINE
  5
415
330
1F
100
AcDbEntity
  8
D-0
  6
Continuous
 62
     7
370
     9
100
AcDbLine
 10
-347.2152720302425
 20
-525.818134361946
 30
0.0
 11
-347.2152720302425
 21
-527.3184166495437
 31
0.0
  0
LINE
  5
416
330
1F
100
AcDbEntity
  8
D-0
  6
Continuous
 62
     7
370
     9
100
AcDbLine
 10
-347.2152720302425
 20
-527.3184166495437
 30
0.0
 11
-348.7150584071957
 21
-527.3184166495437
 31
0.0
  0
LINE
  5
417
330
1F
100
AcDbEntity
  8
D-0
  6
Continuous
 62
     7
370
     9
100
AcDbLine
 10
-316.8479929775081
 20
-483.4396992270584
 30
0.0
 11
-316.8479929775081
 21
-481.9394264762039
 31
0.0
  0
LINE
  5
418
330
1F
100
AcDbEntity
  8
D-0
  6
Continuous
 62
     7
370
     9
100
AcDbLine
 10
-316.8479929775081
 20
-481.9394264762039
 30
0.0
 11
-315.3477106899105
 21
-481.9394264762039
 31
0.0
  0
LINE
  5
419
330
1F
100
AcDbEntity
  8
D-0
  6
Continuous
 62
     7
370
     9
100
AcDbLine
 10
-315.3477106899105
 20
-481.9394264762039
 30
0.0
 11
-315.3477106899105
 21
-483.4396992270584
 31
0.0
  0
LINE
  5
41A
330
1F
100
AcDbEntity
  8
D-0
  6
Continuous
 62
     7
370
     9
100
AcDbLine
 10
-315.3477106899105
 20
-483.4396992270584
 30
0.0
 11
-316.8479929775081
 21
-483.4396992270584
 31
0.0
  0
LINE
  5
41B
330
1F
100
AcDbEntity
  8
D-0
  6
Continuous
 62
     7
370
     9
100
AcDbLine
 10
-326.1315928310238
 20
-554.879356438362
 30
0.0
 11
-326.1315928310238
 21
-553.3790932242507
 31
0.0
  0
LINE
  5
41C
330
1F
100
AcDbEntity
  8
D-0
  6
Continuous
 62
     7
370
     9
100
AcDbLine
 10
-326.1315928310238
 20
-553.3790932242507
 30
0.0
 11
-324.6313105434261
 21
-553.3790932242507
 31
0.0
  0
LINE
  5
41D
330
1F
100
AcDbEntity
  8
D-0
  6
Continuous
 62
     7
370
     9
100
AcDbLine
 10
-324.6313105434261
 20
-553.3790932242507
 30
0.0
 11
-324.6313105434261
 21
-554.879356438362
 31
0.0
  0
LINE
  5
41E
330
1F
100
AcDbEntity
  8
D-0
  6
Continuous
 62
     7
370
     9
100
AcDbLine
 10
-324.6313105434261
 20
-554.879356438362
 30
0.0
 11
-326.1315928310238
 21
-554.879356438362
 31
0.0
  0
LINE
  5
41F
330
1F
100
AcDbEntity
  8
D-0
  6
Continuous
 62
     7
370
     9
100
AcDbLine
 10
-489.2572508663021
 20
-345.0032494608993
 30
0.0
 11
-489.2572508663021
 21
-343.5029695574875
 31
0.0
  0
LINE
  5
420
330
1F
100
AcDbEntity
  8
D-0
  6
Continuous
 62
     7
370
     9
100
AcDbLine
 10
-489.2572508663021
 20
-343.5029695574875
 30
0.0
 11
-487.756973347076
 21
-343.5029695574875
 31
0.0
  0
LINE
  5
421
330
1F
100
AcDbEntity
  8
D-0
  6
Continuous
 62
     7
370
     9
100
AcDbLine
 10
-487.756973347076
 20
-343.5029695574875
 30
0.0
 11
-487.756973347076
 21
-345.0032494608993
 31
0.0
  0
LINE
  5
422
330
1F
100
AcDbEntity
  8
D-0
  6
Continuous
 62
     7
370
     9
100
AcDbLine
 10
-487.756973347076
 20
-345.0032494608993
 30
0.0
 11
-489.2572508663021
 21
-345.0032494608993
 31
0.0
  0
LINE
  5
423
330
1F
100
AcDbEntity
  8
D-0
  6
Continuous
 62
     7
370
     9
100
AcDbLine
 10
-468.0125437587582
 20
-360.8017669264908
 30
0.0
 11
-468.0125437587582
 21
-359.3014870230789
 31
0.0
  0
LINE
  5
424
330
1F
100
AcDbEntity
  8
D-0
  6
Continuous
 62
     7
370
     9
100
AcDbLine
 10
-468.0125437587582
 20
-359.3014870230789
 30
0.0
 11
-466.5122614711605
 21
-359.3014870230789
 31
0.0
  0
LINE
  5
425
330
1F
100
AcDbEntity
  8
D-0
  6
Continuous
 62
     7
370
     9
100
AcDbLine
 10
-466.5122614711605
 20
-359.3014870230789
 30
0.0
 11
-466.5122614711605
 21
-360.8017669264908
 31
0.0
  0
LINE
  5
426
330
1F
100
AcDbEntity
  8
D-0
  6
Continuous
 62
     7
370
     9
100
AcDbLine
 10
-466.5122614711605
 20
-360.8017669264908
 30
0.0
 11
-468.0125437587582
 21
-360.8017669264908
 31
0.0
  0
LINE
  5
427
330
1F
100
AcDbEntity
  8
D-0
  6
Continuous
 62
     7
370
     9
100
AcDbLine
 10
-444.1463099330746
 20
-401.8820725028152
 30
0.0
 11
-444.1463099330746
 21
-400.3817949835891
 31
0.0
  0
LINE
  5
428
330
1F
100
AcDbEntity
  8
D-0
  6
Continuous
 62
     7
370
     9
100
AcDbLine
 10
-444.1463099330746
 20
-400.3817949835891
 30
0.0
 11
-442.6465235561215
 21
-400.3817949835891
 31
0.0
  0
LINE
  5
429
330
1F
100
AcDbEntity
  8
D-0
  6
Continuous
 62
     7
370
     9
100
AcDbLine
 10
-442.6465235561215
 20
-400.3817949835891
 30
0.0
 11
-442.6465235561215
 21
-401.8820725028152
 31
0.0
  0
LINE
  5
42A
330
1F
100
AcDbEntity
  8
D-0
  6
Continuous
 62
     7
370
     9
100
AcDbLine
 10
-442.6465235561215
 20
-401.8820725028152
 30
0.0
 11
-444.1463099330746
 21
-401.8820725028152
 31
0.0
  0
LINE
  5
42B
330
1F
100
AcDbEntity
  8
D-0
  6
Continuous
 62
     7
370
     9
100
AcDbLine
 10
-398.3818350643002
 20
-348.9258764330978
 30
0.0
 11
-398.3818350643002
 21
-347.4255965296859
 31
0.0
  0
LINE
  5
42C
330
1F
100
AcDbEntity
  8
D-0
  6
Continuous
 62
     7
370
     9
100
AcDbLine
 10
-398.3818350643002
 20
-347.4255965296859
 30
0.0
 11
-396.8820582240902
 21
-347.4255965296859
 31
0.0
  0
LINE
  5
42D
330
1F
100
AcDbEntity
  8
D-0
  6
Continuous
 62
     7
370
     9
100
AcDbLine
 10
-396.8820582240902
 20
-347.4255965296859
 30
0.0
 11
-396.8820582240902
 21
-348.9258764330978
 31
0.0
  0
LINE
  5
42E
330
1F
100
AcDbEntity
  8
D-0
  6
Continuous
 62
     7
370
     9
100
AcDbLine
 10
-396.8820582240902
 20
-348.9258764330978
 30
0.0
 11
-398.3818350643002
 21
-348.9258764330978
 31
0.0
  0
LINE
  5
42F
330
1F
100
AcDbEntity
  8
D-0
  6
Continuous
 62
     7
370
     9
100
AcDbLine
 10
-350.8237658351742
 20
-343.5277436320419
 30
0.0
 11
-350.8237658351742
 21
-342.02746372863
 31
0.0
  0
LINE
  5
430
330
1F
100
AcDbEntity
  8
D-0
  6
Continuous
 62
     7
370
     9
100
AcDbLine
 10
-350.8237658351742
 20
-342.02746372863
 30
0.0
 11
-349.3239794582211
 21
-342.02746372863
 31
0.0
  0
LINE
  5
431
330
1F
100
AcDbEntity
  8
D-0
  6
Continuous
 62
     7
370
     9
100
AcDbLine
 10
-349.3239794582211
 20
-342.02746372863
 30
0.0
 11
-349.3239794582211
 21
-343.5277436320419
 31
0.0
  0
LINE
  5
432
330
1F
100
AcDbEntity
  8
D-0
  6
Continuous
 62
     7
370
     9
100
AcDbLine
 10
-349.3239794582211
 20
-343.5277436320419
 30
0.0
 11
-350.8237658351742
 21
-343.5277436320419
 31
0.0
  0
LINE
  5
433
330
1F
100
AcDbEntity
  8
D-0
  6
Continuous
 62
     7
370
     9
100
AcDbLine
 10
-370.4373942226254
 20
-365.1024351660843
 30
0.0
 11
-370.4373942226254
 21
-363.6021576468582
 31
0.0
  0
LINE
  5
434
330
1F
100
AcDbEntity
  8
D-0
  6
Continuous
 62
     7
370
     9
100
AcDbLine
 10
-370.4373942226254
 20
-363.6021576468582
 30
0.0
 11
-368.9371119350277
 21
-363.6021576468582
 31
0.0
  0
LINE
  5
435
330
1F
100
AcDbEntity
  8
D-0
  6
Continuous
 62
     7
370
     9
100
AcDbLine
 10
-368.9371119350277
 20
-363.6021576468582
 30
0.0
 11
-368.9371119350277
 21
-365.1024351660843
 31
0.0
  0
LINE
  5
436
330
1F
100
AcDbEntity
  8
D-0
  6
Continuous
 62
     7
370
     9
100
AcDbLine
 10
-368.9371119350277
 20
-365.1024351660843
 30
0.0
 11
-370.4373942226254
 21
-365.1024351660843
 31
0.0
  0
LINE
  5
437
330
1F
100
AcDbEntity
  8
D-0
  6
Continuous
 62
     7
370
     9
100
AcDbLine
 10
-346.0796557277523
 20
-401.2285528723831
 30
0.0
 11
-346.0796557277523
 21
-399.7282705847854
 31
0.0
  0
LINE
  5
438
330
1F
100
AcDbEntity
  8
D-0
  6
Continuous
 62
     7
370
     9
100
AcDbLine
 10
-346.0796557277523
 20
-399.7282705847854
 30
0.0
 11
-344.5793734401547
 21
-399.7282705847854
 31
0.0
  0
LINE
  5
439
330
1F
100
AcDbEntity
  8
D-0
  6
Continuous
 62
     7
370
     9
100
AcDbLine
 10
-344.5793734401547
 20
-399.7282705847854
 30
0.0
 11
-344.5793734401547
 21
-401.2285528723831
 31
0.0
  0
LINE
  5
43A
330
1F
100
AcDbEntity
  8
D-0
  6
Continuous
 62
     7
370
     9
100
AcDbLine
 10
-344.5793734401547
 20
-401.2285528723831
 30
0.0
 11
-346.0796557277523
 21
-401.2285528723831
 31
0.0
  0
LINE
  5
43B
330
1F
100
AcDbEntity
  8
D-0
  6
Continuous
 62
     7
370
     9
100
AcDbLine
 10
-342.1565447658382
 20
-439.8012886588211
 30
0.0
 11
-342.1565447658382
 21
-438.3010063712234
 31
0.0
  0
LINE
  5
43C
330
1F
100
AcDbEntity
  8
D-0
  6
Continuous
 62
     7
370
     9
100
AcDbLine
 10
-342.1565447658382
 20
-438.3010063712234
 30
0.0
 11
-340.6567583888851
 21
-438.3010063712234
 31
0.0
  0
LINE
  5
43D
330
1F
100
AcDbEntity
  8
D-0
  6
Continuous
 62
     7
370
     9
100
AcDbLine
 10
-340.6567583888851
 20
-438.3010063712234
 30
0.0
 11
-340.6567583888851
 21
-439.8012886588211
 31
0.0
  0
LINE
  5
43E
330
1F
100
AcDbEntity
  8
D-0
  6
Continuous
 62
     7
370
     9
100
AcDbLine
 10
-340.6567583888851
 20
-439.8012886588211
 30
0.0
 11
-342.1565447658382
 21
-439.8012886588211
 31
0.0
  0
LINE
  5
43F
330
1F
100
AcDbEntity
  8
D-0
  6
Continuous
 62
     7
370
     9
100
AcDbLine
 10
-417.8255186885677
 20
-363.4272561614151
 30
0.0
 11
-417.8255186885677
 21
-361.9269762580032
 31
0.0
  0
LINE
  5
440
330
1F
100
AcDbEntity
  8
D-0
  6
Continuous
 62
     7
370
     9
100
AcDbLine
 10
-417.8255186885677
 20
-361.9269762580032
 30
0.0
 11
-416.3252364009701
 21
-361.9269762580032
 31
0.0
  0
LINE
  5
441
330
1F
100
AcDbEntity
  8
D-0
  6
Continuous
 62
     7
370
     9
100
AcDbLine
 10
-416.3252364009701
 20
-361.9269762580032
 30
0.0
 11
-416.3252364009701
 21
-363.4272561614151
 31
0.0
  0
LINE
  5
442
330
1F
100
AcDbEntity
  8
D-0
  6
Continuous
 62
     7
370
     9
100
AcDbLine
 10
-416.3252364009701
 20
-363.4272561614151
 30
0.0
 11
-417.8255186885677
 21
-363.4272561614151
 31
0.0
  0
LINE
  5
443
330
1F
100
AcDbEntity
  8
D-0
  6
Continuous
 62
     7
370
     9
100
AcDbLine
 10
-496.1076031535946
 20
-490.8662758414383
 30
0.0
 11
-496.1076031535946
 21
-489.3660030905838
 31
0.0
  0
LINE
  5
444
330
1F
100
AcDbEntity
  8
D-0
  6
Continuous
 62
     7
370
     9
100
AcDbLine
 10
-496.1076031535946
 20
-489.3660030905838
 30
0.0
 11
-494.6073256343685
 21
-489.3660030905838
 31
0.0
  0
LINE
  5
445
330
1F
100
AcDbEntity
  8
D-0
  6
Continuous
 62
     7
370
     9
100
AcDbLine
 10
-494.6073256343685
 20
-489.3660030905838
 30
0.0
 11
-494.6073256343685
 21
-490.8662758414383
 31
0.0
  0
LINE
  5
446
330
1F
100
AcDbEntity
  8
D-0
  6
Continuous
 62
     7
370
     9
100
AcDbLine
 10
-494.6073256343685
 20
-490.8662758414383
 30
0.0
 11
-496.1076031535946
 21
-490.8662758414383
 31
0.0
  0
LINE
  5
447
330
1F
100
AcDbEntity
  8
D-0
  6
Continuous
 62
     7
370
     9
100
AcDbLine
 10
-646.8787489742123
 20
-479.9278221671219
 30
0.0
 11
-646.8787489742123
 21
-478.4275398795242
 31
0.0
  0
LINE
  5
448
330
1F
100
AcDbEntity
  8
D-0
  6
Continuous
 62
     7
370
     9
100
AcDbLine
 10
-646.8787489742123
 20
-478.4275398795242
 30
0.0
 11
-645.3784762233578
 21
-478.4275398795242
 31
0.0
  0
LINE
  5
449
330
1F
100
AcDbEntity
  8
D-0
  6
Continuous
 62
     7
370
     9
100
AcDbLine
 10
-645.3784762233578
 20
-478.4275398795242
 30
0.0
 11
-645.3784762233578
 21
-479.9278221671219
 31
0.0
  0
LINE
  5
44A
330
1F
100
AcDbEntity
  8
D-0
  6
Continuous
 62
     7
370
     9
100
AcDbLine
 10
-645.3784762233578
 20
-479.9278221671219
 30
0.0
 11
-646.8787489742123
 21
-479.9278221671219
 31
0.0
  0
LINE
  5
44B
330
1F
100
AcDbEntity
  8
D-0
  6
Continuous
 62
     7
370
     9
100
AcDbLine
 10
-587.6405058711849
 20
-584.5812378470534
 30
0.0
 11
-587.6405058711849
 21
-583.0809555594558
 31
0.0
  0
LINE
  5
44C
330
1F
100
AcDbEntity
  8
D-0
  6
Continuous
 62
     7
370
     9
100
AcDbLine
 10
-587.6405058711849
 20
-583.0809555594558
 30
0.0
 11
-586.1407242626034
 21
-583.0809555594558
 31
0.0
  0
LINE
  5
44D
330
1F
100
AcDbEntity
  8
D-0
  6
Continuous
 62
     7
370
     9
100
AcDbLine
 10
-586.1407242626034
 20
-583.0809555594558
 30
0.0
 11
-586.1407242626034
 21
-584.5812378470534
 31
0.0
  0
LINE
  5
44E
330
1F
100
AcDbEntity
  8
D-0
  6
Continuous
 62
     7
370
     9
100
AcDbLine
 10
-586.1407242626034
 20
-584.5812378470534
 30
0.0
 11
-587.6405058711849
 21
-584.5812378470534
 31
0.0
  0
LINE
  5
44F
330
1F
100
AcDbEntity
  8
D-0
  6
Continuous
 62
     7
370
     9
100
AcDbLine
 10
-601.4630947917782
 20
-643.8189850394363
 30
0.0
 11
-601.4630947917782
 21
-642.3187027518386
 31
0.0
  0
LINE
  5
450
330
1F
100
AcDbEntity
  8
D-0
  6
Continuous
 62
     7
370
     9
100
AcDbLine
 10
-601.4630947917782
 20
-642.3187027518386
 30
0.0
 11
-599.9628125041805
 21
-642.3187027518386
 31
0.0
  0
LINE
  5
451
330
1F
100
AcDbEntity
  8
D-0
  6
Continuous
 62
     7
370
     9
100
AcDbLine
 10
-599.9628125041805
 20
-642.3187027518386
 30
0.0
 11
-599.9628125041805
 21
-643.8189850394363
 31
0.0
  0
LINE
  5
452
330
1F
100
AcDbEntity
  8
D-0
  6
Continuous
 62
     7
370
     9
100
AcDbLine
 10
-599.9628125041805
 20
-643.8189850394363
 30
0.0
 11
-601.4630947917782
 21
-643.8189850394363
 31
0.0
  0
LINE
  5
453
330
1F
100
AcDbEntity
  8
D-0
  6
Continuous
 62
     7
370
     9
100
AcDbLine
 10
-632.0691881984554
 20
-654.6791801993484
 30
0.0
 11
-632.0691881984554
 21
-653.1788979117507
 31
0.0
  0
LINE
  5
454
330
1F
100
AcDbEntity
  8
D-0
  6
Continuous
 62
     7
370
     9
100
AcDbLine
 10
-632.0691881984554
 20
-653.1788979117507
 30
0.0
 11
-630.568915447601
 21
-653.1788979117507
 31
0.0
  0
LINE
  5
455
330
1F
100
AcDbEntity
  8
D-0
  6
Continuous
 62
     7
370
     9
100
AcDbLine
 10
-630.568915447601
 20
-653.1788979117507
 30
0.0
 11
-630.568915447601
 21
-654.6791801993484
 31
0.0
  0
LINE
  5
456
330
1F
100
AcDbEntity
  8
D-0
  6
Continuous
 62
     7
370
     9
100
AcDbLine
 10
-630.568915447601
 20
-654.6791801993484
 30
0.0
 11
-632.0691881984554
 21
-654.6791801993484
 31
0.0
  0
LINE
  5
457
330
1F
100
AcDbEntity
  8
D-0
  6
Continuous
 62
     7
370
     9
100
AcDbLine
 10
-654.9226866573177
 20
-588.5306129996413
 30
0.0
 11
-654.9226866573177
 21
-587.0303307120437
 31
0.0
  0
LINE
  5
458
330
1F
100
AcDbEntity
  8
D-0
  6
Continuous
 62
     7
370
     9
100
AcDbLine
 10
-654.9226866573177
 20
-587.0303307120437
 30
0.0
 11
-653.4229002803646
 21
-587.0303307120437
 31
0.0
  0
LINE
  5
459
330
1F
100
AcDbEntity
  8
D-0
  6
Continuous
 62
     7
370
     9
100
AcDbLine
 10
-653.4229002803646
 20
-587.0303307120437
 30
0.0
 11
-653.4229002803646
 21
-588.5306129996413
 31
0.0
  0
LINE
  5
45A
330
1F
100
AcDbEntity
  8
D-0
  6
Continuous
 62
     7
370
     9
100
AcDbLine
 10
-653.4229002803646
 20
-588.5306129996413
 30
0.0
 11
-654.9226866573177
 21
-588.5306129996413
 31
0.0
  0
LINE
  5
45B
330
1F
100
AcDbEntity
  8
D-0
  6
Continuous
 62
     7
370
     9
100
AcDbLine
 10
-629.1072760433041
 20
-566.8102608267898
 30
0.0
 11
-629.1072760433041
 21
-565.3099785391921
 31
0.0
  0
LINE
  5
45C
330
1F
100
AcDbEntity
  8
D-0
  6
Continuous
 62
     7
370
     9
100
AcDbLine
 10
-629.1072760433041
 20
-565.3099785391921
 30
0.0
 11
-627.6070032924496
 21
-565.3099785391921
 31
0.0
  0
LINE
  5
45D
330
1F
100
AcDbEntity
  8
D-0
  6
Continuous
 62
     7
370
     9
100
AcDbLine
 10
-627.6070032924496
 20
-565.3099785391921
 30
0.0
 11
-627.6070032924496
 21
-566.8102608267898
 31
0.0
  0
LINE
  5
45E
330
1F
100
AcDbEntity
  8
D-0
  6
Continuous
 62
     7
370
     9
100
AcDbLine
 10
-627.6070032924496
 20
-566.8102608267898
 30
0.0
 11
-629.1072760433041
 21
-566.8102608267898
 31
0.0
  0
LINE
  5
45F
330
1F
100
AcDbEntity
  8
D-0
  6
Continuous
 62
     7
370
     9
100
AcDbLine
 10
-565.920146545776
 20
-619.303184563362
 30
0.0
 11
-565.920146545776
 21
-617.8029022757644
 31
0.0
  0
LINE
  5
460
330
1F
100
AcDbEntity
  8
D-0
  6
Continuous
 62
     7
370
     9
100
AcDbLine
 10
-565.920146545776
 20
-617.8029022757644
 30
0.0
 11
-564.4203625530087
 21
-617.8029022757644
 31
0.0
  0
LINE
  5
461
330
1F
100
AcDbEntity
  8
D-0
  6
Continuous
 62
     7
370
     9
100
AcDbLine
 10
-564.4203625530087
 20
-617.8029022757644
 30
0.0
 11
-564.4203625530087
 21
-619.303184563362
 31
0.0
  0
LINE
  5
462
330
1F
100
AcDbEntity
  8
D-0
  6
Continuous
 62
     7
370
     9
100
AcDbLine
 10
-564.4203625530087
 20
-619.303184563362
 30
0.0
 11
-565.920146545776
 21
-619.303184563362
 31
0.0
  0
LINE
  5
463
330
1F
100
AcDbEntity
  8
D-0
  6
Continuous
 62
     7
370
     9
100
AcDbLine
 10
-642.9293738216244
 20
-757.1822319571609
 30
0.0
 11
-642.9293738216244
 21
-755.6819496695632
 31
0.0
  0
LINE
  5
464
330
1F
100
AcDbEntity
  8
D-0
  6
Continuous
 62
     7
370
     9
100
AcDbLine
 10
-642.9293738216244
 20
-755.6819496695632
 30
0.0
 11
-641.4295874446713
 21
-755.6819496695632
 31
0.0
  0
LINE
  5
465
330
1F
100
AcDbEntity
  8
D-0
  6
Continuous
 62
     7
370
     9
100
AcDbLine
 10
-641.4295874446713
 20
-755.6819496695632
 30
0.0
 11
-641.4295874446713
 21
-757.1822319571609
 31
0.0
  0
LINE
  5
466
330
1F
100
AcDbEntity
  8
D-0
  6
Continuous
 62
     7
370
     9
100
AcDbLine
 10
-641.4295874446713
 20
-757.1822319571609
 30
0.0
 11
-642.9293738216244
 21
-757.1822319571609
 31
0.0
  0
LINE
  5
467
330
1F
100
AcDbEntity
  8
D-0
  6
Continuous
 62
     7
370
     9
100
AcDbLine
 10
-572.5391136020504
 20
-760.8942757193679
 30
0.0
 11
-572.5391136020504
 21
-759.3939934317702
 31
0.0
  0
LINE
  5
468
330
1F
100
AcDbEntity
  8
D-0
  6
Continuous
 62
     7
370
     9
100
AcDbLine
 10
-572.5391136020504
 20
-759.3939934317702
 30
0.0
 11
-571.0393296092831
 21
-759.3939934317702
 31
0.0
  0
LINE
  5
469
330
1F
100
AcDbEntity
  8
D-0
  6
Continuous
 62
     7
370
     9
100
AcDbLine
 10
-571.0393296092831
 20
-759.3939934317702
 30
0.0
 11
-571.0393296092831
 21
-760.8942757193679
 31
0.0
  0
LINE
  5
46A
330
1F
100
AcDbEntity
  8
D-0
  6
Continuous
 62
     7
370
     9
100
AcDbLine
 10
-571.0393296092831
 20
-760.8942757193679
 30
0.0
 11
-572.5391136020504
 21
-760.8942757193679
 31
0.0
  0
LINE
  5
46B
330
1F
100
AcDbEntity
  8
D-0
  6
Continuous
 62
     7
370
     9
100
AcDbLine
 10
-548.1486718267284
 20
-786.8008766715163
 30
0.0
 11
-548.1486718267284
 21
-785.3005943839187
 31
0.0
  0
LINE
  5
46C
330
1F
100
AcDbEntity
  8
D-0
  6
Continuous
 62
     7
370
     9
100
AcDbLine
 10
-548.1486718267284
 20
-785.3005943839187
 30
0.0
 11
-546.6488876849495
 21
-785.3005943839187
 31
0.0
  0
LINE
  5
46D
330
1F
100
AcDbEntity
  8
D-0
  6
Continuous
 62
     7
370
     9
100
AcDbLine
 10
-546.6488876849495
 20
-785.3005943839187
 30
0.0
 11
-546.6488876849495
 21
-786.8008766715163
 31
0.0
  0
LINE
  5
46E
330
1F
100
AcDbEntity
  8
D-0
  6
Continuous
 62
     7
370
     9
100
AcDbLine
 10
-546.6488876849495
 20
-786.8008766715163
 30
0.0
 11
-548.1486718267284
 21
-786.8008766715163
 31
0.0
  0
LINE
  5
46F
330
1F
100
AcDbEntity
  8
D-0
  6
Continuous
 62
     7
370
     9
100
AcDbLine
 10
-541.8700913995586
 20
-825.0128899161452
 30
0.0
 11
-541.8700913995586
 21
-823.5126076285476
 31
0.0
  0
LINE
  5
470
330
1F
100
AcDbEntity
  8
D-0
  6
Continuous
 62
     7
370
     9
100
AcDbLine
 10
-541.8700913995586
 20
-823.5126076285476
 30
0.0
 11
-540.3698120921932
 21
-823.5126076285476
 31
0.0
  0
LINE
  5
471
330
1F
100
AcDbEntity
  8
D-0
  6
Continuous
 62
     7
370
     9
100
AcDbLine
 10
-540.3698120921932
 20
-823.5126076285476
 30
0.0
 11
-540.3698120921932
 21
-825.0128899161452
 31
0.0
  0
LINE
  5
472
330
1F
100
AcDbEntity
  8
D-0
  6
Continuous
 62
     7
370
     9
100
AcDbLine
 10
-540.3698120921932
 20
-825.0128899161452
 30
0.0
 11
-541.8700913995586
 21
-825.0128899161452
 31
0.0
  0
LINE
  5
473
330
1F
100
AcDbEntity
  8
D-0
  6
Continuous
 62
     7
370
     9
100
AcDbLine
 10
-616.0987482875668
 20
-830.4714928214187
 30
0.0
 11
-616.0987482875668
 21
-828.971210533821
 31
0.0
  0
LINE
  5
474
330
1F
100
AcDbEntity
  8
D-0
  6
Continuous
 62
     7
370
     9
100
AcDbLine
 10
-616.0987482875668
 20
-828.971210533821
 30
0.0
 11
-614.5984659999691
 21
-828.971210533821
 31
0.0
  0
LINE
  5
475
330
1F
100
AcDbEntity
  8
D-0
  6
Continuous
 62
     7
370
     9
100
AcDbLine
 10
-614.5984659999691
 20
-828.971210533821
 30
0.0
 11
-614.5984659999691
 21
-830.4714928214187
 31
0.0
  0
LINE
  5
476
330
1F
100
AcDbEntity
  8
D-0
  6
Continuous
 62
     7
370
     9
100
AcDbLine
 10
-614.5984659999691
 20
-830.4714928214187
 30
0.0
 11
-616.0987482875668
 21
-830.4714928214187
 31
0.0
  0
LINE
  5
477
330
1F
100
AcDbEntity
  8
D-0
  6
Continuous
 62
     7
370
     9
100
AcDbLine
 10
-650.8276377528988
 20
-821.1749992911452
 30
0.0
 11
-650.8276377528988
 21
-819.6747170035476
 31
0.0
  0
LINE
  5
478
330
1F
100
AcDbEntity
  8
D-0
  6
Continuous
 62
     7
370
     9
100
AcDbLine
 10
-650.8276377528988
 20
-819.6747170035476
 30
0.0
 11
-649.3273554653011
 21
-819.6747170035476
 31
0.0
  0
LINE
  5
479
330
1F
100
AcDbEntity
  8
D-0
  6
Continuous
 62
     7
370
     9
100
AcDbLine
 10
-649.3273554653011
 20
-819.6747170035476
 30
0.0
 11
-649.3273554653011
 21
-821.1749992911452
 31
0.0
  0
LINE
  5
47A
330
1F
100
AcDbEntity
  8
D-0
  6
Continuous
 62
     7
370
     9
100
AcDbLine
 10
-649.3273554653011
 20
-821.1749992911452
 30
0.0
 11
-650.8276377528988
 21
-821.1749992911452
 31
0.0
  0
LINE
  5
47B
330
1F
100
AcDbEntity
  8
D-0
  6
Continuous
 62
     7
370
     9
100
AcDbLine
 10
-653.0389128536068
 20
-780.8770332877273
 30
0.0
 11
-653.0389128536068
 21
-779.3767510001296
 31
0.0
  0
LINE
  5
47C
330
1F
100
AcDbEntity
  8
D-0
  6
Continuous
 62
     7
370
     9
100
AcDbLine
 10
-653.0389128536068
 20
-779.3767510001296
 30
0.0
 11
-651.5391360133968
 21
-779.3767510001296
 31
0.0
  0
LINE
  5
47D
330
1F
100
AcDbEntity
  8
D-0
  6
Continuous
 62
     7
370
     9
100
AcDbLine
 10
-651.5391360133968
 20
-779.3767510001296
 30
0.0
 11
-651.5391360133968
 21
-780.8770332877273
 31
0.0
  0
LINE
  5
47E
330
1F
100
AcDbEntity
  8
D-0
  6
Continuous
 62
     7
370
     9
100
AcDbLine
 10
-651.5391360133968
 20
-780.8770332877273
 30
0.0
 11
-653.0389128536068
 21
-780.8770332877273
 31
0.0
  0
LINE
  5
47F
330
1F
100
AcDbEntity
  8
D-0
  6
Continuous
 62
     7
370
     9
100
AcDbLine
 10
-595.5392704814755
 20
-800.6229744498366
 30
0.0
 11
-595.5392704814755
 21
-799.122692162239
 31
0.0
  0
LINE
  5
480
330
1F
100
AcDbEntity
  8
D-0
  6
Continuous
 62
     7
370
     9
100
AcDbLine
 10
-595.5392704814755
 20
-799.122692162239
 30
0.0
 11
-594.0389881938778
 21
-799.122692162239
 31
0.0
  0
LINE
  5
481
330
1F
100
AcDbEntity
  8
D-0
  6
Continuous
 62
     7
370
     9
100
AcDbLine
 10
-594.0389881938778
 20
-799.122692162239
 30
0.0
 11
-594.0389881938778
 21
-800.6229744498366
 31
0.0
  0
LINE
  5
482
330
1F
100
AcDbEntity
  8
D-0
  6
Continuous
 62
     7
370
     9
100
AcDbLine
 10
-594.0389881938778
 20
-800.6229744498366
 30
0.0
 11
-595.5392704814755
 21
-800.6229744498366
 31
0.0
  0
LINE
  5
483
330
1F
100
AcDbEntity
  8
D-0
  6
Continuous
 62
     7
370
     9
100
AcDbLine
 10
-607.3869191020809
 20
-767.054935509407
 30
0.0
 11
-607.3869191020809
 21
-765.5546532218093
 31
0.0
  0
LINE
  5
484
330
1F
100
AcDbEntity
  8
D-0
  6
Continuous
 62
     7
370
     9
100
AcDbLine
 10
-607.3869191020809
 20
-765.5546532218093
 30
0.0
 11
-605.8866368144833
 21
-765.5546532218093
 31
0.0
  0
LINE
  5
485
330
1F
100
AcDbEntity
  8
D-0
  6
Continuous
 62
     7
370
     9
100
AcDbLine
 10
-605.8866368144833
 20
-765.5546532218093
 30
0.0
 11
-605.8866368144833
 21
-767.054935509407
 31
0.0
  0
LINE
  5
486
330
1F
100
AcDbEntity
  8
D-0
  6
Continuous
 62
     7
370
     9
100
AcDbLine
 10
-605.8866368144833
 20
-767.054935509407
 30
0.0
 11
-607.3869191020809
 21
-767.054935509407
 31
0.0
  0
LINE
  5
487
330
1F
100
AcDbEntity
  8
D-0
  6
Continuous
 62
     7
370
     9
100
AcDbLine
 10
-552.0980535358273
 20
-652.8712044303054
 30
0.0
 11
-552.0980535358273
 21
-651.3709221427077
 31
0.0
  0
LINE
  5
488
330
1F
100
AcDbEntity
  8
D-0
  6
Continuous
 62
     7
370
     9
100
AcDbLine
 10
-552.0980535358273
 20
-651.3709221427077
 30
0.0
 11
-550.5982695430599
 21
-651.3709221427077
 31
0.0
  0
LINE
  5
489
330
1F
100
AcDbEntity
  8
D-0
  6
Continuous
 62
     7
370
     9
100
AcDbLine
 10
-550.5982695430599
 20
-651.3709221427077
 30
0.0
 11
-550.5982695430599
 21
-652.8712044303054
 31
0.0
  0
LINE
  5
48A
330
1F
100
AcDbEntity
  8
D-0
  6
Continuous
 62
     7
370
     9
100
AcDbLine
 10
-550.5982695430599
 20
-652.8712044303054
 30
0.0
 11
-552.0980535358273
 21
-652.8712044303054
 31
0.0
  0
LINE
  5
48B
330
1F
100
AcDbEntity
  8
D-0
  6
Continuous
 62
     7
370
     9
100
AcDbLine
 10
-540.2508993357502
 20
-552.9876671378249
 30
0.0
 11
-540.2508993357502
 21
-551.4873848502273
 31
0.0
  0
LINE
  5
48C
330
1F
100
AcDbEntity
  8
D-0
  6
Continuous
 62
     7
370
     9
100
AcDbLine
 10
-540.2508993357502
 20
-551.4873848502273
 30
0.0
 11
-538.7506197303616
 21
-551.4873848502273
 31
0.0
  0
LINE
  5
48D
330
1F
100
AcDbEntity
  8
D-0
  6
Continuous
 62
     7
370
     9
100
AcDbLine
 10
-538.7506197303616
 20
-551.4873848502273
 30
0.0
 11
-538.7506197303616
 21
-552.9876671378249
 31
0.0
  0
LINE
  5
48E
330
1F
100
AcDbEntity
  8
D-0
  6
Continuous
 62
     7
370
     9
100
AcDbLine
 10
-538.7506197303616
 20
-552.9876671378249
 30
0.0
 11
-540.2508993357502
 21
-552.9876671378249
 31
0.0
  0
LINE
  5
48F
330
1F
100
AcDbEntity
  8
D-0
  6
Continuous
 62
     7
370
     9
100
AcDbLine
 10
-444.1398630946957
 20
-564.2120132987136
 30
0.0
 11
-444.1398630946957
 21
-562.711731011116
 31
0.0
  0
LINE
  5
490
330
1F
100
AcDbEntity
  8
D-0
  6
Continuous
 62
     7
370
     9
100
AcDbLine
 10
-444.1398630946957
 20
-562.711731011116
 30
0.0
 11
-442.6400862544857
 21
-562.711731011116
 31
0.0
  0
LINE
  5
491
330
1F
100
AcDbEntity
  8
D-0
  6
Continuous
 62
     7
370
     9
100
AcDbLine
 10
-442.6400862544857
 20
-562.711731011116
 30
0.0
 11
-442.6400862544857
 21
-564.2120132987136
 31
0.0
  0
LINE
  5
492
330
1F
100
AcDbEntity
  8
D-0
  6
Continuous
 62
     7
370
     9
100
AcDbLine
 10
-442.6400862544857
 20
-564.2120132987136
 30
0.0
 11
-444.1398630946957
 21
-564.2120132987136
 31
0.0
  0
LINE
  5
493
330
1F
100
AcDbEntity
  8
D-0
  6
Continuous
 62
     7
370
     9
100
AcDbLine
 10
-496.6744194835507
 20
-555.5868874137038
 30
0.0
 11
-496.6744194835507
 21
-554.0866051261062
 31
0.0
  0
LINE
  5
494
330
1F
100
AcDbEntity
  8
D-0
  6
Continuous
 62
     7
370
     9
100
AcDbLine
 10
-496.6744194835507
 20
-554.0866051261062
 30
0.0
 11
-495.1746378749691
 21
-554.0866051261062
 31
0.0
  0
LINE
  5
495
330
1F
100
AcDbEntity
  8
D-0
  6
Continuous
 62
     7
370
     9
100
AcDbLine
 10
-495.1746378749691
 20
-554.0866051261062
 30
0.0
 11
-495.1746378749691
 21
-555.5868874137038
 31
0.0
  0
LINE
  5
496
330
1F
100
AcDbEntity
  8
D-0
  6
Continuous
 62
     7
370
     9
100
AcDbLine
 10
-495.1746378749691
 20
-555.5868874137038
 30
0.0
 11
-496.6744194835507
 21
-555.5868874137038
 31
0.0
  0
LINE
  5
497
330
1F
100
AcDbEntity
  8
D-0
  6
Continuous
 62
     7
370
     9
100
AcDbLine
 10
-633.0561648219906
 20
-616.1747894827956
 30
0.0
 11
-633.0561648219906
 21
-614.6745262686843
 31
0.0
  0
LINE
  5
498
330
1F
100
AcDbEntity
  8
D-0
  6
Continuous
 62
     7
370
     9
100
AcDbLine
 10
-633.0561648219906
 20
-614.6745262686843
 30
0.0
 11
-631.5563784450375
 21
-614.6745262686843
 31
0.0
  0
LINE
  5
499
330
1F
100
AcDbEntity
  8
D-0
  6
Continuous
 62
     7
370
     9
100
AcDbLine
 10
-631.5563784450375
 20
-614.6745262686843
 30
0.0
 11
-631.5563784450375
 21
-616.1747894827956
 31
0.0
  0
LINE
  5
49A
330
1F
100
AcDbEntity
  8
D-0
  6
Continuous
 62
     7
370
     9
100
AcDbLine
 10
-631.5563784450375
 20
-616.1747894827956
 30
0.0
 11
-633.0561648219906
 21
-616.1747894827956
 31
0.0
  0
LINE
  5
49B
330
1F
100
AcDbEntity
  8
D-0
  6
Continuous
 62
     7
370
     9
100
AcDbLine
 10
-601.9357691615902
 20
-474.4038353507156
 30
0.0
 11
-601.9357691615902
 21
-472.9035625998611
 31
0.0
  0
LINE
  5
49C
330
1F
100
AcDbEntity
  8
D-0
  6
Continuous
 62
     7
370
     9
100
AcDbLine
 10
-601.9357691615902
 20
-472.9035625998611
 30
0.0
 11
-600.4354916423641
 21
-472.9035625998611
 31
0.0
  0
LINE
  5
49D
330
1F
100
AcDbEntity
  8
D-0
  6
Continuous
 62
     7
370
     9
100
AcDbLine
 10
-600.4354916423641
 20
-472.9035625998611
 30
0.0
 11
-600.4354916423641
 21
-474.4038353507156
 31
0.0
  0
LINE
  5
49E
330
1F
100
AcDbEntity
  8
D-0
  6
Continuous
 62
     7
370
     9
100
AcDbLine
 10
-600.4354916423641
 20
-474.4038353507156
 30
0.0
 11
-601.9357691615902
 21
-474.4038353507156
 31
0.0
  0
LINE
  5
49F
330
1F
100
AcDbEntity
  8
D-0
  6
Continuous
 62
     7
370
     9
100
AcDbLine
 10
-546.1747240930878
 20
-585.735183769905
 30
0.0
 11
-546.1747240930878
 21
-584.2349014823074
 31
0.0
  0
LINE
  5
4A0
330
1F
100
AcDbEntity
  8
D-0
  6
Continuous
 62
     7
370
     9
100
AcDbLine
 10
-546.1747240930878
 20
-584.2349014823074
 30
0.0
 11
-544.6744446739636
 21
-584.2349014823074
 31
0.0
  0
LINE
  5
4A1
330
1F
100
AcDbEntity
  8
D-0
  6
Continuous
 62
     7
370
     9
100
AcDbLine
 10
-544.6744446739636
 20
-584.2349014823074
 30
0.0
 11
-544.6744446739636
 21
-585.735183769905
 31
0.0
  0
LINE
  5
4A2
330
1F
100
AcDbEntity
  8
D-0
  6
Continuous
 62
     7
370
     9
100
AcDbLine
 10
-544.6744446739636
 20
-585.735183769905
 30
0.0
 11
-546.1747240930878
 21
-585.735183769905
 31
0.0
  0
LINE
  5
4A3
330
1F
100
AcDbEntity
  8
D-0
  6
Continuous
 62
     7
370
     9
100
AcDbLine
 10
-605.4119788020931
 20
-608.2765350882644
 30
0.0
 11
-605.4119788020931
 21
-606.7762528006667
 31
0.0
  0
LINE
  5
4A4
330
1F
100
AcDbEntity
  8
D-0
  6
Continuous
 62
     7
370
     9
100
AcDbLine
 10
-605.4119788020931
 20
-606.7762528006667
 30
0.0
 11
-603.9121971935116
 21
-606.7762528006667
 31
0.0
  0
LINE
  5
4A5
330
1F
100
AcDbEntity
  8
D-0
  6
Continuous
 62
     7
370
     9
100
AcDbLine
 10
-603.9121971935116
 20
-606.7762528006667
 30
0.0
 11
-603.9121971935116
 21
-608.2765350882644
 31
0.0
  0
LINE
  5
4A6
330
1F
100
AcDbEntity
  8
D-0
  6
Continuous
 62
     7
370
     9
100
AcDbLine
 10
-603.9121971935116
 20
-608.2765350882644
 30
0.0
 11
-605.4119788020931
 21
-608.2765350882644
 31
0.0
  0
LINE
  5
4A7
330
1F
100
AcDbEntity
  8
D-0
  6
Continuous
 62
     7
370
     9
100
AcDbLine
 10
-593.5643301814877
 20
-681.3363609854812
 30
0.0
 11
-593.5643301814877
 21
-679.8360786978835
 31
0.0
  0
LINE
  5
4A8
330
1F
100
AcDbEntity
  8
D-0
  6
Continuous
 62
     7
370
     9
100
AcDbLine
 10
-593.5643301814877
 20
-679.8360786978835
 30
0.0
 11
-592.0645485729061
 21
-679.8360786978835
 31
0.0
  0
LINE
  5
4A9
330
1F
100
AcDbEntity
  8
D-0
  6
Continuous
 62
     7
370
     9
100
AcDbLine
 10
-592.0645485729061
 20
-679.8360786978835
 30
0.0
 11
-592.0645485729061
 21
-681.3363609854812
 31
0.0
  0
LINE
  5
4AA
330
1F
100
AcDbEntity
  8
D-0
  6
Continuous
 62
     7
370
     9
100
AcDbLine
 10
-592.0645485729061
 20
-681.3363609854812
 30
0.0
 11
-593.5643301814877
 21
-681.3363609854812
 31
0.0
  0
LINE
  5
4AB
330
1F
100
AcDbEntity
  8
D-0
  6
Continuous
 62
     7
370
     9
100
AcDbLine
 10
-641.9419012874447
 20
-680.3488884513015
 30
0.0
 11
-641.9419012874447
 21
-678.8486061637038
 31
0.0
  0
LINE
  5
4AC
330
1F
100
AcDbEntity
  8
D-0
  6
Continuous
 62
     7
370
     9
100
AcDbLine
 10
-641.9419012874447
 20
-678.8486061637038
 30
0.0
 11
-640.441618999847
 21
-678.8486061637038
 31
0.0
  0
LINE
  5
4AD
330
1F
100
AcDbEntity
  8
D-0
  6
Continuous
 62
     7
370
     9
100
AcDbLine
 10
-640.441618999847
 20
-678.8486061637038
 30
0.0
 11
-640.441618999847
 21
-680.3488884513015
 31
0.0
  0
LINE
  5
4AE
330
1F
100
AcDbEntity
  8
D-0
  6
Continuous
 62
     7
370
     9
100
AcDbLine
 10
-640.441618999847
 20
-680.3488884513015
 30
0.0
 11
-641.9419012874447
 21
-680.3488884513015
 31
0.0
  0
LINE
  5
4AF
330
1F
100
AcDbEntity
  8
D-0
  6
Continuous
 62
     7
370
     9
100
AcDbLine
 10
-628.9888583034359
 20
-799.4546471182937
 30
0.0
 11
-628.9888583034359
 21
-797.954364830696
 31
0.0
  0
LINE
  5
4B0
330
1F
100
AcDbEntity
  8
D-0
  6
Continuous
 62
     7
370
     9
100
AcDbLine
 10
-628.9888583034359
 20
-797.954364830696
 30
0.0
 11
-627.489081463226
 21
-797.954364830696
 31
0.0
  0
LINE
  5
4B1
330
1F
100
AcDbEntity
  8
D-0
  6
Continuous
 62
     7
370
     9
100
AcDbLine
 10
-627.489081463226
 20
-797.954364830696
 30
0.0
 11
-627.489081463226
 21
-799.4546471182937
 31
0.0
  0
LINE
  5
4B2
330
1F
100
AcDbEntity
  8
D-0
  6
Continuous
 62
     7
370
     9
100
AcDbLine
 10
-627.489081463226
 20
-799.4546471182937
 30
0.0
 11
-628.9888583034359
 21
-799.4546471182937
 31
0.0
  0
LINE
  5
4B3
330
1F
100
AcDbEntity
  8
D-0
  6
Continuous
 62
     7
370
     9
100
AcDbLine
 10
-578.4629379123531
 20
-828.9622841422195
 30
0.0
 11
-578.4629379123531
 21
-827.4620018546218
 31
0.0
  0
LINE
  5
4B4
330
1F
100
AcDbEntity
  8
D-0
  6
Continuous
 62
     7
370
     9
100
AcDbLine
 10
-578.4629379123531
 20
-827.4620018546218
 30
0.0
 11
-576.9631539195858
 21
-827.4620018546218
 31
0.0
  0
LINE
  5
4B5
330
1F
100
AcDbEntity
  8
D-0
  6
Continuous
 62
     7
370
     9
100
AcDbLine
 10
-576.9631539195858
 20
-827.4620018546218
 30
0.0
 11
-576.9631539195858
 21
-828.9622841422195
 31
0.0
  0
LINE
  5
4B6
330
1F
100
AcDbEntity
  8
D-0
  6
Continuous
 62
     7
370
     9
100
AcDbLine
 10
-576.9631539195858
 20
-828.9622841422195
 30
0.0
 11
-578.4629379123531
 21
-828.9622841422195
 31
0.0
  0
LINE
  5
4B7
330
1F
100
AcDbEntity
  8
D-0
  6
Continuous
 62
     7
370
     9
100
AcDbLine
 10
-542.2253425330006
 20
-753.2328377310866
 30
0.0
 11
-542.2253425330006
 21
-751.7325935904616
 31
0.0
  0
LINE
  5
4B8
330
1F
100
AcDbEntity
  8
D-0
  6
Continuous
 62
     7
370
     9
100
AcDbLine
 10
-542.2253425330006
 20
-751.7325935904616
 30
0.0
 11
-540.7250629276119
 21
-751.7325935904616
 31
0.0
  0
LINE
  5
4B9
330
1F
100
AcDbEntity
  8
D-0
  6
Continuous
 62
     7
370
     9
100
AcDbLine
 10
-540.7250629276119
 20
-751.7325935904616
 30
0.0
 11
-540.7250629276119
 21
-753.2328377310866
 31
0.0
  0
LINE
  5
4BA
330
1F
100
AcDbEntity
  8
D-0
  6
Continuous
 62
     7
370
     9
100
AcDbLine
 10
-540.7250629276119
 20
-753.2328377310866
 30
0.0
 11
-542.2253425330006
 21
-753.2328377310866
 31
0.0
  0
LINE
  5
4BB
330
1F
100
AcDbEntity
  8
D-0
  6
Continuous
 62
     7
370
     9
100
AcDbLine
 10
-659.2580424159847
 20
-635.1695786063308
 30
0.0
 11
-659.2580424159847
 21
-633.6692963187331
 31
0.0
  0
LINE
  5
4BC
330
1F
100
AcDbEntity
  8
D-0
  6
Continuous
 62
     7
370
     9
100
AcDbLine
 10
-659.2580424159847
 20
-633.6692963187331
 30
0.0
 11
-657.7577601283871
 21
-633.6692963187331
 31
0.0
  0
LINE
  5
4BD
330
1F
100
AcDbEntity
  8
D-0
  6
Continuous
 62
     7
370
     9
100
AcDbLine
 10
-657.7577601283871
 20
-633.6692963187331
 30
0.0
 11
-657.7577601283871
 21
-635.1695786063308
 31
0.0
  0
LINE
  5
4BE
330
1F
100
AcDbEntity
  8
D-0
  6
Continuous
 62
     7
370
     9
100
AcDbLine
 10
-657.7577601283871
 20
-635.1695786063308
 30
0.0
 11
-659.2580424159847
 21
-635.1695786063308
 31
0.0
  0
LINE
  5
4BF
330
1F
100
AcDbEntity
  8
D-0
  6
Continuous
 62
     7
370
     9
100
AcDbLine
 10
-542.3363275736652
 20
-678.9036140982741
 30
0.0
 11
-542.3363275736652
 21
-677.4033318106765
 31
0.0
  0
LINE
  5
4C0
330
1F
100
AcDbEntity
  8
D-0
  6
Continuous
 62
     7
370
     9
100
AcDbLine
 10
-542.3363275736652
 20
-677.4033318106765
 30
0.0
 11
-540.8360479682766
 21
-677.4033318106765
 31
0.0
  0
LINE
  5
4C1
330
1F
100
AcDbEntity
  8
D-0
  6
Continuous
 62
     7
370
     9
100
AcDbLine
 10
-540.8360479682766
 20
-677.4033318106765
 30
0.0
 11
-540.8360479682766
 21
-678.9036140982741
 31
0.0
  0
LINE
  5
4C2
330
1F
100
AcDbEntity
  8
D-0
  6
Continuous
 62
     7
370
     9
100
AcDbLine
 10
-540.8360479682766
 20
-678.9036140982741
 30
0.0
 11
-542.3363275736652
 21
-678.9036140982741
 31
0.0
  0
LINE
  5
4C3
330
1F
100
AcDbEntity
  8
D-0
  6
Continuous
 62
     7
370
     9
100
AcDbLine
 10
-567.066660961517
 20
-802.2495995108718
 30
0.0
 11
-567.066660961517
 21
-800.7493172232741
 31
0.0
  0
LINE
  5
4C4
330
1F
100
AcDbEntity
  8
D-0
  6
Continuous
 62
     7
370
     9
100
AcDbLine
 10
-567.066660961517
 20
-800.7493172232741
 30
0.0
 11
-565.5663810581051
 21
-800.7493172232741
 31
0.0
  0
LINE
  5
4C5
330
1F
100
AcDbEntity
  8
D-0
  6
Continuous
 62
     7
370
     9
100
AcDbLine
 10
-565.5663810581051
 20
-800.7493172232741
 30
0.0
 11
-565.5663810581051
 21
-802.2495995108718
 31
0.0
  0
LINE
  5
4C6
330
1F
100
AcDbEntity
  8
D-0
  6
Continuous
 62
     7
370
     9
100
AcDbLine
 10
-565.5663810581051
 20
-802.2495995108718
 30
0.0
 11
-567.066660961517
 21
-802.2495995108718
 31
0.0
  0
LINE
  5
4C7
330
1F
100
AcDbEntity
  8
D-0
  6
Continuous
 62
     7
370
     9
100
AcDbLine
 10
-535.2228824704968
 20
-489.7876511160965
 30
0.0
 11
-535.2228824704968
 21
-488.2873688284988
 31
0.0
  0
LINE
  5
4C8
330
1F
100
AcDbEntity
  8
D-0
  6
Continuous
 62
     7
370
     9
100
AcDbLine
 10
-535.2228824704968
 20
-488.2873688284988
 30
0.0
 11
-533.7226031631313
 21
-488.2873688284988
 31
0.0
  0
LINE
  5
4C9
330
1F
100
AcDbEntity
  8
D-0
  6
Continuous
 62
     7
370
     9
100
AcDbLine
 10
-533.7226031631313
 20
-488.2873688284988
 30
0.0
 11
-533.7226031631313
 21
-489.7876511160965
 31
0.0
  0
LINE
  5
4CA
330
1F
100
AcDbEntity
  8
D-0
  6
Continuous
 62
     7
370
     9
100
AcDbLine
 10
-533.7226031631313
 20
-489.7876511160965
 30
0.0
 11
-535.2228824704968
 21
-489.7876511160965
 31
0.0
  0
LINE
  5
4CB
330
1F
100
AcDbEntity
  8
D-4
  6
Continuous
 62
     7
370
     9
100
AcDbLine
 10
-369.3855105251156
 20
-477.2983704154129
 30
0.0
 11
-369.3855105251156
 21
-539.781929070198
 31
0.0
  0
LINE
  5
4CC
330
1F
100
AcDbEntity
  8
D-5
  6
Continuous
 62
     7
370
     9
100
AcDbLine
 10
-379.3860636562191
 20
-415.4723320548172
 30
0.0
 11
-365.574380001434
 21
-394.6329174582596
 31
0.0
  0
LINE
  5
4CD
330
1F
100
AcDbEntity
  8
D-5
  6
Continuous
 62
     7
370
     9
100
AcDbLine
 10
-379.3860636562191
 20
-415.4723320548172
 30
0.0
 11
-360.6513987392269
 21
-398.9182291571731
 31
0.0
  0
LINE
  5
4CE
330
1F
100
AcDbEntity
  8
D-5
  6
Continuous
 62
     7
370
     9
100
AcDbLine
 10
-379.3860636562191
 20
-415.4723320548172
 30
0.0
 11
-257.63946636618
 21
-275.5915890280838
 31
0.0
  0
LINE
  5
4CF
330
1F
100
AcDbEntity
  8
D-5
  6
Continuous
 62
     7
370
     9
100
AcDbLine
 10
-257.63946636618
 20
-275.5915890280838
 30
0.0
 11
129.0640057712712
 21
-275.5915890280838
 31
0.0
  0
LINE
  5
4D0
330
1F
100
AcDbEntity
  8
D-4
  6
Continuous
 62
     7
370
     9
100
AcDbLine
 10
-357.5586710780941
 20
-465.4725227896805
 30
0.0
 11
-267.8116236537776
 21
-465.4725227896805
 31
0.0
  0
LINE
  5
4D1
330
1F
100
AcDbEntity
  8
D-4
  6
Continuous
 62
     7
370
     9
100
AcDbLine
 10
-357.5586710780941
 20
-415.4722843711014
 30
0.0
 11
-267.8116236537776
 21
-415.4722843711014
 31
0.0
  0
LINE
  5
4D2
330
1F
100
AcDbEntity
  8
D-4
  6
Continuous
 62
     7
370
     9
100
AcDbLine
 10
-270.8121691554866
 20
-415.4722843711014
 30
0.0
 11
-270.8121691554866
 21
-330.4721413199539
 31
0.0
  0
LINE
  5
4D3
330
1F
100
AcDbEntity
  8
D-4
  6
Continuous
 62
     7
370
     9
100
AcDbLine
 10
-270.8121691554866
 20
-465.4725227896805
 30
0.0
 11
-270.8121691554866
 21
-415.4722843711014
 31
0.0
  0
LINE
  5
4D4
330
1F
100
AcDbEntity
  8
D-4
  6
Continuous
 62
     7
370
     9
100
AcDbLine
 10
-514.3859420627438
 20
-536.781383568489
 30
0.0
 11
-669.3849287837826
 21
-536.781383568489
 31
0.0
  0
LINE
  5
4D5
330
1F
100
AcDbEntity
  8
D-9
  6
Continuous
 62
     4
370
     9
100
AcDbLine
 10
-654.3855677455746
 20
-407.9728088919754
 30
0.0
 11
-539.3858109325253
 21
-407.9728088919754
 31
0.0
  0
LINE
  5
4D6
330
1F
100
AcDbEntity
  8
D-1
  6
Continuous
 62
     2
370
     9
100
AcDbLine
 10
-514.3859754413448
 20
-333.4721414391632
 30
0.0
 11
-514.3859754413448
 21
-357.9720244948501
 31
0.0
  0
LINE
  5
4D7
330
1F
100
AcDbEntity
  8
D-1
  6
Continuous
 62
     2
370
     9
100
AcDbLine
 10
-514.3859754413448
 20
-452.4717674796219
 30
0.0
 11
-514.3859754413448
 21
-427.9718838278885
 31
0.0
  0
LINE
  5
4D8
330
1F
100
AcDbEntity
  8
D-1
  6
Continuous
 62
     2
370
     9
100
AcDbLine
 10
-536.3857267707668
 20
-330.4725521087337
 30
0.0
 11
-517.3854409068905
 21
-330.4725521087337
 31
0.0
  0
LINE
  5
4D9
330
1F
100
AcDbEntity
  8
D-1
  6
Continuous
 62
     2
370
     9
100
AcDbLine
 10
-664.3856058925472
 20
-425.4720650260086
 30
0.0
 11
-664.3856058925472
 21
-417.9721603934402
 31
0.0
  0
LINE
  5
4DA
330
1F
100
AcDbEntity
  8
D-1
  6
Continuous
 62
     2
370
     9
100
AcDbLine
 10
-669.385996899017
 20
-425.4720650260086
 30
0.0
 11
-669.385996899017
 21
-417.9721603934402
 31
0.0
  0
LINE
  5
4DB
330
1F
100
AcDbEntity
  8
D-1
  6
Continuous
 62
     2
370
     9
100
AcDbLine
 10
-534.3860416025005
 20
-450.4720840994949
 30
0.0
 11
-519.3857441753231
 21
-450.4720840994949
 31
0.0
  0
LINE
  5
4DC
330
1F
100
AcDbEntity
  8
D-1
  6
Continuous
 62
     2
370
     9
100
AcDbLine
 10
-534.3857942432247
 20
-455.4723415915603
 30
0.0
 11
-517.3854409068905
 21
-455.4723415915603
 31
0.0
  0
LINE
  5
4DD
330
1F
100
AcDbEntity
  8
D-1
  6
Continuous
 62
     2
370
     9
100
AcDbLine
 10
-539.3858109325253
 20
-420.4717979972
 30
0.0
 11
-539.3858109325253
 21
-333.4721414391632
 31
0.0
  0
LINE
  5
4DE
330
1F
100
AcDbEntity
  8
D-1
  6
Continuous
 62
     2
370
     9
100
AcDbLine
 10
-539.3858109325253
 20
-420.4717979972
 30
0.0
 11
-589.3854819148861
 21
-420.4717979972
 31
0.0
  0
LINE
  5
4DF
330
1F
100
AcDbEntity
  8
D-1
  6
Continuous
 62
     2
370
     9
100
AcDbLine
 10
-664.3856058925472
 20
-430.472322518074
 30
0.0
 11
-539.3858109325253
 21
-430.472322518074
 31
0.0
  0
LINE
  5
4E0
330
1F
100
AcDbEntity
  8
D-1
  6
Continuous
 62
     2
370
     9
100
AcDbLine
 10
-539.3858109325253
 20
-450.4723320548172
 30
0.0
 11
-539.3858109325253
 21
-430.472322518074
 31
0.0
  0
LINE
  5
4E1
330
1F
100
AcDbEntity
  8
D-1
  6
Continuous
 62
     2
370
     9
100
AcDbLine
 10
-534.3860416025005
 20
-430.4720745627517
 30
0.0
 11
-534.3860416025005
 21
-450.4720840994949
 31
0.0
  0
LINE
  5
4E2
330
1F
100
AcDbEntity
  8
D-1
  6
Continuous
 62
     2
370
     9
100
AcDbLine
 10
-539.3860582918011
 20
-425.4720650260086
 30
0.0
 11
-664.3856058925472
 21
-425.4720650260086
 31
0.0
  0
LINE
  5
4E3
330
1F
100
AcDbEntity
  8
D-1
  6
Continuous
 62
     2
370
     9
100
AcDbLine
 10
-534.3860416025005
 20
-420.4720459525223
 30
0.0
 11
-534.3860416025005
 21
-335.4718263094063
 31
0.0
  0
LINE
  5
4E4
330
1F
100
AcDbEntity
  8
D-9
  6
Continuous
 62
     4
370
     9
100
AcDbLine
 10
-539.3858109325253
 20
-413.5632191245193
 30
0.0
 11
-546.2943926364266
 21
-420.4717979972
 31
0.0
  0
LINE
  5
4E5
330
1F
100
AcDbEntity
  8
D-9
  6
Continuous
 62
     4
370
     9
100
AcDbLine
 10
-540.8657483667217
 20
-407.9728088919754
 30
0.0
 11
-553.364923438438
 21
-420.4717979972
 31
0.0
  0
LINE
  5
4E6
330
1F
100
AcDbEntity
  8
D-9
  6
Continuous
 62
     4
370
     9
100
AcDbLine
 10
-547.9370836824261
 20
-407.9728088919754
 30
0.0
 11
-560.4362593501888
 21
-420.4717979972
 31
0.0
  0
LINE
  5
4E7
330
1F
100
AcDbEntity
  8
D-9
  6
Continuous
 62
     4
370
     9
100
AcDbLine
 10
-555.0079236835323
 20
-407.9728088919754
 30
0.0
 11
-567.5070987552486
 21
-420.4717979972
 31
0.0
  0
LINE
  5
4E8
330
1F
100
AcDbEntity
  8
D-9
  6
Continuous
 62
     4
370
     9
100
AcDbLine
 10
-562.0792589992367
 20
-407.9728088919754
 30
0.0
 11
-574.578434070953
 21
-420.4717979972
 31
0.0
  0
LINE
  5
4E9
330
1F
100
AcDbEntity
  8
D-9
  6
Continuous
 62
     4
370
     9
100
AcDbLine
 10
-569.1501007884823
 20
-407.9728088919754
 30
0.0
 11
-581.6494594425045
 21
-420.4717979972
 31
0.0
  0
LINE
  5
4EA
330
1F
100
AcDbEntity
  8
D-9
  6
Continuous
 62
     4
370
     9
100
AcDbLine
 10
-576.2214361041866
 20
-407.9728088919754
 30
0.0
 11
-588.7207947582089
 21
-420.4717979972
 31
0.0
  0
LINE
  5
4EB
330
1F
100
AcDbEntity
  8
D-9
  6
Continuous
 62
     4
370
     9
100
AcDbLine
 10
-611.5771208614193
 20
-407.9728088919754
 30
0.0
 11
-616.5762101024471
 21
-412.9718933646316
 31
0.0
  0
LINE
  5
4EC
330
1F
100
AcDbEntity
  8
D-9
  6
Continuous
 62
     4
370
     9
100
AcDbLine
 10
-618.6479626506649
 20
-407.9728088919754
 30
0.0
 11
-623.6471138805233
 21
-412.9718933646316
 31
0.0
  0
LINE
  5
4ED
330
1F
100
AcDbEntity
  8
D-9
  6
Continuous
 62
     4
370
     9
100
AcDbLine
 10
-654.0036497920834
 20
-407.9728088919754
 30
0.0
 11
-659.003106197723
 21
-412.9718933646316
 31
0.0
  0
LINE
  5
4EE
330
1F
100
AcDbEntity
  8
D-9
  6
Continuous
 62
     4
370
     9
100
AcDbLine
 10
-604.5057879299007
 20
-407.9728088919754
 30
0.0
 11
-609.5050536006771
 21
-412.9718933646316
 31
0.0
  0
LINE
  5
4EF
330
1F
100
AcDbEntity
  8
D-9
  6
Continuous
 62
     4
370
     9
100
AcDbLine
 10
-590.363608440765
 20
-407.9728088919754
 30
0.0
 11
-595.3628025859676
 21
-412.9718933646316
 31
0.0
  0
LINE
  5
4F0
330
1F
100
AcDbEntity
  8
D-9
  6
Continuous
 62
     4
370
     9
100
AcDbLine
 10
-597.4349461406551
 20
-407.9728088919754
 30
0.0
 11
-602.4341212123715
 21
-412.9718933646316
 31
0.0
  0
LINE
  5
4F1
330
1F
100
AcDbEntity
  8
D-9
  6
Continuous
 62
     4
370
     9
100
AcDbLine
 10
-625.719300350555
 20
-407.9728088919754
 30
0.0
 11
-630.7183848232113
 21
-412.9718933646316
 31
0.0
  0
LINE
  5
4F2
330
1F
100
AcDbEntity
  8
D-9
  6
Continuous
 62
     4
370
     9
100
AcDbLine
 10
-632.7901373714291
 20
-407.9728088919754
 30
0.0
 11
-637.789317211517
 21
-412.9718933646316
 31
0.0
  0
LINE
  5
4F3
330
1F
100
AcDbEntity
  8
D-9
  6
Continuous
 62
     4
370
     9
100
AcDbLine
 10
-639.8609743923031
 20
-407.9728088919754
 30
0.0
 11
-644.8601828426205
 21
-412.9718933646316
 31
0.0
  0
LINE
  5
4F4
330
1F
100
AcDbEntity
  8
D-9
  6
Continuous
 62
     4
370
     9
100
AcDbLine
 10
-646.9323168605648
 20
-407.9728088919754
 30
0.0
 11
-651.9315825313412
 21
-412.9718933646316
 31
0.0
  0
LINE
  5
4F5
330
1F
100
AcDbEntity
  8
D-1
  6
Continuous
 62
     2
370
     9
100
AcDbLine
 10
-594.3858109325253
 20
-417.9721603934402
 30
0.0
 11
-664.3856058925472
 21
-417.9721603934402
 31
0.0
  0
LINE
  5
4F6
330
1F
100
AcDbEntity
  8
D-1
  6
Continuous
 62
     2
370
     9
100
AcDbLine
 10
-594.3858109325253
 20
-420.4720650260086
 30
0.0
 11
-594.3858109325253
 21
-417.9721603934402
 31
0.0
  0
LINE
  5
4F7
330
1F
100
AcDbEntity
  8
D-1
  6
Continuous
 62
     2
370
     9
100
AcDbLine
 10
-594.3858109325253
 20
-412.9718933646316
 30
0.0
 11
-664.3856058925472
 21
-412.9718933646316
 31
0.0
  0
LINE
  5
4F8
330
1F
100
AcDbEntity
  8
D-1
  6
Continuous
 62
     2
370
     9
100
AcDbLine
 10
-589.3858109325253
 20
-417.9718933646316
 30
0.0
 11
-589.3858109325253
 21
-420.4717979972
 31
0.0
  0
LINE
  5
4F9
330
1F
100
AcDbEntity
  8
D-9
  6
Continuous
 62
     4
370
     9
100
AcDbLine
 10
-583.292771419891
 20
-407.9728088919754
 30
0.0
 11
-590.3458700984798
 21
-415.0259075705642
 31
0.0
  0
LINE
  5
4FA
330
1F
100
AcDbEntity
  8
D-3
  6
Continuous
 62
     3
370
     9
100
AcDbLine
 10
-530.8857582420193
 20
-335.4718263094063
 30
0.0
 11
-530.8857582420193
 21
-447.9718266074295
 31
0.0
  0
LINE
  5
4FB
330
1F
100
AcDbEntity
  8
D-3
  6
Continuous
 62
     3
370
     9
100
AcDbLine
 10
-369.3858729213558
 20
-425.4717503134842
 30
0.0
 11
-369.3858729213558
 21
-465.4717598502273
 31
0.0
  0
LINE
  5
4FC
330
1F
100
AcDbEntity
  8
D-3
  6
Continuous
 62
     3
370
     9
100
AcDbLine
 10
-494.3857870906673
 20
-447.2914944235916
 30
0.0
 11
-494.3857870906673
 21
-465.4717598502273
 31
0.0
  0
LINE
  5
4FD
330
1F
100
AcDbEntity
  8
D-3
  6
Continuous
 62
     3
370
     9
100
AcDbLine
 10
-497.3147307247006
 20
-440.2203999106521
 30
0.0
 11
-519.3857441753231
 21
-418.1493912284012
 31
0.0
  0
LINE
  5
4FE
330
1F
100
AcDbEntity
  8
D-3
  6
JWW_CENTER1
 62
     3
370
     9
100
AcDbLine
 10
-469.4473181575619
 20
-386.971722656929
 30
0.0
 11
-538.1183002799831
 21
-386.971722656929
 31
0.0
  0
LINE
  5
4FF
330
1F
100
AcDbEntity
  8
D-3
  6
Continuous
 62
     3
370
     9
100
AcDbLine
 10
-476.7081890910946
 20
-408.1493578498001
 30
0.0
 11
-479.8855648845516
 21
-404.9719820563431
 31
0.0
  0
LINE
  5
500
330
1F
100
AcDbEntity
  8
D-3
  6
Continuous
 62
     3
370
     9
100
AcDbLine
 10
-507.8862272113644
 20
-376.971198136055
 30
0.0
 11
-519.3857441753231
 21
-365.4716787879104
 31
0.0
  0
LINE
  5
501
330
1F
100
AcDbEntity
  8
D-A
  6
Continuous
 62
     7
370
     9
100
AcDbLine
 10
-533.1364713519894
 20
-396.9712601248855
 30
0.0
 11
-533.1364713519894
 21
-376.971198136055
 31
0.0
  0
LINE
  5
502
330
1F
100
AcDbEntity
  8
D-A
  6
Continuous
 62
     7
370
     9
100
AcDbLine
 10
-533.1364713519894
 20
-376.971198136055
 30
0.0
 11
-534.3860416025005
 21
-378.2212601248855
 31
0.0
  0
LINE
  5
503
330
1F
100
AcDbEntity
  8
D-A
  6
Continuous
 62
     7
370
     9
100
AcDbLine
 10
-533.1364713519894
 20
-396.9712601248855
 30
0.0
 11
-534.3860416025005
 21
-395.7216892783279
 31
0.0
  0
LINE
  5
504
330
1F
100
AcDbEntity
  8
D-A
  6
Continuous
 62
     7
370
     9
100
AcDbLine
 10
-471.3860092967831
 20
-398.4719858710403
 30
0.0
 11
-471.3860092967831
 21
-375.4714642111892
 31
0.0
  0
LINE
  5
505
330
1F
100
AcDbEntity
  8
D-A
  6
Continuous
 62
     7
370
     9
100
AcDbLine
 10
-477.8860054820858
 20
-404.9719820563431
 30
0.0
 11
-484.3860016673885
 21
-404.9719820563431
 31
0.0
  0
LINE
  5
506
330
1F
100
AcDbEntity
  8
D-A
  6
Continuous
 62
     7
370
     9
100
AcDbLine
 10
-477.8860054820858
 20
-368.9714656417007
 30
0.0
 11
-484.3860016673885
 21
-368.9714656417007
 31
0.0
  0
LINE
  5
507
330
1F
100
AcDbEntity
  8
D-A
  6
Continuous
 62
     7
370
     9
100
AcDbLine
 10
-484.3860016673885
 20
-368.9714656417007
 30
0.0
 11
-484.3860016673885
 21
-404.9719820563431
 31
0.0
  0
LINE
  5
508
330
1F
100
AcDbEntity
  8
D-A
  6
Continuous
 62
     7
370
     9
100
AcDbLine
 10
-484.3860016673885
 20
-376.971198136055
 30
0.0
 11
-519.3857441753231
 21
-376.971198136055
 31
0.0
  0
LINE
  5
509
330
1F
100
AcDbEntity
  8
D-A
  6
Continuous
 62
     7
370
     9
100
AcDbLine
 10
-484.3860016673885
 20
-378.2212601248855
 30
0.0
 11
-519.3857441753231
 21
-378.2212601248855
 31
0.0
  0
LINE
  5
50A
330
1F
100
AcDbEntity
  8
D-A
  6
Continuous
 62
     7
370
     9
100
AcDbLine
 10
-484.3860016673885
 20
-395.7216892783279
 30
0.0
 11
-519.3857441753231
 21
-395.7216892783279
 31
0.0
  0
LINE
  5
50B
330
1F
100
AcDbEntity
  8
D-A
  6
Continuous
 62
     7
370
     9
100
AcDbLine
 10
-484.3860016673885
 20
-396.9712601248855
 30
0.0
 11
-519.3857441753231
 21
-396.9712601248855
 31
0.0
  0
LINE
  5
50C
330
1F
100
AcDbEntity
  8
D-A
  6
Continuous
 62
     7
370
     9
100
AcDbLine
 10
-530.8857582420193
 20
-395.7216892783279
 30
0.0
 11
-534.3860416025005
 21
-395.7216892783279
 31
0.0
  0
LINE
  5
50D
330
1F
100
AcDbEntity
  8
D-A
  6
Continuous
 62
     7
370
     9
100
AcDbLine
 10
-530.8857582420193
 20
-396.9712601248855
 30
0.0
 11
-533.1364713519894
 21
-396.9712601248855
 31
0.0
  0
LINE
  5
50E
330
1F
100
AcDbEntity
  8
D-A
  6
Continuous
 62
     7
370
     9
100
AcDbLine
 10
-530.8857582420193
 20
-378.2212601248855
 30
0.0
 11
-534.3860416025005
 21
-378.2212601248855
 31
0.0
  0
LINE
  5
50F
330
1F
100
AcDbEntity
  8
D-A
  6
Continuous
 62
     7
370
     9
100
AcDbLine
 10
-530.8857582420193
 20
-376.971198136055
 30
0.0
 11
-533.1364713519894
 21
-376.971198136055
 31
0.0
  0
LINE
  5
510
330
1F
100
AcDbEntity
  8
D-3
  6
JWW_DASHED2
 62
     3
370
     9
100
AcDbLine
 10
-494.3857870906673
 20
-453.9717445914383
 30
0.0
 11
-369.3858729213558
 21
-453.9717445914383
 31
0.0
  0
LINE
  5
511
330
1F
100
AcDbEntity
  8
D-3
  6
Continuous
 62
     3
370
     9
100
AcDbLine
 10
-379.3857775539242
 20
-415.4718456809158
 30
0.0
 11
-459.0304671138607
 21
-415.4718456809158
 31
0.0
  0
LINE
  5
512
330
1F
100
AcDbEntity
  8
D-3
  6
Continuous
 62
     3
370
     9
100
AcDbLine
 10
-494.3857870906673
 20
-465.4717598502273
 30
0.0
 11
-369.3858729213558
 21
-465.4717598502273
 31
0.0
  0
LINE
  5
513
330
1F
100
AcDbEntity
  8
D-1
  6
Continuous
 62
     2
370
     9
100
AcDbLine
 10
-534.3860416025005
 20
-335.4718263094063
 30
0.0
 11
-519.3857441753231
 21
-335.4718263094063
 31
0.0
  0
LINE
  5
514
330
1F
100
AcDbEntity
  8
D-1
  6
Continuous
 62
     2
370
     9
100
AcDbLine
 10
-514.3859754413448
 20
-357.9720244948501
 30
0.0
 11
-519.3857441753231
 21
-357.9720244948501
 31
0.0
  0
LINE
  5
515
330
1F
100
AcDbEntity
  8
D-1
  6
Continuous
 62
     2
370
     9
100
AcDbLine
 10
-519.3857441753231
 20
-357.9720244948501
 30
0.0
 11
-519.3857441753231
 21
-335.4718263094063
 31
0.0
  0
LINE
  5
516
330
1F
100
AcDbEntity
  8
D-3
  6
Continuous
 62
     3
370
     9
100
AcDbLine
 10
-530.8857582420193
 20
-335.4718263094063
 30
0.0
 11
-519.3857441753231
 21
-335.4718263094063
 31
0.0
  0
LINE
  5
517
330
1F
100
AcDbEntity
  8
D-1
  6
Continuous
 62
     2
370
     9
100
AcDbLine
 10
-514.3859754413448
 20
-427.9718838278885
 30
0.0
 11
-519.3857441753231
 21
-427.9718838278885
 31
0.0
  0
LINE
  5
518
330
1F
100
AcDbEntity
  8
D-1
  6
Continuous
 62
     2
370
     9
100
AcDbLine
 10
-519.3857441753231
 20
-450.4720840994949
 30
0.0
 11
-519.3857441753231
 21
-427.9718838278885
 31
0.0
  0
LINE
  5
519
330
1F
100
AcDbEntity
  8
D-3
  6
Continuous
 62
     3
370
     9
100
AcDbLine
 10
-530.8857582420193
 20
-447.9718266074295
 30
0.0
 11
-519.3857441753231
 21
-447.9718266074295
 31
0.0
  0
LINE
  5
51A
330
1F
100
AcDbEntity
  8
D-3
  6
Continuous
 62
     3
370
     9
100
AcDbLine
 10
-519.3857441753231
 20
-335.4718263094063
 30
0.0
 11
-519.3857441753231
 21
-447.9718266074295
 31
0.0
  0
LINE
  5
51B
330
1F
100
AcDbEntity
  8
D-6
  6
Continuous
 62
     6
370
     9
100
AcDbLine
 10
-517.3854409068905
 20
-330.4721413199539
 30
0.0
 11
-104.3840609401546
 21
-330.4721413199539
 31
0.0
  0
LINE
  5
51C
330
1F
100
AcDbEntity
  8
D-6
  6
Continuous
 62
     6
370
     9
100
AcDbLine
 10
-669.3849287837826
 20
-425.4720650260086
 30
0.0
 11
-669.3849287837826
 21
-830.4714928214187
 31
0.0
  0
LINE
  5
51D
330
1F
100
AcDbEntity
  8
D-4
  6
Continuous
 62
     7
370
     9
100
AcDbLine
 10
-586.2398062557064
 20
-455.4719791953201
 30
0.0
 11
-817.8680048793636
 21
-455.4719791953201
 31
0.0
  0
LINE
  5
51E
330
1F
100
AcDbEntity
  8
D-5
  6
Continuous
 62
     7
370
     9
100
AcDbLine
 10
-544.868668420621
 20
-469.2489777152176
 30
0.0
 11
-609.9171601146542
 21
-412.6319752280349
 31
0.0
  0
LINE
  5
51F
330
1F
100
AcDbEntity
  8
D-5
  6
Continuous
 62
     7
370
     9
100
AcDbLine
 10
-609.9171601146542
 20
-412.6319752280349
 30
0.0
 11
-593.3635483592831
 21
-431.3661442343826
 31
0.0
  0
LINE
  5
520
330
1F
100
AcDbEntity
  8
D-5
  6
Continuous
 62
     7
370
     9
100
AcDbLine
 10
-609.9171601146542
 20
-412.6319752280349
 30
0.0
 11
-589.0787373393856
 21
-426.4436684195633
 31
0.0
  0
ARC
  5
521
330
1F
100
AcDbEntity
  8
D-9
  6
Continuous
 62
     4
370
     9
100
AcDbCircle
 10
-654.3855677455746
 20
-412.9720840994949
 30
0.0
 40
5.0
100
AcDbArc
 50
90.0
 51
180.0
  0
ARC
  5
522
330
1F
100
AcDbEntity
  8
D-1
  6
Continuous
 62
     2
370
     9
100
AcDbCircle
 10
-664.3856058925472
 20
-417.9721603934402
 30
0.0
 40
5.0
100
AcDbArc
 50
90.0
 51
180.0
  0
ARC
  5
523
330
1F
100
AcDbEntity
  8
D-1
  6
Continuous
 62
     2
370
     9
100
AcDbCircle
 10
-517.3854409068905
 20
-333.4721414391632
 30
0.0
 40
3.00000011920929
100
AcDbArc
 50
0.0
 51
90.0
  0
ARC
  5
524
330
1F
100
AcDbEntity
  8
D-1
  6
Continuous
 62
     2
370
     9
100
AcDbCircle
 10
-536.3857267707668
 20
-333.4721414391632
 30
0.0
 40
3.00000011920929
100
AcDbArc
 50
90.0
 51
180.0
  0
ARC
  5
525
330
1F
100
AcDbEntity
  8
D-1
  6
Continuous
 62
     2
370
     9
100
AcDbCircle
 10
-517.3854409068905
 20
-452.4717674796219
 30
0.0
 40
3.00000011920929
100
AcDbArc
 50
270.0
 51
0.0
  0
ARC
  5
526
330
1F
100
AcDbEntity
  8
D-1
  6
Continuous
 62
     2
370
     9
100
AcDbCircle
 10
-664.3856058925472
 20
-425.4720650260086
 30
0.0
 40
5.0
100
AcDbArc
 50
180.0
 51
270.0
  0
ARC
  5
527
330
1F
100
AcDbEntity
  8
D-1
  6
Continuous
 62
     2
370
     9
100
AcDbCircle
 10
-534.3857942432247
 20
-450.4723320548172
 30
0.0
 40
5.0
100
AcDbArc
 50
180.0
 51
270.0
  0
ARC
  5
528
330
1F
100
AcDbEntity
  8
D-1
  6
Continuous
 62
     2
370
     9
100
AcDbCircle
 10
-539.3860582918011
 20
-430.4720745627517
 30
0.0
 40
5.0
100
AcDbArc
 50
0.0
 51
90.0
  0
ARC
  5
529
330
1F
100
AcDbEntity
  8
D-1
  6
Continuous
 62
     2
370
     9
100
AcDbCircle
 10
-539.3860582918011
 20
-420.4720459525223
 30
0.0
 40
5.0
100
AcDbArc
 50
270.0
 51
0.0
  0
ARC
  5
52A
330
1F
100
AcDbEntity
  8
D-1
  6
Continuous
 62
     2
370
     9
100
AcDbCircle
 10
-589.3858109325253
 20
-420.4720650260086
 30
0.0
 40
5.0
100
AcDbArc
 50
180.0
 51
270.0
  0
ARC
  5
52B
330
1F
100
AcDbEntity
  8
D-1
  6
Continuous
 62
     2
370
     9
100
AcDbCircle
 10
-594.3858109325253
 20
-417.9718933646316
 30
0.0
 40
5.0
100
AcDbArc
 50
0.0
 51
90.0
  0
ARC
  5
52C
330
1F
100
AcDbEntity
  8
D-3
  6
Continuous
 62
     3
370
     9
100
AcDbCircle
 10
-459.0304671138607
 20
-390.4717598502273
 30
0.0
 40
25.0
100
AcDbArc
 50
225.0
 51
270.0
  0
ARC
  5
52D
330
1F
100
AcDbEntity
  8
D-3
  6
Continuous
 62
     3
370
     9
100
AcDbCircle
 10
-379.3857775539242
 20
-425.4717503134842
 30
0.0
 40
10.0
100
AcDbArc
 50
0.0
 51
90.0
  0
ARC
  5
52E
330
1F
100
AcDbEntity
  8
D-3
  6
Continuous
 62
     3
370
     9
100
AcDbCircle
 10
-504.3858180850826
 20
-447.2914944235916
 30
0.0
 40
10.0
100
AcDbArc
 50
0.0
 51
45.000244140625
  0
ARC
  5
52F
330
1F
100
AcDbEntity
  8
D-A
  6
Continuous
 62
     7
370
     9
100
AcDbCircle
 10
-477.8860054820858
 20
-375.4714642111892
 30
0.0
 40
6.499999761581421
100
AcDbArc
 50
0.0
 51
90.0
  0
ARC
  5
530
330
1F
100
AcDbEntity
  8
D-A
  6
Continuous
 62
     7
370
     9
100
AcDbCircle
 10
-477.8860054820858
 20
-398.4719858710403
 30
0.0
 40
6.499999761581421
100
AcDbArc
 50
270.0
 51
0.0
  0
LWPOLYLINE
  5
531
330
1F
100
AcDbEntity
  8
D-4
  6
Continuous
 62
     7
370
     9
100
AcDbPolyline
 90
        4
 70
     1
 43
1.0
 10
-513.8859420627438
 20
9.895099585807827
 42
0.4142135623731
 10
-514.3859420627438
 20
10.39509958580783
 42
0.4142135623731
 10
-514.8859420627437
 20
9.895099585807827
 42
0.4142135623731
 10
-514.3859420627438
 20
9.395099585807827
 42
0.4142135623731
  0
LWPOLYLINE
  5
532
330
1F
100
AcDbEntity
  8
D-4
  6
Continuous
 62
     7
370
     9
100
AcDbPolyline
 90
        4
 70
     1
 43
1.0
 10
-668.8849287837826
 20
-209.5529900138015
 42
0.4142135623731
 10
-669.3849287837826
 20
-209.0529900138015
 42
0.4142135623731
 10
-669.8849287837825
 20
-209.5529900138015
 42
0.4142135623731
 10
-669.3849287837826
 20
-210.0529900138015
 42
0.4142135623731
  0
LWPOLYLINE
  5
533
330
1F
100
AcDbEntity
  8
D-4
  6
Continuous
 62
     7
370
     9
100
AcDbPolyline
 90
        4
 70
     1
 43
1.0
 10
-543.8850909084164
 20
-209.5529900138015
 42
0.4142135623731
 10
-544.3850909084164
 20
-209.0529900138015
 42
0.4142135623731
 10
-544.8850909084163
 20
-209.5529900138015
 42
0.4142135623731
 10
-544.3850909084164
 20
-210.0529900138015
 42
0.4142135623731
  0
LWPOLYLINE
  5
534
330
1F
100
AcDbEntity
  8
D-4
  6
Continuous
 62
     7
370
     9
100
AcDbPolyline
 90
        4
 70
     1
 43
1.0
 10
-543.8850909084164
 20
-100.8005676810379
 42
0.4142135623731
 10
-544.3850909084164
 20
-100.3005676810379
 42
0.4142135623731
 10
-544.8850909084163
 20
-100.8005676810379
 42
0.4142135623731
 10
-544.3850909084164
 20
-101.3005676810379
 42
0.4142135623731
  0
LWPOLYLINE
  5
535
330
1F
100
AcDbEntity
  8
D-4
  6
Continuous
 62
     7
370
     9
100
AcDbPolyline
 90
        4
 70
     1
 43
1.0
 10
-538.8848203033291
 20
-100.8005676810379
 42
0.4142135623731
 10
-539.3848203033291
 20
-100.3005676810379
 42
0.4142135623731
 10
-539.884820303329
 20
-100.8005676810379
 42
0.4142135623731
 10
-539.3848203033291
 20
-101.3005676810379
 42
0.4142135623731
  0
LWPOLYLINE
  5
536
330
1F
100
AcDbEntity
  8
D-4
  6
Continuous
 62
     7
370
     9
100
AcDbPolyline
 90
        4
 70
     1
 43
1.0
 10
-513.8859420627438
 20
-100.8005676810379
 42
0.4142135623731
 10
-514.3859420627438
 20
-100.3005676810379
 42
0.4142135623731
 10
-514.8859420627437
 20
-100.8005676810379
 42
0.4142135623731
 10
-514.3859420627438
 20
-101.3005676810379
 42
0.4142135623731
  0
LWPOLYLINE
  5
537
330
1F
100
AcDbEntity
  8
D-4
  6
Continuous
 62
     7
370
     9
100
AcDbPolyline
 90
        4
 70
     1
 43
1.0
 10
-814.3674403041683
 20
-455.4719791953201
 42
0.4142135623731
 10
-814.8674403041683
 20
-454.9719791953202
 42
0.4142135623731
 10
-815.3674403041682
 20
-455.4719791953201
 42
0.4142135623731
 10
-814.8674403041683
 20
-455.97197919532
 42
0.4142135623731
  0
LWPOLYLINE
  5
538
330
1F
100
AcDbEntity
  8
D-4
  6
Continuous
 62
     7
370
     9
100
AcDbPolyline
 90
        4
 70
     1
 43
1.0
 10
-814.3674403041683
 20
-330.4721413199539
 42
0.4142135623731
 10
-814.8674403041683
 20
-329.9721413199539
 42
0.4142135623731
 10
-815.3674403041682
 20
-330.4721413199539
 42
0.4142135623731
 10
-814.8674403041683
 20
-330.9721413199538
 42
0.4142135623731
  0
LWPOLYLINE
  5
539
330
1F
100
AcDbEntity
  8
D-4
  6
Continuous
 62
     7
370
     9
100
AcDbPolyline
 90
        4
 70
     1
 43
1.0
 10
-513.8859420627438
 20
-536.781383568489
 42
0.4142135623731
 10
-514.3859420627438
 20
-536.2813835684891
 42
0.4142135623731
 10
-514.8859420627437
 20
-536.781383568489
 42
0.4142135623731
 10
-514.3859420627438
 20
-537.281383568489
 42
0.4142135623731
  0
LWPOLYLINE
  5
53A
330
1F
100
AcDbEntity
  8
D-4
  6
Continuous
 62
     7
370
     9
100
AcDbPolyline
 90
        4
 70
     1
 43
1.0
 10
-368.8855105251156
 20
-536.781383568489
 42
0.4142135623731
 10
-369.3855105251156
 20
-536.2813835684891
 42
0.4142135623731
 10
-369.8855105251155
 20
-536.781383568489
 42
0.4142135623731
 10
-369.3855105251156
 20
-537.281383568489
 42
0.4142135623731
  0
LWPOLYLINE
  5
53B
330
1F
100
AcDbEntity
  8
D-4
  6
Continuous
 62
     7
370
     9
100
AcDbPolyline
 90
        4
 70
     1
 43
1.0
 10
-668.8849287837826
 20
-736.0906181876296
 42
0.4142135623731
 10
-669.3849287837826
 20
-735.5906181876297
 42
0.4142135623731
 10
-669.8849287837825
 20
-736.0906181876296
 42
0.4142135623731
 10
-669.3849287837826
 20
-736.5906181876296
 42
0.4142135623731
  0
LWPOLYLINE
  5
53C
330
1F
100
AcDbEntity
  8
D-4
  6
Continuous
 62
     7
370
     9
100
AcDbPolyline
 90
        4
 70
     1
 43
1.0
 10
-518.8857179492794
 20
-736.0906181876296
 42
0.4142135623731
 10
-519.3857179492794
 20
-735.5906181876297
 42
0.4142135623731
 10
-519.8857179492793
 20
-736.0906181876296
 42
0.4142135623731
 10
-519.3857179492794
 20
-736.5906181876296
 42
0.4142135623731
  0
LWPOLYLINE
  5
53D
330
1F
100
AcDbEntity
  8
D-4
  6
Continuous
 62
     7
370
     9
100
AcDbPolyline
 90
        4
 70
     1
 43
1.0
 10
-668.8849287837826
 20
-890.5549965445632
 42
0.4142135623731
 10
-669.3849287837826
 20
-890.0549965445633
 42
0.4142135623731
 10
-669.8849287837825
 20
-890.5549965445632
 42
0.4142135623731
 10
-669.3849287837826
 20
-891.0549965445632
 42
0.4142135623731
  0
LWPOLYLINE
  5
53E
330
1F
100
AcDbEntity
  8
D-4
  6
Continuous
 62
     7
370
     9
100
AcDbPolyline
 90
        4
 70
     1
 43
1.0
 10
-268.8840609401546
 20
-890.5549965445632
 42
0.4142135623731
 10
-269.3840609401546
 20
-890.0549965445633
 42
0.4142135623731
 10
-269.8840609401546
 20
-890.5549965445632
 42
0.4142135623731
 10
-269.3840609401546
 20
-891.0549965445632
 42
0.4142135623731
  0
LWPOLYLINE
  5
53F
330
1F
100
AcDbEntity
  8
D-4
  6
Continuous
 62
     7
370
     9
100
AcDbPolyline
 90
        4
 70
     1
 43
1.0
 10
2.800280490509472
 20
-330.4721413199539
 42
0.4142135623731
 10
2.300280490509472
 20
-329.9721413199539
 42
0.4142135623731
 10
1.800280490509472
 20
-330.4721413199539
 42
0.4142135623731
 10
2.300280490509472
 20
-330.9721413199538
 42
0.4142135623731
  0
LWPOLYLINE
  5
540
330
1F
100
AcDbEntity
  8
D-4
  6
Continuous
 62
     7
370
     9
100
AcDbPolyline
 90
        4
 70
     1
 43
1.0
 10
2.800280490509472
 20
-580.4718170706863
 42
0.4142135623731
 10
2.300280490509472
 20
-579.9718170706864
 42
0.4142135623731
 10
1.800280490509472
 20
-580.4718170706863
 42
0.4142135623731
 10
2.300280490509472
 20
-580.9718170706863
 42
0.4142135623731
  0
LWPOLYLINE
  5
541
330
1F
100
AcDbEntity
  8
D-4
  6
Continuous
 62
     7
370
     9
100
AcDbPolyline
 90
        4
 70
     1
 43
1.0
 10
-270.3121691554866
 20
-330.4721413199539
 42
0.4142135623731
 10
-270.8121691554866
 20
-329.9721413199539
 42
0.4142135623731
 10
-271.3121691554866
 20
-330.4721413199539
 42
0.4142135623731
 10
-270.8121691554866
 20
-330.9721413199538
 42
0.4142135623731
  0
LWPOLYLINE
  5
542
330
1F
100
AcDbEntity
  8
D-4
  6
Continuous
 62
     7
370
     9
100
AcDbPolyline
 90
        4
 70
     1
 43
1.0
 10
-270.3121691554866
 20
-415.4722843711014
 42
0.4142135623731
 10
-270.8121691554866
 20
-414.9722843711014
 42
0.4142135623731
 10
-271.3121691554866
 20
-415.4722843711014
 42
0.4142135623731
 10
-270.8121691554866
 20
-415.9722843711013
 42
0.4142135623731
  0
LWPOLYLINE
  5
543
330
1F
100
AcDbEntity
  8
D-4
  6
Continuous
 62
     7
370
     9
100
AcDbPolyline
 90
        4
 70
     1
 43
1.0
 10
-270.3121691554866
 20
-465.4725227896805
 42
0.4142135623731
 10
-270.8121691554866
 20
-464.9725227896805
 42
0.4142135623731
 10
-271.3121691554866
 20
-465.4725227896805
 42
0.4142135623731
 10
-270.8121691554866
 20
-465.9725227896804
 42
0.4142135623731
  0
LWPOLYLINE
  5
544
330
1F
100
AcDbEntity
  8
D-4
  6
Continuous
 62
     7
370
     9
100
AcDbPolyline
 90
        4
 70
     1
 43
1.0
 10
-513.8859420627438
 20
-536.781383568489
 42
0.4142135623731
 10
-514.3859420627438
 20
-536.2813835684891
 42
0.4142135623731
 10
-514.8859420627437
 20
-536.781383568489
 42
0.4142135623731
 10
-514.3859420627438
 20
-537.281383568489
 42
0.4142135623731
  0
LWPOLYLINE
  5
545
330
1F
100
AcDbEntity
  8
D-4
  6
Continuous
 62
     7
370
     9
100
AcDbPolyline
 90
        4
 70
     1
 43
1.0
 10
-668.8849287837826
 20
-536.781383568489
 42
0.4142135623731
 10
-669.3849287837826
 20
-536.2813835684891
 42
0.4142135623731
 10
-669.8849287837825
 20
-536.781383568489
 42
0.4142135623731
 10
-669.3849287837826
 20
-537.281383568489
 42
0.4142135623731
  0
TEXT
  5
546
330
1F
100
AcDbEntity
  8
D-4
  6
Continuous
 62
     2
370
     9
100
AcDbText
 10
-577.3298011630856
 20
-90.16129247351834
 30
0.0
 40
30.48
  1
1
 41
0.9999999999999998
  7
ＭＳ ゴシック
100
AcDbText
  0
TEXT
  5
547
330
1F
100
AcDbEntity
  8
D-4
  6
Continuous
 62
     2
370
     9
100
AcDbText
 10
-628.1341753810726
 20
-198.9127134482498
 30
0.0
 40
30.48
  1
25
 41
1.0625
  7
ＭＳ ゴシック
100
AcDbText
  0
TEXT
  5
548
330
1F
100
AcDbEntity
  8
D-4
  6
Continuous
 62
     2
370
     9
100
AcDbText
 10
-660.6349478572689
 20
-725.4513429801101
 30
0.0
 40
30.48
  1
25～30
 41
1.104166666666667
  7
ＭＳ ゴシック
100
AcDbText
  0
TEXT
  5
549
330
1F
100
AcDbEntity
  8
D-4
  6
Continuous
 62
     2
370
     9
100
AcDbText
 10
-537.253292393726
 20
-879.9147295157941
 30
0.0
 40
30.48
  1
75～80
 50
359.9997855578312
 41
1.104166666666667
  7
ＭＳ ゴシック
100
AcDbText
  0
TEXT
  5
54A
330
1F
100
AcDbEntity
  8
D-4
  6
Continuous
 62
     2
370
     9
100
AcDbText
 10
-8.338994717010054
 20
-521.7221034195135
 30
0.0
 40
30.48
  1
40～50
 50
90.00000250447816
 41
1.104166666666667
  7
ＭＳ ゴシック
100
AcDbText
  0
TEXT
  5
54B
330
1F
100
AcDbEntity
  8
D-4
  6
Continuous
 62
     2
370
     9
100
AcDbText
 10
-478.801937190479
 20
-526.1420892878671
 30
0.0
 40
30.48
  1
29
 50
0.0006685549992706
 41
1.062500000000002
  7
ＭＳ ゴシック
100
AcDbText
  0
TEXT
  5
54C
330
1F
100
AcDbEntity
  8
D-4
  6
Continuous
 62
     2
370
     9
100
AcDbText
 10
-505.4724608272396
 20
-90.16129247351834
 30
0.0
 40
30.48
  1
5
 41
0.9999999999999998
  7
ＭＳ ゴシック
100
AcDbText
  0
TEXT
  5
54D
330
1F
100
AcDbEntity
  8
D-5
  6
Continuous
 62
     2
370
     9
100
AcDbText
 10
-968.8789595096898
 20
-1008.2746004264
 30
0.0
 40
30.48
  1
断面詳細図　Ｓ＝１：２
 50
0.0000267631904831
 41
1.113636363636363
  7
ＭＳ ゴシック
100
AcDbText
  0
TEXT
  5
54E
330
1F
100
AcDbEntity
  8
D-5
  6
Continuous
 62
     2
370
     9
100
AcDbText
 10
332.3766125827945
 20
-772.5149416129226
 30
0.0
 40
30.48
  1
ステンレス製受枠　ＳＦ１５Ｂ
 41
1.116071428571429
  7
ＭＳ ゴシック
100
AcDbText
  0
TEXT
  5
54F
330
1F
100
AcDbEntity
  8
D-5
  6
Continuous
 62
     7
370
     9
100
AcDbText
 10
-320.4084215968929
 20
-214.6714874045486
 30
0.0
 40
22.86
  1
塩ビクッション
 41
1.142857142857143
  7
ＭＳ ゴシック
100
AcDbText
  0
TEXT
  5
550
330
1F
100
AcDbEntity
  8
D-5
  6
Continuous
 62
     7
370
     9
100
AcDbText
 10
-379.8963938564144
 20
-158.5725398795242
 30
0.0
 40
22.86
  1
ステンレス製受枠ＳＦ１５Ｂ
 41
1.153846153846154
  7
ＭＳ ゴシック
100
AcDbText
  0
TEXT
  5
551
330
1F
100
AcDbEntity
  8
D-5
  6
Continuous
 62
     7
370
     9
100
AcDbText
 10
-257.197514614471
 20
-305.1213451163406
 30
0.0
 40
22.86
  1
ｔ＝２．３（ＳＰＨＣ）
 41
1.151515151515152
  7
ＭＳ ゴシック
100
AcDbText
  0
TEXT
  5
552
330
1F
100
AcDbEntity
  8
D-4
  6
Continuous
 62
     2
370
     9
100
AcDbText
 10
-281.4524552577815
 20
-461.7218173172186
 30
0.0
 40
30.48
  1
10
 50
90.00000250447819
 41
1.062500000000001
  7
ＭＳ ゴシック
100
AcDbText
  0
TEXT
  5
553
330
1F
100
AcDbEntity
  8
D-4
  6
Continuous
 62
     2
370
     9
100
AcDbText
 10
-281.4524552577815
 20
-394.2221272613714
 30
0.0
 40
30.48
  1
17
 50
90.00000250447819
 41
1.062500000000001
  7
ＭＳ ゴシック
100
AcDbText
  0
TEXT
  5
554
330
1F
100
AcDbEntity
  8
D-4
  6
Continuous
 62
     2
370
     9
100
AcDbText
 10
-613.1354342311703
 20
-525.1413797537917
 30
0.0
 40
30.48
  1
31
 41
1.0625
  7
ＭＳ ゴシック
100
AcDbText
  0
LINE
  5
555
330
1F
100
AcDbEntity
  8
D-2
  6
Continuous
 62
     3
370
     9
100
AcDbLine
 10
-544.3850909084164
 20
-332.9720289651985
 30
0.0
 11
-544.3850909084164
 21
-407.9721270148391
 31
0.0
  0
LINE
  5
556
330
1F
100
AcDbEntity
  8
D-2
  6
Continuous
 62
     3
370
     9
100
AcDbLine
 10
-559.384912094482
 20
-407.9721270148391
 30
0.0
 11
-559.384912094482
 21
-332.9720289651985
 31
0.0
  0
LINE
  5
557
330
1F
100
AcDbEntity
  8
D-2
  6
Continuous
 62
     3
370
     9
100
AcDbLine
 10
-1217.053776821502
 20
-488.2157764975662
 30
0.0
 11
-1217.053776821502
 21
-264.2733011786575
 31
0.0
  0
LINE
  5
558
330
1F
100
AcDbEntity
  8
D-4
  6
Continuous
 62
     7
370
     9
100
AcDbLine
 10
-1026.111279568084
 20
-407.9721270148391
 30
0.0
 11
-1026.111279568084
 21
-332.9720289651985
 31
0.0
  0
LINE
  5
559
330
1F
100
AcDbEntity
  8
D-5
  6
Continuous
 62
     7
370
     9
100
AcDbLine
 10
-419.8628912776791
 20
-106.7261276785965
 30
0.0
 11
307.8420056492009
 21
-106.7261276785965
 31
0.0
  0
LINE
  5
55A
330
1F
100
AcDbEntity
  8
D-2
  6
Continuous
 62
     3
370
     9
100
AcDbLine
 10
-544.3850909084164
 20
-407.9721270148391
 30
0.0
 11
-1217.053776821502
 21
-407.9721270148391
 31
0.0
  0
LINE
  5
55B
330
1F
100
AcDbEntity
  8
D-2
  6
Continuous
 62
     3
370
     9
100
AcDbLine
 10
-559.384912094482
 20
-342.9715798442001
 30
0.0
 11
-1217.053776821502
 21
-342.9715798442001
 31
0.0
  0
LINE
  5
55C
330
1F
100
AcDbEntity
  8
D-2
  6
Continuous
 62
     3
370
     9
100
AcDbLine
 10
-544.3850909084164
 20
-332.9720289651985
 30
0.0
 11
-1217.053776821502
 21
-332.9720289651985
 31
0.0
  0
LINE
  5
55D
330
1F
100
AcDbEntity
  8
D-5
  6
Continuous
 62
     7
370
     9
100
AcDbLine
 10
-419.8628912776791
 20
-106.7261276785965
 30
0.0
 11
-617.3760662883602
 21
-335.4721645657654
 31
0.0
  0
LINE
  5
55E
330
1F
100
AcDbEntity
  8
D-5
  6
Continuous
 62
     7
370
     9
100
AcDbLine
 10
-617.3760662883602
 20
-335.4721645657654
 30
0.0
 11
-603.6471186488949
 21
-314.5792375151748
 31
0.0
  0
LINE
  5
55F
330
1F
100
AcDbEntity
  8
D-5
  6
Continuous
 62
     7
370
     9
100
AcDbLine
 10
-617.3760662883602
 20
-335.4721645657654
 30
0.0
 11
-598.7077914089047
 21
-318.8442323748703
 31
0.0
  0
LINE
  5
560
330
1F
100
AcDbEntity
  8
D-5
  6
Continuous
 62
     2
370
     9
100
AcDbLine
 10
455.2870740085758
 20
-317.9727027957077
 30
0.0
 11
230.2873028904118
 21
-317.9727027957077
 31
0.0
  0
LINE
  5
561
330
1F
100
AcDbEntity
  8
D-5
  6
Continuous
 62
     2
370
     9
100
AcDbLine
 10
455.2870740085758
 20
-267.9724703375931
 30
0.0
 11
455.2870740085758
 21
-317.9727027957077
 31
0.0
  0
LINE
  5
562
330
1F
100
AcDbEntity
  8
D-5
  6
Continuous
 62
     2
370
     9
100
AcDbLine
 10
230.2873028904118
 20
-267.9724703375931
 30
0.0
 11
455.2870740085758
 21
-267.9724703375931
 31
0.0
  0
LINE
  5
563
330
1F
100
AcDbEntity
  8
D-5
  6
Continuous
 62
     2
370
     9
100
AcDbLine
 10
230.2873028904118
 20
-317.9727027957077
 30
0.0
 11
230.2873028904118
 21
-267.9724703375931
 31
0.0
  0
LWPOLYLINE
  5
564
330
1F
100
AcDbEntity
  8
D-4
  6
Continuous
 62
     7
370
     9
100
AcDbPolyline
 90
        4
 70
     1
 43
1.0
 10
-1025.611279568084
 20
-332.9720289651985
 42
0.4142135623731
 10
-1026.111279568084
 20
-332.4720289651985
 42
0.4142135623731
 10
-1026.611279568084
 20
-332.9720289651985
 42
0.4142135623731
 10
-1026.111279568084
 20
-333.4720289651984
 42
0.4142135623731
  0
LWPOLYLINE
  5
565
330
1F
100
AcDbEntity
  8
D-4
  6
Continuous
 62
     7
370
     9
100
AcDbPolyline
 90
        4
 70
     1
 43
1.0
 10
-1025.611279568084
 20
-407.9721270148391
 42
0.4142135623731
 10
-1026.111279568084
 20
-407.4721270148392
 42
0.4142135623731
 10
-1026.611279568084
 20
-407.9721270148391
 42
0.4142135623731
 10
-1026.111279568084
 20
-408.4721270148391
 42
0.4142135623731
  0
TEXT
  5
566
330
1F
100
AcDbEntity
  8
D-4
  6
Continuous
 62
     2
370
     9
100
AcDbText
 10
-1036.751317715057
 20
-391.7222417022894
 30
0.0
 40
30.48
  1
15
 50
90.00000250447809
 41
1.062500000000001
  7
ＭＳ ゴシック
100
AcDbText
  0
TEXT
  5
567
330
1F
100
AcDbEntity
  8
D-5
  6
Continuous
 62
     7
370
     9
100
AcDbText
 10
-419.8628912776791
 20
-61.86422307654568
 30
0.0
 40
22.86
  1
ノンスリップ加工細目タイプ
 41
1.153846153846154
  7
ＭＳ ゴシック
100
AcDbText
  0
TEXT
  5
568
330
1F
100
AcDbEntity
  8
D-5
  6
Continuous
 62
     7
370
     9
100
AcDbText
 10
-419.8628940197733
 20
-94.5691104666833
 30
0.0
 40
22.86
  1
ステンレス製グレーチングＤＱｰＷｰ１５（h=15）
 50
0.000037141944765
 41
1.159090909090909
  7
ＭＳ ゴシック
100
AcDbText
  0
TEXT
  5
569
330
1F
100
AcDbEntity
  8
D-5
  6
Continuous
 62
     2
370
     9
100
AcDbText
 10
277.7868451267399
 20
-307.3324321906204
 30
0.0
 40
30.48
  1
仕　様
 41
1.083333333333333
  7
ＭＳ ゴシック
100
AcDbText
  0
TEXT
  5
56A
330
1F
100
AcDbEntity
  8
D-5
  6
Continuous
 62
     2
370
     9
100
AcDbText
 10
392.0890607029116
 20
-500.2526163260574
 30
0.0
 40
30.48
  1
材質：メインバー　ＳＵＳ３０４　＠１５
 41
1.118421052631579
  7
ＭＳ ゴシック
100
AcDbText
  0
TEXT
  5
56B
330
1F
100
AcDbEntity
  8
D-5
  6
Continuous
 62
     2
370
     9
100
AcDbText
 10
392.0890607029116
 20
-565.2526735465163
 30
0.0
 40
30.48
  1
　　　クロスバー　ＳＵＳ３０４　＠１００
 41
1.11875
  7
ＭＳ ゴシック
100
AcDbText
  0
TEXT
  5
56C
330
1F
100
AcDbEntity
  8
D-5
  6
Continuous
 62
     2
370
     9
100
AcDbText
 10
392.0890607029116
 20
-630.252711693489
 30
0.0
 40
30.48
  1
　　　サイドバー　ＳＵＳ３０４
 41
1.116666666666667
  7
ＭＳ ゴシック
100
AcDbText
  0
TEXT
  5
56D
330
1F
100
AcDbEntity
  8
D-5
  6
Continuous
 62
     2
370
     9
100
AcDbText
 10
332.3771466404116
 20
-370.2530025641556
 30
0.0
 40
30.48
  1
ステンレス製細目ノンスリップタイプ(デルタ模様）
 41
1.11968085106383
  7
ＭＳ ゴシック
100
AcDbText
  0
TEXT
  5
56E
330
1F
100
AcDbEntity
  8
D-4
  6
Continuous
 62
     2
370
     9
100
AcDbText
 10
-825.5830652998245
 20
-398.7922456047645
 30
0.0
 40
30.48
  1
25
 50
90.00000250000005
 41
1.062500000000001
  7
ＭＳ ゴシック
100
AcDbText
  0
TEXT
  5
56F
330
1F
100
AcDbEntity
  8
D-5
  6
Continuous
 62
     2
370
     9
100
AcDbText
 10
392.0885266452945
 20
-837.5144838492507
 30
0.0
 40
30.48
  1
材質：冷間圧延ステンレス鋼板（ＳＵＳ３０４－２Ｂ）
 41
1.12
  7
ＭＳ ゴシック
100
AcDbText
  0
TEXT
  5
570
330
1F
100
AcDbEntity
  8
D-4
  6
Continuous
 62
     2
370
     9
100
AcDbText
 10
-1241.766273595212
 20
-199.3024304358965
 30
0.0
 40
30.48
  1
□300
 41
1.1
  7
ＭＳ ゴシック
100
AcDbText
  0
TEXT
  5
571
330
1F
100
AcDbEntity
  8
D-4
  6
Continuous
 62
     2
370
     9
100
AcDbText
 10
-1241.766273595212
 20
-90.50243043589653
 30
0.0
 40
30.48
  1
□350
 41
1.1
  7
ＭＳ ゴシック
100
AcDbText
  0
TEXT
  5
572
330
1F
100
AcDbEntity
  8
D-4
  6
Continuous
 62
     2
370
     9
100
AcDbText
 10
-1241.766273595212
 20
20.1975695641034
 30
0.0
 40
30.48
  1
□362
 41
1.1
  7
ＭＳ ゴシック
100
AcDbText
  0
TEXT
  5
573
330
1F
100
AcDbEntity
  8
D-5
  6
Continuous
 62
     2
370
     9
100
AcDbText
 10
332.3771466404116
 20
-435.2525591055984
 30
0.0
 40
30.48
  1
グレーチング（すきま６mm）　ＤＱ－Ｗ－１５　３５０×３５０×１５
 41
1.12109375
  7
ＭＳ ゴシック
100
AcDbText
  0
TEXT
  5
574
330
1F
100
AcDbEntity
  8
D-5
  6
Continuous
 62
     7
370
     9
100
AcDbText
 10
-257.197514614471
 20
-263.8978477255935
 30
0.0
 40
22.86
  1
溶接用アンカー
 41
1.142857142857143
  7
ＭＳ ゴシック
100
AcDbText
  0
LINE
  5
575
330
1F
100
AcDbEntity
  8
D-2
  6
JWW_CENTER2
 62
     3
370
     9
100
AcDbLine
 10
-919.3850909084164
 20
-403.1244621817703
 30
0.0
 11
-919.3850909084164
 21
-338.6055092160339
 31
0.0
  0
LINE
  5
576
330
1F
100
AcDbEntity
  8
D-2
  6
JWW_CENTER2
 62
     3
370
     9
100
AcDbLine
 10
-949.7097597926937
 20
-370.1847062651748
 30
0.0
 11
-888.7378893703304
 21
-370.1847062651748
 31
0.0
  0
LINE
  5
577
330
1F
100
AcDbEntity
  8
D-2
  6
Continuous
 62
     3
370
     9
100
AcDbLine
 10
-901.7074404567562
 20
-370.184703880989
 30
0.0
 11
-919.3850909084164
 21
-352.5070367400284
 31
0.0
  0
LINE
  5
578
330
1F
100
AcDbEntity
  8
D-2
  6
Continuous
 62
     3
370
     9
100
AcDbLine
 10
-919.3850909084164
 20
-387.8623734061355
 30
0.0
 11
-901.7074404567562
 21
-370.184703880989
 31
0.0
  0
LINE
  5
579
330
1F
100
AcDbEntity
  8
D-2
  6
Continuous
 62
     3
370
     9
100
AcDbLine
 10
-919.3850909084164
 20
-352.5070367400284
 30
0.0
 11
-937.0627795070492
 21
-370.1847062651748
 31
0.0
  0
LINE
  5
57A
330
1F
100
AcDbEntity
  8
D-2
  6
Continuous
 62
     3
370
     9
100
AcDbLine
 10
-937.0627795070492
 20
-370.1847062651748
 30
0.0
 11
-919.3850909084164
 21
-387.8623734061355
 31
0.0
  0
LINE
  5
57B
330
1F
100
AcDbEntity
  8
D-2
  6
Continuous
 62
     3
370
     9
100
AcDbLine
 10
-931.8850909084164
 20
-357.6847062651748
 30
0.0
 11
-931.8850909084164
 21
-365.0070510451431
 31
0.0
  0
LINE
  5
57C
330
1F
100
AcDbEntity
  8
D-2
  6
Continuous
 62
     3
370
     9
100
AcDbLine
 10
-931.8850909084164
 20
-375.3623781745071
 30
0.0
 11
-931.8850909084164
 21
-382.6847181861038
 31
0.0
  0
LINE
  5
57D
330
1F
100
AcDbEntity
  8
D-2
  6
Continuous
 62
     3
370
     9
100
AcDbLine
 10
-906.8850909084164
 20
-357.6846919600601
 30
0.0
 11
-914.2074023097836
 21
-357.6847062651748
 31
0.0
  0
LINE
  5
57E
330
1F
100
AcDbEntity
  8
D-2
  6
Continuous
 62
     3
370
     9
100
AcDbLine
 10
-924.5627413600765
 20
-357.6846919600601
 30
0.0
 11
-931.8850909084164
 21
-357.6847062651748
 31
0.0
  0
LINE
  5
57F
330
1F
100
AcDbEntity
  8
D-2
  6
Continuous
 62
     3
370
     9
100
AcDbLine
 10
-906.8850909084164
 20
-382.6847086493606
 30
0.0
 11
-906.8850909084164
 21
-375.3623591010208
 31
0.0
  0
LINE
  5
580
330
1F
100
AcDbEntity
  8
D-2
  6
Continuous
 62
     3
370
     9
100
AcDbLine
 10
-906.8850909084164
 20
-365.0070391242141
 30
0.0
 11
-906.8850909084164
 21
-357.6846919600601
 31
0.0
  0
LINE
  5
581
330
1F
100
AcDbEntity
  8
D-2
  6
Continuous
 62
     3
370
     9
100
AcDbLine
 10
-931.8850909084164
 20
-382.6847181861038
 30
0.0
 11
-924.5627413600765
 21
-382.6847086493606
 31
0.0
  0
LINE
  5
582
330
1F
100
AcDbEntity
  8
D-2
  6
Continuous
 62
     3
370
     9
100
AcDbLine
 10
-914.2074404567562
 20
-382.6847181861038
 30
0.0
 11
-906.8850909084164
 21
-382.6847086493606
 31
0.0
  0
ENDSEC
  0
SECTION
  2
OBJECTS
  0
DICTIONARY
  5
C
330
0
100
AcDbDictionary
281
     1
  3
ACAD_GROUP
350
D
  3
ACAD_LAYOUT
350
1A
  3
ACAD_MLEADERSTYLE
350
584
  3
ACAD_MLINESTYLE
350
17
  3
ACAD_PLOTSETTINGS
350
19
  3
ACAD_PLOTSTYLENAME
350
E
  3
ACAD_TABLESTYLE
350
583
  3
ACAD_VISUALSTYLE
350
2A
  0
DICTIONARY
  5
D
102
{ACAD_REACTORS
330
C
102
}
330
C
100
AcDbDictionary
281
     1
  0
DICTIONARY
  5
1A
102
{ACAD_REACTORS
330
C
102
}
330
C
100
AcDbDictionary
281
     1
  3
Layout1
350
1E
  3
Layout2
350
26
  3
Model
350
22
  0
DICTIONARY
  5
584
102
{ACAD_REACTORS
330
C
102
}
330
C
100
AcDbDictionary
281
     1
  0
DICTIONARY
  5
17
102
{ACAD_REACTORS
330
C
102
}
330
C
100
AcDbDictionary
281
     1
  3
Standard
350
18
  0
DICTIONARY
  5
19
102
{ACAD_REACTORS
330
C
102
}
330
C
100
AcDbDictionary
281
     1
  0
ACDBDICTIONARYWDFLT
  5
E
102
{ACAD_REACTORS
330
C
102
}
330
C
100
AcDbDictionary
281
     1
  3
Normal
350
F
100
AcDbDictionaryWithDefault
340
F
  0
DICTIONARY
  5
583
102
{ACAD_REACTORS
330
C
102
}
330
C
100
AcDbDictionary
281
     1
  0
DICTIONARY
  5
2A
102
{ACAD_REACTORS
330
C
102
}
330
C
100
AcDbDictionary
281
     1
  3
2dWireframe
350
2F
  3
3D Hidden
350
31
  3
3dWireframe
350
30
  3
Basic
350
32
  3
Brighten
350
36
  3
ColorChange
350
3A
  3
Conceptual
350
34
  3
Dim
350
35
  3
Facepattern
350
39
  3
Flat
350
2B
  3
FlatWithEdges
350
2C
  3
Gouraud
350
2D
  3
GouraudWithEdges
350
2E
  3
Linepattern
350
38
  3
Realistic
350
33
  3
Thicken
350
37
  0
LAYOUT
  5
1E
102
{ACAD_REACTORS
330
1A
102
}
330
1A
100
AcDbPlotSettings
  1

  2
none_device
  4

  6

 40
0.0
 41
0.0
 42
0.0
 43
0.0
 44
0.0
 45
0.0
 46
0.0
 47
0.0
 48
0.0
 49
0.0
140
0.0
141
0.0
142
1.0
143
1.0
 70
   688
 72
     0
 73
     0
 74
     5
  7

 75
    16
 76
     0
 77
     5
 78
   300
147
1.0
148
0.0
149
0.0
100
AcDbLayout
  1
Layout1
 70
     1
 71
     1
 10
0.0
 20
0.0
 11
420.0
 21
297.0
 12
0.0
 22
0.0
 32
0.0
 14
1.000000000000000E+20
 24
1.000000000000000E+20
 34
1.000000000000000E+20
 15
-1.000000000000000E+20
 25
-1.000000000000000E+20
 35
-1.000000000000000E+20
146
0.0
 13
0.0
 23
0.0
 33
0.0
 16
1.0
 26
0.0
 36
0.0
 17
0.0
 27
1.0
 37
0.0
 76
     0
330
1B
  0
LAYOUT
  5
26
102
{ACAD_REACTORS
330
1A
102
}
330
1A
100
AcDbPlotSettings
  1

  2
none_device
  4

  6

 40
0.0
 41
0.0
 42
0.0
 43
0.0
 44
0.0
 45
0.0
 46
0.0
 47
0.0
 48
0.0
 49
0.0
140
0.0
141
0.0
142
1.0
143
1.0
 70
   688
 72
     0
 73
     0
 74
     5
  7

 75
    16
 76
     0
 77
     5
 78
   300
147
1.0
148
0.0
149
0.0
100
AcDbLayout
  1
Layout2
 70
     1
 71
     2
 10
0.0
 20
0.0
 11
0.0
 21
0.0
 12
0.0
 22
0.0
 32
0.0
 14
0.0
 24
0.0
 34
0.0
 15
0.0
 25
0.0
 35
0.0
146
0.0
 13
0.0
 23
0.0
 33
0.0
 16
1.0
 26
0.0
 36
0.0
 17
0.0
 27
1.0
 37
0.0
 76
     0
330
23
  0
LAYOUT
  5
22
102
{ACAD_REACTORS
330
1A
102
}
330
1A
100
AcDbPlotSettings
  1

  2
none_device
  4

  6

 40
0.0
 41
0.0
 42
0.0
 43
0.0
 44
0.0
 45
0.0
 46
0.0
 47
0.0
 48
0.0
 49
0.0
140
0.0
141
0.0
142
1.0
143
1.0
 70
  1712
 72
     0
 73
     0
 74
     0
  7

 75
     0
 76
     0
 77
     5
 78
   300
147
1.0
148
0.0
149
0.0
100
AcDbLayout
  1
Model
 70
     1
 71
     0
 10
-2100.0
 20
-1485.0
 11
2100.0
 21
1485.0
 12
0.0
 22
0.0
 32
0.0
 14
-2100.0
 24
-1485.0
 34
0.0
 15
2100.0
 25
1485.0
 35
0.0
146
0.0
 13
0.0
 23
0.0
 33
0.0
 16
1.0
 26
0.0
 36
0.0
 17
0.0
 27
1.0
 37
0.0
 76
     0
330
1F
331
29
  0
MLINESTYLE
  5
18
102
{ACAD_REACTORS
330
17
102
}
330
17
100
AcDbMlineStyle
  2
Standard
 70
     0
  3

 62
   256
 51
90.0
 52
90.0
 71
     2
 49
0.5
 62
   256
  6
BYLAYER
 49
-0.5
 62
   256
  6
BYLAYER
  0
ACDBPLACEHOLDER
  5
F
102
{ACAD_REACTORS
330
E
102
}
330
E
  0
VISUALSTYLE
  5
2F
102
{ACAD_REACTORS
330
2A
102
}
330
2A
100
AcDbVisualStyle
  2
2dWireframe
 70
     4
 71
     0
 72
     2
 73
     0
 90
        0
 40
-0.6
 41
-30.0
 62
     5
 63
     7
421
 16777215
 74
     1
 91
        4
 64
     7
 65
   257
 75
     1
175
     1
 42
1.0
 92
        0
 66
   257
 43
1.0
 76
     1
 77
     6
 78
     2
 67
     7
 79
     5
170
     0
171
     0
290
     0
174
     0
 93
        1
 44
0.0
173
     0
291
     0
 45
0.0
1001
ACAD
1000
AcDbSavedByObjectVersion
1070
     0
  0
VISUALSTYLE
  5
31
102
{ACAD_REACTORS
330
2A
102
}
330
2A
100
AcDbVisualStyle
  2
3D Hidden
 70
     6
 71
     1
 72
     2
 73
     2
 90
        0
 40
-0.6
 41
-30.0
 62
     5
 63
     7
421
 16777215
 74
     2
 91
        2
 64
     7
 65
   257
 75
     2
175
     1
 42
40.0
 92
        0
 66
   257
 43
1.0
 76
     1
 77
     6
 78
     2
 67
     7
 79
     3
170
     0
171
     0
290
     0
174
     0
 93
        1
 44
0.0
173
     0
291
     0
 45
0.0
1001
ACAD
1000
AcDbSavedByObjectVersion
1070
     0
  0
VISUALSTYLE
  5
30
102
{ACAD_REACTORS
330
2A
102
}
330
2A
100
AcDbVisualStyle
  2
3dWireframe
 70
     5
 71
     0
 72
     2
 73
     0
 90
        0
 40
-0.6
 41
-30.0
 62
     5
 63
     7
421
 16777215
 74
     1
 91
        4
 64
     7
 65
   257
 75
     1
175
     1
 42
1.0
 92
        0
 66
   257
 43
1.0
 76
     1
 77
     6
 78
     2
 67
     7
 79
     5
170
     0
171
     0
290
     0
174
     0
 93
        1
 44
0.0
173
     0
291
     0
 45
0.0
1001
ACAD
1000
AcDbSavedByObjectVersion
1070
     0
  0
VISUALSTYLE
  5
32
102
{ACAD_REACTORS
330
2A
102
}
330
2A
100
AcDbVisualStyle
  2
Basic
 70
     7
 71
     1
 72
     0
 73
     1
 90
        0
 40
-0.6
 41
-30.0
 62
     5
 63
     7
421
 16777215
 74
     0
 91
        4
 64
     7
 65
   257
 75
     1
175
     1
 42
1.0
 92
        8
 66
     7
 43
1.0
 76
     1
 77
     6
 78
     2
 67
     7
 79
     5
170
     0
171
     0
290
     0
174
     0
 93
        1
 44
0.0
173
     0
291
     1
 45
0.0
1001
ACAD
1000
AcDbSavedByObjectVersion
1070
     0
  0
VISUALSTYLE
  5
36
102
{ACAD_REACTORS
330
2A
102
}
330
2A
100
AcDbVisualStyle
  2
Brighten
 70
    12
 71
     2
 72
     2
 73
     0
 90
        0
 40
-0.6
 41
-30.0
 62
     5
 63
     7
421
 16777215
 74
     1
 91
        4
 64
     7
 65
   257
 75
     1
175
     1
 42
1.0
 92
        8
 66
     7
 43
1.0
 76
     1
 77
     6
 78
     2
 67
     7
 79
     5
170
     0
171
     0
290
     0
174
     0
 93
        1
 44
50.0
173
     0
291
     1
 45
0.0
1001
ACAD
1000
AcDbSavedByObjectVersion
1070
     0
  0
VISUALSTYLE
  5
3A
102
{ACAD_REACTORS
330
2A
102
}
330
2A
100
AcDbVisualStyle
  2
ColorChange
 70
    16
 71
     2
 72
     2
 73
     3
 90
        0
 40
-0.6
 41
-30.0
 62
     5
 63
     8
421
  8421504
 74
     1
 91
        4
 64
     7
 65
   257
 75
     1
175
     1
 42
1.0
 92
        8
 66
     8
424
  8421504
 43
1.0
 76
     1
 77
     6
 78
     2
 67
     7
 79
     5
170
     0
171
     0
290
     0
174
     0
 93
        1
 44
0.0
173
     0
291
     1
 45
0.0
1001
ACAD
1000
AcDbSavedByObjectVersion
1070
     0
  0
VISUALSTYLE
  5
34
102
{ACAD_REACTORS
330
2A
102
}
330
2A
100
AcDbVisualStyle
  2
Conceptual
 70
     9
 71
     3
 72
     2
 73
     0
 90
        0
 40
-0.6
 41
-30.0
 62
     5
 63
     7
421
 16777215
 74
     2
 91
        2
 64
     7
 65
   257
 75
     1
175
     1
 42
40.0
 92
        8
 66
     7
 43
1.0
 76
     1
 77
     6
 78
     2
 67
     7
 79
     3
170
     0
171
     0
290
     0
174
     0
 93
        1
 44
0.0
173
     0
291
     0
 45
0.0
1001
ACAD
1000
AcDbSavedByObjectVersion
1070
     0
  0
VISUALSTYLE
  5
35
102
{ACAD_REACTORS
330
2A
102
}
330
2A
100
AcDbVisualStyle
  2
Dim
 70
    11
 71
     2
 72
     2
 73
     0
 90
        0
 40
-0.6
 41
-30.0
 62
     5
 63
     7
421
 16777215
 74
     1
 91
        4
 64
     7
 65
   257
 75
     1
175
     1
 42
1.0
 92
        8
 66
     7
 43
1.0
 76
     1
 77
     6
 78
     2
 67
     7
 79
     5
170
     0
171
     0
290
     0
174
     0
 93
        1
 44
-50.0
173
     0
291
     1
 45
0.0
1001
ACAD
1000
AcDbSavedByObjectVersion
1070
     0
  0
VISUALSTYLE
  5
39
102
{ACAD_REACTORS
330
2A
102
}
330
2A
100
AcDbVisualStyle
  2
Facepattern
 70
    15
 71
     2
 72
     2
 73
     0
 90
        0
 40
-0.6
 41
-30.0
 62
     5
 63
     7
421
 16777215
 74
     1
 91
        4
 64
     7
 65
   257
 75
     1
175
     1
 42
1.0
 92
        8
 66
     7
 43
1.0
 76
     1
 77
     6
 78
     2
 67
     7
 79
     5
170
     0
171
     0
290
     0
174
     0
 93
        1
 44
0.0
173
     0
291
     1
 45
0.0
1001
ACAD
1000
AcDbSavedByObjectVersion
1070
     0
  0
VISUALSTYLE
  5
2B
102
{ACAD_REACTORS
330
2A
102
}
330
2A
100
AcDbVisualStyle
  2
Flat
 70
     0
 71
     2
 72
     1
 73
     1
 90
        2
 40
-0.6
 41
30.0
 62
     5
 63
     7
421
 16777215
 74
     0
 91
        4
 64
     7
 65
   257
 75
     1
175
     1
 42
1.0
 92
        8
 66
     7
 43
1.0
 76
     1
 77
     6
 78
     2
 67
     7
 79
     5
170
     0
171
     0
290
     0
174
     0
 93
       13
 44
0.0
173
     0
291
     1
 45
0.0
1001
ACAD
1000
AcDbSavedByObjectVersion
1070
     0
  0
VISUALSTYLE
  5
2C
102
{ACAD_REACTORS
330
2A
102
}
330
2A
100
AcDbVisualStyle
  2
FlatWithEdges
 70
     1
 71
     2
 72
     1
 73
     1
 90
        2
 40
-0.6
 41
30.0
 62
     5
 63
     7
421
 16777215
 74
     1
 91
        4
 64
     7
 65
   257
 75
     1
175
     1
 42
1.0
 92
        0
 66
   257
 43
1.0
 76
     1
 77
     6
 78
     2
 67
     7
 79
     5
170
     0
171
     0
290
     0
174
     0
 93
       13
 44
0.0
173
     0
291
     1
 45
0.0
1001
ACAD
1000
AcDbSavedByObjectVersion
1070
     0
  0
VISUALSTYLE
  5
2D
102
{ACAD_REACTORS
330
2A
102
}
330
2A
100
AcDbVisualStyle
  2
Gouraud
 70
     2
 71
     2
 72
     2
 73
     1
 90
        2
 40
-0.6
 41
30.0
 62
     5
 63
     7
421
 16777215
 74
     0
 91
        4
 64
     7
 65
   257
 75
     1
175
     1
 42
1.0
 92
        0
 66
     7
 43
1.0
 76
     1
 77
     6
 78
     2
 67
     7
 79
     5
170
     0
171
     0
290
     0
174
     0
 93
       13
 44
0.0
173
     0
291
     1
 45
0.0
1001
ACAD
1000
AcDbSavedByObjectVersion
1070
     0
  0
VISUALSTYLE
  5
2E
102
{ACAD_REACTORS
330
2A
102
}
330
2A
100
AcDbVisualStyle
  2
GouraudWithEdges
 70
     3
 71
     2
 72
     2
 73
     1
 90
        2
 40
-0.6
 41
30.0
 62
     5
 63
     7
421
 16777215
 74
     1
 91
        4
 64
     7
 65
   257
 75
     1
175
     1
 42
1.0
 92
        0
 66
   257
 43
1.0
 76
     1
 77
     6
 78
     2
 67
     7
 79
     5
170
     0
171
     0
290
     0
174
     0
 93
       13
 44
0.0
173
     0
291
     1
 45
0.0
1001
ACAD
1000
AcDbSavedByObjectVersion
1070
     0
  0
VISUALSTYLE
  5
38
102
{ACAD_REACTORS
330
2A
102
}
330
2A
100
AcDbVisualStyle
  2
Linepattern
 70
    14
 71
     2
 72
     2
 73
     0
 90
        0
 40
-0.6
 41
-30.0
 62
     5
 63
     7
421
 16777215
 74
     1
 91
        4
 64
     7
 65
   257
 75
     7
175
     7
 42
1.0
 92
        8
 66
     7
 43
1.0
 76
     1
 77
     6
 78
     2
 67
     7
 79
     5
170
     0
171
     0
290
     0
174
     0
 93
        1
 44
0.0
173
     0
291
     1
 45
0.0
1001
ACAD
1000
AcDbSavedByObjectVersion
1070
     0
  0
VISUALSTYLE
  5
33
102
{ACAD_REACTORS
330
2A
102
}
330
2A
100
AcDbVisualStyle
  2
Realistic
 70
     8
 71
     2
 72
     2
 73
     0
 90
        0
 40
-0.6
 41
-30.0
 62
     5
 63
     7
421
 16777215
 74
     1
 91
        0
 64
     7
 65
   257
 75
     1
175
     1
 42
1.0
 92
        8
 66
     8
424
  7895160
 43
1.0
 76
     1
 77
     6
 78
     2
 67
     7
 79
     5
170
     0
171
     0
290
     0
174
     0
 93
       13
 44
0.0
173
     0
291
     0
 45
0.0
1001
ACAD
1000
AcDbSavedByObjectVersion
1070
     0
  0
VISUALSTYLE
  5
37
102
{ACAD_REACTORS
330
2A
102
}
330
2A
100
AcDbVisualStyle
  2
Thicken
 70
    13
 71
     2
 72
     2
 73
     0
 90
        0
 40
-0.6
 41
-30.0
 62
     5
 63
     7
421
 16777215
 74
     1
 91
        4
 64
     7
 65
   257
 75
     1
175
     1
 42
1.0
 92
       12
 66
     7
 43
1.0
 76
     1
 77
     6
 78
     2
 67
     7
 79
     5
170
     0
171
     0
290
     0
174
     0
 93
        1
 44
0.0
173
     0
291
     1
 45
0.0
1001
ACAD
1000
AcDbSavedByObjectVersion
1070
     0
  0
ENDSEC
  0
EOF
