  0
SECTION
  2
HEADER
  9
$ACADVER
  1
AC1018
  9
$ACADMAINTVER
 70
     0
  9
$DWGCODEPAGE
  3
ANSI_932
  9
$INSBASE
 10
0.0
 20
0.0
 30
0.0
  9
$EXTMIN
 10
-2100.0
 20
-1485.0
 30
0.0
  9
$EXTMAX
 10
2100.0
 20
1485.0
 30
0.0
  9
$LIMMIN
 10
-2100.0
 20
-1485.0
  9
$LIMMAX
 10
2100.0
 20
1485.0
  9
$ORTHOMODE
 70
     0
  9
$REGENMODE
 70
     1
  9
$FILLMODE
 70
     1
  9
$QTEXTMODE
 70
     0
  9
$MIRRTEXT
 70
     1
  9
$LTSCALE
 40
10.0
  9
$ATTMODE
 70
     1
  9
$TEXTSIZE
 40
2.5
  9
$TRACEWID
 40
1.0
  9
$TEXTSTYLE
  7
Standard
  9
$CLAYER
  8
0
  9
$CELTYPE
  6
ByLayer
  9
$CECOLOR
 62
   256
  9
$CELTSCALE
 40
1.0
  9
$DISPSILH
 70
     0
  9
$DIMSCALE
 40
1.0
  9
$DIMASZ
 40
2.5
  9
$DIMEXO
 40
0.625
  9
$DIMDLI
 40
3.75
  9
$DIMRND
 40
0.0
  9
$DIMDLE
 40
0.0
  9
$DIMEXE
 40
1.25
  9
$DIMTP
 40
0.0
  9
$DIMTM
 40
0.0
  9
$DIMTXT
 40
2.5
  9
$DIMCEN
 40
2.5
  9
$DIMTSZ
 40
0.0
  9
$DIMTOL
 70
     0
  9
$DIMLIM
 70
     0
  9
$DIMTIH
 70
     0
  9
$DIMTOH
 70
     0
  9
$DIMSE1
 70
     0
  9
$DIMSE2
 70
     0
  9
$DIMTAD
 70
     1
  9
$DIMZIN
 70
     8
  9
$DIMBLK
  1

  9
$DIMASO
 70
     1
  9
$DIMSHO
 70
     1
  9
$DIMPOST
  1

  9
$DIMAPOST
  1

  9
$DIMALT
 70
     0
  9
$DIMALTD
 70
     3
  9
$DIMALTF
 40
0.03937007874016
  9
$DIMLFAC
 40
1.0
  9
$DIMTOFL
 70
     1
  9
$DIMTVP
 40
0.0
  9
$DIMTIX
 70
     0
  9
$DIMSOXD
 70
     0
  9
$DIMSAH
 70
     0
  9
$DIMBLK1
  1

  9
$DIMBLK2
  1

  9
$DIMSTYLE
  2
ISO-25
  9
$DIMCLRD
 70
     0
  9
$DIMCLRE
 70
     0
  9
$DIMCLRT
 70
     0
  9
$DIMTFAC
 40
1.0
  9
$DIMGAP
 40
0.625
  9
$DIMJUST
 70
     0
  9
$DIMSD1
 70
     0
  9
$DIMSD2
 70
     0
  9
$DIMTOLJ
 70
     0
  9
$DIMTZIN
 70
     8
  9
$DIMALTZ
 70
     0
  9
$DIMALTTZ
 70
     0
  9
$DIMUPT
 70
     0
  9
$DIMDEC
 70
     2
  9
$DIMTDEC
 70
     2
  9
$DIMALTU
 70
     2
  9
$DIMALTTD
 70
     3
  9
$DIMTXSTY
  7
Standard
  9
$DIMAUNIT
 70
     0
  9
$DIMADEC
 70
     0
  9
$DIMALTRND
 40
0.0
  9
$DIMAZIN
 70
     0
  9
$DIMDSEP
 70
    44
  9
$DIMATFIT
 70
     3
  9
$DIMFRAC
 70
     0
  9
$DIMLDRBLK
  1

  9
$DIMLUNIT
 70
     2
  9
$DIMLWD
 70
    -2
  9
$DIMLWE
 70
    -2
  9
$DIMTMOVE
 70
     0
  9
$LUNITS
 70
     2
  9
$LUPREC
 70
     4
  9
$SKETCHINC
 40
1.0
  9
$FILLETRAD
 40
10.0
  9
$AUNITS
 70
     0
  9
$AUPREC
 70
     0
  9
$MENU
  1
.
  9
$ELEVATION
 40
0.0
  9
$PELEVATION
 40
0.0
  9
$THICKNESS
 40
0.0
  9
$LIMCHECK
 70
     0
  9
$CHAMFERA
 40
10.0
  9
$CHAMFERB
 40
10.0
  9
$CHAMFERC
 40
20.0
  9
$CHAMFERD
 40
0.0
  9
$SKPOLY
 70
     0
  9
$TDCREATE
 40
2458466.470295393
  9
$TDUCREATE
 40
2458466.095295393
  9
$TDUPDATE
 40
2458466.470295405
  9
$TDUUPDATE
 40
2458466.095295405
  9
$TDINDWG
 40
0.0000000116
  9
$TDUSRTIMER
 40
0.0000000116
  9
$USRTIMER
 70
     1
  9
$ANGBASE
 50
0.0
  9
$ANGDIR
 70
     0
  9
$PDMODE
 70
     0
  9
$PDSIZE
 40
0.0
  9
$PLINEWID
 40
0.0
  9
$SPLFRAME
 70
     0
  9
$SPLINETYPE
 70
     6
  9
$SPLINESEGS
 70
     8
  9
$HANDSEED
  5
59C
  9
$SURFTAB1
 70
     6
  9
$SURFTAB2
 70
     6
  9
$SURFTYPE
 70
     6
  9
$SURFU
 70
     6
  9
$SURFV
 70
     6
  9
$UCSBASE
  2

  9
$UCSNAME
  2

  9
$UCSORG
 10
0.0
 20
0.0
 30
0.0
  9
$UCSXDIR
 10
1.0
 20
0.0
 30
0.0
  9
$UCSYDIR
 10
0.0
 20
1.0
 30
0.0
  9
$UCSORTHOREF
  2

  9
$UCSORTHOVIEW
 70
     0
  9
$UCSORGTOP
 10
0.0
 20
0.0
 30
0.0
  9
$UCSORGBOTTOM
 10
0.0
 20
0.0
 30
0.0
  9
$UCSORGLEFT
 10
0.0
 20
0.0
 30
0.0
  9
$UCSORGRIGHT
 10
0.0
 20
0.0
 30
0.0
  9
$UCSORGFRONT
 10
0.0
 20
0.0
 30
0.0
  9
$UCSORGBACK
 10
0.0
 20
0.0
 30
0.0
  9
$PUCSBASE
  2

  9
$PUCSNAME
  2

  9
$PUCSORG
 10
0.0
 20
0.0
 30
0.0
  9
$PUCSXDIR
 10
1.0
 20
0.0
 30
0.0
  9
$PUCSYDIR
 10
0.0
 20
1.0
 30
0.0
  9
$PUCSORTHOREF
  2

  9
$PUCSORTHOVIEW
 70
     0
  9
$PUCSORGTOP
 10
0.0
 20
0.0
 30
0.0
  9
$PUCSORGBOTTOM
 10
0.0
 20
0.0
 30
0.0
  9
$PUCSORGLEFT
 10
0.0
 20
0.0
 30
0.0
  9
$PUCSORGRIGHT
 10
0.0
 20
0.0
 30
0.0
  9
$PUCSORGFRONT
 10
0.0
 20
0.0
 30
0.0
  9
$PUCSORGBACK
 10
0.0
 20
0.0
 30
0.0
  9
$USERI1
 70
     0
  9
$USERI2
 70
     0
  9
$USERI3
 70
     0
  9
$USERI4
 70
     0
  9
$USERI5
 70
     0
  9
$USERR1
 40
0.0
  9
$USERR2
 40
0.0
  9
$USERR3
 40
0.0
  9
$USERR4
 40
0.0
  9
$USERR5
 40
0.0
  9
$WORLDVIEW
 70
     1
  9
$SHADEDGE
 70
     3
  9
$SHADEDIF
 70
    70
  9
$TILEMODE
 70
     1
  9
$MAXACTVP
 70
    64
  9
$PINSBASE
 10
0.0
 20
0.0
 30
0.0
  9
$PLIMCHECK
 70
     0
  9
$PEXTMIN
 10
1.000000000000000E+20
 20
1.000000000000000E+20
 30
1.000000000000000E+20
  9
$PEXTMAX
 10
-1.000000000000000E+20
 20
-1.000000000000000E+20
 30
-1.000000000000000E+20
  9
$PLIMMIN
 10
0.0
 20
0.0
  9
$PLIMMAX
 10
420.0
 20
297.0
  9
$UNITMODE
 70
     0
  9
$VISRETAIN
 70
     1
  9
$PLINEGEN
 70
     0
  9
$PSLTSCALE
 70
     1
  9
$TREEDEPTH
 70
  3020
  9
$CMLSTYLE
  2
Standard
  9
$CMLJUST
 70
     0
  9
$CMLSCALE
 40
20.0
  9
$PROXYGRAPHICS
 70
     1
  9
$MEASUREMENT
 70
     1
  9
$CELWEIGHT
370
    -1
  9
$ENDCAPS
280
     0
  9
$JOINSTYLE
280
     0
  9
$LWDISPLAY
290
     0
  9
$INSUNITS
 70
     4
  9
$HYPERLINKBASE
  1

  9
$STYLESHEET
  1

  9
$XEDIT
290
     1
  9
$CEPSNTYPE
380
     0
  9
$PSTYLEMODE
290
     1
  9
$FINGERPRINTGUID
  2
{3A98BBCA-B2D3-4B95-A42E-5561C0F54342}
  9
$VERSIONGUID
  2
{FAEB1C32-E019-11D5-929B-00C0DF256EC4}
  9
$EXTNAMES
290
     1
  9
$PSVPSCALE
 40
0.0
  9
$OLESTARTUP
290
     0
  9
$SORTENTS
280
   127
  9
$INDEXCTL
280
     0
  9
$HIDETEXT
280
     1
  9
$XCLIPFRAME
290
     0
  9
$HALOGAP
280
     0
  9
$OBSCOLOR
 70
   257
  9
$OBSLTYPE
280
     0
  9
$INTERSECTIONDISPLAY
280
     0
  9
$INTERSECTIONCOLOR
 70
   257
  9
$DIMASSOC
280
     2
  9
$PROJECTNAME
  1

  0
ENDSEC
  0
SECTION
  2
CLASSES
  0
CLASS
  1
ACDBDICTIONARYWDFLT
  2
AcDbDictionaryWithDefault
  3
ObjectDBX Classes
 90
        0
 91
        4
280
     0
281
     0
  0
CLASS
  1
VISUALSTYLE
  2
AcDbVisualStyle
  3
ObjectDBX Classes
 90
     4095
 91
        4
280
     0
281
     0
  0
ENDSEC
  0
SECTION
  2
TABLES
  0
TABLE
  2
VPORT
  5
8
330
0
100
AcDbSymbolTable
 70
     1
  0
VPORT
  5
29
330
8
100
AcDbSymbolTableRecord
100
AcDbViewportTableRecord
  2
*Active
 70
     0
 10
0.0
 20
0.0
 11
1.0
 21
1.0
 12
0.0
 22
0.0
 13
0.0
 23
0.0
 14
10.0
 24
10.0
 15
10.0
 25
10.0
 16
0.0
 26
0.0
 36
1.0
 17
0.0
 27
0.0
 37
0.0
 40
3267.0
 41
1.414141414141414
 42
50.0
 43
0.0
 44
0.0
 50
0.0
 51
0.0
 71
     0
 72
 10000
 73
     1
 74
     3
 75
     0
 76
     0
 77
     0
 78
     0
281
     0
 65
     1
110
0.0
120
0.0
130
0.0
111
1.0
121
0.0
131
0.0
112
0.0
122
1.0
132
0.0
 79
     0
146
0.0
  0
ENDTAB
  0
TABLE
  2
LTYPE
  5
5
330
0
100
AcDbSymbolTable
 70
     3
  0
LTYPE
  5
14
330
5
100
AcDbSymbolTableRecord
100
AcDbLinetypeTableRecord
  2
ByBlock
 70
     0
  3

 72
    65
 73
     0
 40
0.0
  0
LTYPE
  5
15
330
5
100
AcDbSymbolTableRecord
100
AcDbLinetypeTableRecord
  2
ByLayer
 70
     0
  3

 72
    65
 73
     0
 40
0.0
  0
LTYPE
  5
16
330
5
100
AcDbSymbolTableRecord
100
AcDbLinetypeTableRecord
  2
Continuous
 70
     0
  3
Solid line
 72
    65
 73
     0
 40
0.0
  0
LTYPE
  5
3C
330
5
100
AcDbSymbolTableRecord
100
AcDbLinetypeTableRecord
  2
JWW_DASHED3
 70
     0
  3
---  ------  ------  ------  ---
 72
    65
 73
     2
 40
3.386666666666667
 49
2.54
 74
     0
 49
-0.8466666666666667
 74
     0
  0
LTYPE
  5
3D
330
5
100
AcDbSymbolTableRecord
100
AcDbLinetypeTableRecord
  2
JWW_CENTER2
 70
     0
  3
-------------  --  -------------
 72
    65
 73
     4
 40
13.54666666666667
 49
11.00666666666667
 74
     0
 49
-0.8466666666666667
 74
     0
 49
0.8466666666666667
 74
     0
 49
-0.8466666666666667
 74
     0
  0
ENDTAB
  0
TABLE
  2
LAYER
  5
2
330
0
100
AcDbSymbolTable
 70
    15
  0
LAYER
  5
10
330
2
100
AcDbSymbolTableRecord
100
AcDbLayerTableRecord
  2
0
 70
     0
 62
     7
  6
Continuous
370
    -3
390
F
  0
LAYER
  5
3E
330
2
100
AcDbSymbolTableRecord
100
AcDbLayerTableRecord
  2
C-4
 70
     0
 62
     7
  6
Continuous
370
    -1
390
F
  0
LAYER
  5
3F
330
2
100
AcDbSymbolTableRecord
100
AcDbLayerTableRecord
  2
C-2
 70
     0
 62
     7
  6
Continuous
370
    -1
390
F
  0
LAYER
  5
40
330
2
100
AcDbSymbolTableRecord
100
AcDbLayerTableRecord
  2
C-1
 70
     0
 62
     7
  6
Continuous
370
    -1
390
F
  0
LAYER
  5
41
330
2
100
AcDbSymbolTableRecord
100
AcDbLayerTableRecord
  2
C-5
 70
     0
 62
     7
  6
Continuous
370
    -1
390
F
  0
LAYER
  5
42
330
2
100
AcDbSymbolTableRecord
100
AcDbLayerTableRecord
  2
C-A
 70
     0
 62
     7
  6
Continuous
370
    -1
390
F
  0
LAYER
  5
43
330
2
100
AcDbSymbolTableRecord
100
AcDbLayerTableRecord
  2
D-4
 70
     0
 62
     7
  6
Continuous
370
    -1
390
F
  0
LAYER
  5
44
330
2
100
AcDbSymbolTableRecord
100
AcDbLayerTableRecord
  2
D-5
 70
     0
 62
     7
  6
Continuous
370
    -1
390
F
  0
LAYER
  5
45
330
2
100
AcDbSymbolTableRecord
100
AcDbLayerTableRecord
  2
F-4ﾚｲﾔ
 70
     0
 62
     7
  6
Continuous
370
    -1
390
F
  0
LAYER
  5
46
330
2
100
AcDbSymbolTableRecord
100
AcDbLayerTableRecord
  2
D-9
 70
     0
 62
     7
  6
Continuous
370
    -1
390
F
  0
LAYER
  5
47
330
2
100
AcDbSymbolTableRecord
100
AcDbLayerTableRecord
  2
D-A
 70
     0
 62
     7
  6
Continuous
370
    -1
390
F
  0
LAYER
  5
48
330
2
100
AcDbSymbolTableRecord
100
AcDbLayerTableRecord
  2
D-6
 70
     0
 62
     7
  6
Continuous
370
    -1
390
F
  0
LAYER
  5
49
330
2
100
AcDbSymbolTableRecord
100
AcDbLayerTableRecord
  2
D-1
 70
     0
 62
     7
  6
Continuous
370
    -1
390
F
  0
LAYER
  5
4A
330
2
100
AcDbSymbolTableRecord
100
AcDbLayerTableRecord
  2
D-0
 70
     0
 62
     7
  6
Continuous
370
    -1
390
F
  0
LAYER
  5
4B
330
2
100
AcDbSymbolTableRecord
100
AcDbLayerTableRecord
  2
D-2
 70
     0
 62
     7
  6
Continuous
370
    -1
390
F
  0
ENDTAB
  0
TABLE
  2
STYLE
  5
3
330
0
100
AcDbSymbolTable
 70
     2
  0
STYLE
  5
11
330
3
100
AcDbSymbolTableRecord
100
AcDbTextStyleTableRecord
  2
Standard
 70
     0
 40
0.0
 41
1.0
 50
0.0
 71
     0
 42
2.5
  3
txt
  4

1001
ACAD
1000

1071
        0
  0
STYLE
  5
3B
330
3
100
AcDbSymbolTableRecord
100
AcDbTextStyleTableRecord
  2
ＭＳ ゴシック
 70
     0
 40
1.0
 41
1.0
 50
0.0
 71
     0
 42
10.0
  3

  4

1001
ACAD
1000
MS Gothic
1071
    32817
  0
ENDTAB
  0
TABLE
  2
VIEW
  5
6
330
0
100
AcDbSymbolTable
 70
     0
  0
ENDTAB
  0
TABLE
  2
UCS
  5
7
330
0
100
AcDbSymbolTable
 70
     0
  0
ENDTAB
  0
TABLE
  2
APPID
  5
9
330
0
100
AcDbSymbolTable
 70
     1
  0
APPID
  5
12
330
9
100
AcDbSymbolTableRecord
100
AcDbRegAppTableRecord
  2
ACAD
 70
     0
  0
ENDTAB
  0
TABLE
  2
DIMSTYLE
  5
A
330
0
100
AcDbSymbolTable
 70
     1
100
AcDbDimStyleTable
  0
DIMSTYLE
105
27
330
A
100
AcDbSymbolTableRecord
100
AcDbDimStyleTableRecord
  2
ISO-25
 70
     0
 41
2.5
 42
0.625
 43
3.75
 44
1.25
 73
     0
 74
     0
 77
     1
 78
     8
140
2.5
141
2.5
143
0.03937007874016
147
0.625
171
     3
172
     1
271
     2
272
     2
274
     3
278
    44
283
     0
284
     8
340
11
  0
ENDTAB
  0
TABLE
  2
BLOCK_RECORD
  5
1
330
0
100
AcDbSymbolTable
 70
     1
  0
BLOCK_RECORD
  5
1F
330
1
100
AcDbSymbolTableRecord
100
AcDbBlockTableRecord
  2
*Model_Space
340
22
  0
BLOCK_RECORD
  5
1B
330
1
100
AcDbSymbolTableRecord
100
AcDbBlockTableRecord
  2
*Paper_Space
340
1E
  0
BLOCK_RECORD
  5
23
330
1
100
AcDbSymbolTableRecord
100
AcDbBlockTableRecord
  2
*Paper_Space0
340
26
  0
ENDTAB
  0
ENDSEC
  0
SECTION
  2
BLOCKS
  0
BLOCK
  5
20
330
1F
100
AcDbEntity
  8
0
100
AcDbBlockBegin
  2
*Model_Space
 70
     0
 10
0.0
 20
0.0
 30
0.0
  3
*Model_Space
  1

  0
ENDBLK
  5
21
330
1F
100
AcDbEntity
  8
0
100
AcDbBlockEnd
  0
BLOCK
  5
1C
330
1B
100
AcDbEntity
 67
     1
  8
0
100
AcDbBlockBegin
  2
*Paper_Space
 70
     0
 10
0.0
 20
0.0
 30
0.0
  3
*Paper_Space
  1

  0
ENDBLK
  5
1D
330
1B
100
AcDbEntity
 67
     1
  8
0
100
AcDbBlockEnd
  0
BLOCK
  5
24
330
23
100
AcDbEntity
  8
0
100
AcDbBlockBegin
  2
*Paper_Space0
 70
     0
 10
0.0
 20
0.0
 30
0.0
  3
*Paper_Space0
  1

  0
ENDBLK
  5
25
330
23
100
AcDbEntity
  8
0
100
AcDbBlockEnd
  0
ENDSEC
  0
SECTION
  2
ENTITIES
  0
TEXT
  5
4C
330
1F
100
AcDbEntity
  8
C-4
  6
Continuous
 62
     2
370
   211
100
AcDbText
 10
-698.5043485211032
 20
804.7410414412218
 30
0.0
 40
30.48
  1
5
 50
90.0
 41
0.9999999999999998
  7
ＭＳ ゴシック
100
AcDbText
  0
LINE
  5
4D
330
1F
100
AcDbEntity
  8
C-4
  6
Continuous
 62
     7
370
     9
100
AcDbLine
 10
-686.8643482826847
 20
790.8654158308701
 30
0.0
 11
-686.8643482826847
 21
795.8654158308701
 31
0.0
  0
TEXT
  5
4E
330
1F
100
AcDbEntity
  8
C-4
  6
Continuous
 62
     2
370
   211
100
AcDbText
 10
-753.5043485211032
 20
582.3652403547959
 30
0.0
 40
30.48
  1
362
 50
90.0
 41
1.083333333333333
  7
ＭＳ ゴシック
100
AcDbText
  0
LINE
  5
4F
330
1F
100
AcDbEntity
  8
C-4
  6
Continuous
 62
     7
370
     9
100
AcDbLine
 10
-741.8643482826847
 20
433.8650648787217
 30
0.0
 11
-741.8643482826847
 21
795.8654158308701
 31
0.0
  0
TEXT
  5
50
330
1F
100
AcDbEntity
  8
C-4
  6
Continuous
 62
     2
370
   211
100
AcDbText
 10
-698.5043485211032
 20
406.7064860060412
 30
0.0
 40
30.48
  1
5
 50
90.0
 41
0.9999999999999998
  7
ＭＳ ゴシック
100
AcDbText
  0
LINE
  5
51
330
1F
100
AcDbEntity
  8
C-4
  6
Continuous
 62
     7
370
     9
100
AcDbLine
 10
-686.8643482826847
 20
438.8650648787217
 30
0.0
 11
-686.8643482826847
 21
433.8650648787217
 31
0.0
  0
LINE
  5
52
330
1F
100
AcDbEntity
  8
C-4
  6
Continuous
 62
     7
370
     9
100
AcDbLine
 10
-686.8643482826847
 20
795.8654158308701
 30
0.0
 11
-686.8643482826847
 21
840.6166365339953
 31
0.0
  0
LWPOLYLINE
  5
53
330
1F
100
AcDbEntity
  8
C-4
  6
Continuous
 62
     7
370
     9
100
AcDbPolyline
 90
        4
 70
     1
 43
1.0
 10
-686.3643482826847
 20
795.8654158308701
 42
0.4142135623731
 10
-686.8643482826847
 20
796.3654158308701
 42
0.4142135623731
 10
-687.3643482826845
 20
795.8654158308701
 42
0.4142135623731
 10
-686.8643482826847
 20
795.3654158308701
 42
0.4142135623731
  0
LWPOLYLINE
  5
54
330
1F
100
AcDbEntity
  8
C-4
  6
Continuous
 62
     7
370
     9
100
AcDbPolyline
 90
        4
 70
     1
 43
1.0
 10
-741.3643482826847
 20
795.8654158308701
 42
0.4142135623731
 10
-741.8643482826847
 20
796.3654158308701
 42
0.4142135623731
 10
-742.3643482826845
 20
795.8654158308701
 42
0.4142135623731
 10
-741.8643482826847
 20
795.3654158308701
 42
0.4142135623731
  0
LINE
  5
55
330
1F
100
AcDbEntity
  8
C-4
  6
Continuous
 62
     7
370
     9
100
AcDbLine
 10
-571.8650807045594
 20
795.8654158308701
 30
0.0
 11
-744.8644093178407
 21
795.8654158308701
 31
0.0
  0
TEXT
  5
56
330
1F
100
AcDbEntity
  8
C-4
  6
Continuous
 62
     2
370
   211
100
AcDbText
 10
-698.5043485211032
 20
757.842011267677
 30
0.0
 40
30.48
  1
1
 50
90.0
 41
0.9999999999999998
  7
ＭＳ ゴシック
100
AcDbText
  0
TEXT
  5
57
330
1F
100
AcDbEntity
  8
C-4
  6
Continuous
 62
     2
370
   211
100
AcDbText
 10
-698.5043485211032
 20
451.472707358065
 30
0.0
 40
30.48
  1
1
 50
90.0
 41
0.9999999999999998
  7
ＭＳ ゴシック
100
AcDbText
  0
TEXT
  5
58
330
1F
100
AcDbEntity
  8
C-4
  6
Continuous
 62
     2
370
   211
100
AcDbText
 10
-643.504836802353
 20
741.6650512362253
 30
0.0
 40
30.48
  1
25
 50
90.0
 41
1.0625
  7
ＭＳ ゴシック
100
AcDbText
  0
TEXT
  5
59
330
1F
100
AcDbEntity
  8
C-4
  6
Continuous
 62
     2
370
   211
100
AcDbText
 10
-643.504836802353
 20
446.127496547038
 30
0.0
 40
30.48
  1
25
 50
90.0
 41
1.0625
  7
ＭＳ ゴシック
100
AcDbText
  0
TEXT
  5
5A
330
1F
100
AcDbEntity
  8
C-4
  6
Continuous
 62
     2
370
   211
100
AcDbText
 10
-698.5043485211032
 20
582.3654921248152
 30
0.0
 40
30.48
  1
350
 50
90.0
 41
1.083333333333333
  7
ＭＳ ゴシック
100
AcDbText
  0
LWPOLYLINE
  5
5B
330
1F
100
AcDbEntity
  8
C-4
  6
Continuous
 62
     7
370
     9
100
AcDbPolyline
 90
        4
 70
     1
 43
1.0
 10
-631.3648365639345
 20
789.8655684187605
 42
0.4142135623731
 10
-631.8648365639344
 20
790.3655684187605
 42
0.4142135623731
 10
-632.3648365639344
 20
789.8655684187605
 42
0.4142135623731
 10
-631.8648365639344
 20
789.3655684187605
 42
0.4142135623731
  0
LWPOLYLINE
  5
5C
330
1F
100
AcDbEntity
  8
C-4
  6
Continuous
 62
     7
370
     9
100
AcDbPolyline
 90
        4
 70
     1
 43
1.0
 10
-631.3648365639345
 20
764.8656904890731
 42
0.4142135623731
 10
-631.8648365639344
 20
765.3656904890731
 42
0.4142135623731
 10
-632.3648365639344
 20
764.8656904890731
 42
0.4142135623731
 10
-631.8648365639344
 20
764.3656904890731
 42
0.4142135623731
  0
LINE
  5
5D
330
1F
100
AcDbEntity
  8
C-4
  6
Continuous
 62
     7
370
     9
100
AcDbLine
 10
-631.8648365639344
 20
764.8656904890731
 30
0.0
 11
-631.8648365639344
 21
789.8655684187605
 31
0.0
  0
TEXT
  5
5E
330
1F
100
AcDbEntity
  8
C-4
  6
Continuous
 62
     2
370
   211
100
AcDbText
 10
-643.504836802353
 20
582.3654844954211
 30
0.0
 40
30.48
  1
300
 50
90.0
 41
1.083333333333324
  7
ＭＳ ゴシック
100
AcDbText
  0
LWPOLYLINE
  5
5F
330
1F
100
AcDbEntity
  8
C-4
  6
Continuous
 62
     7
370
     9
100
AcDbPolyline
 90
        4
 70
     1
 43
1.0
 10
-686.3643482826847
 20
790.8654158308701
 42
0.4142135623731
 10
-686.8643482826847
 20
791.3654158308701
 42
0.4142135623731
 10
-687.3643482826845
 20
790.8654158308701
 42
0.4142135623731
 10
-686.8643482826847
 20
790.3654158308701
 42
0.4142135623731
  0
LWPOLYLINE
  5
60
330
1F
100
AcDbEntity
  8
C-4
  6
Continuous
 62
     7
370
     9
100
AcDbPolyline
 90
        4
 70
     1
 43
1.0
 10
-686.3643482826847
 20
438.8650648787217
 42
0.4142135623731
 10
-686.8643482826847
 20
439.3650648787217
 42
0.4142135623731
 10
-687.3643482826845
 20
438.8650648787217
 42
0.4142135623731
 10
-686.8643482826847
 20
438.3650648787217
 42
0.4142135623731
  0
LWPOLYLINE
  5
61
330
1F
100
AcDbEntity
  8
C-4
  6
Continuous
 62
     7
370
     9
100
AcDbPolyline
 90
        4
 70
     1
 43
1.0
 10
-631.3648365639345
 20
439.8654158308699
 42
0.4142135623731
 10
-631.8648365639344
 20
440.3654158308699
 42
0.4142135623731
 10
-632.3648365639344
 20
439.8654158308699
 42
0.4142135623731
 10
-631.8648365639344
 20
439.3654158308699
 42
0.4142135623731
  0
LWPOLYLINE
  5
62
330
1F
100
AcDbEntity
  8
C-4
  6
Continuous
 62
     7
370
     9
100
AcDbPolyline
 90
        4
 70
     1
 43
1.0
 10
-631.3648365639345
 20
464.8652785017686
 42
0.4142135623731
 10
-631.8648365639344
 20
465.3652785017686
 42
0.4142135623731
 10
-632.3648365639344
 20
464.8652785017686
 42
0.4142135623731
 10
-631.8648365639344
 20
464.3652785017686
 42
0.4142135623731
  0
LWPOLYLINE
  5
63
330
1F
100
AcDbEntity
  8
C-4
  6
Continuous
 62
     7
370
     9
100
AcDbPolyline
 90
        4
 70
     1
 43
1.0
 10
-686.3643482826847
 20
789.8655684187605
 42
0.4142135623731
 10
-686.8643482826847
 20
790.3655684187605
 42
0.4142135623731
 10
-687.3643482826845
 20
789.8655684187605
 42
0.4142135623731
 10
-686.8643482826847
 20
789.3655684187605
 42
0.4142135623731
  0
LWPOLYLINE
  5
64
330
1F
100
AcDbEntity
  8
C-4
  6
Continuous
 62
     7
370
     9
100
AcDbPolyline
 90
        4
 70
     1
 43
1.0
 10
-686.3643482826847
 20
439.8654158308699
 42
0.4142135623731
 10
-686.8643482826847
 20
440.3654158308699
 42
0.4142135623731
 10
-687.3643482826845
 20
439.8654158308699
 42
0.4142135623731
 10
-686.8643482826847
 20
439.3654158308699
 42
0.4142135623731
  0
LINE
  5
65
330
1F
100
AcDbEntity
  8
C-4
  6
Continuous
 62
     7
370
     9
100
AcDbLine
 10
-571.8650807045594
 20
790.8654158308701
 30
0.0
 11
-689.8644093178407
 21
790.8654158308701
 31
0.0
  0
LINE
  5
66
330
1F
100
AcDbEntity
  8
C-4
  6
Continuous
 62
     7
370
     9
100
AcDbLine
 10
-686.8643482826847
 20
789.8655684187605
 30
0.0
 11
-686.8643482826847
 21
790.8654158308701
 31
0.0
  0
LINE
  5
67
330
1F
100
AcDbEntity
  8
C-4
  6
Continuous
 62
     7
370
     9
100
AcDbLine
 10
-571.8650807045594
 20
438.8650648787217
 30
0.0
 11
-689.8644093178407
 21
438.8650648787217
 31
0.0
  0
LINE
  5
68
330
1F
100
AcDbEntity
  8
C-4
  6
Continuous
 62
     7
370
     9
100
AcDbLine
 10
-686.8643482826847
 20
439.8654158308699
 30
0.0
 11
-686.8643482826847
 21
438.8650648787217
 31
0.0
  0
LINE
  5
69
330
1F
100
AcDbEntity
  8
C-4
  6
Continuous
 62
     7
370
     9
100
AcDbLine
 10
-689.8644093178407
 20
439.8654158308699
 30
0.0
 11
-571.8650807045594
 21
439.8654158308699
 31
0.0
  0
LINE
  5
6A
330
1F
100
AcDbEntity
  8
C-4
  6
Continuous
 62
     7
370
     9
100
AcDbLine
 10
-631.8648365639344
 20
439.8654158308699
 30
0.0
 11
-631.8648365639344
 21
464.8652785017686
 31
0.0
  0
LINE
  5
6B
330
1F
100
AcDbEntity
  8
C-4
  6
Continuous
 62
     7
370
     9
100
AcDbLine
 10
-571.8650807045594
 20
764.8656904890731
 30
0.0
 11
-634.8648975990907
 21
764.8656904890731
 31
0.0
  0
LINE
  5
6C
330
1F
100
AcDbEntity
  8
C-4
  6
Continuous
 62
     7
370
     9
100
AcDbLine
 10
-571.8650807045594
 20
464.8652785017686
 30
0.0
 11
-634.8648975990907
 21
464.8652785017686
 31
0.0
  0
LINE
  5
6D
330
1F
100
AcDbEntity
  8
C-4
  6
Continuous
 62
     7
370
     9
100
AcDbLine
 10
-631.8648365639344
 20
464.8652785017686
 30
0.0
 11
-631.8648365639344
 21
764.8656904890731
 31
0.0
  0
LINE
  5
6E
330
1F
100
AcDbEntity
  8
C-4
  6
Continuous
 62
     7
370
     9
100
AcDbLine
 10
-571.8650807045594
 20
789.8655684187605
 30
0.0
 11
-689.8644093178407
 21
789.8655684187605
 31
0.0
  0
LINE
  5
6F
330
1F
100
AcDbEntity
  8
C-4
  6
Continuous
 62
     7
370
     9
100
AcDbLine
 10
-686.8643482826847
 20
439.8654158308699
 30
0.0
 11
-686.8643482826847
 21
789.8655684187605
 31
0.0
  0
LINE
  5
70
330
1F
100
AcDbEntity
  8
C-4
  6
Continuous
 62
     7
370
     9
100
AcDbLine
 10
-571.8650807045594
 20
433.8650648787217
 30
0.0
 11
-744.8644093178407
 21
433.8650648787217
 31
0.0
  0
LWPOLYLINE
  5
71
330
1F
100
AcDbEntity
  8
C-4
  6
Continuous
 62
     7
370
     9
100
AcDbPolyline
 90
        4
 70
     1
 43
1.0
 10
-741.3643482826847
 20
433.8650648787217
 42
0.4142135623731
 10
-741.8643482826847
 20
434.3650648787217
 42
0.4142135623731
 10
-742.3643482826845
 20
433.8650648787217
 42
0.4142135623731
 10
-741.8643482826847
 20
433.3650648787217
 42
0.4142135623731
  0
LWPOLYLINE
  5
72
330
1F
100
AcDbEntity
  8
C-4
  6
Continuous
 62
     7
370
     9
100
AcDbPolyline
 90
        4
 70
     1
 43
1.0
 10
-686.3643482826847
 20
433.8650648787217
 42
0.4142135623731
 10
-686.8643482826847
 20
434.3650648787217
 42
0.4142135623731
 10
-687.3643482826845
 20
433.8650648787217
 42
0.4142135623731
 10
-686.8643482826847
 20
433.3650648787217
 42
0.4142135623731
  0
LINE
  5
73
330
1F
100
AcDbEntity
  8
C-4
  6
Continuous
 62
     7
370
     9
100
AcDbLine
 10
-686.8643482826847
 20
433.8650648787217
 30
0.0
 11
-686.8643482826847
 21
390.5479376509385
 31
0.0
  0
LINE
  5
74
330
1F
100
AcDbEntity
  8
C-4
  6
Continuous
 62
     7
370
     9
100
AcDbLine
 10
-557.8648365639344
 20
924.8649275496202
 30
0.0
 11
-601.1819637917176
 21
924.8649275496202
 31
0.0
  0
LWPOLYLINE
  5
75
330
1F
100
AcDbEntity
  8
C-4
  6
Continuous
 62
     7
370
     9
100
AcDbPolyline
 90
        4
 70
     1
 43
1.0
 10
-557.3648365639344
 20
924.8649275496202
 42
0.4142135623731
 10
-557.8648365639344
 20
925.3649275496202
 42
0.4142135623731
 10
-558.3648365639344
 20
924.8649275496202
 42
0.4142135623731
 10
-557.8648365639344
 20
924.3649275496203
 42
0.4142135623731
  0
LWPOLYLINE
  5
76
330
1F
100
AcDbEntity
  8
C-4
  6
Continuous
 62
     7
370
     9
100
AcDbPolyline
 90
        4
 70
     1
 43
1.0
 10
-557.3648365639344
 20
979.8649275496202
 42
0.4142135623731
 10
-557.8648365639344
 20
980.3649275496202
 42
0.4142135623731
 10
-558.3648365639344
 20
979.8649275496202
 42
0.4142135623731
 10
-557.8648365639344
 20
979.3649275496203
 42
0.4142135623731
  0
LINE
  5
77
330
1F
100
AcDbEntity
  8
C-4
  6
Continuous
 62
     7
370
     9
100
AcDbLine
 10
-557.8648365639344
 20
809.8656599714951
 30
0.0
 11
-557.8648365639344
 21
982.8649885847765
 31
0.0
  0
LINE
  5
78
330
1F
100
AcDbEntity
  8
C-2
  6
Continuous
 62
     3
370
     9
100
AcDbLine
 10
-201.8643330238956
 20
789.8655379011825
 30
0.0
 11
-201.8643330238956
 21
439.8654005720809
 31
0.0
  0
LINE
  5
79
330
1F
100
AcDbEntity
  8
C-2
  6
Continuous
 62
     3
370
     9
100
AcDbLine
 10
-201.8643330238956
 20
439.8654005720809
 30
0.0
 11
-551.8644856117862
 21
439.8654005720809
 31
0.0
  0
LINE
  5
7A
330
1F
100
AcDbEntity
  8
C-1
  6
JWW_DASHED3
 62
     2
370
     9
100
AcDbLine
 10
-226.864210953583
 20
764.8656599714951
 30
0.0
 11
-226.864210953583
 21
464.8652632429796
 31
0.0
  0
LINE
  5
7B
330
1F
100
AcDbEntity
  8
C-1
  6
JWW_DASHED3
 62
     2
370
     9
100
AcDbLine
 10
-226.864210953583
 20
464.8652632429796
 30
0.0
 11
-526.8646229408876
 21
464.8652632429796
 31
0.0
  0
LINE
  5
7C
330
1F
100
AcDbEntity
  8
C-1
  6
JWW_DASHED3
 62
     2
370
     9
100
AcDbLine
 10
-526.8646229408876
 20
464.8652632429796
 30
0.0
 11
-526.8646229408876
 21
764.8656599714951
 31
0.0
  0
LINE
  5
7D
330
1F
100
AcDbEntity
  8
C-1
  6
JWW_DASHED3
 62
     2
370
     9
100
AcDbLine
 10
-526.8646229408876
 20
764.8656599714951
 30
0.0
 11
-226.864210953583
 21
764.8656599714951
 31
0.0
  0
LINE
  5
7E
330
1F
100
AcDbEntity
  8
C-1
  6
Continuous
 62
     2
370
     9
100
AcDbLine
 10
-200.864485611786
 20
790.8654158308701
 30
0.0
 11
-200.864485611786
 21
438.8655379011826
 31
0.0
  0
LINE
  5
7F
330
1F
100
AcDbEntity
  8
C-1
  6
Continuous
 62
     2
370
     9
100
AcDbLine
 10
-200.864485611786
 20
438.8655379011826
 30
0.0
 11
-552.8648365639344
 21
438.8655379011826
 31
0.0
  0
LINE
  5
80
330
1F
100
AcDbEntity
  8
C-2
  6
Continuous
 62
     3
370
     9
100
AcDbLine
 10
-551.8644856117862
 20
439.8654005720809
 30
0.0
 11
-551.8644856117862
 21
789.8655379011825
 31
0.0
  0
LINE
  5
81
330
1F
100
AcDbEntity
  8
C-2
  6
Continuous
 62
     3
370
     9
100
AcDbLine
 10
-201.8643330238956
 20
789.8655379011825
 30
0.0
 11
-551.8644856117862
 21
789.8655379011825
 31
0.0
  0
LINE
  5
82
330
1F
100
AcDbEntity
  8
C-1
  6
Continuous
 62
     2
370
     9
100
AcDbLine
 10
-200.864485611786
 20
790.8654158308701
 30
0.0
 11
-552.8648365639344
 21
790.8654158308701
 31
0.0
  0
LINE
  5
83
330
1F
100
AcDbEntity
  8
C-1
  6
Continuous
 62
     2
370
     9
100
AcDbLine
 10
-552.8648365639344
 20
438.8655379011826
 30
0.0
 11
-552.8648365639344
 21
790.8654158308701
 31
0.0
  0
LINE
  5
84
330
1F
100
AcDbEntity
  8
C-4
  6
Continuous
 62
     7
370
     9
100
AcDbLine
 10
-551.8644856117862
 20
924.8649275496202
 30
0.0
 11
-201.8643330238956
 21
924.8649275496202
 31
0.0
  0
LINE
  5
85
330
1F
100
AcDbEntity
  8
C-4
  6
Continuous
 62
     7
370
     9
100
AcDbLine
 10
-551.8644856117862
 20
809.8656599714951
 30
0.0
 11
-551.8644856117862
 21
927.8649885847765
 31
0.0
  0
LINE
  5
86
330
1F
100
AcDbEntity
  8
C-4
  6
Continuous
 62
     7
370
     9
100
AcDbLine
 10
-201.8643330238956
 20
809.8656599714951
 30
0.0
 11
-201.8643330238956
 21
927.8649885847765
 31
0.0
  0
LINE
  5
87
330
1F
100
AcDbEntity
  8
C-4
  6
Continuous
 62
     7
370
     9
100
AcDbLine
 10
-526.8646229408876
 20
869.8654158308702
 30
0.0
 11
-226.864210953583
 21
869.8654158308702
 31
0.0
  0
LINE
  5
88
330
1F
100
AcDbEntity
  8
C-4
  6
Continuous
 62
     7
370
     9
100
AcDbLine
 10
-526.8646229408876
 20
809.8656599714951
 30
0.0
 11
-526.8646229408876
 21
872.8654768660263
 31
0.0
  0
LINE
  5
89
330
1F
100
AcDbEntity
  8
C-4
  6
Continuous
 62
     7
370
     9
100
AcDbLine
 10
-226.864210953583
 20
809.8656599714951
 30
0.0
 11
-226.864210953583
 21
872.8654768660263
 31
0.0
  0
LINE
  5
8A
330
1F
100
AcDbEntity
  8
C-4
  6
Continuous
 62
     7
370
     9
100
AcDbLine
 10
-551.8644856117862
 20
869.8654158308702
 30
0.0
 11
-526.8646229408876
 21
869.8654158308702
 31
0.0
  0
LINE
  5
8B
330
1F
100
AcDbEntity
  8
C-4
  6
Continuous
 62
     7
370
     9
100
AcDbLine
 10
-551.8644856117862
 20
924.8649275496202
 30
0.0
 11
-552.8648365639344
 21
924.8649275496202
 31
0.0
  0
LINE
  5
8C
330
1F
100
AcDbEntity
  8
C-4
  6
Continuous
 62
     7
370
     9
100
AcDbLine
 10
-552.8648365639344
 20
809.8656599714951
 30
0.0
 11
-552.8648365639344
 21
927.8649885847765
 31
0.0
  0
LINE
  5
8D
330
1F
100
AcDbEntity
  8
C-4
  6
Continuous
 62
     7
370
     9
100
AcDbLine
 10
-201.8643330238956
 20
924.8649275496202
 30
0.0
 11
-200.864485611786
 21
924.8649275496202
 31
0.0
  0
LINE
  5
8E
330
1F
100
AcDbEntity
  8
C-4
  6
Continuous
 62
     7
370
     9
100
AcDbLine
 10
-200.864485611786
 20
809.8656599714951
 30
0.0
 11
-200.864485611786
 21
927.8649885847765
 31
0.0
  0
LINE
  5
8F
330
1F
100
AcDbEntity
  8
C-5
  6
Continuous
 62
     7
370
     9
100
AcDbLine
 10
-89.36421095358298
 20
331.8655836775497
 30
0.0
 11
-89.36421095358298
 21
266.8660261824326
 31
0.0
  0
LINE
  5
90
330
1F
100
AcDbEntity
  8
C-5
  6
Continuous
 62
     7
370
     9
100
AcDbLine
 10
-89.36421095358298
 20
266.8660261824326
 30
0.0
 11
-664.3646381996768
 21
266.8660261824326
 31
0.0
  0
LINE
  5
91
330
1F
100
AcDbEntity
  8
C-5
  6
Continuous
 62
     7
370
     9
100
AcDbLine
 10
-664.3646381996768
 20
331.8655836775497
 30
0.0
 11
-89.36421095358298
 21
331.8655836775497
 31
0.0
  0
LINE
  5
92
330
1F
100
AcDbEntity
  8
C-5
  6
Continuous
 62
     7
370
     9
100
AcDbLine
 10
-664.3646381996768
 20
266.8660261824326
 30
0.0
 11
-664.3646381996768
 21
331.8655836775497
 31
0.0
  0
LINE
  5
93
330
1F
100
AcDbEntity
  8
C-A
  6
Continuous
 62
     3
370
     9
100
AcDbLine
 10
-551.8644856117862
 20
786.8654768660264
 30
0.0
 11
-201.8643330238956
 21
786.8654768660264
 31
0.0
  0
LINE
  5
94
330
1F
100
AcDbEntity
  8
C-5
  6
Continuous
 62
     7
370
     9
100
AcDbLine
 10
-498.7125691078796
 20
487.4982741072373
 30
0.0
 11
-298.7116535805359
 21
487.4982741072373
 31
0.0
  0
LINE
  5
95
330
1F
100
AcDbEntity
  8
C-5
  6
Continuous
 62
     7
370
     9
100
AcDbLine
 10
-298.7116535805359
 20
487.4982741072373
 30
0.0
 11
-298.7116535805359
 21
577.2633650496201
 31
0.0
  0
LINE
  5
96
330
1F
100
AcDbEntity
  8
C-5
  6
Continuous
 62
     7
370
     9
100
AcDbLine
 10
-298.7116535805359
 20
577.2633650496201
 30
0.0
 11
-278.7125385903016
 21
527.263609190245
 31
0.0
  0
LINE
  5
97
330
1F
100
AcDbEntity
  8
C-5
  6
Continuous
 62
     7
370
     9
100
AcDbLine
 10
-278.7125385903016
 20
527.263609190245
 30
0.0
 11
-308.9787434242862
 21
527.263609190245
 31
0.0
  0
LINE
  5
98
330
1F
100
AcDbEntity
  8
C-A
  6
Continuous
 62
     3
370
     9
100
AcDbLine
 10
-448.8639515541689
 20
442.8659498884872
 30
0.0
 11
-551.8644856117862
 21
442.8659498884872
 31
0.0
  0
LINE
  5
99
330
1F
100
AcDbEntity
  8
C-A
  6
Continuous
 62
     3
370
     9
100
AcDbLine
 10
-451.8645161293642
 20
439.8654005720809
 30
0.0
 11
-201.8643330238956
 21
689.8650801375106
 31
0.0
  0
LINE
  5
9A
330
1F
100
AcDbEntity
  8
C-A
  6
Continuous
 62
     3
370
     9
100
AcDbLine
 10
-542.8642948769226
 20
442.8659498884872
 30
0.0
 11
-542.8642948769226
 21
786.8654768660264
 31
0.0
  0
LINE
  5
9B
330
1F
100
AcDbEntity
  8
C-A
  6
Continuous
 62
     3
370
     9
100
AcDbLine
 10
-538.8638828896183
 20
442.8659498884872
 30
0.0
 11
-538.8638828896183
 21
786.8654768660264
 31
0.0
  0
LINE
  5
9C
330
1F
100
AcDbEntity
  8
C-A
  6
Continuous
 62
     3
370
     9
100
AcDbLine
 10
-529.8636921547546
 20
442.8659498884872
 30
0.0
 11
-529.8636921547546
 21
786.8654768660264
 31
0.0
  0
LINE
  5
9D
330
1F
100
AcDbEntity
  8
C-A
  6
Continuous
 62
     3
370
     9
100
AcDbLine
 10
-523.8640583656922
 20
442.8659498884872
 30
0.0
 11
-523.8640583656922
 21
786.8654768660264
 31
0.0
  0
LINE
  5
9E
330
1F
100
AcDbEntity
  8
C-A
  6
Continuous
 62
     3
370
     9
100
AcDbLine
 10
-514.8638600014345
 20
442.8659498884872
 30
0.0
 11
-514.8638600014345
 21
786.8654768660264
 31
0.0
  0
LINE
  5
9F
330
1F
100
AcDbEntity
  8
C-A
  6
Continuous
 62
     3
370
     9
100
AcDbLine
 10
-508.8637379311217
 20
442.8659498884872
 30
0.0
 11
-508.8637379311217
 21
786.8654768660264
 31
0.0
  0
LINE
  5
A0
330
1F
100
AcDbEntity
  8
C-A
  6
Continuous
 62
     3
370
     9
100
AcDbLine
 10
-499.8635548256533
 20
442.8659498884872
 30
0.0
 11
-499.8635548256533
 21
786.8654768660264
 31
0.0
  0
LINE
  5
A1
330
1F
100
AcDbEntity
  8
C-A
  6
Continuous
 62
     3
370
     9
100
AcDbLine
 10
-493.8639210365909
 20
442.8659498884872
 30
0.0
 11
-493.8639210365909
 21
786.8654768660264
 31
0.0
  0
LINE
  5
A2
330
1F
100
AcDbEntity
  8
C-A
  6
Continuous
 62
     3
370
     9
100
AcDbLine
 10
-484.8637226723326
 20
442.8659498884872
 30
0.0
 11
-484.8637226723326
 21
786.8654768660264
 31
0.0
  0
LINE
  5
A3
330
1F
100
AcDbEntity
  8
C-A
  6
Continuous
 62
     3
370
     9
100
AcDbLine
 10
-478.8640888832703
 20
442.8659498884872
 30
0.0
 11
-478.8640888832703
 21
786.8654768660264
 31
0.0
  0
LINE
  5
A4
330
1F
100
AcDbEntity
  8
C-A
  6
Continuous
 62
     3
370
     9
100
AcDbLine
 10
-469.8639057778018
 20
442.8659498884872
 30
0.0
 11
-469.8639057778018
 21
786.8654768660264
 31
0.0
  0
LINE
  5
A5
330
1F
100
AcDbEntity
  8
C-A
  6
Continuous
 62
     3
370
     9
100
AcDbLine
 10
-463.863783707489
 20
442.8659498884872
 30
0.0
 11
-463.863783707489
 21
786.8654768660264
 31
0.0
  0
LINE
  5
A6
330
1F
100
AcDbEntity
  8
C-A
  6
Continuous
 62
     3
370
     9
100
AcDbLine
 10
-454.8635853432313
 20
442.8659498884872
 30
0.0
 11
-454.8635853432313
 21
786.8654768660264
 31
0.0
  0
LINE
  5
A7
330
1F
100
AcDbEntity
  8
C-A
  6
Continuous
 62
     3
370
     9
100
AcDbLine
 10
-448.8639515541689
 20
442.8659498884872
 30
0.0
 11
-448.8639515541689
 21
786.8654768660264
 31
0.0
  0
LINE
  5
A8
330
1F
100
AcDbEntity
  8
C-A
  6
Continuous
 62
     3
370
     9
100
AcDbLine
 10
-439.8637684486999
 20
451.8661482527452
 30
0.0
 11
-439.8637684486999
 21
786.8654768660264
 31
0.0
  0
LINE
  5
A9
330
1F
100
AcDbEntity
  8
C-A
  6
Continuous
 62
     3
370
     9
100
AcDbLine
 10
-433.8636311195984
 20
457.8662703230574
 30
0.0
 11
-433.8636311195984
 21
786.8654768660264
 31
0.0
  0
LINE
  5
AA
330
1F
100
AcDbEntity
  8
C-A
  6
Continuous
 62
     3
370
     9
100
AcDbLine
 10
-424.86344801413
 20
466.8664686873154
 30
0.0
 11
-424.86344801413
 21
786.8654768660264
 31
0.0
  0
LINE
  5
AB
330
1F
100
AcDbEntity
  8
C-A
  6
Continuous
 62
     3
370
     9
100
AcDbLine
 10
-418.863814225067
 20
472.8660872175888
 30
0.0
 11
-418.863814225067
 21
786.8654768660264
 31
0.0
  0
LINE
  5
AC
330
1F
100
AcDbEntity
  8
C-A
  6
Continuous
 62
     3
370
     9
100
AcDbLine
 10
-409.8636311195986
 20
481.8662855818465
 30
0.0
 11
-409.8636311195986
 21
786.8654768660264
 31
0.0
  0
LINE
  5
AD
330
1F
100
AcDbEntity
  8
C-A
  6
Continuous
 62
     3
370
     9
100
AcDbLine
 10
-403.8639973305362
 20
487.8659193709092
 30
0.0
 11
-403.8639973305362
 21
786.8654768660264
 31
0.0
  0
LINE
  5
AE
330
1F
100
AcDbEntity
  8
C-A
  6
Continuous
 62
     3
370
     9
100
AcDbLine
 10
-394.8638142250672
 20
496.8661024763779
 30
0.0
 11
-394.8638142250672
 21
786.8654768660264
 31
0.0
  0
LINE
  5
AF
330
1F
100
AcDbEntity
  8
C-A
  6
Continuous
 62
     3
370
     9
100
AcDbLine
 10
-388.8636616371764
 20
502.8662398054794
 30
0.0
 11
-388.8636616371764
 21
786.8654768660264
 31
0.0
  0
LINE
  5
B0
330
1F
100
AcDbEntity
  8
C-A
  6
Continuous
 62
     3
370
     9
100
AcDbLine
 10
-379.863478531708
 20
511.8664229109481
 30
0.0
 11
-379.863478531708
 21
786.8654768660264
 31
0.0
  0
LINE
  5
B1
330
1F
100
AcDbEntity
  8
C-A
  6
Continuous
 62
     3
370
     9
100
AcDbLine
 10
-373.8638447426456
 20
517.8660567000109
 30
0.0
 11
-373.8638447426456
 21
786.8654768660264
 31
0.0
  0
LINE
  5
B2
330
1F
100
AcDbEntity
  8
C-A
  6
Continuous
 62
     3
370
     9
100
AcDbLine
 10
-364.8636616371766
 20
526.8662398054795
 30
0.0
 11
-364.8636616371766
 21
786.8654768660264
 31
0.0
  0
LINE
  5
B3
330
1F
100
AcDbEntity
  8
C-A
  6
Continuous
 62
     3
370
     9
100
AcDbLine
 10
-358.8640278481142
 20
532.8658735945419
 30
0.0
 11
-358.8640278481142
 21
786.8654768660264
 31
0.0
  0
LINE
  5
B4
330
1F
100
AcDbEntity
  8
C-A
  6
Continuous
 62
     3
370
     9
100
AcDbLine
 10
-349.8638447426453
 20
541.8660567000106
 30
0.0
 11
-349.8638447426453
 21
786.8654768660264
 31
0.0
  0
LINE
  5
B5
330
1F
100
AcDbEntity
  8
C-A
  6
Continuous
 62
     3
370
     9
100
AcDbLine
 10
-343.863722672333
 20
547.8662092879015
 30
0.0
 11
-343.863722672333
 21
786.8654768660264
 31
0.0
  0
LINE
  5
B6
330
1F
100
AcDbEntity
  8
C-A
  6
Continuous
 62
     3
370
     9
100
AcDbLine
 10
-334.863509049286
 20
556.8663923933702
 30
0.0
 11
-334.863509049286
 21
786.8654768660264
 31
0.0
  0
LINE
  5
B7
330
1F
100
AcDbEntity
  8
C-A
  6
Continuous
 62
     3
370
     9
100
AcDbLine
 10
-328.8639057778016
 20
562.8655073836044
 30
0.0
 11
-328.8639057778016
 21
786.8654768660264
 31
0.0
  0
LINE
  5
B8
330
1F
100
AcDbEntity
  8
C-A
  6
Continuous
 62
     3
370
     9
100
AcDbLine
 10
-319.8636921547546
 20
571.8657210066514
 30
0.0
 11
-319.8636921547546
 21
786.8654768660264
 31
0.0
  0
LINE
  5
B9
330
1F
100
AcDbEntity
  8
C-A
  6
Continuous
 62
     3
370
     9
100
AcDbLine
 10
-313.8635700844424
 20
577.865843076964
 30
0.0
 11
-313.8635700844424
 21
786.8654768660264
 31
0.0
  0
LINE
  5
BA
330
1F
100
AcDbEntity
  8
C-A
  6
Continuous
 62
     3
370
     9
100
AcDbLine
 10
-304.8638752602233
 20
586.8655379011827
 30
0.0
 11
-304.8638752602233
 21
786.8654768660264
 31
0.0
  0
LINE
  5
BB
330
1F
100
AcDbEntity
  8
C-A
  6
Continuous
 62
     3
370
     9
100
AcDbLine
 10
-298.863753189911
 20
592.865659971495
 30
0.0
 11
-298.863753189911
 21
786.8654768660264
 31
0.0
  0
LINE
  5
BC
330
1F
100
AcDbEntity
  8
C-A
  6
Continuous
 62
     3
370
     9
100
AcDbLine
 10
-289.863570084442
 20
601.865843076964
 30
0.0
 11
-289.863570084442
 21
786.8654768660264
 31
0.0
  0
LINE
  5
BD
330
1F
100
AcDbEntity
  8
C-A
  6
Continuous
 62
     3
370
     9
100
AcDbLine
 10
-283.8639362953796
 20
607.8654768660264
 30
0.0
 11
-283.8639362953796
 21
786.8654768660264
 31
0.0
  0
LINE
  5
BE
330
1F
100
AcDbEntity
  8
C-A
  6
Continuous
 62
     3
370
     9
100
AcDbLine
 10
-274.8637531899112
 20
616.8656599714951
 30
0.0
 11
-274.8637531899112
 21
786.8654768660264
 31
0.0
  0
LINE
  5
BF
330
1F
100
AcDbEntity
  8
C-A
  6
Continuous
 62
     3
370
     9
100
AcDbLine
 10
-268.8636006020204
 20
622.8658125593856
 30
0.0
 11
-268.8636006020204
 21
786.8654768660264
 31
0.0
  0
LINE
  5
C0
330
1F
100
AcDbEntity
  8
C-A
  6
Continuous
 62
     3
370
     9
100
AcDbLine
 10
-259.8634174965514
 20
631.8659956648546
 30
0.0
 11
-259.8634174965514
 21
786.8654768660264
 31
0.0
  0
LINE
  5
C1
330
1F
100
AcDbEntity
  8
C-A
  6
Continuous
 62
     3
370
     9
100
AcDbLine
 10
-253.863783707489
 20
637.865629453917
 30
0.0
 11
-253.863783707489
 21
786.8654768660264
 31
0.0
  0
LINE
  5
C2
330
1F
100
AcDbEntity
  8
C-A
  6
Continuous
 62
     3
370
     9
100
AcDbLine
 10
-244.8636006020206
 20
646.8658125593856
 30
0.0
 11
-244.8636006020206
 21
786.8654768660264
 31
0.0
  0
LINE
  5
C3
330
1F
100
AcDbEntity
  8
C-A
  6
Continuous
 62
     3
370
     9
100
AcDbLine
 10
-238.8639668129576
 20
652.8654463484484
 30
0.0
 11
-238.8639668129576
 21
786.8654768660264
 31
0.0
  0
LINE
  5
C4
330
1F
100
AcDbEntity
  8
C-A
  6
Continuous
 62
     3
370
     9
100
AcDbLine
 10
-229.8637837074892
 20
661.865629453917
 30
0.0
 11
-229.8637837074892
 21
786.8654768660264
 31
0.0
  0
LINE
  5
C5
330
1F
100
AcDbEntity
  8
C-A
  6
Continuous
 62
     3
370
     9
100
AcDbLine
 10
-223.8636616371764
 20
667.8657515242296
 30
0.0
 11
-223.8636616371764
 21
786.8654768660264
 31
0.0
  0
LINE
  5
C6
330
1F
100
AcDbEntity
  8
C-A
  6
Continuous
 62
     3
370
     9
100
AcDbLine
 10
-214.86344801413
 20
676.8659651472763
 30
0.0
 11
-214.86344801413
 21
786.8654768660264
 31
0.0
  0
LINE
  5
C7
330
1F
100
AcDbEntity
  8
C-A
  6
Continuous
 62
     3
370
     9
100
AcDbLine
 10
-210.8640278481141
 20
680.8653853132919
 30
0.0
 11
-210.8640278481141
 21
786.8654768660264
 31
0.0
  0
LINE
  5
C8
330
1F
100
AcDbEntity
  8
C-A
  6
Continuous
 62
     6
370
     5
100
AcDbLine
 10
-543.364226212372
 20
752.6523726179795
 30
0.0
 11
-551.3645542763368
 21
750.6526472761825
 31
0.0
  0
LINE
  5
C9
330
1F
100
AcDbEntity
  8
C-A
  6
Continuous
 62
     6
370
     5
100
AcDbLine
 10
-543.364226212372
 20
754.1526472761825
 30
0.0
 11
-551.3645542763368
 21
756.1523421004015
 31
0.0
  0
LINE
  5
CA
330
1F
100
AcDbEntity
  8
C-A
  6
Continuous
 62
     6
370
     5
100
AcDbLine
 10
-543.364226212372
 20
752.6523726179795
 30
0.0
 11
-543.364226212372
 21
754.1526472761825
 31
0.0
  0
LINE
  5
CB
330
1F
100
AcDbEntity
  8
C-A
  6
Continuous
 62
     6
370
     5
100
AcDbLine
 10
-551.3645542763368
 20
750.6526472761825
 30
0.0
 11
-551.3645542763368
 21
756.1523421004015
 31
0.0
  0
LINE
  5
CC
330
1F
100
AcDbEntity
  8
C-A
  6
Continuous
 62
     6
370
     5
100
AcDbLine
 10
-542.8642948769226
 20
752.2619307234481
 30
0.0
 11
-551.8644856117862
 21
750.0120222761825
 31
0.0
  0
LINE
  5
CD
330
1F
100
AcDbEntity
  8
C-A
  6
Continuous
 62
     6
370
     5
100
AcDbLine
 10
-542.8642948769226
 20
754.5430891707139
 30
0.0
 11
-551.8644856117862
 21
756.7929976179795
 31
0.0
  0
LINE
  5
CE
330
1F
100
AcDbEntity
  8
C-A
  6
Continuous
 62
     6
370
     5
100
AcDbLine
 10
-542.8642948769226
 20
752.2619307234481
 30
0.0
 11
-543.364226212372
 21
752.6523726179795
 31
0.0
  0
LINE
  5
CF
330
1F
100
AcDbEntity
  8
C-A
  6
Continuous
 62
     6
370
     5
100
AcDbLine
 10
-542.8642948769226
 20
754.5430891707139
 30
0.0
 11
-543.364226212372
 21
754.1526472761825
 31
0.0
  0
LINE
  5
D0
330
1F
100
AcDbEntity
  8
C-A
  6
Continuous
 62
     6
370
     5
100
AcDbLine
 10
-551.3645542763368
 20
756.1523421004015
 30
0.0
 11
-551.8644856117862
 21
756.7929976179795
 31
0.0
  0
LINE
  5
D1
330
1F
100
AcDbEntity
  8
C-A
  6
Continuous
 62
     6
370
     5
100
AcDbLine
 10
-551.8644856117862
 20
750.0120222761825
 30
0.0
 11
-551.3645542763368
 21
750.6526472761825
 31
0.0
  0
LINE
  5
D2
330
1F
100
AcDbEntity
  8
C-A
  6
Continuous
 62
     6
370
     5
100
AcDbLine
 10
-551.3645542763368
 20
767.6521895125106
 30
0.0
 11
-543.364226212372
 21
769.6524031355577
 31
0.0
  0
LINE
  5
D3
330
1F
100
AcDbEntity
  8
C-A
  6
Continuous
 62
     6
370
     5
100
AcDbLine
 10
-551.3645542763368
 20
766.1524031355575
 30
0.0
 11
-551.3645542763368
 21
767.6521895125106
 31
0.0
  0
LINE
  5
D4
330
1F
100
AcDbEntity
  8
C-A
  6
Continuous
 62
     6
370
     5
100
AcDbLine
 10
-543.364226212372
 20
764.1521895125106
 30
0.0
 11
-543.364226212372
 21
769.6524031355577
 31
0.0
  0
LINE
  5
D5
330
1F
100
AcDbEntity
  8
C-A
  6
Continuous
 62
     6
370
     5
100
AcDbLine
 10
-542.8642948769226
 20
763.5120527937607
 30
0.0
 11
-551.8644856117862
 21
765.7619612410264
 31
0.0
  0
LINE
  5
D6
330
1F
100
AcDbEntity
  8
C-A
  6
Continuous
 62
     6
370
     5
100
AcDbLine
 10
-551.8644856117862
 20
768.0426314070419
 30
0.0
 11
-542.8642948769226
 21
770.2930281355575
 31
0.0
  0
LINE
  5
D7
330
1F
100
AcDbEntity
  8
C-A
  6
Continuous
 62
     6
370
     5
100
AcDbLine
 10
-543.364226212372
 20
779.6524641707138
 30
0.0
 11
-551.3645542763368
 21
777.6522200300889
 31
0.0
  0
LINE
  5
D8
330
1F
100
AcDbEntity
  8
C-A
  6
Continuous
 62
     6
370
     5
100
AcDbLine
 10
-543.364226212372
 20
781.1522200300888
 30
0.0
 11
-551.3645542763368
 21
783.1524031355576
 31
0.0
  0
LINE
  5
D9
330
1F
100
AcDbEntity
  8
C-A
  6
Continuous
 62
     6
370
     5
100
AcDbLine
 10
-543.364226212372
 20
779.6524641707138
 30
0.0
 11
-543.364226212372
 21
781.1522200300888
 31
0.0
  0
LINE
  5
DA
330
1F
100
AcDbEntity
  8
C-A
  6
Continuous
 62
     6
370
     5
100
AcDbLine
 10
-551.3645542763368
 20
777.6522200300889
 30
0.0
 11
-551.3645542763368
 21
783.1524031355576
 31
0.0
  0
LINE
  5
DB
330
1F
100
AcDbEntity
  8
C-A
  6
Continuous
 62
     6
370
     5
100
AcDbLine
 10
-542.8642948769226
 20
779.2620222761826
 30
0.0
 11
-551.8644856117862
 21
777.0120833113388
 31
0.0
  0
LINE
  5
DC
330
1F
100
AcDbEntity
  8
C-A
  6
Continuous
 62
     6
370
     5
100
AcDbLine
 10
-542.8642948769226
 20
781.5426619246202
 30
0.0
 11
-551.8644856117862
 21
783.7926008894638
 31
0.0
  0
LINE
  5
DD
330
1F
100
AcDbEntity
  8
C-A
  6
Continuous
 62
     6
370
     5
100
AcDbLine
 10
-542.8642948769226
 20
779.2620222761826
 30
0.0
 11
-543.364226212372
 21
779.6524641707138
 31
0.0
  0
LINE
  5
DE
330
1F
100
AcDbEntity
  8
C-A
  6
Continuous
 62
     6
370
     5
100
AcDbLine
 10
-542.8642948769226
 20
781.5426619246202
 30
0.0
 11
-543.364226212372
 21
781.1522200300888
 31
0.0
  0
LINE
  5
DF
330
1F
100
AcDbEntity
  8
C-A
  6
Continuous
 62
     6
370
     5
100
AcDbLine
 10
-551.3645542763368
 20
783.1524031355576
 30
0.0
 11
-551.8644856117862
 21
783.7926008894638
 31
0.0
  0
LINE
  5
E0
330
1F
100
AcDbEntity
  8
C-A
  6
Continuous
 62
     6
370
     5
100
AcDbLine
 10
-551.8644856117862
 20
777.0120833113388
 30
0.0
 11
-551.3645542763368
 21
777.6522200300889
 31
0.0
  0
LINE
  5
E1
330
1F
100
AcDbEntity
  8
C-A
  6
Continuous
 62
     6
370
     5
100
AcDbLine
 10
-543.364226212372
 20
764.1521895125106
 30
0.0
 11
-551.3645542763368
 21
766.1524031355575
 31
0.0
  0
LINE
  5
E2
330
1F
100
AcDbEntity
  8
C-A
  6
Continuous
 62
     6
370
     5
100
AcDbLine
 10
-542.8642948769226
 20
763.5120527937607
 30
0.0
 11
-543.364226212372
 21
764.1521895125106
 31
0.0
  0
LINE
  5
E3
330
1F
100
AcDbEntity
  8
C-A
  6
Continuous
 62
     6
370
     5
100
AcDbLine
 10
-543.364226212372
 20
769.6524031355577
 30
0.0
 11
-542.8642948769226
 21
770.2930281355575
 31
0.0
  0
LINE
  5
E4
330
1F
100
AcDbEntity
  8
C-A
  6
Continuous
 62
     6
370
     5
100
AcDbLine
 10
-551.3645542763368
 20
767.6521895125106
 30
0.0
 11
-551.8644856117862
 21
768.0426314070419
 31
0.0
  0
LINE
  5
E5
330
1F
100
AcDbEntity
  8
C-A
  6
Continuous
 62
     6
370
     5
100
AcDbLine
 10
-551.8644856117862
 20
765.7619612410264
 30
0.0
 11
-551.3645542763368
 21
766.1524031355575
 31
0.0
  0
LINE
  5
E6
330
1F
100
AcDbEntity
  8
C-A
  6
Continuous
 62
     6
370
     5
100
AcDbLine
 10
-543.364226212372
 20
725.6527693464952
 30
0.0
 11
-551.3645542763368
 21
723.6530745222763
 31
0.0
  0
LINE
  5
E7
330
1F
100
AcDbEntity
  8
C-A
  6
Continuous
 62
     6
370
     5
100
AcDbLine
 10
-543.364226212372
 20
727.1530745222763
 30
0.0
 11
-551.3645542763368
 21
729.1527693464951
 31
0.0
  0
LINE
  5
E8
330
1F
100
AcDbEntity
  8
C-A
  6
Continuous
 62
     6
370
     5
100
AcDbLine
 10
-543.364226212372
 20
725.6527693464952
 30
0.0
 11
-543.364226212372
 21
727.1530745222763
 31
0.0
  0
LINE
  5
E9
330
1F
100
AcDbEntity
  8
C-A
  6
Continuous
 62
     6
370
     5
100
AcDbLine
 10
-551.3645542763368
 20
723.6530745222763
 30
0.0
 11
-551.3645542763368
 21
729.1527693464951
 31
0.0
  0
LINE
  5
EA
330
1F
100
AcDbEntity
  8
C-A
  6
Continuous
 62
     6
370
     5
100
AcDbLine
 10
-542.8642948769226
 20
725.2623579695419
 30
0.0
 11
-551.8644856117862
 21
723.0124190046981
 31
0.0
  0
LINE
  5
EB
330
1F
100
AcDbEntity
  8
C-A
  6
Continuous
 62
     6
370
     5
100
AcDbLine
 10
-542.8642948769226
 20
727.5434858992296
 30
0.0
 11
-551.8644856117862
 21
729.7934248640731
 31
0.0
  0
LINE
  5
EC
330
1F
100
AcDbEntity
  8
C-A
  6
Continuous
 62
     6
370
     5
100
AcDbLine
 10
-542.8642948769226
 20
725.2623579695419
 30
0.0
 11
-543.364226212372
 21
725.6527693464952
 31
0.0
  0
LINE
  5
ED
330
1F
100
AcDbEntity
  8
C-A
  6
Continuous
 62
     6
370
     5
100
AcDbLine
 10
-542.8642948769226
 20
727.5434858992296
 30
0.0
 11
-543.364226212372
 21
727.1530745222763
 31
0.0
  0
LINE
  5
EE
330
1F
100
AcDbEntity
  8
C-A
  6
Continuous
 62
     6
370
     5
100
AcDbLine
 10
-551.3645542763368
 20
729.1527693464951
 30
0.0
 11
-551.8644856117862
 21
729.7934248640731
 31
0.0
  0
LINE
  5
EF
330
1F
100
AcDbEntity
  8
C-A
  6
Continuous
 62
     6
370
     5
100
AcDbLine
 10
-551.8644856117862
 20
723.0124190046981
 30
0.0
 11
-551.3645542763368
 21
723.6530745222763
 31
0.0
  0
LINE
  5
F0
330
1F
100
AcDbEntity
  8
C-A
  6
Continuous
 62
     6
370
     5
100
AcDbLine
 10
-551.3645542763368
 20
740.6526167586046
 30
0.0
 11
-543.364226212372
 21
742.6527998640731
 31
0.0
  0
LINE
  5
F1
330
1F
100
AcDbEntity
  8
C-A
  6
Continuous
 62
     6
370
     5
100
AcDbLine
 10
-551.3645542763368
 20
739.1528303816515
 30
0.0
 11
-551.3645542763368
 21
740.6526167586046
 31
0.0
  0
LINE
  5
F2
330
1F
100
AcDbEntity
  8
C-A
  6
Continuous
 62
     6
370
     5
100
AcDbLine
 10
-543.364226212372
 20
737.1526167586044
 30
0.0
 11
-543.364226212372
 21
742.6527998640731
 31
0.0
  0
LINE
  5
F3
330
1F
100
AcDbEntity
  8
C-A
  6
Continuous
 62
     6
370
     5
100
AcDbLine
 10
-542.8642948769226
 20
736.5124800398544
 30
0.0
 11
-551.8644856117862
 21
738.76238848712
 31
0.0
  0
LINE
  5
F4
330
1F
100
AcDbEntity
  8
C-A
  6
Continuous
 62
     6
370
     5
100
AcDbLine
 10
-551.8644856117862
 20
741.0430281355576
 30
0.0
 11
-542.8642948769226
 21
743.2934553816515
 31
0.0
  0
LINE
  5
F5
330
1F
100
AcDbEntity
  8
C-A
  6
Continuous
 62
     6
370
     5
100
AcDbLine
 10
-543.364226212372
 20
737.1526167586044
 30
0.0
 11
-551.3645542763368
 21
739.1528303816515
 31
0.0
  0
LINE
  5
F6
330
1F
100
AcDbEntity
  8
C-A
  6
Continuous
 62
     6
370
     5
100
AcDbLine
 10
-542.8642948769226
 20
736.5124800398544
 30
0.0
 11
-543.364226212372
 21
737.1526167586044
 31
0.0
  0
LINE
  5
F7
330
1F
100
AcDbEntity
  8
C-A
  6
Continuous
 62
     6
370
     5
100
AcDbLine
 10
-543.364226212372
 20
742.6527998640731
 30
0.0
 11
-542.8642948769226
 21
743.2934553816515
 31
0.0
  0
LINE
  5
F8
330
1F
100
AcDbEntity
  8
C-A
  6
Continuous
 62
     6
370
     5
100
AcDbLine
 10
-551.3645542763368
 20
740.6526167586046
 30
0.0
 11
-551.8644856117862
 21
741.0430281355576
 31
0.0
  0
LINE
  5
F9
330
1F
100
AcDbEntity
  8
C-A
  6
Continuous
 62
     6
370
     5
100
AcDbLine
 10
-551.8644856117862
 20
738.76238848712
 30
0.0
 11
-551.3645542763368
 21
739.1528303816515
 31
0.0
  0
LINE
  5
FA
330
1F
100
AcDbEntity
  8
C-A
  6
Continuous
 62
     6
370
     5
100
AcDbLine
 10
-543.364226212372
 20
698.6531965925889
 30
0.0
 11
-551.3645542763368
 21
696.65350176837
 31
0.0
  0
LINE
  5
FB
330
1F
100
AcDbEntity
  8
C-A
  6
Continuous
 62
     6
370
     5
100
AcDbLine
 10
-543.364226212372
 20
700.1534712507919
 30
0.0
 11
-551.3645542763368
 21
702.1531965925888
 31
0.0
  0
LINE
  5
FC
330
1F
100
AcDbEntity
  8
C-A
  6
Continuous
 62
     6
370
     5
100
AcDbLine
 10
-543.364226212372
 20
698.6531965925889
 30
0.0
 11
-543.364226212372
 21
700.1534712507919
 31
0.0
  0
LINE
  5
FD
330
1F
100
AcDbEntity
  8
C-A
  6
Continuous
 62
     6
370
     5
100
AcDbLine
 10
-551.3645542763368
 20
696.65350176837
 30
0.0
 11
-551.3645542763368
 21
702.1531965925888
 31
0.0
  0
LINE
  5
FE
330
1F
100
AcDbEntity
  8
C-A
  6
Continuous
 62
     6
370
     5
100
AcDbLine
 10
-542.8642948769226
 20
698.2627852156359
 30
0.0
 11
-551.8644856117862
 21
696.0128462507919
 31
0.0
  0
LINE
  5
FF
330
1F
100
AcDbEntity
  8
C-A
  6
Continuous
 62
     6
370
     5
100
AcDbLine
 10
-542.8642948769226
 20
700.5439131453232
 30
0.0
 11
-551.8644856117862
 21
702.7938215925889
 31
0.0
  0
LINE
  5
100
330
1F
100
AcDbEntity
  8
C-A
  6
Continuous
 62
     6
370
     5
100
AcDbLine
 10
-542.8642948769226
 20
698.2627852156359
 30
0.0
 11
-543.364226212372
 21
698.6531965925889
 31
0.0
  0
LINE
  5
101
330
1F
100
AcDbEntity
  8
C-A
  6
Continuous
 62
     6
370
     5
100
AcDbLine
 10
-542.8642948769226
 20
700.5439131453232
 30
0.0
 11
-543.364226212372
 21
700.1534712507919
 31
0.0
  0
LINE
  5
102
330
1F
100
AcDbEntity
  8
C-A
  6
Continuous
 62
     6
370
     5
100
AcDbLine
 10
-551.3645542763368
 20
702.1531965925888
 30
0.0
 11
-551.8644856117862
 21
702.7938215925889
 31
0.0
  0
LINE
  5
103
330
1F
100
AcDbEntity
  8
C-A
  6
Continuous
 62
     6
370
     5
100
AcDbLine
 10
-551.8644856117862
 20
696.0128462507919
 30
0.0
 11
-551.3645542763368
 21
696.65350176837
 31
0.0
  0
LINE
  5
104
330
1F
100
AcDbEntity
  8
C-A
  6
Continuous
 62
     6
370
     5
100
AcDbLine
 10
-551.3645542763368
 20
713.65301348712
 30
0.0
 11
-543.364226212372
 21
715.6532271101671
 31
0.0
  0
LINE
  5
105
330
1F
100
AcDbEntity
  8
C-A
  6
Continuous
 62
     6
370
     5
100
AcDbLine
 10
-551.3645542763368
 20
712.1532271101669
 30
0.0
 11
-551.3645542763368
 21
713.65301348712
 31
0.0
  0
LINE
  5
106
330
1F
100
AcDbEntity
  8
C-A
  6
Continuous
 62
     6
370
     5
100
AcDbLine
 10
-543.364226212372
 20
710.1530440046984
 30
0.0
 11
-543.364226212372
 21
715.6532271101671
 31
0.0
  0
LINE
  5
107
330
1F
100
AcDbEntity
  8
C-A
  6
Continuous
 62
     6
370
     5
100
AcDbLine
 10
-542.8642948769226
 20
709.5128767683701
 30
0.0
 11
-551.8644856117862
 21
711.7628157332138
 31
0.0
  0
LINE
  5
108
330
1F
100
AcDbEntity
  8
C-A
  6
Continuous
 62
     6
370
     5
100
AcDbLine
 10
-551.8644856117862
 20
714.0434553816513
 30
0.0
 11
-542.8642948769226
 21
716.2938826277451
 31
0.0
  0
LINE
  5
109
330
1F
100
AcDbEntity
  8
C-A
  6
Continuous
 62
     6
370
     5
100
AcDbLine
 10
-543.364226212372
 20
710.1530440046984
 30
0.0
 11
-551.3645542763368
 21
712.1532271101669
 31
0.0
  0
LINE
  5
10A
330
1F
100
AcDbEntity
  8
C-A
  6
Continuous
 62
     6
370
     5
100
AcDbLine
 10
-542.8642948769226
 20
709.5128767683701
 30
0.0
 11
-543.364226212372
 21
710.1530440046984
 31
0.0
  0
LINE
  5
10B
330
1F
100
AcDbEntity
  8
C-A
  6
Continuous
 62
     6
370
     5
100
AcDbLine
 10
-543.364226212372
 20
715.6532271101671
 30
0.0
 11
-542.8642948769226
 21
716.2938826277451
 31
0.0
  0
LINE
  5
10C
330
1F
100
AcDbEntity
  8
C-A
  6
Continuous
 62
     6
370
     5
100
AcDbLine
 10
-551.3645542763368
 20
713.65301348712
 30
0.0
 11
-551.8644856117862
 21
714.0434553816513
 31
0.0
  0
LINE
  5
10D
330
1F
100
AcDbEntity
  8
C-A
  6
Continuous
 62
     6
370
     5
100
AcDbLine
 10
-551.8644856117862
 20
711.7628157332138
 30
0.0
 11
-551.3645542763368
 21
712.1532271101669
 31
0.0
  0
LINE
  5
10E
330
1F
100
AcDbEntity
  8
C-A
  6
Continuous
 62
     6
370
     5
100
AcDbLine
 10
-543.364226212372
 20
671.6536238386825
 30
0.0
 11
-551.3645542763368
 21
669.6538984968856
 31
0.0
  0
LINE
  5
10F
330
1F
100
AcDbEntity
  8
C-A
  6
Continuous
 62
     6
370
     5
100
AcDbLine
 10
-543.364226212372
 20
673.1538984968856
 30
0.0
 11
-551.3645542763368
 21
675.1536238386825
 31
0.0
  0
LINE
  5
110
330
1F
100
AcDbEntity
  8
C-A
  6
Continuous
 62
     6
370
     5
100
AcDbLine
 10
-543.364226212372
 20
671.6536238386825
 30
0.0
 11
-543.364226212372
 21
673.1538984968856
 31
0.0
  0
LINE
  5
111
330
1F
100
AcDbEntity
  8
C-A
  6
Continuous
 62
     6
370
     5
100
AcDbLine
 10
-551.3645542763368
 20
669.6538984968856
 30
0.0
 11
-551.3645542763368
 21
675.1536238386825
 31
0.0
  0
LINE
  5
112
330
1F
100
AcDbEntity
  8
C-A
  6
Continuous
 62
     6
370
     5
100
AcDbLine
 10
-542.8642948769226
 20
671.2631819441513
 30
0.0
 11
-551.8644856117862
 21
669.0132734968856
 31
0.0
  0
LINE
  5
113
330
1F
100
AcDbEntity
  8
C-A
  6
Continuous
 62
     6
370
     5
100
AcDbLine
 10
-542.8642948769226
 20
673.5443403914169
 30
0.0
 11
-551.8644856117862
 21
675.7942488386825
 31
0.0
  0
LINE
  5
114
330
1F
100
AcDbEntity
  8
C-A
  6
Continuous
 62
     6
370
     5
100
AcDbLine
 10
-542.8642948769226
 20
671.2631819441513
 30
0.0
 11
-543.364226212372
 21
671.6536238386825
 31
0.0
  0
LINE
  5
115
330
1F
100
AcDbEntity
  8
C-A
  6
Continuous
 62
     6
370
     5
100
AcDbLine
 10
-542.8642948769226
 20
673.5443403914169
 30
0.0
 11
-543.364226212372
 21
673.1538984968856
 31
0.0
  0
LINE
  5
116
330
1F
100
AcDbEntity
  8
C-A
  6
Continuous
 62
     6
370
     5
100
AcDbLine
 10
-551.3645542763368
 20
675.1536238386825
 30
0.0
 11
-551.8644856117862
 21
675.7942488386825
 31
0.0
  0
LINE
  5
117
330
1F
100
AcDbEntity
  8
C-A
  6
Continuous
 62
     6
370
     5
100
AcDbLine
 10
-551.8644856117862
 20
669.0132734968856
 30
0.0
 11
-551.3645542763368
 21
669.6538984968856
 31
0.0
  0
LINE
  5
118
330
1F
100
AcDbEntity
  8
C-A
  6
Continuous
 62
     6
370
     5
100
AcDbLine
 10
-551.3645542763368
 20
686.653440733214
 30
0.0
 11
-543.364226212372
 21
688.6536543562607
 31
0.0
  0
LINE
  5
119
330
1F
100
AcDbEntity
  8
C-A
  6
Continuous
 62
     6
370
     5
100
AcDbLine
 10
-551.3645542763368
 20
685.1536543562609
 30
0.0
 11
-551.3645542763368
 21
686.653440733214
 31
0.0
  0
LINE
  5
11A
330
1F
100
AcDbEntity
  8
C-A
  6
Continuous
 62
     6
370
     5
100
AcDbLine
 10
-543.364226212372
 20
683.1534407332138
 30
0.0
 11
-543.364226212372
 21
688.6536543562607
 31
0.0
  0
LINE
  5
11B
330
1F
100
AcDbEntity
  8
C-A
  6
Continuous
 62
     6
370
     5
100
AcDbLine
 10
-542.8642948769226
 20
682.5133040144638
 30
0.0
 11
-551.8644856117862
 21
684.7632429793075
 31
0.0
  0
LINE
  5
11C
330
1F
100
AcDbEntity
  8
C-A
  6
Continuous
 62
     6
370
     5
100
AcDbLine
 10
-551.8644856117862
 20
687.043882627745
 30
0.0
 11
-542.8642948769226
 21
689.2942793562609
 31
0.0
  0
LINE
  5
11D
330
1F
100
AcDbEntity
  8
C-A
  6
Continuous
 62
     6
370
     5
100
AcDbLine
 10
-543.364226212372
 20
683.1534407332138
 30
0.0
 11
-551.3645542763368
 21
685.1536543562609
 31
0.0
  0
LINE
  5
11E
330
1F
100
AcDbEntity
  8
C-A
  6
Continuous
 62
     6
370
     5
100
AcDbLine
 10
-542.8642948769226
 20
682.5133040144638
 30
0.0
 11
-543.364226212372
 21
683.1534407332138
 31
0.0
  0
LINE
  5
11F
330
1F
100
AcDbEntity
  8
C-A
  6
Continuous
 62
     6
370
     5
100
AcDbLine
 10
-543.364226212372
 20
688.6536543562607
 30
0.0
 11
-542.8642948769226
 21
689.2942793562609
 31
0.0
  0
LINE
  5
120
330
1F
100
AcDbEntity
  8
C-A
  6
Continuous
 62
     6
370
     5
100
AcDbLine
 10
-551.3645542763368
 20
686.653440733214
 30
0.0
 11
-551.8644856117862
 21
687.043882627745
 31
0.0
  0
LINE
  5
121
330
1F
100
AcDbEntity
  8
C-A
  6
Continuous
 62
     6
370
     5
100
AcDbLine
 10
-551.8644856117862
 20
684.7632429793075
 30
0.0
 11
-551.3645542763368
 21
685.1536543562609
 31
0.0
  0
LINE
  5
122
330
1F
100
AcDbEntity
  8
C-A
  6
Continuous
 62
     6
370
     5
100
AcDbLine
 10
-530.3636158608094
 20
767.4321882918076
 30
0.0
 11
-538.3639515541688
 21
765.4324934675888
 31
0.0
  0
LINE
  5
123
330
1F
100
AcDbEntity
  8
C-A
  6
Continuous
 62
     6
370
     5
100
AcDbLine
 10
-530.3636158608094
 20
768.932493467589
 30
0.0
 11
-538.3639515541688
 21
770.9321882918075
 31
0.0
  0
LINE
  5
124
330
1F
100
AcDbEntity
  8
C-A
  6
Continuous
 62
     6
370
     5
100
AcDbLine
 10
-530.3636158608094
 20
767.4321882918076
 30
0.0
 11
-530.3636158608094
 21
768.932493467589
 31
0.0
  0
LINE
  5
125
330
1F
100
AcDbEntity
  8
C-A
  6
Continuous
 62
     6
370
     5
100
AcDbLine
 10
-538.3639515541688
 20
765.4324934675888
 30
0.0
 11
-538.3639515541688
 21
770.9321882918075
 31
0.0
  0
LINE
  5
126
330
1F
100
AcDbEntity
  8
C-A
  6
Continuous
 62
     6
370
     5
100
AcDbLine
 10
-529.8636921547546
 20
767.0417769148546
 30
0.0
 11
-538.8638828896183
 21
764.7918379500106
 31
0.0
  0
LINE
  5
127
330
1F
100
AcDbEntity
  8
C-A
  6
Continuous
 62
     6
370
     5
100
AcDbLine
 10
-529.8636921547546
 20
769.322904844542
 30
0.0
 11
-538.8638828896183
 21
771.5728438093856
 31
0.0
  0
LINE
  5
128
330
1F
100
AcDbEntity
  8
C-A
  6
Continuous
 62
     6
370
     5
100
AcDbLine
 10
-529.8636921547546
 20
767.0417769148546
 30
0.0
 11
-530.3636158608094
 21
767.4321882918076
 31
0.0
  0
LINE
  5
129
330
1F
100
AcDbEntity
  8
C-A
  6
Continuous
 62
     6
370
     5
100
AcDbLine
 10
-529.8636921547546
 20
769.322904844542
 30
0.0
 11
-530.3636158608094
 21
768.932493467589
 31
0.0
  0
LINE
  5
12A
330
1F
100
AcDbEntity
  8
C-A
  6
Continuous
 62
     6
370
     5
100
AcDbLine
 10
-538.3639515541688
 20
770.9321882918075
 30
0.0
 11
-538.8638828896183
 21
771.5728438093856
 31
0.0
  0
LINE
  5
12B
330
1F
100
AcDbEntity
  8
C-A
  6
Continuous
 62
     6
370
     5
100
AcDbLine
 10
-538.8638828896183
 20
764.7918379500106
 30
0.0
 11
-538.3639515541688
 21
765.4324934675888
 31
0.0
  0
LINE
  5
12C
330
1F
100
AcDbEntity
  8
C-A
  6
Continuous
 62
     6
370
     5
100
AcDbLine
 10
-538.3639515541688
 20
782.4320051863388
 30
0.0
 11
-530.3636158608094
 21
784.4322493269638
 31
0.0
  0
LINE
  5
12D
330
1F
100
AcDbEntity
  8
C-A
  6
Continuous
 62
     6
370
     5
100
AcDbLine
 10
-538.3639515541688
 20
780.9322493269639
 30
0.0
 11
-538.3639515541688
 21
782.4320051863388
 31
0.0
  0
LINE
  5
12E
330
1F
100
AcDbEntity
  8
C-A
  6
Continuous
 62
     6
370
     5
100
AcDbLine
 10
-530.3636158608094
 20
778.9320051863388
 30
0.0
 11
-530.3636158608094
 21
784.4322493269638
 31
0.0
  0
LINE
  5
12F
330
1F
100
AcDbEntity
  8
C-A
  6
Continuous
 62
     6
370
     5
100
AcDbLine
 10
-529.8636921547546
 20
778.2918989851669
 30
0.0
 11
-538.8638828896183
 21
780.5418074324325
 31
0.0
  0
LINE
  5
130
330
1F
100
AcDbEntity
  8
C-A
  6
Continuous
 62
     6
370
     5
100
AcDbLine
 10
-538.8638828896183
 20
782.82244708087
 30
0.0
 11
-529.8636921547546
 21
785.0728743269639
 31
0.0
  0
LINE
  5
131
330
1F
100
AcDbEntity
  8
C-A
  6
Continuous
 62
     6
370
     5
100
AcDbLine
 10
-530.3636158608094
 20
778.9320051863388
 30
0.0
 11
-538.3639515541688
 21
780.9322493269639
 31
0.0
  0
LINE
  5
132
330
1F
100
AcDbEntity
  8
C-A
  6
Continuous
 62
     6
370
     5
100
AcDbLine
 10
-529.8636921547546
 20
778.2918989851669
 30
0.0
 11
-530.3636158608094
 21
778.9320051863388
 31
0.0
  0
LINE
  5
133
330
1F
100
AcDbEntity
  8
C-A
  6
Continuous
 62
     6
370
     5
100
AcDbLine
 10
-530.3636158608094
 20
784.4322493269638
 30
0.0
 11
-529.8636921547546
 21
785.0728743269639
 31
0.0
  0
LINE
  5
134
330
1F
100
AcDbEntity
  8
C-A
  6
Continuous
 62
     6
370
     5
100
AcDbLine
 10
-538.3639515541688
 20
782.4320051863388
 30
0.0
 11
-538.8638828896183
 21
782.82244708087
 31
0.0
  0
LINE
  5
135
330
1F
100
AcDbEntity
  8
C-A
  6
Continuous
 62
     6
370
     5
100
AcDbLine
 10
-538.8638828896183
 20
780.5418074324325
 30
0.0
 11
-538.3639515541688
 21
780.9322493269639
 31
0.0
  0
LINE
  5
136
330
1F
100
AcDbEntity
  8
C-A
  6
Continuous
 62
     6
370
     5
100
AcDbLine
 10
-530.3636158608094
 20
740.4326155379013
 30
0.0
 11
-538.3639515541688
 21
738.4329207136827
 31
0.0
  0
LINE
  5
137
330
1F
100
AcDbEntity
  8
C-A
  6
Continuous
 62
     6
370
     5
100
AcDbLine
 10
-530.3636158608094
 20
741.9328901961044
 30
0.0
 11
-538.3639515541688
 21
743.9326155379013
 31
0.0
  0
LINE
  5
138
330
1F
100
AcDbEntity
  8
C-A
  6
Continuous
 62
     6
370
     5
100
AcDbLine
 10
-530.3636158608094
 20
740.4326155379013
 30
0.0
 11
-530.3636158608094
 21
741.9328901961044
 31
0.0
  0
LINE
  5
139
330
1F
100
AcDbEntity
  8
C-A
  6
Continuous
 62
     6
370
     5
100
AcDbLine
 10
-538.3639515541688
 20
738.4329207136827
 30
0.0
 11
-538.3639515541688
 21
743.9326155379013
 31
0.0
  0
LINE
  5
13A
330
1F
100
AcDbEntity
  8
C-A
  6
Continuous
 62
     6
370
     5
100
AcDbLine
 10
-529.8636921547546
 20
740.0422041609482
 30
0.0
 11
-538.8638828896183
 21
737.7922651961044
 31
0.0
  0
LINE
  5
13B
330
1F
100
AcDbEntity
  8
C-A
  6
Continuous
 62
     6
370
     5
100
AcDbLine
 10
-529.8636921547546
 20
742.3233320906356
 30
0.0
 11
-538.8638828896183
 21
744.5732405379013
 31
0.0
  0
LINE
  5
13C
330
1F
100
AcDbEntity
  8
C-A
  6
Continuous
 62
     6
370
     5
100
AcDbLine
 10
-529.8636921547546
 20
740.0422041609482
 30
0.0
 11
-530.3636158608094
 21
740.4326155379013
 31
0.0
  0
LINE
  5
13D
330
1F
100
AcDbEntity
  8
C-A
  6
Continuous
 62
     6
370
     5
100
AcDbLine
 10
-529.8636921547546
 20
742.3233320906356
 30
0.0
 11
-530.3636158608094
 21
741.9328901961044
 31
0.0
  0
LINE
  5
13E
330
1F
100
AcDbEntity
  8
C-A
  6
Continuous
 62
     6
370
     5
100
AcDbLine
 10
-538.3639515541688
 20
743.9326155379013
 30
0.0
 11
-538.8638828896183
 21
744.5732405379013
 31
0.0
  0
LINE
  5
13F
330
1F
100
AcDbEntity
  8
C-A
  6
Continuous
 62
     6
370
     5
100
AcDbLine
 10
-538.8638828896183
 20
737.7922651961044
 30
0.0
 11
-538.3639515541688
 21
738.4329207136827
 31
0.0
  0
LINE
  5
140
330
1F
100
AcDbEntity
  8
C-A
  6
Continuous
 62
     6
370
     5
100
AcDbLine
 10
-538.3639515541688
 20
755.4324324324327
 30
0.0
 11
-530.3636158608094
 21
757.4326460554795
 31
0.0
  0
LINE
  5
141
330
1F
100
AcDbEntity
  8
C-A
  6
Continuous
 62
     6
370
     5
100
AcDbLine
 10
-538.3639515541688
 20
753.9326460554796
 30
0.0
 11
-538.3639515541688
 21
755.4324324324327
 31
0.0
  0
LINE
  5
142
330
1F
100
AcDbEntity
  8
C-A
  6
Continuous
 62
     6
370
     5
100
AcDbLine
 10
-530.3636158608094
 20
751.9324629500107
 30
0.0
 11
-530.3636158608094
 21
757.4326460554795
 31
0.0
  0
LINE
  5
143
330
1F
100
AcDbEntity
  8
C-A
  6
Continuous
 62
     6
370
     5
100
AcDbLine
 10
-529.8636921547546
 20
751.2922957136825
 30
0.0
 11
-538.8638828896183
 21
753.5422346785263
 31
0.0
  0
LINE
  5
144
330
1F
100
AcDbEntity
  8
C-A
  6
Continuous
 62
     6
370
     5
100
AcDbLine
 10
-538.8638828896183
 20
755.8228743269638
 30
0.0
 11
-529.8636921547546
 21
758.0733015730575
 31
0.0
  0
LINE
  5
145
330
1F
100
AcDbEntity
  8
C-A
  6
Continuous
 62
     6
370
     5
100
AcDbLine
 10
-530.3636158608094
 20
751.9324629500107
 30
0.0
 11
-538.3639515541688
 21
753.9326460554796
 31
0.0
  0
LINE
  5
146
330
1F
100
AcDbEntity
  8
C-A
  6
Continuous
 62
     6
370
     5
100
AcDbLine
 10
-529.8636921547546
 20
751.2922957136825
 30
0.0
 11
-530.3636158608094
 21
751.9324629500107
 31
0.0
  0
LINE
  5
147
330
1F
100
AcDbEntity
  8
C-A
  6
Continuous
 62
     6
370
     5
100
AcDbLine
 10
-530.3636158608094
 20
757.4326460554795
 30
0.0
 11
-529.8636921547546
 21
758.0733015730575
 31
0.0
  0
LINE
  5
148
330
1F
100
AcDbEntity
  8
C-A
  6
Continuous
 62
     6
370
     5
100
AcDbLine
 10
-538.3639515541688
 20
755.4324324324327
 30
0.0
 11
-538.8638828896183
 21
755.8228743269638
 31
0.0
  0
LINE
  5
149
330
1F
100
AcDbEntity
  8
C-A
  6
Continuous
 62
     6
370
     5
100
AcDbLine
 10
-538.8638828896183
 20
753.5422346785263
 30
0.0
 11
-538.3639515541688
 21
753.9326460554796
 31
0.0
  0
LINE
  5
14A
330
1F
100
AcDbEntity
  8
C-A
  6
Continuous
 62
     6
370
     5
100
AcDbLine
 10
-530.3636158608094
 20
713.433042783995
 30
0.0
 11
-538.3639515541688
 21
711.4333174421981
 31
0.0
  0
LINE
  5
14B
330
1F
100
AcDbEntity
  8
C-A
  6
Continuous
 62
     6
370
     5
100
AcDbLine
 10
-530.3636158608094
 20
714.9333174421984
 30
0.0
 11
-538.3639515541688
 21
716.933042783995
 31
0.0
  0
LINE
  5
14C
330
1F
100
AcDbEntity
  8
C-A
  6
Continuous
 62
     6
370
     5
100
AcDbLine
 10
-530.3636158608094
 20
713.433042783995
 30
0.0
 11
-530.3636158608094
 21
714.9333174421984
 31
0.0
  0
LINE
  5
14D
330
1F
100
AcDbEntity
  8
C-A
  6
Continuous
 62
     6
370
     5
100
AcDbLine
 10
-538.3639515541688
 20
711.4333174421981
 30
0.0
 11
-538.3639515541688
 21
716.933042783995
 31
0.0
  0
LINE
  5
14E
330
1F
100
AcDbEntity
  8
C-A
  6
Continuous
 62
     6
370
     5
100
AcDbLine
 10
-529.8636921547546
 20
713.042600889464
 30
0.0
 11
-538.8638828896183
 21
710.7926924421984
 31
0.0
  0
LINE
  5
14F
330
1F
100
AcDbEntity
  8
C-A
  6
Continuous
 62
     6
370
     5
100
AcDbLine
 10
-529.8636921547546
 20
715.3237593367294
 30
0.0
 11
-538.8638828896183
 21
717.573667783995
 31
0.0
  0
LINE
  5
150
330
1F
100
AcDbEntity
  8
C-A
  6
Continuous
 62
     6
370
     5
100
AcDbLine
 10
-529.8636921547546
 20
713.042600889464
 30
0.0
 11
-530.3636158608094
 21
713.433042783995
 31
0.0
  0
LINE
  5
151
330
1F
100
AcDbEntity
  8
C-A
  6
Continuous
 62
     6
370
     5
100
AcDbLine
 10
-529.8636921547546
 20
715.3237593367294
 30
0.0
 11
-530.3636158608094
 21
714.9333174421984
 31
0.0
  0
LINE
  5
152
330
1F
100
AcDbEntity
  8
C-A
  6
Continuous
 62
     6
370
     5
100
AcDbLine
 10
-538.3639515541688
 20
716.933042783995
 30
0.0
 11
-538.8638828896183
 21
717.573667783995
 31
0.0
  0
LINE
  5
153
330
1F
100
AcDbEntity
  8
C-A
  6
Continuous
 62
     6
370
     5
100
AcDbLine
 10
-538.8638828896183
 20
710.7926924421984
 30
0.0
 11
-538.3639515541688
 21
711.4333174421981
 31
0.0
  0
LINE
  5
154
330
1F
100
AcDbEntity
  8
C-A
  6
Continuous
 62
     6
370
     5
100
AcDbLine
 10
-538.3639515541688
 20
728.4328596785264
 30
0.0
 11
-530.3636158608094
 21
730.4330733015731
 31
0.0
  0
LINE
  5
155
330
1F
100
AcDbEntity
  8
C-A
  6
Continuous
 62
     6
370
     5
100
AcDbLine
 10
-538.3639515541688
 20
726.9330733015732
 30
0.0
 11
-538.3639515541688
 21
728.4328596785264
 31
0.0
  0
LINE
  5
156
330
1F
100
AcDbEntity
  8
C-A
  6
Continuous
 62
     6
370
     5
100
AcDbLine
 10
-530.3636158608094
 20
724.9328596785265
 30
0.0
 11
-530.3636158608094
 21
730.4330733015731
 31
0.0
  0
LINE
  5
157
330
1F
100
AcDbEntity
  8
C-A
  6
Continuous
 62
     6
370
     5
100
AcDbLine
 10
-529.8636921547546
 20
724.2927229597763
 30
0.0
 11
-538.8638828896183
 21
726.5426314070419
 31
0.0
  0
LINE
  5
158
330
1F
100
AcDbEntity
  8
C-A
  6
Continuous
 62
     6
370
     5
100
AcDbLine
 10
-538.8638828896183
 20
728.8233015730575
 30
0.0
 11
-529.8636921547546
 21
731.0736983015732
 31
0.0
  0
LINE
  5
159
330
1F
100
AcDbEntity
  8
C-A
  6
Continuous
 62
     6
370
     5
100
AcDbLine
 10
-530.3636158608094
 20
724.9328596785265
 30
0.0
 11
-538.3639515541688
 21
726.9330733015732
 31
0.0
  0
LINE
  5
15A
330
1F
100
AcDbEntity
  8
C-A
  6
Continuous
 62
     6
370
     5
100
AcDbLine
 10
-529.8636921547546
 20
724.2927229597763
 30
0.0
 11
-530.3636158608094
 21
724.9328596785265
 31
0.0
  0
LINE
  5
15B
330
1F
100
AcDbEntity
  8
C-A
  6
Continuous
 62
     6
370
     5
100
AcDbLine
 10
-530.3636158608094
 20
730.4330733015731
 30
0.0
 11
-529.8636921547546
 21
731.0736983015732
 31
0.0
  0
LINE
  5
15C
330
1F
100
AcDbEntity
  8
C-A
  6
Continuous
 62
     6
370
     5
100
AcDbLine
 10
-538.3639515541688
 20
728.4328596785264
 30
0.0
 11
-538.8638828896183
 21
728.8233015730575
 31
0.0
  0
LINE
  5
15D
330
1F
100
AcDbEntity
  8
C-A
  6
Continuous
 62
     6
370
     5
100
AcDbLine
 10
-538.8638828896183
 20
726.5426314070419
 30
0.0
 11
-538.3639515541688
 21
726.9330733015732
 31
0.0
  0
LINE
  5
15E
330
1F
100
AcDbEntity
  8
C-A
  6
Continuous
 62
     6
370
     5
100
AcDbLine
 10
-530.3636158608094
 20
686.4334700300888
 30
0.0
 11
-538.3639515541688
 21
684.4337446882921
 31
0.0
  0
LINE
  5
15F
330
1F
100
AcDbEntity
  8
C-A
  6
Continuous
 62
     6
370
     5
100
AcDbLine
 10
-530.3636158608094
 20
687.933744688292
 30
0.0
 11
-538.3639515541688
 21
689.9334395125106
 31
0.0
  0
LINE
  5
160
330
1F
100
AcDbEntity
  8
C-A
  6
Continuous
 62
     6
370
     5
100
AcDbLine
 10
-530.3636158608094
 20
686.4334700300888
 30
0.0
 11
-530.3636158608094
 21
687.933744688292
 31
0.0
  0
LINE
  5
161
330
1F
100
AcDbEntity
  8
C-A
  6
Continuous
 62
     6
370
     5
100
AcDbLine
 10
-538.3639515541688
 20
684.4337446882921
 30
0.0
 11
-538.3639515541688
 21
689.9334395125106
 31
0.0
  0
LINE
  5
162
330
1F
100
AcDbEntity
  8
C-A
  6
Continuous
 62
     6
370
     5
100
AcDbLine
 10
-529.8636921547546
 20
686.0430281355576
 30
0.0
 11
-538.8638828896183
 21
683.7930891707138
 31
0.0
  0
LINE
  5
163
330
1F
100
AcDbEntity
  8
C-A
  6
Continuous
 62
     6
370
     5
100
AcDbLine
 10
-529.8636921547546
 20
688.324156065245
 30
0.0
 11
-538.8638828896183
 21
690.5740950300888
 31
0.0
  0
LINE
  5
164
330
1F
100
AcDbEntity
  8
C-A
  6
Continuous
 62
     6
370
     5
100
AcDbLine
 10
-529.8636921547546
 20
686.0430281355576
 30
0.0
 11
-530.3636158608094
 21
686.4334700300888
 31
0.0
  0
LINE
  5
165
330
1F
100
AcDbEntity
  8
C-A
  6
Continuous
 62
     6
370
     5
100
AcDbLine
 10
-529.8636921547546
 20
688.324156065245
 30
0.0
 11
-530.3636158608094
 21
687.933744688292
 31
0.0
  0
LINE
  5
166
330
1F
100
AcDbEntity
  8
C-A
  6
Continuous
 62
     6
370
     5
100
AcDbLine
 10
-538.3639515541688
 20
689.9334395125106
 30
0.0
 11
-538.8638828896183
 21
690.5740950300888
 31
0.0
  0
LINE
  5
167
330
1F
100
AcDbEntity
  8
C-A
  6
Continuous
 62
     6
370
     5
100
AcDbLine
 10
-538.8638828896183
 20
683.7930891707138
 30
0.0
 11
-538.3639515541688
 21
684.4337446882921
 31
0.0
  0
LINE
  5
168
330
1F
100
AcDbEntity
  8
C-A
  6
Continuous
 62
     6
370
     5
100
AcDbLine
 10
-538.3639515541688
 20
701.43328692462
 30
0.0
 11
-530.3636158608094
 21
703.4335005476669
 31
0.0
  0
LINE
  5
169
330
1F
100
AcDbEntity
  8
C-A
  6
Continuous
 62
     6
370
     5
100
AcDbLine
 10
-538.3639515541688
 20
699.9335005476669
 30
0.0
 11
-538.3639515541688
 21
701.43328692462
 31
0.0
  0
LINE
  5
16A
330
1F
100
AcDbEntity
  8
C-A
  6
Continuous
 62
     6
370
     5
100
AcDbLine
 10
-530.3636158608094
 20
697.9332869246201
 30
0.0
 11
-530.3636158608094
 21
703.4335005476669
 31
0.0
  0
LINE
  5
16B
330
1F
100
AcDbEntity
  8
C-A
  6
Continuous
 62
     6
370
     5
100
AcDbLine
 10
-529.8636921547546
 20
697.29315020587
 30
0.0
 11
-538.8638828896183
 21
699.5430586531356
 31
0.0
  0
LINE
  5
16C
330
1F
100
AcDbEntity
  8
C-A
  6
Continuous
 62
     6
370
     5
100
AcDbLine
 10
-538.8638828896183
 20
701.8236983015731
 30
0.0
 11
-529.8636921547546
 21
704.0741255476669
 31
0.0
  0
LINE
  5
16D
330
1F
100
AcDbEntity
  8
C-A
  6
Continuous
 62
     6
370
     5
100
AcDbLine
 10
-530.3636158608094
 20
697.9332869246201
 30
0.0
 11
-538.3639515541688
 21
699.9335005476669
 31
0.0
  0
LINE
  5
16E
330
1F
100
AcDbEntity
  8
C-A
  6
Continuous
 62
     6
370
     5
100
AcDbLine
 10
-529.8636921547546
 20
697.29315020587
 30
0.0
 11
-530.3636158608094
 21
697.9332869246201
 31
0.0
  0
LINE
  5
16F
330
1F
100
AcDbEntity
  8
C-A
  6
Continuous
 62
     6
370
     5
100
AcDbLine
 10
-530.3636158608094
 20
703.4335005476669
 30
0.0
 11
-529.8636921547546
 21
704.0741255476669
 31
0.0
  0
LINE
  5
170
330
1F
100
AcDbEntity
  8
C-A
  6
Continuous
 62
     6
370
     5
100
AcDbLine
 10
-538.3639515541688
 20
701.43328692462
 30
0.0
 11
-538.8638828896183
 21
701.8236983015731
 31
0.0
  0
LINE
  5
171
330
1F
100
AcDbEntity
  8
C-A
  6
Continuous
 62
     6
370
     5
100
AcDbLine
 10
-538.8638828896183
 20
699.5430586531356
 30
0.0
 11
-538.3639515541688
 21
699.9335005476669
 31
0.0
  0
LINE
  5
172
330
1F
100
AcDbEntity
  8
C-A
  6
Continuous
 62
     6
370
     5
100
AcDbLine
 10
-515.3637989662781
 20
776.996244688292
 30
0.0
 11
-523.3636311195983
 21
774.996519346495
 31
0.0
  0
LINE
  5
173
330
1F
100
AcDbEntity
  8
C-A
  6
Continuous
 62
     6
370
     5
100
AcDbLine
 10
-515.3637989662781
 20
778.496519346495
 30
0.0
 11
-523.3636311195983
 21
780.496214170714
 31
0.0
  0
LINE
  5
174
330
1F
100
AcDbEntity
  8
C-A
  6
Continuous
 62
     6
370
     5
100
AcDbLine
 10
-515.3637989662781
 20
776.996244688292
 30
0.0
 11
-515.3637989662781
 21
778.496519346495
 31
0.0
  0
LINE
  5
175
330
1F
100
AcDbEntity
  8
C-A
  6
Continuous
 62
     6
370
     5
100
AcDbLine
 10
-523.3636311195983
 20
774.996519346495
 30
0.0
 11
-523.3636311195983
 21
780.496214170714
 31
0.0
  0
LINE
  5
176
330
1F
100
AcDbEntity
  8
C-A
  6
Continuous
 62
     6
370
     5
100
AcDbLine
 10
-514.8633717201847
 20
776.6058027937606
 30
0.0
 11
-523.8635548256531
 21
774.355894346495
 31
0.0
  0
LINE
  5
177
330
1F
100
AcDbEntity
  8
C-A
  6
Continuous
 62
     6
370
     5
100
AcDbLine
 10
-514.8633717201847
 20
778.8869612410264
 30
0.0
 11
-523.8635548256531
 21
781.1368391707138
 31
0.0
  0
LINE
  5
178
330
1F
100
AcDbEntity
  8
C-A
  6
Continuous
 62
     6
370
     5
100
AcDbLine
 10
-514.8633717201847
 20
776.6058027937606
 30
0.0
 11
-515.3637989662781
 21
776.996244688292
 31
0.0
  0
LINE
  5
179
330
1F
100
AcDbEntity
  8
C-A
  6
Continuous
 62
     6
370
     5
100
AcDbLine
 10
-514.8633717201847
 20
778.8869612410264
 30
0.0
 11
-515.3637989662781
 21
778.496519346495
 31
0.0
  0
LINE
  5
17A
330
1F
100
AcDbEntity
  8
C-A
  6
Continuous
 62
     6
370
     5
100
AcDbLine
 10
-523.3636311195983
 20
780.496214170714
 30
0.0
 11
-523.8635548256531
 21
781.1368391707138
 31
0.0
  0
LINE
  5
17B
330
1F
100
AcDbEntity
  8
C-A
  6
Continuous
 62
     6
370
     5
100
AcDbLine
 10
-523.8635548256531
 20
774.355894346495
 30
0.0
 11
-523.3636311195983
 21
774.996519346495
 31
0.0
  0
LINE
  5
17C
330
1F
100
AcDbEntity
  8
C-A
  6
Continuous
 62
     6
370
     5
100
AcDbLine
 10
-515.3637989662781
 20
749.9966414168077
 30
0.0
 11
-523.3636311195983
 21
747.9969465925888
 31
0.0
  0
LINE
  5
17D
330
1F
100
AcDbEntity
  8
C-A
  6
Continuous
 62
     6
370
     5
100
AcDbLine
 10
-515.3637989662781
 20
751.4969465925888
 30
0.0
 11
-523.3636311195983
 21
753.4966414168076
 31
0.0
  0
LINE
  5
17E
330
1F
100
AcDbEntity
  8
C-A
  6
Continuous
 62
     6
370
     5
100
AcDbLine
 10
-515.3637989662781
 20
749.9966414168077
 30
0.0
 11
-515.3637989662781
 21
751.4969465925888
 31
0.0
  0
LINE
  5
17F
330
1F
100
AcDbEntity
  8
C-A
  6
Continuous
 62
     6
370
     5
100
AcDbLine
 10
-523.3636311195983
 20
747.9969465925888
 30
0.0
 11
-523.3636311195983
 21
753.4966414168076
 31
0.0
  0
LINE
  5
180
330
1F
100
AcDbEntity
  8
C-A
  6
Continuous
 62
     6
370
     5
100
AcDbLine
 10
-514.8633717201847
 20
749.6062300398544
 30
0.0
 11
-523.8635548256531
 21
747.3562910750106
 31
0.0
  0
LINE
  5
181
330
1F
100
AcDbEntity
  8
C-A
  6
Continuous
 62
     6
370
     5
100
AcDbLine
 10
-514.8633717201847
 20
751.8873579695421
 30
0.0
 11
-523.8635548256531
 21
754.1372969343856
 31
0.0
  0
LINE
  5
182
330
1F
100
AcDbEntity
  8
C-A
  6
Continuous
 62
     6
370
     5
100
AcDbLine
 10
-514.8633717201847
 20
749.6062300398544
 30
0.0
 11
-515.3637989662781
 21
749.9966414168077
 31
0.0
  0
LINE
  5
183
330
1F
100
AcDbEntity
  8
C-A
  6
Continuous
 62
     6
370
     5
100
AcDbLine
 10
-514.8633717201847
 20
751.8873579695421
 30
0.0
 11
-515.3637989662781
 21
751.4969465925888
 31
0.0
  0
LINE
  5
184
330
1F
100
AcDbEntity
  8
C-A
  6
Continuous
 62
     6
370
     5
100
AcDbLine
 10
-523.3636311195983
 20
753.4966414168076
 30
0.0
 11
-523.8635548256531
 21
754.1372969343856
 31
0.0
  0
LINE
  5
185
330
1F
100
AcDbEntity
  8
C-A
  6
Continuous
 62
     6
370
     5
100
AcDbLine
 10
-523.8635548256531
 20
747.3562910750106
 30
0.0
 11
-523.3636311195983
 21
747.9969465925888
 31
0.0
  0
LINE
  5
186
330
1F
100
AcDbEntity
  8
C-A
  6
Continuous
 62
     6
370
     5
100
AcDbLine
 10
-523.3636311195983
 20
764.9964888289171
 30
0.0
 11
-515.3637989662781
 21
766.9966719343856
 31
0.0
  0
LINE
  5
187
330
1F
100
AcDbEntity
  8
C-A
  6
Continuous
 62
     6
370
     5
100
AcDbLine
 10
-523.3636311195983
 20
763.496702451964
 30
0.0
 11
-523.3636311195983
 21
764.9964888289171
 31
0.0
  0
LINE
  5
188
330
1F
100
AcDbEntity
  8
C-A
  6
Continuous
 62
     6
370
     5
100
AcDbLine
 10
-515.3637989662781
 20
761.4964888289169
 30
0.0
 11
-515.3637989662781
 21
766.9966719343856
 31
0.0
  0
LINE
  5
189
330
1F
100
AcDbEntity
  8
C-A
  6
Continuous
 62
     6
370
     5
100
AcDbLine
 10
-514.8633717201847
 20
760.8563521101669
 30
0.0
 11
-523.8635548256531
 21
763.1062605574325
 31
0.0
  0
LINE
  5
18A
330
1F
100
AcDbEntity
  8
C-A
  6
Continuous
 62
     6
370
     5
100
AcDbLine
 10
-523.8635548256531
 20
765.3869002058701
 30
0.0
 11
-514.8633717201847
 21
767.637327451964
 31
0.0
  0
LINE
  5
18B
330
1F
100
AcDbEntity
  8
C-A
  6
Continuous
 62
     6
370
     5
100
AcDbLine
 10
-515.3637989662781
 20
761.4964888289169
 30
0.0
 11
-523.3636311195983
 21
763.496702451964
 31
0.0
  0
LINE
  5
18C
330
1F
100
AcDbEntity
  8
C-A
  6
Continuous
 62
     6
370
     5
100
AcDbLine
 10
-514.8633717201847
 20
760.8563521101669
 30
0.0
 11
-515.3637989662781
 21
761.4964888289169
 31
0.0
  0
LINE
  5
18D
330
1F
100
AcDbEntity
  8
C-A
  6
Continuous
 62
     6
370
     5
100
AcDbLine
 10
-515.3637989662781
 20
766.9966719343856
 30
0.0
 11
-514.8633717201847
 21
767.637327451964
 31
0.0
  0
LINE
  5
18E
330
1F
100
AcDbEntity
  8
C-A
  6
Continuous
 62
     6
370
     5
100
AcDbLine
 10
-523.3636311195983
 20
764.9964888289171
 30
0.0
 11
-523.8635548256531
 21
765.3869002058701
 31
0.0
  0
LINE
  5
18F
330
1F
100
AcDbEntity
  8
C-A
  6
Continuous
 62
     6
370
     5
100
AcDbLine
 10
-523.8635548256531
 20
763.1062605574325
 30
0.0
 11
-523.3636311195983
 21
763.496702451964
 31
0.0
  0
LINE
  5
190
330
1F
100
AcDbEntity
  8
C-A
  6
Continuous
 62
     6
370
     5
100
AcDbLine
 10
-515.3637989662781
 20
722.9970686629014
 30
0.0
 11
-523.3636311195983
 21
720.9973738386825
 31
0.0
  0
LINE
  5
191
330
1F
100
AcDbEntity
  8
C-A
  6
Continuous
 62
     6
370
     5
100
AcDbLine
 10
-515.3637989662781
 20
724.4973433211044
 30
0.0
 11
-523.3636311195983
 21
726.4970686629013
 31
0.0
  0
LINE
  5
192
330
1F
100
AcDbEntity
  8
C-A
  6
Continuous
 62
     6
370
     5
100
AcDbLine
 10
-515.3637989662781
 20
722.9970686629014
 30
0.0
 11
-515.3637989662781
 21
724.4973433211044
 31
0.0
  0
LINE
  5
193
330
1F
100
AcDbEntity
  8
C-A
  6
Continuous
 62
     6
370
     5
100
AcDbLine
 10
-523.3636311195983
 20
720.9973738386825
 30
0.0
 11
-523.3636311195983
 21
726.4970686629013
 31
0.0
  0
LINE
  5
194
330
1F
100
AcDbEntity
  8
C-A
  6
Continuous
 62
     6
370
     5
100
AcDbLine
 10
-514.8633717201847
 20
722.6066572859484
 30
0.0
 11
-523.8635548256531
 21
720.3567183211044
 31
0.0
  0
LINE
  5
195
330
1F
100
AcDbEntity
  8
C-A
  6
Continuous
 62
     6
370
     5
100
AcDbLine
 10
-514.8633717201847
 20
724.8877852156357
 30
0.0
 11
-523.8635548256531
 21
727.1376936629014
 31
0.0
  0
LINE
  5
196
330
1F
100
AcDbEntity
  8
C-A
  6
Continuous
 62
     6
370
     5
100
AcDbLine
 10
-514.8633717201847
 20
722.6066572859484
 30
0.0
 11
-515.3637989662781
 21
722.9970686629014
 31
0.0
  0
LINE
  5
197
330
1F
100
AcDbEntity
  8
C-A
  6
Continuous
 62
     6
370
     5
100
AcDbLine
 10
-514.8633717201847
 20
724.8877852156357
 30
0.0
 11
-515.3637989662781
 21
724.4973433211044
 31
0.0
  0
LINE
  5
198
330
1F
100
AcDbEntity
  8
C-A
  6
Continuous
 62
     6
370
     5
100
AcDbLine
 10
-523.3636311195983
 20
726.4970686629013
 30
0.0
 11
-523.8635548256531
 21
727.1376936629014
 31
0.0
  0
LINE
  5
199
330
1F
100
AcDbEntity
  8
C-A
  6
Continuous
 62
     6
370
     5
100
AcDbLine
 10
-523.8635548256531
 20
720.3567183211044
 30
0.0
 11
-523.3636311195983
 21
720.9973738386825
 31
0.0
  0
LINE
  5
19A
330
1F
100
AcDbEntity
  8
C-A
  6
Continuous
 62
     6
370
     5
100
AcDbLine
 10
-523.3636311195983
 20
737.9968855574325
 30
0.0
 11
-515.3637989662781
 21
739.9970991804796
 31
0.0
  0
LINE
  5
19B
330
1F
100
AcDbEntity
  8
C-A
  6
Continuous
 62
     6
370
     5
100
AcDbLine
 10
-523.3636311195983
 20
736.4970991804794
 30
0.0
 11
-523.3636311195983
 21
737.9968855574325
 31
0.0
  0
LINE
  5
19C
330
1F
100
AcDbEntity
  8
C-A
  6
Continuous
 62
     6
370
     5
100
AcDbLine
 10
-515.3637989662781
 20
734.4969160750109
 30
0.0
 11
-515.3637989662781
 21
739.9970991804796
 31
0.0
  0
LINE
  5
19D
330
1F
100
AcDbEntity
  8
C-A
  6
Continuous
 62
     6
370
     5
100
AcDbLine
 10
-514.8633717201847
 20
733.8567488386826
 30
0.0
 11
-523.8635548256531
 21
736.1066878035263
 31
0.0
  0
LINE
  5
19E
330
1F
100
AcDbEntity
  8
C-A
  6
Continuous
 62
     6
370
     5
100
AcDbLine
 10
-523.8635548256531
 20
738.3873274519638
 30
0.0
 11
-514.8633717201847
 21
740.6377546980576
 31
0.0
  0
LINE
  5
19F
330
1F
100
AcDbEntity
  8
C-A
  6
Continuous
 62
     6
370
     5
100
AcDbLine
 10
-515.3637989662781
 20
734.4969160750109
 30
0.0
 11
-523.3636311195983
 21
736.4970991804794
 31
0.0
  0
LINE
  5
1A0
330
1F
100
AcDbEntity
  8
C-A
  6
Continuous
 62
     6
370
     5
100
AcDbLine
 10
-514.8633717201847
 20
733.8567488386826
 30
0.0
 11
-515.3637989662781
 21
734.4969160750109
 31
0.0
  0
LINE
  5
1A1
330
1F
100
AcDbEntity
  8
C-A
  6
Continuous
 62
     6
370
     5
100
AcDbLine
 10
-515.3637989662781
 20
739.9970991804796
 30
0.0
 11
-514.8633717201847
 21
740.6377546980576
 31
0.0
  0
LINE
  5
1A2
330
1F
100
AcDbEntity
  8
C-A
  6
Continuous
 62
     6
370
     5
100
AcDbLine
 10
-523.3636311195983
 20
737.9968855574325
 30
0.0
 11
-523.8635548256531
 21
738.3873274519638
 31
0.0
  0
LINE
  5
1A3
330
1F
100
AcDbEntity
  8
C-A
  6
Continuous
 62
     6
370
     5
100
AcDbLine
 10
-523.8635548256531
 20
736.1066878035263
 30
0.0
 11
-523.3636311195983
 21
736.4970991804794
 31
0.0
  0
LINE
  5
1A4
330
1F
100
AcDbEntity
  8
C-A
  6
Continuous
 62
     6
370
     5
100
AcDbLine
 10
-515.3637989662781
 20
695.997495908995
 30
0.0
 11
-523.3636311195983
 21
693.9977705671981
 31
0.0
  0
LINE
  5
1A5
330
1F
100
AcDbEntity
  8
C-A
  6
Continuous
 62
     6
370
     5
100
AcDbLine
 10
-515.3637989662781
 20
697.4977705671981
 30
0.0
 11
-523.3636311195983
 21
699.497495908995
 31
0.0
  0
LINE
  5
1A6
330
1F
100
AcDbEntity
  8
C-A
  6
Continuous
 62
     6
370
     5
100
AcDbLine
 10
-515.3637989662781
 20
695.997495908995
 30
0.0
 11
-515.3637989662781
 21
697.4977705671981
 31
0.0
  0
LINE
  5
1A7
330
1F
100
AcDbEntity
  8
C-A
  6
Continuous
 62
     6
370
     5
100
AcDbLine
 10
-523.3636311195983
 20
693.9977705671981
 30
0.0
 11
-523.3636311195983
 21
699.497495908995
 31
0.0
  0
LINE
  5
1A8
330
1F
100
AcDbEntity
  8
C-A
  6
Continuous
 62
     6
370
     5
100
AcDbLine
 10
-514.8633717201847
 20
695.6070540144638
 30
0.0
 11
-523.8635548256531
 21
693.3571455671981
 31
0.0
  0
LINE
  5
1A9
330
1F
100
AcDbEntity
  8
C-A
  6
Continuous
 62
     6
370
     5
100
AcDbLine
 10
-514.8633717201847
 20
697.8882124617294
 30
0.0
 11
-523.8635548256531
 21
700.138120908995
 31
0.0
  0
LINE
  5
1AA
330
1F
100
AcDbEntity
  8
C-A
  6
Continuous
 62
     6
370
     5
100
AcDbLine
 10
-514.8633717201847
 20
695.6070540144638
 30
0.0
 11
-515.3637989662781
 21
695.997495908995
 31
0.0
  0
LINE
  5
1AB
330
1F
100
AcDbEntity
  8
C-A
  6
Continuous
 62
     6
370
     5
100
AcDbLine
 10
-514.8633717201847
 20
697.8882124617294
 30
0.0
 11
-515.3637989662781
 21
697.4977705671981
 31
0.0
  0
LINE
  5
1AC
330
1F
100
AcDbEntity
  8
C-A
  6
Continuous
 62
     6
370
     5
100
AcDbLine
 10
-523.3636311195983
 20
699.497495908995
 30
0.0
 11
-523.8635548256531
 21
700.138120908995
 31
0.0
  0
LINE
  5
1AD
330
1F
100
AcDbEntity
  8
C-A
  6
Continuous
 62
     6
370
     5
100
AcDbLine
 10
-523.8635548256531
 20
693.3571455671981
 30
0.0
 11
-523.3636311195983
 21
693.9977705671981
 31
0.0
  0
LINE
  5
1AE
330
1F
100
AcDbEntity
  8
C-A
  6
Continuous
 62
     6
370
     5
100
AcDbLine
 10
-523.3636311195983
 20
710.9973128035265
 30
0.0
 11
-515.3637989662781
 21
712.9975264265732
 31
0.0
  0
LINE
  5
1AF
330
1F
100
AcDbEntity
  8
C-A
  6
Continuous
 62
     6
370
     5
100
AcDbLine
 10
-523.3636311195983
 20
709.4975264265734
 30
0.0
 11
-523.3636311195983
 21
710.9973128035265
 31
0.0
  0
LINE
  5
1B0
330
1F
100
AcDbEntity
  8
C-A
  6
Continuous
 62
     6
370
     5
100
AcDbLine
 10
-515.3637989662781
 20
707.4973128035263
 30
0.0
 11
-515.3637989662781
 21
712.9975264265732
 31
0.0
  0
LINE
  5
1B1
330
1F
100
AcDbEntity
  8
C-A
  6
Continuous
 62
     6
370
     5
100
AcDbLine
 10
-514.8633717201847
 20
706.8571760847763
 30
0.0
 11
-523.8635548256531
 21
709.1070845320419
 31
0.0
  0
LINE
  5
1B2
330
1F
100
AcDbEntity
  8
C-A
  6
Continuous
 62
     6
370
     5
100
AcDbLine
 10
-523.8635548256531
 20
711.3877546980575
 30
0.0
 11
-514.8633717201847
 21
713.6381514265734
 31
0.0
  0
LINE
  5
1B3
330
1F
100
AcDbEntity
  8
C-A
  6
Continuous
 62
     6
370
     5
100
AcDbLine
 10
-515.3637989662781
 20
707.4973128035263
 30
0.0
 11
-523.3636311195983
 21
709.4975264265734
 31
0.0
  0
LINE
  5
1B4
330
1F
100
AcDbEntity
  8
C-A
  6
Continuous
 62
     6
370
     5
100
AcDbLine
 10
-514.8633717201847
 20
706.8571760847763
 30
0.0
 11
-515.3637989662781
 21
707.4973128035263
 31
0.0
  0
LINE
  5
1B5
330
1F
100
AcDbEntity
  8
C-A
  6
Continuous
 62
     6
370
     5
100
AcDbLine
 10
-515.3637989662781
 20
712.9975264265732
 30
0.0
 11
-514.8633717201847
 21
713.6381514265734
 31
0.0
  0
LINE
  5
1B6
330
1F
100
AcDbEntity
  8
C-A
  6
Continuous
 62
     6
370
     5
100
AcDbLine
 10
-523.3636311195983
 20
710.9973128035265
 30
0.0
 11
-523.8635548256531
 21
711.3877546980575
 31
0.0
  0
LINE
  5
1B7
330
1F
100
AcDbEntity
  8
C-A
  6
Continuous
 62
     6
370
     5
100
AcDbLine
 10
-523.8635548256531
 20
709.1070845320419
 30
0.0
 11
-523.3636311195983
 21
709.4975264265734
 31
0.0
  0
LINE
  5
1B8
330
1F
100
AcDbEntity
  8
C-A
  6
Continuous
 62
     6
370
     5
100
AcDbLine
 10
-500.363966812958
 20
763.9074385359481
 30
0.0
 11
-508.3638142250675
 21
761.9077131941513
 31
0.0
  0
LINE
  5
1B9
330
1F
100
AcDbEntity
  8
C-A
  6
Continuous
 62
     6
370
     5
100
AcDbLine
 10
-500.363966812958
 20
765.4077131941515
 30
0.0
 11
-508.3638142250675
 21
767.4074385359481
 31
0.0
  0
LINE
  5
1BA
330
1F
100
AcDbEntity
  8
C-A
  6
Continuous
 62
     6
370
     5
100
AcDbLine
 10
-500.363966812958
 20
763.9074385359481
 30
0.0
 11
-500.363966812958
 21
765.4077131941515
 31
0.0
  0
LINE
  5
1BB
330
1F
100
AcDbEntity
  8
C-A
  6
Continuous
 62
     6
370
     5
100
AcDbLine
 10
-508.3638142250675
 20
761.9077131941513
 30
0.0
 11
-508.3638142250675
 21
767.4074385359481
 31
0.0
  0
LINE
  5
1BC
330
1F
100
AcDbEntity
  8
C-A
  6
Continuous
 62
     6
370
     5
100
AcDbLine
 10
-499.8635548256533
 20
763.5169966414171
 30
0.0
 11
-508.8637379311217
 21
761.2670881941515
 31
0.0
  0
LINE
  5
1BD
330
1F
100
AcDbEntity
  8
C-A
  6
Continuous
 62
     6
370
     5
100
AcDbLine
 10
-499.8635548256533
 20
765.7981550886825
 30
0.0
 11
-508.8637379311217
 21
768.0480635359481
 31
0.0
  0
LINE
  5
1BE
330
1F
100
AcDbEntity
  8
C-A
  6
Continuous
 62
     6
370
     5
100
AcDbLine
 10
-499.8635548256533
 20
763.5169966414171
 30
0.0
 11
-500.363966812958
 21
763.9074385359481
 31
0.0
  0
LINE
  5
1BF
330
1F
100
AcDbEntity
  8
C-A
  6
Continuous
 62
     6
370
     5
100
AcDbLine
 10
-499.8635548256533
 20
765.7981550886825
 30
0.0
 11
-500.363966812958
 21
765.4077131941515
 31
0.0
  0
LINE
  5
1C0
330
1F
100
AcDbEntity
  8
C-A
  6
Continuous
 62
     6
370
     5
100
AcDbLine
 10
-508.3638142250675
 20
767.4074385359481
 30
0.0
 11
-508.8637379311217
 21
768.0480635359481
 31
0.0
  0
LINE
  5
1C1
330
1F
100
AcDbEntity
  8
C-A
  6
Continuous
 62
     6
370
     5
100
AcDbLine
 10
-508.8637379311217
 20
761.2670881941515
 30
0.0
 11
-508.3638142250675
 21
761.9077131941513
 31
0.0
  0
LINE
  5
1C2
330
1F
100
AcDbEntity
  8
C-A
  6
Continuous
 62
     6
370
     5
100
AcDbLine
 10
-508.3638142250675
 20
778.9072859480575
 30
0.0
 11
-500.363966812958
 21
780.9074690535263
 31
0.0
  0
LINE
  5
1C3
330
1F
100
AcDbEntity
  8
C-A
  6
Continuous
 62
     6
370
     5
100
AcDbLine
 10
-508.3638142250675
 20
777.4074690535264
 30
0.0
 11
-508.3638142250675
 21
778.9072859480575
 31
0.0
  0
LINE
  5
1C4
330
1F
100
AcDbEntity
  8
C-A
  6
Continuous
 62
     6
370
     5
100
AcDbLine
 10
-500.363966812958
 20
775.4072554304796
 30
0.0
 11
-500.363966812958
 21
780.9074690535263
 31
0.0
  0
LINE
  5
1C5
330
1F
100
AcDbEntity
  8
C-A
  6
Continuous
 62
     6
370
     5
100
AcDbLine
 10
-499.8635548256533
 20
774.7671187117294
 30
0.0
 11
-508.8637379311217
 21
777.0170576765734
 31
0.0
  0
LINE
  5
1C6
330
1F
100
AcDbEntity
  8
C-A
  6
Continuous
 62
     6
370
     5
100
AcDbLine
 10
-508.8637379311217
 20
779.2976668074325
 30
0.0
 11
-499.8635548256533
 21
781.5480940535264
 31
0.0
  0
LINE
  5
1C7
330
1F
100
AcDbEntity
  8
C-A
  6
Continuous
 62
     6
370
     5
100
AcDbLine
 10
-500.363966812958
 20
775.4072554304796
 30
0.0
 11
-508.3638142250675
 21
777.4074690535264
 31
0.0
  0
LINE
  5
1C8
330
1F
100
AcDbEntity
  8
C-A
  6
Continuous
 62
     6
370
     5
100
AcDbLine
 10
-499.8635548256533
 20
774.7671187117294
 30
0.0
 11
-500.363966812958
 21
775.4072554304796
 31
0.0
  0
LINE
  5
1C9
330
1F
100
AcDbEntity
  8
C-A
  6
Continuous
 62
     6
370
     5
100
AcDbLine
 10
-500.363966812958
 20
780.9074690535263
 30
0.0
 11
-499.8635548256533
 21
781.5480940535264
 31
0.0
  0
LINE
  5
1CA
330
1F
100
AcDbEntity
  8
C-A
  6
Continuous
 62
     6
370
     5
100
AcDbLine
 10
-508.3638142250675
 20
778.9072859480575
 30
0.0
 11
-508.8637379311217
 21
779.2976668074325
 31
0.0
  0
LINE
  5
1CB
330
1F
100
AcDbEntity
  8
C-A
  6
Continuous
 62
     6
370
     5
100
AcDbLine
 10
-508.8637379311217
 20
777.0170576765734
 30
0.0
 11
-508.3638142250675
 21
777.4074690535264
 31
0.0
  0
LINE
  5
1CC
330
1F
100
AcDbEntity
  8
C-A
  6
Continuous
 62
     6
370
     5
100
AcDbLine
 10
-500.363966812958
 20
736.9078657820419
 30
0.0
 11
-508.3638142250675
 21
734.9081404402452
 31
0.0
  0
LINE
  5
1CD
330
1F
100
AcDbEntity
  8
C-A
  6
Continuous
 62
     6
370
     5
100
AcDbLine
 10
-500.363966812958
 20
738.4081404402451
 30
0.0
 11
-508.3638142250675
 21
740.4078352644638
 31
0.0
  0
LINE
  5
1CE
330
1F
100
AcDbEntity
  8
C-A
  6
Continuous
 62
     6
370
     5
100
AcDbLine
 10
-500.363966812958
 20
736.9078657820419
 30
0.0
 11
-500.363966812958
 21
738.4081404402451
 31
0.0
  0
LINE
  5
1CF
330
1F
100
AcDbEntity
  8
C-A
  6
Continuous
 62
     6
370
     5
100
AcDbLine
 10
-508.3638142250675
 20
734.9081404402452
 30
0.0
 11
-508.3638142250675
 21
740.4078352644638
 31
0.0
  0
LINE
  5
1D0
330
1F
100
AcDbEntity
  8
C-A
  6
Continuous
 62
     6
370
     5
100
AcDbLine
 10
-499.8635548256533
 20
736.5174238875107
 30
0.0
 11
-508.8637379311217
 21
734.2675154402451
 31
0.0
  0
LINE
  5
1D1
330
1F
100
AcDbEntity
  8
C-A
  6
Continuous
 62
     6
370
     5
100
AcDbLine
 10
-499.8635548256533
 20
738.7985518171981
 30
0.0
 11
-508.8637379311217
 21
741.0484907820419
 31
0.0
  0
LINE
  5
1D2
330
1F
100
AcDbEntity
  8
C-A
  6
Continuous
 62
     6
370
     5
100
AcDbLine
 10
-499.8635548256533
 20
736.5174238875107
 30
0.0
 11
-500.363966812958
 21
736.9078657820419
 31
0.0
  0
LINE
  5
1D3
330
1F
100
AcDbEntity
  8
C-A
  6
Continuous
 62
     6
370
     5
100
AcDbLine
 10
-499.8635548256533
 20
738.7985518171981
 30
0.0
 11
-500.363966812958
 21
738.4081404402451
 31
0.0
  0
LINE
  5
1D4
330
1F
100
AcDbEntity
  8
C-A
  6
Continuous
 62
     6
370
     5
100
AcDbLine
 10
-508.3638142250675
 20
740.4078352644638
 30
0.0
 11
-508.8637379311217
 21
741.0484907820419
 31
0.0
  0
LINE
  5
1D5
330
1F
100
AcDbEntity
  8
C-A
  6
Continuous
 62
     6
370
     5
100
AcDbLine
 10
-508.8637379311217
 20
734.2675154402451
 30
0.0
 11
-508.3638142250675
 21
734.9081404402452
 31
0.0
  0
LINE
  5
1D6
330
1F
100
AcDbEntity
  8
C-A
  6
Continuous
 62
     6
370
     5
100
AcDbLine
 10
-508.3638142250675
 20
751.9076826765731
 30
0.0
 11
-500.363966812958
 21
753.90789629962
 31
0.0
  0
LINE
  5
1D7
330
1F
100
AcDbEntity
  8
C-A
  6
Continuous
 62
     6
370
     5
100
AcDbLine
 10
-508.3638142250675
 20
750.40789629962
 30
0.0
 11
-508.3638142250675
 21
751.9076826765731
 31
0.0
  0
LINE
  5
1D8
330
1F
100
AcDbEntity
  8
C-A
  6
Continuous
 62
     6
370
     5
100
AcDbLine
 10
-500.363966812958
 20
748.4076826765732
 30
0.0
 11
-500.363966812958
 21
753.90789629962
 31
0.0
  0
LINE
  5
1D9
330
1F
100
AcDbEntity
  8
C-A
  6
Continuous
 62
     6
370
     5
100
AcDbLine
 10
-499.8635548256533
 20
747.7675459578231
 30
0.0
 11
-508.8637379311217
 21
750.0174544050888
 31
0.0
  0
LINE
  5
1DA
330
1F
100
AcDbEntity
  8
C-A
  6
Continuous
 62
     6
370
     5
100
AcDbLine
 10
-508.8637379311217
 20
752.2980940535263
 30
0.0
 11
-499.8635548256533
 21
754.54852129962
 31
0.0
  0
LINE
  5
1DB
330
1F
100
AcDbEntity
  8
C-A
  6
Continuous
 62
     6
370
     5
100
AcDbLine
 10
-500.363966812958
 20
748.4076826765732
 30
0.0
 11
-508.3638142250675
 21
750.40789629962
 31
0.0
  0
LINE
  5
1DC
330
1F
100
AcDbEntity
  8
C-A
  6
Continuous
 62
     6
370
     5
100
AcDbLine
 10
-499.8635548256533
 20
747.7675459578231
 30
0.0
 11
-500.363966812958
 21
748.4076826765732
 31
0.0
  0
LINE
  5
1DD
330
1F
100
AcDbEntity
  8
C-A
  6
Continuous
 62
     6
370
     5
100
AcDbLine
 10
-500.363966812958
 20
753.90789629962
 30
0.0
 11
-499.8635548256533
 21
754.54852129962
 31
0.0
  0
LINE
  5
1DE
330
1F
100
AcDbEntity
  8
C-A
  6
Continuous
 62
     6
370
     5
100
AcDbLine
 10
-508.3638142250675
 20
751.9076826765731
 30
0.0
 11
-508.8637379311217
 21
752.2980940535263
 31
0.0
  0
LINE
  5
1DF
330
1F
100
AcDbEntity
  8
C-A
  6
Continuous
 62
     6
370
     5
100
AcDbLine
 10
-508.8637379311217
 20
750.0174544050888
 30
0.0
 11
-508.3638142250675
 21
750.40789629962
 31
0.0
  0
LINE
  5
1E0
330
1F
100
AcDbEntity
  8
C-A
  6
Continuous
 62
     6
370
     5
100
AcDbLine
 10
-500.363966812958
 20
709.9082625105575
 30
0.0
 11
-508.3638142250675
 21
707.9085676863389
 31
0.0
  0
LINE
  5
1E1
330
1F
100
AcDbEntity
  8
C-A
  6
Continuous
 62
     6
370
     5
100
AcDbLine
 10
-500.363966812958
 20
711.4085371687609
 30
0.0
 11
-508.3638142250675
 21
713.4082625105575
 31
0.0
  0
LINE
  5
1E2
330
1F
100
AcDbEntity
  8
C-A
  6
Continuous
 62
     6
370
     5
100
AcDbLine
 10
-500.363966812958
 20
709.9082625105575
 30
0.0
 11
-500.363966812958
 21
711.4085371687609
 31
0.0
  0
LINE
  5
1E3
330
1F
100
AcDbEntity
  8
C-A
  6
Continuous
 62
     6
370
     5
100
AcDbLine
 10
-508.3638142250675
 20
707.9085676863389
 30
0.0
 11
-508.3638142250675
 21
713.4082625105575
 31
0.0
  0
LINE
  5
1E4
330
1F
100
AcDbEntity
  8
C-A
  6
Continuous
 62
     6
370
     5
100
AcDbLine
 10
-499.8635548256533
 20
709.5178511336044
 30
0.0
 11
-508.8637379311217
 21
707.2679121687609
 31
0.0
  0
LINE
  5
1E5
330
1F
100
AcDbEntity
  8
C-A
  6
Continuous
 62
     6
370
     5
100
AcDbLine
 10
-499.8635548256533
 20
711.7989790632919
 30
0.0
 11
-508.8637379311217
 21
714.0489180281359
 31
0.0
  0
LINE
  5
1E6
330
1F
100
AcDbEntity
  8
C-A
  6
Continuous
 62
     6
370
     5
100
AcDbLine
 10
-499.8635548256533
 20
709.5178511336044
 30
0.0
 11
-500.363966812958
 21
709.9082625105575
 31
0.0
  0
LINE
  5
1E7
330
1F
100
AcDbEntity
  8
C-A
  6
Continuous
 62
     6
370
     5
100
AcDbLine
 10
-499.8635548256533
 20
711.7989790632919
 30
0.0
 11
-500.363966812958
 21
711.4085371687609
 31
0.0
  0
LINE
  5
1E8
330
1F
100
AcDbEntity
  8
C-A
  6
Continuous
 62
     6
370
     5
100
AcDbLine
 10
-508.3638142250675
 20
713.4082625105575
 30
0.0
 11
-508.8637379311217
 21
714.0489180281359
 31
0.0
  0
LINE
  5
1E9
330
1F
100
AcDbEntity
  8
C-A
  6
Continuous
 62
     6
370
     5
100
AcDbLine
 10
-508.8637379311217
 20
707.2679121687609
 30
0.0
 11
-508.3638142250675
 21
707.9085676863389
 31
0.0
  0
LINE
  5
1EA
330
1F
100
AcDbEntity
  8
C-A
  6
Continuous
 62
     6
370
     5
100
AcDbLine
 10
-508.3638142250675
 20
724.9081099226669
 30
0.0
 11
-500.363966812958
 21
726.9082930281356
 31
0.0
  0
LINE
  5
1EB
330
1F
100
AcDbEntity
  8
C-A
  6
Continuous
 62
     6
370
     5
100
AcDbLine
 10
-508.3638142250675
 20
723.4083235457138
 30
0.0
 11
-508.3638142250675
 21
724.9081099226669
 31
0.0
  0
LINE
  5
1EC
330
1F
100
AcDbEntity
  8
C-A
  6
Continuous
 62
     6
370
     5
100
AcDbLine
 10
-500.363966812958
 20
721.4081099226669
 30
0.0
 11
-500.363966812958
 21
726.9082930281356
 31
0.0
  0
LINE
  5
1ED
330
1F
100
AcDbEntity
  8
C-A
  6
Continuous
 62
     6
370
     5
100
AcDbLine
 10
-499.8635548256533
 20
720.7679426863388
 30
0.0
 11
-508.8637379311217
 21
723.0178816511827
 31
0.0
  0
LINE
  5
1EE
330
1F
100
AcDbEntity
  8
C-A
  6
Continuous
 62
     6
370
     5
100
AcDbLine
 10
-508.8637379311217
 20
725.29852129962
 30
0.0
 11
-499.8635548256533
 21
727.5489485457138
 31
0.0
  0
LINE
  5
1EF
330
1F
100
AcDbEntity
  8
C-A
  6
Continuous
 62
     6
370
     5
100
AcDbLine
 10
-500.363966812958
 20
721.4081099226669
 30
0.0
 11
-508.3638142250675
 21
723.4083235457138
 31
0.0
  0
LINE
  5
1F0
330
1F
100
AcDbEntity
  8
C-A
  6
Continuous
 62
     6
370
     5
100
AcDbLine
 10
-499.8635548256533
 20
720.7679426863388
 30
0.0
 11
-500.363966812958
 21
721.4081099226669
 31
0.0
  0
LINE
  5
1F1
330
1F
100
AcDbEntity
  8
C-A
  6
Continuous
 62
     6
370
     5
100
AcDbLine
 10
-500.363966812958
 20
726.9082930281356
 30
0.0
 11
-499.8635548256533
 21
727.5489485457138
 31
0.0
  0
LINE
  5
1F2
330
1F
100
AcDbEntity
  8
C-A
  6
Continuous
 62
     6
370
     5
100
AcDbLine
 10
-508.3638142250675
 20
724.9081099226669
 30
0.0
 11
-508.8637379311217
 21
725.29852129962
 31
0.0
  0
LINE
  5
1F3
330
1F
100
AcDbEntity
  8
C-A
  6
Continuous
 62
     6
370
     5
100
AcDbLine
 10
-508.8637379311217
 20
723.0178816511827
 30
0.0
 11
-508.3638142250675
 21
723.4083235457138
 31
0.0
  0
LINE
  5
1F4
330
1F
100
AcDbEntity
  8
C-A
  6
Continuous
 62
     6
370
     5
100
AcDbLine
 10
-485.3636616371767
 20
781.6006453230577
 30
0.0
 11
-493.3639973305361
 21
779.6008894636825
 31
0.0
  0
LINE
  5
1F5
330
1F
100
AcDbEntity
  8
C-A
  6
Continuous
 62
     6
370
     5
100
AcDbLine
 10
-485.3636616371767
 20
783.1008894636827
 30
0.0
 11
-493.3639973305361
 21
785.1006453230576
 31
0.0
  0
LINE
  5
1F6
330
1F
100
AcDbEntity
  8
C-A
  6
Continuous
 62
     6
370
     5
100
AcDbLine
 10
-485.3636616371767
 20
781.6006453230577
 30
0.0
 11
-485.3636616371767
 21
783.1008894636827
 31
0.0
  0
LINE
  5
1F7
330
1F
100
AcDbEntity
  8
C-A
  6
Continuous
 62
     6
370
     5
100
AcDbLine
 10
-493.3639973305361
 20
779.6008894636825
 30
0.0
 11
-493.3639973305361
 21
785.1006453230576
 31
0.0
  0
LINE
  5
1F8
330
1F
100
AcDbEntity
  8
C-A
  6
Continuous
 62
     6
370
     5
100
AcDbLine
 10
-484.8637226723326
 20
781.2102034285263
 30
0.0
 11
-493.8634174965517
 21
778.9602644636827
 31
0.0
  0
LINE
  5
1F9
330
1F
100
AcDbEntity
  8
C-A
  6
Continuous
 62
     6
370
     5
100
AcDbLine
 10
-484.8637226723326
 20
783.4913313582138
 30
0.0
 11
-493.8634174965517
 21
785.7412703230577
 31
0.0
  0
LINE
  5
1FA
330
1F
100
AcDbEntity
  8
C-A
  6
Continuous
 62
     6
370
     5
100
AcDbLine
 10
-484.8637226723326
 20
781.2102034285263
 30
0.0
 11
-485.3636616371767
 21
781.6006453230577
 31
0.0
  0
LINE
  5
1FB
330
1F
100
AcDbEntity
  8
C-A
  6
Continuous
 62
     6
370
     5
100
AcDbLine
 10
-484.8637226723326
 20
783.4913313582138
 30
0.0
 11
-485.3636616371767
 21
783.1008894636827
 31
0.0
  0
LINE
  5
1FC
330
1F
100
AcDbEntity
  8
C-A
  6
Continuous
 62
     6
370
     5
100
AcDbLine
 10
-493.3639973305361
 20
785.1006453230576
 30
0.0
 11
-493.8634174965517
 21
785.7412703230577
 31
0.0
  0
LINE
  5
1FD
330
1F
100
AcDbEntity
  8
C-A
  6
Continuous
 62
     6
370
     5
100
AcDbLine
 10
-493.8634174965517
 20
778.9602644636827
 30
0.0
 11
-493.3639973305361
 21
779.6008894636825
 31
0.0
  0
LINE
  5
1FE
330
1F
100
AcDbEntity
  8
C-A
  6
Continuous
 62
     6
370
     5
100
AcDbLine
 10
-485.3636616371767
 20
754.6010420515731
 30
0.0
 11
-493.3639973305361
 21
752.6013472273544
 31
0.0
  0
LINE
  5
1FF
330
1F
100
AcDbEntity
  8
C-A
  6
Continuous
 62
     6
370
     5
100
AcDbLine
 10
-485.3636616371767
 20
756.1013167097764
 30
0.0
 11
-493.3639973305361
 21
758.1010420515734
 31
0.0
  0
LINE
  5
200
330
1F
100
AcDbEntity
  8
C-A
  6
Continuous
 62
     6
370
     5
100
AcDbLine
 10
-485.3636616371767
 20
754.6010420515731
 30
0.0
 11
-485.3636616371767
 21
756.1013167097764
 31
0.0
  0
LINE
  5
201
330
1F
100
AcDbEntity
  8
C-A
  6
Continuous
 62
     6
370
     5
100
AcDbLine
 10
-493.3639973305361
 20
752.6013472273544
 30
0.0
 11
-493.3639973305361
 21
758.1010420515734
 31
0.0
  0
LINE
  5
202
330
1F
100
AcDbEntity
  8
C-A
  6
Continuous
 62
     6
370
     5
100
AcDbLine
 10
-484.8637226723326
 20
754.210600157042
 30
0.0
 11
-493.8634174965517
 21
751.9606917097764
 31
0.0
  0
LINE
  5
203
330
1F
100
AcDbEntity
  8
C-A
  6
Continuous
 62
     6
370
     5
100
AcDbLine
 10
-484.8637226723326
 20
756.4917586043075
 30
0.0
 11
-493.8634174965517
 21
758.7416670515731
 31
0.0
  0
LINE
  5
204
330
1F
100
AcDbEntity
  8
C-A
  6
Continuous
 62
     6
370
     5
100
AcDbLine
 10
-484.8637226723326
 20
754.210600157042
 30
0.0
 11
-485.3636616371767
 21
754.6010420515731
 31
0.0
  0
LINE
  5
205
330
1F
100
AcDbEntity
  8
C-A
  6
Continuous
 62
     6
370
     5
100
AcDbLine
 10
-484.8637226723326
 20
756.4917586043075
 30
0.0
 11
-485.3636616371767
 21
756.1013167097764
 31
0.0
  0
LINE
  5
206
330
1F
100
AcDbEntity
  8
C-A
  6
Continuous
 62
     6
370
     5
100
AcDbLine
 10
-493.3639973305361
 20
758.1010420515734
 30
0.0
 11
-493.8634174965517
 21
758.7416670515731
 31
0.0
  0
LINE
  5
207
330
1F
100
AcDbEntity
  8
C-A
  6
Continuous
 62
     6
370
     5
100
AcDbLine
 10
-493.8634174965517
 20
751.9606917097764
 30
0.0
 11
-493.3639973305361
 21
752.6013472273544
 31
0.0
  0
LINE
  5
208
330
1F
100
AcDbEntity
  8
C-A
  6
Continuous
 62
     6
370
     5
100
AcDbLine
 10
-493.3639973305361
 20
769.6008589461044
 30
0.0
 11
-485.3636616371767
 21
771.6010725691513
 31
0.0
  0
LINE
  5
209
330
1F
100
AcDbEntity
  8
C-A
  6
Continuous
 62
     6
370
     5
100
AcDbLine
 10
-493.3639973305361
 20
768.1010725691513
 30
0.0
 11
-493.3639973305361
 21
769.6008589461044
 31
0.0
  0
LINE
  5
20A
330
1F
100
AcDbEntity
  8
C-A
  6
Continuous
 62
     6
370
     5
100
AcDbLine
 10
-485.3636616371767
 20
766.1008894636825
 30
0.0
 11
-485.3636616371767
 21
771.6010725691513
 31
0.0
  0
LINE
  5
20B
330
1F
100
AcDbEntity
  8
C-A
  6
Continuous
 62
     6
370
     5
100
AcDbLine
 10
-484.8637226723326
 20
765.4607222273544
 30
0.0
 11
-493.8634174965517
 21
767.7106611921982
 31
0.0
  0
LINE
  5
20C
330
1F
100
AcDbEntity
  8
C-A
  6
Continuous
 62
     6
370
     5
100
AcDbLine
 10
-493.8634174965517
 20
769.9913008406359
 30
0.0
 11
-484.8637226723326
 21
772.2417280867294
 31
0.0
  0
LINE
  5
20D
330
1F
100
AcDbEntity
  8
C-A
  6
Continuous
 62
     6
370
     5
100
AcDbLine
 10
-485.3636616371767
 20
766.1008894636825
 30
0.0
 11
-493.3639973305361
 21
768.1010725691513
 31
0.0
  0
LINE
  5
20E
330
1F
100
AcDbEntity
  8
C-A
  6
Continuous
 62
     6
370
     5
100
AcDbLine
 10
-484.8637226723326
 20
765.4607222273544
 30
0.0
 11
-485.3636616371767
 21
766.1008894636825
 31
0.0
  0
LINE
  5
20F
330
1F
100
AcDbEntity
  8
C-A
  6
Continuous
 62
     6
370
     5
100
AcDbLine
 10
-485.3636616371767
 20
771.6010725691513
 30
0.0
 11
-484.8637226723326
 21
772.2417280867294
 31
0.0
  0
LINE
  5
210
330
1F
100
AcDbEntity
  8
C-A
  6
Continuous
 62
     6
370
     5
100
AcDbLine
 10
-493.3639973305361
 20
769.6008589461044
 30
0.0
 11
-493.8634174965517
 21
769.9913008406359
 31
0.0
  0
LINE
  5
211
330
1F
100
AcDbEntity
  8
C-A
  6
Continuous
 62
     6
370
     5
100
AcDbLine
 10
-493.8634174965517
 20
767.7106611921982
 30
0.0
 11
-493.3639973305361
 21
768.1010725691513
 31
0.0
  0
LINE
  5
212
330
1F
100
AcDbEntity
  8
C-A
  6
Continuous
 62
     6
370
     5
100
AcDbLine
 10
-485.3636616371767
 20
727.6014692976671
 30
0.0
 11
-493.3639973305361
 21
725.6017439558701
 31
0.0
  0
LINE
  5
213
330
1F
100
AcDbEntity
  8
C-A
  6
Continuous
 62
     6
370
     5
100
AcDbLine
 10
-485.3636616371767
 20
729.10174395587
 30
0.0
 11
-493.3639973305361
 21
731.101469297667
 31
0.0
  0
LINE
  5
214
330
1F
100
AcDbEntity
  8
C-A
  6
Continuous
 62
     6
370
     5
100
AcDbLine
 10
-485.3636616371767
 20
727.6014692976671
 30
0.0
 11
-485.3636616371767
 21
729.10174395587
 31
0.0
  0
LINE
  5
215
330
1F
100
AcDbEntity
  8
C-A
  6
Continuous
 62
     6
370
     5
100
AcDbLine
 10
-493.3639973305361
 20
725.6017439558701
 30
0.0
 11
-493.3639973305361
 21
731.101469297667
 31
0.0
  0
LINE
  5
216
330
1F
100
AcDbEntity
  8
C-A
  6
Continuous
 62
     6
370
     5
100
AcDbLine
 10
-484.8637226723326
 20
727.2110274031356
 30
0.0
 11
-493.8634174965517
 21
724.96111895587
 31
0.0
  0
LINE
  5
217
330
1F
100
AcDbEntity
  8
C-A
  6
Continuous
 62
     6
370
     5
100
AcDbLine
 10
-484.8637226723326
 20
729.4921858504015
 30
0.0
 11
-493.8634174965517
 21
731.7420942976671
 31
0.0
  0
LINE
  5
218
330
1F
100
AcDbEntity
  8
C-A
  6
Continuous
 62
     6
370
     5
100
AcDbLine
 10
-484.8637226723326
 20
727.2110274031356
 30
0.0
 11
-485.3636616371767
 21
727.6014692976671
 31
0.0
  0
LINE
  5
219
330
1F
100
AcDbEntity
  8
C-A
  6
Continuous
 62
     6
370
     5
100
AcDbLine
 10
-484.8637226723326
 20
729.4921858504015
 30
0.0
 11
-485.3636616371767
 21
729.10174395587
 31
0.0
  0
LINE
  5
21A
330
1F
100
AcDbEntity
  8
C-A
  6
Continuous
 62
     6
370
     5
100
AcDbLine
 10
-493.3639973305361
 20
731.101469297667
 30
0.0
 11
-493.8634174965517
 21
731.7420942976671
 31
0.0
  0
LINE
  5
21B
330
1F
100
AcDbEntity
  8
C-A
  6
Continuous
 62
     6
370
     5
100
AcDbLine
 10
-493.8634174965517
 20
724.96111895587
 30
0.0
 11
-493.3639973305361
 21
725.6017439558701
 31
0.0
  0
LINE
  5
21C
330
1F
100
AcDbEntity
  8
C-A
  6
Continuous
 62
     6
370
     5
100
AcDbLine
 10
-493.3639973305361
 20
742.6012861921981
 30
0.0
 11
-485.3636616371767
 21
744.601499815245
 31
0.0
  0
LINE
  5
21D
330
1F
100
AcDbEntity
  8
C-A
  6
Continuous
 62
     6
370
     5
100
AcDbLine
 10
-493.3639973305361
 20
741.101499815245
 30
0.0
 11
-493.3639973305361
 21
742.6012861921981
 31
0.0
  0
LINE
  5
21E
330
1F
100
AcDbEntity
  8
C-A
  6
Continuous
 62
     6
370
     5
100
AcDbLine
 10
-485.3636616371767
 20
739.1012861921981
 30
0.0
 11
-485.3636616371767
 21
744.601499815245
 31
0.0
  0
LINE
  5
21F
330
1F
100
AcDbEntity
  8
C-A
  6
Continuous
 62
     6
370
     5
100
AcDbLine
 10
-484.8637226723326
 20
738.4611494734484
 30
0.0
 11
-493.8634174965517
 21
740.711057920714
 31
0.0
  0
LINE
  5
220
330
1F
100
AcDbEntity
  8
C-A
  6
Continuous
 62
     6
370
     5
100
AcDbLine
 10
-493.8634174965517
 20
742.9917280867295
 30
0.0
 11
-484.8637226723326
 21
745.242124815245
 31
0.0
  0
LINE
  5
221
330
1F
100
AcDbEntity
  8
C-A
  6
Continuous
 62
     6
370
     5
100
AcDbLine
 10
-485.3636616371767
 20
739.1012861921981
 30
0.0
 11
-493.3639973305361
 21
741.101499815245
 31
0.0
  0
LINE
  5
222
330
1F
100
AcDbEntity
  8
C-A
  6
Continuous
 62
     6
370
     5
100
AcDbLine
 10
-484.8637226723326
 20
738.4611494734484
 30
0.0
 11
-485.3636616371767
 21
739.1012861921981
 31
0.0
  0
LINE
  5
223
330
1F
100
AcDbEntity
  8
C-A
  6
Continuous
 62
     6
370
     5
100
AcDbLine
 10
-485.3636616371767
 20
744.601499815245
 30
0.0
 11
-484.8637226723326
 21
745.242124815245
 31
0.0
  0
LINE
  5
224
330
1F
100
AcDbEntity
  8
C-A
  6
Continuous
 62
     6
370
     5
100
AcDbLine
 10
-493.3639973305361
 20
742.6012861921981
 30
0.0
 11
-493.8634174965517
 21
742.9917280867295
 31
0.0
  0
LINE
  5
225
330
1F
100
AcDbEntity
  8
C-A
  6
Continuous
 62
     6
370
     5
100
AcDbLine
 10
-493.8634174965517
 20
740.711057920714
 30
0.0
 11
-493.3639973305361
 21
741.101499815245
 31
0.0
  0
LINE
  5
226
330
1F
100
AcDbEntity
  8
C-A
  6
Continuous
 62
     3
370
     9
100
AcDbLine
 10
-538.8638828896183
 20
511.3301985457139
 30
0.0
 11
-542.8642948769226
 21
511.3301985457139
 31
0.0
  0
LINE
  5
227
330
1F
100
AcDbEntity
  8
C-A
  6
Continuous
 62
     3
370
     9
100
AcDbLine
 10
-538.8638828896183
 20
611.3301680281356
 30
0.0
 11
-542.8642948769226
 21
611.3301680281356
 31
0.0
  0
LINE
  5
228
330
1F
100
AcDbEntity
  8
C-A
  6
Continuous
 62
     3
370
     9
100
AcDbLine
 10
-523.8640583656922
 20
511.3301985457139
 30
0.0
 11
-529.8641804360045
 21
511.3301985457139
 31
0.0
  0
LINE
  5
229
330
1F
100
AcDbEntity
  8
C-A
  6
Continuous
 62
     3
370
     9
100
AcDbLine
 10
-523.8640583656922
 20
611.3301680281356
 30
0.0
 11
-529.8641804360045
 21
611.3301680281356
 31
0.0
  0
LINE
  5
22A
330
1F
100
AcDbEntity
  8
C-A
  6
Continuous
 62
     3
370
     9
100
AcDbLine
 10
-508.8637379311217
 20
511.3301985457139
 30
0.0
 11
-514.8638600014345
 21
511.3301985457139
 31
0.0
  0
LINE
  5
22B
330
1F
100
AcDbEntity
  8
C-A
  6
Continuous
 62
     3
370
     9
100
AcDbLine
 10
-508.8637379311217
 20
611.3301680281356
 30
0.0
 11
-514.8638600014345
 21
611.3301680281356
 31
0.0
  0
LINE
  5
22C
330
1F
100
AcDbEntity
  8
C-A
  6
Continuous
 62
     3
370
     9
100
AcDbLine
 10
-493.8639210365909
 20
511.3301985457139
 30
0.0
 11
-499.8640431069032
 21
511.3301985457139
 31
0.0
  0
LINE
  5
22D
330
1F
100
AcDbEntity
  8
C-A
  6
Continuous
 62
     3
370
     9
100
AcDbLine
 10
-493.8639210365909
 20
611.3301680281356
 30
0.0
 11
-499.8640431069032
 21
611.3301680281356
 31
0.0
  0
LINE
  5
22E
330
1F
100
AcDbEntity
  8
C-A
  6
Continuous
 62
     3
370
     9
100
AcDbLine
 10
-478.8640888832703
 20
511.3301985457139
 30
0.0
 11
-484.8642262123718
 21
511.3301985457139
 31
0.0
  0
LINE
  5
22F
330
1F
100
AcDbEntity
  8
C-A
  6
Continuous
 62
     3
370
     9
100
AcDbLine
 10
-478.8640888832703
 20
611.3301680281356
 30
0.0
 11
-484.8642262123718
 21
611.3301680281356
 31
0.0
  0
LINE
  5
230
330
1F
100
AcDbEntity
  8
C-A
  6
Continuous
 62
     3
370
     9
100
AcDbLine
 10
-478.8640888832703
 20
711.3301375105575
 30
0.0
 11
-484.8642262123718
 21
711.3301375105575
 31
0.0
  0
LINE
  5
231
330
1F
100
AcDbEntity
  8
C-A
  6
Continuous
 62
     3
370
     9
100
AcDbLine
 10
-463.863783707489
 20
511.3301985457139
 30
0.0
 11
-469.8639057778018
 21
511.3301985457139
 31
0.0
  0
LINE
  5
232
330
1F
100
AcDbEntity
  8
C-A
  6
Continuous
 62
     3
370
     9
100
AcDbLine
 10
-463.863783707489
 20
611.3301680281356
 30
0.0
 11
-469.8639057778018
 21
611.3301680281356
 31
0.0
  0
LINE
  5
233
330
1F
100
AcDbEntity
  8
C-A
  6
Continuous
 62
     3
370
     9
100
AcDbLine
 10
-463.863783707489
 20
711.3301375105575
 30
0.0
 11
-469.8639057778018
 21
711.3301375105575
 31
0.0
  0
LINE
  5
234
330
1F
100
AcDbEntity
  8
C-A
  6
Continuous
 62
     3
370
     9
100
AcDbLine
 10
-448.8639515541689
 20
511.3301985457139
 30
0.0
 11
-454.8640888832705
 21
511.3301985457139
 31
0.0
  0
LINE
  5
235
330
1F
100
AcDbEntity
  8
C-A
  6
Continuous
 62
     3
370
     9
100
AcDbLine
 10
-448.8639515541689
 20
611.3301680281356
 30
0.0
 11
-454.8640888832705
 21
611.3301680281356
 31
0.0
  0
LINE
  5
236
330
1F
100
AcDbEntity
  8
C-A
  6
Continuous
 62
     3
370
     9
100
AcDbLine
 10
-448.8639515541689
 20
711.3301375105575
 30
0.0
 11
-454.8640888832705
 21
711.3301375105575
 31
0.0
  0
LINE
  5
237
330
1F
100
AcDbEntity
  8
C-A
  6
Continuous
 62
     3
370
     9
100
AcDbLine
 10
-433.8636311195984
 20
511.3301985457139
 30
0.0
 11
-439.8637684486999
 21
511.3301985457139
 31
0.0
  0
LINE
  5
238
330
1F
100
AcDbEntity
  8
C-A
  6
Continuous
 62
     3
370
     9
100
AcDbLine
 10
-433.8636311195984
 20
611.3301680281356
 30
0.0
 11
-439.8637684486999
 21
611.3301680281356
 31
0.0
  0
LINE
  5
239
330
1F
100
AcDbEntity
  8
C-A
  6
Continuous
 62
     3
370
     9
100
AcDbLine
 10
-433.8636311195984
 20
711.3301375105575
 30
0.0
 11
-439.8637684486999
 21
711.3301375105575
 31
0.0
  0
LINE
  5
23A
330
1F
100
AcDbEntity
  8
C-A
  6
Continuous
 62
     3
370
     9
100
AcDbLine
 10
-418.863814225067
 20
511.3301985457139
 30
0.0
 11
-424.8639362953799
 21
511.3301985457139
 31
0.0
  0
LINE
  5
23B
330
1F
100
AcDbEntity
  8
C-A
  6
Continuous
 62
     3
370
     9
100
AcDbLine
 10
-418.863814225067
 20
611.3301680281356
 30
0.0
 11
-424.8639362953799
 21
611.3301680281356
 31
0.0
  0
LINE
  5
23C
330
1F
100
AcDbEntity
  8
C-A
  6
Continuous
 62
     3
370
     9
100
AcDbLine
 10
-418.863814225067
 20
711.3301375105575
 30
0.0
 11
-424.8639362953799
 21
711.3301375105575
 31
0.0
  0
LINE
  5
23D
330
1F
100
AcDbEntity
  8
C-A
  6
Continuous
 62
     3
370
     9
100
AcDbLine
 10
-403.8639973305362
 20
511.3301985457139
 30
0.0
 11
-409.8641194008485
 21
511.3301985457139
 31
0.0
  0
LINE
  5
23E
330
1F
100
AcDbEntity
  8
C-A
  6
Continuous
 62
     3
370
     9
100
AcDbLine
 10
-403.8639973305362
 20
611.3301680281356
 30
0.0
 11
-409.8641194008485
 21
611.3301680281356
 31
0.0
  0
LINE
  5
23F
330
1F
100
AcDbEntity
  8
C-A
  6
Continuous
 62
     3
370
     9
100
AcDbLine
 10
-403.8639973305362
 20
711.3301375105575
 30
0.0
 11
-409.8641194008485
 21
711.3301375105575
 31
0.0
  0
LINE
  5
240
330
1F
100
AcDbEntity
  8
C-A
  6
Continuous
 62
     3
370
     9
100
AcDbLine
 10
-388.8636616371764
 20
511.3301985457139
 30
0.0
 11
-394.8638142250672
 21
511.3301985457139
 31
0.0
  0
LINE
  5
241
330
1F
100
AcDbEntity
  8
C-A
  6
Continuous
 62
     3
370
     9
100
AcDbLine
 10
-388.8636616371764
 20
611.3301680281356
 30
0.0
 11
-394.8638142250672
 21
611.3301680281356
 31
0.0
  0
LINE
  5
242
330
1F
100
AcDbEntity
  8
C-A
  6
Continuous
 62
     3
370
     9
100
AcDbLine
 10
-388.8636616371764
 20
711.3301375105575
 30
0.0
 11
-394.8638142250672
 21
711.3301375105575
 31
0.0
  0
LINE
  5
243
330
1F
100
AcDbEntity
  8
C-A
  6
Continuous
 62
     3
370
     9
100
AcDbLine
 10
-373.8638447426456
 20
611.3301680281356
 30
0.0
 11
-379.8639668129579
 21
611.3301680281356
 31
0.0
  0
LINE
  5
244
330
1F
100
AcDbEntity
  8
C-A
  6
Continuous
 62
     3
370
     9
100
AcDbLine
 10
-373.8638447426456
 20
711.3301375105575
 30
0.0
 11
-379.8639668129579
 21
711.3301375105575
 31
0.0
  0
LINE
  5
245
330
1F
100
AcDbEntity
  8
C-A
  6
Continuous
 62
     3
370
     9
100
AcDbLine
 10
-358.8640278481142
 20
611.3301680281356
 30
0.0
 11
-364.8641499184265
 21
611.3301680281356
 31
0.0
  0
LINE
  5
246
330
1F
100
AcDbEntity
  8
C-A
  6
Continuous
 62
     3
370
     9
100
AcDbLine
 10
-358.8640278481142
 20
711.3301375105575
 30
0.0
 11
-364.8641499184265
 21
711.3301375105575
 31
0.0
  0
LINE
  5
247
330
1F
100
AcDbEntity
  8
C-A
  6
Continuous
 62
     3
370
     9
100
AcDbLine
 10
-343.863722672333
 20
611.3301680281356
 30
0.0
 11
-349.8638447426453
 21
611.3301680281356
 31
0.0
  0
LINE
  5
248
330
1F
100
AcDbEntity
  8
C-A
  6
Continuous
 62
     3
370
     9
100
AcDbLine
 10
-343.863722672333
 20
711.3301375105575
 30
0.0
 11
-349.8638447426453
 21
711.3301375105575
 31
0.0
  0
LINE
  5
249
330
1F
100
AcDbEntity
  8
C-A
  6
Continuous
 62
     3
370
     9
100
AcDbLine
 10
-328.8639057778016
 20
611.3301680281356
 30
0.0
 11
-334.8640278481139
 21
611.3301680281356
 31
0.0
  0
LINE
  5
24A
330
1F
100
AcDbEntity
  8
C-A
  6
Continuous
 62
     3
370
     9
100
AcDbLine
 10
-328.8639057778016
 20
711.3301375105575
 30
0.0
 11
-334.8640278481139
 21
711.3301375105575
 31
0.0
  0
LINE
  5
24B
330
1F
100
AcDbEntity
  8
C-A
  6
Continuous
 62
     3
370
     9
100
AcDbLine
 10
-313.8635700844424
 20
611.3301680281356
 30
0.0
 11
-319.8636921547546
 21
611.3301680281356
 31
0.0
  0
LINE
  5
24C
330
1F
100
AcDbEntity
  8
C-A
  6
Continuous
 62
     3
370
     9
100
AcDbLine
 10
-313.8635700844424
 20
711.3301375105575
 30
0.0
 11
-319.8636921547546
 21
711.3301375105575
 31
0.0
  0
LINE
  5
24D
330
1F
100
AcDbEntity
  8
C-A
  6
Continuous
 62
     3
370
     9
100
AcDbLine
 10
-298.863753189911
 20
611.3301680281356
 30
0.0
 11
-304.8638752602233
 21
611.3301680281356
 31
0.0
  0
LINE
  5
24E
330
1F
100
AcDbEntity
  8
C-A
  6
Continuous
 62
     3
370
     9
100
AcDbLine
 10
-298.863753189911
 20
711.3301375105575
 30
0.0
 11
-304.8638752602233
 21
711.3301375105575
 31
0.0
  0
LINE
  5
24F
330
1F
100
AcDbEntity
  8
C-A
  6
Continuous
 62
     3
370
     9
100
AcDbLine
 10
-283.8639362953796
 20
611.3301680281356
 30
0.0
 11
-289.8640583656925
 21
611.3301680281356
 31
0.0
  0
LINE
  5
250
330
1F
100
AcDbEntity
  8
C-A
  6
Continuous
 62
     3
370
     9
100
AcDbLine
 10
-283.8639362953796
 20
711.3301375105575
 30
0.0
 11
-289.8640583656925
 21
711.3301375105575
 31
0.0
  0
LINE
  5
251
330
1F
100
AcDbEntity
  8
C-A
  6
Continuous
 62
     3
370
     9
100
AcDbLine
 10
-268.8636006020204
 20
711.3301375105575
 30
0.0
 11
-274.8637531899112
 21
711.3301375105575
 31
0.0
  0
LINE
  5
252
330
1F
100
AcDbEntity
  8
C-A
  6
Continuous
 62
     3
370
     9
100
AcDbLine
 10
-253.863783707489
 20
711.3301375105575
 30
0.0
 11
-259.8639057778018
 21
711.3301375105575
 31
0.0
  0
LINE
  5
253
330
1F
100
AcDbEntity
  8
C-A
  6
Continuous
 62
     3
370
     9
100
AcDbLine
 10
-238.8639668129576
 20
711.3301375105575
 30
0.0
 11
-244.8640888832705
 21
711.3301375105575
 31
0.0
  0
LINE
  5
254
330
1F
100
AcDbEntity
  8
C-A
  6
Continuous
 62
     3
370
     9
100
AcDbLine
 10
-223.8636616371764
 20
711.3301375105575
 30
0.0
 11
-229.8637837074892
 21
711.3301375105575
 31
0.0
  0
LINE
  5
255
330
1F
100
AcDbEntity
  8
C-A
  6
Continuous
 62
     3
370
     9
100
AcDbLine
 10
-210.8640278481141
 20
711.3301375105575
 30
0.0
 11
-214.8639668129579
 21
711.3301375105575
 31
0.0
  0
LINE
  5
256
330
1F
100
AcDbEntity
  8
C-A
  6
Continuous
 62
     3
370
     9
100
AcDbLine
 10
-538.8638828896183
 20
514.8657362654404
 30
0.0
 11
-542.8642948769226
 21
514.8657362654404
 31
0.0
  0
LINE
  5
257
330
1F
100
AcDbEntity
  8
C-A
  6
Continuous
 62
     3
370
     9
100
AcDbLine
 10
-538.8638828896183
 20
614.8657210066515
 30
0.0
 11
-542.8642948769226
 21
614.8657210066515
 31
0.0
  0
LINE
  5
258
330
1F
100
AcDbEntity
  8
C-A
  6
Continuous
 62
     3
370
     9
100
AcDbLine
 10
-523.8640583656922
 20
514.8657362654404
 30
0.0
 11
-529.8641804360045
 21
514.8657362654404
 31
0.0
  0
LINE
  5
259
330
1F
100
AcDbEntity
  8
C-A
  6
Continuous
 62
     3
370
     9
100
AcDbLine
 10
-523.8640583656922
 20
614.8657210066515
 30
0.0
 11
-529.8641804360045
 21
614.8657210066515
 31
0.0
  0
LINE
  5
25A
330
1F
100
AcDbEntity
  8
C-A
  6
Continuous
 62
     3
370
     9
100
AcDbLine
 10
-508.8637379311217
 20
514.8657362654404
 30
0.0
 11
-514.8638600014345
 21
514.8657362654404
 31
0.0
  0
LINE
  5
25B
330
1F
100
AcDbEntity
  8
C-A
  6
Continuous
 62
     3
370
     9
100
AcDbLine
 10
-508.8637379311217
 20
614.8657210066515
 30
0.0
 11
-514.8638600014345
 21
614.8657210066515
 31
0.0
  0
LINE
  5
25C
330
1F
100
AcDbEntity
  8
C-A
  6
Continuous
 62
     3
370
     9
100
AcDbLine
 10
-493.8639210365909
 20
514.8657362654404
 30
0.0
 11
-499.8640431069032
 21
514.8657362654404
 31
0.0
  0
LINE
  5
25D
330
1F
100
AcDbEntity
  8
C-A
  6
Continuous
 62
     3
370
     9
100
AcDbLine
 10
-493.8639210365909
 20
614.8657210066515
 30
0.0
 11
-499.8640431069032
 21
614.8657210066515
 31
0.0
  0
LINE
  5
25E
330
1F
100
AcDbEntity
  8
C-A
  6
Continuous
 62
     3
370
     9
100
AcDbLine
 10
-478.8640888832703
 20
514.8657362654404
 30
0.0
 11
-484.8642262123718
 21
514.8657362654404
 31
0.0
  0
LINE
  5
25F
330
1F
100
AcDbEntity
  8
C-A
  6
Continuous
 62
     3
370
     9
100
AcDbLine
 10
-478.8640888832703
 20
614.8657210066515
 30
0.0
 11
-484.8642262123718
 21
614.8657210066515
 31
0.0
  0
LINE
  5
260
330
1F
100
AcDbEntity
  8
C-A
  6
Continuous
 62
     3
370
     9
100
AcDbLine
 10
-478.8640888832703
 20
714.8656904890731
 30
0.0
 11
-484.8642262123718
 21
714.8656904890731
 31
0.0
  0
LINE
  5
261
330
1F
100
AcDbEntity
  8
C-A
  6
Continuous
 62
     3
370
     9
100
AcDbLine
 10
-463.863783707489
 20
514.8657362654404
 30
0.0
 11
-469.8639057778018
 21
514.8657362654404
 31
0.0
  0
LINE
  5
262
330
1F
100
AcDbEntity
  8
C-A
  6
Continuous
 62
     3
370
     9
100
AcDbLine
 10
-463.863783707489
 20
614.8657210066515
 30
0.0
 11
-469.8639057778018
 21
614.8657210066515
 31
0.0
  0
LINE
  5
263
330
1F
100
AcDbEntity
  8
C-A
  6
Continuous
 62
     3
370
     9
100
AcDbLine
 10
-463.863783707489
 20
714.8656904890731
 30
0.0
 11
-469.8639057778018
 21
714.8656904890731
 31
0.0
  0
LINE
  5
264
330
1F
100
AcDbEntity
  8
C-A
  6
Continuous
 62
     3
370
     9
100
AcDbLine
 10
-448.8639515541689
 20
514.8657362654404
 30
0.0
 11
-454.8640888832705
 21
514.8657362654404
 31
0.0
  0
LINE
  5
265
330
1F
100
AcDbEntity
  8
C-A
  6
Continuous
 62
     3
370
     9
100
AcDbLine
 10
-448.8639515541689
 20
614.8657210066515
 30
0.0
 11
-454.8640888832705
 21
614.8657210066515
 31
0.0
  0
LINE
  5
266
330
1F
100
AcDbEntity
  8
C-A
  6
Continuous
 62
     3
370
     9
100
AcDbLine
 10
-448.8639515541689
 20
714.8656904890731
 30
0.0
 11
-454.8640888832705
 21
714.8656904890731
 31
0.0
  0
LINE
  5
267
330
1F
100
AcDbEntity
  8
C-A
  6
Continuous
 62
     3
370
     9
100
AcDbLine
 10
-433.8636311195984
 20
514.8657362654404
 30
0.0
 11
-439.8637684486999
 21
514.8657362654404
 31
0.0
  0
LINE
  5
268
330
1F
100
AcDbEntity
  8
C-A
  6
Continuous
 62
     3
370
     9
100
AcDbLine
 10
-433.8636311195984
 20
614.8657210066515
 30
0.0
 11
-439.8637684486999
 21
614.8657210066515
 31
0.0
  0
LINE
  5
269
330
1F
100
AcDbEntity
  8
C-A
  6
Continuous
 62
     3
370
     9
100
AcDbLine
 10
-433.8636311195984
 20
714.8656904890731
 30
0.0
 11
-439.8637684486999
 21
714.8656904890731
 31
0.0
  0
LINE
  5
26A
330
1F
100
AcDbEntity
  8
C-A
  6
Continuous
 62
     3
370
     9
100
AcDbLine
 10
-418.863814225067
 20
514.8657362654404
 30
0.0
 11
-424.8639362953799
 21
514.8657362654404
 31
0.0
  0
LINE
  5
26B
330
1F
100
AcDbEntity
  8
C-A
  6
Continuous
 62
     3
370
     9
100
AcDbLine
 10
-418.863814225067
 20
614.8657210066515
 30
0.0
 11
-424.8639362953799
 21
614.8657210066515
 31
0.0
  0
LINE
  5
26C
330
1F
100
AcDbEntity
  8
C-A
  6
Continuous
 62
     3
370
     9
100
AcDbLine
 10
-418.863814225067
 20
714.8656904890731
 30
0.0
 11
-424.8639362953799
 21
714.8656904890731
 31
0.0
  0
LINE
  5
26D
330
1F
100
AcDbEntity
  8
C-A
  6
Continuous
 62
     3
370
     9
100
AcDbLine
 10
-403.8639973305362
 20
514.8657362654404
 30
0.0
 11
-409.8641194008485
 21
514.8657362654404
 31
0.0
  0
LINE
  5
26E
330
1F
100
AcDbEntity
  8
C-A
  6
Continuous
 62
     3
370
     9
100
AcDbLine
 10
-403.8639973305362
 20
614.8657210066515
 30
0.0
 11
-409.8641194008485
 21
614.8657210066515
 31
0.0
  0
LINE
  5
26F
330
1F
100
AcDbEntity
  8
C-A
  6
Continuous
 62
     3
370
     9
100
AcDbLine
 10
-403.8639973305362
 20
714.8656904890731
 30
0.0
 11
-409.8641194008485
 21
714.8656904890731
 31
0.0
  0
LINE
  5
270
330
1F
100
AcDbEntity
  8
C-A
  6
Continuous
 62
     3
370
     9
100
AcDbLine
 10
-388.8636616371764
 20
514.8657362654404
 30
0.0
 11
-394.8638142250672
 21
514.8657362654404
 31
0.0
  0
LINE
  5
271
330
1F
100
AcDbEntity
  8
C-A
  6
Continuous
 62
     3
370
     9
100
AcDbLine
 10
-388.8636616371764
 20
614.8657210066515
 30
0.0
 11
-394.8638142250672
 21
614.8657210066515
 31
0.0
  0
LINE
  5
272
330
1F
100
AcDbEntity
  8
C-A
  6
Continuous
 62
     3
370
     9
100
AcDbLine
 10
-388.8636616371764
 20
714.8656904890731
 30
0.0
 11
-394.8638142250672
 21
714.8656904890731
 31
0.0
  0
LINE
  5
273
330
1F
100
AcDbEntity
  8
C-A
  6
Continuous
 62
     3
370
     9
100
AcDbLine
 10
-373.8638447426456
 20
614.8657210066515
 30
0.0
 11
-379.8639668129579
 21
614.8657210066515
 31
0.0
  0
LINE
  5
274
330
1F
100
AcDbEntity
  8
C-A
  6
Continuous
 62
     3
370
     9
100
AcDbLine
 10
-373.8638447426456
 20
714.8656904890731
 30
0.0
 11
-379.8639668129579
 21
714.8656904890731
 31
0.0
  0
LINE
  5
275
330
1F
100
AcDbEntity
  8
C-A
  6
Continuous
 62
     3
370
     9
100
AcDbLine
 10
-358.8640278481142
 20
614.8657210066515
 30
0.0
 11
-364.8641499184265
 21
614.8657210066515
 31
0.0
  0
LINE
  5
276
330
1F
100
AcDbEntity
  8
C-A
  6
Continuous
 62
     3
370
     9
100
AcDbLine
 10
-358.8640278481142
 20
714.8656904890731
 30
0.0
 11
-364.8641499184265
 21
714.8656904890731
 31
0.0
  0
LINE
  5
277
330
1F
100
AcDbEntity
  8
C-A
  6
Continuous
 62
     3
370
     9
100
AcDbLine
 10
-343.863722672333
 20
614.8657210066515
 30
0.0
 11
-349.8638447426453
 21
614.8657210066515
 31
0.0
  0
LINE
  5
278
330
1F
100
AcDbEntity
  8
C-A
  6
Continuous
 62
     3
370
     9
100
AcDbLine
 10
-343.863722672333
 20
714.8656904890731
 30
0.0
 11
-349.8638447426453
 21
714.8656904890731
 31
0.0
  0
LINE
  5
279
330
1F
100
AcDbEntity
  8
C-A
  6
Continuous
 62
     3
370
     9
100
AcDbLine
 10
-328.8639057778016
 20
614.8657210066515
 30
0.0
 11
-334.8640278481139
 21
614.8657210066515
 31
0.0
  0
LINE
  5
27A
330
1F
100
AcDbEntity
  8
C-A
  6
Continuous
 62
     3
370
     9
100
AcDbLine
 10
-328.8639057778016
 20
714.8656904890731
 30
0.0
 11
-334.8640278481139
 21
714.8656904890731
 31
0.0
  0
LINE
  5
27B
330
1F
100
AcDbEntity
  8
C-A
  6
Continuous
 62
     3
370
     9
100
AcDbLine
 10
-313.8635700844424
 20
614.8657210066515
 30
0.0
 11
-319.8636921547546
 21
614.8657210066515
 31
0.0
  0
LINE
  5
27C
330
1F
100
AcDbEntity
  8
C-A
  6
Continuous
 62
     3
370
     9
100
AcDbLine
 10
-313.8635700844424
 20
714.8656904890731
 30
0.0
 11
-319.8636921547546
 21
714.8656904890731
 31
0.0
  0
LINE
  5
27D
330
1F
100
AcDbEntity
  8
C-A
  6
Continuous
 62
     3
370
     9
100
AcDbLine
 10
-298.863753189911
 20
614.8657210066515
 30
0.0
 11
-304.8638752602233
 21
614.8657210066515
 31
0.0
  0
LINE
  5
27E
330
1F
100
AcDbEntity
  8
C-A
  6
Continuous
 62
     3
370
     9
100
AcDbLine
 10
-298.863753189911
 20
714.8656904890731
 30
0.0
 11
-304.8638752602233
 21
714.8656904890731
 31
0.0
  0
LINE
  5
27F
330
1F
100
AcDbEntity
  8
C-A
  6
Continuous
 62
     3
370
     9
100
AcDbLine
 10
-283.8639362953796
 20
614.8657210066515
 30
0.0
 11
-289.8640583656925
 21
614.8657210066515
 31
0.0
  0
LINE
  5
280
330
1F
100
AcDbEntity
  8
C-A
  6
Continuous
 62
     3
370
     9
100
AcDbLine
 10
-283.8639362953796
 20
714.8656904890731
 30
0.0
 11
-289.8640583656925
 21
714.8656904890731
 31
0.0
  0
LINE
  5
281
330
1F
100
AcDbEntity
  8
C-A
  6
Continuous
 62
     3
370
     9
100
AcDbLine
 10
-268.8636006020204
 20
714.8656904890731
 30
0.0
 11
-274.8637531899112
 21
714.8656904890731
 31
0.0
  0
LINE
  5
282
330
1F
100
AcDbEntity
  8
C-A
  6
Continuous
 62
     3
370
     9
100
AcDbLine
 10
-253.863783707489
 20
714.8656904890731
 30
0.0
 11
-259.8639057778018
 21
714.8656904890731
 31
0.0
  0
LINE
  5
283
330
1F
100
AcDbEntity
  8
C-A
  6
Continuous
 62
     3
370
     9
100
AcDbLine
 10
-238.8639668129576
 20
714.8656904890731
 30
0.0
 11
-244.8640888832705
 21
714.8656904890731
 31
0.0
  0
LINE
  5
284
330
1F
100
AcDbEntity
  8
C-A
  6
Continuous
 62
     3
370
     9
100
AcDbLine
 10
-223.8636616371764
 20
714.8656904890731
 30
0.0
 11
-229.8637837074892
 21
714.8656904890731
 31
0.0
  0
LINE
  5
285
330
1F
100
AcDbEntity
  8
C-A
  6
Continuous
 62
     3
370
     9
100
AcDbLine
 10
-210.8640278481141
 20
714.8656904890731
 30
0.0
 11
-214.8639668129579
 21
714.8656904890731
 31
0.0
  0
LINE
  5
286
330
1F
100
AcDbEntity
  8
C-A
  6
Continuous
 62
     3
370
     9
100
AcDbLine
 10
-538.8638828896183
 20
518.401258726378
 30
0.0
 11
-542.8642948769226
 21
518.401258726378
 31
0.0
  0
LINE
  5
287
330
1F
100
AcDbEntity
  8
C-A
  6
Continuous
 62
     3
370
     9
100
AcDbLine
 10
-538.8638828896183
 20
618.4012434675888
 30
0.0
 11
-542.8642948769226
 21
618.4012434675888
 31
0.0
  0
LINE
  5
288
330
1F
100
AcDbEntity
  8
C-A
  6
Continuous
 62
     3
370
     9
100
AcDbLine
 10
-523.8640583656922
 20
518.401258726378
 30
0.0
 11
-529.8641804360045
 21
518.401258726378
 31
0.0
  0
LINE
  5
289
330
1F
100
AcDbEntity
  8
C-A
  6
Continuous
 62
     3
370
     9
100
AcDbLine
 10
-523.8640583656922
 20
618.4012434675888
 30
0.0
 11
-529.8641804360045
 21
618.4012434675888
 31
0.0
  0
LINE
  5
28A
330
1F
100
AcDbEntity
  8
C-A
  6
Continuous
 62
     3
370
     9
100
AcDbLine
 10
-508.8637379311217
 20
518.401258726378
 30
0.0
 11
-514.8638600014345
 21
518.401258726378
 31
0.0
  0
LINE
  5
28B
330
1F
100
AcDbEntity
  8
C-A
  6
Continuous
 62
     3
370
     9
100
AcDbLine
 10
-508.8637379311217
 20
618.4012434675888
 30
0.0
 11
-514.8638600014345
 21
618.4012434675888
 31
0.0
  0
LINE
  5
28C
330
1F
100
AcDbEntity
  8
C-A
  6
Continuous
 62
     3
370
     9
100
AcDbLine
 10
-493.8639210365909
 20
518.401258726378
 30
0.0
 11
-499.8640431069032
 21
518.401258726378
 31
0.0
  0
LINE
  5
28D
330
1F
100
AcDbEntity
  8
C-A
  6
Continuous
 62
     3
370
     9
100
AcDbLine
 10
-493.8639210365909
 20
618.4012434675888
 30
0.0
 11
-499.8640431069032
 21
618.4012434675888
 31
0.0
  0
LINE
  5
28E
330
1F
100
AcDbEntity
  8
C-A
  6
Continuous
 62
     3
370
     9
100
AcDbLine
 10
-478.8640888832703
 20
518.401258726378
 30
0.0
 11
-484.8642262123718
 21
518.401258726378
 31
0.0
  0
LINE
  5
28F
330
1F
100
AcDbEntity
  8
C-A
  6
Continuous
 62
     3
370
     9
100
AcDbLine
 10
-478.8640888832703
 20
618.4012434675888
 30
0.0
 11
-484.8642262123718
 21
618.4012434675888
 31
0.0
  0
LINE
  5
290
330
1F
100
AcDbEntity
  8
C-A
  6
Continuous
 62
     3
370
     9
100
AcDbLine
 10
-463.863783707489
 20
518.401258726378
 30
0.0
 11
-469.8639057778018
 21
518.401258726378
 31
0.0
  0
LINE
  5
291
330
1F
100
AcDbEntity
  8
C-A
  6
Continuous
 62
     3
370
     9
100
AcDbLine
 10
-463.863783707489
 20
618.4012434675888
 30
0.0
 11
-469.8639057778018
 21
618.4012434675888
 31
0.0
  0
LINE
  5
292
330
1F
100
AcDbEntity
  8
C-A
  6
Continuous
 62
     3
370
     9
100
AcDbLine
 10
-448.8639515541689
 20
518.401258726378
 30
0.0
 11
-454.8640888832705
 21
518.401258726378
 31
0.0
  0
LINE
  5
293
330
1F
100
AcDbEntity
  8
C-A
  6
Continuous
 62
     3
370
     9
100
AcDbLine
 10
-448.8639515541689
 20
618.4012434675888
 30
0.0
 11
-454.8640888832705
 21
618.4012434675888
 31
0.0
  0
LINE
  5
294
330
1F
100
AcDbEntity
  8
C-A
  6
Continuous
 62
     3
370
     9
100
AcDbLine
 10
-433.8636311195984
 20
518.401258726378
 30
0.0
 11
-439.8637684486999
 21
518.401258726378
 31
0.0
  0
LINE
  5
295
330
1F
100
AcDbEntity
  8
C-A
  6
Continuous
 62
     3
370
     9
100
AcDbLine
 10
-433.8636311195984
 20
618.4012434675888
 30
0.0
 11
-439.8637684486999
 21
618.4012434675888
 31
0.0
  0
LINE
  5
296
330
1F
100
AcDbEntity
  8
C-A
  6
Continuous
 62
     3
370
     9
100
AcDbLine
 10
-418.863814225067
 20
518.401258726378
 30
0.0
 11
-424.8639362953799
 21
518.401258726378
 31
0.0
  0
LINE
  5
297
330
1F
100
AcDbEntity
  8
C-A
  6
Continuous
 62
     3
370
     9
100
AcDbLine
 10
-418.863814225067
 20
618.4012434675888
 30
0.0
 11
-424.8639362953799
 21
618.4012434675888
 31
0.0
  0
LINE
  5
298
330
1F
100
AcDbEntity
  8
C-A
  6
Continuous
 62
     3
370
     9
100
AcDbLine
 10
-403.8639973305362
 20
518.401258726378
 30
0.0
 11
-409.8641194008485
 21
518.401258726378
 31
0.0
  0
LINE
  5
299
330
1F
100
AcDbEntity
  8
C-A
  6
Continuous
 62
     3
370
     9
100
AcDbLine
 10
-403.8639973305362
 20
618.4012434675888
 30
0.0
 11
-409.8641194008485
 21
618.4012434675888
 31
0.0
  0
LINE
  5
29A
330
1F
100
AcDbEntity
  8
C-A
  6
Continuous
 62
     3
370
     9
100
AcDbLine
 10
-388.8636616371764
 20
518.401258726378
 30
0.0
 11
-394.8638142250672
 21
518.401258726378
 31
0.0
  0
LINE
  5
29B
330
1F
100
AcDbEntity
  8
C-A
  6
Continuous
 62
     3
370
     9
100
AcDbLine
 10
-388.8636616371764
 20
618.4012434675888
 30
0.0
 11
-394.8638142250672
 21
618.4012434675888
 31
0.0
  0
LINE
  5
29C
330
1F
100
AcDbEntity
  8
C-A
  6
Continuous
 62
     3
370
     9
100
AcDbLine
 10
-373.8638447426456
 20
618.4012434675888
 30
0.0
 11
-379.8639668129579
 21
618.4012434675888
 31
0.0
  0
LINE
  5
29D
330
1F
100
AcDbEntity
  8
C-A
  6
Continuous
 62
     3
370
     9
100
AcDbLine
 10
-358.8640278481142
 20
618.4012434675888
 30
0.0
 11
-364.8641499184265
 21
618.4012434675888
 31
0.0
  0
LINE
  5
29E
330
1F
100
AcDbEntity
  8
C-A
  6
Continuous
 62
     3
370
     9
100
AcDbLine
 10
-343.863722672333
 20
618.4012434675888
 30
0.0
 11
-349.8638447426453
 21
618.4012434675888
 31
0.0
  0
LINE
  5
29F
330
1F
100
AcDbEntity
  8
C-A
  6
Continuous
 62
     3
370
     9
100
AcDbLine
 10
-328.8639057778016
 20
618.4012434675888
 30
0.0
 11
-334.8640278481139
 21
618.4012434675888
 31
0.0
  0
LINE
  5
2A0
330
1F
100
AcDbEntity
  8
C-A
  6
Continuous
 62
     3
370
     9
100
AcDbLine
 10
-313.8635700844424
 20
618.4012434675888
 30
0.0
 11
-319.8636921547546
 21
618.4012434675888
 31
0.0
  0
LINE
  5
2A1
330
1F
100
AcDbEntity
  8
C-A
  6
Continuous
 62
     3
370
     9
100
AcDbLine
 10
-298.863753189911
 20
618.4012434675888
 30
0.0
 11
-304.8638752602233
 21
618.4012434675888
 31
0.0
  0
LINE
  5
2A2
330
1F
100
AcDbEntity
  8
C-A
  6
Continuous
 62
     3
370
     9
100
AcDbLine
 10
-283.8639362953796
 20
618.4012434675888
 30
0.0
 11
-289.8640583656925
 21
618.4012434675888
 31
0.0
  0
LINE
  5
2A3
330
1F
100
AcDbEntity
  8
C-A
  6
Continuous
 62
     3
370
     9
100
AcDbLine
 10
-373.8643635414735
 20
518.401258726378
 30
0.0
 11
-379.8639668129579
 21
518.401258726378
 31
0.0
  0
LINE
  5
2A4
330
1F
100
AcDbEntity
  8
C-A
  6
Continuous
 62
     3
370
     9
100
AcDbLine
 10
-478.8640888832703
 20
718.4012129500106
 30
0.0
 11
-484.8642262123718
 21
718.4012129500106
 31
0.0
  0
LINE
  5
2A5
330
1F
100
AcDbEntity
  8
C-A
  6
Continuous
 62
     3
370
     9
100
AcDbLine
 10
-463.863783707489
 20
718.4012129500106
 30
0.0
 11
-469.8639057778018
 21
718.4012129500106
 31
0.0
  0
LINE
  5
2A6
330
1F
100
AcDbEntity
  8
C-A
  6
Continuous
 62
     3
370
     9
100
AcDbLine
 10
-448.8639515541689
 20
718.4012129500106
 30
0.0
 11
-454.8640888832705
 21
718.4012129500106
 31
0.0
  0
LINE
  5
2A7
330
1F
100
AcDbEntity
  8
C-A
  6
Continuous
 62
     3
370
     9
100
AcDbLine
 10
-433.8636311195984
 20
718.4012129500106
 30
0.0
 11
-439.8637684486999
 21
718.4012129500106
 31
0.0
  0
LINE
  5
2A8
330
1F
100
AcDbEntity
  8
C-A
  6
Continuous
 62
     3
370
     9
100
AcDbLine
 10
-418.863814225067
 20
718.4012129500106
 30
0.0
 11
-424.8639362953799
 21
718.4012129500106
 31
0.0
  0
LINE
  5
2A9
330
1F
100
AcDbEntity
  8
C-A
  6
Continuous
 62
     3
370
     9
100
AcDbLine
 10
-403.8639973305362
 20
718.4012129500106
 30
0.0
 11
-409.8641194008485
 21
718.4012129500106
 31
0.0
  0
LINE
  5
2AA
330
1F
100
AcDbEntity
  8
C-A
  6
Continuous
 62
     3
370
     9
100
AcDbLine
 10
-388.8636616371764
 20
718.4012129500106
 30
0.0
 11
-394.8638142250672
 21
718.4012129500106
 31
0.0
  0
LINE
  5
2AB
330
1F
100
AcDbEntity
  8
C-A
  6
Continuous
 62
     3
370
     9
100
AcDbLine
 10
-373.8638447426456
 20
718.4012129500106
 30
0.0
 11
-379.8639668129579
 21
718.4012129500106
 31
0.0
  0
LINE
  5
2AC
330
1F
100
AcDbEntity
  8
C-A
  6
Continuous
 62
     3
370
     9
100
AcDbLine
 10
-358.8640278481142
 20
718.4012129500106
 30
0.0
 11
-364.8641499184265
 21
718.4012129500106
 31
0.0
  0
LINE
  5
2AD
330
1F
100
AcDbEntity
  8
C-A
  6
Continuous
 62
     3
370
     9
100
AcDbLine
 10
-343.863722672333
 20
718.4012129500106
 30
0.0
 11
-349.8638447426453
 21
718.4012129500106
 31
0.0
  0
LINE
  5
2AE
330
1F
100
AcDbEntity
  8
C-A
  6
Continuous
 62
     3
370
     9
100
AcDbLine
 10
-328.8639057778016
 20
718.4012129500106
 30
0.0
 11
-334.8640278481139
 21
718.4012129500106
 31
0.0
  0
LINE
  5
2AF
330
1F
100
AcDbEntity
  8
C-A
  6
Continuous
 62
     3
370
     9
100
AcDbLine
 10
-313.8635700844424
 20
718.4012129500106
 30
0.0
 11
-319.8636921547546
 21
718.4012129500106
 31
0.0
  0
LINE
  5
2B0
330
1F
100
AcDbEntity
  8
C-A
  6
Continuous
 62
     3
370
     9
100
AcDbLine
 10
-298.863753189911
 20
718.4012129500106
 30
0.0
 11
-304.8638752602233
 21
718.4012129500106
 31
0.0
  0
LINE
  5
2B1
330
1F
100
AcDbEntity
  8
C-A
  6
Continuous
 62
     3
370
     9
100
AcDbLine
 10
-283.8639362953796
 20
718.4012129500106
 30
0.0
 11
-289.8640583656925
 21
718.4012129500106
 31
0.0
  0
LINE
  5
2B2
330
1F
100
AcDbEntity
  8
C-A
  6
Continuous
 62
     3
370
     9
100
AcDbLine
 10
-268.8636006020204
 20
718.4012129500106
 30
0.0
 11
-274.8637531899112
 21
718.4012129500106
 31
0.0
  0
LINE
  5
2B3
330
1F
100
AcDbEntity
  8
C-A
  6
Continuous
 62
     3
370
     9
100
AcDbLine
 10
-253.863783707489
 20
718.4012129500106
 30
0.0
 11
-259.8639057778018
 21
718.4012129500106
 31
0.0
  0
LINE
  5
2B4
330
1F
100
AcDbEntity
  8
C-A
  6
Continuous
 62
     3
370
     9
100
AcDbLine
 10
-238.8639668129576
 20
718.4012129500106
 30
0.0
 11
-244.8640888832705
 21
718.4012129500106
 31
0.0
  0
LINE
  5
2B5
330
1F
100
AcDbEntity
  8
C-A
  6
Continuous
 62
     3
370
     9
100
AcDbLine
 10
-223.8636616371764
 20
718.4012129500106
 30
0.0
 11
-229.8637837074892
 21
718.4012129500106
 31
0.0
  0
LINE
  5
2B6
330
1F
100
AcDbEntity
  8
C-A
  6
Continuous
 62
     3
370
     9
100
AcDbLine
 10
-210.8640278481141
 20
718.4012129500106
 30
0.0
 11
-214.8639668129579
 21
718.4012129500106
 31
0.0
  0
LINE
  5
2B7
330
1F
100
AcDbEntity
  8
C-A
  6
Continuous
 62
     3
370
     9
100
AcDbLine
 10
-376.8640278481143
 20
514.8657362654404
 30
0.0
 11
-379.863478531708
 21
514.8657362654404
 31
0.0
  0
LINE
  5
2B8
330
1F
100
AcDbEntity
  8
C-A
  6
Continuous
 62
     3
370
     9
100
AcDbLine
 10
-273.3283222817079
 20
618.4012434675888
 30
0.0
 11
-274.8637531899112
 21
618.4012434675888
 31
0.0
  0
LINE
  5
2B9
330
1F
100
AcDbEntity
  8
C-A
  6
Continuous
 62
     3
370
     9
100
AcDbLine
 10
-538.8638828896183
 20
711.3301375105575
 30
0.0
 11
-542.8642948769226
 21
711.3301375105575
 31
0.0
  0
LINE
  5
2BA
330
1F
100
AcDbEntity
  8
C-A
  6
Continuous
 62
     3
370
     9
100
AcDbLine
 10
-523.8640583656922
 20
711.3301375105575
 30
0.0
 11
-529.8641804360045
 21
711.3301375105575
 31
0.0
  0
LINE
  5
2BB
330
1F
100
AcDbEntity
  8
C-A
  6
Continuous
 62
     3
370
     9
100
AcDbLine
 10
-508.8637379311217
 20
711.3301375105575
 30
0.0
 11
-514.8638600014345
 21
711.3301375105575
 31
0.0
  0
LINE
  5
2BC
330
1F
100
AcDbEntity
  8
C-A
  6
Continuous
 62
     3
370
     9
100
AcDbLine
 10
-493.8639210365909
 20
711.3301375105575
 30
0.0
 11
-499.8640431069032
 21
711.3301375105575
 31
0.0
  0
LINE
  5
2BD
330
1F
100
AcDbEntity
  8
C-A
  6
Continuous
 62
     3
370
     9
100
AcDbLine
 10
-493.8639210365909
 20
714.8656904890731
 30
0.0
 11
-499.8640431069032
 21
714.8656904890731
 31
0.0
  0
LINE
  5
2BE
330
1F
100
AcDbEntity
  8
C-A
  6
Continuous
 62
     3
370
     9
100
AcDbLine
 10
-508.8637379311217
 20
714.8656904890731
 30
0.0
 11
-514.8638600014345
 21
714.8656904890731
 31
0.0
  0
LINE
  5
2BF
330
1F
100
AcDbEntity
  8
C-A
  6
Continuous
 62
     3
370
     9
100
AcDbLine
 10
-523.8640583656922
 20
714.8656904890731
 30
0.0
 11
-529.8641804360045
 21
714.8656904890731
 31
0.0
  0
LINE
  5
2C0
330
1F
100
AcDbEntity
  8
C-A
  6
Continuous
 62
     3
370
     9
100
AcDbLine
 10
-538.8638828896183
 20
714.8656904890731
 30
0.0
 11
-542.8642948769226
 21
714.8656904890731
 31
0.0
  0
LINE
  5
2C1
330
1F
100
AcDbEntity
  8
C-A
  6
Continuous
 62
     3
370
     9
100
AcDbLine
 10
-493.8639210365909
 20
718.4012129500106
 30
0.0
 11
-499.8640431069032
 21
718.4012129500106
 31
0.0
  0
LINE
  5
2C2
330
1F
100
AcDbEntity
  8
C-A
  6
Continuous
 62
     3
370
     9
100
AcDbLine
 10
-508.8637379311217
 20
718.4012129500106
 30
0.0
 11
-514.8638600014345
 21
718.4012129500106
 31
0.0
  0
LINE
  5
2C3
330
1F
100
AcDbEntity
  8
C-A
  6
Continuous
 62
     3
370
     9
100
AcDbLine
 10
-523.8640583656922
 20
718.4012129500106
 30
0.0
 11
-529.8641804360045
 21
718.4012129500106
 31
0.0
  0
LINE
  5
2C4
330
1F
100
AcDbEntity
  8
C-A
  6
Continuous
 62
     3
370
     9
100
AcDbLine
 10
-538.8638828896183
 20
718.4012129500106
 30
0.0
 11
-542.8642948769226
 21
718.4012129500106
 31
0.0
  0
LWPOLYLINE
  5
2C5
330
1F
100
AcDbEntity
  8
C-4
  6
Continuous
 62
     7
370
     9
100
AcDbPolyline
 90
        4
 70
     1
 43
1.0
 10
-551.3644856117862
 20
924.8649275496202
 42
0.4142135623731
 10
-551.8644856117862
 20
925.3649275496202
 42
0.4142135623731
 10
-552.3644856117862
 20
924.8649275496202
 42
0.4142135623731
 10
-551.8644856117862
 20
924.3649275496203
 42
0.4142135623731
  0
LWPOLYLINE
  5
2C6
330
1F
100
AcDbEntity
  8
C-4
  6
Continuous
 62
     7
370
     9
100
AcDbPolyline
 90
        4
 70
     1
 43
1.0
 10
-201.3643330238956
 20
924.8649275496202
 42
0.4142135623731
 10
-201.8643330238956
 20
925.3649275496202
 42
0.4142135623731
 10
-202.3643330238956
 20
924.8649275496202
 42
0.4142135623731
 10
-201.8643330238956
 20
924.3649275496203
 42
0.4142135623731
  0
LWPOLYLINE
  5
2C7
330
1F
100
AcDbEntity
  8
C-4
  6
Continuous
 62
     7
370
     9
100
AcDbPolyline
 90
        4
 70
     1
 43
1.0
 10
-526.3646229408876
 20
869.8654158308702
 42
0.4142135623731
 10
-526.8646229408876
 20
870.3654158308701
 42
0.4142135623731
 10
-527.3646229408876
 20
869.8654158308702
 42
0.4142135623731
 10
-526.8646229408876
 20
869.3654158308702
 42
0.4142135623731
  0
LWPOLYLINE
  5
2C8
330
1F
100
AcDbEntity
  8
C-4
  6
Continuous
 62
     7
370
     9
100
AcDbPolyline
 90
        4
 70
     1
 43
1.0
 10
-226.364210953583
 20
869.8654158308702
 42
0.4142135623731
 10
-226.864210953583
 20
870.3654158308701
 42
0.4142135623731
 10
-227.364210953583
 20
869.8654158308702
 42
0.4142135623731
 10
-226.864210953583
 20
869.3654158308702
 42
0.4142135623731
  0
LWPOLYLINE
  5
2C9
330
1F
100
AcDbEntity
  8
C-4
  6
Continuous
 62
     7
370
     9
100
AcDbPolyline
 90
        4
 70
     1
 43
1.0
 10
-551.3644856117862
 20
869.8654158308702
 42
0.4142135623731
 10
-551.8644856117862
 20
870.3654158308701
 42
0.4142135623731
 10
-552.3644856117862
 20
869.8654158308702
 42
0.4142135623731
 10
-551.8644856117862
 20
869.3654158308702
 42
0.4142135623731
  0
LWPOLYLINE
  5
2CA
330
1F
100
AcDbEntity
  8
C-4
  6
Continuous
 62
     7
370
     9
100
AcDbPolyline
 90
        4
 70
     1
 43
1.0
 10
-552.3648365639344
 20
924.8649275496202
 42
0.4142135623731
 10
-552.8648365639344
 20
925.3649275496202
 42
0.4142135623731
 10
-553.3648365639344
 20
924.8649275496202
 42
0.4142135623731
 10
-552.8648365639344
 20
924.3649275496203
 42
0.4142135623731
  0
LWPOLYLINE
  5
2CB
330
1F
100
AcDbEntity
  8
C-4
  6
Continuous
 62
     7
370
     9
100
AcDbPolyline
 90
        4
 70
     1
 43
1.0
 10
-200.364485611786
 20
924.8649275496202
 42
0.4142135623731
 10
-200.864485611786
 20
925.3649275496202
 42
0.4142135623731
 10
-201.364485611786
 20
924.8649275496202
 42
0.4142135623731
 10
-200.864485611786
 20
924.3649275496203
 42
0.4142135623731
  0
TEXT
  5
2CC
330
1F
100
AcDbEntity
  8
C-5
  6
Continuous
 62
     2
370
     9
100
AcDbText
 10
-644.3645447395937
 20
285.0057124235824
 30
0.0
 40
30.48
  1
平面詳細図　Ｓ＝１：１０
 41
1.114583333333333
  7
ＭＳ ゴシック
100
AcDbText
  0
TEXT
  5
2CD
330
1F
100
AcDbEntity
  8
C-5
  6
Continuous
 62
     2
370
     9
100
AcDbText
 10
-275.6242817543642
 20
542.5761555769637
 30
0.0
 40
30.48
  1
Ａ
 41
0.9999999999999998
  7
ＭＳ ゴシック
100
AcDbText
  0
TEXT
  5
2CE
330
1F
100
AcDbEntity
  8
C-4
  6
Continuous
 62
     2
370
   211
100
AcDbText
 10
-409.364416947235
 20
881.5054160692888
 30
0.0
 40
30.48
  1
300
 41
1.083333333333324
  7
ＭＳ ゴシック
100
AcDbText
  0
LINE
  5
2CF
330
1F
100
AcDbEntity
  8
C-4
  6
Continuous
 62
     7
370
     9
100
AcDbLine
 10
-226.864210953583
 20
869.8654158308702
 30
0.0
 11
-201.8643330238956
 21
869.8654158308702
 31
0.0
  0
LWPOLYLINE
  5
2D0
330
1F
100
AcDbEntity
  8
C-4
  6
Continuous
 62
     7
370
     9
100
AcDbPolyline
 90
        4
 70
     1
 43
1.0
 10
-201.3643330238956
 20
869.8654158308702
 42
0.4142135623731
 10
-201.8643330238956
 20
870.3654158308701
 42
0.4142135623731
 10
-202.3643330238956
 20
869.8654158308702
 42
0.4142135623731
 10
-201.8643330238956
 20
869.3654158308702
 42
0.4142135623731
  0
TEXT
  5
2D1
330
1F
100
AcDbEntity
  8
C-4
  6
Continuous
 62
     2
370
   211
100
AcDbText
 10
-409.3644093178409
 20
936.5049277880388
 30
0.0
 40
30.48
  1
350
 41
1.083333333333333
  7
ＭＳ ゴシック
100
AcDbText
  0
TEXT
  5
2D2
330
1F
100
AcDbEntity
  8
C-4
  6
Continuous
 62
     2
370
   211
100
AcDbText
 10
-545.6024048956181
 20
881.5054160692888
 30
0.0
 40
30.48
  1
25
 41
1.0625
  7
ＭＳ ゴシック
100
AcDbText
  0
TEXT
  5
2D3
330
1F
100
AcDbEntity
  8
C-4
  6
Continuous
 62
     2
370
   211
100
AcDbText
 10
-250.0648502064308
 20
881.5054160692888
 30
0.0
 40
30.48
  1
25
 41
1.0625
  7
ＭＳ ゴシック
100
AcDbText
  0
TEXT
  5
2D4
330
1F
100
AcDbEntity
  8
C-4
  6
Continuous
 62
     2
370
   211
100
AcDbText
 10
-540.2571940845911
 20
936.5049277880388
 30
0.0
 40
30.48
  1
1
 41
0.9999999999999998
  7
ＭＳ ゴシック
100
AcDbText
  0
TEXT
  5
2D5
330
1F
100
AcDbEntity
  8
C-4
  6
Continuous
 62
     2
370
   211
100
AcDbText
 10
-233.8878901749791
 20
936.5049277880388
 30
0.0
 40
30.48
  1
1
 41
0.9999999999999998
  7
ＭＳ ゴシック
100
AcDbText
  0
LINE
  5
2D6
330
1F
100
AcDbEntity
  8
C-1
  6
Continuous
 62
     2
370
     9
100
AcDbLine
 10
-557.8648365639344
 20
795.8654158308701
 30
0.0
 11
-557.8648365639344
 21
433.8655379011826
 31
0.0
  0
LINE
  5
2D7
330
1F
100
AcDbEntity
  8
C-1
  6
Continuous
 62
     2
370
     9
100
AcDbLine
 10
-557.8648365639344
 20
433.8655379011826
 30
0.0
 11
-195.864485611786
 21
433.8655379011826
 31
0.0
  0
LINE
  5
2D8
330
1F
100
AcDbEntity
  8
C-1
  6
Continuous
 62
     2
370
     9
100
AcDbLine
 10
-195.864485611786
 20
795.8654158308701
 30
0.0
 11
-557.8648365639344
 21
795.8654158308701
 31
0.0
  0
LINE
  5
2D9
330
1F
100
AcDbEntity
  8
C-1
  6
Continuous
 62
     2
370
     9
100
AcDbLine
 10
-195.864485611786
 20
433.8655379011826
 30
0.0
 11
-195.864485611786
 21
795.8654158308701
 31
0.0
  0
LINE
  5
2DA
330
1F
100
AcDbEntity
  8
C-4
  6
Continuous
 62
     7
370
     9
100
AcDbLine
 10
-195.864485611786
 20
809.8656599714951
 30
0.0
 11
-195.864485611786
 21
982.8649885847765
 31
0.0
  0
LWPOLYLINE
  5
2DB
330
1F
100
AcDbEntity
  8
C-4
  6
Continuous
 62
     7
370
     9
100
AcDbPolyline
 90
        4
 70
     1
 43
1.0
 10
-195.364485611786
 20
979.8649275496202
 42
0.4142135623731
 10
-195.864485611786
 20
980.3649275496202
 42
0.4142135623731
 10
-196.364485611786
 20
979.8649275496202
 42
0.4142135623731
 10
-195.864485611786
 20
979.3649275496203
 42
0.4142135623731
  0
LWPOLYLINE
  5
2DC
330
1F
100
AcDbEntity
  8
C-4
  6
Continuous
 62
     7
370
     9
100
AcDbPolyline
 90
        4
 70
     1
 43
1.0
 10
-195.364485611786
 20
924.8649275496202
 42
0.4142135623731
 10
-195.864485611786
 20
925.3649275496202
 42
0.4142135623731
 10
-196.364485611786
 20
924.8649275496202
 42
0.4142135623731
 10
-195.864485611786
 20
924.3649275496203
 42
0.4142135623731
  0
LINE
  5
2DD
330
1F
100
AcDbEntity
  8
C-4
  6
Continuous
 62
     7
370
     9
100
AcDbLine
 10
-195.864485611786
 20
924.8649275496202
 30
0.0
 11
-151.1132649086608
 21
924.8649275496202
 31
0.0
  0
LINE
  5
2DE
330
1F
100
AcDbEntity
  8
C-4
  6
Continuous
 62
     7
370
     9
100
AcDbLine
 10
-552.8648365639344
 20
924.8649275496202
 30
0.0
 11
-557.8648365639344
 21
924.8649275496202
 31
0.0
  0
TEXT
  5
2DF
330
1F
100
AcDbEntity
  8
C-4
  6
Continuous
 62
     2
370
   211
100
AcDbText
 10
-585.0234154366149
 20
936.5049277880388
 30
0.0
 40
30.48
  1
5
 41
0.9999999999999998
  7
ＭＳ ゴシック
100
AcDbText
  0
LINE
  5
2E0
330
1F
100
AcDbEntity
  8
C-4
  6
Continuous
 62
     7
370
     9
100
AcDbLine
 10
-557.8648365639344
 20
979.8649275496202
 30
0.0
 11
-195.864485611786
 21
979.8649275496202
 31
0.0
  0
TEXT
  5
2E1
330
1F
100
AcDbEntity
  8
C-4
  6
Continuous
 62
     2
370
   211
100
AcDbText
 10
-409.3646610878602
 20
991.5049277880388
 30
0.0
 40
30.48
  1
362
 41
1.083333333333333
  7
ＭＳ ゴシック
100
AcDbText
  0
LINE
  5
2E2
330
1F
100
AcDbEntity
  8
C-4
  6
Continuous
 62
     7
370
     9
100
AcDbLine
 10
-200.864485611786
 20
924.8649275496202
 30
0.0
 11
-195.864485611786
 21
924.8649275496202
 31
0.0
  0
TEXT
  5
2E3
330
1F
100
AcDbEntity
  8
C-4
  6
Continuous
 62
     2
370
   211
100
AcDbText
 10
-186.9888600014343
 20
936.5049277880388
 30
0.0
 40
30.48
  1
5
 41
0.9999999999999998
  7
ＭＳ ゴシック
100
AcDbText
  0
TEXT
  5
2E4
330
1F
100
AcDbEntity
  8
D-4
  6
Continuous
 62
     2
370
     9
100
AcDbText
 10
542.500101295678
 20
-1299.359865970096
 30
0.0
 40
30.48
  1
吉田
 41
1.0625
  7
ＭＳ ゴシック
100
AcDbText
  0
TEXT
  5
2E5
330
1F
100
AcDbEntity
  8
D-4
  6
Continuous
 62
     2
370
     9
100
AcDbText
 10
742.5001425356484
 20
-1299.359865970096
 30
0.0
 40
30.48
  1
樋口
 41
1.0625
  7
ＭＳ ゴシック
100
AcDbText
  0
LINE
  5
2E6
330
1F
100
AcDbEntity
  8
C-2
  6
Continuous
 62
     3
370
     9
100
AcDbLine
 10
257.8637553550112
 20
1150.550535459776
 30
0.0
 11
337.8653422690735
 21
1170.550596494933
 31
0.0
  0
LINE
  5
2E7
330
1F
100
AcDbEntity
  8
C-2
  6
Continuous
 62
     3
370
     9
100
AcDbLine
 10
257.8637553550112
 20
1135.550230283995
 30
0.0
 11
337.8653422690735
 21
1115.550169248839
 31
0.0
  0
LINE
  5
2E8
330
1F
100
AcDbEntity
  8
C-2
  6
Continuous
 62
     3
370
     9
100
AcDbLine
 10
257.8637553550112
 20
1150.550535459776
 30
0.0
 11
257.8637553550112
 21
1135.550230283995
 31
0.0
  0
LINE
  5
2E9
330
1F
100
AcDbEntity
  8
C-2
  6
Continuous
 62
     3
370
     9
100
AcDbLine
 10
337.8653422690735
 20
1170.550596494933
 30
0.0
 11
337.8653422690735
 21
1115.550169248839
 31
0.0
  0
LINE
  5
2EA
330
1F
100
AcDbEntity
  8
C-2
  6
Continuous
 62
     3
370
     9
100
AcDbLine
 10
252.863511214386
 20
1154.454405088683
 30
0.0
 11
342.8646098471989
 21
1176.954588194151
 31
0.0
  0
LINE
  5
2EB
330
1F
100
AcDbEntity
  8
C-2
  6
Continuous
 62
     3
370
     9
100
AcDbLine
 10
252.863511214386
 20
1131.646604795714
 30
0.0
 11
342.8646098471989
 21
1109.14666583087
 31
0.0
  0
LINE
  5
2EC
330
1F
100
AcDbEntity
  8
C-2
  6
Continuous
 62
     3
370
     9
100
AcDbLine
 10
252.863511214386
 20
1154.454405088683
 30
0.0
 11
257.8637553550112
 21
1150.550535459776
 31
0.0
  0
LINE
  5
2ED
330
1F
100
AcDbEntity
  8
C-2
  6
Continuous
 62
     3
370
     9
100
AcDbLine
 10
252.863511214386
 20
1131.646604795714
 30
0.0
 11
257.8637553550112
 21
1135.550230283995
 31
0.0
  0
LINE
  5
2EE
330
1F
100
AcDbEntity
  8
C-2
  6
Continuous
 62
     3
370
     9
100
AcDbLine
 10
337.8653422690735
 20
1115.550169248839
 30
0.0
 11
342.8646098471989
 21
1109.14666583087
 31
0.0
  0
LINE
  5
2EF
330
1F
100
AcDbEntity
  8
C-2
  6
Continuous
 62
     3
370
     9
100
AcDbLine
 10
342.8646098471989
 20
1176.954588194151
 30
0.0
 11
337.8653422690735
 21
1170.550596494933
 31
0.0
  0
LINE
  5
2F0
330
1F
100
AcDbEntity
  8
C-2
  6
Continuous
 62
     3
370
     9
100
AcDbLine
 10
337.8653422690735
 20
1000.551023741026
 30
0.0
 11
257.8637553550112
 21
980.550718565245
 31
0.0
  0
LINE
  5
2F1
330
1F
100
AcDbEntity
  8
C-2
  6
Continuous
 62
     3
370
     9
100
AcDbLine
 10
337.8653422690735
 20
1015.550352354308
 30
0.0
 11
337.8653422690735
 21
1000.551023741026
 31
0.0
  0
LINE
  5
2F2
330
1F
100
AcDbEntity
  8
C-2
  6
Continuous
 62
     3
370
     9
100
AcDbLine
 10
257.8637553550112
 20
1035.550901670714
 30
0.0
 11
257.8637553550112
 21
980.550718565245
 31
0.0
  0
LINE
  5
2F3
330
1F
100
AcDbEntity
  8
C-2
  6
Continuous
 62
     3
370
     9
100
AcDbLine
 10
252.863511214386
 20
1041.954160948058
 30
0.0
 11
342.8646098471989
 21
1019.453916807433
 31
0.0
  0
LINE
  5
2F4
330
1F
100
AcDbEntity
  8
C-2
  6
Continuous
 62
     3
370
     9
100
AcDbLine
 10
342.8646098471989
 20
996.6466658308698
 30
0.0
 11
252.863511214386
 21
974.1464827254013
 31
0.0
  0
LINE
  5
2F5
330
1F
100
AcDbEntity
  8
C-2
  6
Continuous
 62
     3
370
     9
100
AcDbLine
 10
257.8637553550112
 20
880.5503523543077
 30
0.0
 11
337.8653422690735
 21
900.5504133894638
 31
0.0
  0
LINE
  5
2F6
330
1F
100
AcDbEntity
  8
C-2
  6
Continuous
 62
     3
370
     9
100
AcDbLine
 10
257.8637553550112
 20
865.5505964949325
 30
0.0
 11
337.8653422690735
 21
845.5504744246198
 31
0.0
  0
LINE
  5
2F7
330
1F
100
AcDbEntity
  8
C-2
  6
Continuous
 62
     3
370
     9
100
AcDbLine
 10
257.8637553550112
 20
880.5503523543077
 30
0.0
 11
257.8637553550112
 21
865.5505964949325
 31
0.0
  0
LINE
  5
2F8
330
1F
100
AcDbEntity
  8
C-2
  6
Continuous
 62
     3
370
     9
100
AcDbLine
 10
337.8653422690735
 20
900.5504133894638
 30
0.0
 11
337.8653422690735
 21
845.5504744246198
 31
0.0
  0
LINE
  5
2F9
330
1F
100
AcDbEntity
  8
C-2
  6
Continuous
 62
     3
370
     9
100
AcDbLine
 10
252.863511214386
 20
884.4547102644638
 30
0.0
 11
342.8646098471989
 21
906.9544050886825
 31
0.0
  0
LINE
  5
2FA
330
1F
100
AcDbEntity
  8
C-2
  6
Continuous
 62
     3
370
     9
100
AcDbLine
 10
252.863511214386
 20
861.6467268660265
 30
0.0
 11
342.8646098471989
 21
839.1464827254013
 31
0.0
  0
LINE
  5
2FB
330
1F
100
AcDbEntity
  8
C-2
  6
Continuous
 62
     3
370
     9
100
AcDbLine
 10
252.863511214386
 20
884.4547102644638
 30
0.0
 11
257.8637553550112
 21
880.5503523543077
 31
0.0
  0
LINE
  5
2FC
330
1F
100
AcDbEntity
  8
C-2
  6
Continuous
 62
     3
370
     9
100
AcDbLine
 10
252.863511214386
 20
861.6467268660265
 30
0.0
 11
257.8637553550112
 21
865.5505964949325
 31
0.0
  0
LINE
  5
2FD
330
1F
100
AcDbEntity
  8
C-2
  6
Continuous
 62
     3
370
     9
100
AcDbLine
 10
337.8653422690735
 20
845.5504744246198
 30
0.0
 11
342.8646098471989
 21
839.1464827254013
 31
0.0
  0
LINE
  5
2FE
330
1F
100
AcDbEntity
  8
C-2
  6
Continuous
 62
     3
370
     9
100
AcDbLine
 10
342.8646098471989
 20
906.9544050886825
 30
0.0
 11
337.8653422690735
 21
900.5504133894638
 31
0.0
  0
LINE
  5
2FF
330
1F
100
AcDbEntity
  8
C-2
  6
Continuous
 62
     3
370
     9
100
AcDbLine
 10
252.863511214386
 20
1225.550779600401
 30
0.0
 11
252.863511214386
 21
820.3460066511823
 31
0.0
  0
LINE
  5
300
330
1F
100
AcDbEntity
  8
C-2
  6
Continuous
 62
     3
370
     9
100
AcDbLine
 10
342.8646098471989
 20
1195.549436826964
 30
0.0
 11
342.8646098471989
 21
790.3452131941513
 31
0.0
  0
LINE
  5
301
330
1F
100
AcDbEntity
  8
C-5
  6
Continuous
 62
     7
370
     9
100
AcDbLine
 10
79.11851609719861
 20
735.6419356062609
 30
0.0
 11
517.1535502768864
 21
735.6419356062609
 31
0.0
  0
LINE
  5
302
330
1F
100
AcDbEntity
  8
C-2
  6
Continuous
 62
     3
370
     9
100
AcDbLine
 10
257.8637553550112
 20
1035.550901670714
 30
0.0
 11
337.8653422690735
 21
1015.550352354308
 31
0.0
  0
LINE
  5
303
330
1F
100
AcDbEntity
  8
C-4
  6
Continuous
 62
     7
370
     9
100
AcDbLine
 10
237.1967021323547
 20
865.5505964949325
 30
0.0
 11
154.7230082846988
 21
865.5505964949325
 31
0.0
  0
LINE
  5
304
330
1F
100
AcDbEntity
  8
C-4
  6
Continuous
 62
     7
370
     9
100
AcDbLine
 10
237.1967021323547
 20
880.5503523543077
 30
0.0
 11
154.7230082846988
 21
880.5503523543077
 31
0.0
  0
LINE
  5
305
330
1F
100
AcDbEntity
  8
C-4
  6
Continuous
 62
     7
370
     9
100
AcDbLine
 10
237.1967021323547
 20
980.550718565245
 30
0.0
 11
154.7230082846988
 21
980.550718565245
 31
0.0
  0
LINE
  5
306
330
1F
100
AcDbEntity
  8
C-4
  6
Continuous
 62
     7
370
     9
100
AcDbLine
 10
237.1967021323547
 20
1035.550901670714
 30
0.0
 11
154.7230082846988
 21
1035.550901670714
 31
0.0
  0
LINE
  5
307
330
1F
100
AcDbEntity
  8
C-4
  6
Continuous
 62
     7
370
     9
100
AcDbLine
 10
237.1967021323547
 20
1135.550230283995
 30
0.0
 11
154.7230082846988
 21
1135.550230283995
 31
0.0
  0
LINE
  5
308
330
1F
100
AcDbEntity
  8
C-4
  6
Continuous
 62
     7
370
     9
100
AcDbLine
 10
237.1967021323547
 20
1150.550535459776
 30
0.0
 11
154.7230082846988
 21
1150.550535459776
 31
0.0
  0
LINE
  5
309
330
1F
100
AcDbEntity
  8
C-4
  6
Continuous
 62
     7
370
     9
100
AcDbLine
 10
252.863511214386
 20
1266.440733213683
 30
0.0
 11
342.8646098471989
 21
1266.440733213683
 31
0.0
  0
LINE
  5
30A
330
1F
100
AcDbEntity
  8
C-4
  6
Continuous
 62
     7
370
     9
100
AcDbLine
 10
252.863511214386
 20
1234.434873838683
 30
0.0
 11
252.863511214386
 21
1269.440183897276
 31
0.0
  0
LINE
  5
30B
330
1F
100
AcDbEntity
  8
C-4
  6
Continuous
 62
     7
370
     9
100
AcDbLine
 10
342.8646098471989
 20
1207.353086729308
 30
0.0
 11
342.8646098471989
 21
1269.440183897276
 31
0.0
  0
LINE
  5
30C
330
1F
100
AcDbEntity
  8
C-4
  6
Continuous
 62
     7
370
     9
100
AcDbLine
 10
354.5843364096987
 20
1011.37029864337
 30
0.0
 11
420.6321879721986
 21
994.8583967879015
 31
0.0
  0
LINE
  5
30D
330
1F
100
AcDbEntity
  8
C-4
  6
Continuous
 62
     7
370
     9
100
AcDbLine
 10
355.7972270346988
 20
1016.221128721495
 30
0.0
 11
421.8452006675113
 21
999.7089827254015
 31
0.0
  0
LINE
  5
30E
330
1F
100
AcDbEntity
  8
C-4
  6
Continuous
 62
     7
370
     9
100
AcDbLine
 10
417.7217875815739
 20
995.5858748152448
 30
0.0
 11
436.2469340659487
 21
1069.683225889464
 31
0.0
  0
LINE
  5
30F
330
1F
100
AcDbEntity
  8
C-2
  6
Continuous
 62
     3
370
     9
100
AcDbLine
 10
252.863511214386
 20
1041.954160948058
 30
0.0
 11
257.8637553550112
 21
1035.550901670714
 31
0.0
  0
LINE
  5
310
330
1F
100
AcDbEntity
  8
C-2
  6
Continuous
 62
     3
370
     9
100
AcDbLine
 10
257.8637553550112
 20
980.550718565245
 30
0.0
 11
252.863511214386
 21
974.1464827254013
 31
0.0
  0
LINE
  5
311
330
1F
100
AcDbEntity
  8
C-2
  6
Continuous
 62
     3
370
     9
100
AcDbLine
 10
337.8653422690735
 20
1000.551023741026
 30
0.0
 11
342.8646098471989
 21
996.6466658308698
 31
0.0
  0
LINE
  5
312
330
1F
100
AcDbEntity
  8
C-2
  6
Continuous
 62
     3
370
     9
100
AcDbLine
 10
342.8646098471989
 20
1019.453916807433
 30
0.0
 11
337.8653422690735
 21
1015.550352354308
 31
0.0
  0
LINE
  5
313
330
1F
100
AcDbEntity
  8
C-5
  6
Continuous
 62
     7
370
     9
100
AcDbLine
 10
316.6193705893863
 20
1013.62176348712
 30
0.0
 11
379.9046489096986
 21
1123.235410948057
 31
0.0
  0
LINE
  5
314
330
1F
100
AcDbEntity
  8
C-5
  6
Continuous
 62
     7
370
     9
100
AcDbLine
 10
316.6193705893863
 20
1013.62176348712
 30
0.0
 11
326.1869975425111
 21
1036.719053526183
 31
0.0
  0
LINE
  5
315
330
1F
100
AcDbEntity
  8
C-5
  6
Continuous
 62
     7
370
     9
100
AcDbLine
 10
316.6193705893863
 20
1013.62176348712
 30
0.0
 11
331.8386088706364
 21
1033.456053037901
 31
0.0
  0
LINE
  5
316
330
1F
100
AcDbEntity
  8
C-5
  6
Continuous
 62
     7
370
     9
100
AcDbLine
 10
379.9046489096986
 20
1123.235410948057
 30
0.0
 11
621.2425395346986
 21
1123.235410948057
 31
0.0
  0
LINE
  5
317
330
1F
100
AcDbEntity
  8
C-4
  6
Continuous
 62
     7
370
     9
100
AcDbLine
 10
157.723130355011
 20
799.4841292097763
 30
0.0
 11
157.723130355011
 21
1218.714292783995
 31
0.0
  0
LINE
  5
318
330
1F
100
AcDbEntity
  8
C-2
  6
Continuous
 62
     3
370
     9
100
AcDbLine
 10
142.9313823081361
 20
384.4719832136826
 30
0.0
 11
142.9313823081361
 21
394.4720289900496
 31
0.0
  0
LINE
  5
319
330
1F
100
AcDbEntity
  8
C-2
  6
Continuous
 62
     3
370
     9
100
AcDbLine
 10
142.9313823081361
 20
484.4719526961043
 30
0.0
 11
142.9313823081361
 21
474.4719069197373
 31
0.0
  0
LINE
  5
31A
330
1F
100
AcDbEntity
  8
C-2
  6
Continuous
 62
     3
370
     9
100
AcDbLine
 10
169.7793437339175
 20
474.4724104597762
 30
0.0
 11
159.7793437339175
 21
474.4724104597762
 31
0.0
  0
LINE
  5
31B
330
1F
100
AcDbEntity
  8
C-2
  6
Continuous
 62
     3
370
     9
100
AcDbLine
 10
177.2792826987614
 20
466.9724867537215
 30
0.0
 11
177.2792826987614
 21
384.4729750349717
 31
0.0
  0
LINE
  5
31C
330
1F
100
AcDbEntity
  8
C-2
  6
Continuous
 62
     3
370
     9
100
AcDbLine
 10
194.7797099448547
 20
474.4724104597762
 30
0.0
 11
204.7797709800113
 21
474.4724104597762
 31
0.0
  0
LINE
  5
31D
330
1F
100
AcDbEntity
  8
C-2
  6
Continuous
 62
     3
370
     9
100
AcDbLine
 10
187.2798320151674
 20
466.9724867537215
 30
0.0
 11
187.2798320151674
 21
384.4729750349717
 31
0.0
  0
LINE
  5
31E
330
1F
100
AcDbEntity
  8
C-2
  6
Continuous
 62
     3
370
     9
100
AcDbLine
 10
371.6279155112613
 20
384.4719832136826
 30
0.0
 11
371.6279155112613
 21
394.4720289900496
 31
0.0
  0
LINE
  5
31F
330
1F
100
AcDbEntity
  8
C-2
  6
Continuous
 62
     3
370
     9
100
AcDbLine
 10
371.6279155112613
 20
484.4719526961043
 30
0.0
 11
371.6279155112613
 21
474.4719069197373
 31
0.0
  0
LINE
  5
320
330
1F
100
AcDbEntity
  8
C-2
  6
Continuous
 62
     3
370
     9
100
AcDbLine
 10
371.6279155112613
 20
484.4724562361435
 30
0.0
 11
142.9313823081361
 21
484.4724562361435
 31
0.0
  0
LINE
  5
321
330
1F
100
AcDbEntity
  8
C-2
  6
Continuous
 62
     3
370
     9
100
AcDbLine
 10
142.9313823081361
 20
384.4729750349717
 30
0.0
 11
371.6279155112613
 21
384.4729750349717
 31
0.0
  0
LINE
  5
322
330
1F
100
AcDbEntity
  8
C-5
  6
Continuous
 62
     7
370
     9
100
AcDbLine
 10
60.63603318704224
 20
266.8660261824326
 30
0.0
 11
60.63603318704224
 21
331.8655836775497
 31
0.0
  0
LINE
  5
323
330
1F
100
AcDbEntity
  8
C-5
  6
Continuous
 62
     7
370
     9
100
AcDbLine
 10
60.63603318704224
 20
331.8655836775497
 30
0.0
 11
535.6364604331361
 21
331.8655836775497
 31
0.0
  0
LINE
  5
324
330
1F
100
AcDbEntity
  8
C-5
  6
Continuous
 62
     7
370
     9
100
AcDbLine
 10
535.6364604331361
 20
331.8655836775497
 30
0.0
 11
535.6364604331361
 21
266.8660261824326
 31
0.0
  0
LINE
  5
325
330
1F
100
AcDbEntity
  8
C-5
  6
Continuous
 62
     7
370
     9
100
AcDbLine
 10
535.6364604331361
 20
266.8660261824326
 30
0.0
 11
60.63603318704224
 21
266.8660261824326
 31
0.0
  0
LINE
  5
326
330
1F
100
AcDbEntity
  8
C-2
  6
Continuous
 62
     3
370
     9
100
AcDbLine
 10
159.7793437339175
 20
481.9728071882921
 30
0.0
 11
162.2794658042301
 21
484.4724562361435
 31
0.0
  0
LINE
  5
327
330
1F
100
AcDbEntity
  8
C-2
  6
Continuous
 62
     3
370
     9
100
AcDbLine
 10
159.7793437339175
 20
474.4724104597762
 30
0.0
 11
159.7793437339175
 21
481.9728071882921
 31
0.0
  0
LINE
  5
328
330
1F
100
AcDbEntity
  8
C-2
  6
Continuous
 62
     3
370
     9
100
AcDbLine
 10
204.7797709800113
 20
481.9728071882921
 30
0.0
 11
202.2801371909486
 21
484.4724562361435
 31
0.0
  0
LINE
  5
329
330
1F
100
AcDbEntity
  8
C-2
  6
Continuous
 62
     3
370
     9
100
AcDbLine
 10
204.7797709800113
 20
481.9728071882921
 30
0.0
 11
159.7793437339175
 21
481.9728071882921
 31
0.0
  0
LINE
  5
32A
330
1F
100
AcDbEntity
  8
C-2
  6
Continuous
 62
     3
370
     9
100
AcDbLine
 10
204.7797709800113
 20
474.4724104597762
 30
0.0
 11
204.7797709800113
 21
481.9728071882921
 31
0.0
  0
LINE
  5
32B
330
1F
100
AcDbEntity
  8
C-2
  6
Continuous
 62
     3
370
     9
100
AcDbLine
 10
244.7794658042301
 20
474.4724104597762
 30
0.0
 11
234.7798930503239
 21
474.4724104597762
 31
0.0
  0
LINE
  5
32C
330
1F
100
AcDbEntity
  8
C-2
  6
Continuous
 62
     3
370
     9
100
AcDbLine
 10
252.2794047690735
 20
466.9724867537215
 30
0.0
 11
252.2794047690735
 21
384.4729750349717
 31
0.0
  0
LINE
  5
32D
330
1F
100
AcDbEntity
  8
C-2
  6
Continuous
 62
     3
370
     9
100
AcDbLine
 10
269.7798320151674
 20
474.4724104597762
 30
0.0
 11
279.7798930503239
 21
474.4724104597762
 31
0.0
  0
LINE
  5
32E
330
1F
100
AcDbEntity
  8
C-2
  6
Continuous
 62
     3
370
     9
100
AcDbLine
 10
262.2804423667299
 20
466.9724867537215
 30
0.0
 11
262.2804423667299
 21
384.4729750349717
 31
0.0
  0
LINE
  5
32F
330
1F
100
AcDbEntity
  8
C-2
  6
Continuous
 62
     3
370
     9
100
AcDbLine
 10
234.7798930503239
 20
481.9728071882921
 30
0.0
 11
237.2795268393861
 21
484.4724562361435
 31
0.0
  0
LINE
  5
330
330
1F
100
AcDbEntity
  8
C-2
  6
Continuous
 62
     3
370
     9
100
AcDbLine
 10
234.7798930503239
 20
474.4724104597762
 30
0.0
 11
234.7798930503239
 21
481.9728071882921
 31
0.0
  0
LINE
  5
331
330
1F
100
AcDbEntity
  8
C-2
  6
Continuous
 62
     3
370
     9
100
AcDbLine
 10
279.7798930503239
 20
481.9728071882921
 30
0.0
 11
277.2797709800113
 21
484.4724562361435
 31
0.0
  0
LINE
  5
332
330
1F
100
AcDbEntity
  8
C-2
  6
Continuous
 62
     3
370
     9
100
AcDbLine
 10
279.7798930503239
 20
481.9728071882921
 30
0.0
 11
234.7798930503239
 21
481.9728071882921
 31
0.0
  0
LINE
  5
333
330
1F
100
AcDbEntity
  8
C-2
  6
Continuous
 62
     3
370
     9
100
AcDbLine
 10
279.7798930503239
 20
474.4724104597762
 30
0.0
 11
279.7798930503239
 21
481.9728071882921
 31
0.0
  0
LINE
  5
334
330
1F
100
AcDbEntity
  8
C-2
  6
Continuous
 62
     3
370
     9
100
AcDbLine
 10
319.7795268393861
 20
474.4724104597762
 30
0.0
 11
309.7795268393861
 21
474.4724104597762
 31
0.0
  0
LINE
  5
335
330
1F
100
AcDbEntity
  8
C-2
  6
Continuous
 62
     3
370
     9
100
AcDbLine
 10
327.2794047690735
 20
466.9724867537215
 30
0.0
 11
327.2794047690735
 21
384.4729750349717
 31
0.0
  0
LINE
  5
336
330
1F
100
AcDbEntity
  8
C-2
  6
Continuous
 62
     3
370
     9
100
AcDbLine
 10
344.7808696128237
 20
474.4724104597762
 30
0.0
 11
354.7798930503239
 21
474.4724104597762
 31
0.0
  0
LINE
  5
337
330
1F
100
AcDbEntity
  8
C-2
  6
Continuous
 62
     3
370
     9
100
AcDbLine
 10
337.280015120636
 20
466.9724867537215
 30
0.0
 11
337.280015120636
 21
384.4729750349717
 31
0.0
  0
LINE
  5
338
330
1F
100
AcDbEntity
  8
C-2
  6
Continuous
 62
     3
370
     9
100
AcDbLine
 10
309.7795268393861
 20
481.9728071882921
 30
0.0
 11
312.2801371909486
 21
484.4724562361435
 31
0.0
  0
LINE
  5
339
330
1F
100
AcDbEntity
  8
C-2
  6
Continuous
 62
     3
370
     9
100
AcDbLine
 10
309.7795268393861
 20
474.4724104597762
 30
0.0
 11
309.7795268393861
 21
481.9728071882921
 31
0.0
  0
LINE
  5
33A
330
1F
100
AcDbEntity
  8
C-2
  6
Continuous
 62
     3
370
     9
100
AcDbLine
 10
354.7798930503239
 20
481.9728071882921
 30
0.0
 11
352.2797709800113
 21
484.4724562361435
 31
0.0
  0
LINE
  5
33B
330
1F
100
AcDbEntity
  8
C-2
  6
Continuous
 62
     3
370
     9
100
AcDbLine
 10
354.7798930503239
 20
481.9728071882921
 30
0.0
 11
309.7795268393861
 21
481.9728071882921
 31
0.0
  0
LINE
  5
33C
330
1F
100
AcDbEntity
  8
C-2
  6
Continuous
 62
     3
370
     9
100
AcDbLine
 10
354.7798930503239
 20
474.4724104597762
 30
0.0
 11
354.7798930503239
 21
481.9728071882921
 31
0.0
  0
LINE
  5
33D
330
1F
100
AcDbEntity
  8
C-4
  6
Continuous
 62
     7
370
     9
100
AcDbLine
 10
159.7793437339175
 20
493.7917158796981
 30
0.0
 11
159.7793437339175
 21
599.7853682234481
 31
0.0
  0
LINE
  5
33E
330
1F
100
AcDbEntity
  8
C-4
  6
Continuous
 62
     7
370
     9
100
AcDbLine
 10
204.7797709800113
 20
493.7917158796981
 30
0.0
 11
204.7797709800113
 21
545.8362715437607
 31
0.0
  0
LINE
  5
33F
330
1F
100
AcDbEntity
  8
C-4
  6
Continuous
 62
     7
370
     9
100
AcDbLine
 10
142.9313823081361
 20
542.8362105086044
 30
0.0
 11
371.6279155112613
 21
542.8362105086044
 31
0.0
  0
LINE
  5
340
330
1F
100
AcDbEntity
  8
C-4
  6
Continuous
 62
     7
370
     9
100
AcDbLine
 10
234.7798930503239
 20
493.7917158796981
 30
0.0
 11
234.7798930503239
 21
599.7853682234481
 31
0.0
  0
LINE
  5
341
330
1F
100
AcDbEntity
  8
C-4
  6
Continuous
 62
     7
370
     9
100
AcDbLine
 10
279.7798930503239
 20
493.7917158796981
 30
0.0
 11
279.7798930503239
 21
545.8362715437607
 31
0.0
  0
LINE
  5
342
330
1F
100
AcDbEntity
  8
C-4
  6
Continuous
 62
     7
370
     9
100
AcDbLine
 10
309.7795268393861
 20
493.7917158796981
 30
0.0
 11
309.7795268393861
 21
599.7853682234481
 31
0.0
  0
LINE
  5
343
330
1F
100
AcDbEntity
  8
C-4
  6
Continuous
 62
     7
370
     9
100
AcDbLine
 10
354.7798930503239
 20
493.7917158796981
 30
0.0
 11
354.7798930503239
 21
545.8362715437607
 31
0.0
  0
LINE
  5
344
330
1F
100
AcDbEntity
  8
C-4
  6
Continuous
 62
     7
370
     9
100
AcDbLine
 10
142.9313823081361
 20
596.7853071882919
 30
0.0
 11
371.6279155112613
 21
596.7853071882919
 31
0.0
  0
LINE
  5
345
330
1F
100
AcDbEntity
  8
C-4
  6
Continuous
 62
     7
370
     9
100
AcDbLine
 10
447.532700667511
 20
384.4719832136826
 30
0.0
 11
447.532700667511
 21
484.4724562361435
 31
0.0
  0
LINE
  5
346
330
1F
100
AcDbEntity
  8
C-4
  6
Continuous
 62
     7
370
     9
100
AcDbLine
 10
379.4647075034487
 20
384.4719832136826
 30
0.0
 11
450.5328227378237
 21
384.4719832136826
 31
0.0
  0
LINE
  5
347
330
1F
100
AcDbEntity
  8
C-4
  6
Continuous
 62
     7
370
     9
100
AcDbLine
 10
379.4647075034487
 20
484.4724562361435
 30
0.0
 11
450.5328227378237
 21
484.4724562361435
 31
0.0
  0
LINE
  5
348
330
1F
100
AcDbEntity
  8
C-2
  6
Continuous
 62
     3
370
     9
100
AcDbLine
 10
187.2798320151674
 20
452.1503889754013
 30
0.0
 11
252.2788554526676
 21
452.1503889754013
 31
0.0
  0
LINE
  5
349
330
1F
100
AcDbEntity
  8
C-2
  6
Continuous
 62
     3
370
     9
100
AcDbLine
 10
262.2804423667299
 20
452.1503889754013
 30
0.0
 11
327.2789164878236
 21
452.1503889754013
 31
0.0
  0
LINE
  5
34A
330
1F
100
AcDbEntity
  8
C-2
  6
Continuous
 62
     3
370
     9
100
AcDbLine
 10
142.9313823081361
 20
452.1503889754013
 30
0.0
 11
177.2792826987614
 21
452.1503889754013
 31
0.0
  0
LINE
  5
34B
330
1F
100
AcDbEntity
  8
C-2
  6
Continuous
 62
     3
370
     9
100
AcDbLine
 10
371.6279155112613
 20
452.1503889754013
 30
0.0
 11
337.280015120636
 21
452.1503889754013
 31
0.0
  0
LINE
  5
34C
330
1F
100
AcDbEntity
  8
C-2
  6
Continuous
 62
     3
370
     9
100
AcDbLine
 10
187.2798320151674
 20
434.4727156355574
 30
0.0
 11
252.2788554526676
 21
434.4727156355574
 31
0.0
  0
LINE
  5
34D
330
1F
100
AcDbEntity
  8
C-2
  6
Continuous
 62
     3
370
     9
100
AcDbLine
 10
262.2804423667299
 20
434.4727156355574
 30
0.0
 11
327.2789164878236
 21
434.4727156355574
 31
0.0
  0
LINE
  5
34E
330
1F
100
AcDbEntity
  8
C-2
  6
Continuous
 62
     3
370
     9
100
AcDbLine
 10
142.9313823081361
 20
434.4727156355574
 30
0.0
 11
177.2792826987614
 21
434.4727156355574
 31
0.0
  0
LINE
  5
34F
330
1F
100
AcDbEntity
  8
C-2
  6
Continuous
 62
     3
370
     9
100
AcDbLine
 10
371.6279155112613
 20
434.4727156355574
 30
0.0
 11
337.280015120636
 21
434.4727156355574
 31
0.0
  0
LINE
  5
350
330
1F
100
AcDbEntity
  8
C-2
  6
Continuous
 62
     3
370
     9
100
AcDbLine
 10
187.2798320151674
 20
416.7950422957139
 30
0.0
 11
252.2788554526676
 21
416.7950422957139
 31
0.0
  0
LINE
  5
351
330
1F
100
AcDbEntity
  8
C-2
  6
Continuous
 62
     3
370
     9
100
AcDbLine
 10
262.2804423667299
 20
416.7950422957139
 30
0.0
 11
327.2789164878236
 21
416.7950422957139
 31
0.0
  0
LINE
  5
352
330
1F
100
AcDbEntity
  8
C-2
  6
Continuous
 62
     3
370
     9
100
AcDbLine
 10
142.9313823081361
 20
416.7950422957139
 30
0.0
 11
177.2792826987614
 21
416.7950422957139
 31
0.0
  0
LINE
  5
353
330
1F
100
AcDbEntity
  8
C-2
  6
Continuous
 62
     3
370
     9
100
AcDbLine
 10
371.6279155112613
 20
416.7950422957139
 30
0.0
 11
337.280015120636
 21
416.7950422957139
 31
0.0
  0
ARC
  5
354
330
1F
100
AcDbEntity
  8
C-2
  6
Continuous
 62
     3
370
     9
100
AcDbCircle
 10
252.863511214386
 20
1150.550047178526
 30
0.0
 40
75.00028228759766
100
AcDbArc
 50
53.13009643554687
 51
126.8699035644531
  0
ARC
  5
355
330
1F
100
AcDbEntity
  8
C-2
  6
Continuous
 62
     3
370
     9
100
AcDbCircle
 10
342.8646098471989
 20
1270.550718565245
 30
0.0
 40
75.00028228759766
100
AcDbArc
 50
233.1300964355469
 51
306.8699035644532
  0
ARC
  5
356
330
1F
100
AcDbEntity
  8
C-2
  6
Continuous
 62
     3
370
     9
100
AcDbCircle
 10
252.863511214386
 20
745.3452742293075
 30
0.0
 40
75.00028228759766
100
AcDbArc
 50
53.13009643554687
 51
126.8699035644531
  0
ARC
  5
357
330
1F
100
AcDbEntity
  8
C-2
  6
Continuous
 62
     3
370
     9
100
AcDbCircle
 10
342.8646098471989
 20
865.3459456160263
 30
0.0
 40
75.00028228759766
100
AcDbArc
 50
233.1300964355469
 51
306.8699035644532
  0
ARC
  5
358
330
1F
100
AcDbEntity
  8
C-2
  6
Continuous
 62
     3
370
     9
100
AcDbCircle
 10
169.7793437339175
 20
466.9724867537215
 30
0.0
 40
7.5
100
AcDbArc
 50
0.0
 51
90.0
  0
ARC
  5
359
330
1F
100
AcDbEntity
  8
C-2
  6
Continuous
 62
     3
370
     9
100
AcDbCircle
 10
194.7797099448547
 20
466.9724867537215
 30
0.0
 40
7.5
100
AcDbArc
 50
90.0
 51
180.0
  0
ARC
  5
35A
330
1F
100
AcDbEntity
  8
C-2
  6
Continuous
 62
     3
370
     9
100
AcDbCircle
 10
244.7794658042301
 20
466.9724867537215
 30
0.0
 40
7.5
100
AcDbArc
 50
0.0
 51
90.0
  0
ARC
  5
35B
330
1F
100
AcDbEntity
  8
C-2
  6
Continuous
 62
     3
370
     9
100
AcDbCircle
 10
269.7798320151674
 20
466.9724867537215
 30
0.0
 40
7.5
100
AcDbArc
 50
90.0
 51
180.0
  0
ARC
  5
35C
330
1F
100
AcDbEntity
  8
C-2
  6
Continuous
 62
     3
370
     9
100
AcDbCircle
 10
319.7795268393861
 20
466.9724867537215
 30
0.0
 40
7.5
100
AcDbArc
 50
0.0
 51
90.0
  0
ARC
  5
35D
330
1F
100
AcDbEntity
  8
C-2
  6
Continuous
 62
     3
370
     9
100
AcDbCircle
 10
344.7808696128237
 20
466.9724867537215
 30
0.0
 40
7.5
100
AcDbArc
 50
90.0
 51
180.0
  0
LWPOLYLINE
  5
35E
330
1F
100
AcDbEntity
  8
C-4
  6
Continuous
 62
     7
370
     9
100
AcDbPolyline
 90
        4
 70
     1
 43
1.0
 10
158.223130355011
 20
865.5505964949325
 42
0.4142135623731
 10
157.723130355011
 20
866.0505964949324
 42
0.4142135623731
 10
157.223130355011
 20
865.5505964949325
 42
0.4142135623731
 10
157.723130355011
 20
865.0505964949325
 42
0.4142135623731
  0
LWPOLYLINE
  5
35F
330
1F
100
AcDbEntity
  8
C-4
  6
Continuous
 62
     7
370
     9
100
AcDbPolyline
 90
        4
 70
     1
 43
1.0
 10
158.223130355011
 20
880.5503523543077
 42
0.4142135623731
 10
157.723130355011
 20
881.0503523543077
 42
0.4142135623731
 10
157.223130355011
 20
880.5503523543077
 42
0.4142135623731
 10
157.723130355011
 20
880.0503523543078
 42
0.4142135623731
  0
LWPOLYLINE
  5
360
330
1F
100
AcDbEntity
  8
C-4
  6
Continuous
 62
     7
370
     9
100
AcDbPolyline
 90
        4
 70
     1
 43
1.0
 10
158.223130355011
 20
980.550718565245
 42
0.4142135623731
 10
157.723130355011
 20
981.050718565245
 42
0.4142135623731
 10
157.223130355011
 20
980.550718565245
 42
0.4142135623731
 10
157.723130355011
 20
980.0507185652451
 42
0.4142135623731
  0
LWPOLYLINE
  5
361
330
1F
100
AcDbEntity
  8
C-4
  6
Continuous
 62
     7
370
     9
100
AcDbPolyline
 90
        4
 70
     1
 43
1.0
 10
158.223130355011
 20
1035.550901670714
 42
0.4142135623731
 10
157.723130355011
 20
1036.050901670714
 42
0.4142135623731
 10
157.223130355011
 20
1035.550901670714
 42
0.4142135623731
 10
157.723130355011
 20
1035.050901670714
 42
0.4142135623731
  0
LWPOLYLINE
  5
362
330
1F
100
AcDbEntity
  8
C-4
  6
Continuous
 62
     7
370
     9
100
AcDbPolyline
 90
        4
 70
     1
 43
1.0
 10
158.223130355011
 20
1135.550230283995
 42
0.4142135623731
 10
157.723130355011
 20
1136.050230283995
 42
0.4142135623731
 10
157.223130355011
 20
1135.550230283995
 42
0.4142135623731
 10
157.723130355011
 20
1135.050230283995
 42
0.4142135623731
  0
LWPOLYLINE
  5
363
330
1F
100
AcDbEntity
  8
C-4
  6
Continuous
 62
     7
370
     9
100
AcDbPolyline
 90
        4
 70
     1
 43
1.0
 10
158.223130355011
 20
1150.550535459776
 42
0.4142135623731
 10
157.723130355011
 20
1151.050535459776
 42
0.4142135623731
 10
157.223130355011
 20
1150.550535459776
 42
0.4142135623731
 10
157.723130355011
 20
1150.050535459776
 42
0.4142135623731
  0
LWPOLYLINE
  5
364
330
1F
100
AcDbEntity
  8
C-4
  6
Continuous
 62
     7
370
     9
100
AcDbPolyline
 90
        4
 70
     1
 43
1.0
 10
253.363511214386
 20
1266.440733213683
 42
0.4142135623731
 10
252.863511214386
 20
1266.940733213683
 42
0.4142135623731
 10
252.363511214386
 20
1266.440733213683
 42
0.4142135623731
 10
252.863511214386
 20
1265.940733213683
 42
0.4142135623731
  0
LWPOLYLINE
  5
365
330
1F
100
AcDbEntity
  8
C-4
  6
Continuous
 62
     7
370
     9
100
AcDbPolyline
 90
        4
 70
     1
 43
1.0
 10
343.3646098471989
 20
1266.440733213683
 42
0.4142135623731
 10
342.8646098471989
 20
1266.940733213683
 42
0.4142135623731
 10
342.3646098471989
 20
1266.440733213683
 42
0.4142135623731
 10
342.8646098471989
 20
1265.940733213683
 42
0.4142135623731
  0
LWPOLYLINE
  5
366
330
1F
100
AcDbEntity
  8
C-4
  6
Continuous
 62
     7
370
     9
100
AcDbPolyline
 90
        4
 70
     1
 43
1.0
 10
418.2217875815739
 20
995.5858748152448
 42
0.4142135623731
 10
417.7217875815739
 20
996.0858748152448
 42
0.4142135623731
 10
417.2217875815739
 20
995.5858748152448
 42
0.4142135623731
 10
417.7217875815739
 20
995.0858748152449
 42
0.4142135623731
  0
LWPOLYLINE
  5
367
330
1F
100
AcDbEntity
  8
C-4
  6
Continuous
 62
     7
370
     9
100
AcDbPolyline
 90
        4
 70
     1
 43
1.0
 10
419.4348002768861
 20
1000.436460752745
 42
0.4142135623731
 10
418.9348002768861
 20
1000.936460752745
 42
0.4142135623731
 10
418.4348002768861
 20
1000.436460752745
 42
0.4142135623731
 10
418.9348002768861
 20
999.936460752745
 42
0.4142135623731
  0
LWPOLYLINE
  5
368
330
1F
100
AcDbEntity
  8
C-4
  6
Continuous
 62
     7
370
     9
100
AcDbPolyline
 90
        4
 70
     1
 43
1.0
 10
160.2793437339175
 20
542.8362105086044
 42
0.4142135623731
 10
159.7793437339175
 20
543.3362105086043
 42
0.4142135623731
 10
159.2793437339175
 20
542.8362105086044
 42
0.4142135623731
 10
159.7793437339175
 20
542.3362105086044
 42
0.4142135623731
  0
LWPOLYLINE
  5
369
330
1F
100
AcDbEntity
  8
C-4
  6
Continuous
 62
     7
370
     9
100
AcDbPolyline
 90
        4
 70
     1
 43
1.0
 10
205.2797709800113
 20
542.8362105086044
 42
0.4142135623731
 10
204.7797709800113
 20
543.3362105086043
 42
0.4142135623731
 10
204.2797709800113
 20
542.8362105086044
 42
0.4142135623731
 10
204.7797709800113
 20
542.3362105086044
 42
0.4142135623731
  0
LWPOLYLINE
  5
36A
330
1F
100
AcDbEntity
  8
C-4
  6
Continuous
 62
     7
370
     9
100
AcDbPolyline
 90
        4
 70
     1
 43
1.0
 10
235.2798930503239
 20
542.8362105086044
 42
0.4142135623731
 10
234.7798930503239
 20
543.3362105086043
 42
0.4142135623731
 10
234.2798930503239
 20
542.8362105086044
 42
0.4142135623731
 10
234.7798930503239
 20
542.3362105086044
 42
0.4142135623731
  0
LWPOLYLINE
  5
36B
330
1F
100
AcDbEntity
  8
C-4
  6
Continuous
 62
     7
370
     9
100
AcDbPolyline
 90
        4
 70
     1
 43
1.0
 10
280.2798930503239
 20
542.8362105086044
 42
0.4142135623731
 10
279.7798930503239
 20
543.3362105086043
 42
0.4142135623731
 10
279.2798930503239
 20
542.8362105086044
 42
0.4142135623731
 10
279.7798930503239
 20
542.3362105086044
 42
0.4142135623731
  0
LWPOLYLINE
  5
36C
330
1F
100
AcDbEntity
  8
C-4
  6
Continuous
 62
     7
370
     9
100
AcDbPolyline
 90
        4
 70
     1
 43
1.0
 10
310.2795268393861
 20
542.8362105086044
 42
0.4142135623731
 10
309.7795268393861
 20
543.3362105086043
 42
0.4142135623731
 10
309.2795268393861
 20
542.8362105086044
 42
0.4142135623731
 10
309.7795268393861
 20
542.3362105086044
 42
0.4142135623731
  0
LWPOLYLINE
  5
36D
330
1F
100
AcDbEntity
  8
C-4
  6
Continuous
 62
     7
370
     9
100
AcDbPolyline
 90
        4
 70
     1
 43
1.0
 10
355.2798930503239
 20
542.8362105086044
 42
0.4142135623731
 10
354.7798930503239
 20
543.3362105086043
 42
0.4142135623731
 10
354.2798930503239
 20
542.8362105086044
 42
0.4142135623731
 10
354.7798930503239
 20
542.3362105086044
 42
0.4142135623731
  0
LWPOLYLINE
  5
36E
330
1F
100
AcDbEntity
  8
C-4
  6
Continuous
 62
     7
370
     9
100
AcDbPolyline
 90
        4
 70
     1
 43
1.0
 10
160.2793437339175
 20
596.7853071882919
 42
0.4142135623731
 10
159.7793437339175
 20
597.2853071882919
 42
0.4142135623731
 10
159.2793437339175
 20
596.7853071882919
 42
0.4142135623731
 10
159.7793437339175
 20
596.285307188292
 42
0.4142135623731
  0
LWPOLYLINE
  5
36F
330
1F
100
AcDbEntity
  8
C-4
  6
Continuous
 62
     7
370
     9
100
AcDbPolyline
 90
        4
 70
     1
 43
1.0
 10
235.2798930503239
 20
596.7853071882919
 42
0.4142135623731
 10
234.7798930503239
 20
597.2853071882919
 42
0.4142135623731
 10
234.2798930503239
 20
596.7853071882919
 42
0.4142135623731
 10
234.7798930503239
 20
596.285307188292
 42
0.4142135623731
  0
LWPOLYLINE
  5
370
330
1F
100
AcDbEntity
  8
C-4
  6
Continuous
 62
     7
370
     9
100
AcDbPolyline
 90
        4
 70
     1
 43
1.0
 10
310.2795268393861
 20
596.7853071882919
 42
0.4142135623731
 10
309.7795268393861
 20
597.2853071882919
 42
0.4142135623731
 10
309.2795268393861
 20
596.7853071882919
 42
0.4142135623731
 10
309.7795268393861
 20
596.285307188292
 42
0.4142135623731
  0
LWPOLYLINE
  5
371
330
1F
100
AcDbEntity
  8
C-4
  6
Continuous
 62
     7
370
     9
100
AcDbPolyline
 90
        4
 70
     1
 43
1.0
 10
448.032700667511
 20
384.4719832136826
 42
0.4142135623731
 10
447.532700667511
 20
384.9719832136826
 42
0.4142135623731
 10
447.032700667511
 20
384.4719832136826
 42
0.4142135623731
 10
447.532700667511
 20
383.9719832136826
 42
0.4142135623731
  0
LWPOLYLINE
  5
372
330
1F
100
AcDbEntity
  8
C-4
  6
Continuous
 62
     7
370
     9
100
AcDbPolyline
 90
        4
 70
     1
 43
1.0
 10
448.032700667511
 20
484.4724562361435
 42
0.4142135623731
 10
447.532700667511
 20
484.9724562361434
 42
0.4142135623731
 10
447.032700667511
 20
484.4724562361435
 42
0.4142135623731
 10
447.532700667511
 20
483.9724562361436
 42
0.4142135623731
  0
TEXT
  5
373
330
1F
100
AcDbEntity
  8
C-5
  6
Continuous
 62
     7
370
     9
100
AcDbText
 10
75.55809129251145
 20
746.5733516218856
 30
0.0
 40
22.86
  1
メインバー表面　Ｓ＝１：１
 41
1.153846153846154
  7
ＭＳ ゴシック
100
AcDbText
  0
TEXT
  5
374
330
1F
100
AcDbEntity
  8
C-5
  6
Continuous
 62
     7
370
     9
100
AcDbText
 10
382.8119975425113
 20
1129.56318926837
 30
0.0
 40
22.86
  1
デルタパターン
 41
1.142857142857143
  7
ＭＳ ゴシック
100
AcDbText
  0
TEXT
  5
375
330
1F
100
AcDbEntity
  8
C-4
  6
Continuous
 62
     2
370
     9
100
AcDbText
 10
147.0833134604802
 20
800.0163555257441
 30
0.0
 40
30.48
  1
1.5
 50
90.00000250447796
 41
1.083333333333334
  7
ＭＳ ゴシック
100
AcDbText
  0
TEXT
  5
376
330
1F
100
AcDbEntity
  8
C-4
  6
Continuous
 62
     2
370
     9
100
AcDbText
 10
147.0833134604802
 20
909.3004131429316
 30
0.0
 40
30.48
  1
10
 50
90.00000250447789
 41
1.062500000000001
  7
ＭＳ ゴシック
100
AcDbText
  0
TEXT
  5
377
330
1F
100
AcDbEntity
  8
C-4
  6
Continuous
 62
     2
370
     9
100
AcDbText
 10
147.0833134604802
 20
975.5509014241816
 30
0.0
 40
30.48
  1
5.5
 50
90.00000250447796
 41
1.083333333333334
  7
ＭＳ ゴシック
100
AcDbText
  0
TEXT
  5
378
330
1F
100
AcDbEntity
  8
C-4
  6
Continuous
 62
     2
370
     9
100
AcDbText
 10
147.0833134604802
 20
1064.300413142932
 30
0.0
 40
30.48
  1
10
 50
90.00000250447789
 41
1.062500000000001
  7
ＭＳ ゴシック
100
AcDbText
  0
TEXT
  5
379
330
1F
100
AcDbEntity
  8
C-4
  6
Continuous
 62
     2
370
     9
100
AcDbText
 10
147.0833134604802
 20
1154.633298885119
 30
0.0
 40
30.48
  1
1.5
 50
90.00000250447796
 41
1.083333333333334
  7
ＭＳ ゴシック
100
AcDbText
  0
TEXT
  5
37A
330
1F
100
AcDbEntity
  8
C-4
  6
Continuous
 62
     2
370
     9
100
AcDbText
 10
287.8639994956364
 20
1277.080489073058
 30
0.0
 40
30.48
  1
9
 41
0.9999999999999998
  7
ＭＳ ゴシック
100
AcDbText
  0
TEXT
  5
37B
330
1F
100
AcDbEntity
  8
C-4
  6
Continuous
 62
     2
370
     9
100
AcDbText
 10
410.1851219794154
 20
1008.964768369455
 30
0.0
 40
30.48
  1
0.5
 50
75.96369055253565
 41
1.083333333333338
  7
ＭＳ ゴシック
100
AcDbText
  0
TEXT
  5
37C
330
1F
100
AcDbEntity
  8
C-5
  6
Continuous
 62
     2
370
     9
100
AcDbText
 10
76.56138719094884
 20
288.4759759047225
 30
0.0
 40
30.48
  1
Ａ断面図　Ｓ＝１：２
 41
1.1125
  7
ＭＳ ゴシック
100
AcDbText
  0
TEXT
  5
37D
330
1F
100
AcDbEntity
  8
C-4
  6
Continuous
 62
     2
370
     9
100
AcDbText
 10
172.2795268393861
 20
553.4764546492296
 30
0.0
 40
30.48
  1
9
 41
0.9999999999999998
  7
ＭＳ ゴシック
100
AcDbText
  0
TEXT
  5
37E
330
1F
100
AcDbEntity
  8
C-4
  6
Continuous
 62
     2
370
     9
100
AcDbText
 10
209.7795268393861
 20
507.6892079451279
 30
0.0
 40
30.48
  1
6
 41
0.9999999999999998
  7
ＭＳ ゴシック
100
AcDbText
  0
TEXT
  5
37F
330
1F
100
AcDbEntity
  8
C-4
  6
Continuous
 62
     2
370
     9
100
AcDbText
 10
247.2795878745427
 20
553.4764546492296
 30
0.0
 40
30.48
  1
9
 41
0.9999999999999998
  7
ＭＳ ゴシック
100
AcDbText
  0
TEXT
  5
380
330
1F
100
AcDbEntity
  8
C-4
  6
Continuous
 62
     2
370
     9
100
AcDbText
 10
284.7796489096987
 20
507.6892079451279
 30
0.0
 40
30.48
  1
6
 41
0.9999999999999998
  7
ＭＳ ゴシック
100
AcDbText
  0
TEXT
  5
381
330
1F
100
AcDbEntity
  8
C-4
  6
Continuous
 62
     2
370
     9
100
AcDbText
 10
322.2796489096987
 20
553.4764546492296
 30
0.0
 40
30.48
  1
9
 41
0.9999999999999998
  7
ＭＳ ゴシック
100
AcDbText
  0
TEXT
  5
382
330
1F
100
AcDbEntity
  8
C-4
  6
Continuous
 62
     2
370
     9
100
AcDbText
 10
176.0292216636049
 20
607.4255818464952
 30
0.0
 40
30.48
  1
15
 41
1.0625
  7
ＭＳ ゴシック
100
AcDbText
  0
TEXT
  5
383
330
1F
100
AcDbEntity
  8
C-4
  6
Continuous
 62
     2
370
     9
100
AcDbText
 10
251.0292826987614
 20
607.4255818464952
 30
0.0
 40
30.48
  1
15
 41
1.0625
  7
ＭＳ ゴシック
100
AcDbText
  0
TEXT
  5
384
330
1F
100
AcDbEntity
  8
C-4
  6
Continuous
 62
     2
370
     9
100
AcDbText
 10
436.8929448081362
 20
413.2220592610957
 30
0.0
 40
30.48
  1
20
 50
90.00000250447789
 41
1.062500000000001
  7
ＭＳ ゴシック
100
AcDbText
  0
TEXT
  5
385
330
1F
100
AcDbEntity
  8
C-5
  6
Continuous
 62
     7
370
     9
100
AcDbText
 10
-84.3634785317073
 20
688.7357661726671
 30
0.0
 40
22.86
  1
※デルタパターンの配列は一定ではありません。
 41
1.159090909090909
  7
ＭＳ ゴシック
100
AcDbText
  0
TEXT
  5
386
330
1F
100
AcDbEntity
  8
D-5
  6
Continuous
 62
     2
370
     9
100
AcDbText
 10
511.8939377677671
 20
-835.5105135215953
 30
0.0
 40
30.48
  1
材質：冷間圧延ステンレス鋼板（ＳＵＳ３０４－２Ｂ）
 41
1.12
  7
ＭＳ ゴシック
100
AcDbText
  0
LINE
  5
387
330
1F
100
AcDbEntity
  8
D-5
  6
Continuous
 62
     2
370
     9
100
AcDbLine
 10
575.0924851310483
 20
-315.9679671444133
 30
0.0
 11
350.092637718939
 21
-315.9679671444133
 31
0.0
  0
LINE
  5
388
330
1F
100
AcDbEntity
  8
D-5
  6
Continuous
 62
     2
370
     9
100
AcDbLine
 10
575.0924851310483
 20
-265.9677370704844
 30
0.0
 11
575.0924851310483
 21
-315.9679671444133
 31
0.0
  0
LINE
  5
389
330
1F
100
AcDbEntity
  8
D-5
  6
Continuous
 62
     2
370
     9
100
AcDbLine
 10
350.092637718939
 20
-265.9677370704844
 30
0.0
 11
575.0924851310483
 21
-265.9677370704844
 31
0.0
  0
LINE
  5
38A
330
1F
100
AcDbEntity
  8
D-5
  6
Continuous
 62
     2
370
     9
100
AcDbLine
 10
350.092637718939
 20
-315.9679671444133
 30
0.0
 11
350.092637718939
 21
-265.9677370704844
 31
0.0
  0
TEXT
  5
38B
330
1F
100
AcDbEntity
  8
D-5
  6
Continuous
 62
     2
370
     9
100
AcDbText
 10
397.5927140128843
 20
-305.327696539326
 30
0.0
 40
30.48
  1
仕　様
 41
1.083333333333333
  7
ＭＳ ゴシック
100
AcDbText
  0
TEXT
  5
38C
330
1F
100
AcDbEntity
  8
D-5
  6
Continuous
 62
     2
370
     9
100
AcDbText
 10
511.8949295890562
 20
-498.2478830589488
 30
0.0
 40
30.48
  1
材質：メインバー　ＳＵＳ３０４　＠１５
 41
1.118421052631579
  7
ＭＳ ゴシック
100
AcDbText
  0
TEXT
  5
38D
330
1F
100
AcDbEntity
  8
D-5
  6
Continuous
 62
     2
370
     9
100
AcDbText
 10
511.8949295890562
 20
-563.2479402794078
 30
0.0
 40
30.48
  1
　　　クロスバー　ＳＵＳ３０４　＠１００
 41
1.11875
  7
ＭＳ ゴシック
100
AcDbText
  0
TEXT
  5
38E
330
1F
100
AcDbEntity
  8
D-5
  6
Continuous
 62
     2
370
     9
100
AcDbText
 10
511.8949295890562
 20
-628.2479784263804
 30
0.0
 40
30.48
  1
　　　サイドバー　ＳＵＳ３０４
 41
1.116666666666666
  7
ＭＳ ゴシック
100
AcDbText
  0
TEXT
  5
38F
330
1F
100
AcDbEntity
  8
D-5
  6
Continuous
 62
     2
370
     9
100
AcDbText
 10
452.1820237052671
 20
-770.5109331382945
 30
0.0
 40
30.48
  1
ステンレス製受枠　ＳＦ２０Ｂ（四方枠）
 41
1.118421052631579
  7
ＭＳ ゴシック
100
AcDbText
  0
TEXT
  5
390
330
1F
100
AcDbEntity
  8
D-5
  6
Continuous
 62
     2
370
     9
100
AcDbText
 10
452.1830159062321
 20
-433.2478258384897
 30
0.0
 40
30.48
  1
グレーチング（すきま6mm）ＤＱ－Ｗ－２０　３５０×３５０×２０
 50
359.999996142952
 41
1.120901639344262
  7
ＭＳ ゴシック
100
AcDbText
  0
TEXT
  5
391
330
1F
100
AcDbEntity
  8
F-4ﾚｲﾔ
  6
Continuous
 62
     2
370
     9
100
AcDbText
 10
-767.3313624353843
 20
-1371.63542092299
 30
0.0
 40
30.48
  1
グレーチング（すきま6mm）ＤＱ－Ｗ－２０　３５０×３５０×２０＋ＳＦ２０Ｂ（四方枠）
 41
0.7
  7
ＭＳ ゴシック
100
AcDbText
  0
LINE
  5
392
330
1F
100
AcDbEntity
  8
D-9
  6
Continuous
 62
     4
370
     9
100
AcDbLine
 10
-655.4599038086895
 20
-439.8425968803599
 30
0.0
 11
-659.0847534261708
 21
-443.4674461998179
 31
0.0
  0
LINE
  5
393
330
1F
100
AcDbEntity
  8
D-9
  6
Continuous
 62
     4
370
     9
100
AcDbLine
 10
-770.4601851426129
 20
-430.9672650016978
 30
0.0
 11
-655.4599038086895
 21
-430.9672650016978
 31
0.0
  0
LINE
  5
394
330
1F
100
AcDbEntity
  8
D-9
  6
Continuous
 62
     4
370
     9
100
AcDbLine
 10
-655.4599038086895
 20
-432.7717598594859
 30
0.0
 11
-666.1560836754803
 21
-443.4674461998179
 31
0.0
  0
LINE
  5
395
330
1F
100
AcDbEntity
  8
D-9
  6
Continuous
 62
     4
370
     9
100
AcDbLine
 10
-660.7267369277839
 20
-430.9672650016978
 30
0.0
 11
-673.2274142228131
 21
-443.4674461998179
 31
0.0
  0
LINE
  5
396
330
1F
100
AcDbEntity
  8
D-9
  6
Continuous
 62
     4
370
     9
100
AcDbLine
 10
-667.7980670653347
 20
-430.9672650016978
 30
0.0
 11
-680.2987447701458
 21
-443.4674461998179
 31
0.0
  0
LINE
  5
397
330
1F
100
AcDbEntity
  8
D-9
  6
Continuous
 62
     4
370
     9
100
AcDbLine
 10
-674.869398208714
 20
-430.9672650016978
 30
0.0
 11
-687.3690834961895
 21
-443.4674461998179
 31
0.0
  0
LINE
  5
398
330
1F
100
AcDbEntity
  8
D-9
  6
Continuous
 62
     4
370
     9
100
AcDbLine
 10
-681.9397369347577
 20
-430.9672650016978
 30
0.0
 11
-694.4404140435223
 21
-443.4674461998179
 31
0.0
  0
LINE
  5
399
330
1F
100
AcDbEntity
  8
D-9
  6
Continuous
 62
     4
370
     9
100
AcDbLine
 10
-689.0110674820904
 20
-430.9672650016978
 30
0.0
 11
-701.5117445908551
 21
-443.4674461998179
 31
0.0
  0
LINE
  5
39A
330
1F
100
AcDbEntity
  8
D-9
  6
Continuous
 62
     4
370
     9
100
AcDbLine
 10
-696.0823980294232
 20
-430.9672650016978
 30
0.0
 11
-707.5673619233136
 21
-442.4517353691294
 31
0.0
  0
LINE
  5
39B
330
1F
100
AcDbEntity
  8
D-9
  6
Continuous
 62
     4
370
     9
100
AcDbLine
 10
-703.153728576756
 20
-430.9672650016978
 30
0.0
 11
-712.980856033421
 21
-440.7943924583628
 31
0.0
  0
LINE
  5
39C
330
1F
100
AcDbEntity
  8
D-9
  6
Continuous
 62
     4
370
     9
100
AcDbLine
 10
-710.2240696869854
 20
-430.9672650016978
 30
0.0
 11
-718.1971493683819
 21
-438.9403446830943
 31
0.0
  0
LINE
  5
39D
330
1F
100
AcDbEntity
  8
D-9
  6
Continuous
 62
     4
370
     9
100
AcDbLine
 10
-717.2953978501324
 20
-430.9672650016978
 30
0.0
 11
-723.4134474717144
 21
-437.0858009971812
 31
0.0
  0
LINE
  5
39E
330
1F
100
AcDbEntity
  8
D-9
  6
Continuous
 62
     4
370
     9
100
AcDbLine
 10
-724.3667260132794
 20
-430.9672650016978
 30
0.0
 11
-729.3669978104596
 21
-435.9675320305064
 31
0.0
  0
LINE
  5
39F
330
1F
100
AcDbEntity
  8
D-9
  6
Continuous
 62
     4
370
     9
100
AcDbLine
 10
-731.438058944798
 20
-430.9672650016978
 30
0.0
 11
-736.4373389206891
 21
-435.9675320305064
 31
0.0
  0
LINE
  5
3A0
330
1F
100
AcDbEntity
  8
D-9
  6
Continuous
 62
     4
370
     9
100
AcDbLine
 10
-766.7937174759869
 20
-430.9672650016978
 30
0.0
 11
-771.7930022202496
 21
-435.9675320305064
 31
0.0
  0
LINE
  5
3A1
330
1F
100
AcDbEntity
  8
D-A
  6
JWW_DASHED3
 62
     3
370
     9
100
AcDbLine
 10
-635.4598108254437
 20
-413.4673031486705
 30
0.0
 11
-635.4598108254437
 21
-363.4670718826487
 31
0.0
  0
LINE
  5
3A2
330
1F
100
AcDbEntity
  8
D-A
  6
Continuous
 62
     3
370
     9
100
AcDbLine
 10
-610.4594460450177
 20
-388.4674366630747
 30
0.0
 11
-610.4594460450177
 21
-372.96768747942
 31
0.0
  0
LINE
  5
3A3
330
1F
100
AcDbEntity
  8
D-A
  6
Continuous
 62
     3
370
     9
100
AcDbLine
 10
-635.4598108254437
 20
-363.4670718826487
 30
0.0
 11
-635.4598108254437
 21
-333.4674289144709
 31
0.0
  0
LINE
  5
3A4
330
1F
100
AcDbEntity
  8
D-A
  6
Continuous
 62
     3
370
     9
100
AcDbLine
 10
-485.4596034012799
 20
-451.9672115959361
 30
0.0
 11
-610.4594460450177
 21
-451.9672115959361
 31
0.0
  0
LINE
  5
3A5
330
1F
100
AcDbEntity
  8
D-A
  6
Continuous
 62
     3
370
     9
100
AcDbLine
 10
-613.3896485291485
 20
-435.5379589714244
 30
0.0
 11
-635.4598108254437
 21
-413.4673031486705
 31
0.0
  0
LINE
  5
3A6
330
1F
100
AcDbEntity
  8
D-A
  6
Continuous
 62
     3
370
     9
100
AcDbLine
 10
-610.4594460450177
 20
-463.4670361198619
 30
0.0
 11
-610.4594460450177
 21
-442.6092919029429
 31
0.0
  0
LINE
  5
3A7
330
1F
100
AcDbEntity
  8
D-A
  6
Continuous
 62
     3
370
     9
100
AcDbLine
 10
-485.4596034012799
 20
-463.4670361198619
 30
0.0
 11
-610.4594460450177
 21
-463.4670361198619
 31
0.0
  0
LINE
  5
3A8
330
1F
100
AcDbEntity
  8
D-A
  6
Continuous
 62
     3
370
     9
100
AcDbLine
 10
-635.4598108254437
 20
-445.9670838035777
 30
0.0
 11
-635.4598108254437
 21
-413.4673031486705
 31
0.0
  0
LINE
  5
3A9
330
1F
100
AcDbEntity
  8
D-A
  6
Continuous
 62
     3
370
     9
100
AcDbLine
 10
-635.4598108254437
 20
-445.9670838035777
 30
0.0
 11
-646.959641309834
 21
-445.9670838035777
 31
0.0
  0
LINE
  5
3AA
330
1F
100
AcDbEntity
  8
D-A
  6
Continuous
 62
     3
370
     9
100
AcDbLine
 10
-646.959641309834
 20
-333.4674289144709
 30
0.0
 11
-646.959641309834
 21
-445.9670838035777
 31
0.0
  0
LINE
  5
3AB
330
1F
100
AcDbEntity
  8
D-A
  6
JWW_CENTER2
 62
     3
370
     9
100
AcDbLine
 10
-592.4650135956769
 20
-390.967570177479
 30
0.0
 11
-652.8824749909405
 21
-390.967570177479
 31
0.0
  0
LINE
  5
3AC
330
1F
100
AcDbEntity
  8
D-A
  6
JWW_DASHED3
 62
     3
370
     9
100
AcDbLine
 10
-610.4594460450177
 20
-400.9676178611949
 30
0.0
 11
-646.959641309834
 21
-400.9676178611949
 31
0.0
  0
LINE
  5
3AD
330
1F
100
AcDbEntity
  8
D-A
  6
JWW_DASHED3
 62
     3
370
     9
100
AcDbLine
 10
-610.4594460450177
 20
-408.9674576439097
 30
0.0
 11
-610.4594460450177
 21
-388.4674366630747
 31
0.0
  0
LINE
  5
3AE
330
1F
100
AcDbEntity
  8
D-A
  6
JWW_DASHED3
 62
     3
370
     9
100
AcDbLine
 10
-610.4594460450177
 20
-399.7180470146372
 30
0.0
 11
-646.959641309834
 21
-399.7180470146372
 31
0.0
  0
LINE
  5
3AF
330
1F
100
AcDbEntity
  8
D-A
  6
Continuous
 62
     3
370
     9
100
AcDbLine
 10
-649.2100611649518
 20
-380.9675272621348
 30
0.0
 11
-650.4596332036023
 21
-382.217594019337
 31
0.0
  0
LINE
  5
3B0
330
1F
100
AcDbEntity
  8
D-A
  6
Continuous
 62
     3
370
     9
100
AcDbLine
 10
-649.2100611649518
 20
-400.9676178611949
 30
0.0
 11
-650.4596332036023
 21
-399.7180470146372
 31
0.0
  0
LINE
  5
3B1
330
1F
100
AcDbEntity
  8
D-A
  6
Continuous
 62
     3
370
     9
100
AcDbLine
 10
-649.2100611649518
 20
-380.9675272621348
 30
0.0
 11
-649.2100611649518
 21
-400.9676178611949
 31
0.0
  0
LINE
  5
3B2
330
1F
100
AcDbEntity
  8
D-A
  6
Continuous
 62
     3
370
     9
100
AcDbLine
 10
-646.959641309834
 20
-382.217594019337
 30
0.0
 11
-650.4596332036023
 21
-382.217594019337
 31
0.0
  0
LINE
  5
3B3
330
1F
100
AcDbEntity
  8
D-A
  6
Continuous
 62
     3
370
     9
100
AcDbLine
 10
-646.959641309834
 20
-380.9675272621348
 30
0.0
 11
-649.2100611649518
 21
-380.9675272621348
 31
0.0
  0
LINE
  5
3B4
330
1F
100
AcDbEntity
  8
D-A
  6
Continuous
 62
     3
370
     9
100
AcDbLine
 10
-646.959641309834
 20
-399.7180470146372
 30
0.0
 11
-650.4596332036023
 21
-399.7180470146372
 31
0.0
  0
LINE
  5
3B5
330
1F
100
AcDbEntity
  8
D-A
  6
Continuous
 62
     3
370
     9
100
AcDbLine
 10
-646.959641309834
 20
-400.9676178611949
 30
0.0
 11
-649.2100611649518
 21
-400.9676178611949
 31
0.0
  0
LINE
  5
3B6
330
1F
100
AcDbEntity
  8
D-A
  6
Continuous
 62
     3
370
     9
100
AcDbLine
 10
-603.9598885499005
 20
-372.96768747942
 30
0.0
 11
-610.4594460450177
 21
-372.96768747942
 31
0.0
  0
LINE
  5
3B7
330
1F
100
AcDbEntity
  8
D-A
  6
JWW_DASHED3
 62
     3
370
     9
100
AcDbLine
 10
-603.9598885499005
 20
-408.9674576439097
 30
0.0
 11
-610.4594460450177
 21
-408.9674576439097
 31
0.0
  0
LINE
  5
3B8
330
1F
100
AcDbEntity
  8
D-A
  6
JWW_DASHED3
 62
     3
370
     9
100
AcDbLine
 10
-597.4603310547833
 20
-402.4673994697764
 30
0.0
 11
-597.4603310547833
 21
-401.4680393852427
 31
0.0
  0
LINE
  5
3B9
330
1F
100
AcDbEntity
  8
D-A
  6
Continuous
 62
     3
370
     9
100
AcDbLine
 10
-597.4603310547833
 20
-379.4667490638926
 30
0.0
 11
-597.4603310547833
 21
-401.4680393852427
 31
0.0
  0
LINE
  5
3BA
330
1F
100
AcDbEntity
  8
D-A
  6
Continuous
 62
     3
370
     9
100
AcDbLine
 10
-610.4594460450177
 20
-380.9675272621348
 30
0.0
 11
-617.9598561249737
 21
-380.9675272621348
 31
0.0
  0
LINE
  5
3BB
330
1F
100
AcDbEntity
  8
D-A
  6
Continuous
 62
     3
370
     9
100
AcDbLine
 10
-610.4594460450177
 20
-382.217594019337
 30
0.0
 11
-616.7102805100445
 21
-382.217594019337
 31
0.0
  0
LINE
  5
3BC
330
1F
100
AcDbEntity
  8
D-A
  6
JWW_DASHED3
 62
     3
370
     9
100
AcDbLine
 10
-617.9598561249737
 20
-380.9675272621348
 30
0.0
 11
-646.959641309834
 21
-380.9675272621348
 31
0.0
  0
LINE
  5
3BD
330
1F
100
AcDbEntity
  8
D-A
  6
JWW_DASHED3
 62
     3
370
     9
100
AcDbLine
 10
-646.959641309834
 20
-382.217594019337
 30
0.0
 11
-616.7102805100445
 21
-382.217594019337
 31
0.0
  0
LINE
  5
3BE
330
1F
100
AcDbEntity
  8
D-A
  6
Continuous
 62
     3
370
     9
100
AcDbLine
 10
-594.2477074585919
 20
-404.6801670707896
 30
0.0
 11
-635.4598108254437
 21
-363.4670718826487
 31
0.0
  0
LINE
  5
3BF
330
1F
100
AcDbEntity
  8
D-A
  6
Continuous
 62
     3
370
     9
100
AcDbLine
 10
-573.033722969151
 20
-413.4673031486705
 30
0.0
 11
-495.4601565323834
 21
-413.4673031486705
 31
0.0
  0
LINE
  5
3C0
330
1F
100
AcDbEntity
  8
D-4
  6
Continuous
 62
     7
370
     9
100
AcDbLine
 10
-1358.127793403721
 20
-207.548495165272
 30
0.0
 11
-785.4600134812359
 21
-207.548495165272
 31
0.0
  0
LINE
  5
3C1
330
1F
100
AcDbEntity
  8
D-4
  6
Continuous
 62
     7
370
     9
100
AcDbLine
 10
-785.4600134812359
 20
-313.0115052379801
 30
0.0
 11
-785.4600134812359
 21
-204.5474442161753
 31
0.0
  0
LINE
  5
3C2
330
1F
100
AcDbEntity
  8
D-4
  6
Continuous
 62
     7
370
     9
100
AcDbLine
 10
-785.4600134812359
 20
-207.548495165272
 30
0.0
 11
-660.4591837845807
 21
-207.548495165272
 31
0.0
  0
LINE
  5
3C3
330
1F
100
AcDbEntity
  8
D-4
  6
Continuous
 62
     7
370
     9
100
AcDbLine
 10
-660.4591837845807
 20
-313.0115052379801
 30
0.0
 11
-660.4591837845807
 21
-95.79650961534526
 31
0.0
  0
LINE
  5
3C4
330
1F
100
AcDbEntity
  8
D-4
  6
Continuous
 62
     7
370
     9
100
AcDbLine
 10
-655.4589131794934
 20
-313.0115052379801
 30
0.0
 11
-655.4589131794934
 21
-95.79650961534526
 31
0.0
  0
LINE
  5
3C5
330
1F
100
AcDbEntity
  8
D-4
  6
Continuous
 62
     7
370
     9
100
AcDbLine
 10
-630.4605308495526
 20
-313.0115052379801
 30
0.0
 11
-630.4605308495526
 21
14.90013039930318
 31
0.0
  0
LINE
  5
3C6
330
1F
100
AcDbEntity
  8
D-5
  6
Continuous
 62
     7
370
     9
100
AcDbLine
 10
-494.0292445145611
 20
-220.4187973655894
 30
0.0
 11
-234.6478739701276
 21
-220.4187973655894
 31
0.0
  0
LINE
  5
3C7
330
1F
100
AcDbEntity
  8
D-4
  6
Continuous
 62
     7
370
     9
100
AcDbLine
 10
-785.4590216599469
 20
-888.5510262169078
 30
0.0
 11
-385.4581538163189
 21
-888.5510262169078
 31
0.0
  0
LINE
  5
3C8
330
1F
100
AcDbEntity
  8
D-4
  6
Continuous
 62
     7
370
     9
100
AcDbLine
 10
-385.4581538163189
 20
-648.3408173240855
 30
0.0
 11
-385.4581538163189
 21
-891.5500649131968
 31
0.0
  0
LINE
  5
3C9
330
1F
100
AcDbEntity
  8
D-4
  6
Continuous
 62
     7
370
     9
100
AcDbLine
 10
-785.4590216599469
 20
-734.0861519493296
 30
0.0
 11
-635.4598108254437
 21
-734.0861519493296
 31
0.0
  0
LINE
  5
3CA
330
1F
100
AcDbEntity
  8
D-4
  6
Continuous
 62
     7
370
     9
100
AcDbLine
 10
-113.7743082962994
 20
-578.4678276695445
 30
0.0
 11
-113.7743082962994
 21
-328.4676536239817
 31
0.0
  0
LINE
  5
3CB
330
1F
100
AcDbEntity
  8
D-4
  6
Continuous
 62
     7
370
     9
100
AcDbLine
 10
-209.4294825516705
 20
-328.4676536239817
 30
0.0
 11
-110.7737437211041
 21
-328.4676536239817
 31
0.0
  0
LINE
  5
3CC
330
1F
100
AcDbEntity
  8
D-6
  6
Continuous
 62
     6
370
     5
100
AcDbLine
 10
-635.4598108254437
 20
-578.4678276695445
 30
0.0
 11
-635.4598108254437
 21
-828.4674843467906
 31
0.0
  0
LINE
  5
3CD
330
1F
100
AcDbEntity
  8
D-6
  6
JWW_DASHED3
 62
     6
370
     5
100
AcDbLine
 10
-541.9579211197857
 20
-705.9672936119273
 30
0.0
 11
-541.9579211197857
 21
-578.4678276695445
 31
0.0
  0
LINE
  5
3CE
330
1F
100
AcDbEntity
  8
D-6
  6
JWW_DASHED3
 62
     6
370
     5
100
AcDbLine
 10
-496.9584551774029
 20
-578.4678276695445
 30
0.0
 11
-496.9584551774029
 21
-705.9672936119273
 31
0.0
  0
LINE
  5
3CF
330
1F
100
AcDbEntity
  8
D-6
  6
Continuous
 62
     6
370
     5
100
AcDbLine
 10
-385.4601374588971
 20
-478.467856279774
 30
0.0
 11
-220.4596415482526
 21
-478.467856279774
 31
0.0
  0
LINE
  5
3D0
330
1F
100
AcDbEntity
  8
D-6
  6
Continuous
 62
     6
370
     5
100
AcDbLine
 10
-385.4601374588971
 20
-478.467856279774
 30
0.0
 11
-385.4601374588971
 21
-578.4678276695445
 31
0.0
  0
LINE
  5
3D1
330
1F
100
AcDbEntity
  8
D-4
  6
Continuous
 62
     7
370
     9
100
AcDbLine
 10
-329.6802607499127
 20
-578.4678276695445
 30
0.0
 11
-110.7737437211041
 21
-578.4678276695445
 31
0.0
  0
LINE
  5
3D2
330
1F
100
AcDbEntity
  8
D-6
  6
Continuous
 62
     6
370
     5
100
AcDbLine
 10
-635.4598108254437
 20
-578.4678276695445
 30
0.0
 11
-385.4601374588971
 21
-578.4678276695445
 31
0.0
  0
LINE
  5
3D3
330
1F
100
AcDbEntity
  8
D-6
  6
Continuous
 62
     6
370
     5
100
AcDbLine
 10
-541.9579211197857
 20
-380.9680184044078
 30
0.0
 11
-496.9584551774029
 21
-380.9680184044078
 31
0.0
  0
LINE
  5
3D4
330
1F
100
AcDbEntity
  8
D-6
  6
JWW_CENTER2
 62
     6
370
     5
100
AcDbLine
 10
-519.4586840592389
 20
-376.8878372825816
 30
0.0
 11
-519.4586840592389
 21
-705.9672936119273
 31
0.0
  0
LINE
  5
3D5
330
1F
100
AcDbEntity
  8
D-4
  6
Continuous
 62
     7
370
     9
100
AcDbLine
 10
-630.4595414124493
 20
-466.4353951133921
 30
0.0
 11
-630.4595414124493
 21
-521.9982536949351
 31
0.0
  0
LINE
  5
3D6
330
1F
100
AcDbEntity
  8
D-4
  6
Continuous
 62
     7
370
     9
100
AcDbLine
 10
-473.6327639542584
 20
-463.4675320305064
 30
0.0
 11
-394.4093028031353
 21
-463.4675320305064
 31
0.0
  0
LINE
  5
3D7
330
1F
100
AcDbEntity
  8
D-4
  6
Continuous
 62
     7
370
     9
100
AcDbLine
 10
-473.6327639542584
 20
-413.467799059315
 30
0.0
 11
-394.4093028031353
 21
-413.467799059315
 31
0.0
  0
LINE
  5
3D8
330
1F
100
AcDbEntity
  8
D-4
  6
Continuous
 62
     7
370
     9
100
AcDbLine
 10
-397.4088564835553
 20
-413.467799059315
 30
0.0
 11
-397.4088564835553
 21
-328.4676536239817
 31
0.0
  0
LINE
  5
3D9
330
1F
100
AcDbEntity
  8
D-6
  6
Continuous
 62
     6
370
     5
100
AcDbLine
 10
-541.9579211197857
 20
-413.4673031486705
 30
0.0
 11
-541.9579211197857
 21
-380.9680184044078
 31
0.0
  0
LINE
  5
3DA
330
1F
100
AcDbEntity
  8
D-6
  6
Continuous
 62
     6
370
     5
100
AcDbLine
 10
-496.9584551774029
 20
-413.4673031486705
 30
0.0
 11
-496.9584551774029
 21
-380.9680184044078
 31
0.0
  0
LINE
  5
3DB
330
1F
100
AcDbEntity
  8
D-6
  6
Continuous
 62
     6
370
     5
100
AcDbLine
 10
-541.9579211197857
 20
-578.4678276695445
 30
0.0
 11
-541.9579211197857
 21
-463.4670361198619
 31
0.0
  0
LINE
  5
3DC
330
1F
100
AcDbEntity
  8
D-6
  6
Continuous
 62
     6
370
     5
100
AcDbLine
 10
-496.9584551774029
 20
-578.4678276695445
 30
0.0
 11
-496.9584551774029
 21
-463.4670361198619
 31
0.0
  0
LINE
  5
3DD
330
1F
100
AcDbEntity
  8
D-4
  6
Continuous
 62
     7
370
     9
100
AcDbLine
 10
-930.9425250016217
 20
-453.4674938835337
 30
0.0
 11
-930.9425250016217
 21
-328.4676536239817
 31
0.0
  0
LINE
  5
3DE
330
1F
100
AcDbEntity
  8
D-4
  6
Continuous
 62
     7
370
     9
100
AcDbLine
 10
-790.3839770279889
 20
-453.4674938835337
 30
0.0
 11
-933.9420977555279
 21
-453.4674938835337
 31
0.0
  0
LINE
  5
3DF
330
1F
100
AcDbEntity
  8
D-4
  6
Continuous
 62
     7
370
     9
100
AcDbLine
 10
-1358.127793403721
 20
11.89956582410787
 30
0.0
 11
-630.4605308495526
 21
11.89956582410787
 31
0.0
  0
LINE
  5
3E0
330
1F
100
AcDbEntity
  8
D-4
  6
Continuous
 62
     7
370
     9
100
AcDbLine
 10
-667.7396020613675
 20
-328.4676536239817
 30
0.0
 11
-933.9420977555279
 21
-328.4676536239817
 31
0.0
  0
LINE
  5
3E1
330
1F
100
AcDbEntity
  8
D-4
  6
Continuous
 62
     7
370
     9
100
AcDbLine
 10
-1358.127793403721
 20
-98.79608236925151
 30
0.0
 11
-630.4605308495526
 21
-98.79608236925151
 31
0.0
  0
LINE
  5
3E2
330
1F
100
AcDbEntity
  8
D-4
  6
Continuous
 62
     7
370
     9
100
AcDbLine
 10
-630.4595414124493
 20
-518.9981850303843
 30
0.0
 11
-485.4596034012799
 21
-518.9981850303843
 31
0.0
  0
LINE
  5
3E3
330
1F
100
AcDbEntity
  8
D-5
  6
Continuous
 62
     2
370
     9
100
AcDbLine
 10
-1127.454346748448
 20
-1024.409523836537
 30
0.0
 11
-1127.454346748448
 21
-959.4099816002085
 31
0.0
  0
LINE
  5
3E4
330
1F
100
AcDbEntity
  8
D-5
  6
Continuous
 62
     2
370
     9
100
AcDbLine
 10
-1127.454346748448
 20
-959.4099816002085
 30
0.0
 11
-552.4539271317486
 21
-959.4099816002085
 31
0.0
  0
LINE
  5
3E5
330
1F
100
AcDbEntity
  8
D-5
  6
Continuous
 62
     2
370
     9
100
AcDbLine
 10
-552.4539271317486
 20
-959.4099816002085
 30
0.0
 11
-552.4539271317486
 21
-1024.409523836537
 31
0.0
  0
LINE
  5
3E6
330
1F
100
AcDbEntity
  8
D-5
  6
Continuous
 62
     2
370
     9
100
AcDbLine
 10
-552.4539271317486
 20
-1024.409523836537
 30
0.0
 11
-1127.454346748448
 21
-1024.409523836537
 31
0.0
  0
LINE
  5
3E7
330
1F
100
AcDbEntity
  8
D-4
  6
Continuous
 62
     7
370
     9
100
AcDbLine
 10
-397.4088564835553
 20
-463.4675320305064
 30
0.0
 11
-397.4088564835553
 21
-413.467799059315
 31
0.0
  0
LINE
  5
3E8
330
1F
100
AcDbEntity
  8
D-4
  6
Continuous
 62
     7
370
     9
100
AcDbLine
 10
-785.4590216599469
 20
-853.4678658165171
 30
0.0
 11
-785.4590216599469
 21
-891.5500649131968
 31
0.0
  0
LINE
  5
3E9
330
1F
100
AcDbEntity
  8
D-A
  6
Continuous
 62
     3
370
     9
100
AcDbLine
 10
-646.959641309834
 20
-333.4674289144709
 30
0.0
 11
-635.4598108254437
 21
-333.4674289144709
 31
0.0
  0
LINE
  5
3EA
330
1F
100
AcDbEntity
  8
D-5
  6
Continuous
 62
     7
370
     9
100
AcDbLine
 10
-605.2609911881451
 20
-422.1850784935191
 30
0.0
 11
-591.4502945862774
 21
-401.3456591285899
 31
0.0
  0
LINE
  5
3EB
330
1F
100
AcDbEntity
  8
D-5
  6
Continuous
 62
     7
370
     9
100
AcDbLine
 10
-605.2609911881451
 20
-422.1850784935191
 30
0.0
 11
-586.5263262711529
 21
-405.6309708275035
 31
0.0
  0
LINE
  5
3EC
330
1F
100
AcDbEntity
  8
D-5
  6
Continuous
 62
     7
370
     9
100
AcDbLine
 10
-605.259999366856
 20
-422.18408667223
 30
0.0
 11
-479.3514719925885
 21
-277.5215729393199
 31
0.0
  0
LINE
  5
3ED
330
1F
100
AcDbEntity
  8
D-5
  6
Continuous
 62
     7
370
     9
100
AcDbLine
 10
-479.3514719925885
 20
-277.5215729393199
 30
0.0
 11
-92.65049848184631
 21
-277.5215729393199
 31
0.0
  0
LINE
  5
3EE
330
1F
100
AcDbEntity
  8
D-5
  6
Continuous
 62
     7
370
     9
100
AcDbLine
 10
-682.543217273808
 20
-437.0095070518687
 30
0.0
 11
-668.730539413548
 21
-416.1715706505015
 31
0.0
  0
LINE
  5
3EF
330
1F
100
AcDbEntity
  8
D-5
  6
Continuous
 62
     7
370
     9
100
AcDbLine
 10
-682.543217273808
 20
-437.0095070518687
 30
0.0
 11
-663.8095435820584
 21
-420.4553993858531
 31
0.0
  0
LINE
  5
3F0
330
1F
100
AcDbEntity
  8
D-5
  6
Continuous
 62
     7
370
     9
100
AcDbLine
 10
-632.4116865120892
 20
-331.2635839425161
 30
0.0
 11
-618.6009922944073
 21
-310.4251583732798
 31
0.0
  0
LINE
  5
3F1
330
1F
100
AcDbEntity
  8
D-5
  6
Continuous
 62
     7
370
     9
100
AcDbLine
 10
-632.4116865120892
 20
-331.2635839425161
 30
0.0
 11
-613.6770239792828
 21
-314.7094770588114
 31
0.0
  0
LINE
  5
3F2
330
1F
100
AcDbEntity
  8
D-5
  6
Continuous
 62
     7
370
     9
100
AcDbLine
 10
-488.1856814347271
 20
-165.5560310997203
 30
0.0
 11
-632.4116865120892
 21
-331.2635839425161
 31
0.0
  0
LINE
  5
3F3
330
1F
100
AcDbEntity
  8
D-5
  6
Continuous
 62
     7
370
     9
100
AcDbLine
 10
-488.1856814347271
 20
-165.5560310997203
 30
0.0
 11
-39.39751538858459
 21
-165.5560310997203
 31
0.0
  0
LINE
  5
3F4
330
1F
100
AcDbEntity
  8
D-6
  6
Continuous
 62
     6
370
     5
100
AcDbLine
 10
-633.4600988350873
 20
-328.4676536239817
 30
0.0
 11
-220.4596415482526
 21
-328.4676536239817
 31
0.0
  0
LINE
  5
3F5
330
1F
100
AcDbEntity
  8
D-6
  6
Continuous
 62
     6
370
     5
100
AcDbLine
 10
-785.4590216599469
 20
-448.467217317982
 30
0.0
 11
-785.4590216599469
 21
-828.4674843467906
 31
0.0
  0
LINE
  5
3F6
330
1F
100
AcDbEntity
  8
D-A
  6
Continuous
 62
     3
370
     9
100
AcDbLine
 10
-485.4596034012799
 20
-423.4673508323863
 30
0.0
 11
-485.4596034012799
 21
-463.4670361198619
 31
0.0
  0
LINE
  5
3F7
330
1F
100
AcDbEntity
  8
D-1
  6
Continuous
 62
     2
370
     9
100
AcDbLine
 10
-635.4608026467328
 20
-333.4674289144709
 30
0.0
 11
-650.4606238327984
 21
-333.4674289144709
 31
0.0
  0
LINE
  5
3F8
330
1F
100
AcDbEntity
  8
D-1
  6
Continuous
 62
     2
370
     9
100
AcDbLine
 10
-630.4605308495526
 20
-425.9674843467906
 30
0.0
 11
-635.4608026467328
 21
-425.9674843467906
 31
0.0
  0
LINE
  5
3F9
330
1F
100
AcDbEntity
  8
D-1
  6
Continuous
 62
     2
370
     9
100
AcDbLine
 10
-635.4608026467328
 20
-448.467217317982
 30
0.0
 11
-635.4608026467328
 21
-425.9674843467906
 31
0.0
  0
LINE
  5
3FA
330
1F
100
AcDbEntity
  8
D-1
  6
Continuous
 62
     2
370
     9
100
AcDbLine
 10
-630.4605308495526
 20
-355.9671624817088
 30
0.0
 11
-635.4608026467328
 21
-355.9671624817088
 31
0.0
  0
LINE
  5
3FB
330
1F
100
AcDbEntity
  8
D-1
  6
Continuous
 62
     2
370
     9
100
AcDbLine
 10
-635.4608026467328
 20
-355.9671624817088
 30
0.0
 11
-635.4608026467328
 21
-333.4674289144709
 31
0.0
  0
LINE
  5
3FC
330
1F
100
AcDbEntity
  8
D-1
  6
Continuous
 62
     2
370
     9
100
AcDbLine
 10
-630.4605308495526
 20
-331.4672216095164
 30
0.0
 11
-630.4605308495526
 21
-355.9671624817088
 31
0.0
  0
LINE
  5
3FD
330
1F
100
AcDbEntity
  8
D-1
  6
Continuous
 62
     2
370
     9
100
AcDbLine
 10
-630.4605308495526
 20
-450.467425218983
 30
0.0
 11
-630.4605308495526
 21
-425.9674843467906
 31
0.0
  0
LINE
  5
3FE
330
1F
100
AcDbEntity
  8
D-1
  6
Continuous
 62
     2
370
     9
100
AcDbLine
 10
-655.4608947359089
 20
-443.4674461998179
 30
0.0
 11
-705.46062860117
 21
-443.4674461998179
 31
0.0
  0
LINE
  5
3FF
330
1F
100
AcDbEntity
  8
D-1
  6
Continuous
 62
     2
370
     9
100
AcDbLine
 10
-650.4606238327984
 20
-443.4674461998179
 30
0.0
 11
-650.4606238327984
 21
-333.4674289144709
 31
0.0
  0
LINE
  5
400
330
1F
100
AcDbEntity
  8
D-1
  6
Continuous
 62
     2
370
     9
100
AcDbLine
 10
-655.4608947359089
 20
-443.4674461998179
 30
0.0
 11
-655.4608947359089
 21
-331.4672216095164
 31
0.0
  0
LINE
  5
401
330
1F
100
AcDbEntity
  8
D-1
  6
Continuous
 62
     2
370
     9
100
AcDbLine
 10
-725.7480946503644
 20
-436.2563904442027
 30
0.0
 11
-705.46062860117
 21
-443.4674461998179
 31
0.0
  0
LINE
  5
402
330
1F
100
AcDbEntity
  8
D-1
  6
Continuous
 62
     2
370
     9
100
AcDbLine
 10
-706.8310967408185
 20
-448.1788548149302
 30
0.0
 11
-727.1269837342267
 21
-440.9673031486705
 31
0.0
  0
LINE
  5
403
330
1F
100
AcDbEntity
  8
D-1
  6
Continuous
 62
     2
370
     9
100
AcDbLine
 10
-652.4603358231549
 20
-328.4676536239817
 30
0.0
 11
-633.4605947457318
 21
-328.4676536239817
 31
0.0
  0
LINE
  5
404
330
1F
100
AcDbEntity
  8
D-1
  6
Continuous
 62
     2
370
     9
100
AcDbLine
 10
-780.4607287369732
 20
-448.467217317982
 30
0.0
 11
-635.4608026467328
 21
-448.467217317982
 31
0.0
  0
LINE
  5
405
330
1F
100
AcDbEntity
  8
D-1
  6
Continuous
 62
     2
370
     9
100
AcDbLine
 10
-780.4607287369732
 20
-448.467217317982
 30
0.0
 11
-780.4607287369732
 21
-440.9673031486705
 31
0.0
  0
LINE
  5
406
330
1F
100
AcDbEntity
  8
D-1
  6
Continuous
 62
     2
370
     9
100
AcDbLine
 10
-780.4607287369732
 20
-453.4674938835337
 30
0.0
 11
-633.4605947457318
 21
-453.4674938835337
 31
0.0
  0
LINE
  5
407
330
1F
100
AcDbEntity
  8
D-1
  6
Continuous
 62
     2
370
     9
100
AcDbLine
 10
-785.4605093918805
 20
-448.467217317982
 30
0.0
 11
-785.4605093918805
 21
-440.9673031486705
 31
0.0
  0
LINE
  5
408
330
1F
100
AcDbEntity
  8
D-1
  6
Continuous
 62
     2
370
     9
100
AcDbLine
 10
-743.6305514298443
 20
-436.6374024070933
 30
0.0
 11
-755.4608622513775
 21
-443.4674461998179
 31
0.0
  0
LINE
  5
409
330
1F
100
AcDbEntity
  8
D-1
  6
Continuous
 62
     2
370
     9
100
AcDbLine
 10
-752.9607287369732
 20
-447.7973469413951
 30
0.0
 11
-741.13041791544
 21
-440.9673031486705
 31
0.0
  0
LINE
  5
40A
330
1F
100
AcDbEntity
  8
D-1
  6
Continuous
 62
     2
370
     9
100
AcDbLine
 10
-757.9604998551373
 20
-447.7973469413951
 30
0.0
 11
-769.7908106766705
 21
-440.9673031486705
 31
0.0
  0
LINE
  5
40B
330
1F
100
AcDbEntity
  8
D-1
  6
Continuous
 62
     2
370
     9
100
AcDbLine
 10
-767.2906771622662
 20
-436.6374024070933
 30
0.0
 11
-755.4608622513775
 21
-443.4674461998179
 31
0.0
  0
LINE
  5
40C
330
1F
100
AcDbEntity
  8
D-1
  6
Continuous
 62
     2
370
     9
100
AcDbLine
 10
-727.1269837342267
 20
-440.9673031486705
 30
0.0
 11
-741.13041791544
 21
-440.9673031486705
 31
0.0
  0
LINE
  5
40D
330
1F
100
AcDbEntity
  8
D-1
  6
Continuous
 62
     2
370
     9
100
AcDbLine
 10
-769.7908106766705
 20
-440.9673031486705
 30
0.0
 11
-780.4607287369732
 21
-440.9673031486705
 31
0.0
  0
LINE
  5
40E
330
1F
100
AcDbEntity
  8
D-1
  6
Continuous
 62
     2
370
     9
100
AcDbLine
 10
-727.4227801285748
 20
-435.9675320305064
 30
0.0
 11
-741.13041791544
 21
-435.9675320305064
 31
0.0
  0
LINE
  5
40F
330
1F
100
AcDbEntity
  8
D-1
  6
Continuous
 62
     2
370
     9
100
AcDbLine
 10
-769.7908106766705
 20
-435.9675320305064
 30
0.0
 11
-780.4607287369732
 21
-435.9675320305064
 31
0.0
  0
LINE
  5
410
330
1F
100
AcDbEntity
  8
D-9
  6
Continuous
 62
     4
370
     9
100
AcDbLine
 10
-738.5084000550274
 20
-430.9672650016978
 30
0.0
 11
-744.9266997300152
 21
-437.385559908314
 31
0.0
  0
LINE
  5
411
330
1F
100
AcDbEntity
  8
D-9
  6
Continuous
 62
     4
370
     9
100
AcDbLine
 10
-745.5797282181744
 20
-430.9672650016978
 30
0.0
 11
-757.1211806260113
 21
-442.5087078727915
 31
0.0
  0
LINE
  5
412
330
1F
100
AcDbEntity
  8
D-9
  6
Continuous
 62
     4
370
     9
100
AcDbLine
 10
-752.651061149693
 20
-430.9672650016978
 30
0.0
 11
-761.6041842423443
 21
-439.920378557606
 31
0.0
  0
LINE
  5
413
330
1F
100
AcDbEntity
  8
D-9
  6
Continuous
 62
     4
370
     9
100
AcDbLine
 10
-759.7223845444684
 20
-430.9672650016978
 30
0.0
 11
-766.0861865006451
 21
-437.332545153065
 31
0.0
  0
LINE
  5
414
330
1F
100
AcDbEntity
  8
D-4
  6
Continuous
 62
     7
370
     9
100
AcDbLine
 10
-485.4596034012799
 20
-473.3437164940074
 30
0.0
 11
-485.4596034012799
 21
-521.9982536949351
 31
0.0
  0
LINE
  5
415
330
1F
100
AcDbEntity
  8
D-5
  6
Continuous
 62
     7
370
     9
100
AcDbLine
 10
-494.0292445145611
 20
-220.4187973655894
 30
0.0
 11
-682.5427237473492
 21
-437.0090111412242
 31
0.0
  0
LINE
  5
416
330
1F
100
AcDbEntity
  8
D-6
  6
Continuous
 62
     6
370
     5
100
AcDbLine
 10
-385.4601374588971
 20
-525.8079155601695
 30
0.0
 11
-338.1200877152447
 21
-478.467856279774
 31
0.0
  0
LINE
  5
417
330
1F
100
AcDbEntity
  8
D-6
  6
Continuous
 62
     6
370
     5
100
AcDbLine
 10
-635.4598108254437
 20
-775.8055885948374
 30
0.0
 11
-438.1205454789166
 21
-578.4678276695445
 31
0.0
  0
LINE
  5
418
330
1F
100
AcDbEntity
  8
D-6
  6
Continuous
 62
     6
370
     5
100
AcDbLine
 10
-635.4598108254437
 20
-789.9462898887828
 30
0.0
 11
-423.9798632584576
 21
-578.4678276695445
 31
0.0
  0
LINE
  5
419
330
1F
100
AcDbEntity
  8
D-6
  6
Continuous
 62
     6
370
     5
100
AcDbLine
 10
-385.4601374588971
 20
-539.9485977806285
 30
0.0
 11
-323.9793864212994
 21
-478.467856279774
 31
0.0
  0
LINE
  5
41A
330
1F
100
AcDbEntity
  8
D-6
  6
Continuous
 62
     6
370
     5
100
AcDbLine
 10
-635.4598108254437
 20
-804.0869530357554
 30
0.0
 11
-409.8391810379986
 21
-578.4678276695445
 31
0.0
  0
LINE
  5
41B
330
1F
100
AcDbEntity
  8
D-6
  6
Continuous
 62
     6
370
     5
100
AcDbLine
 10
-385.4601374588971
 20
-554.0892609276011
 30
0.0
 11
-309.8387232743268
 21
-478.467856279774
 31
0.0
  0
LINE
  5
41C
330
1F
100
AcDbEntity
  8
D-6
  6
Continuous
 62
     6
370
     5
100
AcDbLine
 10
-296.2876597367291
 20
-828.4674843467906
 30
0.0
 11
-220.4586497269635
 21
-752.639466158314
 31
0.0
  0
LINE
  5
41D
330
1F
100
AcDbEntity
  8
D-6
  6
Continuous
 62
     6
370
     5
100
AcDbLine
 10
-310.4283228837018
 20
-828.4674843467906
 30
0.0
 11
-220.4586497269635
 21
-738.4988030113414
 31
0.0
  0
LINE
  5
41E
330
1F
100
AcDbEntity
  8
D-6
  6
Continuous
 62
     6
370
     5
100
AcDbLine
 10
-282.1469584427838
 20
-828.4674843467906
 30
0.0
 11
-220.4586497269635
 21
-766.7801293052867
 31
0.0
  0
LINE
  5
41F
330
1F
100
AcDbEntity
  8
D-0
  6
Continuous
 62
     7
370
     9
100
AcDbLine
 10
-358.6146441422467
 20
-349.4175597347453
 30
0.0
 11
-358.6146441422467
 21
-347.9172798313334
 31
0.0
  0
LINE
  5
420
330
1F
100
AcDbEntity
  8
D-0
  6
Continuous
 62
     7
370
     9
100
AcDbLine
 10
-358.6146441422467
 20
-347.9172798313334
 30
0.0
 11
-357.1148577652936
 21
-347.9172798313334
 31
0.0
  0
LINE
  5
421
330
1F
100
AcDbEntity
  8
D-0
  6
Continuous
 62
     7
370
     9
100
AcDbLine
 10
-357.1148577652936
 20
-347.9172798313334
 30
0.0
 11
-357.1148577652936
 21
-349.4175597347453
 31
0.0
  0
LINE
  5
422
330
1F
100
AcDbEntity
  8
D-0
  6
Continuous
 62
     7
370
     9
100
AcDbLine
 10
-357.1148577652936
 20
-349.4175597347453
 30
0.0
 11
-358.6146441422467
 21
-349.4175597347453
 31
0.0
  0
LINE
  5
423
330
1F
100
AcDbEntity
  8
D-0
  6
Continuous
 62
     7
370
     9
100
AcDbLine
 10
-307.8588190995221
 20
-352.1248015083506
 30
0.0
 11
-307.8588190995221
 21
-350.6245216049388
 31
0.0
  0
LINE
  5
424
330
1F
100
AcDbEntity
  8
D-0
  6
Continuous
 62
     7
370
     9
100
AcDbLine
 10
-307.8588190995221
 20
-350.6245216049388
 30
0.0
 11
-306.3585368119244
 21
-350.6245216049388
 31
0.0
  0
LINE
  5
425
330
1F
100
AcDbEntity
  8
D-0
  6
Continuous
 62
     7
370
     9
100
AcDbLine
 10
-306.3585368119244
 20
-350.6245216049388
 30
0.0
 11
-306.3585368119244
 21
-352.1248015083506
 31
0.0
  0
LINE
  5
426
330
1F
100
AcDbEntity
  8
D-0
  6
Continuous
 62
     7
370
     9
100
AcDbLine
 10
-306.3585368119244
 20
-352.1248015083506
 30
0.0
 11
-307.8588190995221
 21
-352.1248015083506
 31
0.0
  0
LINE
  5
427
330
1F
100
AcDbEntity
  8
D-0
  6
Continuous
 62
     7
370
     9
100
AcDbLine
 10
-242.8914729081158
 20
-350.0943704761698
 30
0.0
 11
-242.8914729081158
 21
-348.594090572758
 31
0.0
  0
LINE
  5
428
330
1F
100
AcDbEntity
  8
D-0
  6
Continuous
 62
     7
370
     9
100
AcDbLine
 10
-242.8914729081158
 20
-348.594090572758
 30
0.0
 11
-241.3911906205182
 21
-348.594090572758
 31
0.0
  0
LINE
  5
429
330
1F
100
AcDbEntity
  8
D-0
  6
Continuous
 62
     7
370
     9
100
AcDbLine
 10
-241.3911906205182
 20
-348.594090572758
 30
0.0
 11
-241.3911906205182
 21
-350.0943704761698
 31
0.0
  0
LINE
  5
42A
330
1F
100
AcDbEntity
  8
D-0
  6
Continuous
 62
     7
370
     9
100
AcDbLine
 10
-241.3911906205182
 20
-350.0943704761698
 30
0.0
 11
-242.8914729081158
 21
-350.0943704761698
 31
0.0
  0
LINE
  5
42B
330
1F
100
AcDbEntity
  8
D-0
  6
Continuous
 62
     7
370
     9
100
AcDbLine
 10
-267.2541895829205
 20
-382.5782927192881
 30
0.0
 11
-267.2541895829205
 21
-381.0780152000621
 31
0.0
  0
LINE
  5
42C
330
1F
100
AcDbEntity
  8
D-0
  6
Continuous
 62
     7
370
     9
100
AcDbLine
 10
-267.2541895829205
 20
-381.0780152000621
 30
0.0
 11
-265.7539072953228
 21
-381.0780152000621
 31
0.0
  0
LINE
  5
42D
330
1F
100
AcDbEntity
  8
D-0
  6
Continuous
 62
     7
370
     9
100
AcDbLine
 10
-265.7539072953228
 20
-381.0780152000621
 30
0.0
 11
-265.7539072953228
 21
-382.5782927192881
 31
0.0
  0
LINE
  5
42E
330
1F
100
AcDbEntity
  8
D-0
  6
Continuous
 62
     7
370
     9
100
AcDbLine
 10
-265.7539072953228
 20
-382.5782927192881
 30
0.0
 11
-267.2541895829205
 21
-382.5782927192881
 31
0.0
  0
LINE
  5
42F
330
1F
100
AcDbEntity
  8
D-0
  6
Continuous
 62
     7
370
     9
100
AcDbLine
 10
-317.8192225419049
 20
-386.5093430198863
 30
0.0
 11
-317.8192225419049
 21
-385.0090655006602
 31
0.0
  0
LINE
  5
430
330
1F
100
AcDbEntity
  8
D-0
  6
Continuous
 62
     7
370
     9
100
AcDbLine
 10
-317.8192225419049
 20
-385.0090655006602
 30
0.0
 11
-316.3194361649518
 21
-385.0090655006602
 31
0.0
  0
LINE
  5
431
330
1F
100
AcDbEntity
  8
D-0
  6
Continuous
 62
     7
370
     9
100
AcDbLine
 10
-316.3194361649518
 20
-385.0090655006602
 30
0.0
 11
-316.3194361649518
 21
-386.5093430198863
 31
0.0
  0
LINE
  5
432
330
1F
100
AcDbEntity
  8
D-0
  6
Continuous
 62
     7
370
     9
100
AcDbLine
 10
-316.3194361649518
 20
-386.5093430198863
 30
0.0
 11
-317.8192225419049
 21
-386.5093430198863
 31
0.0
  0
LINE
  5
433
330
1F
100
AcDbEntity
  8
D-0
  6
Continuous
 62
     7
370
     9
100
AcDbLine
 10
-334.9287501297955
 20
-420.4762085594371
 30
0.0
 11
-334.9287501297955
 21
-418.9759262718394
 31
0.0
  0
LINE
  5
434
330
1F
100
AcDbEntity
  8
D-0
  6
Continuous
 62
     7
370
     9
100
AcDbLine
 10
-334.9287501297955
 20
-418.9759262718394
 30
0.0
 11
-333.4284678421978
 21
-418.9759262718394
 31
0.0
  0
LINE
  5
435
330
1F
100
AcDbEntity
  8
D-0
  6
Continuous
 62
     7
370
     9
100
AcDbLine
 10
-333.4284678421978
 20
-418.9759262718394
 30
0.0
 11
-333.4284678421978
 21
-420.4762085594371
 31
0.0
  0
LINE
  5
436
330
1F
100
AcDbEntity
  8
D-0
  6
Continuous
 62
     7
370
     9
100
AcDbLine
 10
-333.4284678421978
 20
-420.4762085594371
 30
0.0
 11
-334.9287501297955
 21
-420.4762085594371
 31
0.0
  0
LINE
  5
437
330
1F
100
AcDbEntity
  8
D-0
  6
Continuous
 62
     7
370
     9
100
AcDbLine
 10
-366.2850085221295
 20
-405.904470316334
 30
0.0
 11
-366.2850085221295
 21
-404.4041880287364
 31
0.0
  0
LINE
  5
438
330
1F
100
AcDbEntity
  8
D-0
  6
Continuous
 62
     7
370
     9
100
AcDbLine
 10
-366.2850085221295
 20
-404.4041880287364
 30
0.0
 11
-364.7852221451764
 21
-404.4041880287364
 31
0.0
  0
LINE
  5
439
330
1F
100
AcDbEntity
  8
D-0
  6
Continuous
 62
     7
370
     9
100
AcDbLine
 10
-364.7852221451764
 20
-404.4041880287364
 30
0.0
 11
-364.7852221451764
 21
-405.904470316334
 31
0.0
  0
LINE
  5
43A
330
1F
100
AcDbEntity
  8
D-0
  6
Continuous
 62
     7
370
     9
100
AcDbLine
 10
-364.7852221451764
 20
-405.904470316334
 30
0.0
 11
-366.2850085221295
 21
-405.904470316334
 31
0.0
  0
LINE
  5
43B
330
1F
100
AcDbEntity
  8
D-0
  6
Continuous
 62
     7
370
     9
100
AcDbLine
 10
-377.0094195328717
 20
-447.124501100941
 30
0.0
 11
-377.0094195328717
 21
-445.6242188133433
 31
0.0
  0
LINE
  5
43C
330
1F
100
AcDbEntity
  8
D-0
  6
Continuous
 62
     7
370
     9
100
AcDbLine
 10
-377.0094195328717
 20
-445.6242188133433
 30
0.0
 11
-375.509137245274
 21
-445.6242188133433
 31
0.0
  0
LINE
  5
43D
330
1F
100
AcDbEntity
  8
D-0
  6
Continuous
 62
     7
370
     9
100
AcDbLine
 10
-375.509137245274
 20
-445.6242188133433
 30
0.0
 11
-375.509137245274
 21
-447.124501100941
 31
0.0
  0
LINE
  5
43E
330
1F
100
AcDbEntity
  8
D-0
  6
Continuous
 62
     7
370
     9
100
AcDbLine
 10
-375.509137245274
 20
-447.124501100941
 30
0.0
 11
-377.0094195328717
 21
-447.124501100941
 31
0.0
  0
LINE
  5
43F
330
1F
100
AcDbEntity
  8
D-0
  6
Continuous
 62
     7
370
     9
100
AcDbLine
 10
-339.6659556351666
 20
-455.6668766655162
 30
0.0
 11
-339.6659556351666
 21
-454.1665943779185
 31
0.0
  0
LINE
  5
440
330
1F
100
AcDbEntity
  8
D-0
  6
Continuous
 62
     7
370
     9
100
AcDbLine
 10
-339.6659556351666
 20
-454.1665943779185
 30
0.0
 11
-338.1656733475689
 21
-454.1665943779185
 31
0.0
  0
LINE
  5
441
330
1F
100
AcDbEntity
  8
D-0
  6
Continuous
 62
     7
370
     9
100
AcDbLine
 10
-338.1656733475689
 20
-454.1665943779185
 30
0.0
 11
-338.1656733475689
 21
-455.6668766655162
 31
0.0
  0
LINE
  5
442
330
1F
100
AcDbEntity
  8
D-0
  6
Continuous
 62
     7
370
     9
100
AcDbLine
 10
-338.1656733475689
 20
-455.6668766655162
 30
0.0
 11
-339.6659556351666
 21
-455.6668766655162
 31
0.0
  0
LINE
  5
443
330
1F
100
AcDbEntity
  8
D-0
  6
Continuous
 62
     7
370
     9
100
AcDbLine
 10
-287.4608698807721
 20
-460.3916653312876
 30
0.0
 11
-287.4608698807721
 21
-458.89138304369
 31
0.0
  0
LINE
  5
444
330
1F
100
AcDbEntity
  8
D-0
  6
Continuous
 62
     7
370
     9
100
AcDbLine
 10
-287.4608698807721
 20
-458.89138304369
 30
0.0
 11
-285.9610835038189
 21
-458.89138304369
 31
0.0
  0
LINE
  5
445
330
1F
100
AcDbEntity
  8
D-0
  6
Continuous
 62
     7
370
     9
100
AcDbLine
 10
-285.9610835038189
 20
-458.89138304369
 30
0.0
 11
-285.9610835038189
 21
-460.3916653312876
 31
0.0
  0
LINE
  5
446
330
1F
100
AcDbEntity
  8
D-0
  6
Continuous
 62
     7
370
     9
100
AcDbLine
 10
-285.9610835038189
 20
-460.3916653312876
 30
0.0
 11
-287.4608698807721
 21
-460.3916653312876
 31
0.0
  0
LINE
  5
447
330
1F
100
AcDbEntity
  8
D-0
  6
Continuous
 62
     7
370
     9
100
AcDbLine
 10
-232.7402964554791
 20
-453.6364468254283
 30
0.0
 11
-232.7402964554791
 21
-452.1361645378306
 31
0.0
  0
LINE
  5
448
330
1F
100
AcDbEntity
  8
D-0
  6
Continuous
 62
     7
370
     9
100
AcDbLine
 10
-232.7402964554791
 20
-452.1361645378306
 30
0.0
 11
-231.2400523148541
 21
-452.1361645378306
 31
0.0
  0
LINE
  5
449
330
1F
100
AcDbEntity
  8
D-0
  6
Continuous
 62
     7
370
     9
100
AcDbLine
 10
-231.2400523148541
 20
-452.1361645378306
 30
0.0
 11
-231.2400523148541
 21
-453.6364468254283
 31
0.0
  0
LINE
  5
44A
330
1F
100
AcDbEntity
  8
D-0
  6
Continuous
 62
     7
370
     9
100
AcDbLine
 10
-231.2400523148541
 20
-453.6364468254283
 30
0.0
 11
-232.7402964554791
 21
-453.6364468254283
 31
0.0
  0
LINE
  5
44B
330
1F
100
AcDbEntity
  8
D-0
  6
Continuous
 62
     7
370
     9
100
AcDbLine
 10
-244.920930000401
 20
-413.7086018242076
 30
0.0
 11
-244.920930000401
 21
-412.2083195366099
 31
0.0
  0
LINE
  5
44C
330
1F
100
AcDbEntity
  8
D-0
  6
Continuous
 62
     7
370
     9
100
AcDbLine
 10
-244.920930000401
 20
-412.2083195366099
 30
0.0
 11
-243.4206477128033
 21
-412.2083195366099
 31
0.0
  0
LINE
  5
44D
330
1F
100
AcDbEntity
  8
D-0
  6
Continuous
 62
     7
370
     9
100
AcDbLine
 10
-243.4206477128033
 20
-412.2083195366099
 30
0.0
 11
-243.4206477128033
 21
-413.7086018242076
 31
0.0
  0
LINE
  5
44E
330
1F
100
AcDbEntity
  8
D-0
  6
Continuous
 62
     7
370
     9
100
AcDbLine
 10
-243.4206477128033
 20
-413.7086018242076
 30
0.0
 11
-244.920930000401
 21
-413.7086018242076
 31
0.0
  0
LINE
  5
44F
330
1F
100
AcDbEntity
  8
D-0
  6
Continuous
 62
     7
370
     9
100
AcDbLine
 10
-285.9501734696393
 20
-422.8262146629527
 30
0.0
 11
-285.9501734696393
 21
-421.325932375355
 31
0.0
  0
LINE
  5
450
330
1F
100
AcDbEntity
  8
D-0
  6
Continuous
 62
     7
370
     9
100
AcDbLine
 10
-285.9501734696393
 20
-421.325932375355
 30
0.0
 11
-284.4504252396588
 21
-421.325932375355
 31
0.0
  0
LINE
  5
451
330
1F
100
AcDbEntity
  8
D-0
  6
Continuous
 62
     7
370
     9
100
AcDbLine
 10
-284.4504252396588
 20
-421.325932375355
 30
0.0
 11
-284.4504252396588
 21
-422.8262146629527
 31
0.0
  0
LINE
  5
452
330
1F
100
AcDbEntity
  8
D-0
  6
Continuous
 62
     7
370
     9
100
AcDbLine
 10
-284.4504252396588
 20
-422.8262146629527
 30
0.0
 11
-285.9501734696393
 21
-422.8262146629527
 31
0.0
  0
LINE
  5
453
330
1F
100
AcDbEntity
  8
D-0
  6
Continuous
 62
     7
370
     9
100
AcDbLine
 10
-225.4648676835065
 20
-383.3378466285899
 30
0.0
 11
-225.4648676835065
 21
-381.8375691093638
 31
0.0
  0
LINE
  5
454
330
1F
100
AcDbEntity
  8
D-0
  6
Continuous
 62
     7
370
     9
100
AcDbLine
 10
-225.4648676835065
 20
-381.8375691093638
 30
0.0
 11
-223.9645853959088
 21
-381.8375691093638
 31
0.0
  0
LINE
  5
455
330
1F
100
AcDbEntity
  8
D-0
  6
Continuous
 62
     7
370
     9
100
AcDbLine
 10
-223.9645853959088
 20
-381.8375691093638
 30
0.0
 11
-223.9645853959088
 21
-383.3378466285899
 31
0.0
  0
LINE
  5
456
330
1F
100
AcDbEntity
  8
D-0
  6
Continuous
 62
     7
370
     9
100
AcDbLine
 10
-223.9645853959088
 20
-383.3378466285899
 30
0.0
 11
-225.4648676835065
 21
-383.3378466285899
 31
0.0
  0
LINE
  5
457
330
1F
100
AcDbEntity
  8
D-0
  6
Continuous
 62
     7
370
     9
100
AcDbLine
 10
-379.4659510575299
 20
-372.4449690498545
 30
0.0
 11
-379.4659510575299
 21
-370.9446867622569
 31
0.0
  0
LINE
  5
458
330
1F
100
AcDbEntity
  8
D-0
  6
Continuous
 62
     7
370
     9
100
AcDbLine
 10
-379.4659510575299
 20
-370.9446867622569
 30
0.0
 11
-377.9656878434186
 21
-370.9446867622569
 31
0.0
  0
LINE
  5
459
330
1F
100
AcDbEntity
  8
D-0
  6
Continuous
 62
     7
370
     9
100
AcDbLine
 10
-377.9656878434186
 20
-370.9446867622569
 30
0.0
 11
-377.9656878434186
 21
-372.4449690498545
 31
0.0
  0
LINE
  5
45A
330
1F
100
AcDbEntity
  8
D-0
  6
Continuous
 62
     7
370
     9
100
AcDbLine
 10
-377.9656878434186
 20
-372.4449690498545
 30
0.0
 11
-379.4659510575299
 21
-372.4449690498545
 31
0.0
  0
LINE
  5
45B
330
1F
100
AcDbEntity
  8
D-0
  6
Continuous
 62
     7
370
     9
100
AcDbLine
 10
-462.8156939469342
 20
-495.6953056968882
 30
0.0
 11
-462.8156939469342
 21
-494.1950234092906
 31
0.0
  0
LINE
  5
45C
330
1F
100
AcDbEntity
  8
D-0
  6
Continuous
 62
     7
370
     9
100
AcDbLine
 10
-462.8156939469342
 20
-494.1950234092906
 30
0.0
 11
-461.3154116593365
 21
-494.1950234092906
 31
0.0
  0
LINE
  5
45D
330
1F
100
AcDbEntity
  8
D-0
  6
Continuous
 62
     7
370
     9
100
AcDbLine
 10
-461.3154116593365
 20
-494.1950234092906
 30
0.0
 11
-461.3154116593365
 21
-495.6953056968882
 31
0.0
  0
LINE
  5
45E
330
1F
100
AcDbEntity
  8
D-0
  6
Continuous
 62
     7
370
     9
100
AcDbLine
 10
-461.3154116593365
 20
-495.6953056968882
 30
0.0
 11
-462.8156939469342
 21
-495.6953056968882
 31
0.0
  0
LINE
  5
45F
330
1F
100
AcDbEntity
  8
D-0
  6
Continuous
 62
     7
370
     9
100
AcDbLine
 10
-413.451146217442
 20
-503.5935791649058
 30
0.0
 11
-413.451146217442
 21
-502.0932968773081
 31
0.0
  0
LINE
  5
460
330
1F
100
AcDbEntity
  8
D-0
  6
Continuous
 62
     7
370
     9
100
AcDbLine
 10
-413.451146217442
 20
-502.0932968773081
 30
0.0
 11
-411.9508830033307
 21
-502.0932968773081
 31
0.0
  0
LINE
  5
461
330
1F
100
AcDbEntity
  8
D-0
  6
Continuous
 62
     7
370
     9
100
AcDbLine
 10
-411.9508830033307
 20
-502.0932968773081
 30
0.0
 11
-411.9508830033307
 21
-503.5935791649058
 31
0.0
  0
LINE
  5
462
330
1F
100
AcDbEntity
  8
D-0
  6
Continuous
 62
     7
370
     9
100
AcDbLine
 10
-411.9508830033307
 20
-503.5935791649058
 30
0.0
 11
-413.451146217442
 21
-503.5935791649058
 31
0.0
  0
LINE
  5
463
330
1F
100
AcDbEntity
  8
D-0
  6
Continuous
 62
     7
370
     9
100
AcDbLine
 10
-430.3322688065533
 20
-524.1743477501109
 30
0.0
 11
-430.3322688065533
 21
-522.6740654625132
 31
0.0
  0
LINE
  5
464
330
1F
100
AcDbEntity
  8
D-0
  6
Continuous
 62
     7
370
     9
100
AcDbLine
 10
-430.3322688065533
 20
-522.6740654625132
 30
0.0
 11
-428.8324824296002
 21
-522.6740654625132
 31
0.0
  0
LINE
  5
465
330
1F
100
AcDbEntity
  8
D-0
  6
Continuous
 62
     7
370
     9
100
AcDbLine
 10
-428.8324824296002
 20
-522.6740654625132
 30
0.0
 11
-428.8324824296002
 21
-524.1743477501109
 31
0.0
  0
LINE
  5
466
330
1F
100
AcDbEntity
  8
D-0
  6
Continuous
 62
     7
370
     9
100
AcDbLine
 10
-428.8324824296002
 20
-524.1743477501109
 30
0.0
 11
-430.3322688065533
 21
-524.1743477501109
 31
0.0
  0
LINE
  5
467
330
1F
100
AcDbEntity
  8
D-0
  6
Continuous
 62
     7
370
     9
100
AcDbLine
 10
-478.6122408829693
 20
-558.8824280418589
 30
0.0
 11
-478.6122408829693
 21
-557.3821648277476
 31
0.0
  0
LINE
  5
468
330
1F
100
AcDbEntity
  8
D-0
  6
Continuous
 62
     7
370
     9
100
AcDbLine
 10
-478.6122408829693
 20
-557.3821648277476
 30
0.0
 11
-477.1124545060162
 21
-557.3821648277476
 31
0.0
  0
LINE
  5
469
330
1F
100
AcDbEntity
  8
D-0
  6
Continuous
 62
     7
370
     9
100
AcDbLine
 10
-477.1124545060162
 20
-557.3821648277476
 30
0.0
 11
-477.1124545060162
 21
-558.8824280418589
 31
0.0
  0
LINE
  5
46A
330
1F
100
AcDbEntity
  8
D-0
  6
Continuous
 62
     7
370
     9
100
AcDbLine
 10
-477.1124545060162
 20
-558.8824280418589
 30
0.0
 11
-478.6122408829693
 21
-558.8824280418589
 31
0.0
  0
LINE
  5
46B
330
1F
100
AcDbEntity
  8
D-0
  6
Continuous
 62
     7
370
     9
100
AcDbLine
 10
-407.5273219071393
 20
-556.9075020469859
 30
0.0
 11
-407.5273219071393
 21
-555.4072197593882
 31
0.0
  0
LINE
  5
46C
330
1F
100
AcDbEntity
  8
D-0
  6
Continuous
 62
     7
370
     9
100
AcDbLine
 10
-407.5273219071393
 20
-555.4072197593882
 30
0.0
 11
-406.0270396195416
 21
-555.4072197593882
 31
0.0
  0
LINE
  5
46D
330
1F
100
AcDbEntity
  8
D-0
  6
Continuous
 62
     7
370
     9
100
AcDbLine
 10
-406.0270396195416
 20
-555.4072197593882
 30
0.0
 11
-406.0270396195416
 21
-556.9075020469859
 31
0.0
  0
LINE
  5
46E
330
1F
100
AcDbEntity
  8
D-0
  6
Continuous
 62
     7
370
     9
100
AcDbLine
 10
-406.0270396195416
 20
-556.9075020469859
 30
0.0
 11
-407.5273219071393
 21
-556.9075020469859
 31
0.0
  0
LINE
  5
46F
330
1F
100
AcDbEntity
  8
D-0
  6
Continuous
 62
     7
370
     9
100
AcDbLine
 10
-464.790143104649
 20
-525.3144272484019
 30
0.0
 11
-464.790143104649
 21
-523.8141449608042
 31
0.0
  0
LINE
  5
470
330
1F
100
AcDbEntity
  8
D-0
  6
Continuous
 62
     7
370
     9
100
AcDbLine
 10
-464.790143104649
 20
-523.8141449608042
 30
0.0
 11
-463.2903567276959
 21
-523.8141449608042
 31
0.0
  0
LINE
  5
471
330
1F
100
AcDbEntity
  8
D-0
  6
Continuous
 62
     7
370
     9
100
AcDbLine
 10
-463.2903567276959
 20
-523.8141449608042
 30
0.0
 11
-463.2903567276959
 21
-525.3144272484019
 31
0.0
  0
LINE
  5
472
330
1F
100
AcDbEntity
  8
D-0
  6
Continuous
 62
     7
370
     9
100
AcDbLine
 10
-463.2903567276959
 20
-525.3144272484019
 30
0.0
 11
-464.790143104649
 21
-525.3144272484019
 31
0.0
  0
LINE
  5
473
330
1F
100
AcDbEntity
  8
D-0
  6
Continuous
 62
     7
370
     9
100
AcDbLine
 10
-432.9230776749615
 20
-481.4357098259165
 30
0.0
 11
-432.9230776749615
 21
-479.9354275383189
 31
0.0
  0
LINE
  5
474
330
1F
100
AcDbEntity
  8
D-0
  6
Continuous
 62
     7
370
     9
100
AcDbLine
 10
-432.9230776749615
 20
-479.9354275383189
 30
0.0
 11
-431.4227953873639
 21
-479.9354275383189
 31
0.0
  0
LINE
  5
475
330
1F
100
AcDbEntity
  8
D-0
  6
Continuous
 62
     7
370
     9
100
AcDbLine
 10
-431.4227953873639
 20
-479.9354275383189
 30
0.0
 11
-431.4227953873639
 21
-481.4357098259165
 31
0.0
  0
LINE
  5
476
330
1F
100
AcDbEntity
  8
D-0
  6
Continuous
 62
     7
370
     9
100
AcDbLine
 10
-431.4227953873639
 20
-481.4357098259165
 30
0.0
 11
-432.9230776749615
 21
-481.4357098259165
 31
0.0
  0
LINE
  5
477
330
1F
100
AcDbEntity
  8
D-0
  6
Continuous
 62
     7
370
     9
100
AcDbLine
 10
-442.2066775284771
 20
-552.8753670372203
 30
0.0
 11
-442.2066775284771
 21
-551.3750847496226
 31
0.0
  0
LINE
  5
478
330
1F
100
AcDbEntity
  8
D-0
  6
Continuous
 62
     7
370
     9
100
AcDbLine
 10
-442.2066775284771
 20
-551.3750847496226
 30
0.0
 11
-440.7063952408795
 21
-551.3750847496226
 31
0.0
  0
LINE
  5
479
330
1F
100
AcDbEntity
  8
D-0
  6
Continuous
 62
     7
370
     9
100
AcDbLine
 10
-440.7063952408795
 20
-551.3750847496226
 30
0.0
 11
-440.7063952408795
 21
-552.8753670372203
 31
0.0
  0
LINE
  5
47A
330
1F
100
AcDbEntity
  8
D-0
  6
Continuous
 62
     7
370
     9
100
AcDbLine
 10
-440.7063952408795
 20
-552.8753670372203
 30
0.0
 11
-442.2066775284771
 21
-552.8753670372203
 31
0.0
  0
LINE
  5
47B
330
1F
100
AcDbEntity
  8
D-0
  6
Continuous
 62
     7
370
     9
100
AcDbLine
 10
-617.8374710999493
 20
-340.9148200668528
 30
0.0
 11
-617.8374710999493
 21
-339.4145407594874
 31
0.0
  0
LINE
  5
47C
330
1F
100
AcDbEntity
  8
D-0
  6
Continuous
 62
     7
370
     9
100
AcDbLine
 10
-617.8374710999493
 20
-339.4145407594874
 30
0.0
 11
-616.3371935807232
 21
-339.4145407594874
 31
0.0
  0
LINE
  5
47D
330
1F
100
AcDbEntity
  8
D-0
  6
Continuous
 62
     7
370
     9
100
AcDbLine
 10
-616.3371935807232
 20
-339.4145407594874
 30
0.0
 11
-616.3371935807232
 21
-340.9148200668528
 31
0.0
  0
LINE
  5
47E
330
1F
100
AcDbEntity
  8
D-0
  6
Continuous
 62
     7
370
     9
100
AcDbLine
 10
-616.3371935807232
 20
-340.9148200668528
 30
0.0
 11
-617.8374710999493
 21
-340.9148200668528
 31
0.0
  0
LINE
  5
47F
330
1F
100
AcDbEntity
  8
D-0
  6
Continuous
 62
     7
370
     9
100
AcDbLine
 10
-589.6452990494732
 20
-349.7663696922496
 30
0.0
 11
-589.6452990494732
 21
-348.2660909809306
 31
0.0
  0
LINE
  5
480
330
1F
100
AcDbEntity
  8
D-0
  6
Continuous
 62
     7
370
     9
100
AcDbLine
 10
-589.6452990494732
 20
-348.2660909809306
 30
0.0
 11
-588.1450215302472
 21
-348.2660909809306
 31
0.0
  0
LINE
  5
481
330
1F
100
AcDbEntity
  8
D-0
  6
Continuous
 62
     7
370
     9
100
AcDbLine
 10
-588.1450215302472
 20
-348.2660909809306
 30
0.0
 11
-588.1450215302472
 21
-349.7663696922496
 31
0.0
  0
LINE
  5
482
330
1F
100
AcDbEntity
  8
D-0
  6
Continuous
 62
     7
370
     9
100
AcDbLine
 10
-588.1450215302472
 20
-349.7663696922496
 30
0.0
 11
-589.6452990494732
 21
-349.7663696922496
 31
0.0
  0
LINE
  5
483
330
1F
100
AcDbEntity
  8
D-0
  6
Continuous
 62
     7
370
     9
100
AcDbLine
 10
-560.2213946305279
 20
-399.8780831016734
 30
0.0
 11
-560.2213946305279
 21
-398.3778008140757
 31
0.0
  0
LINE
  5
484
330
1F
100
AcDbEntity
  8
D-0
  6
Continuous
 62
     7
370
     9
100
AcDbLine
 10
-560.2213946305279
 20
-398.3778008140757
 30
0.0
 11
-558.7216082535748
 21
-398.3778008140757
 31
0.0
  0
LINE
  5
485
330
1F
100
AcDbEntity
  8
D-0
  6
Continuous
 62
     7
370
     9
100
AcDbLine
 10
-558.7216082535748
 20
-398.3778008140757
 30
0.0
 11
-558.7216082535748
 21
-399.8780831016734
 31
0.0
  0
LINE
  5
486
330
1F
100
AcDbEntity
  8
D-0
  6
Continuous
 62
     7
370
     9
100
AcDbLine
 10
-558.7216082535748
 20
-399.8780831016734
 30
0.0
 11
-560.2213946305279
 21
-399.8780831016734
 31
0.0
  0
LINE
  5
487
330
1F
100
AcDbEntity
  8
D-0
  6
Continuous
 62
     7
370
     9
100
AcDbLine
 10
-501.8298998795514
 20
-346.9223793663218
 30
0.0
 11
-501.8298998795514
 21
-345.42209946291
 31
0.0
  0
LINE
  5
488
330
1F
100
AcDbEntity
  8
D-0
  6
Continuous
 62
     7
370
     9
100
AcDbLine
 10
-501.8298998795514
 20
-345.42209946291
 30
0.0
 11
-500.3301135025982
 21
-345.42209946291
 31
0.0
  0
LINE
  5
489
330
1F
100
AcDbEntity
  8
D-0
  6
Continuous
 62
     7
370
     9
100
AcDbLine
 10
-500.3301135025982
 20
-345.42209946291
 30
0.0
 11
-500.3301135025982
 21
-346.9223793663218
 31
0.0
  0
LINE
  5
48A
330
1F
100
AcDbEntity
  8
D-0
  6
Continuous
 62
     7
370
     9
100
AcDbLine
 10
-500.3301135025982
 20
-346.9223793663218
 30
0.0
 11
-501.8298998795514
 21
-346.9223793663218
 31
0.0
  0
LINE
  5
48B
330
1F
100
AcDbEntity
  8
D-0
  6
Continuous
 62
     7
370
     9
100
AcDbLine
 10
-466.8988505326275
 20
-341.5237518467143
 30
0.0
 11
-466.8988505326275
 21
-340.0234719433024
 31
0.0
  0
LINE
  5
48C
330
1F
100
AcDbEntity
  8
D-0
  6
Continuous
 62
     7
370
     9
100
AcDbLine
 10
-466.8988505326275
 20
-340.0234719433024
 30
0.0
 11
-465.3990641556744
 21
-340.0234719433024
 31
0.0
  0
LINE
  5
48D
330
1F
100
AcDbEntity
  8
D-0
  6
Continuous
 62
     7
370
     9
100
AcDbLine
 10
-465.3990641556744
 20
-340.0234719433024
 30
0.0
 11
-465.3990641556744
 21
-341.5237518467143
 31
0.0
  0
LINE
  5
48E
330
1F
100
AcDbEntity
  8
D-0
  6
Continuous
 62
     7
370
     9
100
AcDbLine
 10
-465.3990641556744
 20
-341.5237518467143
 30
0.0
 11
-466.8988505326275
 21
-341.5237518467143
 31
0.0
  0
LINE
  5
48F
330
1F
100
AcDbEntity
  8
D-0
  6
Continuous
 62
     7
370
     9
100
AcDbLine
 10
-470.7283297501568
 20
-366.2555702842906
 30
0.0
 11
-470.7283297501568
 21
-364.7552903808787
 31
0.0
  0
LINE
  5
490
330
1F
100
AcDbEntity
  8
D-0
  6
Continuous
 62
     7
370
     9
100
AcDbLine
 10
-470.7283297501568
 20
-364.7552903808787
 30
0.0
 11
-469.2280474625592
 21
-364.7552903808787
 31
0.0
  0
LINE
  5
491
330
1F
100
AcDbEntity
  8
D-0
  6
Continuous
 62
     7
370
     9
100
AcDbLine
 10
-469.2280474625592
 20
-364.7552903808787
 30
0.0
 11
-469.2280474625592
 21
-366.2555702842906
 31
0.0
  0
LINE
  5
492
330
1F
100
AcDbEntity
  8
D-0
  6
Continuous
 62
     7
370
     9
100
AcDbLine
 10
-469.2280474625592
 20
-366.2555702842906
 30
0.0
 11
-470.7283297501568
 21
-366.2555702842906
 31
0.0
  0
LINE
  5
493
330
1F
100
AcDbEntity
  8
D-0
  6
Continuous
 62
     7
370
     9
100
AcDbLine
 10
-462.1547404252057
 20
-399.2245587028697
 30
0.0
 11
-462.1547404252057
 21
-397.7242811836436
 31
0.0
  0
LINE
  5
494
330
1F
100
AcDbEntity
  8
D-0
  6
Continuous
 62
     7
370
     9
100
AcDbLine
 10
-462.1547404252057
 20
-397.7242811836436
 30
0.0
 11
-460.654458137608
 21
-397.7242811836436
 31
0.0
  0
LINE
  5
495
330
1F
100
AcDbEntity
  8
D-0
  6
Continuous
 62
     7
370
     9
100
AcDbLine
 10
-460.654458137608
 20
-397.7242811836436
 30
0.0
 11
-460.654458137608
 21
-399.2245587028697
 31
0.0
  0
LINE
  5
496
330
1F
100
AcDbEntity
  8
D-0
  6
Continuous
 62
     7
370
     9
100
AcDbLine
 10
-460.654458137608
 20
-399.2245587028697
 30
0.0
 11
-462.1547404252057
 21
-399.2245587028697
 31
0.0
  0
LINE
  5
497
330
1F
100
AcDbEntity
  8
D-0
  6
Continuous
 62
     7
370
     9
100
AcDbLine
 10
-458.2316294632916
 20
-437.7972992576792
 30
0.0
 11
-458.2316294632916
 21
-436.2970169700816
 31
0.0
  0
LINE
  5
498
330
1F
100
AcDbEntity
  8
D-0
  6
Continuous
 62
     7
370
     9
100
AcDbLine
 10
-458.2316294632916
 20
-436.2970169700816
 30
0.0
 11
-456.7318430863385
 21
-436.2970169700816
 31
0.0
  0
LINE
  5
499
330
1F
100
AcDbEntity
  8
D-0
  6
Continuous
 62
     7
370
     9
100
AcDbLine
 10
-456.7318430863385
 20
-436.2970169700816
 30
0.0
 11
-456.7318430863385
 21
-437.7972992576792
 31
0.0
  0
LINE
  5
49A
330
1F
100
AcDbEntity
  8
D-0
  6
Continuous
 62
     7
370
     9
100
AcDbLine
 10
-456.7318430863385
 20
-437.7972992576792
 30
0.0
 11
-458.2316294632916
 21
-437.7972992576792
 31
0.0
  0
LINE
  5
49B
330
1F
100
AcDbEntity
  8
D-0
  6
Continuous
 62
     7
370
     9
100
AcDbLine
 10
-525.6926718674664
 20
-362.0549853958323
 30
0.0
 11
-525.6926718674664
 21
-360.5547078766062
 31
0.0
  0
LINE
  5
49C
330
1F
100
AcDbEntity
  8
D-0
  6
Continuous
 62
     7
370
     9
100
AcDbLine
 10
-525.6926718674664
 20
-360.5547078766062
 30
0.0
 11
-524.1923895798687
 21
-360.5547078766062
 31
0.0
  0
LINE
  5
49D
330
1F
100
AcDbEntity
  8
D-0
  6
Continuous
 62
     7
370
     9
100
AcDbLine
 10
-524.1923895798687
 20
-360.5547078766062
 30
0.0
 11
-524.1923895798687
 21
-362.0549853958323
 31
0.0
  0
LINE
  5
49E
330
1F
100
AcDbEntity
  8
D-0
  6
Continuous
 62
     7
370
     9
100
AcDbLine
 10
-524.1923895798687
 20
-362.0549853958323
 30
0.0
 11
-525.6926718674664
 21
-362.0549853958323
 31
0.0
  0
LINE
  5
49F
330
1F
100
AcDbEntity
  8
D-0
  6
Continuous
 62
     7
370
     9
100
AcDbLine
 10
-762.9538336716656
 20
-477.9238232292369
 30
0.0
 11
-762.9538336716656
 21
-476.4235504783824
 31
0.0
  0
LINE
  5
4A0
330
1F
100
AcDbEntity
  8
D-0
  6
Continuous
 62
     7
370
     9
100
AcDbLine
 10
-762.9538336716656
 20
-476.4235504783824
 30
0.0
 11
-761.4535609208111
 21
-476.4235504783824
 31
0.0
  0
LINE
  5
4A1
330
1F
100
AcDbEntity
  8
D-0
  6
Continuous
 62
     7
370
     9
100
AcDbLine
 10
-761.4535609208111
 20
-476.4235504783824
 30
0.0
 11
-761.4535609208111
 21
-477.9238232292369
 31
0.0
  0
LINE
  5
4A2
330
1F
100
AcDbEntity
  8
D-0
  6
Continuous
 62
     7
370
     9
100
AcDbLine
 10
-761.4535609208111
 20
-477.9238232292369
 30
0.0
 11
-762.9538336716656
 21
-477.9238232292369
 31
0.0
  0
LINE
  5
4A3
330
1F
100
AcDbEntity
  8
D-0
  6
Continuous
 62
     7
370
     9
100
AcDbLine
 10
-687.9185596428875
 20
-492.7328880943492
 30
0.0
 11
-687.9185596428875
 21
-491.2326058067515
 31
0.0
  0
LINE
  5
4A4
330
1F
100
AcDbEntity
  8
D-0
  6
Continuous
 62
     7
370
     9
100
AcDbLine
 10
-687.9185596428875
 20
-491.2326058067515
 30
0.0
 11
-686.4182797394757
 21
-491.2326058067515
 31
0.0
  0
LINE
  5
4A5
330
1F
100
AcDbEntity
  8
D-0
  6
Continuous
 62
     7
370
     9
100
AcDbLine
 10
-686.4182797394757
 20
-491.2326058067515
 30
0.0
 11
-686.4182797394757
 21
-492.7328880943492
 31
0.0
  0
LINE
  5
4A6
330
1F
100
AcDbEntity
  8
D-0
  6
Continuous
 62
     7
370
     9
100
AcDbLine
 10
-686.4182797394757
 20
-492.7328880943492
 30
0.0
 11
-687.9185596428875
 21
-492.7328880943492
 31
0.0
  0
LINE
  5
4A7
330
1F
100
AcDbEntity
  8
D-0
  6
Continuous
 62
     7
370
     9
100
AcDbLine
 10
-674.0969613514904
 20
-521.365052095814
 30
0.0
 11
-674.0969613514904
 21
-519.8647698082164
 31
0.0
  0
LINE
  5
4A8
330
1F
100
AcDbEntity
  8
D-0
  6
Continuous
 62
     7
370
     9
100
AcDbLine
 10
-674.0969613514904
 20
-519.8647698082164
 30
0.0
 11
-672.5971773587231
 21
-519.8647698082164
 31
0.0
  0
LINE
  5
4A9
330
1F
100
AcDbEntity
  8
D-0
  6
Continuous
 62
     7
370
     9
100
AcDbLine
 10
-672.5971773587231
 20
-519.8647698082164
 30
0.0
 11
-672.5971773587231
 21
-521.365052095814
 31
0.0
  0
LINE
  5
4AA
330
1F
100
AcDbEntity
  8
D-0
  6
Continuous
 62
     7
370
     9
100
AcDbLine
 10
-672.5971773587231
 20
-521.365052095814
 30
0.0
 11
-674.0969613514904
 21
-521.365052095814
 31
0.0
  0
LINE
  5
4AB
330
1F
100
AcDbEntity
  8
D-0
  6
Continuous
 62
     7
370
     9
100
AcDbLine
 10
-703.7155905686383
 20
-582.5772293724253
 30
0.0
 11
-703.7155905686383
 21
-581.076966158314
 31
0.0
  0
LINE
  5
4AC
330
1F
100
AcDbEntity
  8
D-0
  6
Continuous
 62
     7
370
     9
100
AcDbLine
 10
-703.7155905686383
 20
-581.076966158314
 30
0.0
 11
-702.2158041916852
 21
-581.076966158314
 31
0.0
  0
LINE
  5
4AD
330
1F
100
AcDbEntity
  8
D-0
  6
Continuous
 62
     7
370
     9
100
AcDbLine
 10
-702.2158041916852
 20
-581.076966158314
 30
0.0
 11
-702.2158041916852
 21
-582.5772293724253
 31
0.0
  0
LINE
  5
4AE
330
1F
100
AcDbEntity
  8
D-0
  6
Continuous
 62
     7
370
     9
100
AcDbLine
 10
-702.2158041916852
 20
-582.5772293724253
 30
0.0
 11
-703.7155905686383
 21
-582.5772293724253
 31
0.0
  0
LINE
  5
4AF
330
1F
100
AcDbEntity
  8
D-0
  6
Continuous
 62
     7
370
     9
100
AcDbLine
 10
-717.5381794892315
 20
-641.8149956382945
 30
0.0
 11
-717.5381794892315
 21
-640.3147133506968
 31
0.0
  0
LINE
  5
4B0
330
1F
100
AcDbEntity
  8
D-0
  6
Continuous
 62
     7
370
     9
100
AcDbLine
 10
-717.5381794892315
 20
-640.3147133506968
 30
0.0
 11
-716.0378972016339
 21
-640.3147133506968
 31
0.0
  0
LINE
  5
4B1
330
1F
100
AcDbEntity
  8
D-0
  6
Continuous
 62
     7
370
     9
100
AcDbLine
 10
-716.0378972016339
 20
-640.3147133506968
 30
0.0
 11
-716.0378972016339
 21
-641.8149956382945
 31
0.0
  0
LINE
  5
4B2
330
1F
100
AcDbEntity
  8
D-0
  6
Continuous
 62
     7
370
     9
100
AcDbLine
 10
-716.0378972016339
 20
-641.8149956382945
 30
0.0
 11
-717.5381794892315
 21
-641.8149956382945
 31
0.0
  0
LINE
  5
4B3
330
1F
100
AcDbEntity
  8
D-0
  6
Continuous
 62
     7
370
     9
100
AcDbLine
 10
-748.1442728959088
 20
-652.6751717247203
 30
0.0
 11
-748.1442728959088
 21
-651.1748894371226
 31
0.0
  0
LINE
  5
4B4
330
1F
100
AcDbEntity
  8
D-0
  6
Continuous
 62
     7
370
     9
100
AcDbLine
 10
-748.1442728959088
 20
-651.1748894371226
 30
0.0
 11
-746.6440001450543
 21
-651.1748894371226
 31
0.0
  0
LINE
  5
4B5
330
1F
100
AcDbEntity
  8
D-0
  6
Continuous
 62
     7
370
     9
100
AcDbLine
 10
-746.6440001450543
 20
-651.1748894371226
 30
0.0
 11
-746.6440001450543
 21
-652.6751717247203
 31
0.0
  0
LINE
  5
4B6
330
1F
100
AcDbEntity
  8
D-0
  6
Continuous
 62
     7
370
     9
100
AcDbLine
 10
-746.6440001450543
 20
-652.6751717247203
 30
0.0
 11
-748.1442728959088
 21
-652.6751717247203
 31
0.0
  0
LINE
  5
4B7
330
1F
100
AcDbEntity
  8
D-0
  6
Continuous
 62
     7
370
     9
100
AcDbLine
 10
-770.9977713547711
 20
-586.5266235984996
 30
0.0
 11
-770.9977713547711
 21
-585.0263413109019
 31
0.0
  0
LINE
  5
4B8
330
1F
100
AcDbEntity
  8
D-0
  6
Continuous
 62
     7
370
     9
100
AcDbLine
 10
-770.9977713547711
 20
-585.0263413109019
 30
0.0
 11
-769.497984977818
 21
-585.0263413109019
 31
0.0
  0
LINE
  5
4B9
330
1F
100
AcDbEntity
  8
D-0
  6
Continuous
 62
     7
370
     9
100
AcDbLine
 10
-769.497984977818
 20
-585.0263413109019
 30
0.0
 11
-769.497984977818
 21
-586.5266235984996
 31
0.0
  0
LINE
  5
4BA
330
1F
100
AcDbEntity
  8
D-0
  6
Continuous
 62
     7
370
     9
100
AcDbLine
 10
-769.497984977818
 20
-586.5266235984996
 30
0.0
 11
-770.9977713547711
 21
-586.5266235984996
 31
0.0
  0
LINE
  5
4BB
330
1F
100
AcDbEntity
  8
D-0
  6
Continuous
 62
     7
370
     9
100
AcDbLine
 10
-737.284096809483
 20
-505.5680092491343
 30
0.0
 11
-737.284096809483
 21
-504.0677269615367
 31
0.0
  0
LINE
  5
4BC
330
1F
100
AcDbEntity
  8
D-0
  6
Continuous
 62
     7
370
     9
100
AcDbLine
 10
-737.284096809483
 20
-504.0677269615367
 30
0.0
 11
-735.7838145218853
 21
-504.0677269615367
 31
0.0
  0
LINE
  5
4BD
330
1F
100
AcDbEntity
  8
D-0
  6
Continuous
 62
     7
370
     9
100
AcDbLine
 10
-735.7838145218853
 20
-504.0677269615367
 30
0.0
 11
-735.7838145218853
 21
-505.5680092491343
 31
0.0
  0
LINE
  5
4BE
330
1F
100
AcDbEntity
  8
D-0
  6
Continuous
 62
     7
370
     9
100
AcDbLine
 10
-735.7838145218853
 20
-505.5680092491343
 30
0.0
 11
-737.284096809483
 21
-505.5680092491343
 31
0.0
  0
LINE
  5
4BF
330
1F
100
AcDbEntity
  8
D-0
  6
Continuous
 62
     7
370
     9
100
AcDbLine
 10
-745.1823607407574
 20
-564.8062523521617
 30
0.0
 11
-745.1823607407574
 21
-563.3059891380503
 31
0.0
  0
LINE
  5
4C0
330
1F
100
AcDbEntity
  8
D-0
  6
Continuous
 62
     7
370
     9
100
AcDbLine
 10
-745.1823607407574
 20
-563.3059891380503
 30
0.0
 11
-743.6820784531598
 21
-563.3059891380503
 31
0.0
  0
LINE
  5
4C1
330
1F
100
AcDbEntity
  8
D-0
  6
Continuous
 62
     7
370
     9
100
AcDbLine
 10
-743.6820784531598
 20
-563.3059891380503
 30
0.0
 11
-743.6820784531598
 21
-564.8062523521617
 31
0.0
  0
LINE
  5
4C2
330
1F
100
AcDbEntity
  8
D-0
  6
Continuous
 62
     7
370
     9
100
AcDbLine
 10
-743.6820784531598
 20
-564.8062523521617
 30
0.0
 11
-745.1823607407574
 21
-564.8062523521617
 31
0.0
  0
LINE
  5
4C3
330
1F
100
AcDbEntity
  8
D-0
  6
Continuous
 62
     7
370
     9
100
AcDbLine
 10
-681.9952288590436
 20
-617.2991951622203
 30
0.0
 11
-681.9952288590436
 21
-615.7989128746226
 31
0.0
  0
LINE
  5
4C4
330
1F
100
AcDbEntity
  8
D-0
  6
Continuous
 62
     7
370
     9
100
AcDbLine
 10
-681.9952288590436
 20
-615.7989128746226
 30
0.0
 11
-680.4954448662762
 21
-615.7989128746226
 31
0.0
  0
LINE
  5
4C5
330
1F
100
AcDbEntity
  8
D-0
  6
Continuous
 62
     7
370
     9
100
AcDbLine
 10
-680.4954448662762
 20
-615.7989128746226
 30
0.0
 11
-680.4954448662762
 21
-617.2991951622203
 31
0.0
  0
LINE
  5
4C6
330
1F
100
AcDbEntity
  8
D-0
  6
Continuous
 62
     7
370
     9
100
AcDbLine
 10
-680.4954448662762
 20
-617.2991951622203
 30
0.0
 11
-681.9952288590436
 21
-617.2991951622203
 31
0.0
  0
LINE
  5
4C7
330
1F
100
AcDbEntity
  8
D-0
  6
Continuous
 62
     7
370
     9
100
AcDbLine
 10
-759.0044585190777
 20
-755.1782616295054
 30
0.0
 11
-759.0044585190777
 21
-753.6779793419078
 31
0.0
  0
LINE
  5
4C8
330
1F
100
AcDbEntity
  8
D-0
  6
Continuous
 62
     7
370
     9
100
AcDbLine
 10
-759.0044585190777
 20
-753.6779793419078
 30
0.0
 11
-757.5046721421246
 21
-753.6779793419078
 31
0.0
  0
LINE
  5
4C9
330
1F
100
AcDbEntity
  8
D-0
  6
Continuous
 62
     7
370
     9
100
AcDbLine
 10
-757.5046721421246
 20
-753.6779793419078
 30
0.0
 11
-757.5046721421246
 21
-755.1782616295054
 31
0.0
  0
LINE
  5
4CA
330
1F
100
AcDbEntity
  8
D-0
  6
Continuous
 62
     7
370
     9
100
AcDbLine
 10
-757.5046721421246
 20
-755.1782616295054
 30
0.0
 11
-759.0044585190777
 21
-755.1782616295054
 31
0.0
  0
LINE
  5
4CB
330
1F
100
AcDbEntity
  8
D-0
  6
Continuous
 62
     7
370
     9
100
AcDbLine
 10
-688.614195915318
 20
-758.8903053917124
 30
0.0
 11
-688.614195915318
 21
-757.3900231041148
 31
0.0
  0
LINE
  5
4CC
330
1F
100
AcDbEntity
  8
D-0
  6
Continuous
 62
     7
370
     9
100
AcDbLine
 10
-688.614195915318
 20
-757.3900231041148
 30
0.0
 11
-687.1144119225506
 21
-757.3900231041148
 31
0.0
  0
LINE
  5
4CD
330
1F
100
AcDbEntity
  8
D-0
  6
Continuous
 62
     7
370
     9
100
AcDbLine
 10
-687.1144119225506
 20
-757.3900231041148
 30
0.0
 11
-687.1144119225506
 21
-758.8903053917124
 31
0.0
  0
LINE
  5
4CE
330
1F
100
AcDbEntity
  8
D-0
  6
Continuous
 62
     7
370
     9
100
AcDbLine
 10
-687.1144119225506
 20
-758.8903053917124
 30
0.0
 11
-688.614195915318
 21
-758.8903053917124
 31
0.0
  0
LINE
  5
4CF
330
1F
100
AcDbEntity
  8
D-0
  6
Continuous
 62
     7
370
     9
100
AcDbLine
 10
-664.2237556301121
 20
-784.7968681968882
 30
0.0
 11
-664.2237556301121
 21
-783.2965859092906
 31
0.0
  0
LINE
  5
4D0
330
1F
100
AcDbEntity
  8
D-0
  6
Continuous
 62
     7
370
     9
100
AcDbLine
 10
-664.2237556301121
 20
-783.2965859092906
 30
0.0
 11
-662.7239714883332
 21
-783.2965859092906
 31
0.0
  0
LINE
  5
4D1
330
1F
100
AcDbEntity
  8
D-0
  6
Continuous
 62
     7
370
     9
100
AcDbLine
 10
-662.7239714883332
 20
-783.2965859092906
 30
0.0
 11
-662.7239714883332
 21
-784.7968681968882
 31
0.0
  0
LINE
  5
4D2
330
1F
100
AcDbEntity
  8
D-0
  6
Continuous
 62
     7
370
     9
100
AcDbLine
 10
-662.7239714883332
 20
-784.7968681968882
 30
0.0
 11
-664.2237556301121
 21
-784.7968681968882
 31
0.0
  0
LINE
  5
4D3
330
1F
100
AcDbEntity
  8
D-0
  6
Continuous
 62
     7
370
     9
100
AcDbLine
 10
-657.9451752029423
 20
-823.0089195884898
 30
0.0
 11
-657.9451752029423
 21
-821.5086373008921
 31
0.0
  0
LINE
  5
4D4
330
1F
100
AcDbEntity
  8
D-0
  6
Continuous
 62
     7
370
     9
100
AcDbLine
 10
-657.9451752029423
 20
-821.5086373008921
 30
0.0
 11
-656.4448958955769
 21
-821.5086373008921
 31
0.0
  0
LINE
  5
4D5
330
1F
100
AcDbEntity
  8
D-0
  6
Continuous
 62
     7
370
     9
100
AcDbLine
 10
-656.4448958955769
 20
-821.5086373008921
 30
0.0
 11
-656.4448958955769
 21
-823.0089195884898
 31
0.0
  0
LINE
  5
4D6
330
1F
100
AcDbEntity
  8
D-0
  6
Continuous
 62
     7
370
     9
100
AcDbLine
 10
-656.4448958955769
 20
-823.0089195884898
 30
0.0
 11
-657.9451752029423
 21
-823.0089195884898
 31
0.0
  0
LINE
  5
4D7
330
1F
100
AcDbEntity
  8
D-0
  6
Continuous
 62
     7
370
     9
100
AcDbLine
 10
-732.1738282166485
 20
-828.4674843467906
 30
0.0
 11
-732.1738282166485
 21
-826.9672020591929
 31
0.0
  0
LINE
  5
4D8
330
1F
100
AcDbEntity
  8
D-0
  6
Continuous
 62
     7
370
     9
100
AcDbLine
 10
-732.1738282166485
 20
-826.9672020591929
 30
0.0
 11
-730.6735506974225
 21
-826.9672020591929
 31
0.0
  0
LINE
  5
4D9
330
1F
100
AcDbEntity
  8
D-0
  6
Continuous
 62
     7
370
     9
100
AcDbLine
 10
-730.6735506974225
 20
-826.9672020591929
 30
0.0
 11
-730.6735506974225
 21
-828.4674843467906
 31
0.0
  0
LINE
  5
4DA
330
1F
100
AcDbEntity
  8
D-0
  6
Continuous
 62
     7
370
     9
100
AcDbLine
 10
-730.6735506974225
 20
-828.4674843467906
 30
0.0
 11
-732.1738282166485
 21
-828.4674843467906
 31
0.0
  0
LINE
  5
4DB
330
1F
100
AcDbEntity
  8
D-0
  6
Continuous
 62
     7
370
     9
100
AcDbLine
 10
-766.9027224503521
 20
-819.1710289634898
 30
0.0
 11
-766.9027224503521
 21
-817.6707466758921
 31
0.0
  0
LINE
  5
4DC
330
1F
100
AcDbEntity
  8
D-0
  6
Continuous
 62
     7
370
     9
100
AcDbLine
 10
-766.9027224503521
 20
-817.6707466758921
 30
0.0
 11
-765.4024401627545
 21
-817.6707466758921
 31
0.0
  0
LINE
  5
4DD
330
1F
100
AcDbEntity
  8
D-0
  6
Continuous
 62
     7
370
     9
100
AcDbLine
 10
-765.4024401627545
 20
-817.6707466758921
 30
0.0
 11
-765.4024401627545
 21
-819.1710289634898
 31
0.0
  0
LINE
  5
4DE
330
1F
100
AcDbEntity
  8
D-0
  6
Continuous
 62
     7
370
     9
100
AcDbLine
 10
-765.4024401627545
 20
-819.1710289634898
 30
0.0
 11
-766.9027224503521
 21
-819.1710289634898
 31
0.0
  0
LINE
  5
4DF
330
1F
100
AcDbEntity
  8
D-0
  6
Continuous
 62
     7
370
     9
100
AcDbLine
 10
-769.1139975510602
 20
-778.8730629600718
 30
0.0
 11
-769.1139975510602
 21
-777.3727806724742
 31
0.0
  0
LINE
  5
4E0
330
1F
100
AcDbEntity
  8
D-0
  6
Continuous
 62
     7
370
     9
100
AcDbLine
 10
-769.1139975510602
 20
-777.3727806724742
 30
0.0
 11
-767.614211174107
 21
-777.3727806724742
 31
0.0
  0
LINE
  5
4E1
330
1F
100
AcDbEntity
  8
D-0
  6
Continuous
 62
     7
370
     9
100
AcDbLine
 10
-767.614211174107
 20
-777.3727806724742
 30
0.0
 11
-767.614211174107
 21
-778.8730629600718
 31
0.0
  0
LINE
  5
4E2
330
1F
100
AcDbEntity
  8
D-0
  6
Continuous
 62
     7
370
     9
100
AcDbLine
 10
-767.614211174107
 20
-778.8730629600718
 30
0.0
 11
-769.1139975510602
 21
-778.8730629600718
 31
0.0
  0
LINE
  5
4E3
330
1F
100
AcDbEntity
  8
D-0
  6
Continuous
 62
     7
370
     9
100
AcDbLine
 10
-711.6143551789288
 20
-798.6189659752085
 30
0.0
 11
-711.6143551789288
 21
-797.1186836876109
 31
0.0
  0
LINE
  5
4E4
330
1F
100
AcDbEntity
  8
D-0
  6
Continuous
 62
     7
370
     9
100
AcDbLine
 10
-711.6143551789288
 20
-797.1186836876109
 30
0.0
 11
-710.1140728913311
 21
-797.1186836876109
 31
0.0
  0
LINE
  5
4E5
330
1F
100
AcDbEntity
  8
D-0
  6
Continuous
 62
     7
370
     9
100
AcDbLine
 10
-710.1140728913311
 20
-797.1186836876109
 30
0.0
 11
-710.1140728913311
 21
-798.6189659752085
 31
0.0
  0
LINE
  5
4E6
330
1F
100
AcDbEntity
  8
D-0
  6
Continuous
 62
     7
370
     9
100
AcDbLine
 10
-710.1140728913311
 20
-798.6189659752085
 30
0.0
 11
-711.6143551789288
 21
-798.6189659752085
 31
0.0
  0
LINE
  5
4E7
330
1F
100
AcDbEntity
  8
D-0
  6
Continuous
 62
     7
370
     9
100
AcDbLine
 10
-723.4620037995343
 20
-765.0509651817515
 30
0.0
 11
-723.4620037995343
 21
-763.5506828941539
 31
0.0
  0
LINE
  5
4E8
330
1F
100
AcDbEntity
  8
D-0
  6
Continuous
 62
     7
370
     9
100
AcDbLine
 10
-723.4620037995343
 20
-763.5506828941539
 30
0.0
 11
-721.9617215119366
 21
-763.5506828941539
 31
0.0
  0
LINE
  5
4E9
330
1F
100
AcDbEntity
  8
D-0
  6
Continuous
 62
     7
370
     9
100
AcDbLine
 10
-721.9617215119366
 20
-763.5506828941539
 30
0.0
 11
-721.9617215119366
 21
-765.0509651817515
 31
0.0
  0
LINE
  5
4EA
330
1F
100
AcDbEntity
  8
D-0
  6
Continuous
 62
     7
370
     9
100
AcDbLine
 10
-721.9617215119366
 20
-765.0509651817515
 30
0.0
 11
-723.4620037995343
 21
-765.0509651817515
 31
0.0
  0
LINE
  5
4EB
330
1F
100
AcDbEntity
  8
D-0
  6
Continuous
 62
     7
370
     9
100
AcDbLine
 10
-668.1731370411877
 20
-650.8671959556773
 30
0.0
 11
-668.1731370411877
 21
-649.366932741566
 31
0.0
  0
LINE
  5
4EC
330
1F
100
AcDbEntity
  8
D-0
  6
Continuous
 62
     7
370
     9
100
AcDbLine
 10
-668.1731370411877
 20
-649.366932741566
 30
0.0
 11
-666.6733530484204
 21
-649.366932741566
 31
0.0
  0
LINE
  5
4ED
330
1F
100
AcDbEntity
  8
D-0
  6
Continuous
 62
     7
370
     9
100
AcDbLine
 10
-666.6733530484204
 20
-649.366932741566
 30
0.0
 11
-666.6733530484204
 21
-650.8671959556773
 31
0.0
  0
LINE
  5
4EE
330
1F
100
AcDbEntity
  8
D-0
  6
Continuous
 62
     7
370
     9
100
AcDbLine
 10
-666.6733530484204
 20
-650.8671959556773
 30
0.0
 11
-668.1731370411877
 21
-650.8671959556773
 31
0.0
  0
LINE
  5
4EF
330
1F
100
AcDbEntity
  8
D-0
  6
Continuous
 62
     7
370
     9
100
AcDbLine
 10
-656.3259831391339
 20
-550.9836777366831
 30
0.0
 11
-656.3259831391339
 21
-549.4833954490855
 31
0.0
  0
LINE
  5
4F0
330
1F
100
AcDbEntity
  8
D-0
  6
Continuous
 62
     7
370
     9
100
AcDbLine
 10
-656.3259831391339
 20
-549.4833954490855
 30
0.0
 11
-654.8257038317685
 21
-549.4833954490855
 31
0.0
  0
LINE
  5
4F1
330
1F
100
AcDbEntity
  8
D-0
  6
Continuous
 62
     7
370
     9
100
AcDbLine
 10
-654.8257038317685
 20
-549.4833954490855
 30
0.0
 11
-654.8257038317685
 21
-550.9836777366831
 31
0.0
  0
LINE
  5
4F2
330
1F
100
AcDbEntity
  8
D-0
  6
Continuous
 62
     7
370
     9
100
AcDbLine
 10
-654.8257038317685
 20
-550.9836777366831
 30
0.0
 11
-656.3259831391339
 21
-550.9836777366831
 31
0.0
  0
LINE
  5
4F3
330
1F
100
AcDbEntity
  8
D-0
  6
Continuous
 62
     7
370
     9
100
AcDbLine
 10
-560.214947792149
 20
-562.2080238975718
 30
0.0
 11
-560.214947792149
 21
-560.7077416099742
 31
0.0
  0
LINE
  5
4F4
330
1F
100
AcDbEntity
  8
D-0
  6
Continuous
 62
     7
370
     9
100
AcDbLine
 10
-560.214947792149
 20
-560.7077416099742
 30
0.0
 11
-558.7151614151959
 21
-560.7077416099742
 31
0.0
  0
LINE
  5
4F5
330
1F
100
AcDbEntity
  8
D-0
  6
Continuous
 62
     7
370
     9
100
AcDbLine
 10
-558.7151614151959
 20
-560.7077416099742
 30
0.0
 11
-558.7151614151959
 21
-562.2080238975718
 31
0.0
  0
LINE
  5
4F6
330
1F
100
AcDbEntity
  8
D-0
  6
Continuous
 62
     7
370
     9
100
AcDbLine
 10
-558.7151614151959
 20
-562.2080238975718
 30
0.0
 11
-560.214947792149
 21
-562.2080238975718
 31
0.0
  0
LINE
  5
4F7
330
1F
100
AcDbEntity
  8
D-0
  6
Continuous
 62
     7
370
     9
100
AcDbLine
 10
-621.9315329514508
 20
-547.4613770164683
 30
0.0
 11
-621.9315329514508
 21
-545.961113802357
 31
0.0
  0
LINE
  5
4F8
330
1F
100
AcDbEntity
  8
D-0
  6
Continuous
 62
     7
370
     9
100
AcDbLine
 10
-621.9315329514508
 20
-545.961113802357
 30
0.0
 11
-620.4317465744977
 21
-545.961113802357
 31
0.0
  0
LINE
  5
4F9
330
1F
100
AcDbEntity
  8
D-0
  6
Continuous
 62
     7
370
     9
100
AcDbLine
 10
-620.4317465744977
 20
-545.961113802357
 30
0.0
 11
-620.4317465744977
 21
-547.4613770164683
 31
0.0
  0
LINE
  5
4FA
330
1F
100
AcDbEntity
  8
D-0
  6
Continuous
 62
     7
370
     9
100
AcDbLine
 10
-620.4317465744977
 20
-547.4613770164683
 30
0.0
 11
-621.9315329514508
 21
-547.4613770164683
 31
0.0
  0
LINE
  5
4FB
330
1F
100
AcDbEntity
  8
D-0
  6
Continuous
 62
     7
370
     9
100
AcDbLine
 10
-749.1312495194439
 20
-614.1708000816539
 30
0.0
 11
-749.1312495194439
 21
-612.6705177940562
 31
0.0
  0
LINE
  5
4FC
330
1F
100
AcDbEntity
  8
D-0
  6
Continuous
 62
     7
370
     9
100
AcDbLine
 10
-749.1312495194439
 20
-612.6705177940562
 30
0.0
 11
-747.6314631424908
 21
-612.6705177940562
 31
0.0
  0
LINE
  5
4FD
330
1F
100
AcDbEntity
  8
D-0
  6
Continuous
 62
     7
370
     9
100
AcDbLine
 10
-747.6314631424908
 20
-612.6705177940562
 30
0.0
 11
-747.6314631424908
 21
-614.1708000816539
 31
0.0
  0
LINE
  5
4FE
330
1F
100
AcDbEntity
  8
D-0
  6
Continuous
 62
     7
370
     9
100
AcDbLine
 10
-747.6314631424908
 20
-614.1708000816539
 30
0.0
 11
-749.1312495194439
 21
-614.1708000816539
 31
0.0
  0
LINE
  5
4FF
330
1F
100
AcDbEntity
  8
D-0
  6
Continuous
 62
     7
370
     9
100
AcDbLine
 10
-705.6905261002545
 20
-539.1365250267222
 30
0.0
 11
-705.6905261002545
 21
-537.6362427391246
 31
0.0
  0
LINE
  5
500
330
1F
100
AcDbEntity
  8
D-0
  6
Continuous
 62
     7
370
     9
100
AcDbLine
 10
-705.6905261002545
 20
-537.6362427391246
 30
0.0
 11
-704.1902485810284
 21
-537.6362427391246
 31
0.0
  0
LINE
  5
501
330
1F
100
AcDbEntity
  8
D-0
  6
Continuous
 62
     7
370
     9
100
AcDbLine
 10
-704.1902485810284
 20
-537.6362427391246
 30
0.0
 11
-704.1902485810284
 21
-539.1365250267222
 31
0.0
  0
LINE
  5
502
330
1F
100
AcDbEntity
  8
D-0
  6
Continuous
 62
     7
370
     9
100
AcDbLine
 10
-704.1902485810284
 20
-539.1365250267222
 30
0.0
 11
-705.6905261002545
 21
-539.1365250267222
 31
0.0
  0
LINE
  5
503
330
1F
100
AcDbEntity
  8
D-0
  6
Continuous
 62
     7
370
     9
100
AcDbLine
 10
-770.8521071396832
 20
-535.187130800648
 30
0.0
 11
-770.8521071396832
 21
-533.6868485130503
 31
0.0
  0
LINE
  5
504
330
1F
100
AcDbEntity
  8
D-0
  6
Continuous
 62
     7
370
     9
100
AcDbLine
 10
-770.8521071396832
 20
-533.6868485130503
 30
0.0
 11
-769.3518248520855
 21
-533.6868485130503
 31
0.0
  0
LINE
  5
505
330
1F
100
AcDbEntity
  8
D-0
  6
Continuous
 62
     7
370
     9
100
AcDbLine
 10
-769.3518248520855
 20
-533.6868485130503
 30
0.0
 11
-769.3518248520855
 21
-535.187130800648
 31
0.0
  0
LINE
  5
506
330
1F
100
AcDbEntity
  8
D-0
  6
Continuous
 62
     7
370
     9
100
AcDbLine
 10
-769.3518248520855
 20
-535.187130800648
 30
0.0
 11
-770.8521071396832
 21
-535.187130800648
 31
0.0
  0
LINE
  5
507
330
1F
100
AcDbEntity
  8
D-0
  6
Continuous
 62
     7
370
     9
100
AcDbLine
 10
-718.0108538590436
 20
-472.3998459495738
 30
0.0
 11
-718.0108538590436
 21
-470.8995636619761
 31
0.0
  0
LINE
  5
508
330
1F
100
AcDbEntity
  8
D-0
  6
Continuous
 62
     7
370
     9
100
AcDbLine
 10
-718.0108538590436
 20
-470.8995636619761
 30
0.0
 11
-716.5105763398175
 21
-470.8995636619761
 31
0.0
  0
LINE
  5
509
330
1F
100
AcDbEntity
  8
D-0
  6
Continuous
 62
     7
370
     9
100
AcDbLine
 10
-716.5105763398175
 20
-470.8995636619761
 30
0.0
 11
-716.5105763398175
 21
-472.3998459495738
 31
0.0
  0
LINE
  5
50A
330
1F
100
AcDbEntity
  8
D-0
  6
Continuous
 62
     7
370
     9
100
AcDbLine
 10
-716.5105763398175
 20
-472.3998459495738
 30
0.0
 11
-718.0108538590436
 21
-472.3998459495738
 31
0.0
  0
LINE
  5
50B
330
1F
100
AcDbEntity
  8
D-0
  6
Continuous
 62
     7
370
     9
100
AcDbLine
 10
-662.2498078964715
 20
-583.7311943687632
 30
0.0
 11
-662.2498078964715
 21
-582.2309120811656
 31
0.0
  0
LINE
  5
50C
330
1F
100
AcDbEntity
  8
D-0
  6
Continuous
 62
     7
370
     9
100
AcDbLine
 10
-662.2498078964715
 20
-582.2309120811656
 30
0.0
 11
-660.7495284959738
 21
-582.2309120811656
 31
0.0
  0
LINE
  5
50D
330
1F
100
AcDbEntity
  8
D-0
  6
Continuous
 62
     7
370
     9
100
AcDbLine
 10
-660.7495284959738
 20
-582.2309120811656
 30
0.0
 11
-660.7495284959738
 21
-583.7311943687632
 31
0.0
  0
LINE
  5
50E
330
1F
100
AcDbEntity
  8
D-0
  6
Continuous
 62
     7
370
     9
100
AcDbLine
 10
-660.7495284959738
 20
-583.7311943687632
 30
0.0
 11
-662.2498078964715
 21
-583.7311943687632
 31
0.0
  0
LINE
  5
50F
330
1F
100
AcDbEntity
  8
D-0
  6
Continuous
 62
     7
370
     9
100
AcDbLine
 10
-721.4870634995465
 20
-606.2725456871226
 30
0.0
 11
-721.4870634995465
 21
-604.772263399525
 31
0.0
  0
LINE
  5
510
330
1F
100
AcDbEntity
  8
D-0
  6
Continuous
 62
     7
370
     9
100
AcDbLine
 10
-721.4870634995465
 20
-604.772263399525
 30
0.0
 11
-719.9872818909649
 21
-604.772263399525
 31
0.0
  0
LINE
  5
511
330
1F
100
AcDbEntity
  8
D-0
  6
Continuous
 62
     7
370
     9
100
AcDbLine
 10
-719.9872818909649
 20
-604.772263399525
 30
0.0
 11
-719.9872818909649
 21
-606.2725456871226
 31
0.0
  0
LINE
  5
512
330
1F
100
AcDbEntity
  8
D-0
  6
Continuous
 62
     7
370
     9
100
AcDbLine
 10
-719.9872818909649
 20
-606.2725456871226
 30
0.0
 11
-721.4870634995465
 21
-606.2725456871226
 31
0.0
  0
LINE
  5
513
330
1F
100
AcDbEntity
  8
D-0
  6
Continuous
 62
     7
370
     9
100
AcDbLine
 10
-709.639414878941
 20
-679.3323906578257
 30
0.0
 11
-709.639414878941
 21
-677.8321083702281
 31
0.0
  0
LINE
  5
514
330
1F
100
AcDbEntity
  8
D-0
  6
Continuous
 62
     7
370
     9
100
AcDbLine
 10
-709.639414878941
 20
-677.8321083702281
 30
0.0
 11
-708.1396285019879
 21
-677.8321083702281
 31
0.0
  0
LINE
  5
515
330
1F
100
AcDbEntity
  8
D-0
  6
Continuous
 62
     7
370
     9
100
AcDbLine
 10
-708.1396285019879
 20
-677.8321083702281
 30
0.0
 11
-708.1396285019879
 21
-679.3323906578257
 31
0.0
  0
LINE
  5
516
330
1F
100
AcDbEntity
  8
D-0
  6
Continuous
 62
     7
370
     9
100
AcDbLine
 10
-708.1396285019879
 20
-679.3323906578257
 30
0.0
 11
-709.639414878941
 21
-679.3323906578257
 31
0.0
  0
LINE
  5
517
330
1F
100
AcDbEntity
  8
D-0
  6
Continuous
 62
     7
370
     9
100
AcDbLine
 10
-758.016985984898
 20
-678.344918123646
 30
0.0
 11
-758.016985984898
 21
-676.8446358360484
 31
0.0
  0
LINE
  5
518
330
1F
100
AcDbEntity
  8
D-0
  6
Continuous
 62
     7
370
     9
100
AcDbLine
 10
-758.016985984898
 20
-676.8446358360484
 30
0.0
 11
-756.5167036973004
 21
-676.8446358360484
 31
0.0
  0
LINE
  5
519
330
1F
100
AcDbEntity
  8
D-0
  6
Continuous
 62
     7
370
     9
100
AcDbLine
 10
-756.5167036973004
 20
-676.8446358360484
 30
0.0
 11
-756.5167036973004
 21
-678.344918123646
 31
0.0
  0
LINE
  5
51A
330
1F
100
AcDbEntity
  8
D-0
  6
Continuous
 62
     7
370
     9
100
AcDbLine
 10
-756.5167036973004
 20
-678.344918123646
 30
0.0
 11
-758.016985984898
 21
-678.344918123646
 31
0.0
  0
LINE
  5
51B
330
1F
100
AcDbEntity
  8
D-0
  6
Continuous
 62
     7
370
     9
100
AcDbLine
 10
-745.0639430008893
 20
-797.4506386436656
 30
0.0
 11
-745.0639430008893
 21
-795.9503563560679
 31
0.0
  0
LINE
  5
51C
330
1F
100
AcDbEntity
  8
D-0
  6
Continuous
 62
     7
370
     9
100
AcDbLine
 10
-745.0639430008893
 20
-795.9503563560679
 30
0.0
 11
-743.5641661606793
 21
-795.9503563560679
 31
0.0
  0
LINE
  5
51D
330
1F
100
AcDbEntity
  8
D-0
  6
Continuous
 62
     7
370
     9
100
AcDbLine
 10
-743.5641661606793
 20
-795.9503563560679
 30
0.0
 11
-743.5641661606793
 21
-797.4506386436656
 31
0.0
  0
LINE
  5
51E
330
1F
100
AcDbEntity
  8
D-0
  6
Continuous
 62
     7
370
     9
100
AcDbLine
 10
-743.5641661606793
 20
-797.4506386436656
 30
0.0
 11
-745.0639430008893
 21
-797.4506386436656
 31
0.0
  0
LINE
  5
51F
330
1F
100
AcDbEntity
  8
D-0
  6
Continuous
 62
     7
370
     9
100
AcDbLine
 10
-694.5380226098065
 20
-826.9582756675914
 30
0.0
 11
-694.5380226098065
 21
-825.4580315269664
 31
0.0
  0
LINE
  5
520
330
1F
100
AcDbEntity
  8
D-0
  6
Continuous
 62
     7
370
     9
100
AcDbLine
 10
-694.5380226098065
 20
-825.4580315269664
 30
0.0
 11
-693.0382386170392
 21
-825.4580315269664
 31
0.0
  0
LINE
  5
521
330
1F
100
AcDbEntity
  8
D-0
  6
Continuous
 62
     7
370
     9
100
AcDbLine
 10
-693.0382386170392
 20
-825.4580315269664
 30
0.0
 11
-693.0382386170392
 21
-826.9582756675914
 31
0.0
  0
LINE
  5
522
330
1F
100
AcDbEntity
  8
D-0
  6
Continuous
 62
     7
370
     9
100
AcDbLine
 10
-693.0382386170392
 20
-826.9582756675914
 30
0.0
 11
-694.5380226098065
 21
-826.9582756675914
 31
0.0
  0
LINE
  5
523
330
1F
100
AcDbEntity
  8
D-0
  6
Continuous
 62
     7
370
     9
100
AcDbLine
 10
-658.3004263363842
 20
-751.2288674034312
 30
0.0
 11
-658.3004263363842
 21
-749.7285851158335
 31
0.0
  0
LINE
  5
524
330
1F
100
AcDbEntity
  8
D-0
  6
Continuous
 62
     7
370
     9
100
AcDbLine
 10
-658.3004263363842
 20
-749.7285851158335
 30
0.0
 11
-656.8001467309956
 21
-749.7285851158335
 31
0.0
  0
LINE
  5
525
330
1F
100
AcDbEntity
  8
D-0
  6
Continuous
 62
     7
370
     9
100
AcDbLine
 10
-656.8001467309956
 20
-749.7285851158335
 30
0.0
 11
-656.8001467309956
 21
-751.2288674034312
 31
0.0
  0
LINE
  5
526
330
1F
100
AcDbEntity
  8
D-0
  6
Continuous
 62
     7
370
     9
100
AcDbLine
 10
-656.8001467309956
 20
-751.2288674034312
 30
0.0
 11
-658.3004263363842
 21
-751.2288674034312
 31
0.0
  0
LINE
  5
527
330
1F
100
AcDbEntity
  8
D-0
  6
Continuous
 62
     7
370
     9
100
AcDbLine
 10
-775.3331271134381
 20
-633.165589205189
 30
0.0
 11
-775.3331271134381
 21
-631.6653069175914
 31
0.0
  0
LINE
  5
528
330
1F
100
AcDbEntity
  8
D-0
  6
Continuous
 62
     7
370
     9
100
AcDbLine
 10
-775.3331271134381
 20
-631.6653069175914
 30
0.0
 11
-773.8328448258404
 21
-631.6653069175914
 31
0.0
  0
LINE
  5
529
330
1F
100
AcDbEntity
  8
D-0
  6
Continuous
 62
     7
370
     9
100
AcDbLine
 10
-773.8328448258404
 20
-631.6653069175914
 30
0.0
 11
-773.8328448258404
 21
-633.165589205189
 31
0.0
  0
LINE
  5
52A
330
1F
100
AcDbEntity
  8
D-0
  6
Continuous
 62
     7
370
     9
100
AcDbLine
 10
-773.8328448258404
 20
-633.165589205189
 30
0.0
 11
-775.3331271134381
 21
-633.165589205189
 31
0.0
  0
LINE
  5
52B
330
1F
100
AcDbEntity
  8
D-0
  6
Continuous
 62
     7
370
     9
100
AcDbLine
 10
-658.4114113770489
 20
-676.8996437706187
 30
0.0
 11
-658.4114113770489
 21
-675.399361483021
 31
0.0
  0
LINE
  5
52C
330
1F
100
AcDbEntity
  8
D-0
  6
Continuous
 62
     7
370
     9
100
AcDbLine
 10
-658.4114113770489
 20
-675.399361483021
 30
0.0
 11
-656.9111317716603
 21
-675.399361483021
 31
0.0
  0
LINE
  5
52D
330
1F
100
AcDbEntity
  8
D-0
  6
Continuous
 62
     7
370
     9
100
AcDbLine
 10
-656.9111317716603
 20
-675.399361483021
 30
0.0
 11
-656.9111317716603
 21
-676.8996437706187
 31
0.0
  0
LINE
  5
52E
330
1F
100
AcDbEntity
  8
D-0
  6
Continuous
 62
     7
370
     9
100
AcDbLine
 10
-656.9111317716603
 20
-676.8996437706187
 30
0.0
 11
-658.4114113770489
 21
-676.8996437706187
 31
0.0
  0
LINE
  5
52F
330
1F
100
AcDbEntity
  8
D-0
  6
Continuous
 62
     7
370
     9
100
AcDbLine
 10
-683.1417432747845
 20
-800.2455910362437
 30
0.0
 11
-683.1417432747845
 21
-798.745308748646
 31
0.0
  0
LINE
  5
530
330
1F
100
AcDbEntity
  8
D-0
  6
Continuous
 62
     7
370
     9
100
AcDbLine
 10
-683.1417432747845
 20
-798.745308748646
 30
0.0
 11
-681.6414657555584
 21
-798.745308748646
 31
0.0
  0
LINE
  5
531
330
1F
100
AcDbEntity
  8
D-0
  6
Continuous
 62
     7
370
     9
100
AcDbLine
 10
-681.6414657555584
 20
-798.745308748646
 30
0.0
 11
-681.6414657555584
 21
-800.2455910362437
 31
0.0
  0
LINE
  5
532
330
1F
100
AcDbEntity
  8
D-0
  6
Continuous
 62
     7
370
     9
100
AcDbLine
 10
-681.6414657555584
 20
-800.2455910362437
 30
0.0
 11
-683.1417432747845
 21
-800.2455910362437
 31
0.0
  0
LINE
  5
533
330
1F
100
AcDbEntity
  8
D-0
  6
Continuous
 62
     7
370
     9
100
AcDbLine
 10
-651.2979659758572
 20
-487.7836521782115
 30
0.0
 11
-651.2979659758572
 21
-486.283379427357
 31
0.0
  0
LINE
  5
534
330
1F
100
AcDbEntity
  8
D-0
  6
Continuous
 62
     7
370
     9
100
AcDbLine
 10
-651.2979659758572
 20
-486.283379427357
 30
0.0
 11
-649.7976866684918
 21
-486.283379427357
 31
0.0
  0
LINE
  5
535
330
1F
100
AcDbEntity
  8
D-0
  6
Continuous
 62
     7
370
     9
100
AcDbLine
 10
-649.7976866684918
 20
-486.283379427357
 30
0.0
 11
-649.7976866684918
 21
-487.7836521782115
 31
0.0
  0
LINE
  5
536
330
1F
100
AcDbEntity
  8
D-0
  6
Continuous
 62
     7
370
     9
100
AcDbLine
 10
-649.7976866684918
 20
-487.7836521782115
 30
0.0
 11
-651.2979659758572
 21
-487.7836521782115
 31
0.0
  0
LINE
  5
537
330
1F
100
AcDbEntity
  8
D-0
  6
Continuous
 62
     7
370
     9
100
AcDbLine
 10
-557.687567802525
 20
-341.429612270756
 30
0.0
 11
-557.687567802525
 21
-339.9293329633906
 31
0.0
  0
LINE
  5
538
330
1F
100
AcDbEntity
  8
D-0
  6
Continuous
 62
     7
370
     9
100
AcDbLine
 10
-557.687567802525
 20
-339.9293329633906
 30
0.0
 11
-556.1872855149273
 21
-339.9293329633906
 31
0.0
  0
LINE
  5
539
330
1F
100
AcDbEntity
  8
D-0
  6
Continuous
 62
     7
370
     9
100
AcDbLine
 10
-556.1872855149273
 20
-339.9293329633906
 30
0.0
 11
-556.1872855149273
 21
-341.429612270756
 31
0.0
  0
LINE
  5
53A
330
1F
100
AcDbEntity
  8
D-0
  6
Continuous
 62
     7
370
     9
100
AcDbLine
 10
-556.1872855149273
 20
-341.429612270756
 30
0.0
 11
-557.687567802525
 21
-341.429612270756
 31
0.0
  0
LINE
  5
53B
330
1F
100
AcDbEntity
  8
D-0
  6
Continuous
 62
     7
370
     9
100
AcDbLine
 10
-579.2241087876324
 20
-372.6927002586558
 30
0.0
 11
-579.2241087876324
 21
-371.1924227394297
 31
0.0
  0
LINE
  5
53C
330
1F
100
AcDbEntity
  8
D-0
  6
Continuous
 62
     7
370
     9
100
AcDbLine
 10
-579.2241087876324
 20
-371.1924227394297
 30
0.0
 11
-577.7238265000348
 21
-371.1924227394297
 31
0.0
  0
LINE
  5
53D
330
1F
100
AcDbEntity
  8
D-0
  6
Continuous
 62
     7
370
     9
100
AcDbLine
 10
-577.7238265000348
 20
-371.1924227394297
 30
0.0
 11
-577.7238265000348
 21
-372.6927002586558
 31
0.0
  0
LINE
  5
53E
330
1F
100
AcDbEntity
  8
D-0
  6
Continuous
 62
     7
370
     9
100
AcDbLine
 10
-577.7238265000348
 20
-372.6927002586558
 30
0.0
 11
-579.2241087876324
 21
-372.6927002586558
 31
0.0
  0
LINE
  5
53F
330
1F
100
AcDbEntity
  8
D-0
  6
Continuous
 62
     7
370
     9
100
AcDbLine
 10
-587.6525250397686
 20
-541.952267519398
 30
0.0
 11
-587.6525250397686
 21
-540.4519852318003
 31
0.0
  0
LINE
  5
540
330
1F
100
AcDbEntity
  8
D-0
  6
Continuous
 62
     7
370
     9
100
AcDbLine
 10
-587.6525250397686
 20
-540.4519852318003
 30
0.0
 11
-586.1527386628155
 21
-540.4519852318003
 31
0.0
  0
LINE
  5
541
330
1F
100
AcDbEntity
  8
D-0
  6
Continuous
 62
     7
370
     9
100
AcDbLine
 10
-586.1527386628155
 20
-540.4519852318003
 30
0.0
 11
-586.1527386628155
 21
-541.952267519398
 31
0.0
  0
LINE
  5
542
330
1F
100
AcDbEntity
  8
D-0
  6
Continuous
 62
     7
370
     9
100
AcDbLine
 10
-586.1527386628155
 20
-541.952267519398
 30
0.0
 11
-587.6525250397686
 21
-541.952267519398
 31
0.0
  0
ARC
  5
543
330
1F
100
AcDbEntity
  8
D-9
  6
Continuous
 62
     4
370
     9
100
AcDbCircle
 10
-770.4601851426129
 20
-435.9675320305064
 30
0.0
 40
5.0
100
AcDbArc
 50
90.0
 51
180.0
  0
ARC
  5
544
330
1F
100
AcDbEntity
  8
D-A
  6
Continuous
 62
     3
370
     9
100
AcDbCircle
 10
-603.9598885499005
 20
-379.4667490638926
 30
0.0
 40
6.499999761581421
100
AcDbArc
 50
0.0
 51
90.0
  0
ARC
  5
545
330
1F
100
AcDbEntity
  8
D-A
  6
JWW_DASHED3
 62
     3
370
     9
100
AcDbCircle
 10
-603.9598885499005
 20
-402.4673994697764
 30
0.0
 40
6.499999761581421
100
AcDbArc
 50
270.0
 51
0.0
  0
ARC
  5
546
330
1F
100
AcDbEntity
  8
D-A
  6
Continuous
 62
     3
370
     9
100
AcDbCircle
 10
-620.459989639378
 20
-442.6092919029429
 30
0.0
 40
10.0
100
AcDbArc
 50
0.0
 51
45.0
  0
ARC
  5
547
330
1F
100
AcDbEntity
  8
D-A
  6
Continuous
 62
     3
370
     9
100
AcDbCircle
 10
-573.033722969151
 20
-383.4676607765391
 30
0.0
 40
30.0
100
AcDbArc
 50
224.9996643066406
 51
270.0
  0
ARC
  5
548
330
1F
100
AcDbEntity
  8
D-A
  6
Continuous
 62
     3
370
     9
100
AcDbCircle
 10
-495.4601565323834
 20
-423.4673508323863
 30
0.0
 40
10.0
100
AcDbArc
 50
0.0
 51
90.0
  0
ARC
  5
549
330
1F
100
AcDbEntity
  8
D-1
  6
Continuous
 62
     2
370
     9
100
AcDbCircle
 10
-780.4607287369732
 20
-440.9673031486705
 30
0.0
 40
5.0
100
AcDbArc
 50
90.0
 51
180.0
  0
ARC
  5
54A
330
1F
100
AcDbEntity
  8
D-1
  6
Continuous
 62
     2
370
     9
100
AcDbCircle
 10
-633.4605947457318
 20
-331.4672216095164
 30
0.0
 40
3.00000011920929
100
AcDbArc
 50
0.0
 51
90.0
  0
ARC
  5
54B
330
1F
100
AcDbEntity
  8
D-1
  6
Continuous
 62
     2
370
     9
100
AcDbCircle
 10
-652.4603358231549
 20
-331.4672216095164
 30
0.0
 40
3.00000011920929
100
AcDbArc
 50
90.0
 51
180.0
  0
ARC
  5
54C
330
1F
100
AcDbEntity
  8
D-1
  6
Continuous
 62
     2
370
     9
100
AcDbCircle
 10
-633.4605947457318
 20
-450.467425218983
 30
0.0
 40
3.00000011920929
100
AcDbArc
 50
270.0
 51
0.0
  0
ARC
  5
54D
330
1F
100
AcDbEntity
  8
D-1
  6
Continuous
 62
     2
370
     9
100
AcDbCircle
 10
-655.4608947359089
 20
-443.4674461998179
 30
0.0
 40
5.0
100
AcDbArc
 50
270.0
 51
0.0
  0
ARC
  5
54E
330
1F
100
AcDbEntity
  8
D-1
  6
Continuous
 62
     2
370
     9
100
AcDbCircle
 10
-727.4227801285748
 20
-440.9673031486705
 30
0.0
 40
5.0
100
AcDbArc
 50
70.43162536621094
 51
90.0
  0
ARC
  5
54F
330
1F
100
AcDbEntity
  8
D-1
  6
Continuous
 62
     2
370
     9
100
AcDbCircle
 10
-705.1569071732525
 20
-443.4674461998179
 30
0.0
 40
5.0
100
AcDbArc
 50
250.4390106201172
 51
270.0
  0
ARC
  5
550
330
1F
100
AcDbEntity
  8
D-1
  6
Continuous
 62
     2
370
     9
100
AcDbCircle
 10
-780.4607287369732
 20
-448.467217317982
 30
0.0
 40
5.0
100
AcDbArc
 50
180.0
 51
270.0
  0
ARC
  5
551
330
1F
100
AcDbEntity
  8
D-1
  6
Continuous
 62
     2
370
     9
100
AcDbCircle
 10
-769.7908106766705
 20
-440.9673031486705
 30
0.0
 40
5.0
100
AcDbArc
 50
59.99996948242189
 51
90.00000000000001
  0
ARC
  5
552
330
1F
100
AcDbEntity
  8
D-1
  6
Continuous
 62
     2
370
     9
100
AcDbCircle
 10
-741.13041791544
 20
-440.9673031486705
 30
0.0
 40
5.0
100
AcDbArc
 50
90.0
 51
120.0000305175781
  0
ARC
  5
553
330
1F
100
AcDbEntity
  8
D-1
  6
Continuous
 62
     2
370
     9
100
AcDbCircle
 10
-755.4608622513775
 20
-443.4674461998179
 30
0.0
 40
5.0
100
AcDbArc
 50
239.9999694824219
 51
300.0000305175781
  0
LWPOLYLINE
  5
554
330
1F
100
AcDbEntity
  8
D-4
  6
Continuous
 62
     7
370
     9
100
AcDbPolyline
 90
        4
 70
     1
 43
1.0
 10
-629.9605308495527
 20
11.89956582410787
 42
0.4142135623731
 10
-630.4605308495526
 20
12.39956582410787
 42
0.4142135623731
 10
-630.9605308495526
 20
11.89956582410787
 42
0.4142135623731
 10
-630.4605308495526
 20
11.39956582410787
 42
0.4142135623731
  0
LWPOLYLINE
  5
555
330
1F
100
AcDbEntity
  8
D-4
  6
Continuous
 62
     7
370
     9
100
AcDbPolyline
 90
        4
 70
     1
 43
1.0
 10
-784.960013481236
 20
-207.548495165272
 42
0.4142135623731
 10
-785.4600134812359
 20
-207.048495165272
 42
0.4142135623731
 10
-785.9600134812359
 20
-207.548495165272
 42
0.4142135623731
 10
-785.4600134812359
 20
-208.048495165272
 42
0.4142135623731
  0
LWPOLYLINE
  5
556
330
1F
100
AcDbEntity
  8
D-4
  6
Continuous
 62
     7
370
     9
100
AcDbPolyline
 90
        4
 70
     1
 43
1.0
 10
-659.9591837845808
 20
-207.548495165272
 42
0.4142135623731
 10
-660.4591837845807
 20
-207.048495165272
 42
0.4142135623731
 10
-660.9591837845807
 20
-207.548495165272
 42
0.4142135623731
 10
-660.4591837845807
 20
-208.048495165272
 42
0.4142135623731
  0
LWPOLYLINE
  5
557
330
1F
100
AcDbEntity
  8
D-4
  6
Continuous
 62
     7
370
     9
100
AcDbPolyline
 90
        4
 70
     1
 43
1.0
 10
-659.9591837845808
 20
-98.79608236925151
 42
0.4142135623731
 10
-660.4591837845807
 20
-98.29608236925151
 42
0.4142135623731
 10
-660.9591837845807
 20
-98.79608236925151
 42
0.4142135623731
 10
-660.4591837845807
 20
-99.29608236925151
 42
0.4142135623731
  0
LWPOLYLINE
  5
558
330
1F
100
AcDbEntity
  8
D-4
  6
Continuous
 62
     7
370
     9
100
AcDbPolyline
 90
        4
 70
     1
 43
1.0
 10
-654.9589131794935
 20
-98.79608236925151
 42
0.4142135623731
 10
-655.4589131794934
 20
-98.29608236925151
 42
0.4142135623731
 10
-655.9589131794934
 20
-98.79608236925151
 42
0.4142135623731
 10
-655.4589131794934
 20
-99.29608236925151
 42
0.4142135623731
  0
LWPOLYLINE
  5
559
330
1F
100
AcDbEntity
  8
D-4
  6
Continuous
 62
     7
370
     9
100
AcDbPolyline
 90
        4
 70
     1
 43
1.0
 10
-629.9605308495527
 20
-98.79608236925151
 42
0.4142135623731
 10
-630.4605308495526
 20
-98.29608236925151
 42
0.4142135623731
 10
-630.9605308495526
 20
-98.79608236925151
 42
0.4142135623731
 10
-630.4605308495526
 20
-99.29608236925151
 42
0.4142135623731
  0
LWPOLYLINE
  5
55A
330
1F
100
AcDbEntity
  8
D-4
  6
Continuous
 62
     7
370
     9
100
AcDbPolyline
 90
        4
 70
     1
 43
1.0
 10
-930.4425250016218
 20
-453.4674938835337
 42
0.4142135623731
 10
-930.9425250016217
 20
-452.9674938835337
 42
0.4142135623731
 10
-931.4425250016217
 20
-453.4674938835337
 42
0.4142135623731
 10
-930.9425250016217
 20
-453.9674938835337
 42
0.4142135623731
  0
LWPOLYLINE
  5
55B
330
1F
100
AcDbEntity
  8
D-4
  6
Continuous
 62
     7
370
     9
100
AcDbPolyline
 90
        4
 70
     1
 43
1.0
 10
-930.4425250016218
 20
-328.4676536239817
 42
0.4142135623731
 10
-930.9425250016217
 20
-327.9676536239817
 42
0.4142135623731
 10
-931.4425250016217
 20
-328.4676536239817
 42
0.4142135623731
 10
-930.9425250016217
 20
-328.9676536239817
 42
0.4142135623731
  0
LWPOLYLINE
  5
55C
330
1F
100
AcDbEntity
  8
D-4
  6
Continuous
 62
     7
370
     9
100
AcDbPolyline
 90
        4
 70
     1
 43
1.0
 10
-629.9595414124494
 20
-518.9981850303843
 42
0.4142135623731
 10
-630.4595414124493
 20
-518.4981850303843
 42
0.4142135623731
 10
-630.9595414124493
 20
-518.9981850303843
 42
0.4142135623731
 10
-630.4595414124493
 20
-519.4981850303843
 42
0.4142135623731
  0
LWPOLYLINE
  5
55D
330
1F
100
AcDbEntity
  8
D-4
  6
Continuous
 62
     7
370
     9
100
AcDbPolyline
 90
        4
 70
     1
 43
1.0
 10
-484.9596034012799
 20
-518.9981850303843
 42
0.4142135623731
 10
-485.4596034012799
 20
-518.4981850303843
 42
0.4142135623731
 10
-485.9596034012799
 20
-518.9981850303843
 42
0.4142135623731
 10
-485.4596034012799
 20
-519.4981850303843
 42
0.4142135623731
  0
LWPOLYLINE
  5
55E
330
1F
100
AcDbEntity
  8
D-4
  6
Continuous
 62
     7
370
     9
100
AcDbPolyline
 90
        4
 70
     1
 43
1.0
 10
-396.9088564835553
 20
-328.4676536239817
 42
0.4142135623731
 10
-397.4088564835553
 20
-327.9676536239817
 42
0.4142135623731
 10
-397.9088564835553
 20
-328.4676536239817
 42
0.4142135623731
 10
-397.4088564835553
 20
-328.9676536239817
 42
0.4142135623731
  0
LWPOLYLINE
  5
55F
330
1F
100
AcDbEntity
  8
D-4
  6
Continuous
 62
     7
370
     9
100
AcDbPolyline
 90
        4
 70
     1
 43
1.0
 10
-396.9088564835553
 20
-413.467799059315
 42
0.4142135623731
 10
-397.4088564835553
 20
-412.967799059315
 42
0.4142135623731
 10
-397.9088564835553
 20
-413.467799059315
 42
0.4142135623731
 10
-397.4088564835553
 20
-413.967799059315
 42
0.4142135623731
  0
LWPOLYLINE
  5
560
330
1F
100
AcDbEntity
  8
D-4
  6
Continuous
 62
     7
370
     9
100
AcDbPolyline
 90
        4
 70
     1
 43
1.0
 10
-396.9088564835553
 20
-463.4675320305064
 42
0.4142135623731
 10
-397.4088564835553
 20
-462.9675320305064
 42
0.4142135623731
 10
-397.9088564835553
 20
-463.4675320305064
 42
0.4142135623731
 10
-397.4088564835553
 20
-463.9675320305064
 42
0.4142135623731
  0
LWPOLYLINE
  5
561
330
1F
100
AcDbEntity
  8
D-4
  6
Continuous
 62
     7
370
     9
100
AcDbPolyline
 90
        4
 70
     1
 43
1.0
 10
-113.2743082962994
 20
-578.4678276695445
 42
0.4142135623731
 10
-113.7743082962994
 20
-577.9678276695445
 42
0.4142135623731
 10
-114.2743082962994
 20
-578.4678276695445
 42
0.4142135623731
 10
-113.7743082962994
 20
-578.9678276695445
 42
0.4142135623731
  0
LWPOLYLINE
  5
562
330
1F
100
AcDbEntity
  8
D-4
  6
Continuous
 62
     7
370
     9
100
AcDbPolyline
 90
        4
 70
     1
 43
1.0
 10
-113.2743082962994
 20
-328.4676536239817
 42
0.4142135623731
 10
-113.7743082962994
 20
-327.9676536239817
 42
0.4142135623731
 10
-114.2743082962994
 20
-328.4676536239817
 42
0.4142135623731
 10
-113.7743082962994
 20
-328.9676536239817
 42
0.4142135623731
  0
LWPOLYLINE
  5
563
330
1F
100
AcDbEntity
  8
D-4
  6
Continuous
 62
     7
370
     9
100
AcDbPolyline
 90
        4
 70
     1
 43
1.0
 10
-784.959021659947
 20
-734.0861519493296
 42
0.4142135623731
 10
-785.4590216599469
 20
-733.5861519493296
 42
0.4142135623731
 10
-785.9590216599469
 20
-734.0861519493296
 42
0.4142135623731
 10
-785.4590216599469
 20
-734.5861519493296
 42
0.4142135623731
  0
LWPOLYLINE
  5
564
330
1F
100
AcDbEntity
  8
D-4
  6
Continuous
 62
     7
370
     9
100
AcDbPolyline
 90
        4
 70
     1
 43
1.0
 10
-634.9598108254438
 20
-734.0861519493296
 42
0.4142135623731
 10
-635.4598108254437
 20
-733.5861519493296
 42
0.4142135623731
 10
-635.9598108254437
 20
-734.0861519493296
 42
0.4142135623731
 10
-635.4598108254437
 20
-734.5861519493296
 42
0.4142135623731
  0
LWPOLYLINE
  5
565
330
1F
100
AcDbEntity
  8
D-4
  6
Continuous
 62
     7
370
     9
100
AcDbPolyline
 90
        4
 70
     1
 43
1.0
 10
-784.959021659947
 20
-888.5510262169078
 42
0.4142135623731
 10
-785.4590216599469
 20
-888.0510262169078
 42
0.4142135623731
 10
-785.9590216599469
 20
-888.5510262169078
 42
0.4142135623731
 10
-785.4590216599469
 20
-889.0510262169078
 42
0.4142135623731
  0
LWPOLYLINE
  5
566
330
1F
100
AcDbEntity
  8
D-4
  6
Continuous
 62
     7
370
     9
100
AcDbPolyline
 90
        4
 70
     1
 43
1.0
 10
-384.958153816319
 20
-888.5510262169078
 42
0.4142135623731
 10
-385.4581538163189
 20
-888.0510262169078
 42
0.4142135623731
 10
-385.9581538163189
 20
-888.5510262169078
 42
0.4142135623731
 10
-385.4581538163189
 20
-889.0510262169078
 42
0.4142135623731
  0
TEXT
  5
567
330
1F
100
AcDbEntity
  8
D-4
  6
Continuous
 62
     2
370
     9
100
AcDbText
 10
-693.4048834763531
 20
-88.15678808824565
 30
0.0
 40
30.48
  1
1
 41
0.9999999999999998
  7
ＭＳ ゴシック
100
AcDbText
  0
TEXT
  5
568
330
1F
100
AcDbEntity
  8
D-4
  6
Continuous
 62
     2
370
     9
100
AcDbText
 10
-744.209260078526
 20
-196.9082281364634
 30
0.0
 40
30.48
  1
25
 41
1.0625
  7
ＭＳ ゴシック
100
AcDbText
  0
TEXT
  5
569
330
1F
100
AcDbEntity
  8
D-5
  6
Continuous
 62
     7
370
     9
100
AcDbText
 10
-493.1968584977154
 20
-212.6670020927623
 30
0.0
 40
22.86
  1
塩ビクッション
 41
1.142857142857143
  7
ＭＳ ゴシック
100
AcDbText
  0
TEXT
  5
56A
330
1F
100
AcDbEntity
  8
D-4
  6
Continuous
 62
     2
370
     9
100
AcDbText
 10
-776.7090407334332
 20
-723.4463808311656
 30
0.0
 40
30.48
  1
25～30
 41
1.104166666666667
  7
ＭＳ ゴシック
100
AcDbText
  0
TEXT
  5
56B
330
1F
100
AcDbEntity
  8
D-4
  6
Continuous
 62
     2
370
     9
100
AcDbText
 10
-653.3274063788418
 20
-877.9107210411265
 30
0.0
 40
30.48
  1
75～80
 41
1.104166666666667
  7
ＭＳ ゴシック
100
AcDbText
  0
TEXT
  5
56C
330
1F
100
AcDbEntity
  8
D-4
  6
Continuous
 62
     2
370
     9
100
AcDbText
 10
-124.414575325108
 20
-519.7171221970826
 30
0.0
 40
30.48
  1
40～50
 50
90.00000250447816
 41
1.104166666666667
  7
ＭＳ ゴシック
100
AcDbText
  0
TEXT
  5
56D
330
1F
100
AcDbEntity
  8
D-4
  6
Continuous
 62
     2
370
     9
100
AcDbText
 10
-606.4699355088238
 20
-508.3584139122203
 30
0.0
 40
30.48
  1
29
 41
1.0625
  7
ＭＳ ゴシック
100
AcDbText
  0
TEXT
  5
56E
330
1F
100
AcDbEntity
  8
D-4
  6
Continuous
 62
     2
370
     9
100
AcDbText
 10
-408.0491425858502
 20
-459.7173320054322
 30
0.0
 40
30.48
  1
10
 50
90.00000250447819
 41
1.062500000000001
  7
ＭＳ ゴシック
100
AcDbText
  0
TEXT
  5
56F
330
1F
100
AcDbEntity
  8
D-4
  6
Continuous
 62
     2
370
     9
100
AcDbText
 10
-408.0491425858502
 20
-392.2176371812134
 30
0.0
 40
30.48
  1
17
 50
90.00000250447819
 41
1.062500000000001
  7
ＭＳ ゴシック
100
AcDbText
  0
TEXT
  5
570
330
1F
100
AcDbEntity
  8
D-4
  6
Continuous
 62
     2
370
     9
100
AcDbText
 10
-652.8170731984143
 20
-88.15678808824565
 30
0.0
 40
30.48
  1
5
 41
0.9999999999999998
  7
ＭＳ ゴシック
100
AcDbText
  0
TEXT
  5
571
330
1F
100
AcDbEntity
  8
D-5
  6
Continuous
 62
     2
370
     9
100
AcDbText
 10
-1084.954035425552
 20
-1006.269829012321
 30
0.0
 40
30.48
  1
断面詳細図　Ｓ＝１：２
 50
359.9999375525338
 41
1.113636363636363
  7
ＭＳ ゴシック
100
AcDbText
  0
TEXT
  5
572
330
1F
100
AcDbEntity
  8
D-5
  6
Continuous
 62
     7
370
     9
100
AcDbText
 10
-478.9095202408795
 20
-307.0518237461283
 30
0.0
 40
22.86
  1
ｔ＝２．３（ＳＰＨＣ）
 41
1.151515151515152
  7
ＭＳ ゴシック
100
AcDbText
  0
TEXT
  5
573
330
1F
100
AcDbEntity
  8
D-5
  6
Continuous
 62
     7
370
     9
100
AcDbText
 10
-488.5473719559674
 20
-156.5680545677378
 30
0.0
 40
22.86
  1
ステンレス製受枠ＳＦ２０Ｂ
 41
1.153846153846154
  7
ＭＳ ゴシック
100
AcDbText
  0
TEXT
  5
574
330
1F
100
AcDbEntity
  8
D-4
  6
Continuous
 62
     2
370
     9
100
AcDbText
 10
-941.5827920304303
 20
-412.2177325486451
 30
0.0
 40
30.48
  1
25
 50
90.00000250447819
 41
1.062500000000001
  7
ＭＳ ゴシック
100
AcDbText
  0
LINE
  5
575
330
1F
100
AcDbEntity
  8
D-2
  6
Continuous
 62
     3
370
     9
100
AcDbLine
 10
-660.4591837845807
 20
-330.9672936119273
 30
0.0
 11
-660.4591837845807
 21
-430.9672650016978
 31
0.0
  0
LINE
  5
576
330
1F
100
AcDbEntity
  8
D-2
  6
Continuous
 62
     3
370
     9
100
AcDbLine
 10
-675.4595008812909
 20
-330.9672936119273
 30
0.0
 11
-660.4591837845807
 21
-330.9672936119273
 31
0.0
  0
LINE
  5
577
330
1F
100
AcDbEntity
  8
D-2
  6
JWW_CENTER2
 62
     3
370
     9
100
AcDbLine
 10
-1035.459183784581
 20
-413.9067848838999
 30
0.0
 11
-1035.459183784581
 21
-349.3878313221171
 31
0.0
  0
LINE
  5
578
330
1F
100
AcDbEntity
  8
D-2
  6
JWW_CENTER2
 62
     3
370
     9
100
AcDbLine
 10
-1065.783852668858
 20
-380.9675272621348
 30
0.0
 11
-1004.812478157139
 21
-380.9675272621348
 31
0.0
  0
LINE
  5
579
330
1F
100
AcDbEntity
  8
D-2
  6
Continuous
 62
     3
370
     9
100
AcDbLine
 10
-675.4595008812909
 20
-330.9672936119273
 30
0.0
 11
-675.4595008812909
 21
-430.9672650016978
 31
0.0
  0
LINE
  5
57A
330
1F
100
AcDbEntity
  8
D-2
  6
Continuous
 62
     3
370
     9
100
AcDbLine
 10
-1333.128403755284
 20
-486.2110432304576
 30
0.0
 11
-1333.128403755284
 21
-262.2685679115489
 31
0.0
  0
LINE
  5
57B
330
1F
100
AcDbEntity
  8
D-4
  6
Continuous
 62
     7
370
     9
100
AcDbLine
 10
-1142.185639473057
 20
-430.9672650016978
 30
0.0
 11
-1142.185639473057
 21
-330.9672936119273
 31
0.0
  0
LINE
  5
57C
330
1F
100
AcDbEntity
  8
D-2
  6
Continuous
 62
     3
370
     9
100
AcDbLine
 10
-660.4616611285315
 20
-430.9672650016978
 30
0.0
 11
-1333.128403755284
 21
-430.9672650016978
 31
0.0
  0
LINE
  5
57D
330
1F
100
AcDbEntity
  8
D-2
  6
Continuous
 62
     3
370
     9
100
AcDbLine
 10
-675.4595008812909
 20
-340.9673401035502
 30
0.0
 11
-1333.128403755284
 21
-340.9673401035502
 31
0.0
  0
LINE
  5
57E
330
1F
100
AcDbEntity
  8
D-2
  6
Continuous
 62
     3
370
     9
100
AcDbLine
 10
-675.4595008812909
 20
-330.9672936119273
 30
0.0
 11
-1333.128403755284
 21
-330.9672936119273
 31
0.0
  0
LINE
  5
57F
330
1F
100
AcDbEntity
  8
D-5
  6
Continuous
 62
     7
370
     9
100
AcDbLine
 10
-535.9369841538434
 20
-104.7213944114878
 30
0.0
 11
-733.44966325388
 21
-333.4674289144709
 31
0.0
  0
LINE
  5
580
330
1F
100
AcDbEntity
  8
D-5
  6
Continuous
 62
     7
370
     9
100
AcDbLine
 10
-733.44966325388
 20
-333.4674289144709
 30
0.0
 11
-719.7212115250592
 21
-312.5745018638804
 31
0.0
  0
LINE
  5
581
330
1F
100
AcDbEntity
  8
D-5
  6
Continuous
 62
     7
370
     9
100
AcDbLine
 10
-733.44966325388
 20
-333.4674289144709
 30
0.0
 11
-714.7813883744244
 21
-316.8394967235758
 31
0.0
  0
LINE
  5
582
330
1F
100
AcDbEntity
  8
D-2
  6
Continuous
 62
     3
370
     9
100
AcDbLine
 10
-1017.781495185948
 20
-380.9675272621348
 30
0.0
 11
-1035.459183784581
 21
-363.2898577369883
 31
0.0
  0
LINE
  5
583
330
1F
100
AcDbEntity
  8
D-2
  6
Continuous
 62
     3
370
     9
100
AcDbLine
 10
-1035.459183784581
 20
-398.6451967872813
 30
0.0
 11
-1017.781495185948
 21
-380.9675272621348
 31
0.0
  0
LINE
  5
584
330
1F
100
AcDbEntity
  8
D-2
  6
Continuous
 62
     3
370
     9
100
AcDbLine
 10
-1035.459183784581
 20
-363.2898577369883
 30
0.0
 11
-1053.136872383214
 21
-380.9675272621348
 31
0.0
  0
LINE
  5
585
330
1F
100
AcDbEntity
  8
D-2
  6
Continuous
 62
     3
370
     9
100
AcDbLine
 10
-1053.136872383214
 20
-380.9675272621348
 30
0.0
 11
-1035.459183784581
 21
-398.6451967872813
 31
0.0
  0
LINE
  5
586
330
1F
100
AcDbEntity
  8
D-2
  6
Continuous
 62
     3
370
     9
100
AcDbLine
 10
-1047.959183784581
 20
-368.4675272621348
 30
0.0
 11
-1047.959183784581
 21
-375.7898720421031
 31
0.0
  0
LINE
  5
587
330
1F
100
AcDbEntity
  8
D-2
  6
Continuous
 62
     3
370
     9
100
AcDbLine
 10
-1047.959183784581
 20
-386.1451967872813
 30
0.0
 11
-1047.959183784581
 21
-393.4675415672496
 31
0.0
  0
LINE
  5
588
330
1F
100
AcDbEntity
  8
D-2
  6
Continuous
 62
     3
370
     9
100
AcDbLine
 10
-1022.959183784581
 20
-368.4675129570201
 30
0.0
 11
-1030.281495185948
 21
-368.4675272621348
 31
0.0
  0
LINE
  5
589
330
1F
100
AcDbEntity
  8
D-2
  6
Continuous
 62
     3
370
     9
100
AcDbLine
 10
-1040.636834236241
 20
-368.4675129570201
 30
0.0
 11
-1047.959183784581
 21
-368.4675272621348
 31
0.0
  0
LINE
  5
58A
330
1F
100
AcDbEntity
  8
D-2
  6
Continuous
 62
     3
370
     9
100
AcDbLine
 10
-1022.959183784581
 20
-393.4675272621348
 30
0.0
 11
-1022.959183784581
 21
-386.1451824821665
 31
0.0
  0
LINE
  5
58B
330
1F
100
AcDbEntity
  8
D-2
  6
Continuous
 62
     3
370
     9
100
AcDbLine
 10
-1022.959183784581
 20
-375.7898577369883
 30
0.0
 11
-1022.959183784581
 21
-368.4675129570201
 31
0.0
  0
LINE
  5
58C
330
1F
100
AcDbEntity
  8
D-2
  6
Continuous
 62
     3
370
     9
100
AcDbLine
 10
-1047.959183784581
 20
-393.4675415672496
 30
0.0
 11
-1040.636872383214
 21
-393.4675272621348
 31
0.0
  0
LINE
  5
58D
330
1F
100
AcDbEntity
  8
D-2
  6
Continuous
 62
     3
370
     9
100
AcDbLine
 10
-1030.281533332921
 20
-393.4675415672496
 30
0.0
 11
-1022.959183784581
 21
-393.4675272621348
 31
0.0
  0
LWPOLYLINE
  5
58E
330
1F
100
AcDbEntity
  8
D-4
  6
Continuous
 62
     7
370
     9
100
AcDbPolyline
 90
        4
 70
     1
 43
1.0
 10
-1141.685639473057
 20
-330.9672936119273
 42
0.4142135623731
 10
-1142.185639473057
 20
-330.4672936119273
 42
0.4142135623731
 10
-1142.685639473057
 20
-330.9672936119273
 42
0.4142135623731
 10
-1142.185639473057
 20
-331.4672936119273
 42
0.4142135623731
  0
LWPOLYLINE
  5
58F
330
1F
100
AcDbEntity
  8
D-4
  6
Continuous
 62
     7
370
     9
100
AcDbPolyline
 90
        4
 70
     1
 43
1.0
 10
-1141.685639473057
 20
-430.9672650016978
 42
0.4142135623731
 10
-1142.185639473057
 20
-430.4672650016978
 42
0.4142135623731
 10
-1142.685639473057
 20
-430.9672650016978
 42
0.4142135623731
 10
-1142.185639473057
 20
-431.4672650016978
 42
0.4142135623731
  0
TEXT
  5
590
330
1F
100
AcDbEntity
  8
D-4
  6
Continuous
 62
     2
370
     9
100
AcDbText
 10
-1152.825906501866
 20
-402.2171889542847
 30
0.0
 40
30.48
  1
20
 50
90.00000250447809
 41
1.062500000000001
  7
ＭＳ ゴシック
100
AcDbText
  0
TEXT
  5
591
330
1F
100
AcDbEntity
  8
D-4
  6
Continuous
 62
     2
370
     9
100
AcDbText
 10
-1357.841358292666
 20
-197.297935587367
 30
0.0
 40
30.48
  1
□300
 41
1.1
  7
ＭＳ ゴシック
100
AcDbText
  0
TEXT
  5
592
330
1F
100
AcDbEntity
  8
D-4
  6
Continuous
 62
     2
370
     9
100
AcDbText
 10
-1357.841358292666
 20
-88.497935587367
 30
0.0
 40
30.48
  1
□350
 41
1.1
  7
ＭＳ ゴシック
100
AcDbText
  0
TEXT
  5
593
330
1F
100
AcDbEntity
  8
D-4
  6
Continuous
 62
     2
370
     9
100
AcDbText
 10
-1357.841358292666
 20
22.20206441263294
 30
0.0
 40
30.48
  1
□362
 41
1.1
  7
ＭＳ ゴシック
100
AcDbText
  0
TEXT
  5
594
330
1F
100
AcDbEntity
  8
D-5
  6
Continuous
 62
     7
370
     9
100
AcDbText
 10
-478.9095202408795
 20
-265.8278316368296
 30
0.0
 40
22.86
  1
溶接用アンカー
 41
1.142857142857143
  7
ＭＳ ゴシック
100
AcDbText
  0
TEXT
  5
595
330
1F
100
AcDbEntity
  8
F-4ﾚｲﾔ
  6
Continuous
 62
     2
370
     9
100
AcDbText
 10
-767.3313624353841
 20
-1329.432522372265
 30
0.0
 40
30.48
  1
ステンレス製　細目ノンスリップタイプ（デルタ模様）
 41
0.7739999999999999
  7
ＭＳ ゴシック
100
AcDbText
  0
TEXT
  5
596
330
1F
100
AcDbEntity
  8
D-5
  6
Continuous
 62
     2
370
     9
100
AcDbText
 10
452.183015526556
 20
-368.2483312858775
 30
0.0
 40
30.48
  1
ステンレス製　細目ノンスリップタイプ（デルタ模様）
 41
1.12
  7
ＭＳ ゴシック
100
AcDbText
  0
TEXT
  5
597
330
1F
100
AcDbEntity
  8
D-5
  6
Continuous
 62
     7
370
     9
100
AcDbText
 10
-535.9369869168847
 20
-92.56437719957468
 30
0.0
 40
22.86
  1
グレーチング（すきま6mm）ＤＱ－Ｗ－２０（h=20）
 50
0.0000374256994606
 41
1.159574468085107
  7
ＭＳ ゴシック
100
AcDbText
  0
TEXT
  5
598
330
1F
100
AcDbEntity
  8
D-5
  6
Continuous
 62
     7
370
     9
100
AcDbText
 10
-535.9369841538434
 20
-59.85941351549174
 30
0.0
 40
22.86
  1
ステンレス製　細目ノンスリップタイプ（デルタ模様）
 41
1.16
  7
ＭＳ ゴシック
100
AcDbText
  0
LINE
  5
599
330
1F
100
AcDbEntity
  8
D-5
  6
Continuous
 62
     7
370
     9
100
AcDbLine
 10
-535.9369841538434
 20
-104.7213944114878
 30
0.0
 11
324.6908137545619
 21
-104.7213944114878
 31
0.0
  0
ENDSEC
  0
SECTION
  2
OBJECTS
  0
DICTIONARY
  5
C
330
0
100
AcDbDictionary
281
     1
  3
ACAD_GROUP
350
D
  3
ACAD_LAYOUT
350
1A
  3
ACAD_MLEADERSTYLE
350
59B
  3
ACAD_MLINESTYLE
350
17
  3
ACAD_PLOTSETTINGS
350
19
  3
ACAD_PLOTSTYLENAME
350
E
  3
ACAD_TABLESTYLE
350
59A
  3
ACAD_VISUALSTYLE
350
2A
  0
DICTIONARY
  5
D
102
{ACAD_REACTORS
330
C
102
}
330
C
100
AcDbDictionary
281
     1
  0
DICTIONARY
  5
1A
102
{ACAD_REACTORS
330
C
102
}
330
C
100
AcDbDictionary
281
     1
  3
Layout1
350
1E
  3
Layout2
350
26
  3
Model
350
22
  0
DICTIONARY
  5
59B
102
{ACAD_REACTORS
330
C
102
}
330
C
100
AcDbDictionary
281
     1
  0
DICTIONARY
  5
17
102
{ACAD_REACTORS
330
C
102
}
330
C
100
AcDbDictionary
281
     1
  3
Standard
350
18
  0
DICTIONARY
  5
19
102
{ACAD_REACTORS
330
C
102
}
330
C
100
AcDbDictionary
281
     1
  0
ACDBDICTIONARYWDFLT
  5
E
102
{ACAD_REACTORS
330
C
102
}
330
C
100
AcDbDictionary
281
     1
  3
Normal
350
F
100
AcDbDictionaryWithDefault
340
F
  0
DICTIONARY
  5
59A
102
{ACAD_REACTORS
330
C
102
}
330
C
100
AcDbDictionary
281
     1
  0
DICTIONARY
  5
2A
102
{ACAD_REACTORS
330
C
102
}
330
C
100
AcDbDictionary
281
     1
  3
2dWireframe
350
2F
  3
3D Hidden
350
31
  3
3dWireframe
350
30
  3
Basic
350
32
  3
Brighten
350
36
  3
ColorChange
350
3A
  3
Conceptual
350
34
  3
Dim
350
35
  3
Facepattern
350
39
  3
Flat
350
2B
  3
FlatWithEdges
350
2C
  3
Gouraud
350
2D
  3
GouraudWithEdges
350
2E
  3
Linepattern
350
38
  3
Realistic
350
33
  3
Thicken
350
37
  0
LAYOUT
  5
1E
102
{ACAD_REACTORS
330
1A
102
}
330
1A
100
AcDbPlotSettings
  1

  2
none_device
  4

  6

 40
0.0
 41
0.0
 42
0.0
 43
0.0
 44
0.0
 45
0.0
 46
0.0
 47
0.0
 48
0.0
 49
0.0
140
0.0
141
0.0
142
1.0
143
1.0
 70
   688
 72
     0
 73
     0
 74
     5
  7

 75
    16
 76
     0
 77
     5
 78
   300
147
1.0
148
0.0
149
0.0
100
AcDbLayout
  1
Layout1
 70
     1
 71
     1
 10
0.0
 20
0.0
 11
420.0
 21
297.0
 12
0.0
 22
0.0
 32
0.0
 14
1.000000000000000E+20
 24
1.000000000000000E+20
 34
1.000000000000000E+20
 15
-1.000000000000000E+20
 25
-1.000000000000000E+20
 35
-1.000000000000000E+20
146
0.0
 13
0.0
 23
0.0
 33
0.0
 16
1.0
 26
0.0
 36
0.0
 17
0.0
 27
1.0
 37
0.0
 76
     0
330
1B
  0
LAYOUT
  5
26
102
{ACAD_REACTORS
330
1A
102
}
330
1A
100
AcDbPlotSettings
  1

  2
none_device
  4

  6

 40
0.0
 41
0.0
 42
0.0
 43
0.0
 44
0.0
 45
0.0
 46
0.0
 47
0.0
 48
0.0
 49
0.0
140
0.0
141
0.0
142
1.0
143
1.0
 70
   688
 72
     0
 73
     0
 74
     5
  7

 75
    16
 76
     0
 77
     5
 78
   300
147
1.0
148
0.0
149
0.0
100
AcDbLayout
  1
Layout2
 70
     1
 71
     2
 10
0.0
 20
0.0
 11
0.0
 21
0.0
 12
0.0
 22
0.0
 32
0.0
 14
0.0
 24
0.0
 34
0.0
 15
0.0
 25
0.0
 35
0.0
146
0.0
 13
0.0
 23
0.0
 33
0.0
 16
1.0
 26
0.0
 36
0.0
 17
0.0
 27
1.0
 37
0.0
 76
     0
330
23
  0
LAYOUT
  5
22
102
{ACAD_REACTORS
330
1A
102
}
330
1A
100
AcDbPlotSettings
  1

  2
none_device
  4

  6

 40
0.0
 41
0.0
 42
0.0
 43
0.0
 44
0.0
 45
0.0
 46
0.0
 47
0.0
 48
0.0
 49
0.0
140
0.0
141
0.0
142
1.0
143
1.0
 70
  1712
 72
     0
 73
     0
 74
     0
  7

 75
     0
 76
     0
 77
     5
 78
   300
147
1.0
148
0.0
149
0.0
100
AcDbLayout
  1
Model
 70
     1
 71
     0
 10
-2100.0
 20
-1485.0
 11
2100.0
 21
1485.0
 12
0.0
 22
0.0
 32
0.0
 14
-2100.0
 24
-1485.0
 34
0.0
 15
2100.0
 25
1485.0
 35
0.0
146
0.0
 13
0.0
 23
0.0
 33
0.0
 16
1.0
 26
0.0
 36
0.0
 17
0.0
 27
1.0
 37
0.0
 76
     0
330
1F
331
29
  0
MLINESTYLE
  5
18
102
{ACAD_REACTORS
330
17
102
}
330
17
100
AcDbMlineStyle
  2
Standard
 70
     0
  3

 62
   256
 51
90.0
 52
90.0
 71
     2
 49
0.5
 62
   256
  6
BYLAYER
 49
-0.5
 62
   256
  6
BYLAYER
  0
ACDBPLACEHOLDER
  5
F
102
{ACAD_REACTORS
330
E
102
}
330
E
  0
VISUALSTYLE
  5
2F
102
{ACAD_REACTORS
330
2A
102
}
330
2A
100
AcDbVisualStyle
  2
2dWireframe
 70
     4
 71
     0
 72
     2
 73
     0
 90
        0
 40
-0.6
 41
-30.0
 62
     5
 63
     7
421
 16777215
 74
     1
 91
        4
 64
     7
 65
   257
 75
     1
175
     1
 42
1.0
 92
        0
 66
   257
 43
1.0
 76
     1
 77
     6
 78
     2
 67
     7
 79
     5
170
     0
171
     0
290
     0
174
     0
 93
        1
 44
0.0
173
     0
291
     0
 45
0.0
1001
ACAD
1000
AcDbSavedByObjectVersion
1070
     0
  0
VISUALSTYLE
  5
31
102
{ACAD_REACTORS
330
2A
102
}
330
2A
100
AcDbVisualStyle
  2
3D Hidden
 70
     6
 71
     1
 72
     2
 73
     2
 90
        0
 40
-0.6
 41
-30.0
 62
     5
 63
     7
421
 16777215
 74
     2
 91
        2
 64
     7
 65
   257
 75
     2
175
     1
 42
40.0
 92
        0
 66
   257
 43
1.0
 76
     1
 77
     6
 78
     2
 67
     7
 79
     3
170
     0
171
     0
290
     0
174
     0
 93
        1
 44
0.0
173
     0
291
     0
 45
0.0
1001
ACAD
1000
AcDbSavedByObjectVersion
1070
     0
  0
VISUALSTYLE
  5
30
102
{ACAD_REACTORS
330
2A
102
}
330
2A
100
AcDbVisualStyle
  2
3dWireframe
 70
     5
 71
     0
 72
     2
 73
     0
 90
        0
 40
-0.6
 41
-30.0
 62
     5
 63
     7
421
 16777215
 74
     1
 91
        4
 64
     7
 65
   257
 75
     1
175
     1
 42
1.0
 92
        0
 66
   257
 43
1.0
 76
     1
 77
     6
 78
     2
 67
     7
 79
     5
170
     0
171
     0
290
     0
174
     0
 93
        1
 44
0.0
173
     0
291
     0
 45
0.0
1001
ACAD
1000
AcDbSavedByObjectVersion
1070
     0
  0
VISUALSTYLE
  5
32
102
{ACAD_REACTORS
330
2A
102
}
330
2A
100
AcDbVisualStyle
  2
Basic
 70
     7
 71
     1
 72
     0
 73
     1
 90
        0
 40
-0.6
 41
-30.0
 62
     5
 63
     7
421
 16777215
 74
     0
 91
        4
 64
     7
 65
   257
 75
     1
175
     1
 42
1.0
 92
        8
 66
     7
 43
1.0
 76
     1
 77
     6
 78
     2
 67
     7
 79
     5
170
     0
171
     0
290
     0
174
     0
 93
        1
 44
0.0
173
     0
291
     1
 45
0.0
1001
ACAD
1000
AcDbSavedByObjectVersion
1070
     0
  0
VISUALSTYLE
  5
36
102
{ACAD_REACTORS
330
2A
102
}
330
2A
100
AcDbVisualStyle
  2
Brighten
 70
    12
 71
     2
 72
     2
 73
     0
 90
        0
 40
-0.6
 41
-30.0
 62
     5
 63
     7
421
 16777215
 74
     1
 91
        4
 64
     7
 65
   257
 75
     1
175
     1
 42
1.0
 92
        8
 66
     7
 43
1.0
 76
     1
 77
     6
 78
     2
 67
     7
 79
     5
170
     0
171
     0
290
     0
174
     0
 93
        1
 44
50.0
173
     0
291
     1
 45
0.0
1001
ACAD
1000
AcDbSavedByObjectVersion
1070
     0
  0
VISUALSTYLE
  5
3A
102
{ACAD_REACTORS
330
2A
102
}
330
2A
100
AcDbVisualStyle
  2
ColorChange
 70
    16
 71
     2
 72
     2
 73
     3
 90
        0
 40
-0.6
 41
-30.0
 62
     5
 63
     8
421
  8421504
 74
     1
 91
        4
 64
     7
 65
   257
 75
     1
175
     1
 42
1.0
 92
        8
 66
     8
424
  8421504
 43
1.0
 76
     1
 77
     6
 78
     2
 67
     7
 79
     5
170
     0
171
     0
290
     0
174
     0
 93
        1
 44
0.0
173
     0
291
     1
 45
0.0
1001
ACAD
1000
AcDbSavedByObjectVersion
1070
     0
  0
VISUALSTYLE
  5
34
102
{ACAD_REACTORS
330
2A
102
}
330
2A
100
AcDbVisualStyle
  2
Conceptual
 70
     9
 71
     3
 72
     2
 73
     0
 90
        0
 40
-0.6
 41
-30.0
 62
     5
 63
     7
421
 16777215
 74
     2
 91
        2
 64
     7
 65
   257
 75
     1
175
     1
 42
40.0
 92
        8
 66
     7
 43
1.0
 76
     1
 77
     6
 78
     2
 67
     7
 79
     3
170
     0
171
     0
290
     0
174
     0
 93
        1
 44
0.0
173
     0
291
     0
 45
0.0
1001
ACAD
1000
AcDbSavedByObjectVersion
1070
     0
  0
VISUALSTYLE
  5
35
102
{ACAD_REACTORS
330
2A
102
}
330
2A
100
AcDbVisualStyle
  2
Dim
 70
    11
 71
     2
 72
     2
 73
     0
 90
        0
 40
-0.6
 41
-30.0
 62
     5
 63
     7
421
 16777215
 74
     1
 91
        4
 64
     7
 65
   257
 75
     1
175
     1
 42
1.0
 92
        8
 66
     7
 43
1.0
 76
     1
 77
     6
 78
     2
 67
     7
 79
     5
170
     0
171
     0
290
     0
174
     0
 93
        1
 44
-50.0
173
     0
291
     1
 45
0.0
1001
ACAD
1000
AcDbSavedByObjectVersion
1070
     0
  0
VISUALSTYLE
  5
39
102
{ACAD_REACTORS
330
2A
102
}
330
2A
100
AcDbVisualStyle
  2
Facepattern
 70
    15
 71
     2
 72
     2
 73
     0
 90
        0
 40
-0.6
 41
-30.0
 62
     5
 63
     7
421
 16777215
 74
     1
 91
        4
 64
     7
 65
   257
 75
     1
175
     1
 42
1.0
 92
        8
 66
     7
 43
1.0
 76
     1
 77
     6
 78
     2
 67
     7
 79
     5
170
     0
171
     0
290
     0
174
     0
 93
        1
 44
0.0
173
     0
291
     1
 45
0.0
1001
ACAD
1000
AcDbSavedByObjectVersion
1070
     0
  0
VISUALSTYLE
  5
2B
102
{ACAD_REACTORS
330
2A
102
}
330
2A
100
AcDbVisualStyle
  2
Flat
 70
     0
 71
     2
 72
     1
 73
     1
 90
        2
 40
-0.6
 41
30.0
 62
     5
 63
     7
421
 16777215
 74
     0
 91
        4
 64
     7
 65
   257
 75
     1
175
     1
 42
1.0
 92
        8
 66
     7
 43
1.0
 76
     1
 77
     6
 78
     2
 67
     7
 79
     5
170
     0
171
     0
290
     0
174
     0
 93
       13
 44
0.0
173
     0
291
     1
 45
0.0
1001
ACAD
1000
AcDbSavedByObjectVersion
1070
     0
  0
VISUALSTYLE
  5
2C
102
{ACAD_REACTORS
330
2A
102
}
330
2A
100
AcDbVisualStyle
  2
FlatWithEdges
 70
     1
 71
     2
 72
     1
 73
     1
 90
        2
 40
-0.6
 41
30.0
 62
     5
 63
     7
421
 16777215
 74
     1
 91
        4
 64
     7
 65
   257
 75
     1
175
     1
 42
1.0
 92
        0
 66
   257
 43
1.0
 76
     1
 77
     6
 78
     2
 67
     7
 79
     5
170
     0
171
     0
290
     0
174
     0
 93
       13
 44
0.0
173
     0
291
     1
 45
0.0
1001
ACAD
1000
AcDbSavedByObjectVersion
1070
     0
  0
VISUALSTYLE
  5
2D
102
{ACAD_REACTORS
330
2A
102
}
330
2A
100
AcDbVisualStyle
  2
Gouraud
 70
     2
 71
     2
 72
     2
 73
     1
 90
        2
 40
-0.6
 41
30.0
 62
     5
 63
     7
421
 16777215
 74
     0
 91
        4
 64
     7
 65
   257
 75
     1
175
     1
 42
1.0
 92
        0
 66
     7
 43
1.0
 76
     1
 77
     6
 78
     2
 67
     7
 79
     5
170
     0
171
     0
290
     0
174
     0
 93
       13
 44
0.0
173
     0
291
     1
 45
0.0
1001
ACAD
1000
AcDbSavedByObjectVersion
1070
     0
  0
VISUALSTYLE
  5
2E
102
{ACAD_REACTORS
330
2A
102
}
330
2A
100
AcDbVisualStyle
  2
GouraudWithEdges
 70
     3
 71
     2
 72
     2
 73
     1
 90
        2
 40
-0.6
 41
30.0
 62
     5
 63
     7
421
 16777215
 74
     1
 91
        4
 64
     7
 65
   257
 75
     1
175
     1
 42
1.0
 92
        0
 66
   257
 43
1.0
 76
     1
 77
     6
 78
     2
 67
     7
 79
     5
170
     0
171
     0
290
     0
174
     0
 93
       13
 44
0.0
173
     0
291
     1
 45
0.0
1001
ACAD
1000
AcDbSavedByObjectVersion
1070
     0
  0
VISUALSTYLE
  5
38
102
{ACAD_REACTORS
330
2A
102
}
330
2A
100
AcDbVisualStyle
  2
Linepattern
 70
    14
 71
     2
 72
     2
 73
     0
 90
        0
 40
-0.6
 41
-30.0
 62
     5
 63
     7
421
 16777215
 74
     1
 91
        4
 64
     7
 65
   257
 75
     7
175
     7
 42
1.0
 92
        8
 66
     7
 43
1.0
 76
     1
 77
     6
 78
     2
 67
     7
 79
     5
170
     0
171
     0
290
     0
174
     0
 93
        1
 44
0.0
173
     0
291
     1
 45
0.0
1001
ACAD
1000
AcDbSavedByObjectVersion
1070
     0
  0
VISUALSTYLE
  5
33
102
{ACAD_REACTORS
330
2A
102
}
330
2A
100
AcDbVisualStyle
  2
Realistic
 70
     8
 71
     2
 72
     2
 73
     0
 90
        0
 40
-0.6
 41
-30.0
 62
     5
 63
     7
421
 16777215
 74
     1
 91
        0
 64
     7
 65
   257
 75
     1
175
     1
 42
1.0
 92
        8
 66
     8
424
  7895160
 43
1.0
 76
     1
 77
     6
 78
     2
 67
     7
 79
     5
170
     0
171
     0
290
     0
174
     0
 93
       13
 44
0.0
173
     0
291
     0
 45
0.0
1001
ACAD
1000
AcDbSavedByObjectVersion
1070
     0
  0
VISUALSTYLE
  5
37
102
{ACAD_REACTORS
330
2A
102
}
330
2A
100
AcDbVisualStyle
  2
Thicken
 70
    13
 71
     2
 72
     2
 73
     0
 90
        0
 40
-0.6
 41
-30.0
 62
     5
 63
     7
421
 16777215
 74
     1
 91
        4
 64
     7
 65
   257
 75
     1
175
     1
 42
1.0
 92
       12
 66
     7
 43
1.0
 76
     1
 77
     6
 78
     2
 67
     7
 79
     5
170
     0
171
     0
290
     0
174
     0
 93
        1
 44
0.0
173
     0
291
     1
 45
0.0
1001
ACAD
1000
AcDbSavedByObjectVersion
1070
     0
  0
ENDSEC
  0
EOF
