  0
SECTION
  2
HEADER
  9
$ACADVER
  1
AC1018
  9
$ACADMAINTVER
 70
     0
  9
$DWGCODEPAGE
  3
ANSI_932
  9
$INSBASE
 10
0.0
 20
0.0
 30
0.0
  9
$EXTMIN
 10
-2100.0
 20
-1485.0
 30
0.0
  9
$EXTMAX
 10
2100.0
 20
1485.0
 30
0.0
  9
$LIMMIN
 10
-2100.0
 20
-1485.0
  9
$LIMMAX
 10
2100.0
 20
1485.0
  9
$ORTHOMODE
 70
     0
  9
$REGENMODE
 70
     1
  9
$FILLMODE
 70
     1
  9
$QTEXTMODE
 70
     0
  9
$MIRRTEXT
 70
     1
  9
$LTSCALE
 40
10.0
  9
$ATTMODE
 70
     1
  9
$TEXTSIZE
 40
2.5
  9
$TRACEWID
 40
1.0
  9
$TEXTSTYLE
  7
Standard
  9
$CLAYER
  8
0
  9
$CELTYPE
  6
ByLayer
  9
$CECOLOR
 62
   256
  9
$CELTSCALE
 40
1.0
  9
$DISPSILH
 70
     0
  9
$DIMSCALE
 40
1.0
  9
$DIMASZ
 40
2.5
  9
$DIMEXO
 40
0.625
  9
$DIMDLI
 40
3.75
  9
$DIMRND
 40
0.0
  9
$DIMDLE
 40
0.0
  9
$DIMEXE
 40
1.25
  9
$DIMTP
 40
0.0
  9
$DIMTM
 40
0.0
  9
$DIMTXT
 40
2.5
  9
$DIMCEN
 40
2.5
  9
$DIMTSZ
 40
0.0
  9
$DIMTOL
 70
     0
  9
$DIMLIM
 70
     0
  9
$DIMTIH
 70
     0
  9
$DIMTOH
 70
     0
  9
$DIMSE1
 70
     0
  9
$DIMSE2
 70
     0
  9
$DIMTAD
 70
     1
  9
$DIMZIN
 70
     8
  9
$DIMBLK
  1

  9
$DIMASO
 70
     1
  9
$DIMSHO
 70
     1
  9
$DIMPOST
  1

  9
$DIMAPOST
  1

  9
$DIMALT
 70
     0
  9
$DIMALTD
 70
     3
  9
$DIMALTF
 40
0.03937007874016
  9
$DIMLFAC
 40
1.0
  9
$DIMTOFL
 70
     1
  9
$DIMTVP
 40
0.0
  9
$DIMTIX
 70
     0
  9
$DIMSOXD
 70
     0
  9
$DIMSAH
 70
     0
  9
$DIMBLK1
  1

  9
$DIMBLK2
  1

  9
$DIMSTYLE
  2
ISO-25
  9
$DIMCLRD
 70
     0
  9
$DIMCLRE
 70
     0
  9
$DIMCLRT
 70
     0
  9
$DIMTFAC
 40
1.0
  9
$DIMGAP
 40
0.625
  9
$DIMJUST
 70
     0
  9
$DIMSD1
 70
     0
  9
$DIMSD2
 70
     0
  9
$DIMTOLJ
 70
     0
  9
$DIMTZIN
 70
     8
  9
$DIMALTZ
 70
     0
  9
$DIMALTTZ
 70
     0
  9
$DIMUPT
 70
     0
  9
$DIMDEC
 70
     2
  9
$DIMTDEC
 70
     2
  9
$DIMALTU
 70
     2
  9
$DIMALTTD
 70
     3
  9
$DIMTXSTY
  7
Standard
  9
$DIMAUNIT
 70
     0
  9
$DIMADEC
 70
     0
  9
$DIMALTRND
 40
0.0
  9
$DIMAZIN
 70
     0
  9
$DIMDSEP
 70
    44
  9
$DIMATFIT
 70
     3
  9
$DIMFRAC
 70
     0
  9
$DIMLDRBLK
  1

  9
$DIMLUNIT
 70
     2
  9
$DIMLWD
 70
    -2
  9
$DIMLWE
 70
    -2
  9
$DIMTMOVE
 70
     0
  9
$LUNITS
 70
     2
  9
$LUPREC
 70
     4
  9
$SKETCHINC
 40
1.0
  9
$FILLETRAD
 40
10.0
  9
$AUNITS
 70
     0
  9
$AUPREC
 70
     0
  9
$MENU
  1
.
  9
$ELEVATION
 40
0.0
  9
$PELEVATION
 40
0.0
  9
$THICKNESS
 40
0.0
  9
$LIMCHECK
 70
     0
  9
$CHAMFERA
 40
10.0
  9
$CHAMFERB
 40
10.0
  9
$CHAMFERC
 40
20.0
  9
$CHAMFERD
 40
0.0
  9
$SKPOLY
 70
     0
  9
$TDCREATE
 40
2457186.67588956
  9
$TDUCREATE
 40
2457186.30088956
  9
$TDUPDATE
 40
2457186.675889572
  9
$TDUUPDATE
 40
2457186.300889572
  9
$TDINDWG
 40
0.0000000116
  9
$TDUSRTIMER
 40
0.0000000116
  9
$USRTIMER
 70
     1
  9
$ANGBASE
 50
0.0
  9
$ANGDIR
 70
     0
  9
$PDMODE
 70
     0
  9
$PDSIZE
 40
0.0
  9
$PLINEWID
 40
0.0
  9
$SPLFRAME
 70
     0
  9
$SPLINETYPE
 70
     6
  9
$SPLINESEGS
 70
     8
  9
$HANDSEED
  5
651
  9
$SURFTAB1
 70
     6
  9
$SURFTAB2
 70
     6
  9
$SURFTYPE
 70
     6
  9
$SURFU
 70
     6
  9
$SURFV
 70
     6
  9
$UCSBASE
  2

  9
$UCSNAME
  2

  9
$UCSORG
 10
0.0
 20
0.0
 30
0.0
  9
$UCSXDIR
 10
1.0
 20
0.0
 30
0.0
  9
$UCSYDIR
 10
0.0
 20
1.0
 30
0.0
  9
$UCSORTHOREF
  2

  9
$UCSORTHOVIEW
 70
     0
  9
$UCSORGTOP
 10
0.0
 20
0.0
 30
0.0
  9
$UCSORGBOTTOM
 10
0.0
 20
0.0
 30
0.0
  9
$UCSORGLEFT
 10
0.0
 20
0.0
 30
0.0
  9
$UCSORGRIGHT
 10
0.0
 20
0.0
 30
0.0
  9
$UCSORGFRONT
 10
0.0
 20
0.0
 30
0.0
  9
$UCSORGBACK
 10
0.0
 20
0.0
 30
0.0
  9
$PUCSBASE
  2

  9
$PUCSNAME
  2

  9
$PUCSORG
 10
0.0
 20
0.0
 30
0.0
  9
$PUCSXDIR
 10
1.0
 20
0.0
 30
0.0
  9
$PUCSYDIR
 10
0.0
 20
1.0
 30
0.0
  9
$PUCSORTHOREF
  2

  9
$PUCSORTHOVIEW
 70
     0
  9
$PUCSORGTOP
 10
0.0
 20
0.0
 30
0.0
  9
$PUCSORGBOTTOM
 10
0.0
 20
0.0
 30
0.0
  9
$PUCSORGLEFT
 10
0.0
 20
0.0
 30
0.0
  9
$PUCSORGRIGHT
 10
0.0
 20
0.0
 30
0.0
  9
$PUCSORGFRONT
 10
0.0
 20
0.0
 30
0.0
  9
$PUCSORGBACK
 10
0.0
 20
0.0
 30
0.0
  9
$USERI1
 70
     0
  9
$USERI2
 70
     0
  9
$USERI3
 70
     0
  9
$USERI4
 70
     0
  9
$USERI5
 70
     0
  9
$USERR1
 40
0.0
  9
$USERR2
 40
0.0
  9
$USERR3
 40
0.0
  9
$USERR4
 40
0.0
  9
$USERR5
 40
0.0
  9
$WORLDVIEW
 70
     1
  9
$SHADEDGE
 70
     3
  9
$SHADEDIF
 70
    70
  9
$TILEMODE
 70
     1
  9
$MAXACTVP
 70
    64
  9
$PINSBASE
 10
0.0
 20
0.0
 30
0.0
  9
$PLIMCHECK
 70
     0
  9
$PEXTMIN
 10
1.000000000000000E+20
 20
1.000000000000000E+20
 30
1.000000000000000E+20
  9
$PEXTMAX
 10
-1.000000000000000E+20
 20
-1.000000000000000E+20
 30
-1.000000000000000E+20
  9
$PLIMMIN
 10
0.0
 20
0.0
  9
$PLIMMAX
 10
420.0
 20
297.0
  9
$UNITMODE
 70
     0
  9
$VISRETAIN
 70
     1
  9
$PLINEGEN
 70
     0
  9
$PSLTSCALE
 70
     1
  9
$TREEDEPTH
 70
  3020
  9
$CMLSTYLE
  2
Standard
  9
$CMLJUST
 70
     0
  9
$CMLSCALE
 40
20.0
  9
$PROXYGRAPHICS
 70
     1
  9
$MEASUREMENT
 70
     1
  9
$CELWEIGHT
370
    -1
  9
$ENDCAPS
280
     0
  9
$JOINSTYLE
280
     0
  9
$LWDISPLAY
290
     0
  9
$INSUNITS
 70
     4
  9
$HYPERLINKBASE
  1

  9
$STYLESHEET
  1

  9
$XEDIT
290
     1
  9
$CEPSNTYPE
380
     0
  9
$PSTYLEMODE
290
     1
  9
$FINGERPRINTGUID
  2
{39BD2266-3F00-49BA-8DB1-CEB128C5D7EF}
  9
$VERSIONGUID
  2
{FAEB1C32-E019-11D5-929B-00C0DF256EC4}
  9
$EXTNAMES
290
     1
  9
$PSVPSCALE
 40
0.0
  9
$OLESTARTUP
290
     0
  9
$SORTENTS
280
   127
  9
$INDEXCTL
280
     0
  9
$HIDETEXT
280
     1
  9
$XCLIPFRAME
290
     0
  9
$HALOGAP
280
     0
  9
$OBSCOLOR
 70
   257
  9
$OBSLTYPE
280
     0
  9
$INTERSECTIONDISPLAY
280
     0
  9
$INTERSECTIONCOLOR
 70
   257
  9
$DIMASSOC
280
     2
  9
$PROJECTNAME
  1

  0
ENDSEC
  0
SECTION
  2
CLASSES
  0
CLASS
  1
ACDBDICTIONARYWDFLT
  2
AcDbDictionaryWithDefault
  3
ObjectDBX Classes
 90
        0
 91
        4
280
     0
281
     0
  0
CLASS
  1
VISUALSTYLE
  2
AcDbVisualStyle
  3
ObjectDBX Classes
 90
     4095
 91
        4
280
     0
281
     0
  0
ENDSEC
  0
SECTION
  2
TABLES
  0
TABLE
  2
VPORT
  5
8
330
0
100
AcDbSymbolTable
 70
     1
  0
VPORT
  5
29
330
8
100
AcDbSymbolTableRecord
100
AcDbViewportTableRecord
  2
*Active
 70
     0
 10
0.0
 20
0.0
 11
1.0
 21
1.0
 12
0.0
 22
0.0
 13
0.0
 23
0.0
 14
10.0
 24
10.0
 15
10.0
 25
10.0
 16
0.0
 26
0.0
 36
1.0
 17
0.0
 27
0.0
 37
0.0
 40
3267.0
 41
1.414141414141414
 42
50.0
 43
0.0
 44
0.0
 50
0.0
 51
0.0
 71
     0
 72
 10000
 73
     1
 74
     3
 75
     0
 76
     0
 77
     0
 78
     0
281
     0
 65
     1
110
0.0
120
0.0
130
0.0
111
1.0
121
0.0
131
0.0
112
0.0
122
1.0
132
0.0
 79
     0
146
0.0
  0
ENDTAB
  0
TABLE
  2
LTYPE
  5
5
330
0
100
AcDbSymbolTable
 70
     5
  0
LTYPE
  5
14
330
5
100
AcDbSymbolTableRecord
100
AcDbLinetypeTableRecord
  2
ByBlock
 70
     0
  3

 72
    65
 73
     0
 40
0.0
  0
LTYPE
  5
15
330
5
100
AcDbSymbolTableRecord
100
AcDbLinetypeTableRecord
  2
ByLayer
 70
     0
  3

 72
    65
 73
     0
 40
0.0
  0
LTYPE
  5
16
330
5
100
AcDbSymbolTableRecord
100
AcDbLinetypeTableRecord
  2
Continuous
 70
     0
  3
Solid line
 72
    65
 73
     0
 40
0.0
  0
LTYPE
  5
3C
330
5
100
AcDbSymbolTableRecord
100
AcDbLinetypeTableRecord
  2
JWW_DASHED3
 70
     0
  3
---  ------  ------  ------  ---
 72
    65
 73
     2
 40
3.386666666666667
 49
2.54
 74
     0
 49
-0.8466666666666667
 74
     0
  0
LTYPE
  5
3D
330
5
100
AcDbSymbolTableRecord
100
AcDbLinetypeTableRecord
  2
JWW_CENTER2
 70
     0
  3
-------------  --  -------------
 72
    65
 73
     4
 40
13.54666666666667
 49
11.00666666666667
 74
     0
 49
-0.8466666666666667
 74
     0
 49
0.8466666666666667
 74
     0
 49
-0.8466666666666667
 74
     0
  0
LTYPE
  5
3E
330
5
100
AcDbSymbolTableRecord
100
AcDbLinetypeTableRecord
  2
JWW_CENTER1
 70
     0
  3
-----  --  ----------  --  -----
 72
    65
 73
     4
 40
6.773333333333333
 49
4.233333333333333
 74
     0
 49
-0.8466666666666667
 74
     0
 49
0.8466666666666667
 74
     0
 49
-0.8466666666666667
 74
     0
  0
LTYPE
  5
3F
330
5
100
AcDbSymbolTableRecord
100
AcDbLinetypeTableRecord
  2
JWW_DASHED2
 70
     0
  3
--    ----    ----    ----    --
 72
    65
 73
     2
 40
3.386666666666667
 49
1.693333333333333
 74
     0
 49
-1.693333333333333
 74
     0
  0
ENDTAB
  0
TABLE
  2
LAYER
  5
2
330
0
100
AcDbSymbolTable
 70
    16
  0
LAYER
  5
10
330
2
100
AcDbSymbolTableRecord
100
AcDbLayerTableRecord
  2
0
 70
     0
 62
     7
  6
Continuous
370
    -3
390
F
  0
LAYER
  5
40
330
2
100
AcDbSymbolTableRecord
100
AcDbLayerTableRecord
  2
C-2
 70
     0
 62
     7
  6
Continuous
370
    -3
390
F
  0
LAYER
  5
41
330
2
100
AcDbSymbolTableRecord
100
AcDbLayerTableRecord
  2
C-5
 70
     0
 62
     7
  6
Continuous
370
    -3
390
F
  0
LAYER
  5
42
330
2
100
AcDbSymbolTableRecord
100
AcDbLayerTableRecord
  2
C-4
 70
     0
 62
     7
  6
Continuous
370
    -3
390
F
  0
LAYER
  5
43
330
2
100
AcDbSymbolTableRecord
100
AcDbLayerTableRecord
  2
C-A
 70
     0
 62
     7
  6
Continuous
370
    -3
390
F
  0
LAYER
  5
44
330
2
100
AcDbSymbolTableRecord
100
AcDbLayerTableRecord
  2
C-1
 70
     0
 62
     7
  6
Continuous
370
    -3
390
F
  0
LAYER
  5
45
330
2
100
AcDbSymbolTableRecord
100
AcDbLayerTableRecord
  2
D-5
 70
     0
 62
     7
  6
Continuous
370
    -3
390
F
  0
LAYER
  5
46
330
2
100
AcDbSymbolTableRecord
100
AcDbLayerTableRecord
  2
D-4
 70
     0
 62
     7
  6
Continuous
370
    -3
390
F
  0
LAYER
  5
47
330
2
100
AcDbSymbolTableRecord
100
AcDbLayerTableRecord
  2
D-6
 70
     0
 62
     7
  6
Continuous
370
    -3
390
F
  0
LAYER
  5
48
330
2
100
AcDbSymbolTableRecord
100
AcDbLayerTableRecord
  2
D-0
 70
     0
 62
     7
  6
Continuous
370
    -3
390
F
  0
LAYER
  5
49
330
2
100
AcDbSymbolTableRecord
100
AcDbLayerTableRecord
  2
D-9
 70
     0
 62
     7
  6
Continuous
370
    -3
390
F
  0
LAYER
  5
4A
330
2
100
AcDbSymbolTableRecord
100
AcDbLayerTableRecord
  2
D-1
 70
     0
 62
     7
  6
Continuous
370
    -3
390
F
  0
LAYER
  5
4B
330
2
100
AcDbSymbolTableRecord
100
AcDbLayerTableRecord
  2
D-3
 70
     0
 62
     7
  6
Continuous
370
    -3
390
F
  0
LAYER
  5
4C
330
2
100
AcDbSymbolTableRecord
100
AcDbLayerTableRecord
  2
D-A
 70
     0
 62
     7
  6
Continuous
370
    -3
390
F
  0
LAYER
  5
4D
330
2
100
AcDbSymbolTableRecord
100
AcDbLayerTableRecord
  2
D-2
 70
     0
 62
     7
  6
Continuous
370
    -3
390
F
  0
LAYER
  5
4E
330
2
100
AcDbSymbolTableRecord
100
AcDbLayerTableRecord
  2
F-4
 70
     0
 62
     7
  6
Continuous
370
    -3
390
F
  0
ENDTAB
  0
TABLE
  2
STYLE
  5
3
330
0
100
AcDbSymbolTable
 70
     2
  0
STYLE
  5
11
330
3
100
AcDbSymbolTableRecord
100
AcDbTextStyleTableRecord
  2
Standard
 70
     0
 40
0.0
 41
1.0
 50
0.0
 71
     0
 42
2.5
  3
txt
  4

1001
ACAD
1000

1071
        0
  0
STYLE
  5
3B
330
3
100
AcDbSymbolTableRecord
100
AcDbTextStyleTableRecord
  2
ＭＳ ゴシック
 70
     0
 40
1.0
 41
1.0
 50
0.0
 71
     0
 42
10.0
  3

  4

1001
ACAD
1000
MS Gothic
1071
    32817
  0
ENDTAB
  0
TABLE
  2
VIEW
  5
6
330
0
100
AcDbSymbolTable
 70
     0
  0
ENDTAB
  0
TABLE
  2
UCS
  5
7
330
0
100
AcDbSymbolTable
 70
     0
  0
ENDTAB
  0
TABLE
  2
APPID
  5
9
330
0
100
AcDbSymbolTable
 70
     1
  0
APPID
  5
12
330
9
100
AcDbSymbolTableRecord
100
AcDbRegAppTableRecord
  2
ACAD
 70
     0
  0
ENDTAB
  0
TABLE
  2
DIMSTYLE
  5
A
330
0
100
AcDbSymbolTable
 70
     1
100
AcDbDimStyleTable
  0
DIMSTYLE
105
27
330
A
100
AcDbSymbolTableRecord
100
AcDbDimStyleTableRecord
  2
ISO-25
 70
     0
 41
2.5
 42
0.625
 43
3.75
 44
1.25
 73
     0
 74
     0
 77
     1
 78
     8
140
2.5
141
2.5
143
0.03937007874016
147
0.625
171
     3
172
     1
271
     2
272
     2
274
     3
278
    44
283
     0
284
     8
340
11
  0
ENDTAB
  0
TABLE
  2
BLOCK_RECORD
  5
1
330
0
100
AcDbSymbolTable
 70
     1
  0
BLOCK_RECORD
  5
1F
330
1
100
AcDbSymbolTableRecord
100
AcDbBlockTableRecord
  2
*Model_Space
340
22
  0
BLOCK_RECORD
  5
1B
330
1
100
AcDbSymbolTableRecord
100
AcDbBlockTableRecord
  2
*Paper_Space
340
1E
  0
BLOCK_RECORD
  5
23
330
1
100
AcDbSymbolTableRecord
100
AcDbBlockTableRecord
  2
*Paper_Space0
340
26
  0
ENDTAB
  0
ENDSEC
  0
SECTION
  2
BLOCKS
  0
BLOCK
  5
20
330
1F
100
AcDbEntity
  8
0
100
AcDbBlockBegin
  2
*Model_Space
 70
     0
 10
0.0
 20
0.0
 30
0.0
  3
*Model_Space
  1

  0
ENDBLK
  5
21
330
1F
100
AcDbEntity
  8
0
100
AcDbBlockEnd
  0
BLOCK
  5
1C
330
1B
100
AcDbEntity
 67
     1
  8
0
100
AcDbBlockBegin
  2
*Paper_Space
 70
     0
 10
0.0
 20
0.0
 30
0.0
  3
*Paper_Space
  1

  0
ENDBLK
  5
1D
330
1B
100
AcDbEntity
 67
     1
  8
0
100
AcDbBlockEnd
  0
BLOCK
  5
24
330
23
100
AcDbEntity
  8
0
100
AcDbBlockBegin
  2
*Paper_Space0
 70
     0
 10
0.0
 20
0.0
 30
0.0
  3
*Paper_Space0
  1

  0
ENDBLK
  5
25
330
23
100
AcDbEntity
  8
0
100
AcDbBlockEnd
  0
ENDSEC
  0
SECTION
  2
ENTITIES
  0
LINE
  5
4F
330
1F
100
AcDbEntity
  8
C-2
  6
Continuous
 62
     3
370
     9
100
AcDbLine
 10
593.0557521613872
 20
790.6431785789698
 30
0.0
 11
673.0572532963112
 21
810.6432445629224
 31
0.0
  0
LINE
  5
50
330
1F
100
AcDbEntity
  8
C-2
  6
Continuous
 62
     3
370
     9
100
AcDbLine
 10
593.0557521613872
 20
775.6428816511825
 30
0.0
 11
673.0572532963112
 21
755.64281566723
 31
0.0
  0
LINE
  5
51
330
1F
100
AcDbEntity
  8
C-2
  6
Continuous
 62
     3
370
     9
100
AcDbLine
 10
593.0557521613872
 20
790.6431785789698
 30
0.0
 11
593.0557521613872
 21
775.6428816511825
 31
0.0
  0
LINE
  5
52
330
1F
100
AcDbEntity
  8
C-2
  6
Continuous
 62
     3
370
     9
100
AcDbLine
 10
673.0572532963112
 20
810.6432445629224
 30
0.0
 11
673.0572532963112
 21
755.64281566723
 31
0.0
  0
LINE
  5
53
330
1F
100
AcDbEntity
  8
C-2
  6
Continuous
 62
     3
370
     9
100
AcDbLine
 10
588.0554882255763
 20
794.5467892208617
 30
0.0
 11
678.0565274728315
 21
817.0469871727198
 31
0.0
  0
LINE
  5
54
330
1F
100
AcDbEntity
  8
C-2
  6
Continuous
 62
     3
370
     9
100
AcDbLine
 10
588.0554882255763
 20
771.7392710092906
 30
0.0
 11
678.0565274728315
 21
749.2390730574325
 31
0.0
  0
LINE
  5
55
330
1F
100
AcDbEntity
  8
C-2
  6
Continuous
 62
     3
370
     9
100
AcDbLine
 10
588.0554882255763
 20
794.5467892208617
 30
0.0
 11
593.0557521613872
 21
790.6431785789698
 31
0.0
  0
LINE
  5
56
330
1F
100
AcDbEntity
  8
C-2
  6
Continuous
 62
     3
370
     9
100
AcDbLine
 10
588.0554882255763
 20
771.7392710092906
 30
0.0
 11
593.0557521613872
 21
775.6428816511825
 31
0.0
  0
LINE
  5
57
330
1F
100
AcDbEntity
  8
C-2
  6
Continuous
 62
     3
370
     9
100
AcDbLine
 10
673.0572532963112
 20
755.64281566723
 30
0.0
 11
678.0565274728315
 21
749.2390730574325
 31
0.0
  0
LINE
  5
58
330
1F
100
AcDbEntity
  8
C-2
  6
Continuous
 62
     3
370
     9
100
AcDbLine
 10
678.0565274728315
 20
817.0469871727198
 30
0.0
 11
673.0572532963112
 21
810.6432445629224
 31
0.0
  0
LINE
  5
59
330
1F
100
AcDbEntity
  8
C-2
  6
Continuous
 62
     3
370
     9
100
AcDbLine
 10
673.0572532963112
 20
640.6436734586148
 30
0.0
 11
593.0557521613872
 21
620.6433600348396
 31
0.0
  0
LINE
  5
5A
330
1F
100
AcDbEntity
  8
C-2
  6
Continuous
 62
     3
370
     9
100
AcDbLine
 10
673.0572532963112
 20
655.6429806271117
 30
0.0
 11
673.0572532963112
 21
640.6436734586148
 31
0.0
  0
LINE
  5
5B
330
1F
100
AcDbEntity
  8
C-2
  6
Continuous
 62
     3
370
     9
100
AcDbLine
 10
593.0557521613872
 20
675.6435414907096
 30
0.0
 11
593.0557521613872
 21
620.6433600348396
 31
0.0
  0
LINE
  5
5C
330
1F
100
AcDbEntity
  8
C-2
  6
Continuous
 62
     3
370
     9
100
AcDbLine
 10
588.0554882255763
 20
682.0467892208617
 30
0.0
 11
678.0565274728315
 21
659.5465912690033
 31
0.0
  0
LINE
  5
5D
330
1F
100
AcDbEntity
  8
C-2
  6
Continuous
 62
     3
370
     9
100
AcDbLine
 10
678.0565274728315
 20
636.7390730574325
 30
0.0
 11
588.0554882255763
 21
614.2391225453971
 31
0.0
  0
LINE
  5
5E
330
1F
100
AcDbEntity
  8
C-2
  6
Continuous
 62
     3
370
     9
100
AcDbLine
 10
593.0557521613872
 20
520.6429063951648
 30
0.0
 11
673.0572532963112
 21
540.6429723791175
 31
0.0
  0
LINE
  5
5F
330
1F
100
AcDbEntity
  8
C-2
  6
Continuous
 62
     3
370
     9
100
AcDbLine
 10
593.0557521613872
 20
505.6431043470229
 30
0.0
 11
673.0572532963112
 21
485.6430383630703
 31
0.0
  0
LINE
  5
60
330
1F
100
AcDbEntity
  8
C-2
  6
Continuous
 62
     3
370
     9
100
AcDbLine
 10
593.0557521613872
 20
520.6429063951648
 30
0.0
 11
593.0557521613872
 21
505.6431043470229
 31
0.0
  0
LINE
  5
61
330
1F
100
AcDbEntity
  8
C-2
  6
Continuous
 62
     3
370
     9
100
AcDbLine
 10
673.0572532963112
 20
540.6429723791175
 30
0.0
 11
673.0572532963112
 21
485.6430383630703
 31
0.0
  0
LINE
  5
62
330
1F
100
AcDbEntity
  8
C-2
  6
Continuous
 62
     3
370
     9
100
AcDbLine
 10
588.0554882255763
 20
524.5472593565245
 30
0.0
 11
678.0565274728315
 21
547.0469624287375
 31
0.0
  0
LINE
  5
63
330
1F
100
AcDbEntity
  8
C-2
  6
Continuous
 62
     3
370
     9
100
AcDbLine
 10
588.0554882255763
 20
501.7392462653083
 30
0.0
 11
678.0565274728315
 21
479.2390483134503
 31
0.0
  0
LINE
  5
64
330
1F
100
AcDbEntity
  8
C-2
  6
Continuous
 62
     3
370
     9
100
AcDbLine
 10
588.0554882255763
 20
524.5472593565245
 30
0.0
 11
593.0557521613872
 21
520.6429063951648
 31
0.0
  0
LINE
  5
65
330
1F
100
AcDbEntity
  8
C-2
  6
Continuous
 62
     3
370
     9
100
AcDbLine
 10
588.0554882255763
 20
501.7392462653083
 30
0.0
 11
593.0557521613872
 21
505.6431043470229
 31
0.0
  0
LINE
  5
66
330
1F
100
AcDbEntity
  8
C-2
  6
Continuous
 62
     3
370
     9
100
AcDbLine
 10
673.0572532963112
 20
485.6430383630703
 30
0.0
 11
678.0565274728315
 21
479.2390483134503
 31
0.0
  0
LINE
  5
67
330
1F
100
AcDbEntity
  8
C-2
  6
Continuous
 62
     3
370
     9
100
AcDbLine
 10
678.0565274728315
 20
547.0469624287375
 30
0.0
 11
673.0572532963112
 21
540.6429723791175
 31
0.0
  0
LINE
  5
68
330
1F
100
AcDbEntity
  8
C-2
  6
Continuous
 62
     3
370
     9
100
AcDbLine
 10
588.0554882255763
 20
865.6431785789698
 30
0.0
 11
588.0554882255763
 21
460.4385705896328
 31
0.0
  0
LINE
  5
69
330
1F
100
AcDbEntity
  8
C-2
  6
Continuous
 62
     3
370
     9
100
AcDbLine
 10
678.0565274728315
 20
835.64208984375
 30
0.0
 11
678.0565274728315
 21
430.4378530141472
 31
0.0
  0
LINE
  5
6A
330
1F
100
AcDbEntity
  8
C-5
  6
Continuous
 62
     7
370
     9
100
AcDbLine
 10
414.3106679658638
 20
375.7347230653505
 30
0.0
 11
852.345467902519
 21
375.7347230653505
 31
0.0
  0
LINE
  5
6B
330
1F
100
AcDbEntity
  8
C-2
  6
Continuous
 62
     3
370
     9
100
AcDbLine
 10
593.0557521613872
 20
675.6435414907096
 30
0.0
 11
673.0572532963112
 21
655.6429806271117
 31
0.0
  0
LINE
  5
6C
330
1F
100
AcDbEntity
  8
C-4
  6
Continuous
 62
     7
370
     9
100
AcDbLine
 10
572.3888358554331
 20
505.6431043470229
 30
0.0
 11
489.9151634525612
 21
505.6431043470229
 31
0.0
  0
LINE
  5
6D
330
1F
100
AcDbEntity
  8
C-4
  6
Continuous
 62
     7
370
     9
100
AcDbLine
 10
572.3888358554331
 20
520.6429063951648
 30
0.0
 11
489.9151634525612
 21
520.6429063951648
 31
0.0
  0
LINE
  5
6E
330
1F
100
AcDbEntity
  8
C-4
  6
Continuous
 62
     7
370
     9
100
AcDbLine
 10
572.3888358554331
 20
620.6433600348396
 30
0.0
 11
489.9151634525612
 21
620.6433600348396
 31
0.0
  0
LINE
  5
6F
330
1F
100
AcDbEntity
  8
C-4
  6
Continuous
 62
     7
370
     9
100
AcDbLine
 10
572.3888358554331
 20
675.6435414907096
 30
0.0
 11
489.9151634525612
 21
675.6435414907096
 31
0.0
  0
LINE
  5
70
330
1F
100
AcDbEntity
  8
C-4
  6
Continuous
 62
     7
370
     9
100
AcDbLine
 10
572.3888358554331
 20
775.6428816511825
 30
0.0
 11
489.9151634525612
 21
775.6428816511825
 31
0.0
  0
LINE
  5
71
330
1F
100
AcDbEntity
  8
C-4
  6
Continuous
 62
     7
370
     9
100
AcDbLine
 10
572.3888358554331
 20
790.6431785789698
 30
0.0
 11
489.9151634525612
 21
790.6431785789698
 31
0.0
  0
LINE
  5
72
330
1F
100
AcDbEntity
  8
C-4
  6
Continuous
 62
     7
370
     9
100
AcDbLine
 10
588.0554882255763
 20
906.533104149071
 30
0.0
 11
678.0565274728315
 21
906.533104149071
 31
0.0
  0
LINE
  5
73
330
1F
100
AcDbEntity
  8
C-4
  6
Continuous
 62
     7
370
     9
100
AcDbLine
 10
588.0554882255763
 20
874.5277528505068
 30
0.0
 11
588.0554882255763
 21
909.5330645586995
 31
0.0
  0
LINE
  5
74
330
1F
100
AcDbEntity
  8
C-4
  6
Continuous
 62
     7
370
     9
100
AcDbLine
 10
678.0565274728315
 20
847.4454642630915
 30
0.0
 11
678.0565274728315
 21
909.5330645586995
 31
0.0
  0
LINE
  5
75
330
1F
100
AcDbEntity
  8
C-4
  6
Continuous
 62
     7
370
     9
100
AcDbLine
 10
689.7765146719445
 20
651.4629797033363
 30
0.0
 11
755.8241418890054
 21
634.951072899071
 31
0.0
  0
LINE
  5
76
330
1F
100
AcDbEntity
  8
C-4
  6
Continuous
 62
     7
370
     9
100
AcDbLine
 10
690.9892172426794
 20
656.3135425464529
 30
0.0
 11
757.0370918995633
 21
639.8016357421875
 31
0.0
  0
LINE
  5
77
330
1F
100
AcDbEntity
  8
C-4
  6
Continuous
 62
     7
370
     9
100
AcDbLine
 10
752.9137546951711
 20
635.6785459776182
 30
0.0
 11
771.4390793362185
 21
709.7758855046453
 31
0.0
  0
LINE
  5
78
330
1F
100
AcDbEntity
  8
C-2
  6
Continuous
 62
     3
370
     9
100
AcDbLine
 10
588.0554882255763
 20
682.0467892208617
 30
0.0
 11
593.0557521613872
 21
675.6435414907096
 31
0.0
  0
LINE
  5
79
330
1F
100
AcDbEntity
  8
C-2
  6
Continuous
 62
     3
370
     9
100
AcDbLine
 10
593.0557521613872
 20
620.6433600348396
 30
0.0
 11
588.0554882255763
 21
614.2391225453971
 31
0.0
  0
LINE
  5
7A
330
1F
100
AcDbEntity
  8
C-2
  6
Continuous
 62
     3
370
     9
100
AcDbLine
 10
673.0572532963112
 20
640.6436734586148
 30
0.0
 11
678.0565274728315
 21
636.7390730574325
 31
0.0
  0
LINE
  5
7B
330
1F
100
AcDbEntity
  8
C-2
  6
Continuous
 62
     3
370
     9
100
AcDbLine
 10
678.0565274728315
 20
659.5465912690033
 30
0.0
 11
673.0572532963112
 21
655.6429806271117
 31
0.0
  0
LINE
  5
7C
330
1F
100
AcDbEntity
  8
C-5
  6
Continuous
 62
     7
370
     9
100
AcDbLine
 10
651.8113278053909
 20
653.7144346494932
 30
0.0
 11
715.0967842823758
 21
763.3278016786318
 31
0.0
  0
LINE
  5
7D
330
1F
100
AcDbEntity
  8
C-5
  6
Continuous
 62
     7
370
     9
100
AcDbLine
 10
651.8113278053909
 20
653.7144346494932
 30
0.0
 11
661.3788359874007
 21
676.8114574535474
 31
0.0
  0
LINE
  5
7E
330
1F
100
AcDbEntity
  8
C-5
  6
Continuous
 62
     7
370
     9
100
AcDbLine
 10
651.8113278053909
 20
653.7144346494932
 30
0.0
 11
667.0308564160325
 21
673.5487159522804
 31
0.0
  0
LINE
  5
7F
330
1F
100
AcDbEntity
  8
C-5
  6
Continuous
 62
     7
370
     9
100
AcDbLine
 10
715.0967842823758
 20
763.3278016786318
 30
0.0
 11
956.4344934515054
 21
763.3278016786318
 31
0.0
  0
LINE
  5
80
330
1F
100
AcDbEntity
  8
C-4
  6
Continuous
 62
     7
370
     9
100
AcDbLine
 10
492.9151238621895
 20
439.5767954233531
 30
0.0
 11
492.9151238621895
 21
858.8069111592063
 31
0.0
  0
LINE
  5
81
330
1F
100
AcDbEntity
  8
C-A
  6
Continuous
 62
     3
370
     9
100
AcDbLine
 10
-630.2134887592208
 20
953.1473025760135
 30
0.0
 11
-180.2132413193982
 21
953.1473025760135
 31
0.0
  0
LINE
  5
82
330
1F
100
AcDbEntity
  8
C-A
  6
Continuous
 62
     3
370
     9
100
AcDbLine
 10
-630.2134887592208
 20
953.1473025760135
 30
0.0
 11
-630.2134887592208
 21
503.147426295925
 31
0.0
  0
LINE
  5
83
330
1F
100
AcDbEntity
  8
C-A
  6
Continuous
 62
     3
370
     9
100
AcDbLine
 10
-630.2134887592208
 20
503.147426295925
 30
0.0
 11
-180.2132413193982
 21
503.147426295925
 31
0.0
  0
LINE
  5
84
330
1F
100
AcDbEntity
  8
C-A
  6
Continuous
 62
     3
370
     9
100
AcDbLine
 10
-180.2132413193982
 20
953.1473025760135
 30
0.0
 11
-180.2132413193982
 21
503.147426295925
 31
0.0
  0
LINE
  5
85
330
1F
100
AcDbEntity
  8
C-A
  6
Continuous
 62
     3
370
     9
100
AcDbLine
 10
-627.2132809097698
 20
953.1473025760135
 30
0.0
 11
-627.2132809097698
 21
503.147426295925
 31
0.0
  0
LINE
  5
86
330
1F
100
AcDbEntity
  8
C-A
  6
Continuous
 62
     3
370
     9
100
AcDbLine
 10
-183.2134491688493
 20
953.1473025760135
 30
0.0
 11
-183.2134491688493
 21
503.147426295925
 31
0.0
  0
LINE
  5
87
330
1F
100
AcDbEntity
  8
C-A
  6
Continuous
 62
     3
370
     9
100
AcDbLine
 10
-627.2132809097698
 20
944.1474213471283
 30
0.0
 11
-183.2134491688493
 21
944.1474213471283
 31
0.0
  0
LINE
  5
88
330
1F
100
AcDbEntity
  8
C-A
  6
Continuous
 62
     3
370
     9
100
AcDbLine
 10
-627.2132809097698
 20
512.1473075248102
 30
0.0
 11
-183.2134491688493
 21
512.1473075248102
 31
0.0
  0
LINE
  5
89
330
1F
100
AcDbEntity
  8
C-A
  6
Continuous
 62
     3
370
     9
100
AcDbLine
 10
-627.2132809097698
 20
942.6474411423144
 30
0.0
 11
-183.2134491688493
 21
942.6474411423144
 31
0.0
  0
LINE
  5
8A
330
1F
100
AcDbEntity
  8
C-A
  6
Continuous
 62
     3
370
     9
100
AcDbLine
 10
-627.2132809097698
 20
933.6475599134292
 30
0.0
 11
-183.2134491688493
 21
933.6475599134292
 31
0.0
  0
LINE
  5
8B
330
1F
100
AcDbEntity
  8
C-A
  6
Continuous
 62
     3
370
     9
100
AcDbLine
 10
-627.2132809097698
 20
927.6471442145271
 30
0.0
 11
-183.2134491688493
 21
927.6471442145271
 31
0.0
  0
LINE
  5
8C
330
1F
100
AcDbEntity
  8
C-A
  6
Continuous
 62
     3
370
     9
100
AcDbLine
 10
-627.2132809097698
 20
918.6472629856419
 30
0.0
 11
-183.2134491688493
 21
918.6472629856419
 31
0.0
  0
LINE
  5
8D
330
1F
100
AcDbEntity
  8
C-A
  6
Continuous
 62
     3
370
     9
100
AcDbLine
 10
-627.2132809097698
 20
912.6468472867401
 30
0.0
 11
-183.2134491688493
 21
912.6468472867401
 31
0.0
  0
LINE
  5
8E
330
1F
100
AcDbEntity
  8
C-A
  6
Continuous
 62
     3
370
     9
100
AcDbLine
 10
-627.2132809097698
 20
903.6464711782096
 30
0.0
 11
-183.2134491688493
 21
903.6464711782096
 31
0.0
  0
LINE
  5
8F
330
1F
100
AcDbEntity
  8
C-A
  6
Continuous
 62
     3
370
     9
100
AcDbLine
 10
-627.2132809097698
 20
897.6465503589529
 30
0.0
 11
-183.2134491688493
 21
897.6465503589529
 31
0.0
  0
LINE
  5
90
330
1F
100
AcDbEntity
  8
C-A
  6
Continuous
 62
     3
370
     9
100
AcDbLine
 10
-627.2132809097698
 20
888.6461742504224
 30
0.0
 11
-183.2134491688493
 21
888.6461742504224
 31
0.0
  0
LINE
  5
91
330
1F
100
AcDbEntity
  8
C-A
  6
Continuous
 62
     3
370
     9
100
AcDbLine
 10
-627.2132809097698
 20
882.6462534311656
 30
0.0
 11
-183.2134491688493
 21
882.6462534311656
 31
0.0
  0
LINE
  5
92
330
1F
100
AcDbEntity
  8
C-A
  6
Continuous
 62
     3
370
     9
100
AcDbLine
 10
-627.2132809097698
 20
873.6458773226352
 30
0.0
 11
-183.2134491688493
 21
873.6458773226352
 31
0.0
  0
LINE
  5
93
330
1F
100
AcDbEntity
  8
C-A
  6
Continuous
 62
     3
370
     9
100
AcDbLine
 10
-627.2132809097698
 20
867.6459565033783
 30
0.0
 11
-183.2134491688493
 21
867.6459565033783
 31
0.0
  0
LINE
  5
94
330
1F
100
AcDbEntity
  8
C-A
  6
Continuous
 62
     3
370
     9
100
AcDbLine
 10
-627.2132809097698
 20
858.6455803948481
 30
0.0
 11
-183.2134491688493
 21
858.6455803948481
 31
0.0
  0
LINE
  5
95
330
1F
100
AcDbEntity
  8
C-A
  6
Continuous
 62
     3
370
     9
100
AcDbLine
 10
-627.2132809097698
 20
852.6456595755915
 30
0.0
 11
-183.2134491688493
 21
852.6456595755915
 31
0.0
  0
LINE
  5
96
330
1F
100
AcDbEntity
  8
C-A
  6
Continuous
 62
     3
370
     9
100
AcDbLine
 10
-627.2132809097698
 20
843.645283467061
 30
0.0
 11
-183.2134491688493
 21
843.645283467061
 31
0.0
  0
LINE
  5
97
330
1F
100
AcDbEntity
  8
C-A
  6
Continuous
 62
     3
370
     9
100
AcDbLine
 10
-627.2132809097698
 20
837.6453626478042
 30
0.0
 11
-183.2134491688493
 21
837.6453626478042
 31
0.0
  0
LINE
  5
98
330
1F
100
AcDbEntity
  8
C-A
  6
Continuous
 62
     3
370
     9
100
AcDbLine
 10
-627.2132809097698
 20
828.6449865392738
 30
0.0
 11
-183.2134491688493
 21
828.6449865392738
 31
0.0
  0
LINE
  5
99
330
1F
100
AcDbEntity
  8
C-A
  6
Continuous
 62
     3
370
     9
100
AcDbLine
 10
-627.2132809097698
 20
822.6450657200169
 30
0.0
 11
-183.2134491688493
 21
822.6450657200169
 31
0.0
  0
LINE
  5
9A
330
1F
100
AcDbEntity
  8
C-A
  6
Continuous
 62
     3
370
     9
100
AcDbLine
 10
-627.2132809097698
 20
813.6446896114867
 30
0.0
 11
-183.2134491688493
 21
813.6446896114867
 31
0.0
  0
LINE
  5
9B
330
1F
100
AcDbEntity
  8
C-A
  6
Continuous
 62
     3
370
     9
100
AcDbLine
 10
-627.2132809097698
 20
807.64476879223
 30
0.0
 11
-183.2134491688493
 21
807.64476879223
 31
0.0
  0
LINE
  5
9C
330
1F
100
AcDbEntity
  8
C-A
  6
Continuous
 62
     3
370
     9
100
AcDbLine
 10
-627.2132809097698
 20
798.6443926836995
 30
0.0
 11
-183.2134491688493
 21
798.6443926836995
 31
0.0
  0
LINE
  5
9D
330
1F
100
AcDbEntity
  8
C-A
  6
Continuous
 62
     3
370
     9
100
AcDbLine
 10
-627.2132809097698
 20
792.6444718644427
 30
0.0
 11
-183.2134491688493
 21
792.6444718644427
 31
0.0
  0
LINE
  5
9E
330
1F
100
AcDbEntity
  8
C-A
  6
Continuous
 62
     3
370
     9
100
AcDbLine
 10
-627.2132809097698
 20
783.6440957559123
 30
0.0
 11
-183.2134491688493
 21
783.6440957559123
 31
0.0
  0
LINE
  5
9F
330
1F
100
AcDbEntity
  8
C-A
  6
Continuous
 62
     3
370
     9
100
AcDbLine
 10
-627.2132809097698
 20
777.6441749366554
 30
0.0
 11
-183.2134491688493
 21
777.6441749366554
 31
0.0
  0
LINE
  5
A0
330
1F
100
AcDbEntity
  8
C-A
  6
Continuous
 62
     3
370
     9
100
AcDbLine
 10
-627.2132809097698
 20
768.643798828125
 30
0.0
 11
-183.2134491688493
 21
768.643798828125
 31
0.0
  0
LINE
  5
A1
330
1F
100
AcDbEntity
  8
C-A
  6
Continuous
 62
     3
370
     9
100
AcDbLine
 10
-627.2132809097698
 20
762.6438780088682
 30
0.0
 11
-183.2134491688493
 21
762.6438780088682
 31
0.0
  0
LINE
  5
A2
330
1F
100
AcDbEntity
  8
C-A
  6
Continuous
 62
     3
370
     9
100
AcDbLine
 10
-627.2132809097698
 20
753.643501900338
 30
0.0
 11
-183.2134491688493
 21
753.643501900338
 31
0.0
  0
LINE
  5
A3
330
1F
100
AcDbEntity
  8
C-A
  6
Continuous
 62
     3
370
     9
100
AcDbLine
 10
-627.2132809097698
 20
747.6435810810813
 30
0.0
 11
-183.2134491688493
 21
747.6435810810813
 31
0.0
  0
LINE
  5
A4
330
1F
100
AcDbEntity
  8
C-A
  6
Continuous
 62
     3
370
     9
100
AcDbLine
 10
-627.2132809097698
 20
738.6432049725508
 30
0.0
 11
-183.2134491688493
 21
738.6432049725508
 31
0.0
  0
LINE
  5
A5
330
1F
100
AcDbEntity
  8
C-A
  6
Continuous
 62
     3
370
     9
100
AcDbLine
 10
-627.2132809097698
 20
732.643284153294
 30
0.0
 11
-183.2134491688493
 21
732.643284153294
 31
0.0
  0
LINE
  5
A6
330
1F
100
AcDbEntity
  8
C-A
  6
Continuous
 62
     3
370
     9
100
AcDbLine
 10
-627.2132809097698
 20
723.6429080447635
 30
0.0
 11
-183.2134491688493
 21
723.6429080447635
 31
0.0
  0
LINE
  5
A7
330
1F
100
AcDbEntity
  8
C-A
  6
Continuous
 62
     3
370
     9
100
AcDbLine
 10
-627.2132809097698
 20
717.6429872255068
 30
0.0
 11
-183.2134491688493
 21
717.6429872255068
 31
0.0
  0
LINE
  5
A8
330
1F
100
AcDbEntity
  8
C-A
  6
Continuous
 62
     3
370
     9
100
AcDbLine
 10
-627.2132809097698
 20
708.6426111169766
 30
0.0
 11
-183.2134491688493
 21
708.6426111169766
 31
0.0
  0
LINE
  5
A9
330
1F
100
AcDbEntity
  8
C-A
  6
Continuous
 62
     3
370
     9
100
AcDbLine
 10
-627.2132809097698
 20
702.6426902977198
 30
0.0
 11
-183.2134491688493
 21
702.6426902977198
 31
0.0
  0
LINE
  5
AA
330
1F
100
AcDbEntity
  8
C-A
  6
Continuous
 62
     3
370
     9
100
AcDbLine
 10
-627.2132809097698
 20
693.6423141891894
 30
0.0
 11
-183.2134491688493
 21
693.6423141891894
 31
0.0
  0
LINE
  5
AB
330
1F
100
AcDbEntity
  8
C-A
  6
Continuous
 62
     3
370
     9
100
AcDbLine
 10
-627.2132809097698
 20
687.6418984902873
 30
0.0
 11
-183.2134491688493
 21
687.6418984902873
 31
0.0
  0
LINE
  5
AC
330
1F
100
AcDbEntity
  8
C-A
  6
Continuous
 62
     3
370
     9
100
AcDbLine
 10
-627.2132809097698
 20
678.6420172614021
 30
0.0
 11
-183.2134491688493
 21
678.6420172614021
 31
0.0
  0
LINE
  5
AD
330
1F
100
AcDbEntity
  8
C-A
  6
Continuous
 62
     3
370
     9
100
AcDbLine
 10
-627.2132809097698
 20
672.6416015625
 30
0.0
 11
-183.2134491688493
 21
672.6416015625
 31
0.0
  0
LINE
  5
AE
330
1F
100
AcDbEntity
  8
C-A
  6
Continuous
 62
     3
370
     9
100
AcDbLine
 10
-627.2132809097698
 20
663.6417203336151
 30
0.0
 11
-183.2134491688493
 21
663.6417203336151
 31
0.0
  0
LINE
  5
AF
330
1F
100
AcDbEntity
  8
C-A
  6
Continuous
 62
     3
370
     9
100
AcDbLine
 10
-627.2132809097698
 20
657.6415520745356
 30
0.0
 11
-183.2134491688493
 21
657.6415520745356
 31
0.0
  0
LINE
  5
B0
330
1F
100
AcDbEntity
  8
C-A
  6
Continuous
 62
     3
370
     9
100
AcDbLine
 10
-627.2132809097698
 20
648.6414234058279
 30
0.0
 11
-183.2134491688493
 21
648.6414234058279
 31
0.0
  0
LINE
  5
B1
330
1F
100
AcDbEntity
  8
C-A
  6
Continuous
 62
     3
370
     9
100
AcDbLine
 10
-627.2132809097698
 20
642.6412551467484
 30
0.0
 11
-183.2134491688493
 21
642.6412551467484
 31
0.0
  0
LINE
  5
B2
330
1F
100
AcDbEntity
  8
C-A
  6
Continuous
 62
     3
370
     9
100
AcDbLine
 10
-627.2132809097698
 20
633.6411264780406
 30
0.0
 11
-183.2134491688493
 21
633.6411264780406
 31
0.0
  0
LINE
  5
B3
330
1F
100
AcDbEntity
  8
C-A
  6
Continuous
 62
     3
370
     9
100
AcDbLine
 10
-627.2132809097698
 20
627.6407107791385
 30
0.0
 11
-183.2134491688493
 21
627.6407107791385
 31
0.0
  0
LINE
  5
B4
330
1F
100
AcDbEntity
  8
C-A
  6
Continuous
 62
     3
370
     9
100
AcDbLine
 10
-627.2132809097698
 20
618.6408295502533
 30
0.0
 11
-183.2134491688493
 21
618.6408295502533
 31
0.0
  0
LINE
  5
B5
330
1F
100
AcDbEntity
  8
C-A
  6
Continuous
 62
     3
370
     9
100
AcDbLine
 10
-627.2132809097698
 20
612.6404138513516
 30
0.0
 11
-183.2134491688493
 21
612.6404138513516
 31
0.0
  0
LINE
  5
B6
330
1F
100
AcDbEntity
  8
C-A
  6
Continuous
 62
     3
370
     9
100
AcDbLine
 10
-627.2132809097698
 20
603.6405326224665
 30
0.0
 11
-183.2134491688493
 21
603.6405326224665
 31
0.0
  0
LINE
  5
B7
330
1F
100
AcDbEntity
  8
C-A
  6
Continuous
 62
     3
370
     9
100
AcDbLine
 10
-627.2132809097698
 20
597.6401169235644
 30
0.0
 11
-183.2134491688493
 21
597.6401169235644
 31
0.0
  0
LINE
  5
B8
330
1F
100
AcDbEntity
  8
C-A
  6
Continuous
 62
     3
370
     9
100
AcDbLine
 10
-627.2132809097698
 20
588.6401119747679
 30
0.0
 11
-183.2134491688493
 21
588.6401119747679
 31
0.0
  0
LINE
  5
B9
330
1F
100
AcDbEntity
  8
C-A
  6
Continuous
 62
     3
370
     9
100
AcDbLine
 10
-627.2132809097698
 20
582.6399437156886
 30
0.0
 11
-183.2134491688493
 21
582.6399437156886
 31
0.0
  0
LINE
  5
BA
330
1F
100
AcDbEntity
  8
C-A
  6
Continuous
 62
     3
370
     9
100
AcDbLine
 10
-627.2132809097698
 20
573.6398150469807
 30
0.0
 11
-183.2134491688493
 21
573.6398150469807
 31
0.0
  0
LINE
  5
BB
330
1F
100
AcDbEntity
  8
C-A
  6
Continuous
 62
     3
370
     9
100
AcDbLine
 10
-627.2132809097698
 20
567.6396467879013
 30
0.0
 11
-183.2134491688493
 21
567.6396467879013
 31
0.0
  0
LINE
  5
BC
330
1F
100
AcDbEntity
  8
C-A
  6
Continuous
 62
     3
370
     9
100
AcDbLine
 10
-627.2132809097698
 20
558.6393943992823
 30
0.0
 11
-183.2134491688493
 21
558.6393943992823
 31
0.0
  0
LINE
  5
BD
330
1F
100
AcDbEntity
  8
C-A
  6
Continuous
 62
     3
370
     9
100
AcDbLine
 10
-627.2132809097698
 20
552.6393498601141
 30
0.0
 11
-183.2134491688493
 21
552.6393498601141
 31
0.0
  0
LINE
  5
BE
330
1F
100
AcDbEntity
  8
C-A
  6
Continuous
 62
     3
370
     9
100
AcDbLine
 10
-627.2132809097698
 20
543.639097471495
 30
0.0
 11
-183.2134491688493
 21
543.639097471495
 31
0.0
  0
LINE
  5
BF
330
1F
100
AcDbEntity
  8
C-A
  6
Continuous
 62
     3
370
     9
100
AcDbLine
 10
-627.2132809097698
 20
537.6390529323271
 30
0.0
 11
-183.2134491688493
 21
537.6390529323271
 31
0.0
  0
LINE
  5
C0
330
1F
100
AcDbEntity
  8
C-A
  6
Continuous
 62
     3
370
     9
100
AcDbLine
 10
-627.2132809097698
 20
528.6388005437078
 30
0.0
 11
-183.2134491688493
 21
528.6388005437078
 31
0.0
  0
LINE
  5
C1
330
1F
100
AcDbEntity
  8
C-A
  6
Continuous
 62
     3
370
     9
100
AcDbLine
 10
-627.2132809097698
 20
522.6386322846283
 30
0.0
 11
-183.2134491688493
 21
522.6386322846283
 31
0.0
  0
LINE
  5
C2
330
1F
100
AcDbEntity
  8
C-A
  6
Continuous
 62
     3
370
     9
100
AcDbLine
 10
-627.2132809097698
 20
513.6385036159209
 30
0.0
 11
-183.2134491688493
 21
513.6385036159209
 31
0.0
  0
LINE
  5
C3
330
1F
100
AcDbEntity
  8
C-A
  6
Continuous
 62
     3
370
     9
100
AcDbLine
 10
-570.1630605233677
 20
944.1474213471283
 30
0.0
 11
-570.1630605233677
 21
942.6474411423144
 31
0.0
  0
LINE
  5
C4
330
1F
100
AcDbEntity
  8
C-A
  6
Continuous
 62
     3
370
     9
100
AcDbLine
 10
-570.1630605233677
 20
933.6475599134292
 30
0.0
 11
-570.1630605233677
 21
927.6471442145271
 31
0.0
  0
LINE
  5
C5
330
1F
100
AcDbEntity
  8
C-A
  6
Continuous
 62
     3
370
     9
100
AcDbLine
 10
-560.2637355392039
 20
944.1474213471283
 30
0.0
 11
-560.2637355392039
 21
942.6474411423144
 31
0.0
  0
LINE
  5
C6
330
1F
100
AcDbEntity
  8
C-A
  6
Continuous
 62
     3
370
     9
100
AcDbLine
 10
-560.2637355392039
 20
933.6475599134292
 30
0.0
 11
-560.2637355392039
 21
927.6471442145271
 31
0.0
  0
LINE
  5
C7
330
1F
100
AcDbEntity
  8
C-A
  6
Continuous
 62
     3
370
     9
100
AcDbLine
 10
-565.2132743113746
 20
933.6475599134292
 30
0.0
 11
-565.2132743113746
 21
927.6471442145271
 31
0.0
  0
LINE
  5
C8
330
1F
100
AcDbEntity
  8
C-A
  6
Continuous
 62
     3
370
     9
100
AcDbLine
 10
-565.2132743113746
 20
944.1474213471283
 30
0.0
 11
-565.2132743113746
 21
942.6474411423144
 31
0.0
  0
LINE
  5
C9
330
1F
100
AcDbEntity
  8
C-A
  6
Continuous
 62
     3
370
     9
100
AcDbLine
 10
-570.1630605233677
 20
918.6472629856419
 30
0.0
 11
-570.1630605233677
 21
912.6468472867401
 31
0.0
  0
LINE
  5
CA
330
1F
100
AcDbEntity
  8
C-A
  6
Continuous
 62
     3
370
     9
100
AcDbLine
 10
-560.2637355392039
 20
918.6472629856419
 30
0.0
 11
-560.2637355392039
 21
912.6468472867401
 31
0.0
  0
LINE
  5
CB
330
1F
100
AcDbEntity
  8
C-A
  6
Continuous
 62
     3
370
     9
100
AcDbLine
 10
-565.2132743113746
 20
918.6472629856419
 30
0.0
 11
-565.2132743113746
 21
912.6468472867401
 31
0.0
  0
LINE
  5
CC
330
1F
100
AcDbEntity
  8
C-A
  6
Continuous
 62
     3
370
     9
100
AcDbLine
 10
-570.1630605233677
 20
903.6464711782096
 30
0.0
 11
-570.1630605233677
 21
897.6465503589529
 31
0.0
  0
LINE
  5
CD
330
1F
100
AcDbEntity
  8
C-A
  6
Continuous
 62
     3
370
     9
100
AcDbLine
 10
-560.2637355392039
 20
903.6464711782096
 30
0.0
 11
-560.2637355392039
 21
897.6465503589529
 31
0.0
  0
LINE
  5
CE
330
1F
100
AcDbEntity
  8
C-A
  6
Continuous
 62
     3
370
     9
100
AcDbLine
 10
-565.2132743113746
 20
903.6464711782096
 30
0.0
 11
-565.2132743113746
 21
897.6465503589529
 31
0.0
  0
LINE
  5
CF
330
1F
100
AcDbEntity
  8
C-A
  6
Continuous
 62
     3
370
     9
100
AcDbLine
 10
-570.1630605233677
 20
888.6461742504224
 30
0.0
 11
-570.1630605233677
 21
882.6462534311656
 31
0.0
  0
LINE
  5
D0
330
1F
100
AcDbEntity
  8
C-A
  6
Continuous
 62
     3
370
     9
100
AcDbLine
 10
-560.2637355392039
 20
888.6461742504224
 30
0.0
 11
-560.2637355392039
 21
882.6462534311656
 31
0.0
  0
LINE
  5
D1
330
1F
100
AcDbEntity
  8
C-A
  6
Continuous
 62
     3
370
     9
100
AcDbLine
 10
-565.2132743113746
 20
888.6461742504224
 30
0.0
 11
-565.2132743113746
 21
882.6462534311656
 31
0.0
  0
LINE
  5
D2
330
1F
100
AcDbEntity
  8
C-A
  6
Continuous
 62
     3
370
     9
100
AcDbLine
 10
-570.1630605233677
 20
873.6458773226352
 30
0.0
 11
-570.1630605233677
 21
867.6459565033783
 31
0.0
  0
LINE
  5
D3
330
1F
100
AcDbEntity
  8
C-A
  6
Continuous
 62
     3
370
     9
100
AcDbLine
 10
-560.2637355392039
 20
873.6458773226352
 30
0.0
 11
-560.2637355392039
 21
867.6459565033783
 31
0.0
  0
LINE
  5
D4
330
1F
100
AcDbEntity
  8
C-A
  6
Continuous
 62
     3
370
     9
100
AcDbLine
 10
-565.2132743113746
 20
873.6458773226352
 30
0.0
 11
-565.2132743113746
 21
867.6459565033783
 31
0.0
  0
LINE
  5
D5
330
1F
100
AcDbEntity
  8
C-A
  6
Continuous
 62
     3
370
     9
100
AcDbLine
 10
-570.1630605233677
 20
858.6455803948481
 30
0.0
 11
-570.1630605233677
 21
852.6456595755915
 31
0.0
  0
LINE
  5
D6
330
1F
100
AcDbEntity
  8
C-A
  6
Continuous
 62
     3
370
     9
100
AcDbLine
 10
-560.2637355392039
 20
858.6455803948481
 30
0.0
 11
-560.2637355392039
 21
852.6456595755915
 31
0.0
  0
LINE
  5
D7
330
1F
100
AcDbEntity
  8
C-A
  6
Continuous
 62
     3
370
     9
100
AcDbLine
 10
-565.2132743113746
 20
858.6455803948481
 30
0.0
 11
-565.2132743113746
 21
852.6456595755915
 31
0.0
  0
LINE
  5
D8
330
1F
100
AcDbEntity
  8
C-A
  6
Continuous
 62
     3
370
     9
100
AcDbLine
 10
-570.1630605233677
 20
843.645283467061
 30
0.0
 11
-570.1630605233677
 21
837.6453626478042
 31
0.0
  0
LINE
  5
D9
330
1F
100
AcDbEntity
  8
C-A
  6
Continuous
 62
     3
370
     9
100
AcDbLine
 10
-560.2637355392039
 20
843.645283467061
 30
0.0
 11
-560.2637355392039
 21
837.6453626478042
 31
0.0
  0
LINE
  5
DA
330
1F
100
AcDbEntity
  8
C-A
  6
Continuous
 62
     3
370
     9
100
AcDbLine
 10
-565.2132743113746
 20
843.645283467061
 30
0.0
 11
-565.2132743113746
 21
837.6453626478042
 31
0.0
  0
LINE
  5
DB
330
1F
100
AcDbEntity
  8
C-A
  6
Continuous
 62
     3
370
     9
100
AcDbLine
 10
-570.1630605233677
 20
828.6449865392738
 30
0.0
 11
-570.1630605233677
 21
822.6450657200169
 31
0.0
  0
LINE
  5
DC
330
1F
100
AcDbEntity
  8
C-A
  6
Continuous
 62
     3
370
     9
100
AcDbLine
 10
-560.2637355392039
 20
828.6449865392738
 30
0.0
 11
-560.2637355392039
 21
822.6450657200169
 31
0.0
  0
LINE
  5
DD
330
1F
100
AcDbEntity
  8
C-A
  6
Continuous
 62
     3
370
     9
100
AcDbLine
 10
-565.2132743113746
 20
828.6449865392738
 30
0.0
 11
-565.2132743113746
 21
822.6450657200169
 31
0.0
  0
LINE
  5
DE
330
1F
100
AcDbEntity
  8
C-A
  6
Continuous
 62
     3
370
     9
100
AcDbLine
 10
-570.1630605233677
 20
813.6446896114867
 30
0.0
 11
-570.1630605233677
 21
807.64476879223
 31
0.0
  0
LINE
  5
DF
330
1F
100
AcDbEntity
  8
C-A
  6
Continuous
 62
     3
370
     9
100
AcDbLine
 10
-560.2637355392039
 20
813.6446896114867
 30
0.0
 11
-560.2637355392039
 21
807.64476879223
 31
0.0
  0
LINE
  5
E0
330
1F
100
AcDbEntity
  8
C-A
  6
Continuous
 62
     3
370
     9
100
AcDbLine
 10
-565.2132743113746
 20
813.6446896114867
 30
0.0
 11
-565.2132743113746
 21
807.64476879223
 31
0.0
  0
LINE
  5
E1
330
1F
100
AcDbEntity
  8
C-A
  6
Continuous
 62
     3
370
     9
100
AcDbLine
 10
-570.1630605233677
 20
798.6443926836995
 30
0.0
 11
-570.1630605233677
 21
792.6444718644427
 31
0.0
  0
LINE
  5
E2
330
1F
100
AcDbEntity
  8
C-A
  6
Continuous
 62
     3
370
     9
100
AcDbLine
 10
-560.2637355392039
 20
798.6443926836995
 30
0.0
 11
-560.2637355392039
 21
792.6444718644427
 31
0.0
  0
LINE
  5
E3
330
1F
100
AcDbEntity
  8
C-A
  6
Continuous
 62
     3
370
     9
100
AcDbLine
 10
-565.2132743113746
 20
798.6443926836995
 30
0.0
 11
-565.2132743113746
 21
792.6444718644427
 31
0.0
  0
LINE
  5
E4
330
1F
100
AcDbEntity
  8
C-A
  6
Continuous
 62
     3
370
     9
100
AcDbLine
 10
-570.1630605233677
 20
783.6440957559123
 30
0.0
 11
-570.1630605233677
 21
777.6441749366554
 31
0.0
  0
LINE
  5
E5
330
1F
100
AcDbEntity
  8
C-A
  6
Continuous
 62
     3
370
     9
100
AcDbLine
 10
-560.2637355392039
 20
783.6440957559123
 30
0.0
 11
-560.2637355392039
 21
777.6441749366554
 31
0.0
  0
LINE
  5
E6
330
1F
100
AcDbEntity
  8
C-A
  6
Continuous
 62
     3
370
     9
100
AcDbLine
 10
-565.2132743113746
 20
783.6440957559123
 30
0.0
 11
-565.2132743113746
 21
777.6441749366554
 31
0.0
  0
LINE
  5
E7
330
1F
100
AcDbEntity
  8
C-A
  6
Continuous
 62
     3
370
     9
100
AcDbLine
 10
-570.1630605233677
 20
768.643798828125
 30
0.0
 11
-570.1630605233677
 21
762.6438780088682
 31
0.0
  0
LINE
  5
E8
330
1F
100
AcDbEntity
  8
C-A
  6
Continuous
 62
     3
370
     9
100
AcDbLine
 10
-560.2637355392039
 20
768.643798828125
 30
0.0
 11
-560.2637355392039
 21
762.6438780088682
 31
0.0
  0
LINE
  5
E9
330
1F
100
AcDbEntity
  8
C-A
  6
Continuous
 62
     3
370
     9
100
AcDbLine
 10
-565.2132743113746
 20
768.643798828125
 30
0.0
 11
-565.2132743113746
 21
762.6438780088682
 31
0.0
  0
LINE
  5
EA
330
1F
100
AcDbEntity
  8
C-A
  6
Continuous
 62
     3
370
     9
100
AcDbLine
 10
-570.1630605233677
 20
753.643501900338
 30
0.0
 11
-570.1630605233677
 21
747.6435810810813
 31
0.0
  0
LINE
  5
EB
330
1F
100
AcDbEntity
  8
C-A
  6
Continuous
 62
     3
370
     9
100
AcDbLine
 10
-560.2637355392039
 20
753.643501900338
 30
0.0
 11
-560.2637355392039
 21
747.6435810810813
 31
0.0
  0
LINE
  5
EC
330
1F
100
AcDbEntity
  8
C-A
  6
Continuous
 62
     3
370
     9
100
AcDbLine
 10
-565.2132743113746
 20
753.643501900338
 30
0.0
 11
-565.2132743113746
 21
747.6435810810813
 31
0.0
  0
LINE
  5
ED
330
1F
100
AcDbEntity
  8
C-A
  6
Continuous
 62
     3
370
     9
100
AcDbLine
 10
-570.1630605233677
 20
738.6432049725508
 30
0.0
 11
-570.1630605233677
 21
732.643284153294
 31
0.0
  0
LINE
  5
EE
330
1F
100
AcDbEntity
  8
C-A
  6
Continuous
 62
     3
370
     9
100
AcDbLine
 10
-560.2637355392039
 20
738.6432049725508
 30
0.0
 11
-560.2637355392039
 21
732.643284153294
 31
0.0
  0
LINE
  5
EF
330
1F
100
AcDbEntity
  8
C-A
  6
Continuous
 62
     3
370
     9
100
AcDbLine
 10
-565.2132743113746
 20
738.6432049725508
 30
0.0
 11
-565.2132743113746
 21
732.643284153294
 31
0.0
  0
LINE
  5
F0
330
1F
100
AcDbEntity
  8
C-A
  6
Continuous
 62
     3
370
     9
100
AcDbLine
 10
-570.1630605233677
 20
723.6429080447635
 30
0.0
 11
-570.1630605233677
 21
717.6429872255068
 31
0.0
  0
LINE
  5
F1
330
1F
100
AcDbEntity
  8
C-A
  6
Continuous
 62
     3
370
     9
100
AcDbLine
 10
-560.2637355392039
 20
723.6429080447635
 30
0.0
 11
-560.2637355392039
 21
717.6429872255068
 31
0.0
  0
LINE
  5
F2
330
1F
100
AcDbEntity
  8
C-A
  6
Continuous
 62
     3
370
     9
100
AcDbLine
 10
-565.2132743113746
 20
723.6429080447635
 30
0.0
 11
-565.2132743113746
 21
717.6429872255068
 31
0.0
  0
LINE
  5
F3
330
1F
100
AcDbEntity
  8
C-A
  6
Continuous
 62
     3
370
     9
100
AcDbLine
 10
-570.1630605233677
 20
708.6426111169766
 30
0.0
 11
-570.1630605233677
 21
702.6426902977198
 31
0.0
  0
LINE
  5
F4
330
1F
100
AcDbEntity
  8
C-A
  6
Continuous
 62
     3
370
     9
100
AcDbLine
 10
-560.2637355392039
 20
708.6426111169766
 30
0.0
 11
-560.2637355392039
 21
702.6426902977198
 31
0.0
  0
LINE
  5
F5
330
1F
100
AcDbEntity
  8
C-A
  6
Continuous
 62
     3
370
     9
100
AcDbLine
 10
-565.2132743113746
 20
708.6426111169766
 30
0.0
 11
-565.2132743113746
 21
702.6426902977198
 31
0.0
  0
LINE
  5
F6
330
1F
100
AcDbEntity
  8
C-A
  6
Continuous
 62
     3
370
     9
100
AcDbLine
 10
-570.1630605233677
 20
693.6423141891894
 30
0.0
 11
-570.1630605233677
 21
687.6418984902873
 31
0.0
  0
LINE
  5
F7
330
1F
100
AcDbEntity
  8
C-A
  6
Continuous
 62
     3
370
     9
100
AcDbLine
 10
-560.2637355392039
 20
693.6423141891894
 30
0.0
 11
-560.2637355392039
 21
687.6418984902873
 31
0.0
  0
LINE
  5
F8
330
1F
100
AcDbEntity
  8
C-A
  6
Continuous
 62
     3
370
     9
100
AcDbLine
 10
-565.2132743113746
 20
693.6423141891894
 30
0.0
 11
-565.2132743113746
 21
687.6418984902873
 31
0.0
  0
LINE
  5
F9
330
1F
100
AcDbEntity
  8
C-A
  6
Continuous
 62
     3
370
     9
100
AcDbLine
 10
-570.1630605233677
 20
678.6420172614021
 30
0.0
 11
-570.1630605233677
 21
672.6416015625
 31
0.0
  0
LINE
  5
FA
330
1F
100
AcDbEntity
  8
C-A
  6
Continuous
 62
     3
370
     9
100
AcDbLine
 10
-560.2637355392039
 20
678.6420172614021
 30
0.0
 11
-560.2637355392039
 21
672.6416015625
 31
0.0
  0
LINE
  5
FB
330
1F
100
AcDbEntity
  8
C-A
  6
Continuous
 62
     3
370
     9
100
AcDbLine
 10
-565.2132743113746
 20
678.6420172614021
 30
0.0
 11
-565.2132743113746
 21
672.6416015625
 31
0.0
  0
LINE
  5
FC
330
1F
100
AcDbEntity
  8
C-A
  6
Continuous
 62
     3
370
     9
100
AcDbLine
 10
-570.1630605233677
 20
663.6417203336151
 30
0.0
 11
-570.1630605233677
 21
657.6415520745356
 31
0.0
  0
LINE
  5
FD
330
1F
100
AcDbEntity
  8
C-A
  6
Continuous
 62
     3
370
     9
100
AcDbLine
 10
-560.2637355392039
 20
663.6417203336151
 30
0.0
 11
-560.2637355392039
 21
657.6415520745356
 31
0.0
  0
LINE
  5
FE
330
1F
100
AcDbEntity
  8
C-A
  6
Continuous
 62
     3
370
     9
100
AcDbLine
 10
-565.2132743113746
 20
663.6417203336151
 30
0.0
 11
-565.2132743113746
 21
657.6415520745356
 31
0.0
  0
LINE
  5
FF
330
1F
100
AcDbEntity
  8
C-A
  6
Continuous
 62
     3
370
     9
100
AcDbLine
 10
-570.1630605233677
 20
648.6414234058279
 30
0.0
 11
-570.1630605233677
 21
642.6412551467484
 31
0.0
  0
LINE
  5
100
330
1F
100
AcDbEntity
  8
C-A
  6
Continuous
 62
     3
370
     9
100
AcDbLine
 10
-560.2637355392039
 20
648.6414234058279
 30
0.0
 11
-560.2637355392039
 21
642.6412551467484
 31
0.0
  0
LINE
  5
101
330
1F
100
AcDbEntity
  8
C-A
  6
Continuous
 62
     3
370
     9
100
AcDbLine
 10
-565.2132743113746
 20
648.6414234058279
 30
0.0
 11
-565.2132743113746
 21
642.6412551467484
 31
0.0
  0
LINE
  5
102
330
1F
100
AcDbEntity
  8
C-A
  6
Continuous
 62
     3
370
     9
100
AcDbLine
 10
-570.1630605233677
 20
633.6411264780406
 30
0.0
 11
-570.1630605233677
 21
627.6407107791385
 31
0.0
  0
LINE
  5
103
330
1F
100
AcDbEntity
  8
C-A
  6
Continuous
 62
     3
370
     9
100
AcDbLine
 10
-560.2637355392039
 20
633.6411264780406
 30
0.0
 11
-560.2637355392039
 21
627.6407107791385
 31
0.0
  0
LINE
  5
104
330
1F
100
AcDbEntity
  8
C-A
  6
Continuous
 62
     3
370
     9
100
AcDbLine
 10
-565.2132743113746
 20
633.6411264780406
 30
0.0
 11
-565.2132743113746
 21
627.6407107791385
 31
0.0
  0
LINE
  5
105
330
1F
100
AcDbEntity
  8
C-A
  6
Continuous
 62
     3
370
     9
100
AcDbLine
 10
-570.1630605233677
 20
618.6408295502533
 30
0.0
 11
-570.1630605233677
 21
612.6404138513516
 31
0.0
  0
LINE
  5
106
330
1F
100
AcDbEntity
  8
C-A
  6
Continuous
 62
     3
370
     9
100
AcDbLine
 10
-560.2637355392039
 20
618.6408295502533
 30
0.0
 11
-560.2637355392039
 21
612.6404138513516
 31
0.0
  0
LINE
  5
107
330
1F
100
AcDbEntity
  8
C-A
  6
Continuous
 62
     3
370
     9
100
AcDbLine
 10
-565.2132743113746
 20
618.6408295502533
 30
0.0
 11
-565.2132743113746
 21
612.6404138513516
 31
0.0
  0
LINE
  5
108
330
1F
100
AcDbEntity
  8
C-A
  6
Continuous
 62
     3
370
     9
100
AcDbLine
 10
-570.1630605233677
 20
603.6405326224665
 30
0.0
 11
-570.1630605233677
 21
597.6401169235644
 31
0.0
  0
LINE
  5
109
330
1F
100
AcDbEntity
  8
C-A
  6
Continuous
 62
     3
370
     9
100
AcDbLine
 10
-560.2637355392039
 20
603.6405326224665
 30
0.0
 11
-560.2637355392039
 21
597.6401169235644
 31
0.0
  0
LINE
  5
10A
330
1F
100
AcDbEntity
  8
C-A
  6
Continuous
 62
     3
370
     9
100
AcDbLine
 10
-565.2132743113746
 20
603.6405326224665
 30
0.0
 11
-565.2132743113746
 21
597.6401169235644
 31
0.0
  0
LINE
  5
10B
330
1F
100
AcDbEntity
  8
C-A
  6
Continuous
 62
     3
370
     9
100
AcDbLine
 10
-570.1630605233677
 20
588.6401119747679
 30
0.0
 11
-570.1630605233677
 21
582.6399437156886
 31
0.0
  0
LINE
  5
10C
330
1F
100
AcDbEntity
  8
C-A
  6
Continuous
 62
     3
370
     9
100
AcDbLine
 10
-560.2637355392039
 20
588.6401119747679
 30
0.0
 11
-560.2637355392039
 21
582.6399437156886
 31
0.0
  0
LINE
  5
10D
330
1F
100
AcDbEntity
  8
C-A
  6
Continuous
 62
     3
370
     9
100
AcDbLine
 10
-565.2132743113746
 20
588.6401119747679
 30
0.0
 11
-565.2132743113746
 21
582.6399437156886
 31
0.0
  0
LINE
  5
10E
330
1F
100
AcDbEntity
  8
C-A
  6
Continuous
 62
     3
370
     9
100
AcDbLine
 10
-570.1630605233677
 20
573.6398150469807
 30
0.0
 11
-570.1630605233677
 21
567.6396467879013
 31
0.0
  0
LINE
  5
10F
330
1F
100
AcDbEntity
  8
C-A
  6
Continuous
 62
     3
370
     9
100
AcDbLine
 10
-560.2637355392039
 20
573.6398150469807
 30
0.0
 11
-560.2637355392039
 21
567.6396467879013
 31
0.0
  0
LINE
  5
110
330
1F
100
AcDbEntity
  8
C-A
  6
Continuous
 62
     3
370
     9
100
AcDbLine
 10
-565.2132743113746
 20
573.6398150469807
 30
0.0
 11
-565.2132743113746
 21
567.6396467879013
 31
0.0
  0
LINE
  5
111
330
1F
100
AcDbEntity
  8
C-A
  6
Continuous
 62
     3
370
     9
100
AcDbLine
 10
-570.1630605233677
 20
558.6393943992823
 30
0.0
 11
-570.1630605233677
 21
552.6393498601141
 31
0.0
  0
LINE
  5
112
330
1F
100
AcDbEntity
  8
C-A
  6
Continuous
 62
     3
370
     9
100
AcDbLine
 10
-560.2637355392039
 20
558.6393943992823
 30
0.0
 11
-560.2637355392039
 21
552.6393498601141
 31
0.0
  0
LINE
  5
113
330
1F
100
AcDbEntity
  8
C-A
  6
Continuous
 62
     3
370
     9
100
AcDbLine
 10
-565.2132743113746
 20
558.6393943992823
 30
0.0
 11
-565.2132743113746
 21
552.6393498601141
 31
0.0
  0
LINE
  5
114
330
1F
100
AcDbEntity
  8
C-A
  6
Continuous
 62
     3
370
     9
100
AcDbLine
 10
-570.1630605233677
 20
543.639097471495
 30
0.0
 11
-570.1630605233677
 21
537.6390529323271
 31
0.0
  0
LINE
  5
115
330
1F
100
AcDbEntity
  8
C-A
  6
Continuous
 62
     3
370
     9
100
AcDbLine
 10
-560.2637355392039
 20
543.639097471495
 30
0.0
 11
-560.2637355392039
 21
537.6390529323271
 31
0.0
  0
LINE
  5
116
330
1F
100
AcDbEntity
  8
C-A
  6
Continuous
 62
     3
370
     9
100
AcDbLine
 10
-565.2132743113746
 20
543.639097471495
 30
0.0
 11
-565.2132743113746
 21
537.6390529323271
 31
0.0
  0
LINE
  5
117
330
1F
100
AcDbEntity
  8
C-A
  6
Continuous
 62
     3
370
     9
100
AcDbLine
 10
-570.1630605233677
 20
528.6388005437078
 30
0.0
 11
-570.1630605233677
 21
522.6386322846283
 31
0.0
  0
LINE
  5
118
330
1F
100
AcDbEntity
  8
C-A
  6
Continuous
 62
     3
370
     9
100
AcDbLine
 10
-560.2637355392039
 20
528.6388005437078
 30
0.0
 11
-560.2637355392039
 21
522.6386322846283
 31
0.0
  0
LINE
  5
119
330
1F
100
AcDbEntity
  8
C-A
  6
Continuous
 62
     3
370
     9
100
AcDbLine
 10
-565.2132743113746
 20
528.6388005437078
 30
0.0
 11
-565.2132743113746
 21
522.6386322846283
 31
0.0
  0
LINE
  5
11A
330
1F
100
AcDbEntity
  8
C-A
  6
Continuous
 62
     3
370
     9
100
AcDbLine
 10
-570.1630605233677
 20
513.6385036159209
 30
0.0
 11
-570.1630605233677
 21
512.1473075248102
 31
0.0
  0
LINE
  5
11B
330
1F
100
AcDbEntity
  8
C-A
  6
Continuous
 62
     3
370
     9
100
AcDbLine
 10
-565.2132743113746
 20
513.6385036159209
 30
0.0
 11
-565.2132743113746
 21
512.1473075248102
 31
0.0
  0
LINE
  5
11C
330
1F
100
AcDbEntity
  8
C-A
  6
Continuous
 62
     3
370
     9
100
AcDbLine
 10
-560.2637355392039
 20
513.6385036159209
 30
0.0
 11
-560.2637355392039
 21
512.1473075248102
 31
0.0
  0
LINE
  5
11D
330
1F
100
AcDbEntity
  8
C-A
  6
Continuous
 62
     3
370
     9
100
AcDbLine
 10
-490.1632914672024
 20
944.1474213471283
 30
0.0
 11
-490.1632914672024
 21
942.6474411423144
 31
0.0
  0
LINE
  5
11E
330
1F
100
AcDbEntity
  8
C-A
  6
Continuous
 62
     3
370
     9
100
AcDbLine
 10
-490.1632914672024
 20
933.6475599134292
 30
0.0
 11
-490.1632914672024
 21
927.6471442145271
 31
0.0
  0
LINE
  5
11F
330
1F
100
AcDbEntity
  8
C-A
  6
Continuous
 62
     3
370
     9
100
AcDbLine
 10
-480.2637190432156
 20
944.1474213471283
 30
0.0
 11
-480.2637190432156
 21
942.6474411423144
 31
0.0
  0
LINE
  5
120
330
1F
100
AcDbEntity
  8
C-A
  6
Continuous
 62
     3
370
     9
100
AcDbLine
 10
-480.2637190432156
 20
933.6475599134292
 30
0.0
 11
-480.2637190432156
 21
927.6471442145271
 31
0.0
  0
LINE
  5
121
330
1F
100
AcDbEntity
  8
C-A
  6
Continuous
 62
     3
370
     9
100
AcDbLine
 10
-485.2135052552092
 20
933.6475599134292
 30
0.0
 11
-485.2135052552092
 21
927.6471442145271
 31
0.0
  0
LINE
  5
122
330
1F
100
AcDbEntity
  8
C-A
  6
Continuous
 62
     3
370
     9
100
AcDbLine
 10
-485.2135052552092
 20
944.1474213471283
 30
0.0
 11
-485.2135052552092
 21
942.6474411423144
 31
0.0
  0
LINE
  5
123
330
1F
100
AcDbEntity
  8
C-A
  6
Continuous
 62
     3
370
     9
100
AcDbLine
 10
-490.1632914672024
 20
918.6472629856419
 30
0.0
 11
-490.1632914672024
 21
912.6468472867401
 31
0.0
  0
LINE
  5
124
330
1F
100
AcDbEntity
  8
C-A
  6
Continuous
 62
     3
370
     9
100
AcDbLine
 10
-480.2637190432156
 20
918.6472629856419
 30
0.0
 11
-480.2637190432156
 21
912.6468472867401
 31
0.0
  0
LINE
  5
125
330
1F
100
AcDbEntity
  8
C-A
  6
Continuous
 62
     3
370
     9
100
AcDbLine
 10
-485.2135052552092
 20
918.6472629856419
 30
0.0
 11
-485.2135052552092
 21
912.6468472867401
 31
0.0
  0
LINE
  5
126
330
1F
100
AcDbEntity
  8
C-A
  6
Continuous
 62
     3
370
     9
100
AcDbLine
 10
-490.1632914672024
 20
903.6464711782096
 30
0.0
 11
-490.1632914672024
 21
897.6465503589529
 31
0.0
  0
LINE
  5
127
330
1F
100
AcDbEntity
  8
C-A
  6
Continuous
 62
     3
370
     9
100
AcDbLine
 10
-480.2637190432156
 20
903.6464711782096
 30
0.0
 11
-480.2637190432156
 21
897.6465503589529
 31
0.0
  0
LINE
  5
128
330
1F
100
AcDbEntity
  8
C-A
  6
Continuous
 62
     3
370
     9
100
AcDbLine
 10
-485.2135052552092
 20
903.6464711782096
 30
0.0
 11
-485.2135052552092
 21
897.6465503589529
 31
0.0
  0
LINE
  5
129
330
1F
100
AcDbEntity
  8
C-A
  6
Continuous
 62
     3
370
     9
100
AcDbLine
 10
-490.1632914672024
 20
888.6461742504224
 30
0.0
 11
-490.1632914672024
 21
882.6462534311656
 31
0.0
  0
LINE
  5
12A
330
1F
100
AcDbEntity
  8
C-A
  6
Continuous
 62
     3
370
     9
100
AcDbLine
 10
-480.2637190432156
 20
888.6461742504224
 30
0.0
 11
-480.2637190432156
 21
882.6462534311656
 31
0.0
  0
LINE
  5
12B
330
1F
100
AcDbEntity
  8
C-A
  6
Continuous
 62
     3
370
     9
100
AcDbLine
 10
-485.2135052552092
 20
888.6461742504224
 30
0.0
 11
-485.2135052552092
 21
882.6462534311656
 31
0.0
  0
LINE
  5
12C
330
1F
100
AcDbEntity
  8
C-A
  6
Continuous
 62
     3
370
     9
100
AcDbLine
 10
-490.1632914672024
 20
873.6458773226352
 30
0.0
 11
-490.1632914672024
 21
867.6459565033783
 31
0.0
  0
LINE
  5
12D
330
1F
100
AcDbEntity
  8
C-A
  6
Continuous
 62
     3
370
     9
100
AcDbLine
 10
-480.2637190432156
 20
873.6458773226352
 30
0.0
 11
-480.2637190432156
 21
867.6459565033783
 31
0.0
  0
LINE
  5
12E
330
1F
100
AcDbEntity
  8
C-A
  6
Continuous
 62
     3
370
     9
100
AcDbLine
 10
-485.2135052552092
 20
873.6458773226352
 30
0.0
 11
-485.2135052552092
 21
867.6459565033783
 31
0.0
  0
LINE
  5
12F
330
1F
100
AcDbEntity
  8
C-A
  6
Continuous
 62
     3
370
     9
100
AcDbLine
 10
-490.1632914672024
 20
858.6455803948481
 30
0.0
 11
-490.1632914672024
 21
852.6456595755915
 31
0.0
  0
LINE
  5
130
330
1F
100
AcDbEntity
  8
C-A
  6
Continuous
 62
     3
370
     9
100
AcDbLine
 10
-480.2637190432156
 20
858.6455803948481
 30
0.0
 11
-480.2637190432156
 21
852.6456595755915
 31
0.0
  0
LINE
  5
131
330
1F
100
AcDbEntity
  8
C-A
  6
Continuous
 62
     3
370
     9
100
AcDbLine
 10
-485.2135052552092
 20
858.6455803948481
 30
0.0
 11
-485.2135052552092
 21
852.6456595755915
 31
0.0
  0
LINE
  5
132
330
1F
100
AcDbEntity
  8
C-A
  6
Continuous
 62
     3
370
     9
100
AcDbLine
 10
-490.1632914672024
 20
843.645283467061
 30
0.0
 11
-490.1632914672024
 21
837.6453626478042
 31
0.0
  0
LINE
  5
133
330
1F
100
AcDbEntity
  8
C-A
  6
Continuous
 62
     3
370
     9
100
AcDbLine
 10
-480.2637190432156
 20
843.645283467061
 30
0.0
 11
-480.2637190432156
 21
837.6453626478042
 31
0.0
  0
LINE
  5
134
330
1F
100
AcDbEntity
  8
C-A
  6
Continuous
 62
     3
370
     9
100
AcDbLine
 10
-485.2135052552092
 20
843.645283467061
 30
0.0
 11
-485.2135052552092
 21
837.6453626478042
 31
0.0
  0
LINE
  5
135
330
1F
100
AcDbEntity
  8
C-A
  6
Continuous
 62
     3
370
     9
100
AcDbLine
 10
-490.1632914672024
 20
828.6449865392738
 30
0.0
 11
-490.1632914672024
 21
822.6450657200169
 31
0.0
  0
LINE
  5
136
330
1F
100
AcDbEntity
  8
C-A
  6
Continuous
 62
     3
370
     9
100
AcDbLine
 10
-480.2637190432156
 20
828.6449865392738
 30
0.0
 11
-480.2637190432156
 21
822.6450657200169
 31
0.0
  0
LINE
  5
137
330
1F
100
AcDbEntity
  8
C-A
  6
Continuous
 62
     3
370
     9
100
AcDbLine
 10
-485.2135052552092
 20
828.6449865392738
 30
0.0
 11
-485.2135052552092
 21
822.6450657200169
 31
0.0
  0
LINE
  5
138
330
1F
100
AcDbEntity
  8
C-A
  6
Continuous
 62
     3
370
     9
100
AcDbLine
 10
-490.1632914672024
 20
813.6446896114867
 30
0.0
 11
-490.1632914672024
 21
807.64476879223
 31
0.0
  0
LINE
  5
139
330
1F
100
AcDbEntity
  8
C-A
  6
Continuous
 62
     3
370
     9
100
AcDbLine
 10
-480.2637190432156
 20
813.6446896114867
 30
0.0
 11
-480.2637190432156
 21
807.64476879223
 31
0.0
  0
LINE
  5
13A
330
1F
100
AcDbEntity
  8
C-A
  6
Continuous
 62
     3
370
     9
100
AcDbLine
 10
-485.2135052552092
 20
813.6446896114867
 30
0.0
 11
-485.2135052552092
 21
807.64476879223
 31
0.0
  0
LINE
  5
13B
330
1F
100
AcDbEntity
  8
C-A
  6
Continuous
 62
     3
370
     9
100
AcDbLine
 10
-490.1632914672024
 20
798.6443926836995
 30
0.0
 11
-490.1632914672024
 21
792.6444718644427
 31
0.0
  0
LINE
  5
13C
330
1F
100
AcDbEntity
  8
C-A
  6
Continuous
 62
     3
370
     9
100
AcDbLine
 10
-480.2637190432156
 20
798.6443926836995
 30
0.0
 11
-480.2637190432156
 21
792.6444718644427
 31
0.0
  0
LINE
  5
13D
330
1F
100
AcDbEntity
  8
C-A
  6
Continuous
 62
     3
370
     9
100
AcDbLine
 10
-485.2135052552092
 20
798.6443926836995
 30
0.0
 11
-485.2135052552092
 21
792.6444718644427
 31
0.0
  0
LINE
  5
13E
330
1F
100
AcDbEntity
  8
C-A
  6
Continuous
 62
     3
370
     9
100
AcDbLine
 10
-490.1632914672024
 20
783.6440957559123
 30
0.0
 11
-490.1632914672024
 21
777.6441749366554
 31
0.0
  0
LINE
  5
13F
330
1F
100
AcDbEntity
  8
C-A
  6
Continuous
 62
     3
370
     9
100
AcDbLine
 10
-480.2637190432156
 20
783.6440957559123
 30
0.0
 11
-480.2637190432156
 21
777.6441749366554
 31
0.0
  0
LINE
  5
140
330
1F
100
AcDbEntity
  8
C-A
  6
Continuous
 62
     3
370
     9
100
AcDbLine
 10
-485.2135052552092
 20
783.6440957559123
 30
0.0
 11
-485.2135052552092
 21
777.6441749366554
 31
0.0
  0
LINE
  5
141
330
1F
100
AcDbEntity
  8
C-A
  6
Continuous
 62
     3
370
     9
100
AcDbLine
 10
-490.1632914672024
 20
768.643798828125
 30
0.0
 11
-490.1632914672024
 21
762.6438780088682
 31
0.0
  0
LINE
  5
142
330
1F
100
AcDbEntity
  8
C-A
  6
Continuous
 62
     3
370
     9
100
AcDbLine
 10
-480.2637190432156
 20
768.643798828125
 30
0.0
 11
-480.2637190432156
 21
762.6438780088682
 31
0.0
  0
LINE
  5
143
330
1F
100
AcDbEntity
  8
C-A
  6
Continuous
 62
     3
370
     9
100
AcDbLine
 10
-485.2135052552092
 20
768.643798828125
 30
0.0
 11
-485.2135052552092
 21
762.6438780088682
 31
0.0
  0
LINE
  5
144
330
1F
100
AcDbEntity
  8
C-A
  6
Continuous
 62
     3
370
     9
100
AcDbLine
 10
-490.1632914672024
 20
753.643501900338
 30
0.0
 11
-490.1632914672024
 21
747.6435810810813
 31
0.0
  0
LINE
  5
145
330
1F
100
AcDbEntity
  8
C-A
  6
Continuous
 62
     3
370
     9
100
AcDbLine
 10
-480.2637190432156
 20
753.643501900338
 30
0.0
 11
-480.2637190432156
 21
747.6435810810813
 31
0.0
  0
LINE
  5
146
330
1F
100
AcDbEntity
  8
C-A
  6
Continuous
 62
     3
370
     9
100
AcDbLine
 10
-485.2135052552092
 20
753.643501900338
 30
0.0
 11
-485.2135052552092
 21
747.6435810810813
 31
0.0
  0
LINE
  5
147
330
1F
100
AcDbEntity
  8
C-A
  6
Continuous
 62
     3
370
     9
100
AcDbLine
 10
-490.1632914672024
 20
738.6432049725508
 30
0.0
 11
-490.1632914672024
 21
732.643284153294
 31
0.0
  0
LINE
  5
148
330
1F
100
AcDbEntity
  8
C-A
  6
Continuous
 62
     3
370
     9
100
AcDbLine
 10
-480.2637190432156
 20
738.6432049725508
 30
0.0
 11
-480.2637190432156
 21
732.643284153294
 31
0.0
  0
LINE
  5
149
330
1F
100
AcDbEntity
  8
C-A
  6
Continuous
 62
     3
370
     9
100
AcDbLine
 10
-485.2135052552092
 20
738.6432049725508
 30
0.0
 11
-485.2135052552092
 21
732.643284153294
 31
0.0
  0
LINE
  5
14A
330
1F
100
AcDbEntity
  8
C-A
  6
Continuous
 62
     3
370
     9
100
AcDbLine
 10
-490.1632914672024
 20
723.6429080447635
 30
0.0
 11
-490.1632914672024
 21
717.6429872255068
 31
0.0
  0
LINE
  5
14B
330
1F
100
AcDbEntity
  8
C-A
  6
Continuous
 62
     3
370
     9
100
AcDbLine
 10
-480.2637190432156
 20
723.6429080447635
 30
0.0
 11
-480.2637190432156
 21
717.6429872255068
 31
0.0
  0
LINE
  5
14C
330
1F
100
AcDbEntity
  8
C-A
  6
Continuous
 62
     3
370
     9
100
AcDbLine
 10
-485.2135052552092
 20
723.6429080447635
 30
0.0
 11
-485.2135052552092
 21
717.6429872255068
 31
0.0
  0
LINE
  5
14D
330
1F
100
AcDbEntity
  8
C-A
  6
Continuous
 62
     3
370
     9
100
AcDbLine
 10
-490.1632914672024
 20
708.6426111169766
 30
0.0
 11
-490.1632914672024
 21
702.6426902977198
 31
0.0
  0
LINE
  5
14E
330
1F
100
AcDbEntity
  8
C-A
  6
Continuous
 62
     3
370
     9
100
AcDbLine
 10
-480.2637190432156
 20
708.6426111169766
 30
0.0
 11
-480.2637190432156
 21
702.6426902977198
 31
0.0
  0
LINE
  5
14F
330
1F
100
AcDbEntity
  8
C-A
  6
Continuous
 62
     3
370
     9
100
AcDbLine
 10
-485.2135052552092
 20
708.6426111169766
 30
0.0
 11
-485.2135052552092
 21
702.6426902977198
 31
0.0
  0
LINE
  5
150
330
1F
100
AcDbEntity
  8
C-A
  6
Continuous
 62
     3
370
     9
100
AcDbLine
 10
-490.1632914672024
 20
693.6423141891894
 30
0.0
 11
-490.1632914672024
 21
687.6418984902873
 31
0.0
  0
LINE
  5
151
330
1F
100
AcDbEntity
  8
C-A
  6
Continuous
 62
     3
370
     9
100
AcDbLine
 10
-480.2637190432156
 20
693.6423141891894
 30
0.0
 11
-480.2637190432156
 21
687.6418984902873
 31
0.0
  0
LINE
  5
152
330
1F
100
AcDbEntity
  8
C-A
  6
Continuous
 62
     3
370
     9
100
AcDbLine
 10
-485.2135052552092
 20
693.6423141891894
 30
0.0
 11
-485.2135052552092
 21
687.6418984902873
 31
0.0
  0
LINE
  5
153
330
1F
100
AcDbEntity
  8
C-A
  6
Continuous
 62
     3
370
     9
100
AcDbLine
 10
-490.1632914672024
 20
678.6420172614021
 30
0.0
 11
-490.1632914672024
 21
672.6416015625
 31
0.0
  0
LINE
  5
154
330
1F
100
AcDbEntity
  8
C-A
  6
Continuous
 62
     3
370
     9
100
AcDbLine
 10
-480.2637190432156
 20
678.6420172614021
 30
0.0
 11
-480.2637190432156
 21
672.6416015625
 31
0.0
  0
LINE
  5
155
330
1F
100
AcDbEntity
  8
C-A
  6
Continuous
 62
     3
370
     9
100
AcDbLine
 10
-485.2135052552092
 20
678.6420172614021
 30
0.0
 11
-485.2135052552092
 21
672.6416015625
 31
0.0
  0
LINE
  5
156
330
1F
100
AcDbEntity
  8
C-A
  6
Continuous
 62
     3
370
     9
100
AcDbLine
 10
-490.1632914672024
 20
663.6417203336151
 30
0.0
 11
-490.1632914672024
 21
657.6415520745356
 31
0.0
  0
LINE
  5
157
330
1F
100
AcDbEntity
  8
C-A
  6
Continuous
 62
     3
370
     9
100
AcDbLine
 10
-480.2637190432156
 20
663.6417203336151
 30
0.0
 11
-480.2637190432156
 21
657.6415520745356
 31
0.0
  0
LINE
  5
158
330
1F
100
AcDbEntity
  8
C-A
  6
Continuous
 62
     3
370
     9
100
AcDbLine
 10
-485.2135052552092
 20
663.6417203336151
 30
0.0
 11
-485.2135052552092
 21
657.6415520745356
 31
0.0
  0
LINE
  5
159
330
1F
100
AcDbEntity
  8
C-A
  6
Continuous
 62
     3
370
     9
100
AcDbLine
 10
-490.1632914672024
 20
648.6414234058279
 30
0.0
 11
-490.1632914672024
 21
642.6412551467484
 31
0.0
  0
LINE
  5
15A
330
1F
100
AcDbEntity
  8
C-A
  6
Continuous
 62
     3
370
     9
100
AcDbLine
 10
-480.2637190432156
 20
648.6414234058279
 30
0.0
 11
-480.2637190432156
 21
642.6412551467484
 31
0.0
  0
LINE
  5
15B
330
1F
100
AcDbEntity
  8
C-A
  6
Continuous
 62
     3
370
     9
100
AcDbLine
 10
-485.2135052552092
 20
648.6414234058279
 30
0.0
 11
-485.2135052552092
 21
642.6412551467484
 31
0.0
  0
LINE
  5
15C
330
1F
100
AcDbEntity
  8
C-A
  6
Continuous
 62
     3
370
     9
100
AcDbLine
 10
-490.1632914672024
 20
633.6411264780406
 30
0.0
 11
-490.1632914672024
 21
627.6407107791385
 31
0.0
  0
LINE
  5
15D
330
1F
100
AcDbEntity
  8
C-A
  6
Continuous
 62
     3
370
     9
100
AcDbLine
 10
-480.2637190432156
 20
633.6411264780406
 30
0.0
 11
-480.2637190432156
 21
627.6407107791385
 31
0.0
  0
LINE
  5
15E
330
1F
100
AcDbEntity
  8
C-A
  6
Continuous
 62
     3
370
     9
100
AcDbLine
 10
-485.2135052552092
 20
633.6411264780406
 30
0.0
 11
-485.2135052552092
 21
627.6407107791385
 31
0.0
  0
LINE
  5
15F
330
1F
100
AcDbEntity
  8
C-A
  6
Continuous
 62
     3
370
     9
100
AcDbLine
 10
-490.1632914672024
 20
618.6408295502533
 30
0.0
 11
-490.1632914672024
 21
612.6404138513516
 31
0.0
  0
LINE
  5
160
330
1F
100
AcDbEntity
  8
C-A
  6
Continuous
 62
     3
370
     9
100
AcDbLine
 10
-480.2637190432156
 20
618.6408295502533
 30
0.0
 11
-480.2637190432156
 21
612.6404138513516
 31
0.0
  0
LINE
  5
161
330
1F
100
AcDbEntity
  8
C-A
  6
Continuous
 62
     3
370
     9
100
AcDbLine
 10
-485.2135052552092
 20
618.6408295502533
 30
0.0
 11
-485.2135052552092
 21
612.6404138513516
 31
0.0
  0
LINE
  5
162
330
1F
100
AcDbEntity
  8
C-A
  6
Continuous
 62
     3
370
     9
100
AcDbLine
 10
-490.1632914672024
 20
603.6405326224665
 30
0.0
 11
-490.1632914672024
 21
597.6401169235644
 31
0.0
  0
LINE
  5
163
330
1F
100
AcDbEntity
  8
C-A
  6
Continuous
 62
     3
370
     9
100
AcDbLine
 10
-480.2637190432156
 20
603.6405326224665
 30
0.0
 11
-480.2637190432156
 21
597.6401169235644
 31
0.0
  0
LINE
  5
164
330
1F
100
AcDbEntity
  8
C-A
  6
Continuous
 62
     3
370
     9
100
AcDbLine
 10
-485.2135052552092
 20
603.6405326224665
 30
0.0
 11
-485.2135052552092
 21
597.6401169235644
 31
0.0
  0
LINE
  5
165
330
1F
100
AcDbEntity
  8
C-A
  6
Continuous
 62
     3
370
     9
100
AcDbLine
 10
-490.1632914672024
 20
588.6401119747679
 30
0.0
 11
-490.1632914672024
 21
582.6399437156886
 31
0.0
  0
LINE
  5
166
330
1F
100
AcDbEntity
  8
C-A
  6
Continuous
 62
     3
370
     9
100
AcDbLine
 10
-480.2637190432156
 20
588.6401119747679
 30
0.0
 11
-480.2637190432156
 21
582.6399437156886
 31
0.0
  0
LINE
  5
167
330
1F
100
AcDbEntity
  8
C-A
  6
Continuous
 62
     3
370
     9
100
AcDbLine
 10
-485.2135052552092
 20
588.6401119747679
 30
0.0
 11
-485.2135052552092
 21
582.6399437156886
 31
0.0
  0
LINE
  5
168
330
1F
100
AcDbEntity
  8
C-A
  6
Continuous
 62
     3
370
     9
100
AcDbLine
 10
-490.1632914672024
 20
573.6398150469807
 30
0.0
 11
-490.1632914672024
 21
567.6396467879013
 31
0.0
  0
LINE
  5
169
330
1F
100
AcDbEntity
  8
C-A
  6
Continuous
 62
     3
370
     9
100
AcDbLine
 10
-480.2637190432156
 20
573.6398150469807
 30
0.0
 11
-480.2637190432156
 21
567.6396467879013
 31
0.0
  0
LINE
  5
16A
330
1F
100
AcDbEntity
  8
C-A
  6
Continuous
 62
     3
370
     9
100
AcDbLine
 10
-485.2135052552092
 20
573.6398150469807
 30
0.0
 11
-485.2135052552092
 21
567.6396467879013
 31
0.0
  0
LINE
  5
16B
330
1F
100
AcDbEntity
  8
C-A
  6
Continuous
 62
     3
370
     9
100
AcDbLine
 10
-490.1632914672024
 20
558.6393943992823
 30
0.0
 11
-490.1632914672024
 21
552.6393498601141
 31
0.0
  0
LINE
  5
16C
330
1F
100
AcDbEntity
  8
C-A
  6
Continuous
 62
     3
370
     9
100
AcDbLine
 10
-480.2637190432156
 20
558.6393943992823
 30
0.0
 11
-480.2637190432156
 21
552.6393498601141
 31
0.0
  0
LINE
  5
16D
330
1F
100
AcDbEntity
  8
C-A
  6
Continuous
 62
     3
370
     9
100
AcDbLine
 10
-485.2135052552092
 20
558.6393943992823
 30
0.0
 11
-485.2135052552092
 21
552.6393498601141
 31
0.0
  0
LINE
  5
16E
330
1F
100
AcDbEntity
  8
C-A
  6
Continuous
 62
     3
370
     9
100
AcDbLine
 10
-490.1632914672024
 20
543.639097471495
 30
0.0
 11
-490.1632914672024
 21
537.6390529323271
 31
0.0
  0
LINE
  5
16F
330
1F
100
AcDbEntity
  8
C-A
  6
Continuous
 62
     3
370
     9
100
AcDbLine
 10
-480.2637190432156
 20
543.639097471495
 30
0.0
 11
-480.2637190432156
 21
537.6390529323271
 31
0.0
  0
LINE
  5
170
330
1F
100
AcDbEntity
  8
C-A
  6
Continuous
 62
     3
370
     9
100
AcDbLine
 10
-485.2135052552092
 20
543.639097471495
 30
0.0
 11
-485.2135052552092
 21
537.6390529323271
 31
0.0
  0
LINE
  5
171
330
1F
100
AcDbEntity
  8
C-A
  6
Continuous
 62
     3
370
     9
100
AcDbLine
 10
-490.1632914672024
 20
528.6388005437078
 30
0.0
 11
-490.1632914672024
 21
522.6386322846283
 31
0.0
  0
LINE
  5
172
330
1F
100
AcDbEntity
  8
C-A
  6
Continuous
 62
     3
370
     9
100
AcDbLine
 10
-480.2637190432156
 20
528.6388005437078
 30
0.0
 11
-480.2637190432156
 21
522.6386322846283
 31
0.0
  0
LINE
  5
173
330
1F
100
AcDbEntity
  8
C-A
  6
Continuous
 62
     3
370
     9
100
AcDbLine
 10
-485.2135052552092
 20
528.6388005437078
 30
0.0
 11
-485.2135052552092
 21
522.6386322846283
 31
0.0
  0
LINE
  5
174
330
1F
100
AcDbEntity
  8
C-A
  6
Continuous
 62
     3
370
     9
100
AcDbLine
 10
-490.1632914672024
 20
513.6385036159209
 30
0.0
 11
-490.1632914672024
 21
512.1473075248102
 31
0.0
  0
LINE
  5
175
330
1F
100
AcDbEntity
  8
C-A
  6
Continuous
 62
     3
370
     9
100
AcDbLine
 10
-485.2135052552092
 20
513.6385036159209
 30
0.0
 11
-485.2135052552092
 21
512.1473075248102
 31
0.0
  0
LINE
  5
176
330
1F
100
AcDbEntity
  8
C-A
  6
Continuous
 62
     3
370
     9
100
AcDbLine
 10
-480.2637190432156
 20
513.6385036159209
 30
0.0
 11
-480.2637190432156
 21
512.1473075248102
 31
0.0
  0
LINE
  5
177
330
1F
100
AcDbEntity
  8
C-A
  6
Continuous
 62
     3
370
     9
100
AcDbLine
 10
-410.1632749712141
 20
944.1474213471283
 30
0.0
 11
-410.1632749712141
 21
942.6474411423144
 31
0.0
  0
LINE
  5
178
330
1F
100
AcDbEntity
  8
C-A
  6
Continuous
 62
     3
370
     9
100
AcDbLine
 10
-410.1632749712141
 20
933.6475599134292
 30
0.0
 11
-410.1632749712141
 21
927.6471442145271
 31
0.0
  0
LINE
  5
179
330
1F
100
AcDbEntity
  8
C-A
  6
Continuous
 62
     3
370
     9
100
AcDbLine
 10
-400.2639499870503
 20
944.1474213471283
 30
0.0
 11
-400.2639499870503
 21
942.6474411423144
 31
0.0
  0
LINE
  5
17A
330
1F
100
AcDbEntity
  8
C-A
  6
Continuous
 62
     3
370
     9
100
AcDbLine
 10
-400.2639499870503
 20
933.6475599134292
 30
0.0
 11
-400.2639499870503
 21
927.6471442145271
 31
0.0
  0
LINE
  5
17B
330
1F
100
AcDbEntity
  8
C-A
  6
Continuous
 62
     3
370
     9
100
AcDbLine
 10
-405.2134887592209
 20
933.6475599134292
 30
0.0
 11
-405.2134887592209
 21
927.6471442145271
 31
0.0
  0
LINE
  5
17C
330
1F
100
AcDbEntity
  8
C-A
  6
Continuous
 62
     3
370
     9
100
AcDbLine
 10
-405.2134887592209
 20
944.1474213471283
 30
0.0
 11
-405.2134887592209
 21
942.6474411423144
 31
0.0
  0
LINE
  5
17D
330
1F
100
AcDbEntity
  8
C-A
  6
Continuous
 62
     3
370
     9
100
AcDbLine
 10
-410.1632749712141
 20
918.6472629856419
 30
0.0
 11
-410.1632749712141
 21
912.6468472867401
 31
0.0
  0
LINE
  5
17E
330
1F
100
AcDbEntity
  8
C-A
  6
Continuous
 62
     3
370
     9
100
AcDbLine
 10
-400.2639499870503
 20
918.6472629856419
 30
0.0
 11
-400.2639499870503
 21
912.6468472867401
 31
0.0
  0
LINE
  5
17F
330
1F
100
AcDbEntity
  8
C-A
  6
Continuous
 62
     3
370
     9
100
AcDbLine
 10
-405.2134887592209
 20
918.6472629856419
 30
0.0
 11
-405.2134887592209
 21
912.6468472867401
 31
0.0
  0
LINE
  5
180
330
1F
100
AcDbEntity
  8
C-A
  6
Continuous
 62
     3
370
     9
100
AcDbLine
 10
-410.1632749712141
 20
903.6464711782096
 30
0.0
 11
-410.1632749712141
 21
897.6465503589529
 31
0.0
  0
LINE
  5
181
330
1F
100
AcDbEntity
  8
C-A
  6
Continuous
 62
     3
370
     9
100
AcDbLine
 10
-400.2639499870503
 20
903.6464711782096
 30
0.0
 11
-400.2639499870503
 21
897.6465503589529
 31
0.0
  0
LINE
  5
182
330
1F
100
AcDbEntity
  8
C-A
  6
Continuous
 62
     3
370
     9
100
AcDbLine
 10
-405.2134887592209
 20
903.6464711782096
 30
0.0
 11
-405.2134887592209
 21
897.6465503589529
 31
0.0
  0
LINE
  5
183
330
1F
100
AcDbEntity
  8
C-A
  6
Continuous
 62
     3
370
     9
100
AcDbLine
 10
-410.1632749712141
 20
888.6461742504224
 30
0.0
 11
-410.1632749712141
 21
882.6462534311656
 31
0.0
  0
LINE
  5
184
330
1F
100
AcDbEntity
  8
C-A
  6
Continuous
 62
     3
370
     9
100
AcDbLine
 10
-400.2639499870503
 20
888.6461742504224
 30
0.0
 11
-400.2639499870503
 21
882.6462534311656
 31
0.0
  0
LINE
  5
185
330
1F
100
AcDbEntity
  8
C-A
  6
Continuous
 62
     3
370
     9
100
AcDbLine
 10
-405.2134887592209
 20
888.6461742504224
 30
0.0
 11
-405.2134887592209
 21
882.6462534311656
 31
0.0
  0
LINE
  5
186
330
1F
100
AcDbEntity
  8
C-A
  6
Continuous
 62
     3
370
     9
100
AcDbLine
 10
-410.1632749712141
 20
873.6458773226352
 30
0.0
 11
-410.1632749712141
 21
867.6459565033783
 31
0.0
  0
LINE
  5
187
330
1F
100
AcDbEntity
  8
C-A
  6
Continuous
 62
     3
370
     9
100
AcDbLine
 10
-400.2639499870503
 20
873.6458773226352
 30
0.0
 11
-400.2639499870503
 21
867.6459565033783
 31
0.0
  0
LINE
  5
188
330
1F
100
AcDbEntity
  8
C-A
  6
Continuous
 62
     3
370
     9
100
AcDbLine
 10
-405.2134887592209
 20
873.6458773226352
 30
0.0
 11
-405.2134887592209
 21
867.6459565033783
 31
0.0
  0
LINE
  5
189
330
1F
100
AcDbEntity
  8
C-A
  6
Continuous
 62
     3
370
     9
100
AcDbLine
 10
-410.1632749712141
 20
858.6455803948481
 30
0.0
 11
-410.1632749712141
 21
852.6456595755915
 31
0.0
  0
LINE
  5
18A
330
1F
100
AcDbEntity
  8
C-A
  6
Continuous
 62
     3
370
     9
100
AcDbLine
 10
-400.2639499870503
 20
858.6455803948481
 30
0.0
 11
-400.2639499870503
 21
852.6456595755915
 31
0.0
  0
LINE
  5
18B
330
1F
100
AcDbEntity
  8
C-A
  6
Continuous
 62
     3
370
     9
100
AcDbLine
 10
-405.2134887592209
 20
858.6455803948481
 30
0.0
 11
-405.2134887592209
 21
852.6456595755915
 31
0.0
  0
LINE
  5
18C
330
1F
100
AcDbEntity
  8
C-A
  6
Continuous
 62
     3
370
     9
100
AcDbLine
 10
-410.1632749712141
 20
843.645283467061
 30
0.0
 11
-410.1632749712141
 21
837.6453626478042
 31
0.0
  0
LINE
  5
18D
330
1F
100
AcDbEntity
  8
C-A
  6
Continuous
 62
     3
370
     9
100
AcDbLine
 10
-400.2639499870503
 20
843.645283467061
 30
0.0
 11
-400.2639499870503
 21
837.6453626478042
 31
0.0
  0
LINE
  5
18E
330
1F
100
AcDbEntity
  8
C-A
  6
Continuous
 62
     3
370
     9
100
AcDbLine
 10
-405.2134887592209
 20
843.645283467061
 30
0.0
 11
-405.2134887592209
 21
837.6453626478042
 31
0.0
  0
LINE
  5
18F
330
1F
100
AcDbEntity
  8
C-A
  6
Continuous
 62
     3
370
     9
100
AcDbLine
 10
-410.1632749712141
 20
828.6449865392738
 30
0.0
 11
-410.1632749712141
 21
822.6450657200169
 31
0.0
  0
LINE
  5
190
330
1F
100
AcDbEntity
  8
C-A
  6
Continuous
 62
     3
370
     9
100
AcDbLine
 10
-400.2639499870503
 20
828.6449865392738
 30
0.0
 11
-400.2639499870503
 21
822.6450657200169
 31
0.0
  0
LINE
  5
191
330
1F
100
AcDbEntity
  8
C-A
  6
Continuous
 62
     3
370
     9
100
AcDbLine
 10
-405.2134887592209
 20
828.6449865392738
 30
0.0
 11
-405.2134887592209
 21
822.6450657200169
 31
0.0
  0
LINE
  5
192
330
1F
100
AcDbEntity
  8
C-A
  6
Continuous
 62
     3
370
     9
100
AcDbLine
 10
-410.1632749712141
 20
813.6446896114867
 30
0.0
 11
-410.1632749712141
 21
807.64476879223
 31
0.0
  0
LINE
  5
193
330
1F
100
AcDbEntity
  8
C-A
  6
Continuous
 62
     3
370
     9
100
AcDbLine
 10
-400.2639499870503
 20
813.6446896114867
 30
0.0
 11
-400.2639499870503
 21
807.64476879223
 31
0.0
  0
LINE
  5
194
330
1F
100
AcDbEntity
  8
C-A
  6
Continuous
 62
     3
370
     9
100
AcDbLine
 10
-405.2134887592209
 20
813.6446896114867
 30
0.0
 11
-405.2134887592209
 21
807.64476879223
 31
0.0
  0
LINE
  5
195
330
1F
100
AcDbEntity
  8
C-A
  6
Continuous
 62
     3
370
     9
100
AcDbLine
 10
-410.1632749712141
 20
798.6443926836995
 30
0.0
 11
-410.1632749712141
 21
792.6444718644427
 31
0.0
  0
LINE
  5
196
330
1F
100
AcDbEntity
  8
C-A
  6
Continuous
 62
     3
370
     9
100
AcDbLine
 10
-400.2639499870503
 20
798.6443926836995
 30
0.0
 11
-400.2639499870503
 21
792.6444718644427
 31
0.0
  0
LINE
  5
197
330
1F
100
AcDbEntity
  8
C-A
  6
Continuous
 62
     3
370
     9
100
AcDbLine
 10
-405.2134887592209
 20
798.6443926836995
 30
0.0
 11
-405.2134887592209
 21
792.6444718644427
 31
0.0
  0
LINE
  5
198
330
1F
100
AcDbEntity
  8
C-A
  6
Continuous
 62
     3
370
     9
100
AcDbLine
 10
-410.1632749712141
 20
783.6440957559123
 30
0.0
 11
-410.1632749712141
 21
777.6441749366554
 31
0.0
  0
LINE
  5
199
330
1F
100
AcDbEntity
  8
C-A
  6
Continuous
 62
     3
370
     9
100
AcDbLine
 10
-400.2639499870503
 20
783.6440957559123
 30
0.0
 11
-400.2639499870503
 21
777.6441749366554
 31
0.0
  0
LINE
  5
19A
330
1F
100
AcDbEntity
  8
C-A
  6
Continuous
 62
     3
370
     9
100
AcDbLine
 10
-405.2134887592209
 20
783.6440957559123
 30
0.0
 11
-405.2134887592209
 21
777.6441749366554
 31
0.0
  0
LINE
  5
19B
330
1F
100
AcDbEntity
  8
C-A
  6
Continuous
 62
     3
370
     9
100
AcDbLine
 10
-410.1632749712141
 20
768.643798828125
 30
0.0
 11
-410.1632749712141
 21
762.6438780088682
 31
0.0
  0
LINE
  5
19C
330
1F
100
AcDbEntity
  8
C-A
  6
Continuous
 62
     3
370
     9
100
AcDbLine
 10
-400.2639499870503
 20
768.643798828125
 30
0.0
 11
-400.2639499870503
 21
762.6438780088682
 31
0.0
  0
LINE
  5
19D
330
1F
100
AcDbEntity
  8
C-A
  6
Continuous
 62
     3
370
     9
100
AcDbLine
 10
-405.2134887592209
 20
768.643798828125
 30
0.0
 11
-405.2134887592209
 21
762.6438780088682
 31
0.0
  0
LINE
  5
19E
330
1F
100
AcDbEntity
  8
C-A
  6
Continuous
 62
     3
370
     9
100
AcDbLine
 10
-410.1632749712141
 20
753.643501900338
 30
0.0
 11
-410.1632749712141
 21
747.6435810810813
 31
0.0
  0
LINE
  5
19F
330
1F
100
AcDbEntity
  8
C-A
  6
Continuous
 62
     3
370
     9
100
AcDbLine
 10
-400.2639499870503
 20
753.643501900338
 30
0.0
 11
-400.2639499870503
 21
747.6435810810813
 31
0.0
  0
LINE
  5
1A0
330
1F
100
AcDbEntity
  8
C-A
  6
Continuous
 62
     3
370
     9
100
AcDbLine
 10
-405.2134887592209
 20
753.643501900338
 30
0.0
 11
-405.2134887592209
 21
747.6435810810813
 31
0.0
  0
LINE
  5
1A1
330
1F
100
AcDbEntity
  8
C-A
  6
Continuous
 62
     3
370
     9
100
AcDbLine
 10
-410.1632749712141
 20
738.6432049725508
 30
0.0
 11
-410.1632749712141
 21
732.643284153294
 31
0.0
  0
LINE
  5
1A2
330
1F
100
AcDbEntity
  8
C-A
  6
Continuous
 62
     3
370
     9
100
AcDbLine
 10
-400.2639499870503
 20
738.6432049725508
 30
0.0
 11
-400.2639499870503
 21
732.643284153294
 31
0.0
  0
LINE
  5
1A3
330
1F
100
AcDbEntity
  8
C-A
  6
Continuous
 62
     3
370
     9
100
AcDbLine
 10
-405.2134887592209
 20
738.6432049725508
 30
0.0
 11
-405.2134887592209
 21
732.643284153294
 31
0.0
  0
LINE
  5
1A4
330
1F
100
AcDbEntity
  8
C-A
  6
Continuous
 62
     3
370
     9
100
AcDbLine
 10
-410.1632749712141
 20
723.6429080447635
 30
0.0
 11
-410.1632749712141
 21
717.6429872255068
 31
0.0
  0
LINE
  5
1A5
330
1F
100
AcDbEntity
  8
C-A
  6
Continuous
 62
     3
370
     9
100
AcDbLine
 10
-400.2639499870503
 20
723.6429080447635
 30
0.0
 11
-400.2639499870503
 21
717.6429872255068
 31
0.0
  0
LINE
  5
1A6
330
1F
100
AcDbEntity
  8
C-A
  6
Continuous
 62
     3
370
     9
100
AcDbLine
 10
-405.2134887592209
 20
723.6429080447635
 30
0.0
 11
-405.2134887592209
 21
717.6429872255068
 31
0.0
  0
LINE
  5
1A7
330
1F
100
AcDbEntity
  8
C-A
  6
Continuous
 62
     3
370
     9
100
AcDbLine
 10
-410.1632749712141
 20
708.6426111169766
 30
0.0
 11
-410.1632749712141
 21
702.6426902977198
 31
0.0
  0
LINE
  5
1A8
330
1F
100
AcDbEntity
  8
C-A
  6
Continuous
 62
     3
370
     9
100
AcDbLine
 10
-400.2639499870503
 20
708.6426111169766
 30
0.0
 11
-400.2639499870503
 21
702.6426902977198
 31
0.0
  0
LINE
  5
1A9
330
1F
100
AcDbEntity
  8
C-A
  6
Continuous
 62
     3
370
     9
100
AcDbLine
 10
-405.2134887592209
 20
708.6426111169766
 30
0.0
 11
-405.2134887592209
 21
702.6426902977198
 31
0.0
  0
LINE
  5
1AA
330
1F
100
AcDbEntity
  8
C-A
  6
Continuous
 62
     3
370
     9
100
AcDbLine
 10
-410.1632749712141
 20
693.6423141891894
 30
0.0
 11
-410.1632749712141
 21
687.6418984902873
 31
0.0
  0
LINE
  5
1AB
330
1F
100
AcDbEntity
  8
C-A
  6
Continuous
 62
     3
370
     9
100
AcDbLine
 10
-400.2639499870503
 20
693.6423141891894
 30
0.0
 11
-400.2639499870503
 21
687.6418984902873
 31
0.0
  0
LINE
  5
1AC
330
1F
100
AcDbEntity
  8
C-A
  6
Continuous
 62
     3
370
     9
100
AcDbLine
 10
-405.2134887592209
 20
693.6423141891894
 30
0.0
 11
-405.2134887592209
 21
687.6418984902873
 31
0.0
  0
LINE
  5
1AD
330
1F
100
AcDbEntity
  8
C-A
  6
Continuous
 62
     3
370
     9
100
AcDbLine
 10
-410.1632749712141
 20
678.6420172614021
 30
0.0
 11
-410.1632749712141
 21
672.6416015625
 31
0.0
  0
LINE
  5
1AE
330
1F
100
AcDbEntity
  8
C-A
  6
Continuous
 62
     3
370
     9
100
AcDbLine
 10
-400.2639499870503
 20
678.6420172614021
 30
0.0
 11
-400.2639499870503
 21
672.6416015625
 31
0.0
  0
LINE
  5
1AF
330
1F
100
AcDbEntity
  8
C-A
  6
Continuous
 62
     3
370
     9
100
AcDbLine
 10
-405.2134887592209
 20
678.6420172614021
 30
0.0
 11
-405.2134887592209
 21
672.6416015625
 31
0.0
  0
LINE
  5
1B0
330
1F
100
AcDbEntity
  8
C-A
  6
Continuous
 62
     3
370
     9
100
AcDbLine
 10
-410.1632749712141
 20
663.6417203336151
 30
0.0
 11
-410.1632749712141
 21
657.6415520745356
 31
0.0
  0
LINE
  5
1B1
330
1F
100
AcDbEntity
  8
C-A
  6
Continuous
 62
     3
370
     9
100
AcDbLine
 10
-400.2639499870503
 20
663.6417203336151
 30
0.0
 11
-400.2639499870503
 21
657.6415520745356
 31
0.0
  0
LINE
  5
1B2
330
1F
100
AcDbEntity
  8
C-A
  6
Continuous
 62
     3
370
     9
100
AcDbLine
 10
-405.2134887592209
 20
663.6417203336151
 30
0.0
 11
-405.2134887592209
 21
657.6415520745356
 31
0.0
  0
LINE
  5
1B3
330
1F
100
AcDbEntity
  8
C-A
  6
Continuous
 62
     3
370
     9
100
AcDbLine
 10
-410.1632749712141
 20
648.6414234058279
 30
0.0
 11
-410.1632749712141
 21
642.6412551467484
 31
0.0
  0
LINE
  5
1B4
330
1F
100
AcDbEntity
  8
C-A
  6
Continuous
 62
     3
370
     9
100
AcDbLine
 10
-400.2639499870503
 20
648.6414234058279
 30
0.0
 11
-400.2639499870503
 21
642.6412551467484
 31
0.0
  0
LINE
  5
1B5
330
1F
100
AcDbEntity
  8
C-A
  6
Continuous
 62
     3
370
     9
100
AcDbLine
 10
-405.2134887592209
 20
648.6414234058279
 30
0.0
 11
-405.2134887592209
 21
642.6412551467484
 31
0.0
  0
LINE
  5
1B6
330
1F
100
AcDbEntity
  8
C-A
  6
Continuous
 62
     3
370
     9
100
AcDbLine
 10
-410.1632749712141
 20
633.6411264780406
 30
0.0
 11
-410.1632749712141
 21
627.6407107791385
 31
0.0
  0
LINE
  5
1B7
330
1F
100
AcDbEntity
  8
C-A
  6
Continuous
 62
     3
370
     9
100
AcDbLine
 10
-400.2639499870503
 20
633.6411264780406
 30
0.0
 11
-400.2639499870503
 21
627.6407107791385
 31
0.0
  0
LINE
  5
1B8
330
1F
100
AcDbEntity
  8
C-A
  6
Continuous
 62
     3
370
     9
100
AcDbLine
 10
-405.2134887592209
 20
633.6411264780406
 30
0.0
 11
-405.2134887592209
 21
627.6407107791385
 31
0.0
  0
LINE
  5
1B9
330
1F
100
AcDbEntity
  8
C-A
  6
Continuous
 62
     3
370
     9
100
AcDbLine
 10
-410.1632749712141
 20
618.6408295502533
 30
0.0
 11
-410.1632749712141
 21
612.6404138513516
 31
0.0
  0
LINE
  5
1BA
330
1F
100
AcDbEntity
  8
C-A
  6
Continuous
 62
     3
370
     9
100
AcDbLine
 10
-400.2639499870503
 20
618.6408295502533
 30
0.0
 11
-400.2639499870503
 21
612.6404138513516
 31
0.0
  0
LINE
  5
1BB
330
1F
100
AcDbEntity
  8
C-A
  6
Continuous
 62
     3
370
     9
100
AcDbLine
 10
-405.2134887592209
 20
618.6408295502533
 30
0.0
 11
-405.2134887592209
 21
612.6404138513516
 31
0.0
  0
LINE
  5
1BC
330
1F
100
AcDbEntity
  8
C-A
  6
Continuous
 62
     3
370
     9
100
AcDbLine
 10
-410.1632749712141
 20
603.6405326224665
 30
0.0
 11
-410.1632749712141
 21
597.6401169235644
 31
0.0
  0
LINE
  5
1BD
330
1F
100
AcDbEntity
  8
C-A
  6
Continuous
 62
     3
370
     9
100
AcDbLine
 10
-400.2639499870503
 20
603.6405326224665
 30
0.0
 11
-400.2639499870503
 21
597.6401169235644
 31
0.0
  0
LINE
  5
1BE
330
1F
100
AcDbEntity
  8
C-A
  6
Continuous
 62
     3
370
     9
100
AcDbLine
 10
-405.2134887592209
 20
603.6405326224665
 30
0.0
 11
-405.2134887592209
 21
597.6401169235644
 31
0.0
  0
LINE
  5
1BF
330
1F
100
AcDbEntity
  8
C-A
  6
Continuous
 62
     3
370
     9
100
AcDbLine
 10
-410.1632749712141
 20
588.6401119747679
 30
0.0
 11
-410.1632749712141
 21
582.6399437156886
 31
0.0
  0
LINE
  5
1C0
330
1F
100
AcDbEntity
  8
C-A
  6
Continuous
 62
     3
370
     9
100
AcDbLine
 10
-400.2639499870503
 20
588.6401119747679
 30
0.0
 11
-400.2639499870503
 21
582.6399437156886
 31
0.0
  0
LINE
  5
1C1
330
1F
100
AcDbEntity
  8
C-A
  6
Continuous
 62
     3
370
     9
100
AcDbLine
 10
-405.2134887592209
 20
588.6401119747679
 30
0.0
 11
-405.2134887592209
 21
582.6399437156886
 31
0.0
  0
LINE
  5
1C2
330
1F
100
AcDbEntity
  8
C-A
  6
Continuous
 62
     3
370
     9
100
AcDbLine
 10
-410.1632749712141
 20
573.6398150469807
 30
0.0
 11
-410.1632749712141
 21
567.6396467879013
 31
0.0
  0
LINE
  5
1C3
330
1F
100
AcDbEntity
  8
C-A
  6
Continuous
 62
     3
370
     9
100
AcDbLine
 10
-400.2639499870503
 20
573.6398150469807
 30
0.0
 11
-400.2639499870503
 21
567.6396467879013
 31
0.0
  0
LINE
  5
1C4
330
1F
100
AcDbEntity
  8
C-A
  6
Continuous
 62
     3
370
     9
100
AcDbLine
 10
-405.2134887592209
 20
573.6398150469807
 30
0.0
 11
-405.2134887592209
 21
567.6396467879013
 31
0.0
  0
LINE
  5
1C5
330
1F
100
AcDbEntity
  8
C-A
  6
Continuous
 62
     3
370
     9
100
AcDbLine
 10
-410.1632749712141
 20
558.6393943992823
 30
0.0
 11
-410.1632749712141
 21
552.6393498601141
 31
0.0
  0
LINE
  5
1C6
330
1F
100
AcDbEntity
  8
C-A
  6
Continuous
 62
     3
370
     9
100
AcDbLine
 10
-400.2639499870503
 20
558.6393943992823
 30
0.0
 11
-400.2639499870503
 21
552.6393498601141
 31
0.0
  0
LINE
  5
1C7
330
1F
100
AcDbEntity
  8
C-A
  6
Continuous
 62
     3
370
     9
100
AcDbLine
 10
-405.2134887592209
 20
558.6393943992823
 30
0.0
 11
-405.2134887592209
 21
552.6393498601141
 31
0.0
  0
LINE
  5
1C8
330
1F
100
AcDbEntity
  8
C-A
  6
Continuous
 62
     3
370
     9
100
AcDbLine
 10
-410.1632749712141
 20
543.639097471495
 30
0.0
 11
-410.1632749712141
 21
537.6390529323271
 31
0.0
  0
LINE
  5
1C9
330
1F
100
AcDbEntity
  8
C-A
  6
Continuous
 62
     3
370
     9
100
AcDbLine
 10
-400.2639499870503
 20
543.639097471495
 30
0.0
 11
-400.2639499870503
 21
537.6390529323271
 31
0.0
  0
LINE
  5
1CA
330
1F
100
AcDbEntity
  8
C-A
  6
Continuous
 62
     3
370
     9
100
AcDbLine
 10
-405.2134887592209
 20
543.639097471495
 30
0.0
 11
-405.2134887592209
 21
537.6390529323271
 31
0.0
  0
LINE
  5
1CB
330
1F
100
AcDbEntity
  8
C-A
  6
Continuous
 62
     3
370
     9
100
AcDbLine
 10
-410.1632749712141
 20
528.6388005437078
 30
0.0
 11
-410.1632749712141
 21
522.6386322846283
 31
0.0
  0
LINE
  5
1CC
330
1F
100
AcDbEntity
  8
C-A
  6
Continuous
 62
     3
370
     9
100
AcDbLine
 10
-400.2639499870503
 20
528.6388005437078
 30
0.0
 11
-400.2639499870503
 21
522.6386322846283
 31
0.0
  0
LINE
  5
1CD
330
1F
100
AcDbEntity
  8
C-A
  6
Continuous
 62
     3
370
     9
100
AcDbLine
 10
-405.2134887592209
 20
528.6388005437078
 30
0.0
 11
-405.2134887592209
 21
522.6386322846283
 31
0.0
  0
LINE
  5
1CE
330
1F
100
AcDbEntity
  8
C-A
  6
Continuous
 62
     3
370
     9
100
AcDbLine
 10
-410.1632749712141
 20
513.6385036159209
 30
0.0
 11
-410.1632749712141
 21
512.1473075248102
 31
0.0
  0
LINE
  5
1CF
330
1F
100
AcDbEntity
  8
C-A
  6
Continuous
 62
     3
370
     9
100
AcDbLine
 10
-405.2134887592209
 20
513.6385036159209
 30
0.0
 11
-405.2134887592209
 21
512.1473075248102
 31
0.0
  0
LINE
  5
1D0
330
1F
100
AcDbEntity
  8
C-A
  6
Continuous
 62
     3
370
     9
100
AcDbLine
 10
-400.2639499870503
 20
513.6385036159209
 30
0.0
 11
-400.2639499870503
 21
512.1473075248102
 31
0.0
  0
LINE
  5
1D1
330
1F
100
AcDbEntity
  8
C-A
  6
Continuous
 62
     3
370
     9
100
AcDbLine
 10
-330.1635059150485
 20
944.1474213471283
 30
0.0
 11
-330.1635059150485
 21
942.6474411423144
 31
0.0
  0
LINE
  5
1D2
330
1F
100
AcDbEntity
  8
C-A
  6
Continuous
 62
     3
370
     9
100
AcDbLine
 10
-330.1635059150485
 20
933.6475599134292
 30
0.0
 11
-330.1635059150485
 21
927.6471442145271
 31
0.0
  0
LINE
  5
1D3
330
1F
100
AcDbEntity
  8
C-A
  6
Continuous
 62
     3
370
     9
100
AcDbLine
 10
-320.263933491062
 20
944.1474213471283
 30
0.0
 11
-320.263933491062
 21
942.6474411423144
 31
0.0
  0
LINE
  5
1D4
330
1F
100
AcDbEntity
  8
C-A
  6
Continuous
 62
     3
370
     9
100
AcDbLine
 10
-320.263933491062
 20
933.6475599134292
 30
0.0
 11
-320.263933491062
 21
927.6471442145271
 31
0.0
  0
LINE
  5
1D5
330
1F
100
AcDbEntity
  8
C-A
  6
Continuous
 62
     3
370
     9
100
AcDbLine
 10
-325.2137197030552
 20
933.6475599134292
 30
0.0
 11
-325.2137197030552
 21
927.6471442145271
 31
0.0
  0
LINE
  5
1D6
330
1F
100
AcDbEntity
  8
C-A
  6
Continuous
 62
     3
370
     9
100
AcDbLine
 10
-325.2137197030552
 20
944.1474213471283
 30
0.0
 11
-325.2137197030552
 21
942.6474411423144
 31
0.0
  0
LINE
  5
1D7
330
1F
100
AcDbEntity
  8
C-A
  6
Continuous
 62
     3
370
     9
100
AcDbLine
 10
-330.1635059150485
 20
918.6472629856419
 30
0.0
 11
-330.1635059150485
 21
912.6468472867401
 31
0.0
  0
LINE
  5
1D8
330
1F
100
AcDbEntity
  8
C-A
  6
Continuous
 62
     3
370
     9
100
AcDbLine
 10
-320.263933491062
 20
918.6472629856419
 30
0.0
 11
-320.263933491062
 21
912.6468472867401
 31
0.0
  0
LINE
  5
1D9
330
1F
100
AcDbEntity
  8
C-A
  6
Continuous
 62
     3
370
     9
100
AcDbLine
 10
-325.2137197030552
 20
918.6472629856419
 30
0.0
 11
-325.2137197030552
 21
912.6468472867401
 31
0.0
  0
LINE
  5
1DA
330
1F
100
AcDbEntity
  8
C-A
  6
Continuous
 62
     3
370
     9
100
AcDbLine
 10
-330.1635059150485
 20
903.6464711782096
 30
0.0
 11
-330.1635059150485
 21
897.6465503589529
 31
0.0
  0
LINE
  5
1DB
330
1F
100
AcDbEntity
  8
C-A
  6
Continuous
 62
     3
370
     9
100
AcDbLine
 10
-320.263933491062
 20
903.6464711782096
 30
0.0
 11
-320.263933491062
 21
897.6465503589529
 31
0.0
  0
LINE
  5
1DC
330
1F
100
AcDbEntity
  8
C-A
  6
Continuous
 62
     3
370
     9
100
AcDbLine
 10
-325.2137197030552
 20
903.6464711782096
 30
0.0
 11
-325.2137197030552
 21
897.6465503589529
 31
0.0
  0
LINE
  5
1DD
330
1F
100
AcDbEntity
  8
C-A
  6
Continuous
 62
     3
370
     9
100
AcDbLine
 10
-330.1635059150485
 20
888.6461742504224
 30
0.0
 11
-330.1635059150485
 21
882.6462534311656
 31
0.0
  0
LINE
  5
1DE
330
1F
100
AcDbEntity
  8
C-A
  6
Continuous
 62
     3
370
     9
100
AcDbLine
 10
-320.263933491062
 20
888.6461742504224
 30
0.0
 11
-320.263933491062
 21
882.6462534311656
 31
0.0
  0
LINE
  5
1DF
330
1F
100
AcDbEntity
  8
C-A
  6
Continuous
 62
     3
370
     9
100
AcDbLine
 10
-325.2137197030552
 20
888.6461742504224
 30
0.0
 11
-325.2137197030552
 21
882.6462534311656
 31
0.0
  0
LINE
  5
1E0
330
1F
100
AcDbEntity
  8
C-A
  6
Continuous
 62
     3
370
     9
100
AcDbLine
 10
-330.1635059150485
 20
873.6458773226352
 30
0.0
 11
-330.1635059150485
 21
867.6459565033783
 31
0.0
  0
LINE
  5
1E1
330
1F
100
AcDbEntity
  8
C-A
  6
Continuous
 62
     3
370
     9
100
AcDbLine
 10
-320.263933491062
 20
873.6458773226352
 30
0.0
 11
-320.263933491062
 21
867.6459565033783
 31
0.0
  0
LINE
  5
1E2
330
1F
100
AcDbEntity
  8
C-A
  6
Continuous
 62
     3
370
     9
100
AcDbLine
 10
-325.2137197030552
 20
873.6458773226352
 30
0.0
 11
-325.2137197030552
 21
867.6459565033783
 31
0.0
  0
LINE
  5
1E3
330
1F
100
AcDbEntity
  8
C-A
  6
Continuous
 62
     3
370
     9
100
AcDbLine
 10
-330.1635059150485
 20
858.6455803948481
 30
0.0
 11
-330.1635059150485
 21
852.6456595755915
 31
0.0
  0
LINE
  5
1E4
330
1F
100
AcDbEntity
  8
C-A
  6
Continuous
 62
     3
370
     9
100
AcDbLine
 10
-320.263933491062
 20
858.6455803948481
 30
0.0
 11
-320.263933491062
 21
852.6456595755915
 31
0.0
  0
LINE
  5
1E5
330
1F
100
AcDbEntity
  8
C-A
  6
Continuous
 62
     3
370
     9
100
AcDbLine
 10
-325.2137197030552
 20
858.6455803948481
 30
0.0
 11
-325.2137197030552
 21
852.6456595755915
 31
0.0
  0
LINE
  5
1E6
330
1F
100
AcDbEntity
  8
C-A
  6
Continuous
 62
     3
370
     9
100
AcDbLine
 10
-330.1635059150485
 20
843.645283467061
 30
0.0
 11
-330.1635059150485
 21
837.6453626478042
 31
0.0
  0
LINE
  5
1E7
330
1F
100
AcDbEntity
  8
C-A
  6
Continuous
 62
     3
370
     9
100
AcDbLine
 10
-320.263933491062
 20
843.645283467061
 30
0.0
 11
-320.263933491062
 21
837.6453626478042
 31
0.0
  0
LINE
  5
1E8
330
1F
100
AcDbEntity
  8
C-A
  6
Continuous
 62
     3
370
     9
100
AcDbLine
 10
-325.2137197030552
 20
843.645283467061
 30
0.0
 11
-325.2137197030552
 21
837.6453626478042
 31
0.0
  0
LINE
  5
1E9
330
1F
100
AcDbEntity
  8
C-A
  6
Continuous
 62
     3
370
     9
100
AcDbLine
 10
-330.1635059150485
 20
828.6449865392738
 30
0.0
 11
-330.1635059150485
 21
822.6450657200169
 31
0.0
  0
LINE
  5
1EA
330
1F
100
AcDbEntity
  8
C-A
  6
Continuous
 62
     3
370
     9
100
AcDbLine
 10
-320.263933491062
 20
828.6449865392738
 30
0.0
 11
-320.263933491062
 21
822.6450657200169
 31
0.0
  0
LINE
  5
1EB
330
1F
100
AcDbEntity
  8
C-A
  6
Continuous
 62
     3
370
     9
100
AcDbLine
 10
-325.2137197030552
 20
828.6449865392738
 30
0.0
 11
-325.2137197030552
 21
822.6450657200169
 31
0.0
  0
LINE
  5
1EC
330
1F
100
AcDbEntity
  8
C-A
  6
Continuous
 62
     3
370
     9
100
AcDbLine
 10
-330.1635059150485
 20
813.6446896114867
 30
0.0
 11
-330.1635059150485
 21
807.64476879223
 31
0.0
  0
LINE
  5
1ED
330
1F
100
AcDbEntity
  8
C-A
  6
Continuous
 62
     3
370
     9
100
AcDbLine
 10
-320.263933491062
 20
813.6446896114867
 30
0.0
 11
-320.263933491062
 21
807.64476879223
 31
0.0
  0
LINE
  5
1EE
330
1F
100
AcDbEntity
  8
C-A
  6
Continuous
 62
     3
370
     9
100
AcDbLine
 10
-325.2137197030552
 20
813.6446896114867
 30
0.0
 11
-325.2137197030552
 21
807.64476879223
 31
0.0
  0
LINE
  5
1EF
330
1F
100
AcDbEntity
  8
C-A
  6
Continuous
 62
     3
370
     9
100
AcDbLine
 10
-330.1635059150485
 20
798.6443926836995
 30
0.0
 11
-330.1635059150485
 21
792.6444718644427
 31
0.0
  0
LINE
  5
1F0
330
1F
100
AcDbEntity
  8
C-A
  6
Continuous
 62
     3
370
     9
100
AcDbLine
 10
-320.263933491062
 20
798.6443926836995
 30
0.0
 11
-320.263933491062
 21
792.6444718644427
 31
0.0
  0
LINE
  5
1F1
330
1F
100
AcDbEntity
  8
C-A
  6
Continuous
 62
     3
370
     9
100
AcDbLine
 10
-325.2137197030552
 20
798.6443926836995
 30
0.0
 11
-325.2137197030552
 21
792.6444718644427
 31
0.0
  0
LINE
  5
1F2
330
1F
100
AcDbEntity
  8
C-A
  6
Continuous
 62
     3
370
     9
100
AcDbLine
 10
-330.1635059150485
 20
783.6440957559123
 30
0.0
 11
-330.1635059150485
 21
777.6441749366554
 31
0.0
  0
LINE
  5
1F3
330
1F
100
AcDbEntity
  8
C-A
  6
Continuous
 62
     3
370
     9
100
AcDbLine
 10
-320.263933491062
 20
783.6440957559123
 30
0.0
 11
-320.263933491062
 21
777.6441749366554
 31
0.0
  0
LINE
  5
1F4
330
1F
100
AcDbEntity
  8
C-A
  6
Continuous
 62
     3
370
     9
100
AcDbLine
 10
-325.2137197030552
 20
783.6440957559123
 30
0.0
 11
-325.2137197030552
 21
777.6441749366554
 31
0.0
  0
LINE
  5
1F5
330
1F
100
AcDbEntity
  8
C-A
  6
Continuous
 62
     3
370
     9
100
AcDbLine
 10
-330.1635059150485
 20
768.643798828125
 30
0.0
 11
-330.1635059150485
 21
762.6438780088682
 31
0.0
  0
LINE
  5
1F6
330
1F
100
AcDbEntity
  8
C-A
  6
Continuous
 62
     3
370
     9
100
AcDbLine
 10
-320.263933491062
 20
768.643798828125
 30
0.0
 11
-320.263933491062
 21
762.6438780088682
 31
0.0
  0
LINE
  5
1F7
330
1F
100
AcDbEntity
  8
C-A
  6
Continuous
 62
     3
370
     9
100
AcDbLine
 10
-325.2137197030552
 20
768.643798828125
 30
0.0
 11
-325.2137197030552
 21
762.6438780088682
 31
0.0
  0
LINE
  5
1F8
330
1F
100
AcDbEntity
  8
C-A
  6
Continuous
 62
     3
370
     9
100
AcDbLine
 10
-330.1635059150485
 20
753.643501900338
 30
0.0
 11
-330.1635059150485
 21
747.6435810810813
 31
0.0
  0
LINE
  5
1F9
330
1F
100
AcDbEntity
  8
C-A
  6
Continuous
 62
     3
370
     9
100
AcDbLine
 10
-320.263933491062
 20
753.643501900338
 30
0.0
 11
-320.263933491062
 21
747.6435810810813
 31
0.0
  0
LINE
  5
1FA
330
1F
100
AcDbEntity
  8
C-A
  6
Continuous
 62
     3
370
     9
100
AcDbLine
 10
-325.2137197030552
 20
753.643501900338
 30
0.0
 11
-325.2137197030552
 21
747.6435810810813
 31
0.0
  0
LINE
  5
1FB
330
1F
100
AcDbEntity
  8
C-A
  6
Continuous
 62
     3
370
     9
100
AcDbLine
 10
-330.1635059150485
 20
738.6432049725508
 30
0.0
 11
-330.1635059150485
 21
732.643284153294
 31
0.0
  0
LINE
  5
1FC
330
1F
100
AcDbEntity
  8
C-A
  6
Continuous
 62
     3
370
     9
100
AcDbLine
 10
-320.263933491062
 20
738.6432049725508
 30
0.0
 11
-320.263933491062
 21
732.643284153294
 31
0.0
  0
LINE
  5
1FD
330
1F
100
AcDbEntity
  8
C-A
  6
Continuous
 62
     3
370
     9
100
AcDbLine
 10
-325.2137197030552
 20
738.6432049725508
 30
0.0
 11
-325.2137197030552
 21
732.643284153294
 31
0.0
  0
LINE
  5
1FE
330
1F
100
AcDbEntity
  8
C-A
  6
Continuous
 62
     3
370
     9
100
AcDbLine
 10
-330.1635059150485
 20
723.6429080447635
 30
0.0
 11
-330.1635059150485
 21
717.6429872255068
 31
0.0
  0
LINE
  5
1FF
330
1F
100
AcDbEntity
  8
C-A
  6
Continuous
 62
     3
370
     9
100
AcDbLine
 10
-320.263933491062
 20
723.6429080447635
 30
0.0
 11
-320.263933491062
 21
717.6429872255068
 31
0.0
  0
LINE
  5
200
330
1F
100
AcDbEntity
  8
C-A
  6
Continuous
 62
     3
370
     9
100
AcDbLine
 10
-325.2137197030552
 20
723.6429080447635
 30
0.0
 11
-325.2137197030552
 21
717.6429872255068
 31
0.0
  0
LINE
  5
201
330
1F
100
AcDbEntity
  8
C-A
  6
Continuous
 62
     3
370
     9
100
AcDbLine
 10
-330.1635059150485
 20
708.6426111169766
 30
0.0
 11
-330.1635059150485
 21
702.6426902977198
 31
0.0
  0
LINE
  5
202
330
1F
100
AcDbEntity
  8
C-A
  6
Continuous
 62
     3
370
     9
100
AcDbLine
 10
-320.263933491062
 20
708.6426111169766
 30
0.0
 11
-320.263933491062
 21
702.6426902977198
 31
0.0
  0
LINE
  5
203
330
1F
100
AcDbEntity
  8
C-A
  6
Continuous
 62
     3
370
     9
100
AcDbLine
 10
-325.2137197030552
 20
708.6426111169766
 30
0.0
 11
-325.2137197030552
 21
702.6426902977198
 31
0.0
  0
LINE
  5
204
330
1F
100
AcDbEntity
  8
C-A
  6
Continuous
 62
     3
370
     9
100
AcDbLine
 10
-330.1635059150485
 20
693.6423141891894
 30
0.0
 11
-330.1635059150485
 21
687.6418984902873
 31
0.0
  0
LINE
  5
205
330
1F
100
AcDbEntity
  8
C-A
  6
Continuous
 62
     3
370
     9
100
AcDbLine
 10
-320.263933491062
 20
693.6423141891894
 30
0.0
 11
-320.263933491062
 21
687.6418984902873
 31
0.0
  0
LINE
  5
206
330
1F
100
AcDbEntity
  8
C-A
  6
Continuous
 62
     3
370
     9
100
AcDbLine
 10
-325.2137197030552
 20
693.6423141891894
 30
0.0
 11
-325.2137197030552
 21
687.6418984902873
 31
0.0
  0
LINE
  5
207
330
1F
100
AcDbEntity
  8
C-A
  6
Continuous
 62
     3
370
     9
100
AcDbLine
 10
-330.1635059150485
 20
678.6420172614021
 30
0.0
 11
-330.1635059150485
 21
672.6416015625
 31
0.0
  0
LINE
  5
208
330
1F
100
AcDbEntity
  8
C-A
  6
Continuous
 62
     3
370
     9
100
AcDbLine
 10
-320.263933491062
 20
678.6420172614021
 30
0.0
 11
-320.263933491062
 21
672.6416015625
 31
0.0
  0
LINE
  5
209
330
1F
100
AcDbEntity
  8
C-A
  6
Continuous
 62
     3
370
     9
100
AcDbLine
 10
-325.2137197030552
 20
678.6420172614021
 30
0.0
 11
-325.2137197030552
 21
672.6416015625
 31
0.0
  0
LINE
  5
20A
330
1F
100
AcDbEntity
  8
C-A
  6
Continuous
 62
     3
370
     9
100
AcDbLine
 10
-330.1635059150485
 20
663.6417203336151
 30
0.0
 11
-330.1635059150485
 21
657.6415520745356
 31
0.0
  0
LINE
  5
20B
330
1F
100
AcDbEntity
  8
C-A
  6
Continuous
 62
     3
370
     9
100
AcDbLine
 10
-320.263933491062
 20
663.6417203336151
 30
0.0
 11
-320.263933491062
 21
657.6415520745356
 31
0.0
  0
LINE
  5
20C
330
1F
100
AcDbEntity
  8
C-A
  6
Continuous
 62
     3
370
     9
100
AcDbLine
 10
-325.2137197030552
 20
663.6417203336151
 30
0.0
 11
-325.2137197030552
 21
657.6415520745356
 31
0.0
  0
LINE
  5
20D
330
1F
100
AcDbEntity
  8
C-A
  6
Continuous
 62
     3
370
     9
100
AcDbLine
 10
-330.1635059150485
 20
648.6414234058279
 30
0.0
 11
-330.1635059150485
 21
642.6412551467484
 31
0.0
  0
LINE
  5
20E
330
1F
100
AcDbEntity
  8
C-A
  6
Continuous
 62
     3
370
     9
100
AcDbLine
 10
-320.263933491062
 20
648.6414234058279
 30
0.0
 11
-320.263933491062
 21
642.6412551467484
 31
0.0
  0
LINE
  5
20F
330
1F
100
AcDbEntity
  8
C-A
  6
Continuous
 62
     3
370
     9
100
AcDbLine
 10
-325.2137197030552
 20
648.6414234058279
 30
0.0
 11
-325.2137197030552
 21
642.6412551467484
 31
0.0
  0
LINE
  5
210
330
1F
100
AcDbEntity
  8
C-A
  6
Continuous
 62
     3
370
     9
100
AcDbLine
 10
-330.1635059150485
 20
633.6411264780406
 30
0.0
 11
-330.1635059150485
 21
627.6407107791385
 31
0.0
  0
LINE
  5
211
330
1F
100
AcDbEntity
  8
C-A
  6
Continuous
 62
     3
370
     9
100
AcDbLine
 10
-320.263933491062
 20
633.6411264780406
 30
0.0
 11
-320.263933491062
 21
627.6407107791385
 31
0.0
  0
LINE
  5
212
330
1F
100
AcDbEntity
  8
C-A
  6
Continuous
 62
     3
370
     9
100
AcDbLine
 10
-325.2137197030552
 20
633.6411264780406
 30
0.0
 11
-325.2137197030552
 21
627.6407107791385
 31
0.0
  0
LINE
  5
213
330
1F
100
AcDbEntity
  8
C-A
  6
Continuous
 62
     3
370
     9
100
AcDbLine
 10
-330.1635059150485
 20
618.6408295502533
 30
0.0
 11
-330.1635059150485
 21
612.6404138513516
 31
0.0
  0
LINE
  5
214
330
1F
100
AcDbEntity
  8
C-A
  6
Continuous
 62
     3
370
     9
100
AcDbLine
 10
-320.263933491062
 20
618.6408295502533
 30
0.0
 11
-320.263933491062
 21
612.6404138513516
 31
0.0
  0
LINE
  5
215
330
1F
100
AcDbEntity
  8
C-A
  6
Continuous
 62
     3
370
     9
100
AcDbLine
 10
-325.2137197030552
 20
618.6408295502533
 30
0.0
 11
-325.2137197030552
 21
612.6404138513516
 31
0.0
  0
LINE
  5
216
330
1F
100
AcDbEntity
  8
C-A
  6
Continuous
 62
     3
370
     9
100
AcDbLine
 10
-330.1635059150485
 20
603.6405326224665
 30
0.0
 11
-330.1635059150485
 21
597.6401169235644
 31
0.0
  0
LINE
  5
217
330
1F
100
AcDbEntity
  8
C-A
  6
Continuous
 62
     3
370
     9
100
AcDbLine
 10
-320.263933491062
 20
603.6405326224665
 30
0.0
 11
-320.263933491062
 21
597.6401169235644
 31
0.0
  0
LINE
  5
218
330
1F
100
AcDbEntity
  8
C-A
  6
Continuous
 62
     3
370
     9
100
AcDbLine
 10
-325.2137197030552
 20
603.6405326224665
 30
0.0
 11
-325.2137197030552
 21
597.6401169235644
 31
0.0
  0
LINE
  5
219
330
1F
100
AcDbEntity
  8
C-A
  6
Continuous
 62
     3
370
     9
100
AcDbLine
 10
-330.1635059150485
 20
588.6401119747679
 30
0.0
 11
-330.1635059150485
 21
582.6399437156886
 31
0.0
  0
LINE
  5
21A
330
1F
100
AcDbEntity
  8
C-A
  6
Continuous
 62
     3
370
     9
100
AcDbLine
 10
-320.263933491062
 20
588.6401119747679
 30
0.0
 11
-320.263933491062
 21
582.6399437156886
 31
0.0
  0
LINE
  5
21B
330
1F
100
AcDbEntity
  8
C-A
  6
Continuous
 62
     3
370
     9
100
AcDbLine
 10
-325.2137197030552
 20
588.6401119747679
 30
0.0
 11
-325.2137197030552
 21
582.6399437156886
 31
0.0
  0
LINE
  5
21C
330
1F
100
AcDbEntity
  8
C-A
  6
Continuous
 62
     3
370
     9
100
AcDbLine
 10
-330.1635059150485
 20
573.6398150469807
 30
0.0
 11
-330.1635059150485
 21
567.6396467879013
 31
0.0
  0
LINE
  5
21D
330
1F
100
AcDbEntity
  8
C-A
  6
Continuous
 62
     3
370
     9
100
AcDbLine
 10
-320.263933491062
 20
573.6398150469807
 30
0.0
 11
-320.263933491062
 21
567.6396467879013
 31
0.0
  0
LINE
  5
21E
330
1F
100
AcDbEntity
  8
C-A
  6
Continuous
 62
     3
370
     9
100
AcDbLine
 10
-325.2137197030552
 20
573.6398150469807
 30
0.0
 11
-325.2137197030552
 21
567.6396467879013
 31
0.0
  0
LINE
  5
21F
330
1F
100
AcDbEntity
  8
C-A
  6
Continuous
 62
     3
370
     9
100
AcDbLine
 10
-330.1635059150485
 20
558.6393943992823
 30
0.0
 11
-330.1635059150485
 21
552.6393498601141
 31
0.0
  0
LINE
  5
220
330
1F
100
AcDbEntity
  8
C-A
  6
Continuous
 62
     3
370
     9
100
AcDbLine
 10
-320.263933491062
 20
558.6393943992823
 30
0.0
 11
-320.263933491062
 21
552.6393498601141
 31
0.0
  0
LINE
  5
221
330
1F
100
AcDbEntity
  8
C-A
  6
Continuous
 62
     3
370
     9
100
AcDbLine
 10
-325.2137197030552
 20
558.6393943992823
 30
0.0
 11
-325.2137197030552
 21
552.6393498601141
 31
0.0
  0
LINE
  5
222
330
1F
100
AcDbEntity
  8
C-A
  6
Continuous
 62
     3
370
     9
100
AcDbLine
 10
-330.1635059150485
 20
543.639097471495
 30
0.0
 11
-330.1635059150485
 21
537.6390529323271
 31
0.0
  0
LINE
  5
223
330
1F
100
AcDbEntity
  8
C-A
  6
Continuous
 62
     3
370
     9
100
AcDbLine
 10
-320.263933491062
 20
543.639097471495
 30
0.0
 11
-320.263933491062
 21
537.6390529323271
 31
0.0
  0
LINE
  5
224
330
1F
100
AcDbEntity
  8
C-A
  6
Continuous
 62
     3
370
     9
100
AcDbLine
 10
-325.2137197030552
 20
543.639097471495
 30
0.0
 11
-325.2137197030552
 21
537.6390529323271
 31
0.0
  0
LINE
  5
225
330
1F
100
AcDbEntity
  8
C-A
  6
Continuous
 62
     3
370
     9
100
AcDbLine
 10
-330.1635059150485
 20
528.6388005437078
 30
0.0
 11
-330.1635059150485
 21
522.6386322846283
 31
0.0
  0
LINE
  5
226
330
1F
100
AcDbEntity
  8
C-A
  6
Continuous
 62
     3
370
     9
100
AcDbLine
 10
-320.263933491062
 20
528.6388005437078
 30
0.0
 11
-320.263933491062
 21
522.6386322846283
 31
0.0
  0
LINE
  5
227
330
1F
100
AcDbEntity
  8
C-A
  6
Continuous
 62
     3
370
     9
100
AcDbLine
 10
-325.2137197030552
 20
528.6388005437078
 30
0.0
 11
-325.2137197030552
 21
522.6386322846283
 31
0.0
  0
LINE
  5
228
330
1F
100
AcDbEntity
  8
C-A
  6
Continuous
 62
     3
370
     9
100
AcDbLine
 10
-330.1635059150485
 20
513.6385036159209
 30
0.0
 11
-330.1635059150485
 21
512.1473075248102
 31
0.0
  0
LINE
  5
229
330
1F
100
AcDbEntity
  8
C-A
  6
Continuous
 62
     3
370
     9
100
AcDbLine
 10
-325.2137197030552
 20
513.6385036159209
 30
0.0
 11
-325.2137197030552
 21
512.1473075248102
 31
0.0
  0
LINE
  5
22A
330
1F
100
AcDbEntity
  8
C-A
  6
Continuous
 62
     3
370
     9
100
AcDbLine
 10
-320.263933491062
 20
513.6385036159209
 30
0.0
 11
-320.263933491062
 21
512.1473075248102
 31
0.0
  0
LINE
  5
22B
330
1F
100
AcDbEntity
  8
C-A
  6
Continuous
 62
     3
370
     9
100
AcDbLine
 10
-250.1634894190605
 20
944.1474213471283
 30
0.0
 11
-250.1634894190605
 21
942.6474411423144
 31
0.0
  0
LINE
  5
22C
330
1F
100
AcDbEntity
  8
C-A
  6
Continuous
 62
     3
370
     9
100
AcDbLine
 10
-250.1634894190605
 20
933.6475599134292
 30
0.0
 11
-250.1634894190605
 21
927.6471442145271
 31
0.0
  0
LINE
  5
22D
330
1F
100
AcDbEntity
  8
C-A
  6
Continuous
 62
     3
370
     9
100
AcDbLine
 10
-240.2641644348964
 20
944.1474213471283
 30
0.0
 11
-240.2641644348964
 21
942.6474411423144
 31
0.0
  0
LINE
  5
22E
330
1F
100
AcDbEntity
  8
C-A
  6
Continuous
 62
     3
370
     9
100
AcDbLine
 10
-240.2641644348964
 20
933.6475599134292
 30
0.0
 11
-240.2641644348964
 21
927.6471442145271
 31
0.0
  0
LINE
  5
22F
330
1F
100
AcDbEntity
  8
C-A
  6
Continuous
 62
     3
370
     9
100
AcDbLine
 10
-245.2139506468899
 20
933.6475599134292
 30
0.0
 11
-245.2139506468899
 21
927.6471442145271
 31
0.0
  0
LINE
  5
230
330
1F
100
AcDbEntity
  8
C-A
  6
Continuous
 62
     3
370
     9
100
AcDbLine
 10
-245.2139506468899
 20
944.1474213471283
 30
0.0
 11
-245.2139506468899
 21
942.6474411423144
 31
0.0
  0
LINE
  5
231
330
1F
100
AcDbEntity
  8
C-A
  6
Continuous
 62
     3
370
     9
100
AcDbLine
 10
-250.1634894190605
 20
918.6472629856419
 30
0.0
 11
-250.1634894190605
 21
912.6468472867401
 31
0.0
  0
LINE
  5
232
330
1F
100
AcDbEntity
  8
C-A
  6
Continuous
 62
     3
370
     9
100
AcDbLine
 10
-240.2641644348964
 20
918.6472629856419
 30
0.0
 11
-240.2641644348964
 21
912.6468472867401
 31
0.0
  0
LINE
  5
233
330
1F
100
AcDbEntity
  8
C-A
  6
Continuous
 62
     3
370
     9
100
AcDbLine
 10
-245.2139506468899
 20
918.6472629856419
 30
0.0
 11
-245.2139506468899
 21
912.6468472867401
 31
0.0
  0
LINE
  5
234
330
1F
100
AcDbEntity
  8
C-A
  6
Continuous
 62
     3
370
     9
100
AcDbLine
 10
-250.1634894190605
 20
903.6464711782096
 30
0.0
 11
-250.1634894190605
 21
897.6465503589529
 31
0.0
  0
LINE
  5
235
330
1F
100
AcDbEntity
  8
C-A
  6
Continuous
 62
     3
370
     9
100
AcDbLine
 10
-240.2641644348964
 20
903.6464711782096
 30
0.0
 11
-240.2641644348964
 21
897.6465503589529
 31
0.0
  0
LINE
  5
236
330
1F
100
AcDbEntity
  8
C-A
  6
Continuous
 62
     3
370
     9
100
AcDbLine
 10
-245.2139506468899
 20
903.6464711782096
 30
0.0
 11
-245.2139506468899
 21
897.6465503589529
 31
0.0
  0
LINE
  5
237
330
1F
100
AcDbEntity
  8
C-A
  6
Continuous
 62
     3
370
     9
100
AcDbLine
 10
-250.1634894190605
 20
888.6461742504224
 30
0.0
 11
-250.1634894190605
 21
882.6462534311656
 31
0.0
  0
LINE
  5
238
330
1F
100
AcDbEntity
  8
C-A
  6
Continuous
 62
     3
370
     9
100
AcDbLine
 10
-240.2641644348964
 20
888.6461742504224
 30
0.0
 11
-240.2641644348964
 21
882.6462534311656
 31
0.0
  0
LINE
  5
239
330
1F
100
AcDbEntity
  8
C-A
  6
Continuous
 62
     3
370
     9
100
AcDbLine
 10
-245.2139506468899
 20
888.6461742504224
 30
0.0
 11
-245.2139506468899
 21
882.6462534311656
 31
0.0
  0
LINE
  5
23A
330
1F
100
AcDbEntity
  8
C-A
  6
Continuous
 62
     3
370
     9
100
AcDbLine
 10
-250.1634894190605
 20
873.6458773226352
 30
0.0
 11
-250.1634894190605
 21
867.6459565033783
 31
0.0
  0
LINE
  5
23B
330
1F
100
AcDbEntity
  8
C-A
  6
Continuous
 62
     3
370
     9
100
AcDbLine
 10
-240.2641644348964
 20
873.6458773226352
 30
0.0
 11
-240.2641644348964
 21
867.6459565033783
 31
0.0
  0
LINE
  5
23C
330
1F
100
AcDbEntity
  8
C-A
  6
Continuous
 62
     3
370
     9
100
AcDbLine
 10
-245.2139506468899
 20
873.6458773226352
 30
0.0
 11
-245.2139506468899
 21
867.6459565033783
 31
0.0
  0
LINE
  5
23D
330
1F
100
AcDbEntity
  8
C-A
  6
Continuous
 62
     3
370
     9
100
AcDbLine
 10
-250.1634894190605
 20
858.6455803948481
 30
0.0
 11
-250.1634894190605
 21
852.6456595755915
 31
0.0
  0
LINE
  5
23E
330
1F
100
AcDbEntity
  8
C-A
  6
Continuous
 62
     3
370
     9
100
AcDbLine
 10
-240.2641644348964
 20
858.6455803948481
 30
0.0
 11
-240.2641644348964
 21
852.6456595755915
 31
0.0
  0
LINE
  5
23F
330
1F
100
AcDbEntity
  8
C-A
  6
Continuous
 62
     3
370
     9
100
AcDbLine
 10
-245.2139506468899
 20
858.6455803948481
 30
0.0
 11
-245.2139506468899
 21
852.6456595755915
 31
0.0
  0
LINE
  5
240
330
1F
100
AcDbEntity
  8
C-A
  6
Continuous
 62
     3
370
     9
100
AcDbLine
 10
-250.1634894190605
 20
843.645283467061
 30
0.0
 11
-250.1634894190605
 21
837.6453626478042
 31
0.0
  0
LINE
  5
241
330
1F
100
AcDbEntity
  8
C-A
  6
Continuous
 62
     3
370
     9
100
AcDbLine
 10
-240.2641644348964
 20
843.645283467061
 30
0.0
 11
-240.2641644348964
 21
837.6453626478042
 31
0.0
  0
LINE
  5
242
330
1F
100
AcDbEntity
  8
C-A
  6
Continuous
 62
     3
370
     9
100
AcDbLine
 10
-245.2139506468899
 20
843.645283467061
 30
0.0
 11
-245.2139506468899
 21
837.6453626478042
 31
0.0
  0
LINE
  5
243
330
1F
100
AcDbEntity
  8
C-A
  6
Continuous
 62
     3
370
     9
100
AcDbLine
 10
-250.1634894190605
 20
828.6449865392738
 30
0.0
 11
-250.1634894190605
 21
822.6450657200169
 31
0.0
  0
LINE
  5
244
330
1F
100
AcDbEntity
  8
C-A
  6
Continuous
 62
     3
370
     9
100
AcDbLine
 10
-240.2641644348964
 20
828.6449865392738
 30
0.0
 11
-240.2641644348964
 21
822.6450657200169
 31
0.0
  0
LINE
  5
245
330
1F
100
AcDbEntity
  8
C-A
  6
Continuous
 62
     3
370
     9
100
AcDbLine
 10
-245.2139506468899
 20
828.6449865392738
 30
0.0
 11
-245.2139506468899
 21
822.6450657200169
 31
0.0
  0
LINE
  5
246
330
1F
100
AcDbEntity
  8
C-A
  6
Continuous
 62
     3
370
     9
100
AcDbLine
 10
-250.1634894190605
 20
813.6446896114867
 30
0.0
 11
-250.1634894190605
 21
807.64476879223
 31
0.0
  0
LINE
  5
247
330
1F
100
AcDbEntity
  8
C-A
  6
Continuous
 62
     3
370
     9
100
AcDbLine
 10
-240.2641644348964
 20
813.6446896114867
 30
0.0
 11
-240.2641644348964
 21
807.64476879223
 31
0.0
  0
LINE
  5
248
330
1F
100
AcDbEntity
  8
C-A
  6
Continuous
 62
     3
370
     9
100
AcDbLine
 10
-245.2139506468899
 20
813.6446896114867
 30
0.0
 11
-245.2139506468899
 21
807.64476879223
 31
0.0
  0
LINE
  5
249
330
1F
100
AcDbEntity
  8
C-A
  6
Continuous
 62
     3
370
     9
100
AcDbLine
 10
-250.1634894190605
 20
798.6443926836995
 30
0.0
 11
-250.1634894190605
 21
792.6444718644427
 31
0.0
  0
LINE
  5
24A
330
1F
100
AcDbEntity
  8
C-A
  6
Continuous
 62
     3
370
     9
100
AcDbLine
 10
-240.2641644348964
 20
798.6443926836995
 30
0.0
 11
-240.2641644348964
 21
792.6444718644427
 31
0.0
  0
LINE
  5
24B
330
1F
100
AcDbEntity
  8
C-A
  6
Continuous
 62
     3
370
     9
100
AcDbLine
 10
-245.2139506468899
 20
798.6443926836995
 30
0.0
 11
-245.2139506468899
 21
792.6444718644427
 31
0.0
  0
LINE
  5
24C
330
1F
100
AcDbEntity
  8
C-A
  6
Continuous
 62
     3
370
     9
100
AcDbLine
 10
-250.1634894190605
 20
783.6440957559123
 30
0.0
 11
-250.1634894190605
 21
777.6441749366554
 31
0.0
  0
LINE
  5
24D
330
1F
100
AcDbEntity
  8
C-A
  6
Continuous
 62
     3
370
     9
100
AcDbLine
 10
-240.2641644348964
 20
783.6440957559123
 30
0.0
 11
-240.2641644348964
 21
777.6441749366554
 31
0.0
  0
LINE
  5
24E
330
1F
100
AcDbEntity
  8
C-A
  6
Continuous
 62
     3
370
     9
100
AcDbLine
 10
-245.2139506468899
 20
783.6440957559123
 30
0.0
 11
-245.2139506468899
 21
777.6441749366554
 31
0.0
  0
LINE
  5
24F
330
1F
100
AcDbEntity
  8
C-A
  6
Continuous
 62
     3
370
     9
100
AcDbLine
 10
-250.1634894190605
 20
768.643798828125
 30
0.0
 11
-250.1634894190605
 21
762.6438780088682
 31
0.0
  0
LINE
  5
250
330
1F
100
AcDbEntity
  8
C-A
  6
Continuous
 62
     3
370
     9
100
AcDbLine
 10
-240.2641644348964
 20
768.643798828125
 30
0.0
 11
-240.2641644348964
 21
762.6438780088682
 31
0.0
  0
LINE
  5
251
330
1F
100
AcDbEntity
  8
C-A
  6
Continuous
 62
     3
370
     9
100
AcDbLine
 10
-245.2139506468899
 20
768.643798828125
 30
0.0
 11
-245.2139506468899
 21
762.6438780088682
 31
0.0
  0
LINE
  5
252
330
1F
100
AcDbEntity
  8
C-A
  6
Continuous
 62
     3
370
     9
100
AcDbLine
 10
-250.1634894190605
 20
753.643501900338
 30
0.0
 11
-250.1634894190605
 21
747.6435810810813
 31
0.0
  0
LINE
  5
253
330
1F
100
AcDbEntity
  8
C-A
  6
Continuous
 62
     3
370
     9
100
AcDbLine
 10
-240.2641644348964
 20
753.643501900338
 30
0.0
 11
-240.2641644348964
 21
747.6435810810813
 31
0.0
  0
LINE
  5
254
330
1F
100
AcDbEntity
  8
C-A
  6
Continuous
 62
     3
370
     9
100
AcDbLine
 10
-245.2139506468899
 20
753.643501900338
 30
0.0
 11
-245.2139506468899
 21
747.6435810810813
 31
0.0
  0
LINE
  5
255
330
1F
100
AcDbEntity
  8
C-A
  6
Continuous
 62
     3
370
     9
100
AcDbLine
 10
-250.1634894190605
 20
738.6432049725508
 30
0.0
 11
-250.1634894190605
 21
732.643284153294
 31
0.0
  0
LINE
  5
256
330
1F
100
AcDbEntity
  8
C-A
  6
Continuous
 62
     3
370
     9
100
AcDbLine
 10
-240.2641644348964
 20
738.6432049725508
 30
0.0
 11
-240.2641644348964
 21
732.643284153294
 31
0.0
  0
LINE
  5
257
330
1F
100
AcDbEntity
  8
C-A
  6
Continuous
 62
     3
370
     9
100
AcDbLine
 10
-245.2139506468899
 20
738.6432049725508
 30
0.0
 11
-245.2139506468899
 21
732.643284153294
 31
0.0
  0
LINE
  5
258
330
1F
100
AcDbEntity
  8
C-A
  6
Continuous
 62
     3
370
     9
100
AcDbLine
 10
-250.1634894190605
 20
723.6429080447635
 30
0.0
 11
-250.1634894190605
 21
717.6429872255068
 31
0.0
  0
LINE
  5
259
330
1F
100
AcDbEntity
  8
C-A
  6
Continuous
 62
     3
370
     9
100
AcDbLine
 10
-240.2641644348964
 20
723.6429080447635
 30
0.0
 11
-240.2641644348964
 21
717.6429872255068
 31
0.0
  0
LINE
  5
25A
330
1F
100
AcDbEntity
  8
C-A
  6
Continuous
 62
     3
370
     9
100
AcDbLine
 10
-245.2139506468899
 20
723.6429080447635
 30
0.0
 11
-245.2139506468899
 21
717.6429872255068
 31
0.0
  0
LINE
  5
25B
330
1F
100
AcDbEntity
  8
C-A
  6
Continuous
 62
     3
370
     9
100
AcDbLine
 10
-250.1634894190605
 20
708.6426111169766
 30
0.0
 11
-250.1634894190605
 21
702.6426902977198
 31
0.0
  0
LINE
  5
25C
330
1F
100
AcDbEntity
  8
C-A
  6
Continuous
 62
     3
370
     9
100
AcDbLine
 10
-240.2641644348964
 20
708.6426111169766
 30
0.0
 11
-240.2641644348964
 21
702.6426902977198
 31
0.0
  0
LINE
  5
25D
330
1F
100
AcDbEntity
  8
C-A
  6
Continuous
 62
     3
370
     9
100
AcDbLine
 10
-245.2139506468899
 20
708.6426111169766
 30
0.0
 11
-245.2139506468899
 21
702.6426902977198
 31
0.0
  0
LINE
  5
25E
330
1F
100
AcDbEntity
  8
C-A
  6
Continuous
 62
     3
370
     9
100
AcDbLine
 10
-250.1634894190605
 20
693.6423141891894
 30
0.0
 11
-250.1634894190605
 21
687.6418984902873
 31
0.0
  0
LINE
  5
25F
330
1F
100
AcDbEntity
  8
C-A
  6
Continuous
 62
     3
370
     9
100
AcDbLine
 10
-240.2641644348964
 20
693.6423141891894
 30
0.0
 11
-240.2641644348964
 21
687.6418984902873
 31
0.0
  0
LINE
  5
260
330
1F
100
AcDbEntity
  8
C-A
  6
Continuous
 62
     3
370
     9
100
AcDbLine
 10
-245.2139506468899
 20
693.6423141891894
 30
0.0
 11
-245.2139506468899
 21
687.6418984902873
 31
0.0
  0
LINE
  5
261
330
1F
100
AcDbEntity
  8
C-A
  6
Continuous
 62
     3
370
     9
100
AcDbLine
 10
-250.1634894190605
 20
678.6420172614021
 30
0.0
 11
-250.1634894190605
 21
672.6416015625
 31
0.0
  0
LINE
  5
262
330
1F
100
AcDbEntity
  8
C-A
  6
Continuous
 62
     3
370
     9
100
AcDbLine
 10
-240.2641644348964
 20
678.6420172614021
 30
0.0
 11
-240.2641644348964
 21
672.6416015625
 31
0.0
  0
LINE
  5
263
330
1F
100
AcDbEntity
  8
C-A
  6
Continuous
 62
     3
370
     9
100
AcDbLine
 10
-245.2139506468899
 20
678.6420172614021
 30
0.0
 11
-245.2139506468899
 21
672.6416015625
 31
0.0
  0
LINE
  5
264
330
1F
100
AcDbEntity
  8
C-A
  6
Continuous
 62
     3
370
     9
100
AcDbLine
 10
-250.1634894190605
 20
663.6417203336151
 30
0.0
 11
-250.1634894190605
 21
657.6415520745356
 31
0.0
  0
LINE
  5
265
330
1F
100
AcDbEntity
  8
C-A
  6
Continuous
 62
     3
370
     9
100
AcDbLine
 10
-240.2641644348964
 20
663.6417203336151
 30
0.0
 11
-240.2641644348964
 21
657.6415520745356
 31
0.0
  0
LINE
  5
266
330
1F
100
AcDbEntity
  8
C-A
  6
Continuous
 62
     3
370
     9
100
AcDbLine
 10
-245.2139506468899
 20
663.6417203336151
 30
0.0
 11
-245.2139506468899
 21
657.6415520745356
 31
0.0
  0
LINE
  5
267
330
1F
100
AcDbEntity
  8
C-A
  6
Continuous
 62
     3
370
     9
100
AcDbLine
 10
-250.1634894190605
 20
648.6414234058279
 30
0.0
 11
-250.1634894190605
 21
642.6412551467484
 31
0.0
  0
LINE
  5
268
330
1F
100
AcDbEntity
  8
C-A
  6
Continuous
 62
     3
370
     9
100
AcDbLine
 10
-240.2641644348964
 20
648.6414234058279
 30
0.0
 11
-240.2641644348964
 21
642.6412551467484
 31
0.0
  0
LINE
  5
269
330
1F
100
AcDbEntity
  8
C-A
  6
Continuous
 62
     3
370
     9
100
AcDbLine
 10
-245.2139506468899
 20
648.6414234058279
 30
0.0
 11
-245.2139506468899
 21
642.6412551467484
 31
0.0
  0
LINE
  5
26A
330
1F
100
AcDbEntity
  8
C-A
  6
Continuous
 62
     3
370
     9
100
AcDbLine
 10
-250.1634894190605
 20
633.6411264780406
 30
0.0
 11
-250.1634894190605
 21
627.6407107791385
 31
0.0
  0
LINE
  5
26B
330
1F
100
AcDbEntity
  8
C-A
  6
Continuous
 62
     3
370
     9
100
AcDbLine
 10
-240.2641644348964
 20
633.6411264780406
 30
0.0
 11
-240.2641644348964
 21
627.6407107791385
 31
0.0
  0
LINE
  5
26C
330
1F
100
AcDbEntity
  8
C-A
  6
Continuous
 62
     3
370
     9
100
AcDbLine
 10
-245.2139506468899
 20
633.6411264780406
 30
0.0
 11
-245.2139506468899
 21
627.6407107791385
 31
0.0
  0
LINE
  5
26D
330
1F
100
AcDbEntity
  8
C-A
  6
Continuous
 62
     3
370
     9
100
AcDbLine
 10
-250.1634894190605
 20
618.6408295502533
 30
0.0
 11
-250.1634894190605
 21
612.6404138513516
 31
0.0
  0
LINE
  5
26E
330
1F
100
AcDbEntity
  8
C-A
  6
Continuous
 62
     3
370
     9
100
AcDbLine
 10
-240.2641644348964
 20
618.6408295502533
 30
0.0
 11
-240.2641644348964
 21
612.6404138513516
 31
0.0
  0
LINE
  5
26F
330
1F
100
AcDbEntity
  8
C-A
  6
Continuous
 62
     3
370
     9
100
AcDbLine
 10
-245.2139506468899
 20
618.6408295502533
 30
0.0
 11
-245.2139506468899
 21
612.6404138513516
 31
0.0
  0
LINE
  5
270
330
1F
100
AcDbEntity
  8
C-A
  6
Continuous
 62
     3
370
     9
100
AcDbLine
 10
-250.1634894190605
 20
603.6405326224665
 30
0.0
 11
-250.1634894190605
 21
597.6401169235644
 31
0.0
  0
LINE
  5
271
330
1F
100
AcDbEntity
  8
C-A
  6
Continuous
 62
     3
370
     9
100
AcDbLine
 10
-240.2641644348964
 20
603.6405326224665
 30
0.0
 11
-240.2641644348964
 21
597.6401169235644
 31
0.0
  0
LINE
  5
272
330
1F
100
AcDbEntity
  8
C-A
  6
Continuous
 62
     3
370
     9
100
AcDbLine
 10
-245.2139506468899
 20
603.6405326224665
 30
0.0
 11
-245.2139506468899
 21
597.6401169235644
 31
0.0
  0
LINE
  5
273
330
1F
100
AcDbEntity
  8
C-A
  6
Continuous
 62
     3
370
     9
100
AcDbLine
 10
-250.1634894190605
 20
588.6401119747679
 30
0.0
 11
-250.1634894190605
 21
582.6399437156886
 31
0.0
  0
LINE
  5
274
330
1F
100
AcDbEntity
  8
C-A
  6
Continuous
 62
     3
370
     9
100
AcDbLine
 10
-240.2641644348964
 20
588.6401119747679
 30
0.0
 11
-240.2641644348964
 21
582.6399437156886
 31
0.0
  0
LINE
  5
275
330
1F
100
AcDbEntity
  8
C-A
  6
Continuous
 62
     3
370
     9
100
AcDbLine
 10
-245.2139506468899
 20
588.6401119747679
 30
0.0
 11
-245.2139506468899
 21
582.6399437156886
 31
0.0
  0
LINE
  5
276
330
1F
100
AcDbEntity
  8
C-A
  6
Continuous
 62
     3
370
     9
100
AcDbLine
 10
-250.1634894190605
 20
573.6398150469807
 30
0.0
 11
-250.1634894190605
 21
567.6396467879013
 31
0.0
  0
LINE
  5
277
330
1F
100
AcDbEntity
  8
C-A
  6
Continuous
 62
     3
370
     9
100
AcDbLine
 10
-240.2641644348964
 20
573.6398150469807
 30
0.0
 11
-240.2641644348964
 21
567.6396467879013
 31
0.0
  0
LINE
  5
278
330
1F
100
AcDbEntity
  8
C-A
  6
Continuous
 62
     3
370
     9
100
AcDbLine
 10
-245.2139506468899
 20
573.6398150469807
 30
0.0
 11
-245.2139506468899
 21
567.6396467879013
 31
0.0
  0
LINE
  5
279
330
1F
100
AcDbEntity
  8
C-A
  6
Continuous
 62
     3
370
     9
100
AcDbLine
 10
-250.1634894190605
 20
558.6393943992823
 30
0.0
 11
-250.1634894190605
 21
552.6393498601141
 31
0.0
  0
LINE
  5
27A
330
1F
100
AcDbEntity
  8
C-A
  6
Continuous
 62
     3
370
     9
100
AcDbLine
 10
-240.2641644348964
 20
558.6393943992823
 30
0.0
 11
-240.2641644348964
 21
552.6393498601141
 31
0.0
  0
LINE
  5
27B
330
1F
100
AcDbEntity
  8
C-A
  6
Continuous
 62
     3
370
     9
100
AcDbLine
 10
-245.2139506468899
 20
558.6393943992823
 30
0.0
 11
-245.2139506468899
 21
552.6393498601141
 31
0.0
  0
LINE
  5
27C
330
1F
100
AcDbEntity
  8
C-A
  6
Continuous
 62
     3
370
     9
100
AcDbLine
 10
-250.1634894190605
 20
543.639097471495
 30
0.0
 11
-250.1634894190605
 21
537.6390529323271
 31
0.0
  0
LINE
  5
27D
330
1F
100
AcDbEntity
  8
C-A
  6
Continuous
 62
     3
370
     9
100
AcDbLine
 10
-240.2641644348964
 20
543.639097471495
 30
0.0
 11
-240.2641644348964
 21
537.6390529323271
 31
0.0
  0
LINE
  5
27E
330
1F
100
AcDbEntity
  8
C-A
  6
Continuous
 62
     3
370
     9
100
AcDbLine
 10
-245.2139506468899
 20
543.639097471495
 30
0.0
 11
-245.2139506468899
 21
537.6390529323271
 31
0.0
  0
LINE
  5
27F
330
1F
100
AcDbEntity
  8
C-A
  6
Continuous
 62
     3
370
     9
100
AcDbLine
 10
-250.1634894190605
 20
528.6388005437078
 30
0.0
 11
-250.1634894190605
 21
522.6386322846283
 31
0.0
  0
LINE
  5
280
330
1F
100
AcDbEntity
  8
C-A
  6
Continuous
 62
     3
370
     9
100
AcDbLine
 10
-240.2641644348964
 20
528.6388005437078
 30
0.0
 11
-240.2641644348964
 21
522.6386322846283
 31
0.0
  0
LINE
  5
281
330
1F
100
AcDbEntity
  8
C-A
  6
Continuous
 62
     3
370
     9
100
AcDbLine
 10
-245.2139506468899
 20
528.6388005437078
 30
0.0
 11
-245.2139506468899
 21
522.6386322846283
 31
0.0
  0
LINE
  5
282
330
1F
100
AcDbEntity
  8
C-A
  6
Continuous
 62
     3
370
     9
100
AcDbLine
 10
-250.1634894190605
 20
513.6385036159209
 30
0.0
 11
-250.1634894190605
 21
512.1473075248102
 31
0.0
  0
LINE
  5
283
330
1F
100
AcDbEntity
  8
C-A
  6
Continuous
 62
     3
370
     9
100
AcDbLine
 10
-245.2139506468899
 20
513.6385036159209
 30
0.0
 11
-245.2139506468899
 21
512.1473075248102
 31
0.0
  0
LINE
  5
284
330
1F
100
AcDbEntity
  8
C-A
  6
Continuous
 62
     3
370
     9
100
AcDbLine
 10
-240.2641644348964
 20
513.6385036159209
 30
0.0
 11
-240.2641644348964
 21
512.1473075248102
 31
0.0
  0
LINE
  5
285
330
1F
100
AcDbEntity
  8
C-1
  6
JWW_DASHED3
 62
     2
370
     9
100
AcDbLine
 10
-605.2136537191027
 20
928.1474675358953
 30
0.0
 11
-605.2136537191027
 21
528.1475087758658
 31
0.0
  0
LINE
  5
286
330
1F
100
AcDbEntity
  8
C-1
  6
JWW_DASHED3
 62
     2
370
     9
100
AcDbLine
 10
-605.2136537191027
 20
528.1475087758658
 30
0.0
 11
-205.2130763595164
 21
528.1475087758658
 31
0.0
  0
LINE
  5
287
330
1F
100
AcDbEntity
  8
C-1
  6
JWW_DASHED3
 62
     2
370
     9
100
AcDbLine
 10
-605.2136537191027
 20
928.1474675358953
 30
0.0
 11
-205.2130763595164
 21
928.1474675358953
 31
0.0
  0
LINE
  5
288
330
1F
100
AcDbEntity
  8
C-1
  6
JWW_DASHED3
 62
     2
370
     9
100
AcDbLine
 10
-205.2130763595164
 20
928.1474675358953
 30
0.0
 11
-205.2130763595164
 21
528.1475087758658
 31
0.0
  0
LINE
  5
289
330
1F
100
AcDbEntity
  8
C-1
  6
Continuous
 62
     2
370
     9
100
AcDbLine
 10
-631.2131456426666
 20
954.147454339105
 30
0.0
 11
-631.2131456426666
 21
502.1472745328336
 31
0.0
  0
LINE
  5
28A
330
1F
100
AcDbEntity
  8
C-1
  6
Continuous
 62
     2
370
     9
100
AcDbLine
 10
-631.2131456426666
 20
502.1472745328336
 30
0.0
 11
-179.2133369961297
 21
502.1472745328336
 31
0.0
  0
LINE
  5
28B
330
1F
100
AcDbEntity
  8
C-1
  6
Continuous
 62
     2
370
     9
100
AcDbLine
 10
-631.2131456426666
 20
954.147454339105
 30
0.0
 11
-179.2133369961297
 21
954.147454339105
 31
0.0
  0
LINE
  5
28C
330
1F
100
AcDbEntity
  8
C-1
  6
Continuous
 62
     2
370
     9
100
AcDbLine
 10
-179.2133369961297
 20
954.147454339105
 30
0.0
 11
-179.2133369961297
 21
502.1472745328336
 31
0.0
  0
LINE
  5
28D
330
1F
100
AcDbEntity
  8
C-1
  6
Continuous
 62
     2
370
     9
100
AcDbLine
 10
-174.2135679399641
 20
959.1472233952703
 30
0.0
 11
-174.2135679399641
 21
497.1472580368456
 31
0.0
  0
LINE
  5
28E
330
1F
100
AcDbEntity
  8
C-1
  6
Continuous
 62
     2
370
     9
100
AcDbLine
 10
-636.2129146988323
 20
497.1472580368456
 30
0.0
 11
-174.2135679399641
 21
497.1472580368456
 31
0.0
  0
LINE
  5
28F
330
1F
100
AcDbEntity
  8
C-1
  6
Continuous
 62
     2
370
     9
100
AcDbLine
 10
-636.2129146988323
 20
959.1472233952703
 30
0.0
 11
-636.2129146988323
 21
497.1472580368456
 31
0.0
  0
LINE
  5
290
330
1F
100
AcDbEntity
  8
C-1
  6
Continuous
 62
     2
370
     9
100
AcDbLine
 10
-636.2129146988323
 20
959.1472233952703
 30
0.0
 11
-174.2135679399641
 21
959.1472233952703
 31
0.0
  0
LINE
  5
291
330
1F
100
AcDbEntity
  8
C-5
  6
Continuous
 62
     7
370
     9
100
AcDbLine
 10
-96.28190092138311
 20
370.3751765070737
 30
0.0
 11
-96.28190092138311
 21
305.3755806587839
 31
0.0
  0
LINE
  5
292
330
1F
100
AcDbEntity
  8
C-5
  6
Continuous
 62
     7
370
     9
100
AcDbLine
 10
-96.28190092138311
 20
305.3755806587839
 30
0.0
 11
-671.2823133210875
 21
305.3755806587839
 31
0.0
  0
LINE
  5
293
330
1F
100
AcDbEntity
  8
C-5
  6
Continuous
 62
     7
370
     9
100
AcDbLine
 10
-671.2823133210875
 20
370.3751765070737
 30
0.0
 11
-96.28190092138311
 21
370.3751765070737
 31
0.0
  0
LINE
  5
294
330
1F
100
AcDbEntity
  8
C-5
  6
Continuous
 62
     7
370
     9
100
AcDbLine
 10
-671.2823133210875
 20
305.3755806587839
 30
0.0
 11
-671.2823133210875
 21
370.3751765070737
 31
0.0
  0
LINE
  5
295
330
1F
100
AcDbEntity
  8
C-A
  6
Continuous
 62
     6
370
     9
100
AcDbLine
 10
-217.4264585649641
 20
503.6478733372044
 30
0.0
 11
-219.4262672115013
 21
511.6477265229096
 31
0.0
  0
LINE
  5
296
330
1F
100
AcDbEntity
  8
C-A
  6
Continuous
 62
     6
370
     9
100
AcDbLine
 10
-215.9262309203274
 20
503.6478733372044
 30
0.0
 11
-213.9264222737901
 21
511.6477265229096
 31
0.0
  0
LINE
  5
297
330
1F
100
AcDbEntity
  8
C-A
  6
Continuous
 62
     6
370
     9
100
AcDbLine
 10
-217.4264585649641
 20
503.6478733372044
 30
0.0
 11
-215.9262309203274
 21
503.6478733372044
 31
0.0
  0
LINE
  5
298
330
1F
100
AcDbEntity
  8
C-A
  6
Continuous
 62
     6
370
     9
100
AcDbLine
 10
-219.4262672115013
 20
511.6477265229096
 30
0.0
 11
-213.9264222737901
 21
511.6477265229096
 31
0.0
  0
LINE
  5
299
330
1F
100
AcDbEntity
  8
C-A
  6
Continuous
 62
     6
370
     9
100
AcDbLine
 10
-217.8169186050823
 20
503.147426295925
 30
0.0
 11
-220.0668889123037
 21
512.1475549646328
 31
0.0
  0
LINE
  5
29A
330
1F
100
AcDbEntity
  8
C-A
  6
Continuous
 62
     6
370
     9
100
AcDbLine
 10
-215.5357708802089
 20
503.147426295925
 30
0.0
 11
-213.2858005729878
 21
512.1475549646328
 31
0.0
  0
LINE
  5
29B
330
1F
100
AcDbEntity
  8
C-A
  6
Continuous
 62
     6
370
     9
100
AcDbLine
 10
-217.8169186050823
 20
503.147426295925
 30
0.0
 11
-217.4264585649641
 21
503.6478733372044
 31
0.0
  0
LINE
  5
29C
330
1F
100
AcDbEntity
  8
C-A
  6
Continuous
 62
     6
370
     9
100
AcDbLine
 10
-215.5357708802089
 20
503.147426295925
 30
0.0
 11
-215.9262309203274
 21
503.6478733372044
 31
0.0
  0
LINE
  5
29D
330
1F
100
AcDbEntity
  8
C-A
  6
Continuous
 62
     6
370
     9
100
AcDbLine
 10
-213.9264222737901
 20
511.6477265229096
 30
0.0
 11
-213.2858005729878
 21
512.1475549646328
 31
0.0
  0
LINE
  5
29E
330
1F
100
AcDbEntity
  8
C-A
  6
Continuous
 62
     6
370
     9
100
AcDbLine
 10
-220.0668889123037
 20
512.1475549646328
 30
0.0
 11
-219.4262672115013
 21
511.6477265229096
 31
0.0
  0
LINE
  5
29F
330
1F
100
AcDbEntity
  8
C-A
  6
Continuous
 62
     6
370
     9
100
AcDbLine
 10
-202.4266565168222
 20
511.6477265229096
 30
0.0
 11
-200.4263529906399
 21
503.6478733372044
 31
0.0
  0
LINE
  5
2A0
330
1F
100
AcDbEntity
  8
C-A
  6
Continuous
 62
     6
370
     9
100
AcDbLine
 10
-203.9263892818138
 20
511.6477265229096
 30
0.0
 11
-202.4266565168222
 21
511.6477265229096
 31
0.0
  0
LINE
  5
2A1
330
1F
100
AcDbEntity
  8
C-A
  6
Continuous
 62
     6
370
     9
100
AcDbLine
 10
-205.9266928079961
 20
503.6478733372044
 30
0.0
 11
-200.4263529906399
 21
503.6478733372044
 31
0.0
  0
LINE
  5
2A2
330
1F
100
AcDbEntity
  8
C-A
  6
Continuous
 62
     6
370
     9
100
AcDbLine
 10
-206.5668196291531
 20
503.147426295925
 30
0.0
 11
-204.3168493219321
 21
512.1475549646328
 31
0.0
  0
LINE
  5
2A3
330
1F
100
AcDbEntity
  8
C-A
  6
Continuous
 62
     6
370
     9
100
AcDbLine
 10
-202.0361964767039
 20
512.1475549646328
 30
0.0
 11
-199.7857312898373
 21
503.147426295925
 31
0.0
  0
LINE
  5
2A4
330
1F
100
AcDbEntity
  8
C-A
  6
Continuous
 62
     6
370
     9
100
AcDbLine
 10
-190.4263199986633
 20
503.6478733372044
 30
0.0
 11
-192.4266235248459
 21
511.6477265229096
 31
0.0
  0
LINE
  5
2A5
330
1F
100
AcDbEntity
  8
C-A
  6
Continuous
 62
     6
370
     9
100
AcDbLine
 10
-188.9265872336719
 20
503.6478733372044
 30
0.0
 11
-186.926531147312
 21
511.6477265229096
 31
0.0
  0
LINE
  5
2A6
330
1F
100
AcDbEntity
  8
C-A
  6
Continuous
 62
     6
370
     9
100
AcDbLine
 10
-190.4263199986633
 20
503.6478733372044
 30
0.0
 11
-188.9265872336719
 21
503.6478733372044
 31
0.0
  0
LINE
  5
2A7
330
1F
100
AcDbEntity
  8
C-A
  6
Continuous
 62
     6
370
     9
100
AcDbLine
 10
-192.4266235248459
 20
511.6477265229096
 30
0.0
 11
-186.926531147312
 21
511.6477265229096
 31
0.0
  0
LINE
  5
2A8
330
1F
100
AcDbEntity
  8
C-A
  6
Continuous
 62
     6
370
     9
100
AcDbLine
 10
-190.8167800387815
 20
503.147426295925
 30
0.0
 11
-193.0667503460029
 21
512.1475549646328
 31
0.0
  0
LINE
  5
2A9
330
1F
100
AcDbEntity
  8
C-A
  6
Continuous
 62
     6
370
     9
100
AcDbLine
 10
-188.5361271935537
 20
503.147426295925
 30
0.0
 11
-186.2861568863323
 21
512.1475549646328
 31
0.0
  0
LINE
  5
2AA
330
1F
100
AcDbEntity
  8
C-A
  6
Continuous
 62
     6
370
     9
100
AcDbLine
 10
-190.8167800387815
 20
503.147426295925
 30
0.0
 11
-190.4263199986633
 21
503.6478733372044
 31
0.0
  0
LINE
  5
2AB
330
1F
100
AcDbEntity
  8
C-A
  6
Continuous
 62
     6
370
     9
100
AcDbLine
 10
-188.5361271935537
 20
503.147426295925
 30
0.0
 11
-188.9265872336719
 21
503.6478733372044
 31
0.0
  0
LINE
  5
2AC
330
1F
100
AcDbEntity
  8
C-A
  6
Continuous
 62
     6
370
     9
100
AcDbLine
 10
-186.926531147312
 20
511.6477265229096
 30
0.0
 11
-186.2861568863323
 21
512.1475549646328
 31
0.0
  0
LINE
  5
2AD
330
1F
100
AcDbEntity
  8
C-A
  6
Continuous
 62
     6
370
     9
100
AcDbLine
 10
-193.0667503460029
 20
512.1475549646328
 30
0.0
 11
-192.4266235248459
 21
511.6477265229096
 31
0.0
  0
LINE
  5
2AE
330
1F
100
AcDbEntity
  8
C-A
  6
Continuous
 62
     6
370
     9
100
AcDbLine
 10
-205.9266928079961
 20
503.6478733372044
 30
0.0
 11
-203.9263892818138
 21
511.6477265229096
 31
0.0
  0
LINE
  5
2AF
330
1F
100
AcDbEntity
  8
C-A
  6
Continuous
 62
     6
370
     9
100
AcDbLine
 10
-206.5668196291531
 20
503.147426295925
 30
0.0
 11
-205.9266928079961
 21
503.6478733372044
 31
0.0
  0
LINE
  5
2B0
330
1F
100
AcDbEntity
  8
C-A
  6
Continuous
 62
     6
370
     9
100
AcDbLine
 10
-200.4263529906399
 20
503.6478733372044
 30
0.0
 11
-199.7857312898373
 21
503.147426295925
 31
0.0
  0
LINE
  5
2B1
330
1F
100
AcDbEntity
  8
C-A
  6
Continuous
 62
     6
370
     9
100
AcDbLine
 10
-202.4266565168222
 20
511.6477265229096
 30
0.0
 11
-202.0361964767039
 21
512.1475549646328
 31
0.0
  0
LINE
  5
2B2
330
1F
100
AcDbEntity
  8
C-A
  6
Continuous
 62
     6
370
     9
100
AcDbLine
 10
-204.3168493219321
 20
512.1475549646328
 30
0.0
 11
-203.9263892818138
 21
511.6477265229096
 31
0.0
  0
LINE
  5
2B3
330
1F
100
AcDbEntity
  8
C-A
  6
Continuous
 62
     6
370
     9
100
AcDbLine
 10
-244.4261022516196
 20
503.6478733372044
 30
0.0
 11
-246.4256634583339
 21
511.6477265229096
 31
0.0
  0
LINE
  5
2B4
330
1F
100
AcDbEntity
  8
C-A
  6
Continuous
 62
     6
370
     9
100
AcDbLine
 10
-242.9258746069826
 20
503.6478733372044
 30
0.0
 11
-240.9260659604456
 21
511.6477265229096
 31
0.0
  0
LINE
  5
2B5
330
1F
100
AcDbEntity
  8
C-A
  6
Continuous
 62
     6
370
     9
100
AcDbLine
 10
-244.4261022516196
 20
503.6478733372044
 30
0.0
 11
-242.9258746069826
 21
503.6478733372044
 31
0.0
  0
LINE
  5
2B6
330
1F
100
AcDbEntity
  8
C-A
  6
Continuous
 62
     6
370
     9
100
AcDbLine
 10
-246.4256634583339
 20
511.6477265229096
 30
0.0
 11
-240.9260659604456
 21
511.6477265229096
 31
0.0
  0
LINE
  5
2B7
330
1F
100
AcDbEntity
  8
C-A
  6
Continuous
 62
     6
370
     9
100
AcDbLine
 10
-244.8165622917378
 20
503.147426295925
 30
0.0
 11
-247.0662851591365
 21
512.1475549646328
 31
0.0
  0
LINE
  5
2B8
330
1F
100
AcDbEntity
  8
C-A
  6
Continuous
 62
     6
370
     9
100
AcDbLine
 10
-242.5354145668643
 20
503.147426295925
 30
0.0
 11
-240.2854442596433
 21
512.1475549646328
 31
0.0
  0
LINE
  5
2B9
330
1F
100
AcDbEntity
  8
C-A
  6
Continuous
 62
     6
370
     9
100
AcDbLine
 10
-244.8165622917378
 20
503.147426295925
 30
0.0
 11
-244.4261022516196
 21
503.6478733372044
 31
0.0
  0
LINE
  5
2BA
330
1F
100
AcDbEntity
  8
C-A
  6
Continuous
 62
     6
370
     9
100
AcDbLine
 10
-242.5354145668643
 20
503.147426295925
 30
0.0
 11
-242.9258746069826
 21
503.6478733372044
 31
0.0
  0
LINE
  5
2BB
330
1F
100
AcDbEntity
  8
C-A
  6
Continuous
 62
     6
370
     9
100
AcDbLine
 10
-240.9260659604456
 20
511.6477265229096
 30
0.0
 11
-240.2854442596433
 21
512.1475549646328
 31
0.0
  0
LINE
  5
2BC
330
1F
100
AcDbEntity
  8
C-A
  6
Continuous
 62
     6
370
     9
100
AcDbLine
 10
-247.0662851591365
 20
512.1475549646328
 30
0.0
 11
-246.4256634583339
 21
511.6477265229096
 31
0.0
  0
LINE
  5
2BD
330
1F
100
AcDbEntity
  8
C-A
  6
Continuous
 62
     6
370
     9
100
AcDbLine
 10
-229.4263002034776
 20
511.6477265229096
 30
0.0
 11
-227.4259966772951
 21
503.6478733372044
 31
0.0
  0
LINE
  5
2BE
330
1F
100
AcDbEntity
  8
C-A
  6
Continuous
 62
     6
370
     9
100
AcDbLine
 10
-230.926032968469
 20
511.6477265229096
 30
0.0
 11
-229.4263002034776
 21
511.6477265229096
 31
0.0
  0
LINE
  5
2BF
330
1F
100
AcDbEntity
  8
C-A
  6
Continuous
 62
     6
370
     9
100
AcDbLine
 10
-232.9260890548289
 20
503.6478733372044
 30
0.0
 11
-227.4259966772951
 21
503.6478733372044
 31
0.0
  0
LINE
  5
2C0
330
1F
100
AcDbEntity
  8
C-A
  6
Continuous
 62
     6
370
     9
100
AcDbLine
 10
-233.5664633158086
 20
503.147426295925
 30
0.0
 11
-231.3164930085873
 21
512.1475549646328
 31
0.0
  0
LINE
  5
2C1
330
1F
100
AcDbEntity
  8
C-A
  6
Continuous
 62
     6
370
     9
100
AcDbLine
 10
-229.0358401633594
 20
512.1475549646328
 30
0.0
 11
-226.7853749764927
 21
503.147426295925
 31
0.0
  0
LINE
  5
2C2
330
1F
100
AcDbEntity
  8
C-A
  6
Continuous
 62
     6
370
     9
100
AcDbLine
 10
-232.9260890548289
 20
503.6478733372044
 30
0.0
 11
-230.926032968469
 21
511.6477265229096
 31
0.0
  0
LINE
  5
2C3
330
1F
100
AcDbEntity
  8
C-A
  6
Continuous
 62
     6
370
     9
100
AcDbLine
 10
-233.5664633158086
 20
503.147426295925
 30
0.0
 11
-232.9260890548289
 21
503.6478733372044
 31
0.0
  0
LINE
  5
2C4
330
1F
100
AcDbEntity
  8
C-A
  6
Continuous
 62
     6
370
     9
100
AcDbLine
 10
-227.4259966772951
 20
503.6478733372044
 30
0.0
 11
-226.7853749764927
 21
503.147426295925
 31
0.0
  0
LINE
  5
2C5
330
1F
100
AcDbEntity
  8
C-A
  6
Continuous
 62
     6
370
     9
100
AcDbLine
 10
-229.4263002034776
 20
511.6477265229096
 30
0.0
 11
-229.0358401633594
 21
512.1475549646328
 31
0.0
  0
LINE
  5
2C6
330
1F
100
AcDbEntity
  8
C-A
  6
Continuous
 62
     6
370
     9
100
AcDbLine
 10
-231.3164930085873
 20
512.1475549646328
 30
0.0
 11
-230.926032968469
 21
511.6477265229096
 31
0.0
  0
LINE
  5
2C7
330
1F
100
AcDbEntity
  8
C-A
  6
Continuous
 62
     6
370
     9
100
AcDbLine
 10
-271.4257459382748
 20
503.6478733372044
 30
0.0
 11
-273.4253071449893
 21
511.6477265229096
 31
0.0
  0
LINE
  5
2C8
330
1F
100
AcDbEntity
  8
C-A
  6
Continuous
 62
     6
370
     9
100
AcDbLine
 10
-269.9252708538154
 20
503.6478733372044
 30
0.0
 11
-267.9257096471008
 21
511.6477265229096
 31
0.0
  0
LINE
  5
2C9
330
1F
100
AcDbEntity
  8
C-A
  6
Continuous
 62
     6
370
     9
100
AcDbLine
 10
-271.4257459382748
 20
503.6478733372044
 30
0.0
 11
-269.9252708538154
 21
503.6478733372044
 31
0.0
  0
LINE
  5
2CA
330
1F
100
AcDbEntity
  8
C-A
  6
Continuous
 62
     6
370
     9
100
AcDbLine
 10
-273.4253071449893
 20
511.6477265229096
 30
0.0
 11
-267.9257096471008
 21
511.6477265229096
 31
0.0
  0
LINE
  5
2CB
330
1F
100
AcDbEntity
  8
C-A
  6
Continuous
 62
     6
370
     9
100
AcDbLine
 10
-271.8162059783933
 20
503.147426295925
 30
0.0
 11
-274.0659288457917
 21
512.1475549646328
 31
0.0
  0
LINE
  5
2CC
330
1F
100
AcDbEntity
  8
C-A
  6
Continuous
 62
     6
370
     9
100
AcDbLine
 10
-269.5348108136972
 20
503.147426295925
 30
0.0
 11
-267.2850879462985
 21
512.1475549646328
 31
0.0
  0
LINE
  5
2CD
330
1F
100
AcDbEntity
  8
C-A
  6
Continuous
 62
     6
370
     9
100
AcDbLine
 10
-271.8162059783933
 20
503.147426295925
 30
0.0
 11
-271.4257459382748
 21
503.6478733372044
 31
0.0
  0
LINE
  5
2CE
330
1F
100
AcDbEntity
  8
C-A
  6
Continuous
 62
     6
370
     9
100
AcDbLine
 10
-269.5348108136972
 20
503.147426295925
 30
0.0
 11
-269.9252708538154
 21
503.6478733372044
 31
0.0
  0
LINE
  5
2CF
330
1F
100
AcDbEntity
  8
C-A
  6
Continuous
 62
     6
370
     9
100
AcDbLine
 10
-267.9257096471008
 20
511.6477265229096
 30
0.0
 11
-267.2850879462985
 21
512.1475549646328
 31
0.0
  0
LINE
  5
2D0
330
1F
100
AcDbEntity
  8
C-A
  6
Continuous
 62
     6
370
     9
100
AcDbLine
 10
-274.0659288457917
 20
512.1475549646328
 30
0.0
 11
-273.4253071449893
 21
511.6477265229096
 31
0.0
  0
LINE
  5
2D1
330
1F
100
AcDbEntity
  8
C-A
  6
Continuous
 62
     6
370
     9
100
AcDbLine
 10
-256.4259438901331
 20
511.6477265229096
 30
0.0
 11
-254.4256403639505
 21
503.6478733372044
 31
0.0
  0
LINE
  5
2D2
330
1F
100
AcDbEntity
  8
C-A
  6
Continuous
 62
     6
370
     9
100
AcDbLine
 10
-257.9256766551245
 20
511.6477265229096
 30
0.0
 11
-256.4259438901331
 21
511.6477265229096
 31
0.0
  0
LINE
  5
2D3
330
1F
100
AcDbEntity
  8
C-A
  6
Continuous
 62
     6
370
     9
100
AcDbLine
 10
-259.9257327414844
 20
503.6478733372044
 30
0.0
 11
-254.4256403639505
 21
503.6478733372044
 31
0.0
  0
LINE
  5
2D4
330
1F
100
AcDbEntity
  8
C-A
  6
Continuous
 62
     6
370
     9
100
AcDbLine
 10
-260.5658595626414
 20
503.147426295925
 30
0.0
 11
-258.3158892554201
 21
512.1475549646328
 31
0.0
  0
LINE
  5
2D5
330
1F
100
AcDbEntity
  8
C-A
  6
Continuous
 62
     6
370
     9
100
AcDbLine
 10
-256.0354838500149
 20
512.1475549646328
 30
0.0
 11
-253.7850186631482
 21
503.147426295925
 31
0.0
  0
LINE
  5
2D6
330
1F
100
AcDbEntity
  8
C-A
  6
Continuous
 62
     6
370
     9
100
AcDbLine
 10
-259.9257327414844
 20
503.6478733372044
 30
0.0
 11
-257.9256766551245
 21
511.6477265229096
 31
0.0
  0
LINE
  5
2D7
330
1F
100
AcDbEntity
  8
C-A
  6
Continuous
 62
     6
370
     9
100
AcDbLine
 10
-260.5658595626414
 20
503.147426295925
 30
0.0
 11
-259.9257327414844
 21
503.6478733372044
 31
0.0
  0
LINE
  5
2D8
330
1F
100
AcDbEntity
  8
C-A
  6
Continuous
 62
     6
370
     9
100
AcDbLine
 10
-254.4256403639505
 20
503.6478733372044
 30
0.0
 11
-253.7850186631482
 21
503.147426295925
 31
0.0
  0
LINE
  5
2D9
330
1F
100
AcDbEntity
  8
C-A
  6
Continuous
 62
     6
370
     9
100
AcDbLine
 10
-256.4259438901331
 20
511.6477265229096
 30
0.0
 11
-256.0354838500149
 21
512.1475549646328
 31
0.0
  0
LINE
  5
2DA
330
1F
100
AcDbEntity
  8
C-A
  6
Continuous
 62
     6
370
     9
100
AcDbLine
 10
-258.3158892554201
 20
512.1475549646328
 30
0.0
 11
-257.9256766551245
 21
511.6477265229096
 31
0.0
  0
LINE
  5
2DB
330
1F
100
AcDbEntity
  8
C-A
  6
Continuous
 62
     6
370
     9
100
AcDbLine
 10
-298.4251421851076
 20
503.6478733372044
 30
0.0
 11
-300.4249508316448
 21
511.6477265229096
 31
0.0
  0
LINE
  5
2DC
330
1F
100
AcDbEntity
  8
C-A
  6
Continuous
 62
     6
370
     9
100
AcDbLine
 10
-296.9249145404709
 20
503.6478733372044
 30
0.0
 11
-294.9251058939336
 21
511.6477265229096
 31
0.0
  0
LINE
  5
2DD
330
1F
100
AcDbEntity
  8
C-A
  6
Continuous
 62
     6
370
     9
100
AcDbLine
 10
-298.4251421851076
 20
503.6478733372044
 30
0.0
 11
-296.9249145404709
 21
503.6478733372044
 31
0.0
  0
LINE
  5
2DE
330
1F
100
AcDbEntity
  8
C-A
  6
Continuous
 62
     6
370
     9
100
AcDbLine
 10
-300.4249508316448
 20
511.6477265229096
 30
0.0
 11
-294.9251058939336
 21
511.6477265229096
 31
0.0
  0
LINE
  5
2DF
330
1F
100
AcDbEntity
  8
C-A
  6
Continuous
 62
     6
370
     9
100
AcDbLine
 10
-298.8156022252258
 20
503.147426295925
 30
0.0
 11
-301.0655725324472
 21
512.1475549646328
 31
0.0
  0
LINE
  5
2E0
330
1F
100
AcDbEntity
  8
C-A
  6
Continuous
 62
     6
370
     9
100
AcDbLine
 10
-296.5344545003526
 20
503.147426295925
 30
0.0
 11
-294.2844841931313
 21
512.1475549646328
 31
0.0
  0
LINE
  5
2E1
330
1F
100
AcDbEntity
  8
C-A
  6
Continuous
 62
     6
370
     9
100
AcDbLine
 10
-298.8156022252258
 20
503.147426295925
 30
0.0
 11
-298.4251421851076
 21
503.6478733372044
 31
0.0
  0
LINE
  5
2E2
330
1F
100
AcDbEntity
  8
C-A
  6
Continuous
 62
     6
370
     9
100
AcDbLine
 10
-296.5344545003526
 20
503.147426295925
 30
0.0
 11
-296.9249145404709
 21
503.6478733372044
 31
0.0
  0
LINE
  5
2E3
330
1F
100
AcDbEntity
  8
C-A
  6
Continuous
 62
     6
370
     9
100
AcDbLine
 10
-294.9251058939336
 20
511.6477265229096
 30
0.0
 11
-294.2844841931313
 21
512.1475549646328
 31
0.0
  0
LINE
  5
2E4
330
1F
100
AcDbEntity
  8
C-A
  6
Continuous
 62
     6
370
     9
100
AcDbLine
 10
-301.0655725324472
 20
512.1475549646328
 30
0.0
 11
-300.4249508316448
 21
511.6477265229096
 31
0.0
  0
LINE
  5
2E5
330
1F
100
AcDbEntity
  8
C-A
  6
Continuous
 62
     6
370
     9
100
AcDbLine
 10
-283.4253401369656
 20
511.6477265229096
 30
0.0
 11
-281.425284050606
 21
503.6478733372044
 31
0.0
  0
LINE
  5
2E6
330
1F
100
AcDbEntity
  8
C-A
  6
Continuous
 62
     6
370
     9
100
AcDbLine
 10
-284.9250729019573
 20
511.6477265229096
 30
0.0
 11
-283.4253401369656
 21
511.6477265229096
 31
0.0
  0
LINE
  5
2E7
330
1F
100
AcDbEntity
  8
C-A
  6
Continuous
 62
     6
370
     9
100
AcDbLine
 10
-286.9253764281399
 20
503.6478733372044
 30
0.0
 11
-281.425284050606
 21
503.6478733372044
 31
0.0
  0
LINE
  5
2E8
330
1F
100
AcDbEntity
  8
C-A
  6
Continuous
 62
     6
370
     9
100
AcDbLine
 10
-287.5655032492969
 20
503.147426295925
 30
0.0
 11
-285.3155329420755
 21
512.1475549646328
 31
0.0
  0
LINE
  5
2E9
330
1F
100
AcDbEntity
  8
C-A
  6
Continuous
 62
     6
370
     9
100
AcDbLine
 10
-283.0348800968474
 20
512.1475549646328
 30
0.0
 11
-280.7846623498037
 21
503.147426295925
 31
0.0
  0
LINE
  5
2EA
330
1F
100
AcDbEntity
  8
C-A
  6
Continuous
 62
     6
370
     9
100
AcDbLine
 10
-286.9253764281399
 20
503.6478733372044
 30
0.0
 11
-284.9250729019573
 21
511.6477265229096
 31
0.0
  0
LINE
  5
2EB
330
1F
100
AcDbEntity
  8
C-A
  6
Continuous
 62
     6
370
     9
100
AcDbLine
 10
-287.5655032492969
 20
503.147426295925
 30
0.0
 11
-286.9253764281399
 21
503.6478733372044
 31
0.0
  0
LINE
  5
2EC
330
1F
100
AcDbEntity
  8
C-A
  6
Continuous
 62
     6
370
     9
100
AcDbLine
 10
-281.425284050606
 20
503.6478733372044
 30
0.0
 11
-280.7846623498037
 21
503.147426295925
 31
0.0
  0
LINE
  5
2ED
330
1F
100
AcDbEntity
  8
C-A
  6
Continuous
 62
     6
370
     9
100
AcDbLine
 10
-283.4253401369656
 20
511.6477265229096
 30
0.0
 11
-283.0348800968474
 21
512.1475549646328
 31
0.0
  0
LINE
  5
2EE
330
1F
100
AcDbEntity
  8
C-A
  6
Continuous
 62
     6
370
     9
100
AcDbLine
 10
-285.3155329420755
 20
512.1475549646328
 30
0.0
 11
-284.9250729019573
 21
511.6477265229096
 31
0.0
  0
LINE
  5
2EF
330
1F
100
AcDbEntity
  8
C-A
  6
Continuous
 62
     6
370
     9
100
AcDbLine
 10
-217.4264585649641
 20
514.1478584908151
 30
0.0
 11
-219.4262672115013
 21
522.1477116765203
 31
0.0
  0
LINE
  5
2F0
330
1F
100
AcDbEntity
  8
C-A
  6
Continuous
 62
     6
370
     9
100
AcDbLine
 10
-215.9262309203274
 20
514.1478584908151
 30
0.0
 11
-213.9264222737901
 21
522.1477116765203
 31
0.0
  0
LINE
  5
2F1
330
1F
100
AcDbEntity
  8
C-A
  6
Continuous
 62
     6
370
     9
100
AcDbLine
 10
-217.4264585649641
 20
514.1478584908151
 30
0.0
 11
-215.9262309203274
 21
514.1478584908151
 31
0.0
  0
LINE
  5
2F2
330
1F
100
AcDbEntity
  8
C-A
  6
Continuous
 62
     6
370
     9
100
AcDbLine
 10
-219.4262672115013
 20
522.1477116765203
 30
0.0
 11
-213.9264222737901
 21
522.1477116765203
 31
0.0
  0
LINE
  5
2F3
330
1F
100
AcDbEntity
  8
C-A
  6
Continuous
 62
     6
370
     9
100
AcDbLine
 10
-217.8169186050823
 20
513.6474114495356
 30
0.0
 11
-220.0668889123037
 21
522.6476638381547
 31
0.0
  0
LINE
  5
2F4
330
1F
100
AcDbEntity
  8
C-A
  6
Continuous
 62
     6
370
     9
100
AcDbLine
 10
-215.5357708802089
 20
513.6474114495356
 30
0.0
 11
-213.2858005729878
 21
522.6476638381547
 31
0.0
  0
LINE
  5
2F5
330
1F
100
AcDbEntity
  8
C-A
  6
Continuous
 62
     6
370
     9
100
AcDbLine
 10
-217.8169186050823
 20
513.6474114495356
 30
0.0
 11
-217.4264585649641
 21
514.1478584908151
 31
0.0
  0
LINE
  5
2F6
330
1F
100
AcDbEntity
  8
C-A
  6
Continuous
 62
     6
370
     9
100
AcDbLine
 10
-215.5357708802089
 20
513.6474114495356
 30
0.0
 11
-215.9262309203274
 21
514.1478584908151
 31
0.0
  0
LINE
  5
2F7
330
1F
100
AcDbEntity
  8
C-A
  6
Continuous
 62
     6
370
     9
100
AcDbLine
 10
-213.9264222737901
 20
522.1477116765203
 30
0.0
 11
-213.2858005729878
 21
522.6476638381547
 31
0.0
  0
LINE
  5
2F8
330
1F
100
AcDbEntity
  8
C-A
  6
Continuous
 62
     6
370
     9
100
AcDbLine
 10
-220.0668889123037
 20
522.6476638381547
 30
0.0
 11
-219.4262672115013
 21
522.1477116765203
 31
0.0
  0
LINE
  5
2F9
330
1F
100
AcDbEntity
  8
C-A
  6
Continuous
 62
     6
370
     9
100
AcDbLine
 10
-202.4266565168222
 20
522.1477116765203
 30
0.0
 11
-200.4263529906399
 21
514.1478584908151
 31
0.0
  0
LINE
  5
2FA
330
1F
100
AcDbEntity
  8
C-A
  6
Continuous
 62
     6
370
     9
100
AcDbLine
 10
-203.9263892818138
 20
522.1477116765203
 30
0.0
 11
-202.4266565168222
 21
522.1477116765203
 31
0.0
  0
LINE
  5
2FB
330
1F
100
AcDbEntity
  8
C-A
  6
Continuous
 62
     6
370
     9
100
AcDbLine
 10
-205.9266928079961
 20
514.1478584908151
 30
0.0
 11
-200.4263529906399
 21
514.1478584908151
 31
0.0
  0
LINE
  5
2FC
330
1F
100
AcDbEntity
  8
C-A
  6
Continuous
 62
     6
370
     9
100
AcDbLine
 10
-206.5668196291531
 20
513.6474114495356
 30
0.0
 11
-204.3168493219321
 21
522.6476638381547
 31
0.0
  0
LINE
  5
2FD
330
1F
100
AcDbEntity
  8
C-A
  6
Continuous
 62
     6
370
     9
100
AcDbLine
 10
-202.0361964767039
 20
522.6476638381547
 30
0.0
 11
-199.7857312898373
 21
513.6474114495356
 31
0.0
  0
LINE
  5
2FE
330
1F
100
AcDbEntity
  8
C-A
  6
Continuous
 62
     6
370
     9
100
AcDbLine
 10
-190.4263199986633
 20
514.1478584908151
 30
0.0
 11
-192.4266235248459
 21
522.1477116765203
 31
0.0
  0
LINE
  5
2FF
330
1F
100
AcDbEntity
  8
C-A
  6
Continuous
 62
     6
370
     9
100
AcDbLine
 10
-188.9265872336719
 20
514.1478584908151
 30
0.0
 11
-186.926531147312
 21
522.1477116765203
 31
0.0
  0
LINE
  5
300
330
1F
100
AcDbEntity
  8
C-A
  6
Continuous
 62
     6
370
     9
100
AcDbLine
 10
-190.4263199986633
 20
514.1478584908151
 30
0.0
 11
-188.9265872336719
 21
514.1478584908151
 31
0.0
  0
LINE
  5
301
330
1F
100
AcDbEntity
  8
C-A
  6
Continuous
 62
     6
370
     9
100
AcDbLine
 10
-192.4266235248459
 20
522.1477116765203
 30
0.0
 11
-186.926531147312
 21
522.1477116765203
 31
0.0
  0
LINE
  5
302
330
1F
100
AcDbEntity
  8
C-A
  6
Continuous
 62
     6
370
     9
100
AcDbLine
 10
-190.8167800387815
 20
513.6474114495356
 30
0.0
 11
-193.0667503460029
 21
522.6476638381547
 31
0.0
  0
LINE
  5
303
330
1F
100
AcDbEntity
  8
C-A
  6
Continuous
 62
     6
370
     9
100
AcDbLine
 10
-188.5361271935537
 20
513.6474114495356
 30
0.0
 11
-186.2861568863323
 21
522.6476638381547
 31
0.0
  0
LINE
  5
304
330
1F
100
AcDbEntity
  8
C-A
  6
Continuous
 62
     6
370
     9
100
AcDbLine
 10
-190.8167800387815
 20
513.6474114495356
 30
0.0
 11
-190.4263199986633
 21
514.1478584908151
 31
0.0
  0
LINE
  5
305
330
1F
100
AcDbEntity
  8
C-A
  6
Continuous
 62
     6
370
     9
100
AcDbLine
 10
-188.5361271935537
 20
513.6474114495356
 30
0.0
 11
-188.9265872336719
 21
514.1478584908151
 31
0.0
  0
LINE
  5
306
330
1F
100
AcDbEntity
  8
C-A
  6
Continuous
 62
     6
370
     9
100
AcDbLine
 10
-186.926531147312
 20
522.1477116765203
 30
0.0
 11
-186.2861568863323
 21
522.6476638381547
 31
0.0
  0
LINE
  5
307
330
1F
100
AcDbEntity
  8
C-A
  6
Continuous
 62
     6
370
     9
100
AcDbLine
 10
-193.0667503460029
 20
522.6476638381547
 30
0.0
 11
-192.4266235248459
 21
522.1477116765203
 31
0.0
  0
LINE
  5
308
330
1F
100
AcDbEntity
  8
C-A
  6
Continuous
 62
     6
370
     9
100
AcDbLine
 10
-205.9266928079961
 20
514.1478584908151
 30
0.0
 11
-203.9263892818138
 21
522.1477116765203
 31
0.0
  0
LINE
  5
309
330
1F
100
AcDbEntity
  8
C-A
  6
Continuous
 62
     6
370
     9
100
AcDbLine
 10
-206.5668196291531
 20
513.6474114495356
 30
0.0
 11
-205.9266928079961
 21
514.1478584908151
 31
0.0
  0
LINE
  5
30A
330
1F
100
AcDbEntity
  8
C-A
  6
Continuous
 62
     6
370
     9
100
AcDbLine
 10
-200.4263529906399
 20
514.1478584908151
 30
0.0
 11
-199.7857312898373
 21
513.6474114495356
 31
0.0
  0
LINE
  5
30B
330
1F
100
AcDbEntity
  8
C-A
  6
Continuous
 62
     6
370
     9
100
AcDbLine
 10
-202.4266565168222
 20
522.1477116765203
 30
0.0
 11
-202.0361964767039
 21
522.6476638381547
 31
0.0
  0
LINE
  5
30C
330
1F
100
AcDbEntity
  8
C-A
  6
Continuous
 62
     6
370
     9
100
AcDbLine
 10
-204.3168493219321
 20
522.6476638381547
 30
0.0
 11
-203.9263892818138
 21
522.1477116765203
 31
0.0
  0
LINE
  5
30D
330
1F
100
AcDbEntity
  8
C-A
  6
Continuous
 62
     6
370
     9
100
AcDbLine
 10
-244.4261022516196
 20
514.1478584908151
 30
0.0
 11
-246.4256634583339
 21
522.1477116765203
 31
0.0
  0
LINE
  5
30E
330
1F
100
AcDbEntity
  8
C-A
  6
Continuous
 62
     6
370
     9
100
AcDbLine
 10
-242.9258746069826
 20
514.1478584908151
 30
0.0
 11
-240.9260659604456
 21
522.1477116765203
 31
0.0
  0
LINE
  5
30F
330
1F
100
AcDbEntity
  8
C-A
  6
Continuous
 62
     6
370
     9
100
AcDbLine
 10
-244.4261022516196
 20
514.1478584908151
 30
0.0
 11
-242.9258746069826
 21
514.1478584908151
 31
0.0
  0
LINE
  5
310
330
1F
100
AcDbEntity
  8
C-A
  6
Continuous
 62
     6
370
     9
100
AcDbLine
 10
-246.4256634583339
 20
522.1477116765203
 30
0.0
 11
-240.9260659604456
 21
522.1477116765203
 31
0.0
  0
LINE
  5
311
330
1F
100
AcDbEntity
  8
C-A
  6
Continuous
 62
     6
370
     9
100
AcDbLine
 10
-244.8165622917378
 20
513.6474114495356
 30
0.0
 11
-247.0662851591365
 21
522.6476638381547
 31
0.0
  0
LINE
  5
312
330
1F
100
AcDbEntity
  8
C-A
  6
Continuous
 62
     6
370
     9
100
AcDbLine
 10
-242.5354145668643
 20
513.6474114495356
 30
0.0
 11
-240.2854442596433
 21
522.6476638381547
 31
0.0
  0
LINE
  5
313
330
1F
100
AcDbEntity
  8
C-A
  6
Continuous
 62
     6
370
     9
100
AcDbLine
 10
-244.8165622917378
 20
513.6474114495356
 30
0.0
 11
-244.4261022516196
 21
514.1478584908151
 31
0.0
  0
LINE
  5
314
330
1F
100
AcDbEntity
  8
C-A
  6
Continuous
 62
     6
370
     9
100
AcDbLine
 10
-242.5354145668643
 20
513.6474114495356
 30
0.0
 11
-242.9258746069826
 21
514.1478584908151
 31
0.0
  0
LINE
  5
315
330
1F
100
AcDbEntity
  8
C-A
  6
Continuous
 62
     6
370
     9
100
AcDbLine
 10
-240.9260659604456
 20
522.1477116765203
 30
0.0
 11
-240.2854442596433
 21
522.6476638381547
 31
0.0
  0
LINE
  5
316
330
1F
100
AcDbEntity
  8
C-A
  6
Continuous
 62
     6
370
     9
100
AcDbLine
 10
-247.0662851591365
 20
522.6476638381547
 30
0.0
 11
-246.4256634583339
 21
522.1477116765203
 31
0.0
  0
LINE
  5
317
330
1F
100
AcDbEntity
  8
C-A
  6
Continuous
 62
     6
370
     9
100
AcDbLine
 10
-229.4263002034776
 20
522.1477116765203
 30
0.0
 11
-227.4259966772951
 21
514.1478584908151
 31
0.0
  0
LINE
  5
318
330
1F
100
AcDbEntity
  8
C-A
  6
Continuous
 62
     6
370
     9
100
AcDbLine
 10
-230.926032968469
 20
522.1477116765203
 30
0.0
 11
-229.4263002034776
 21
522.1477116765203
 31
0.0
  0
LINE
  5
319
330
1F
100
AcDbEntity
  8
C-A
  6
Continuous
 62
     6
370
     9
100
AcDbLine
 10
-232.9260890548289
 20
514.1478584908151
 30
0.0
 11
-227.4259966772951
 21
514.1478584908151
 31
0.0
  0
LINE
  5
31A
330
1F
100
AcDbEntity
  8
C-A
  6
Continuous
 62
     6
370
     9
100
AcDbLine
 10
-233.5664633158086
 20
513.6474114495356
 30
0.0
 11
-231.3164930085873
 21
522.6476638381547
 31
0.0
  0
LINE
  5
31B
330
1F
100
AcDbEntity
  8
C-A
  6
Continuous
 62
     6
370
     9
100
AcDbLine
 10
-229.0358401633594
 20
522.6476638381547
 30
0.0
 11
-226.7853749764927
 21
513.6474114495356
 31
0.0
  0
LINE
  5
31C
330
1F
100
AcDbEntity
  8
C-A
  6
Continuous
 62
     6
370
     9
100
AcDbLine
 10
-232.9260890548289
 20
514.1478584908151
 30
0.0
 11
-230.926032968469
 21
522.1477116765203
 31
0.0
  0
LINE
  5
31D
330
1F
100
AcDbEntity
  8
C-A
  6
Continuous
 62
     6
370
     9
100
AcDbLine
 10
-233.5664633158086
 20
513.6474114495356
 30
0.0
 11
-232.9260890548289
 21
514.1478584908151
 31
0.0
  0
LINE
  5
31E
330
1F
100
AcDbEntity
  8
C-A
  6
Continuous
 62
     6
370
     9
100
AcDbLine
 10
-227.4259966772951
 20
514.1478584908151
 30
0.0
 11
-226.7853749764927
 21
513.6474114495356
 31
0.0
  0
LINE
  5
31F
330
1F
100
AcDbEntity
  8
C-A
  6
Continuous
 62
     6
370
     9
100
AcDbLine
 10
-229.4263002034776
 20
522.1477116765203
 30
0.0
 11
-229.0358401633594
 21
522.6476638381547
 31
0.0
  0
LINE
  5
320
330
1F
100
AcDbEntity
  8
C-A
  6
Continuous
 62
     6
370
     9
100
AcDbLine
 10
-231.3164930085873
 20
522.6476638381547
 30
0.0
 11
-230.926032968469
 21
522.1477116765203
 31
0.0
  0
LINE
  5
321
330
1F
100
AcDbEntity
  8
C-A
  6
Continuous
 62
     6
370
     9
100
AcDbLine
 10
-271.4257459382748
 20
514.1478584908151
 30
0.0
 11
-273.4253071449893
 21
522.1477116765203
 31
0.0
  0
LINE
  5
322
330
1F
100
AcDbEntity
  8
C-A
  6
Continuous
 62
     6
370
     9
100
AcDbLine
 10
-269.9252708538154
 20
514.1478584908151
 30
0.0
 11
-267.9257096471008
 21
522.1477116765203
 31
0.0
  0
LINE
  5
323
330
1F
100
AcDbEntity
  8
C-A
  6
Continuous
 62
     6
370
     9
100
AcDbLine
 10
-271.4257459382748
 20
514.1478584908151
 30
0.0
 11
-269.9252708538154
 21
514.1478584908151
 31
0.0
  0
LINE
  5
324
330
1F
100
AcDbEntity
  8
C-A
  6
Continuous
 62
     6
370
     9
100
AcDbLine
 10
-273.4253071449893
 20
522.1477116765203
 30
0.0
 11
-267.9257096471008
 21
522.1477116765203
 31
0.0
  0
LINE
  5
325
330
1F
100
AcDbEntity
  8
C-A
  6
Continuous
 62
     6
370
     9
100
AcDbLine
 10
-271.8162059783933
 20
513.6474114495356
 30
0.0
 11
-274.0659288457917
 21
522.6476638381547
 31
0.0
  0
LINE
  5
326
330
1F
100
AcDbEntity
  8
C-A
  6
Continuous
 62
     6
370
     9
100
AcDbLine
 10
-269.5348108136972
 20
513.6474114495356
 30
0.0
 11
-267.2850879462985
 21
522.6476638381547
 31
0.0
  0
LINE
  5
327
330
1F
100
AcDbEntity
  8
C-A
  6
Continuous
 62
     6
370
     9
100
AcDbLine
 10
-271.8162059783933
 20
513.6474114495356
 30
0.0
 11
-271.4257459382748
 21
514.1478584908151
 31
0.0
  0
LINE
  5
328
330
1F
100
AcDbEntity
  8
C-A
  6
Continuous
 62
     6
370
     9
100
AcDbLine
 10
-269.5348108136972
 20
513.6474114495356
 30
0.0
 11
-269.9252708538154
 21
514.1478584908151
 31
0.0
  0
LINE
  5
329
330
1F
100
AcDbEntity
  8
C-A
  6
Continuous
 62
     6
370
     9
100
AcDbLine
 10
-267.9257096471008
 20
522.1477116765203
 30
0.0
 11
-267.2850879462985
 21
522.6476638381547
 31
0.0
  0
LINE
  5
32A
330
1F
100
AcDbEntity
  8
C-A
  6
Continuous
 62
     6
370
     9
100
AcDbLine
 10
-274.0659288457917
 20
522.6476638381547
 30
0.0
 11
-273.4253071449893
 21
522.1477116765203
 31
0.0
  0
LINE
  5
32B
330
1F
100
AcDbEntity
  8
C-A
  6
Continuous
 62
     6
370
     9
100
AcDbLine
 10
-256.4259438901331
 20
522.1477116765203
 30
0.0
 11
-254.4256403639505
 21
514.1478584908151
 31
0.0
  0
LINE
  5
32C
330
1F
100
AcDbEntity
  8
C-A
  6
Continuous
 62
     6
370
     9
100
AcDbLine
 10
-257.9256766551245
 20
522.1477116765203
 30
0.0
 11
-256.4259438901331
 21
522.1477116765203
 31
0.0
  0
LINE
  5
32D
330
1F
100
AcDbEntity
  8
C-A
  6
Continuous
 62
     6
370
     9
100
AcDbLine
 10
-259.9257327414844
 20
514.1478584908151
 30
0.0
 11
-254.4256403639505
 21
514.1478584908151
 31
0.0
  0
LINE
  5
32E
330
1F
100
AcDbEntity
  8
C-A
  6
Continuous
 62
     6
370
     9
100
AcDbLine
 10
-260.5658595626414
 20
513.6474114495356
 30
0.0
 11
-258.3158892554201
 21
522.6476638381547
 31
0.0
  0
LINE
  5
32F
330
1F
100
AcDbEntity
  8
C-A
  6
Continuous
 62
     6
370
     9
100
AcDbLine
 10
-256.0354838500149
 20
522.6476638381547
 30
0.0
 11
-253.7850186631482
 21
513.6474114495356
 31
0.0
  0
LINE
  5
330
330
1F
100
AcDbEntity
  8
C-A
  6
Continuous
 62
     6
370
     9
100
AcDbLine
 10
-259.9257327414844
 20
514.1478584908151
 30
0.0
 11
-257.9256766551245
 21
522.1477116765203
 31
0.0
  0
LINE
  5
331
330
1F
100
AcDbEntity
  8
C-A
  6
Continuous
 62
     6
370
     9
100
AcDbLine
 10
-260.5658595626414
 20
513.6474114495356
 30
0.0
 11
-259.9257327414844
 21
514.1478584908151
 31
0.0
  0
LINE
  5
332
330
1F
100
AcDbEntity
  8
C-A
  6
Continuous
 62
     6
370
     9
100
AcDbLine
 10
-254.4256403639505
 20
514.1478584908151
 30
0.0
 11
-253.7850186631482
 21
513.6474114495356
 31
0.0
  0
LINE
  5
333
330
1F
100
AcDbEntity
  8
C-A
  6
Continuous
 62
     6
370
     9
100
AcDbLine
 10
-256.4259438901331
 20
522.1477116765203
 30
0.0
 11
-256.0354838500149
 21
522.6476638381547
 31
0.0
  0
LINE
  5
334
330
1F
100
AcDbEntity
  8
C-A
  6
Continuous
 62
     6
370
     9
100
AcDbLine
 10
-258.3158892554201
 20
522.6476638381547
 30
0.0
 11
-257.9256766551245
 21
522.1477116765203
 31
0.0
  0
LINE
  5
335
330
1F
100
AcDbEntity
  8
C-A
  6
Continuous
 62
     6
370
     9
100
AcDbLine
 10
-217.4264585649641
 20
529.1481554186023
 30
0.0
 11
-219.4262672115013
 21
537.1480086043075
 31
0.0
  0
LINE
  5
336
330
1F
100
AcDbEntity
  8
C-A
  6
Continuous
 62
     6
370
     9
100
AcDbLine
 10
-215.9262309203274
 20
529.1481554186023
 30
0.0
 11
-213.9264222737901
 21
537.1480086043075
 31
0.0
  0
LINE
  5
337
330
1F
100
AcDbEntity
  8
C-A
  6
Continuous
 62
     6
370
     9
100
AcDbLine
 10
-217.4264585649641
 20
529.1481554186023
 30
0.0
 11
-215.9262309203274
 21
529.1481554186023
 31
0.0
  0
LINE
  5
338
330
1F
100
AcDbEntity
  8
C-A
  6
Continuous
 62
     6
370
     9
100
AcDbLine
 10
-219.4262672115013
 20
537.1480086043075
 30
0.0
 11
-213.9264222737901
 21
537.1480086043075
 31
0.0
  0
LINE
  5
339
330
1F
100
AcDbEntity
  8
C-A
  6
Continuous
 62
     6
370
     9
100
AcDbLine
 10
-217.8169186050823
 20
528.6477083773227
 30
0.0
 11
-220.0668889123037
 21
537.6479607659419
 31
0.0
  0
LINE
  5
33A
330
1F
100
AcDbEntity
  8
C-A
  6
Continuous
 62
     6
370
     9
100
AcDbLine
 10
-215.5357708802089
 20
528.6477083773227
 30
0.0
 11
-213.2858005729878
 21
537.6479607659419
 31
0.0
  0
LINE
  5
33B
330
1F
100
AcDbEntity
  8
C-A
  6
Continuous
 62
     6
370
     9
100
AcDbLine
 10
-217.8169186050823
 20
528.6477083773227
 30
0.0
 11
-217.4264585649641
 21
529.1481554186023
 31
0.0
  0
LINE
  5
33C
330
1F
100
AcDbEntity
  8
C-A
  6
Continuous
 62
     6
370
     9
100
AcDbLine
 10
-215.5357708802089
 20
528.6477083773227
 30
0.0
 11
-215.9262309203274
 21
529.1481554186023
 31
0.0
  0
LINE
  5
33D
330
1F
100
AcDbEntity
  8
C-A
  6
Continuous
 62
     6
370
     9
100
AcDbLine
 10
-213.9264222737901
 20
537.1480086043075
 30
0.0
 11
-213.2858005729878
 21
537.6479607659419
 31
0.0
  0
LINE
  5
33E
330
1F
100
AcDbEntity
  8
C-A
  6
Continuous
 62
     6
370
     9
100
AcDbLine
 10
-220.0668889123037
 20
537.6479607659419
 30
0.0
 11
-219.4262672115013
 21
537.1480086043075
 31
0.0
  0
LINE
  5
33F
330
1F
100
AcDbEntity
  8
C-A
  6
Continuous
 62
     6
370
     9
100
AcDbLine
 10
-202.4266565168222
 20
537.1480086043075
 30
0.0
 11
-200.4263529906399
 21
529.1481554186023
 31
0.0
  0
LINE
  5
340
330
1F
100
AcDbEntity
  8
C-A
  6
Continuous
 62
     6
370
     9
100
AcDbLine
 10
-203.9263892818138
 20
537.1480086043075
 30
0.0
 11
-202.4266565168222
 21
537.1480086043075
 31
0.0
  0
LINE
  5
341
330
1F
100
AcDbEntity
  8
C-A
  6
Continuous
 62
     6
370
     9
100
AcDbLine
 10
-205.9266928079961
 20
529.1481554186023
 30
0.0
 11
-200.4263529906399
 21
529.1481554186023
 31
0.0
  0
LINE
  5
342
330
1F
100
AcDbEntity
  8
C-A
  6
Continuous
 62
     6
370
     9
100
AcDbLine
 10
-206.5668196291531
 20
528.6477083773227
 30
0.0
 11
-204.3168493219321
 21
537.6479607659419
 31
0.0
  0
LINE
  5
343
330
1F
100
AcDbEntity
  8
C-A
  6
Continuous
 62
     6
370
     9
100
AcDbLine
 10
-202.0361964767039
 20
537.6479607659419
 30
0.0
 11
-199.7857312898373
 21
528.6477083773227
 31
0.0
  0
LINE
  5
344
330
1F
100
AcDbEntity
  8
C-A
  6
Continuous
 62
     6
370
     9
100
AcDbLine
 10
-190.4263199986633
 20
529.1481554186023
 30
0.0
 11
-192.4266235248459
 21
537.1480086043075
 31
0.0
  0
LINE
  5
345
330
1F
100
AcDbEntity
  8
C-A
  6
Continuous
 62
     6
370
     9
100
AcDbLine
 10
-188.9265872336719
 20
529.1481554186023
 30
0.0
 11
-186.926531147312
 21
537.1480086043075
 31
0.0
  0
LINE
  5
346
330
1F
100
AcDbEntity
  8
C-A
  6
Continuous
 62
     6
370
     9
100
AcDbLine
 10
-190.4263199986633
 20
529.1481554186023
 30
0.0
 11
-188.9265872336719
 21
529.1481554186023
 31
0.0
  0
LINE
  5
347
330
1F
100
AcDbEntity
  8
C-A
  6
Continuous
 62
     6
370
     9
100
AcDbLine
 10
-192.4266235248459
 20
537.1480086043075
 30
0.0
 11
-186.926531147312
 21
537.1480086043075
 31
0.0
  0
LINE
  5
348
330
1F
100
AcDbEntity
  8
C-A
  6
Continuous
 62
     6
370
     9
100
AcDbLine
 10
-190.8167800387815
 20
528.6477083773227
 30
0.0
 11
-193.0667503460029
 21
537.6479607659419
 31
0.0
  0
LINE
  5
349
330
1F
100
AcDbEntity
  8
C-A
  6
Continuous
 62
     6
370
     9
100
AcDbLine
 10
-188.5361271935537
 20
528.6477083773227
 30
0.0
 11
-186.2861568863323
 21
537.6479607659419
 31
0.0
  0
LINE
  5
34A
330
1F
100
AcDbEntity
  8
C-A
  6
Continuous
 62
     6
370
     9
100
AcDbLine
 10
-190.8167800387815
 20
528.6477083773227
 30
0.0
 11
-190.4263199986633
 21
529.1481554186023
 31
0.0
  0
LINE
  5
34B
330
1F
100
AcDbEntity
  8
C-A
  6
Continuous
 62
     6
370
     9
100
AcDbLine
 10
-188.5361271935537
 20
528.6477083773227
 30
0.0
 11
-188.9265872336719
 21
529.1481554186023
 31
0.0
  0
LINE
  5
34C
330
1F
100
AcDbEntity
  8
C-A
  6
Continuous
 62
     6
370
     9
100
AcDbLine
 10
-186.926531147312
 20
537.1480086043075
 30
0.0
 11
-186.2861568863323
 21
537.6479607659419
 31
0.0
  0
LINE
  5
34D
330
1F
100
AcDbEntity
  8
C-A
  6
Continuous
 62
     6
370
     9
100
AcDbLine
 10
-193.0667503460029
 20
537.6479607659419
 30
0.0
 11
-192.4266235248459
 21
537.1480086043075
 31
0.0
  0
LINE
  5
34E
330
1F
100
AcDbEntity
  8
C-A
  6
Continuous
 62
     6
370
     9
100
AcDbLine
 10
-205.9266928079961
 20
529.1481554186023
 30
0.0
 11
-203.9263892818138
 21
537.1480086043075
 31
0.0
  0
LINE
  5
34F
330
1F
100
AcDbEntity
  8
C-A
  6
Continuous
 62
     6
370
     9
100
AcDbLine
 10
-206.5668196291531
 20
528.6477083773227
 30
0.0
 11
-205.9266928079961
 21
529.1481554186023
 31
0.0
  0
LINE
  5
350
330
1F
100
AcDbEntity
  8
C-A
  6
Continuous
 62
     6
370
     9
100
AcDbLine
 10
-200.4263529906399
 20
529.1481554186023
 30
0.0
 11
-199.7857312898373
 21
528.6477083773227
 31
0.0
  0
LINE
  5
351
330
1F
100
AcDbEntity
  8
C-A
  6
Continuous
 62
     6
370
     9
100
AcDbLine
 10
-202.4266565168222
 20
537.1480086043075
 30
0.0
 11
-202.0361964767039
 21
537.6479607659419
 31
0.0
  0
LINE
  5
352
330
1F
100
AcDbEntity
  8
C-A
  6
Continuous
 62
     6
370
     9
100
AcDbLine
 10
-204.3168493219321
 20
537.6479607659419
 30
0.0
 11
-203.9263892818138
 21
537.1480086043075
 31
0.0
  0
LINE
  5
353
330
1F
100
AcDbEntity
  8
C-A
  6
Continuous
 62
     6
370
     9
100
AcDbLine
 10
-244.4261022516196
 20
529.1481554186023
 30
0.0
 11
-246.4256634583339
 21
537.1480086043075
 31
0.0
  0
LINE
  5
354
330
1F
100
AcDbEntity
  8
C-A
  6
Continuous
 62
     6
370
     9
100
AcDbLine
 10
-242.9258746069826
 20
529.1481554186023
 30
0.0
 11
-240.9260659604456
 21
537.1480086043075
 31
0.0
  0
LINE
  5
355
330
1F
100
AcDbEntity
  8
C-A
  6
Continuous
 62
     6
370
     9
100
AcDbLine
 10
-244.4261022516196
 20
529.1481554186023
 30
0.0
 11
-242.9258746069826
 21
529.1481554186023
 31
0.0
  0
LINE
  5
356
330
1F
100
AcDbEntity
  8
C-A
  6
Continuous
 62
     6
370
     9
100
AcDbLine
 10
-246.4256634583339
 20
537.1480086043075
 30
0.0
 11
-240.9260659604456
 21
537.1480086043075
 31
0.0
  0
LINE
  5
357
330
1F
100
AcDbEntity
  8
C-A
  6
Continuous
 62
     6
370
     9
100
AcDbLine
 10
-244.8165622917378
 20
528.6477083773227
 30
0.0
 11
-247.0662851591365
 21
537.6479607659419
 31
0.0
  0
LINE
  5
358
330
1F
100
AcDbEntity
  8
C-A
  6
Continuous
 62
     6
370
     9
100
AcDbLine
 10
-242.5354145668643
 20
528.6477083773227
 30
0.0
 11
-240.2854442596433
 21
537.6479607659419
 31
0.0
  0
LINE
  5
359
330
1F
100
AcDbEntity
  8
C-A
  6
Continuous
 62
     6
370
     9
100
AcDbLine
 10
-244.8165622917378
 20
528.6477083773227
 30
0.0
 11
-244.4261022516196
 21
529.1481554186023
 31
0.0
  0
LINE
  5
35A
330
1F
100
AcDbEntity
  8
C-A
  6
Continuous
 62
     6
370
     9
100
AcDbLine
 10
-242.5354145668643
 20
528.6477083773227
 30
0.0
 11
-242.9258746069826
 21
529.1481554186023
 31
0.0
  0
LINE
  5
35B
330
1F
100
AcDbEntity
  8
C-A
  6
Continuous
 62
     6
370
     9
100
AcDbLine
 10
-240.9260659604456
 20
537.1480086043075
 30
0.0
 11
-240.2854442596433
 21
537.6479607659419
 31
0.0
  0
LINE
  5
35C
330
1F
100
AcDbEntity
  8
C-A
  6
Continuous
 62
     6
370
     9
100
AcDbLine
 10
-247.0662851591365
 20
537.6479607659419
 30
0.0
 11
-246.4256634583339
 21
537.1480086043075
 31
0.0
  0
LINE
  5
35D
330
1F
100
AcDbEntity
  8
C-A
  6
Continuous
 62
     6
370
     9
100
AcDbLine
 10
-229.4263002034776
 20
537.1480086043075
 30
0.0
 11
-227.4259966772951
 21
529.1481554186023
 31
0.0
  0
LINE
  5
35E
330
1F
100
AcDbEntity
  8
C-A
  6
Continuous
 62
     6
370
     9
100
AcDbLine
 10
-230.926032968469
 20
537.1480086043075
 30
0.0
 11
-229.4263002034776
 21
537.1480086043075
 31
0.0
  0
LINE
  5
35F
330
1F
100
AcDbEntity
  8
C-A
  6
Continuous
 62
     6
370
     9
100
AcDbLine
 10
-232.9260890548289
 20
529.1481554186023
 30
0.0
 11
-227.4259966772951
 21
529.1481554186023
 31
0.0
  0
LINE
  5
360
330
1F
100
AcDbEntity
  8
C-A
  6
Continuous
 62
     6
370
     9
100
AcDbLine
 10
-233.5664633158086
 20
528.6477083773227
 30
0.0
 11
-231.3164930085873
 21
537.6479607659419
 31
0.0
  0
LINE
  5
361
330
1F
100
AcDbEntity
  8
C-A
  6
Continuous
 62
     6
370
     9
100
AcDbLine
 10
-229.0358401633594
 20
537.6479607659419
 30
0.0
 11
-226.7853749764927
 21
528.6477083773227
 31
0.0
  0
LINE
  5
362
330
1F
100
AcDbEntity
  8
C-A
  6
Continuous
 62
     6
370
     9
100
AcDbLine
 10
-232.9260890548289
 20
529.1481554186023
 30
0.0
 11
-230.926032968469
 21
537.1480086043075
 31
0.0
  0
LINE
  5
363
330
1F
100
AcDbEntity
  8
C-A
  6
Continuous
 62
     6
370
     9
100
AcDbLine
 10
-233.5664633158086
 20
528.6477083773227
 30
0.0
 11
-232.9260890548289
 21
529.1481554186023
 31
0.0
  0
LINE
  5
364
330
1F
100
AcDbEntity
  8
C-A
  6
Continuous
 62
     6
370
     9
100
AcDbLine
 10
-227.4259966772951
 20
529.1481554186023
 30
0.0
 11
-226.7853749764927
 21
528.6477083773227
 31
0.0
  0
LINE
  5
365
330
1F
100
AcDbEntity
  8
C-A
  6
Continuous
 62
     6
370
     9
100
AcDbLine
 10
-229.4263002034776
 20
537.1480086043075
 30
0.0
 11
-229.0358401633594
 21
537.6479607659419
 31
0.0
  0
LINE
  5
366
330
1F
100
AcDbEntity
  8
C-A
  6
Continuous
 62
     6
370
     9
100
AcDbLine
 10
-231.3164930085873
 20
537.6479607659419
 30
0.0
 11
-230.926032968469
 21
537.1480086043075
 31
0.0
  0
LINE
  5
367
330
1F
100
AcDbEntity
  8
C-A
  6
Continuous
 62
     6
370
     9
100
AcDbLine
 10
-217.4264585649641
 20
544.1484523463896
 30
0.0
 11
-219.4262672115013
 21
552.1483055320948
 31
0.0
  0
LINE
  5
368
330
1F
100
AcDbEntity
  8
C-A
  6
Continuous
 62
     6
370
     9
100
AcDbLine
 10
-215.9262309203274
 20
544.1484523463896
 30
0.0
 11
-213.9264222737901
 21
552.1483055320948
 31
0.0
  0
LINE
  5
369
330
1F
100
AcDbEntity
  8
C-A
  6
Continuous
 62
     6
370
     9
100
AcDbLine
 10
-217.4264585649641
 20
544.1484523463896
 30
0.0
 11
-215.9262309203274
 21
544.1484523463896
 31
0.0
  0
LINE
  5
36A
330
1F
100
AcDbEntity
  8
C-A
  6
Continuous
 62
     6
370
     9
100
AcDbLine
 10
-219.4262672115013
 20
552.1483055320948
 30
0.0
 11
-213.9264222737901
 21
552.1483055320948
 31
0.0
  0
LINE
  5
36B
330
1F
100
AcDbEntity
  8
C-A
  6
Continuous
 62
     6
370
     9
100
AcDbLine
 10
-217.8169186050823
 20
543.6480053051099
 30
0.0
 11
-220.0668889123037
 21
552.648257693729
 31
0.0
  0
LINE
  5
36C
330
1F
100
AcDbEntity
  8
C-A
  6
Continuous
 62
     6
370
     9
100
AcDbLine
 10
-215.5357708802089
 20
543.6480053051099
 30
0.0
 11
-213.2858005729878
 21
552.648257693729
 31
0.0
  0
LINE
  5
36D
330
1F
100
AcDbEntity
  8
C-A
  6
Continuous
 62
     6
370
     9
100
AcDbLine
 10
-217.8169186050823
 20
543.6480053051099
 30
0.0
 11
-217.4264585649641
 21
544.1484523463896
 31
0.0
  0
LINE
  5
36E
330
1F
100
AcDbEntity
  8
C-A
  6
Continuous
 62
     6
370
     9
100
AcDbLine
 10
-215.5357708802089
 20
543.6480053051099
 30
0.0
 11
-215.9262309203274
 21
544.1484523463896
 31
0.0
  0
LINE
  5
36F
330
1F
100
AcDbEntity
  8
C-A
  6
Continuous
 62
     6
370
     9
100
AcDbLine
 10
-213.9264222737901
 20
552.1483055320948
 30
0.0
 11
-213.2858005729878
 21
552.648257693729
 31
0.0
  0
LINE
  5
370
330
1F
100
AcDbEntity
  8
C-A
  6
Continuous
 62
     6
370
     9
100
AcDbLine
 10
-220.0668889123037
 20
552.648257693729
 30
0.0
 11
-219.4262672115013
 21
552.1483055320948
 31
0.0
  0
LINE
  5
371
330
1F
100
AcDbEntity
  8
C-A
  6
Continuous
 62
     6
370
     9
100
AcDbLine
 10
-202.4266565168222
 20
552.1483055320948
 30
0.0
 11
-200.4263529906399
 21
544.1484523463896
 31
0.0
  0
LINE
  5
372
330
1F
100
AcDbEntity
  8
C-A
  6
Continuous
 62
     6
370
     9
100
AcDbLine
 10
-203.9263892818138
 20
552.1483055320948
 30
0.0
 11
-202.4266565168222
 21
552.1483055320948
 31
0.0
  0
LINE
  5
373
330
1F
100
AcDbEntity
  8
C-A
  6
Continuous
 62
     6
370
     9
100
AcDbLine
 10
-205.9266928079961
 20
544.1484523463896
 30
0.0
 11
-200.4263529906399
 21
544.1484523463896
 31
0.0
  0
LINE
  5
374
330
1F
100
AcDbEntity
  8
C-A
  6
Continuous
 62
     6
370
     9
100
AcDbLine
 10
-206.5668196291531
 20
543.6480053051099
 30
0.0
 11
-204.3168493219321
 21
552.648257693729
 31
0.0
  0
LINE
  5
375
330
1F
100
AcDbEntity
  8
C-A
  6
Continuous
 62
     6
370
     9
100
AcDbLine
 10
-202.0361964767039
 20
552.648257693729
 30
0.0
 11
-199.7857312898373
 21
543.6480053051099
 31
0.0
  0
LINE
  5
376
330
1F
100
AcDbEntity
  8
C-A
  6
Continuous
 62
     6
370
     9
100
AcDbLine
 10
-190.4263199986633
 20
544.1484523463896
 30
0.0
 11
-192.4266235248459
 21
552.1483055320948
 31
0.0
  0
LINE
  5
377
330
1F
100
AcDbEntity
  8
C-A
  6
Continuous
 62
     6
370
     9
100
AcDbLine
 10
-188.9265872336719
 20
544.1484523463896
 30
0.0
 11
-186.926531147312
 21
552.1483055320948
 31
0.0
  0
LINE
  5
378
330
1F
100
AcDbEntity
  8
C-A
  6
Continuous
 62
     6
370
     9
100
AcDbLine
 10
-190.4263199986633
 20
544.1484523463896
 30
0.0
 11
-188.9265872336719
 21
544.1484523463896
 31
0.0
  0
LINE
  5
379
330
1F
100
AcDbEntity
  8
C-A
  6
Continuous
 62
     6
370
     9
100
AcDbLine
 10
-192.4266235248459
 20
552.1483055320948
 30
0.0
 11
-186.926531147312
 21
552.1483055320948
 31
0.0
  0
LINE
  5
37A
330
1F
100
AcDbEntity
  8
C-A
  6
Continuous
 62
     6
370
     9
100
AcDbLine
 10
-190.8167800387815
 20
543.6480053051099
 30
0.0
 11
-193.0667503460029
 21
552.648257693729
 31
0.0
  0
LINE
  5
37B
330
1F
100
AcDbEntity
  8
C-A
  6
Continuous
 62
     6
370
     9
100
AcDbLine
 10
-188.5361271935537
 20
543.6480053051099
 30
0.0
 11
-186.2861568863323
 21
552.648257693729
 31
0.0
  0
LINE
  5
37C
330
1F
100
AcDbEntity
  8
C-A
  6
Continuous
 62
     6
370
     9
100
AcDbLine
 10
-190.8167800387815
 20
543.6480053051099
 30
0.0
 11
-190.4263199986633
 21
544.1484523463896
 31
0.0
  0
LINE
  5
37D
330
1F
100
AcDbEntity
  8
C-A
  6
Continuous
 62
     6
370
     9
100
AcDbLine
 10
-188.5361271935537
 20
543.6480053051099
 30
0.0
 11
-188.9265872336719
 21
544.1484523463896
 31
0.0
  0
LINE
  5
37E
330
1F
100
AcDbEntity
  8
C-A
  6
Continuous
 62
     6
370
     9
100
AcDbLine
 10
-186.926531147312
 20
552.1483055320948
 30
0.0
 11
-186.2861568863323
 21
552.648257693729
 31
0.0
  0
LINE
  5
37F
330
1F
100
AcDbEntity
  8
C-A
  6
Continuous
 62
     6
370
     9
100
AcDbLine
 10
-193.0667503460029
 20
552.648257693729
 30
0.0
 11
-192.4266235248459
 21
552.1483055320948
 31
0.0
  0
LINE
  5
380
330
1F
100
AcDbEntity
  8
C-A
  6
Continuous
 62
     6
370
     9
100
AcDbLine
 10
-205.9266928079961
 20
544.1484523463896
 30
0.0
 11
-203.9263892818138
 21
552.1483055320948
 31
0.0
  0
LINE
  5
381
330
1F
100
AcDbEntity
  8
C-A
  6
Continuous
 62
     6
370
     9
100
AcDbLine
 10
-206.5668196291531
 20
543.6480053051099
 30
0.0
 11
-205.9266928079961
 21
544.1484523463896
 31
0.0
  0
LINE
  5
382
330
1F
100
AcDbEntity
  8
C-A
  6
Continuous
 62
     6
370
     9
100
AcDbLine
 10
-200.4263529906399
 20
544.1484523463896
 30
0.0
 11
-199.7857312898373
 21
543.6480053051099
 31
0.0
  0
LINE
  5
383
330
1F
100
AcDbEntity
  8
C-A
  6
Continuous
 62
     6
370
     9
100
AcDbLine
 10
-202.4266565168222
 20
552.1483055320948
 30
0.0
 11
-202.0361964767039
 21
552.648257693729
 31
0.0
  0
LINE
  5
384
330
1F
100
AcDbEntity
  8
C-A
  6
Continuous
 62
     6
370
     9
100
AcDbLine
 10
-204.3168493219321
 20
552.648257693729
 30
0.0
 11
-203.9263892818138
 21
552.1483055320948
 31
0.0
  0
LINE
  5
385
330
1F
100
AcDbEntity
  8
C-A
  6
Continuous
 62
     6
370
     9
100
AcDbLine
 10
-190.4263199986633
 20
559.1487492741766
 30
0.0
 11
-192.4266235248459
 21
567.1486024598818
 31
0.0
  0
LINE
  5
386
330
1F
100
AcDbEntity
  8
C-A
  6
Continuous
 62
     6
370
     9
100
AcDbLine
 10
-188.9265872336719
 20
559.1487492741766
 30
0.0
 11
-186.926531147312
 21
567.1486024598818
 31
0.0
  0
LINE
  5
387
330
1F
100
AcDbEntity
  8
C-A
  6
Continuous
 62
     6
370
     9
100
AcDbLine
 10
-190.4263199986633
 20
559.1487492741766
 30
0.0
 11
-188.9265872336719
 21
559.1487492741766
 31
0.0
  0
LINE
  5
388
330
1F
100
AcDbEntity
  8
C-A
  6
Continuous
 62
     6
370
     9
100
AcDbLine
 10
-192.4266235248459
 20
567.1486024598818
 30
0.0
 11
-186.926531147312
 21
567.1486024598818
 31
0.0
  0
LINE
  5
389
330
1F
100
AcDbEntity
  8
C-A
  6
Continuous
 62
     6
370
     9
100
AcDbLine
 10
-190.8167800387815
 20
558.6483022328971
 30
0.0
 11
-193.0667503460029
 21
567.6485546215162
 31
0.0
  0
LINE
  5
38A
330
1F
100
AcDbEntity
  8
C-A
  6
Continuous
 62
     6
370
     9
100
AcDbLine
 10
-188.5361271935537
 20
558.6483022328971
 30
0.0
 11
-186.2861568863323
 21
567.6485546215162
 31
0.0
  0
LINE
  5
38B
330
1F
100
AcDbEntity
  8
C-A
  6
Continuous
 62
     6
370
     9
100
AcDbLine
 10
-190.8167800387815
 20
558.6483022328971
 30
0.0
 11
-190.4263199986633
 21
559.1487492741766
 31
0.0
  0
LINE
  5
38C
330
1F
100
AcDbEntity
  8
C-A
  6
Continuous
 62
     6
370
     9
100
AcDbLine
 10
-188.5361271935537
 20
558.6483022328971
 30
0.0
 11
-188.9265872336719
 21
559.1487492741766
 31
0.0
  0
LINE
  5
38D
330
1F
100
AcDbEntity
  8
C-A
  6
Continuous
 62
     6
370
     9
100
AcDbLine
 10
-186.926531147312
 20
567.1486024598818
 30
0.0
 11
-186.2861568863323
 21
567.6485546215162
 31
0.0
  0
LINE
  5
38E
330
1F
100
AcDbEntity
  8
C-A
  6
Continuous
 62
     6
370
     9
100
AcDbLine
 10
-193.0667503460029
 20
567.6485546215162
 30
0.0
 11
-192.4266235248459
 21
567.1486024598818
 31
0.0
  0
LINE
  5
38F
330
1F
100
AcDbEntity
  8
C-4
  6
Continuous
 62
     7
370
     9
100
AcDbLine
 10
-630.2134887592208
 20
1086.146702122044
 30
0.0
 11
-180.2132413193982
 21
1086.146702122044
 31
0.0
  0
LINE
  5
390
330
1F
100
AcDbEntity
  8
C-4
  6
Continuous
 62
     7
370
     9
100
AcDbLine
 10
-630.2134887592208
 20
971.1475599134292
 30
0.0
 11
-630.2134887592208
 21
1089.146662531673
 31
0.0
  0
LINE
  5
391
330
1F
100
AcDbEntity
  8
C-4
  6
Continuous
 62
     7
370
     9
100
AcDbLine
 10
-180.2132413193982
 20
971.1475599134292
 30
0.0
 11
-180.2132413193982
 21
1089.146662531673
 31
0.0
  0
LINE
  5
392
330
1F
100
AcDbEntity
  8
C-4
  6
Continuous
 62
     7
370
     9
100
AcDbLine
 10
-636.2134095784777
 20
1141.146636138091
 30
0.0
 11
-174.2138153797868
 21
1141.146636138091
 31
0.0
  0
LINE
  5
393
330
1F
100
AcDbEntity
  8
C-4
  6
Continuous
 62
     7
370
     9
100
AcDbLine
 10
-174.2138153797868
 20
971.1475599134292
 30
0.0
 11
-174.2138153797868
 21
1144.14659654772
 31
0.0
  0
LINE
  5
394
330
1F
100
AcDbEntity
  8
C-4
  6
Continuous
 62
     7
370
     9
100
AcDbLine
 10
-605.2136537191027
 20
1031.147262985642
 30
0.0
 11
-205.2130763595164
 21
1031.147262985642
 31
0.0
  0
LINE
  5
395
330
1F
100
AcDbEntity
  8
C-4
  6
Continuous
 62
     7
370
     9
100
AcDbLine
 10
-605.2136537191027
 20
971.1475599134292
 30
0.0
 11
-605.2136537191027
 21
1034.14722339527
 31
0.0
  0
LINE
  5
396
330
1F
100
AcDbEntity
  8
C-4
  6
Continuous
 62
     7
370
     9
100
AcDbLine
 10
-205.2130763595164
 20
971.1475599134292
 30
0.0
 11
-205.2130763595164
 21
1034.14722339527
 31
0.0
  0
LINE
  5
397
330
1F
100
AcDbEntity
  8
C-4
  6
Continuous
 62
     7
370
     9
100
AcDbLine
 10
-630.2134887592208
 20
1031.147262985642
 30
0.0
 11
-605.2136537191027
 21
1031.147262985642
 31
0.0
  0
LINE
  5
398
330
1F
100
AcDbEntity
  8
C-4
  6
Continuous
 62
     7
370
     9
100
AcDbLine
 10
-630.2134887592208
 20
1031.147262985642
 30
0.0
 11
-630.2134887592208
 21
1028.147302576014
 31
0.0
  0
LINE
  5
399
330
1F
100
AcDbEntity
  8
C-4
  6
Continuous
 62
     7
370
     9
100
AcDbLine
 10
-205.2130763595164
 20
1031.147262985642
 30
0.0
 11
-180.2137361990435
 21
1031.147262985642
 31
0.0
  0
LINE
  5
39A
330
1F
100
AcDbEntity
  8
C-4
  6
Continuous
 62
     7
370
     9
100
AcDbLine
 10
-180.2137361990435
 20
1031.147262985642
 30
0.0
 11
-180.2137361990435
 21
1028.147302576014
 31
0.0
  0
LINE
  5
39B
330
1F
100
AcDbEntity
  8
C-4
  6
Continuous
 62
     7
370
     9
100
AcDbLine
 10
-630.2134887592208
 20
1086.146702122044
 30
0.0
 11
-631.2138879621347
 21
1086.146702122044
 31
0.0
  0
LINE
  5
39C
330
1F
100
AcDbEntity
  8
C-4
  6
Continuous
 62
     7
370
     9
100
AcDbLine
 10
-631.2138879621347
 20
971.1475599134292
 30
0.0
 11
-631.2138879621347
 21
1089.146662531673
 31
0.0
  0
LINE
  5
39D
330
1F
100
AcDbEntity
  8
C-4
  6
Continuous
 62
     7
370
     9
100
AcDbLine
 10
-636.2134095784777
 20
971.1475599134292
 30
0.0
 11
-636.2134095784777
 21
1089.146662531673
 31
0.0
  0
LINE
  5
39E
330
1F
100
AcDbEntity
  8
C-4
  6
Continuous
 62
     7
370
     9
100
AcDbLine
 10
-180.2132413193982
 20
1086.146702122044
 30
0.0
 11
-179.2135844359524
 21
1086.146702122044
 31
0.0
  0
LINE
  5
39F
330
1F
100
AcDbEntity
  8
C-4
  6
Continuous
 62
     7
370
     9
100
AcDbLine
 10
-179.2135844359524
 20
971.1475599134292
 30
0.0
 11
-179.2135844359524
 21
1089.146662531673
 31
0.0
  0
LINE
  5
3A0
330
1F
100
AcDbEntity
  8
C-4
  6
Continuous
 62
     7
370
     9
100
AcDbLine
 10
-174.2138153797868
 20
971.1475599134292
 30
0.0
 11
-174.2138153797868
 21
1089.146662531673
 31
0.0
  0
LINE
  5
3A1
330
1F
100
AcDbEntity
  8
C-4
  6
Continuous
 62
     7
370
     9
100
AcDbLine
 10
-631.2138879621347
 20
1086.146702122044
 30
0.0
 11
-677.5304162824472
 21
1086.146702122044
 31
0.0
  0
LINE
  5
3A2
330
1F
100
AcDbEntity
  8
C-4
  6
Continuous
 62
     7
370
     9
100
AcDbLine
 10
-179.2135844359524
 20
1086.146702122044
 30
0.0
 11
-129.4628388172868
 21
1086.146702122044
 31
0.0
  0
LINE
  5
3A3
330
1F
100
AcDbEntity
  8
C-4
  6
Continuous
 62
     7
370
     9
100
AcDbLine
 10
-636.2134095784777
 20
971.1475599134292
 30
0.0
 11
-636.2134095784777
 21
1144.14659654772
 31
0.0
  0
ARC
  5
3A4
330
1F
100
AcDbEntity
  8
C-2
  6
Continuous
 62
     3
370
     9
100
AcDbCircle
 10
588.0554882255763
 20
790.6426836993245
 30
0.0
 40
75.00027836980047
100
AcDbArc
 50
53.13009643554688
 51
126.8699035644531
  0
ARC
  5
3A5
330
1F
100
AcDbEntity
  8
C-2
  6
Continuous
 62
     3
370
     9
100
AcDbCircle
 10
678.0565274728315
 20
910.6430796030406
 30
0.0
 40
75.00027836980047
100
AcDbArc
 50
233.1300964355469
 51
306.8699035644531
  0
ARC
  5
3A6
330
1F
100
AcDbEntity
  8
C-2
  6
Continuous
 62
     3
370
     9
100
AcDbCircle
 10
588.0554882255763
 20
385.437951990076
 30
0.0
 40
75.00027836980047
100
AcDbArc
 50
53.13009643554688
 51
126.8699035644531
  0
ARC
  5
3A7
330
1F
100
AcDbEntity
  8
C-2
  6
Continuous
 62
     3
370
     9
100
AcDbCircle
 10
678.0565274728315
 20
505.4384716137037
 30
0.0
 40
75.00027836980047
100
AcDbArc
 50
233.1300964355469
 51
306.8699035644531
  0
TEXT
  5
3A8
330
1F
100
AcDbEntity
  8
C-5
  6
Continuous
 62
     7
370
     9
100
AcDbText
 10
250.828686533748
 20
328.8283144399284
 30
0.0
 40
22.86
  1
※デルタパターンの配列は一定ではありません。
 41
1.159090909090909
  7
ＭＳ ゴシック
100
AcDbText
  0
TEXT
  5
3A9
330
1F
100
AcDbEntity
  8
C-5
  6
Continuous
 62
     7
370
     9
100
AcDbText
 10
410.750008918144
 20
386.6658883419552
 30
0.0
 40
22.86
  1
メインバー表面　Ｓ＝１：１
 41
1.153846153846154
  7
ＭＳ ゴシック
100
AcDbText
  0
TEXT
  5
3AA
330
1F
100
AcDbEntity
  8
C-5
  6
Continuous
 62
     7
370
     9
100
AcDbText
 10
718.0042269423205
 20
769.6555964949325
 30
0.0
 40
22.86
  1
デルタパターン
 41
1.142857142857143
  7
ＭＳ ゴシック
100
AcDbText
  0
TEXT
  5
3AB
330
1F
100
AcDbEntity
  8
C-4
  6
Continuous
 62
     2
370
     9
100
AcDbText
 10
482.2753548060242
 20
440.1088982659418
 30
0.0
 40
30.48
  1
1.5
 50
90.0
 41
1.083333333333333
  7
ＭＳ ゴシック
100
AcDbText
  0
TEXT
  5
3AC
330
1F
100
AcDbEntity
  8
C-4
  6
Continuous
 62
     2
370
     9
100
AcDbText
 10
482.2753548060242
 20
549.3928857751796
 30
0.0
 40
30.48
  1
10
 50
90.0
 41
1.0625
  7
ＭＳ ゴシック
100
AcDbText
  0
TEXT
  5
3AD
330
1F
100
AcDbEntity
  8
C-4
  6
Continuous
 62
     2
370
     9
100
AcDbText
 10
482.2753548060242
 20
615.643574482686
 30
0.0
 40
30.48
  1
5.5
 50
90.0
 41
1.083333333333333
  7
ＭＳ ゴシック
100
AcDbText
  0
TEXT
  5
3AE
330
1F
100
AcDbEntity
  8
C-4
  6
Continuous
 62
     2
370
     9
100
AcDbText
 10
482.2753548060242
 20
704.3930878510348
 30
0.0
 40
30.48
  1
10
 50
90.0
 41
1.0625
  7
ＭＳ ゴシック
100
AcDbText
  0
TEXT
  5
3AF
330
1F
100
AcDbEntity
  8
C-4
  6
Continuous
 62
     2
370
     9
100
AcDbText
 10
482.2753548060242
 20
794.7259191564614
 30
0.0
 40
30.48
  1
1.5
 50
90.0
 41
1.083333333333333
  7
ＭＳ ゴシック
100
AcDbText
  0
TEXT
  5
3B0
330
1F
100
AcDbEntity
  8
C-4
  6
Continuous
 62
     2
370
     9
100
AcDbText
 10
623.0558841292927
 20
917.1728732052367
 30
0.0
 40
30.48
  1
9
 41
0.9999999999999998
  7
ＭＳ ゴシック
100
AcDbText
  0
TEXT
  5
3B1
330
1F
100
AcDbEntity
  8
C-4
  6
Continuous
 62
     2
370
     9
100
AcDbText
 10
745.377260673648
 20
649.0574033299555
 30
0.0
 40
30.48
  1
0.5
 50
75.96391523163703
 41
1.083333333333334
  7
ＭＳ ゴシック
100
AcDbText
  0
TEXT
  5
3B2
330
1F
100
AcDbEntity
  8
C-5
  6
Continuous
 62
     2
370
     9
100
AcDbText
 10
-651.2822308411465
 20
323.5152507390203
 30
0.0
 40
30.48
  1
平面詳細図　Ｓ＝１：１０
 41
1.114583333333333
  7
ＭＳ ゴシック
100
AcDbText
  0
TEXT
  5
3B3
330
1F
100
AcDbEntity
  8
C-4
  6
Continuous
 62
     2
370
     9
100
AcDbText
 10
-604.3461214529498
 20
1041.787032041808
 30
0.0
 40
30.48
  1
25
 41
1.0625
  7
ＭＳ ゴシック
100
AcDbText
  0
TEXT
  5
3B4
330
1F
100
AcDbEntity
  8
C-4
  6
Continuous
 62
     2
370
     9
100
AcDbText
 10
-252.5938351089886
 20
1041.787032041808
 30
0.0
 40
30.48
  1
25
 41
1.0625
  7
ＭＳ ゴシック
100
AcDbText
  0
TEXT
  5
3B5
330
1F
100
AcDbEntity
  8
C-4
  6
Continuous
 62
     2
370
     9
100
AcDbText
 10
-620.8437138634754
 20
1096.786471178209
 30
0.0
 40
30.48
  1
1
 41
0.9999999999999998
  7
ＭＳ ゴシック
100
AcDbText
  0
TEXT
  5
3B6
330
1F
100
AcDbEntity
  8
C-4
  6
Continuous
 62
     2
370
     9
100
AcDbText
 10
-214.1216113828318
 20
1096.786471178135
 30
0.0
 40
30.48
  1
1
 50
359.9992911350777
 41
0.9999999999999989
  7
ＭＳ ゴシック
100
AcDbText
  0
TEXT
  5
3B7
330
1F
100
AcDbEntity
  8
C-1
  6
Continuous
 62
     2
370
     9
100
AcDbText
 10
-160.0637505505533
 20
1096.786471178209
 30
0.0
 40
30.48
  1
5
 41
0.9999999999999998
  7
ＭＳ ゴシック
100
AcDbText
  0
TEXT
  5
3B8
330
1F
100
AcDbEntity
  8
C-1
  6
Continuous
 62
     2
370
     9
100
AcDbText
 10
-666.3575473991596
 20
1096.786471178209
 30
0.0
 40
30.48
  1
5
 41
0.9999999999999998
  7
ＭＳ ゴシック
100
AcDbText
  0
TEXT
  5
3B9
330
1F
100
AcDbEntity
  8
C-4
  6
Continuous
 62
     2
370
     9
100
AcDbText
 10
-460.2135759924508
 20
1041.786784601909
 30
0.0
 40
30.48
  1
□400
 50
0.00025776833788
 41
1.1
  7
ＭＳ ゴシック
100
AcDbText
  0
TEXT
  5
3BA
330
1F
100
AcDbEntity
  8
C-4
  6
Continuous
 62
     2
370
     9
100
AcDbText
 10
-460.2135759924508
 20
1096.786223738311
 30
0.0
 40
30.48
  1
□450
 50
0.00025776833788
 41
1.1
  7
ＭＳ ゴシック
100
AcDbText
  0
TEXT
  5
3BB
330
1F
100
AcDbEntity
  8
C-1
  6
Continuous
 62
     2
370
     9
100
AcDbText
 10
-460.2138234322734
 20
1151.786157754359
 30
0.0
 40
30.48
  1
□462
 50
0.00025776833788
 41
1.1
  7
ＭＳ ゴシック
100
AcDbText
  0
LWPOLYLINE
  5
3BC
330
1F
100
AcDbEntity
  8
C-4
  6
Continuous
 62
     7
370
     9
100
AcDbPolyline
 90
        4
 70
     1
 43
1.0
 10
493.4151238621895
 20
505.6431043470229
 42
0.4142135623731
 10
492.9151238621895
 20
506.1431043470229
 42
0.4142135623731
 10
492.4151238621896
 20
505.6431043470229
 42
0.4142135623731
 10
492.9151238621895
 20
505.1431043470229
 42
0.4142135623731
  0
LWPOLYLINE
  5
3BD
330
1F
100
AcDbEntity
  8
C-4
  6
Continuous
 62
     7
370
     9
100
AcDbPolyline
 90
        4
 70
     1
 43
1.0
 10
493.4151238621895
 20
520.6429063951648
 42
0.4142135623731
 10
492.9151238621895
 20
521.1429063951648
 42
0.4142135623731
 10
492.4151238621896
 20
520.6429063951648
 42
0.4142135623731
 10
492.9151238621895
 20
520.1429063951649
 42
0.4142135623731
  0
LWPOLYLINE
  5
3BE
330
1F
100
AcDbEntity
  8
C-4
  6
Continuous
 62
     7
370
     9
100
AcDbPolyline
 90
        4
 70
     1
 43
1.0
 10
493.4151238621895
 20
620.6433600348396
 42
0.4142135623731
 10
492.9151238621895
 20
621.1433600348396
 42
0.4142135623731
 10
492.4151238621896
 20
620.6433600348396
 42
0.4142135623731
 10
492.9151238621895
 20
620.1433600348396
 42
0.4142135623731
  0
LWPOLYLINE
  5
3BF
330
1F
100
AcDbEntity
  8
C-4
  6
Continuous
 62
     7
370
     9
100
AcDbPolyline
 90
        4
 70
     1
 43
1.0
 10
493.4151238621895
 20
675.6435414907096
 42
0.4142135623731
 10
492.9151238621895
 20
676.1435414907096
 42
0.4142135623731
 10
492.4151238621896
 20
675.6435414907096
 42
0.4142135623731
 10
492.9151238621895
 20
675.1435414907097
 42
0.4142135623731
  0
LWPOLYLINE
  5
3C0
330
1F
100
AcDbEntity
  8
C-4
  6
Continuous
 62
     7
370
     9
100
AcDbPolyline
 90
        4
 70
     1
 43
1.0
 10
493.4151238621895
 20
775.6428816511825
 42
0.4142135623731
 10
492.9151238621895
 20
776.1428816511825
 42
0.4142135623731
 10
492.4151238621896
 20
775.6428816511825
 42
0.4142135623731
 10
492.9151238621895
 20
775.1428816511826
 42
0.4142135623731
  0
LWPOLYLINE
  5
3C1
330
1F
100
AcDbEntity
  8
C-4
  6
Continuous
 62
     7
370
     9
100
AcDbPolyline
 90
        4
 70
     1
 43
1.0
 10
493.4151238621895
 20
790.6431785789698
 42
0.4142135623731
 10
492.9151238621895
 20
791.1431785789698
 42
0.4142135623731
 10
492.4151238621896
 20
790.6431785789698
 42
0.4142135623731
 10
492.9151238621895
 20
790.1431785789698
 42
0.4142135623731
  0
LWPOLYLINE
  5
3C2
330
1F
100
AcDbEntity
  8
C-4
  6
Continuous
 62
     7
370
     9
100
AcDbPolyline
 90
        4
 70
     1
 43
1.0
 10
588.5554882255763
 20
906.533104149071
 42
0.4142135623731
 10
588.0554882255763
 20
907.033104149071
 42
0.4142135623731
 10
587.5554882255763
 20
906.533104149071
 42
0.4142135623731
 10
588.0554882255763
 20
906.0331041490712
 42
0.4142135623731
  0
LWPOLYLINE
  5
3C3
330
1F
100
AcDbEntity
  8
C-4
  6
Continuous
 62
     7
370
     9
100
AcDbPolyline
 90
        4
 70
     1
 43
1.0
 10
678.5565274728315
 20
906.533104149071
 42
0.4142135623731
 10
678.0565274728315
 20
907.033104149071
 42
0.4142135623731
 10
677.5565274728315
 20
906.533104149071
 42
0.4142135623731
 10
678.0565274728315
 20
906.0331041490712
 42
0.4142135623731
  0
LWPOLYLINE
  5
3C4
330
1F
100
AcDbEntity
  8
C-4
  6
Continuous
 62
     7
370
     9
100
AcDbPolyline
 90
        4
 70
     1
 43
1.0
 10
753.4137546951711
 20
635.6785459776182
 42
0.4142135623731
 10
752.9137546951711
 20
636.1785459776182
 42
0.4142135623731
 10
752.4137546951711
 20
635.6785459776182
 42
0.4142135623731
 10
752.9137546951711
 20
635.1785459776182
 42
0.4142135623731
  0
LWPOLYLINE
  5
3C5
330
1F
100
AcDbEntity
  8
C-4
  6
Continuous
 62
     7
370
     9
100
AcDbPolyline
 90
        4
 70
     1
 43
1.0
 10
754.6267047057283
 20
640.5288613809123
 42
0.4142135623731
 10
754.1267047057283
 20
641.0288613809122
 42
0.4142135623731
 10
753.6267047057283
 20
640.5288613809123
 42
0.4142135623731
 10
754.1267047057283
 20
640.0288613809123
 42
0.4142135623731
  0
LWPOLYLINE
  5
3C6
330
1F
100
AcDbEntity
  8
C-4
  6
Continuous
 62
     7
370
     9
100
AcDbPolyline
 90
        4
 70
     1
 43
1.0
 10
-629.7134887592209
 20
1086.146702122044
 42
0.4142135623731
 10
-630.2134887592208
 20
1086.646702122044
 42
0.4142135623731
 10
-630.7134887592208
 20
1086.146702122044
 42
0.4142135623731
 10
-630.2134887592208
 20
1085.646702122044
 42
0.4142135623731
  0
LWPOLYLINE
  5
3C7
330
1F
100
AcDbEntity
  8
C-4
  6
Continuous
 62
     7
370
     9
100
AcDbPolyline
 90
        4
 70
     1
 43
1.0
 10
-179.7132413193982
 20
1086.146702122044
 42
0.4142135623731
 10
-180.2132413193982
 20
1086.646702122044
 42
0.4142135623731
 10
-180.7132413193982
 20
1086.146702122044
 42
0.4142135623731
 10
-180.2132413193982
 20
1085.646702122044
 42
0.4142135623731
  0
LWPOLYLINE
  5
3C8
330
1F
100
AcDbEntity
  8
C-4
  6
Continuous
 62
     7
370
     9
100
AcDbPolyline
 90
        4
 70
     1
 43
1.0
 10
-635.7134095784777
 20
1141.146636138091
 42
0.4142135623731
 10
-636.2134095784777
 20
1141.646636138091
 42
0.4142135623731
 10
-636.7134095784776
 20
1141.146636138091
 42
0.4142135623731
 10
-636.2134095784777
 20
1140.646636138091
 42
0.4142135623731
  0
LWPOLYLINE
  5
3C9
330
1F
100
AcDbEntity
  8
C-4
  6
Continuous
 62
     7
370
     9
100
AcDbPolyline
 90
        4
 70
     1
 43
1.0
 10
-173.7138153797868
 20
1141.146636138091
 42
0.4142135623731
 10
-174.2138153797868
 20
1141.646636138091
 42
0.4142135623731
 10
-174.7138153797868
 20
1141.146636138091
 42
0.4142135623731
 10
-174.2138153797868
 20
1140.646636138091
 42
0.4142135623731
  0
LWPOLYLINE
  5
3CA
330
1F
100
AcDbEntity
  8
C-4
  6
Continuous
 62
     7
370
     9
100
AcDbPolyline
 90
        4
 70
     1
 43
1.0
 10
-604.7136537191027
 20
1031.147262985642
 42
0.4142135623731
 10
-605.2136537191027
 20
1031.647262985642
 42
0.4142135623731
 10
-605.7136537191026
 20
1031.147262985642
 42
0.4142135623731
 10
-605.2136537191027
 20
1030.647262985642
 42
0.4142135623731
  0
LWPOLYLINE
  5
3CB
330
1F
100
AcDbEntity
  8
C-4
  6
Continuous
 62
     7
370
     9
100
AcDbPolyline
 90
        4
 70
     1
 43
1.0
 10
-204.7130763595164
 20
1031.147262985642
 42
0.4142135623731
 10
-205.2130763595164
 20
1031.647262985642
 42
0.4142135623731
 10
-205.7130763595164
 20
1031.147262985642
 42
0.4142135623731
 10
-205.2130763595164
 20
1030.647262985642
 42
0.4142135623731
  0
LWPOLYLINE
  5
3CC
330
1F
100
AcDbEntity
  8
C-4
  6
Continuous
 62
     7
370
     9
100
AcDbPolyline
 90
        4
 70
     1
 43
1.0
 10
-629.7134887592209
 20
1031.147262985642
 42
0.4142135623731
 10
-630.2134887592208
 20
1031.647262985642
 42
0.4142135623731
 10
-630.7134887592208
 20
1031.147262985642
 42
0.4142135623731
 10
-630.2134887592208
 20
1030.647262985642
 42
0.4142135623731
  0
LWPOLYLINE
  5
3CD
330
1F
100
AcDbEntity
  8
C-4
  6
Continuous
 62
     7
370
     9
100
AcDbPolyline
 90
        4
 70
     1
 43
1.0
 10
-179.7137361990435
 20
1031.147262985642
 42
0.4142135623731
 10
-180.2137361990435
 20
1031.647262985642
 42
0.4142135623731
 10
-180.7137361990435
 20
1031.147262985642
 42
0.4142135623731
 10
-180.2137361990435
 20
1030.647262985642
 42
0.4142135623731
  0
LWPOLYLINE
  5
3CE
330
1F
100
AcDbEntity
  8
C-4
  6
Continuous
 62
     7
370
     9
100
AcDbPolyline
 90
        4
 70
     1
 43
1.0
 10
-630.7138879621347
 20
1086.146702122044
 42
0.4142135623731
 10
-631.2138879621347
 20
1086.646702122044
 42
0.4142135623731
 10
-631.7138879621347
 20
1086.146702122044
 42
0.4142135623731
 10
-631.2138879621347
 20
1085.646702122044
 42
0.4142135623731
  0
LWPOLYLINE
  5
3CF
330
1F
100
AcDbEntity
  8
C-4
  6
Continuous
 62
     7
370
     9
100
AcDbPolyline
 90
        4
 70
     1
 43
1.0
 10
-635.7134095784777
 20
1086.146702122044
 42
0.4142135623731
 10
-636.2134095784777
 20
1086.646702122044
 42
0.4142135623731
 10
-636.7134095784776
 20
1086.146702122044
 42
0.4142135623731
 10
-636.2134095784777
 20
1085.646702122044
 42
0.4142135623731
  0
LWPOLYLINE
  5
3D0
330
1F
100
AcDbEntity
  8
C-4
  6
Continuous
 62
     7
370
     9
100
AcDbPolyline
 90
        4
 70
     1
 43
1.0
 10
-178.7135844359524
 20
1086.146702122044
 42
0.4142135623731
 10
-179.2135844359524
 20
1086.646702122044
 42
0.4142135623731
 10
-179.7135844359524
 20
1086.146702122044
 42
0.4142135623731
 10
-179.2135844359524
 20
1085.646702122044
 42
0.4142135623731
  0
LWPOLYLINE
  5
3D1
330
1F
100
AcDbEntity
  8
C-4
  6
Continuous
 62
     7
370
     9
100
AcDbPolyline
 90
        4
 70
     1
 43
1.0
 10
-173.7138153797868
 20
1086.146702122044
 42
0.4142135623731
 10
-174.2138153797868
 20
1086.646702122044
 42
0.4142135623731
 10
-174.7138153797868
 20
1086.146702122044
 42
0.4142135623731
 10
-174.2138153797868
 20
1085.646702122044
 42
0.4142135623731
  0
TEXT
  5
3D2
330
1F
100
AcDbEntity
  8
D-5
  6
Continuous
 62
     2
370
     9
100
AcDbText
 10
327.6797113028686
 20
-430.2916398210496
 30
0.0
 40
30.48
  1
グレーチング（すきま６mm）ＤＱ－Ｗ－Ａ－１５　４５０×４５０×１５
 50
359.9999961168467
 41
1.121212121212121
  7
ＭＳ ゴシック
100
AcDbText
  0
TEXT
  5
3D3
330
1F
100
AcDbEntity
  8
D-4
  6
Continuous
 62
     2
370
     9
100
AcDbText
 10
-1248.32845789272
 20
23.67505792337177
 30
0.0
 40
30.48
  1
□462
 41
1.1
  7
ＭＳ ゴシック
100
AcDbText
  0
TEXT
  5
3D4
330
1F
100
AcDbEntity
  8
D-4
  6
Continuous
 62
     2
370
     9
100
AcDbText
 10
-1248.32845789272
 20
-87.06317053946599
 30
0.0
 40
30.48
  1
□450
 41
1.1
  7
ＭＳ ゴシック
100
AcDbText
  0
TEXT
  5
3D5
330
1F
100
AcDbEntity
  8
D-4
  6
Continuous
 62
     2
370
     9
100
AcDbText
 10
-1248.32845789272
 20
-195.8061679924855
 30
0.0
 40
30.48
  1
□400
 41
1.1
  7
ＭＳ ゴシック
100
AcDbText
  0
LINE
  5
3D6
330
1F
100
AcDbEntity
  8
D-4
  6
Continuous
 62
     7
370
     9
100
AcDbLine
 10
-1246.750220720001
 20
-204.5918704576459
 30
0.0
 11
-674.0824407975153
 21
-204.5918704576459
 31
0.0
  0
LINE
  5
3D7
330
1F
100
AcDbEntity
  8
D-4
  6
Continuous
 62
     7
370
     9
100
AcDbLine
 10
-674.0824407975153
 20
-310.0553692884412
 30
0.0
 11
-674.0824407975153
 21
-201.5913058824506
 31
0.0
  0
LINE
  5
3D8
330
1F
100
AcDbEntity
  8
D-4
  6
Continuous
 62
     7
370
     9
100
AcDbLine
 10
-674.0824407975153
 20
-204.5918704576459
 30
0.0
 11
-549.0826029221491
 21
-204.5918704576459
 31
0.0
  0
LINE
  5
3D9
330
1F
100
AcDbEntity
  8
D-4
  6
Continuous
 62
     7
370
     9
100
AcDbLine
 10
-549.0826029221491
 20
-310.0553692884412
 30
0.0
 11
-549.0826029221491
 21
-92.83987537097602
 31
0.0
  0
LINE
  5
3DA
330
1F
100
AcDbEntity
  8
D-4
  6
Continuous
 62
     7
370
     9
100
AcDbLine
 10
-544.0823323170619
 20
-310.0553692884412
 30
0.0
 11
-544.0823323170619
 21
-92.83987537097602
 31
0.0
  0
LINE
  5
3DB
330
1F
100
AcDbEntity
  8
D-4
  6
Continuous
 62
     7
370
     9
100
AcDbLine
 10
-519.0834540764765
 20
-310.0553692884412
 30
0.0
 11
-519.0834540764765
 21
17.85678371715875
 31
0.0
  0
LINE
  5
3DC
330
1F
100
AcDbEntity
  8
D-4
  6
Continuous
 62
     7
370
     9
100
AcDbLine
 10
-674.0824407975153
 20
-885.5938769884079
 30
0.0
 11
-274.0815729538875
 21
-885.5938769884079
 31
0.0
  0
LINE
  5
3DD
330
1F
100
AcDbEntity
  8
D-4
  6
Continuous
 62
     7
370
     9
100
AcDbLine
 10
-274.0815729538875
 20
-645.3846789903607
 30
0.0
 11
-274.0815729538875
 21
-888.5934497423142
 31
0.0
  0
LINE
  5
3DE
330
1F
100
AcDbEntity
  8
D-4
  6
Continuous
 62
     7
370
     9
100
AcDbLine
 10
-674.0824407975153
 20
-731.1294986314743
 30
0.0
 11
-524.0832299630122
 21
-731.1294986314743
 31
0.0
  0
LINE
  5
3DF
330
1F
100
AcDbEntity
  8
D-4
  6
Continuous
 62
     7
370
     9
100
AcDbLine
 10
-2.397231523223411
 20
-575.5106975145306
 30
0.0
 11
-2.397231523223411
 21
-325.5110217637983
 31
0.0
  0
LINE
  5
3E0
330
1F
100
AcDbEntity
  8
D-4
  6
Continuous
 62
     7
370
     9
100
AcDbLine
 10
-98.0524057785945
 20
-325.5110217637983
 30
0.0
 11
0.6023412306828391
 21
-325.5110217637983
 31
0.0
  0
LINE
  5
3E1
330
1F
100
AcDbEntity
  8
D-6
  6
Continuous
 62
     6
370
     9
100
AcDbLine
 10
-524.0832299630122
 20
-575.5106975145306
 30
0.0
 11
-524.0832299630122
 21
-825.5103732652634
 31
0.0
  0
LINE
  5
3E2
330
1F
100
AcDbEntity
  8
D-6
  6
JWW_DASHED3
 62
     6
370
     9
100
AcDbLine
 10
-430.5813402573543
 20
-703.0106784410447
 30
0.0
 11
-430.5813402573543
 21
-575.5106975145306
 31
0.0
  0
LINE
  5
3E3
330
1F
100
AcDbEntity
  8
D-6
  6
JWW_DASHED3
 62
     6
370
     9
100
AcDbLine
 10
-385.5808824936824
 20
-575.5106975145306
 30
0.0
 11
-385.5808824936824
 21
-703.0106784410447
 31
0.0
  0
LINE
  5
3E4
330
1F
100
AcDbEntity
  8
D-6
  6
Continuous
 62
     6
370
     9
100
AcDbLine
 10
-274.0825647751765
 20
-475.5112220354047
 30
0.0
 11
-109.0815729538875
 21
-475.5112220354047
 31
0.0
  0
LINE
  5
3E5
330
1F
100
AcDbEntity
  8
D-6
  6
Continuous
 62
     6
370
     9
100
AcDbLine
 10
-274.0825647751765
 20
-475.5112220354047
 30
0.0
 11
-274.0825647751765
 21
-575.5106975145306
 31
0.0
  0
LINE
  5
3E6
330
1F
100
AcDbEntity
  8
D-4
  6
Continuous
 62
     7
370
     9
100
AcDbLine
 10
-218.3036798874812
 20
-575.5106975145306
 30
0.0
 11
0.6023412306828391
 21
-575.5106975145306
 31
0.0
  0
LINE
  5
3E7
330
1F
100
AcDbEntity
  8
D-6
  6
Continuous
 62
     6
370
     9
100
AcDbLine
 10
-524.0832299630122
 20
-575.5106975145306
 30
0.0
 11
-274.0825647751765
 21
-575.5106975145306
 31
0.0
  0
LINE
  5
3E8
330
1F
100
AcDbEntity
  8
D-6
  6
Continuous
 62
     6
370
     9
100
AcDbLine
 10
-430.5813402573543
 20
-378.0108930177656
 30
0.0
 11
-385.5808824936824
 21
-378.0108930177656
 31
0.0
  0
LINE
  5
3E9
330
1F
100
AcDbEntity
  8
D-6
  6
JWW_CENTER2
 62
     6
370
     9
100
AcDbLine
 10
-408.0811113755183
 20
-373.9316989488569
 30
0.0
 11
-408.0811113755183
 21
-703.0106784410447
 31
0.0
  0
LINE
  5
3EA
330
1F
100
AcDbEntity
  8
D-4
  6
Continuous
 62
     7
370
     9
100
AcDbLine
 10
-519.0834540764765
 20
-463.4782649583784
 30
0.0
 11
-519.0834540764765
 21
-534.8208095140424
 31
0.0
  0
LINE
  5
3EB
330
1F
100
AcDbEntity
  8
D-6
  6
Continuous
 62
     6
370
     9
100
AcDbLine
 10
-430.5813402573543
 20
-410.5106689043012
 30
0.0
 11
-430.5813402573543
 21
-378.0108930177656
 31
0.0
  0
LINE
  5
3EC
330
1F
100
AcDbEntity
  8
D-6
  6
Continuous
 62
     6
370
     9
100
AcDbLine
 10
-385.5808824936824
 20
-410.5106689043012
 30
0.0
 11
-385.5808824936824
 21
-378.0108930177656
 31
0.0
  0
LINE
  5
3ED
330
1F
100
AcDbEntity
  8
D-6
  6
Continuous
 62
     6
370
     9
100
AcDbLine
 10
-430.5813402573543
 20
-575.5106975145306
 30
0.0
 11
-430.5813402573543
 21
-460.5104114122358
 31
0.0
  0
LINE
  5
3EE
330
1F
100
AcDbEntity
  8
D-6
  6
Continuous
 62
     6
370
     9
100
AcDbLine
 10
-385.5808824936824
 20
-575.5106975145306
 30
0.0
 11
-385.5808824936824
 21
-460.5104114122358
 31
0.0
  0
LINE
  5
3EF
330
1F
100
AcDbEntity
  8
D-4
  6
Continuous
 62
     7
370
     9
100
AcDbLine
 10
-819.5649523179011
 20
-450.5108596391645
 30
0.0
 11
-819.5649523179011
 21
-325.5110217637983
 31
0.0
  0
LINE
  5
3F0
330
1F
100
AcDbEntity
  8
D-4
  6
Continuous
 62
     7
370
     9
100
AcDbLine
 10
-547.2275677959399
 20
-325.5110217637983
 30
0.0
 11
-822.5655168930964
 21
-325.5110217637983
 31
0.0
  0
LINE
  5
3F1
330
1F
100
AcDbEntity
  8
D-4
  6
Continuous
 62
     7
370
     9
100
AcDbLine
 10
-1246.750220720001
 20
14.85621914196344
 30
0.0
 11
-519.0834540764765
 21
14.85621914196344
 31
0.0
  0
LINE
  5
3F2
330
1F
100
AcDbEntity
  8
D-4
  6
Continuous
 62
     7
370
     9
100
AcDbLine
 10
-1246.750220720001
 20
-95.83944812488227
 30
0.0
 11
-482.996978227325
 21
-95.83944812488227
 31
0.0
  0
LINE
  5
3F3
330
1F
100
AcDbEntity
  8
D-4
  6
Continuous
 62
     7
370
     9
100
AcDbLine
 10
-519.0834540764765
 20
-531.8202640123334
 30
0.0
 11
-374.0830225388484
 21
-531.8202640123334
 31
0.0
  0
LINE
  5
3F4
330
1F
100
AcDbEntity
  8
D-5
  6
Continuous
 62
     2
370
     9
100
AcDbLine
 10
-1016.077765886016
 20
-1021.453175694463
 30
0.0
 11
-1016.077765886016
 21
-956.4535953111618
 31
0.0
  0
LINE
  5
3F5
330
1F
100
AcDbEntity
  8
D-5
  6
Continuous
 62
     2
370
     9
100
AcDbLine
 10
-1016.077765886016
 20
-956.4535953111618
 30
0.0
 11
-441.0773462693172
 21
-956.4535953111618
 31
0.0
  0
LINE
  5
3F6
330
1F
100
AcDbEntity
  8
D-5
  6
Continuous
 62
     2
370
     9
100
AcDbLine
 10
-441.0773462693172
 20
-956.4535953111618
 30
0.0
 11
-441.0773462693172
 21
-1021.453175694463
 31
0.0
  0
LINE
  5
3F7
330
1F
100
AcDbEntity
  8
D-5
  6
Continuous
 62
     2
370
     9
100
AcDbLine
 10
-441.0773462693172
 20
-1021.453175694463
 30
0.0
 11
-1016.077765886016
 21
-1021.453175694463
 31
0.0
  0
LINE
  5
3F8
330
1F
100
AcDbEntity
  8
D-4
  6
Continuous
 62
     7
370
     9
100
AcDbLine
 10
-674.0824407975153
 20
-850.5107165880173
 30
0.0
 11
-674.0824407975153
 21
-888.5934497423142
 31
0.0
  0
LINE
  5
3F9
330
1F
100
AcDbEntity
  8
D-5
  6
Continuous
 62
     7
370
     9
100
AcDbLine
 10
-334.7378534714656
 20
-217.4621631212202
 30
0.0
 11
-75.35499519509841
 21
-217.4621631212202
 31
0.0
  0
LINE
  5
3FA
330
1F
100
AcDbEntity
  8
D-5
  6
Continuous
 62
     7
370
     9
100
AcDbLine
 10
-526.0254687706904
 20
-325.5110217637983
 30
0.0
 11
-512.2147721688227
 21
-304.6725966043439
 31
0.0
  0
LINE
  5
3FB
330
1F
100
AcDbEntity
  8
D-5
  6
Continuous
 62
     7
370
     9
100
AcDbLine
 10
-526.0254687706904
 20
-325.5110217637983
 30
0.0
 11
-507.2917932908015
 21
-308.9569140977827
 31
0.0
  0
LINE
  5
3FC
330
1F
100
AcDbEntity
  8
D-5
  6
Continuous
 62
     7
370
     9
100
AcDbLine
 10
-384.2332071701961
 20
-162.5998927659955
 30
0.0
 11
-526.0254687706904
 21
-325.5110217637983
 31
0.0
  0
LINE
  5
3FD
330
1F
100
AcDbEntity
  8
D-5
  6
Continuous
 62
     7
370
     9
100
AcDbLine
 10
-334.7378534714656
 20
-217.4621631212202
 30
0.0
 11
-549.5661804343538
 21
-464.287858159062
 31
0.0
  0
LINE
  5
3FE
330
1F
100
AcDbEntity
  8
D-5
  6
Continuous
 62
     7
370
     9
100
AcDbLine
 10
-384.2332071701961
 20
-162.5998927659955
 30
0.0
 11
66.55715995626878
 21
-162.5998927659955
 31
0.0
  0
LINE
  5
3FF
330
1F
100
AcDbEntity
  8
D-6
  6
Continuous
 62
     6
370
     9
100
AcDbLine
 10
-274.0825647751765
 20
-522.8507854051556
 30
0.0
 11
-226.7425150315242
 21
-475.5107261247602
 31
0.0
  0
LINE
  5
400
330
1F
100
AcDbEntity
  8
D-6
  6
Continuous
 62
     6
370
     9
100
AcDbLine
 10
-524.0822405259089
 20
-772.8484775133103
 30
0.0
 11
-326.7429727951961
 21
-575.5106975145306
 31
0.0
  0
LINE
  5
401
330
1F
100
AcDbEntity
  8
D-6
  6
Continuous
 62
     6
370
     9
100
AcDbLine
 10
-524.0822405259089
 20
-786.9891406602829
 30
0.0
 11
-312.6022905747371
 21
-575.5106975145306
 31
0.0
  0
LINE
  5
402
330
1F
100
AcDbEntity
  8
D-6
  6
Continuous
 62
     6
370
     9
100
AcDbLine
 10
-274.0825647751765
 20
-536.9914676256146
 30
0.0
 11
-212.6018137375789
 21
-475.5107261247602
 31
0.0
  0
LINE
  5
403
330
1F
100
AcDbEntity
  8
D-6
  6
Continuous
 62
     6
370
     9
100
AcDbLine
 10
-524.0822405259089
 20
-801.1298419542283
 30
0.0
 11
-298.4616083542781
 21
-575.5106975145306
 31
0.0
  0
LINE
  5
404
330
1F
100
AcDbEntity
  8
D-6
  6
Continuous
 62
     6
370
     9
100
AcDbLine
 10
-274.0825647751765
 20
-551.1321498460736
 30
0.0
 11
-198.4611505906062
 21
-475.5107261247602
 31
0.0
  0
LINE
  5
405
330
1F
100
AcDbEntity
  8
D-6
  6
Continuous
 62
     6
370
     9
100
AcDbLine
 10
-184.9100870530086
 20
-825.5103732652634
 30
0.0
 11
-109.0815729538875
 21
-749.6823550767868
 31
0.0
  0
LINE
  5
406
330
1F
100
AcDbEntity
  8
D-6
  6
Continuous
 62
     6
370
     9
100
AcDbLine
 10
-199.0507501999812
 20
-825.5103732652634
 30
0.0
 11
-109.0815729538875
 21
-735.5416537828415
 31
0.0
  0
LINE
  5
407
330
1F
100
AcDbEntity
  8
D-6
  6
Continuous
 62
     6
370
     9
100
AcDbLine
 10
-170.7693857590633
 20
-825.5103732652634
 30
0.0
 11
-109.0815729538875
 21
-763.8230182237595
 31
0.0
  0
LINE
  5
408
330
1F
100
AcDbEntity
  8
D-0
  6
Continuous
 62
     7
370
     9
100
AcDbLine
 10
-247.2370714585261
 20
-346.4604331560102
 30
0.0
 11
-247.2370714585261
 21
-344.9601532525983
 31
0.0
  0
LINE
  5
409
330
1F
100
AcDbEntity
  8
D-0
  6
Continuous
 62
     7
370
     9
100
AcDbLine
 10
-247.2370714585261
 20
-344.9601532525983
 30
0.0
 11
-245.7373041550593
 21
-344.9601532525983
 31
0.0
  0
LINE
  5
40A
330
1F
100
AcDbEntity
  8
D-0
  6
Continuous
 62
     7
370
     9
100
AcDbLine
 10
-245.7373041550593
 20
-344.9601532525983
 30
0.0
 11
-245.7373041550593
 21
-346.4604331560102
 31
0.0
  0
LINE
  5
40B
330
1F
100
AcDbEntity
  8
D-0
  6
Continuous
 62
     7
370
     9
100
AcDbLine
 10
-245.7373041550593
 20
-346.4604331560102
 30
0.0
 11
-247.2370714585261
 21
-346.4604331560102
 31
0.0
  0
LINE
  5
40C
330
1F
100
AcDbEntity
  8
D-0
  6
Continuous
 62
     7
370
     9
100
AcDbLine
 10
-196.4812464158015
 20
-349.1676737375226
 30
0.0
 11
-196.4812464158015
 21
-347.6673938341108
 31
0.0
  0
LINE
  5
40D
330
1F
100
AcDbEntity
  8
D-0
  6
Continuous
 62
     7
370
     9
100
AcDbLine
 10
-196.4812464158015
 20
-347.6673938341108
 30
0.0
 11
-194.9809641282039
 21
-347.6673938341108
 31
0.0
  0
LINE
  5
40E
330
1F
100
AcDbEntity
  8
D-0
  6
Continuous
 62
     7
370
     9
100
AcDbLine
 10
-194.9809641282039
 20
-347.6673938341108
 30
0.0
 11
-194.9809641282039
 21
-349.1676737375226
 31
0.0
  0
LINE
  5
40F
330
1F
100
AcDbEntity
  8
D-0
  6
Continuous
 62
     7
370
     9
100
AcDbLine
 10
-194.9809641282039
 20
-349.1676737375226
 30
0.0
 11
-196.4812464158015
 21
-349.1676737375226
 31
0.0
  0
LINE
  5
410
330
1F
100
AcDbEntity
  8
D-0
  6
Continuous
 62
     7
370
     9
100
AcDbLine
 10
-131.5134043137508
 20
-347.1372438974348
 30
0.0
 11
-131.5134043137508
 21
-345.6369639940229
 31
0.0
  0
LINE
  5
411
330
1F
100
AcDbEntity
  8
D-0
  6
Continuous
 62
     7
370
     9
100
AcDbLine
 10
-131.5134043137508
 20
-345.6369639940229
 30
0.0
 11
-130.0136179367976
 21
-345.6369639940229
 31
0.0
  0
LINE
  5
412
330
1F
100
AcDbEntity
  8
D-0
  6
Continuous
 62
     7
370
     9
100
AcDbLine
 10
-130.0136179367976
 20
-345.6369639940229
 30
0.0
 11
-130.0136179367976
 21
-347.1372438974348
 31
0.0
  0
LINE
  5
413
330
1F
100
AcDbEntity
  8
D-0
  6
Continuous
 62
     7
370
     9
100
AcDbLine
 10
-130.0136179367976
 20
-347.1372438974348
 30
0.0
 11
-131.5134043137508
 21
-347.1372438974348
 31
0.0
  0
LINE
  5
414
330
1F
100
AcDbEntity
  8
D-0
  6
Continuous
 62
     7
370
     9
100
AcDbLine
 10
-155.8766168992
 20
-379.6211673326459
 30
0.0
 11
-155.8766168992
 21
-378.1208850450483
 31
0.0
  0
LINE
  5
415
330
1F
100
AcDbEntity
  8
D-0
  6
Continuous
 62
     7
370
     9
100
AcDbLine
 10
-155.8766168992
 20
-378.1208850450483
 30
0.0
 11
-154.3763346116023
 21
-378.1208850450483
 31
0.0
  0
LINE
  5
416
330
1F
100
AcDbEntity
  8
D-0
  6
Continuous
 62
     7
370
     9
100
AcDbLine
 10
-154.3763346116023
 20
-378.1208850450483
 30
0.0
 11
-154.3763346116023
 21
-379.6211673326459
 31
0.0
  0
LINE
  5
417
330
1F
100
AcDbEntity
  8
D-0
  6
Continuous
 62
     7
370
     9
100
AcDbLine
 10
-154.3763346116023
 20
-379.6211673326459
 30
0.0
 11
-155.8766168992
 21
-379.6211673326459
 31
0.0
  0
LINE
  5
418
330
1F
100
AcDbEntity
  8
D-0
  6
Continuous
 62
     7
370
     9
100
AcDbLine
 10
-206.4416498581843
 20
-383.5522176332441
 30
0.0
 11
-206.4416498581843
 21
-382.0519353456464
 31
0.0
  0
LINE
  5
419
330
1F
100
AcDbEntity
  8
D-0
  6
Continuous
 62
     7
370
     9
100
AcDbLine
 10
-206.4416498581843
 20
-382.0519353456464
 30
0.0
 11
-204.9419016282039
 21
-382.0519353456464
 31
0.0
  0
LINE
  5
41A
330
1F
100
AcDbEntity
  8
D-0
  6
Continuous
 62
     7
370
     9
100
AcDbLine
 10
-204.9419016282039
 20
-382.0519353456464
 30
0.0
 11
-204.9419016282039
 21
-383.5522176332441
 31
0.0
  0
LINE
  5
41B
330
1F
100
AcDbEntity
  8
D-0
  6
Continuous
 62
     7
370
     9
100
AcDbLine
 10
-204.9419016282039
 20
-383.5522176332441
 30
0.0
 11
-206.4416498581843
 21
-383.5522176332441
 31
0.0
  0
LINE
  5
41C
330
1F
100
AcDbEntity
  8
D-0
  6
Continuous
 62
     7
370
     9
100
AcDbLine
 10
-223.551177446075
 20
-417.5190784044233
 30
0.0
 11
-223.551177446075
 21
-416.0187961168256
 31
0.0
  0
LINE
  5
41D
330
1F
100
AcDbEntity
  8
D-0
  6
Continuous
 62
     7
370
     9
100
AcDbLine
 10
-223.551177446075
 20
-416.0187961168256
 30
0.0
 11
-222.05093330545
 21
-416.0187961168256
 31
0.0
  0
LINE
  5
41E
330
1F
100
AcDbEntity
  8
D-0
  6
Continuous
 62
     7
370
     9
100
AcDbLine
 10
-222.05093330545
 20
-416.0187961168256
 30
0.0
 11
-222.05093330545
 21
-417.5190784044233
 31
0.0
  0
LINE
  5
41F
330
1F
100
AcDbEntity
  8
D-0
  6
Continuous
 62
     7
370
     9
100
AcDbLine
 10
-222.05093330545
 20
-417.5190784044233
 30
0.0
 11
-223.551177446075
 21
-417.5190784044233
 31
0.0
  0
LINE
  5
420
330
1F
100
AcDbEntity
  8
D-0
  6
Continuous
 62
     7
370
     9
100
AcDbLine
 10
-254.907435838409
 20
-402.9473401613203
 30
0.0
 11
-254.907435838409
 21
-401.4470626420942
 31
0.0
  0
LINE
  5
421
330
1F
100
AcDbEntity
  8
D-0
  6
Continuous
 62
     7
370
     9
100
AcDbLine
 10
-254.907435838409
 20
-401.4470626420942
 30
0.0
 11
-253.4076494614558
 21
-401.4470626420942
 31
0.0
  0
LINE
  5
422
330
1F
100
AcDbEntity
  8
D-0
  6
Continuous
 62
     7
370
     9
100
AcDbLine
 10
-253.4076494614558
 20
-401.4470626420942
 30
0.0
 11
-253.4076494614558
 21
-402.9473401613203
 31
0.0
  0
LINE
  5
423
330
1F
100
AcDbEntity
  8
D-0
  6
Continuous
 62
     7
370
     9
100
AcDbLine
 10
-253.4076494614558
 20
-402.9473401613203
 30
0.0
 11
-254.907435838409
 21
-402.9473401613203
 31
0.0
  0
LINE
  5
424
330
1F
100
AcDbEntity
  8
D-0
  6
Continuous
 62
     7
370
     9
100
AcDbLine
 10
-265.6318468491511
 20
-444.1673709459272
 30
0.0
 11
-265.6318468491511
 21
-442.6670886583295
 31
0.0
  0
LINE
  5
425
330
1F
100
AcDbEntity
  8
D-0
  6
Continuous
 62
     7
370
     9
100
AcDbLine
 10
-265.6318468491511
 20
-442.6670886583295
 30
0.0
 11
-264.1315645615535
 21
-442.6670886583295
 31
0.0
  0
LINE
  5
426
330
1F
100
AcDbEntity
  8
D-0
  6
Continuous
 62
     7
370
     9
100
AcDbLine
 10
-264.1315645615535
 20
-442.6670886583295
 30
0.0
 11
-264.1315645615535
 21
-444.1673709459272
 31
0.0
  0
LINE
  5
427
330
1F
100
AcDbEntity
  8
D-0
  6
Continuous
 62
     7
370
     9
100
AcDbLine
 10
-264.1315645615535
 20
-444.1673709459272
 30
0.0
 11
-265.6318468491511
 21
-444.1673709459272
 31
0.0
  0
LINE
  5
428
330
1F
100
AcDbEntity
  8
D-0
  6
Continuous
 62
     7
370
     9
100
AcDbLine
 10
-228.2883829514461
 20
-452.7097465105024
 30
0.0
 11
-228.2883829514461
 21
-451.2094642229047
 31
0.0
  0
LINE
  5
429
330
1F
100
AcDbEntity
  8
D-0
  6
Continuous
 62
     7
370
     9
100
AcDbLine
 10
-228.2883829514461
 20
-451.2094642229047
 30
0.0
 11
-226.7881006638484
 21
-451.2094642229047
 31
0.0
  0
LINE
  5
42A
330
1F
100
AcDbEntity
  8
D-0
  6
Continuous
 62
     7
370
     9
100
AcDbLine
 10
-226.7881006638484
 20
-451.2094642229047
 30
0.0
 11
-226.7881006638484
 21
-452.7097465105024
 31
0.0
  0
LINE
  5
42B
330
1F
100
AcDbEntity
  8
D-0
  6
Continuous
 62
     7
370
     9
100
AcDbLine
 10
-226.7881006638484
 20
-452.7097465105024
 30
0.0
 11
-228.2883829514461
 21
-452.7097465105024
 31
0.0
  0
LINE
  5
42C
330
1F
100
AcDbEntity
  8
D-0
  6
Continuous
 62
     7
370
     9
100
AcDbLine
 10
-176.0832971970515
 20
-457.4345351762739
 30
0.0
 11
-176.0832971970515
 21
-455.9342624254194
 31
0.0
  0
LINE
  5
42D
330
1F
100
AcDbEntity
  8
D-0
  6
Continuous
 62
     7
370
     9
100
AcDbLine
 10
-176.0832971970515
 20
-455.9342624254194
 30
0.0
 11
-174.5835108200984
 21
-455.9342624254194
 31
0.0
  0
LINE
  5
42E
330
1F
100
AcDbEntity
  8
D-0
  6
Continuous
 62
     7
370
     9
100
AcDbLine
 10
-174.5835108200984
 20
-455.9342624254194
 30
0.0
 11
-174.5835108200984
 21
-457.4345351762739
 31
0.0
  0
LINE
  5
42F
330
1F
100
AcDbEntity
  8
D-0
  6
Continuous
 62
     7
370
     9
100
AcDbLine
 10
-174.5835108200984
 20
-457.4345351762739
 30
0.0
 11
-176.0832971970515
 21
-457.4345351762739
 31
0.0
  0
LINE
  5
430
330
1F
100
AcDbEntity
  8
D-0
  6
Continuous
 62
     7
370
     9
100
AcDbLine
 10
-121.362227861114
 20
-450.6793166704145
 30
0.0
 11
-121.362227861114
 21
-449.1790343828168
 31
0.0
  0
LINE
  5
431
330
1F
100
AcDbEntity
  8
D-0
  6
Continuous
 62
     7
370
     9
100
AcDbLine
 10
-121.362227861114
 20
-449.1790343828168
 30
0.0
 11
-119.8624796311336
 21
-449.1790343828168
 31
0.0
  0
LINE
  5
432
330
1F
100
AcDbEntity
  8
D-0
  6
Continuous
 62
     7
370
     9
100
AcDbLine
 10
-119.8624796311336
 20
-449.1790343828168
 30
0.0
 11
-119.8624796311336
 21
-450.6793166704145
 31
0.0
  0
LINE
  5
433
330
1F
100
AcDbEntity
  8
D-0
  6
Continuous
 62
     7
370
     9
100
AcDbLine
 10
-119.8624796311336
 20
-450.6793166704145
 30
0.0
 11
-121.362227861114
 21
-450.6793166704145
 31
0.0
  0
LINE
  5
434
330
1F
100
AcDbEntity
  8
D-0
  6
Continuous
 62
     7
370
     9
100
AcDbLine
 10
-133.543853227325
 20
-410.7514716691938
 30
0.0
 11
-133.543853227325
 21
-409.2511893815961
 31
0.0
  0
LINE
  5
435
330
1F
100
AcDbEntity
  8
D-0
  6
Continuous
 62
     7
370
     9
100
AcDbLine
 10
-133.543853227325
 20
-409.2511893815961
 30
0.0
 11
-132.0435709397273
 21
-409.2511893815961
 31
0.0
  0
LINE
  5
436
330
1F
100
AcDbEntity
  8
D-0
  6
Continuous
 62
     7
370
     9
100
AcDbLine
 10
-132.0435709397273
 20
-409.2511893815961
 30
0.0
 11
-132.0435709397273
 21
-410.7514716691938
 31
0.0
  0
LINE
  5
437
330
1F
100
AcDbEntity
  8
D-0
  6
Continuous
 62
     7
370
     9
100
AcDbLine
 10
-132.0435709397273
 20
-410.7514716691938
 30
0.0
 11
-133.543853227325
 21
-410.7514716691938
 31
0.0
  0
LINE
  5
438
330
1F
100
AcDbEntity
  8
D-0
  6
Continuous
 62
     7
370
     9
100
AcDbLine
 10
-174.5726007859187
 20
-419.8690845079389
 30
0.0
 11
-174.5726007859187
 21
-418.3688022203413
 31
0.0
  0
LINE
  5
439
330
1F
100
AcDbEntity
  8
D-0
  6
Continuous
 62
     7
370
     9
100
AcDbLine
 10
-174.5726007859187
 20
-418.3688022203413
 30
0.0
 11
-173.0728525559383
 21
-418.3688022203413
 31
0.0
  0
LINE
  5
43A
330
1F
100
AcDbEntity
  8
D-0
  6
Continuous
 62
     7
370
     9
100
AcDbLine
 10
-173.0728525559383
 20
-418.3688022203413
 30
0.0
 11
-173.0728525559383
 21
-419.8690845079389
 31
0.0
  0
LINE
  5
43B
330
1F
100
AcDbEntity
  8
D-0
  6
Continuous
 62
     7
370
     9
100
AcDbLine
 10
-173.0728525559383
 20
-419.8690845079389
 30
0.0
 11
-174.5726007859187
 21
-419.8690845079389
 31
0.0
  0
LINE
  5
43C
330
1F
100
AcDbEntity
  8
D-0
  6
Continuous
 62
     7
370
     9
100
AcDbLine
 10
-114.0877909104304
 20
-380.3807212419477
 30
0.0
 11
-114.0877909104304
 21
-378.88043895435
 31
0.0
  0
LINE
  5
43D
330
1F
100
AcDbEntity
  8
D-0
  6
Continuous
 62
     7
370
     9
100
AcDbLine
 10
-114.0877909104304
 20
-378.88043895435
 30
0.0
 11
-112.5875086228328
 21
-378.88043895435
 31
0.0
  0
LINE
  5
43E
330
1F
100
AcDbEntity
  8
D-0
  6
Continuous
 62
     7
370
     9
100
AcDbLine
 10
-112.5875086228328
 20
-378.88043895435
 30
0.0
 11
-112.5875086228328
 21
-380.3807212419477
 31
0.0
  0
LINE
  5
43F
330
1F
100
AcDbEntity
  8
D-0
  6
Continuous
 62
     7
370
     9
100
AcDbLine
 10
-112.5875086228328
 20
-380.3807212419477
 30
0.0
 11
-114.0877909104304
 21
-380.3807212419477
 31
0.0
  0
LINE
  5
440
330
1F
100
AcDbEntity
  8
D-0
  6
Continuous
 62
     7
370
     9
100
AcDbLine
 10
-268.0883783738093
 20
-369.4878388948408
 30
0.0
 11
-268.0883783738093
 21
-367.9875613756147
 31
0.0
  0
LINE
  5
441
330
1F
100
AcDbEntity
  8
D-0
  6
Continuous
 62
     7
370
     9
100
AcDbLine
 10
-268.0883783738093
 20
-367.9875613756147
 30
0.0
 11
-266.588115159698
 21
-367.9875613756147
 31
0.0
  0
LINE
  5
442
330
1F
100
AcDbEntity
  8
D-0
  6
Continuous
 62
     7
370
     9
100
AcDbLine
 10
-266.588115159698
 20
-367.9875613756147
 30
0.0
 11
-266.588115159698
 21
-369.4878388948408
 31
0.0
  0
LINE
  5
443
330
1F
100
AcDbEntity
  8
D-0
  6
Continuous
 62
     7
370
     9
100
AcDbLine
 10
-266.588115159698
 20
-369.4878388948408
 30
0.0
 11
-268.0883783738093
 21
-369.4878388948408
 31
0.0
  0
LINE
  5
444
330
1F
100
AcDbEntity
  8
D-0
  6
Continuous
 62
     7
370
     9
100
AcDbLine
 10
-351.4381212632136
 20
-492.7381755418745
 30
0.0
 11
-351.4381212632136
 21
-491.2378932542768
 31
0.0
  0
LINE
  5
445
330
1F
100
AcDbEntity
  8
D-0
  6
Continuous
 62
     7
370
     9
100
AcDbLine
 10
-351.4381212632136
 20
-491.2378932542768
 30
0.0
 11
-349.937838975616
 21
-491.2378932542768
 31
0.0
  0
LINE
  5
446
330
1F
100
AcDbEntity
  8
D-0
  6
Continuous
 62
     7
370
     9
100
AcDbLine
 10
-349.937838975616
 20
-491.2378932542768
 30
0.0
 11
-349.937838975616
 21
-492.7381755418745
 31
0.0
  0
LINE
  5
447
330
1F
100
AcDbEntity
  8
D-0
  6
Continuous
 62
     7
370
     9
100
AcDbLine
 10
-349.937838975616
 20
-492.7381755418745
 30
0.0
 11
-351.4381212632136
 21
-492.7381755418745
 31
0.0
  0
LINE
  5
448
330
1F
100
AcDbEntity
  8
D-0
  6
Continuous
 62
     7
370
     9
100
AcDbLine
 10
-302.0735735337215
 20
-500.636449009892
 30
0.0
 11
-302.0735735337215
 21
-499.1361667222944
 31
0.0
  0
LINE
  5
449
330
1F
100
AcDbEntity
  8
D-0
  6
Continuous
 62
     7
370
     9
100
AcDbLine
 10
-302.0735735337215
 20
-499.1361667222944
 30
0.0
 11
-300.5733103196101
 21
-499.1361667222944
 31
0.0
  0
LINE
  5
44A
330
1F
100
AcDbEntity
  8
D-0
  6
Continuous
 62
     7
370
     9
100
AcDbLine
 10
-300.5733103196101
 20
-499.1361667222944
 30
0.0
 11
-300.5733103196101
 21
-500.636449009892
 31
0.0
  0
LINE
  5
44B
330
1F
100
AcDbEntity
  8
D-0
  6
Continuous
 62
     7
370
     9
100
AcDbLine
 10
-300.5733103196101
 20
-500.636449009892
 30
0.0
 11
-302.0735735337215
 21
-500.636449009892
 31
0.0
  0
LINE
  5
44C
330
1F
100
AcDbEntity
  8
D-0
  6
Continuous
 62
     7
370
     9
100
AcDbLine
 10
-318.9546961228328
 20
-521.217217595097
 30
0.0
 11
-318.9546961228328
 21
-519.7169543809857
 31
0.0
  0
LINE
  5
44D
330
1F
100
AcDbEntity
  8
D-0
  6
Continuous
 62
     7
370
     9
100
AcDbLine
 10
-318.9546961228328
 20
-519.7169543809857
 30
0.0
 11
-317.4549097458797
 21
-519.7169543809857
 31
0.0
  0
LINE
  5
44E
330
1F
100
AcDbEntity
  8
D-0
  6
Continuous
 62
     7
370
     9
100
AcDbLine
 10
-317.4549097458797
 20
-519.7169543809857
 30
0.0
 11
-317.4549097458797
 21
-521.217217595097
 31
0.0
  0
LINE
  5
44F
330
1F
100
AcDbEntity
  8
D-0
  6
Continuous
 62
     7
370
     9
100
AcDbLine
 10
-317.4549097458797
 20
-521.217217595097
 30
0.0
 11
-318.9546961228328
 21
-521.217217595097
 31
0.0
  0
LINE
  5
450
330
1F
100
AcDbEntity
  8
D-0
  6
Continuous
 62
     7
370
     9
100
AcDbLine
 10
-367.2346681992488
 20
-555.9253169603314
 30
0.0
 11
-367.2346681992488
 21
-554.4250346727338
 31
0.0
  0
LINE
  5
451
330
1F
100
AcDbEntity
  8
D-0
  6
Continuous
 62
     7
370
     9
100
AcDbLine
 10
-367.2346681992488
 20
-554.4250346727338
 30
0.0
 11
-365.7348818222957
 21
-554.4250346727338
 31
0.0
  0
LINE
  5
452
330
1F
100
AcDbEntity
  8
D-0
  6
Continuous
 62
     7
370
     9
100
AcDbLine
 10
-365.7348818222957
 20
-554.4250346727338
 30
0.0
 11
-365.7348818222957
 21
-555.9253169603314
 31
0.0
  0
LINE
  5
453
330
1F
100
AcDbEntity
  8
D-0
  6
Continuous
 62
     7
370
     9
100
AcDbLine
 10
-365.7348818222957
 20
-555.9253169603314
 30
0.0
 11
-367.2346681992488
 21
-555.9253169603314
 31
0.0
  0
LINE
  5
454
330
1F
100
AcDbEntity
  8
D-0
  6
Continuous
 62
     7
370
     9
100
AcDbLine
 10
-296.1497492234187
 20
-553.950371891972
 30
0.0
 11
-296.1497492234187
 21
-552.4500896043744
 31
0.0
  0
LINE
  5
455
330
1F
100
AcDbEntity
  8
D-0
  6
Continuous
 62
     7
370
     9
100
AcDbLine
 10
-296.1497492234187
 20
-552.4500896043744
 30
0.0
 11
-294.6494860093074
 21
-552.4500896043744
 31
0.0
  0
LINE
  5
456
330
1F
100
AcDbEntity
  8
D-0
  6
Continuous
 62
     7
370
     9
100
AcDbLine
 10
-294.6494860093074
 20
-552.4500896043744
 30
0.0
 11
-294.6494860093074
 21
-553.950371891972
 31
0.0
  0
LINE
  5
457
330
1F
100
AcDbEntity
  8
D-0
  6
Continuous
 62
     7
370
     9
100
AcDbLine
 10
-294.6494860093074
 20
-553.950371891972
 30
0.0
 11
-296.1497492234187
 21
-553.950371891972
 31
0.0
  0
LINE
  5
458
330
1F
100
AcDbEntity
  8
D-0
  6
Continuous
 62
     7
370
     9
100
AcDbLine
 10
-353.4125704209285
 20
-522.3572970933881
 30
0.0
 11
-353.4125704209285
 21
-520.8570148057904
 31
0.0
  0
LINE
  5
459
330
1F
100
AcDbEntity
  8
D-0
  6
Continuous
 62
     7
370
     9
100
AcDbLine
 10
-353.4125704209285
 20
-520.8570148057904
 30
0.0
 11
-351.9127840439754
 21
-520.8570148057904
 31
0.0
  0
LINE
  5
45A
330
1F
100
AcDbEntity
  8
D-0
  6
Continuous
 62
     7
370
     9
100
AcDbLine
 10
-351.9127840439754
 20
-520.8570148057904
 30
0.0
 11
-351.9127840439754
 21
-522.3572970933881
 31
0.0
  0
LINE
  5
45B
330
1F
100
AcDbEntity
  8
D-0
  6
Continuous
 62
     7
370
     9
100
AcDbLine
 10
-351.9127840439754
 20
-522.3572970933881
 30
0.0
 11
-353.4125704209285
 21
-522.3572970933881
 31
0.0
  0
LINE
  5
45C
330
1F
100
AcDbEntity
  8
D-0
  6
Continuous
 62
     7
370
     9
100
AcDbLine
 10
-321.545504991241
 20
-478.4785796709028
 30
0.0
 11
-321.545504991241
 21
-476.9783069200483
 31
0.0
  0
LINE
  5
45D
330
1F
100
AcDbEntity
  8
D-0
  6
Continuous
 62
     7
370
     9
100
AcDbLine
 10
-321.545504991241
 20
-476.9783069200483
 30
0.0
 11
-320.0452227036433
 21
-476.9783069200483
 31
0.0
  0
LINE
  5
45E
330
1F
100
AcDbEntity
  8
D-0
  6
Continuous
 62
     7
370
     9
100
AcDbLine
 10
-320.0452227036433
 20
-476.9783069200483
 30
0.0
 11
-320.0452227036433
 21
-478.4785796709028
 31
0.0
  0
LINE
  5
45F
330
1F
100
AcDbEntity
  8
D-0
  6
Continuous
 62
     7
370
     9
100
AcDbLine
 10
-320.0452227036433
 20
-478.4785796709028
 30
0.0
 11
-321.545504991241
 21
-478.4785796709028
 31
0.0
  0
LINE
  5
460
330
1F
100
AcDbEntity
  8
D-0
  6
Continuous
 62
     7
370
     9
100
AcDbLine
 10
-330.8291048447566
 20
-549.9182368822064
 30
0.0
 11
-330.8291048447566
 21
-548.4179736680951
 31
0.0
  0
LINE
  5
461
330
1F
100
AcDbEntity
  8
D-0
  6
Continuous
 62
     7
370
     9
100
AcDbLine
 10
-330.8291048447566
 20
-548.4179736680951
 30
0.0
 11
-329.328822557159
 21
-548.4179736680951
 31
0.0
  0
LINE
  5
462
330
1F
100
AcDbEntity
  8
D-0
  6
Continuous
 62
     7
370
     9
100
AcDbLine
 10
-329.328822557159
 20
-548.4179736680951
 30
0.0
 11
-329.328822557159
 21
-549.9182368822064
 31
0.0
  0
LINE
  5
463
330
1F
100
AcDbEntity
  8
D-0
  6
Continuous
 62
     7
370
     9
100
AcDbLine
 10
-329.328822557159
 20
-549.9182368822064
 30
0.0
 11
-330.8291048447566
 21
-549.9182368822064
 31
0.0
  0
LINE
  5
464
330
1F
100
AcDbEntity
  8
D-0
  6
Continuous
 62
     7
370
     9
100
AcDbLine
 10
-493.9547628800349
 20
-340.0421299047437
 30
0.0
 11
-493.9547628800349
 21
-338.5418500013319
 31
0.0
  0
LINE
  5
465
330
1F
100
AcDbEntity
  8
D-0
  6
Continuous
 62
     7
370
     9
100
AcDbLine
 10
-493.9547628800349
 20
-338.5418500013319
 30
0.0
 11
-492.4544853608089
 21
-338.5418500013319
 31
0.0
  0
LINE
  5
466
330
1F
100
AcDbEntity
  8
D-0
  6
Continuous
 62
     7
370
     9
100
AcDbLine
 10
-492.4544853608089
 20
-338.5418500013319
 30
0.0
 11
-492.4544853608089
 21
-340.0421299047437
 31
0.0
  0
LINE
  5
467
330
1F
100
AcDbEntity
  8
D-0
  6
Continuous
 62
     7
370
     9
100
AcDbLine
 10
-492.4544853608089
 20
-340.0421299047437
 30
0.0
 11
-493.9547628800349
 21
-340.0421299047437
 31
0.0
  0
LINE
  5
468
330
1F
100
AcDbEntity
  8
D-0
  6
Continuous
 62
     7
370
     9
100
AcDbLine
 10
-472.710055772491
 20
-355.8406473703351
 30
0.0
 11
-472.710055772491
 21
-354.3403674669233
 31
0.0
  0
LINE
  5
469
330
1F
100
AcDbEntity
  8
D-0
  6
Continuous
 62
     7
370
     9
100
AcDbLine
 10
-472.710055772491
 20
-354.3403674669233
 30
0.0
 11
-471.2097734848933
 21
-354.3403674669233
 31
0.0
  0
LINE
  5
46A
330
1F
100
AcDbEntity
  8
D-0
  6
Continuous
 62
     7
370
     9
100
AcDbLine
 10
-471.2097734848933
 20
-354.3403674669233
 30
0.0
 11
-471.2097734848933
 21
-355.8406473703351
 31
0.0
  0
LINE
  5
46B
330
1F
100
AcDbEntity
  8
D-0
  6
Continuous
 62
     7
370
     9
100
AcDbLine
 10
-471.2097734848933
 20
-355.8406473703351
 30
0.0
 11
-472.710055772491
 21
-355.8406473703351
 31
0.0
  0
LINE
  5
46C
330
1F
100
AcDbEntity
  8
D-0
  6
Continuous
 62
     7
370
     9
100
AcDbLine
 10
-448.8438219468074
 20
-396.9209529466596
 30
0.0
 11
-448.8438219468074
 21
-395.4206754274335
 31
0.0
  0
LINE
  5
46D
330
1F
100
AcDbEntity
  8
D-0
  6
Continuous
 62
     7
370
     9
100
AcDbLine
 10
-448.8438219468074
 20
-395.4206754274335
 30
0.0
 11
-447.3440355698543
 21
-395.4206754274335
 31
0.0
  0
LINE
  5
46E
330
1F
100
AcDbEntity
  8
D-0
  6
Continuous
 62
     7
370
     9
100
AcDbLine
 10
-447.3440355698543
 20
-395.4206754274335
 30
0.0
 11
-447.3440355698543
 21
-396.9209529466596
 31
0.0
  0
LINE
  5
46F
330
1F
100
AcDbEntity
  8
D-0
  6
Continuous
 62
     7
370
     9
100
AcDbLine
 10
-447.3440355698543
 20
-396.9209529466596
 30
0.0
 11
-448.8438219468074
 21
-396.9209529466596
 31
0.0
  0
LINE
  5
470
330
1F
100
AcDbEntity
  8
D-0
  6
Continuous
 62
     7
370
     9
100
AcDbLine
 10
-403.079347078033
 20
-343.9647568769422
 30
0.0
 11
-403.079347078033
 21
-342.4644769735303
 31
0.0
  0
LINE
  5
471
330
1F
100
AcDbEntity
  8
D-0
  6
Continuous
 62
     7
370
     9
100
AcDbLine
 10
-403.079347078033
 20
-342.4644769735303
 30
0.0
 11
-401.579570237823
 21
-342.4644769735303
 31
0.0
  0
LINE
  5
472
330
1F
100
AcDbEntity
  8
D-0
  6
Continuous
 62
     7
370
     9
100
AcDbLine
 10
-401.579570237823
 20
-342.4644769735303
 30
0.0
 11
-401.579570237823
 21
-343.9647568769422
 31
0.0
  0
LINE
  5
473
330
1F
100
AcDbEntity
  8
D-0
  6
Continuous
 62
     7
370
     9
100
AcDbLine
 10
-401.579570237823
 20
-343.9647568769422
 30
0.0
 11
-403.079347078033
 21
-343.9647568769422
 31
0.0
  0
LINE
  5
474
330
1F
100
AcDbEntity
  8
D-0
  6
Continuous
 62
     7
370
     9
100
AcDbLine
 10
-355.521277848907
 20
-338.5666240758863
 30
0.0
 11
-355.521277848907
 21
-337.0663441724744
 31
0.0
  0
LINE
  5
475
330
1F
100
AcDbEntity
  8
D-0
  6
Continuous
 62
     7
370
     9
100
AcDbLine
 10
-355.521277848907
 20
-337.0663441724744
 30
0.0
 11
-354.0214914719539
 21
-337.0663441724744
 31
0.0
  0
LINE
  5
476
330
1F
100
AcDbEntity
  8
D-0
  6
Continuous
 62
     7
370
     9
100
AcDbLine
 10
-354.0214914719539
 20
-337.0663441724744
 30
0.0
 11
-354.0214914719539
 21
-338.5666240758863
 31
0.0
  0
LINE
  5
477
330
1F
100
AcDbEntity
  8
D-0
  6
Continuous
 62
     7
370
     9
100
AcDbLine
 10
-354.0214914719539
 20
-338.5666240758863
 30
0.0
 11
-355.521277848907
 21
-338.5666240758863
 31
0.0
  0
LINE
  5
478
330
1F
100
AcDbEntity
  8
D-0
  6
Continuous
 62
     7
370
     9
100
AcDbLine
 10
-375.1349062363582
 20
-360.1413156099287
 30
0.0
 11
-375.1349062363582
 21
-358.6410380907026
 31
0.0
  0
LINE
  5
479
330
1F
100
AcDbEntity
  8
D-0
  6
Continuous
 62
     7
370
     9
100
AcDbLine
 10
-375.1349062363582
 20
-358.6410380907026
 30
0.0
 11
-373.6346239487605
 21
-358.6410380907026
 31
0.0
  0
LINE
  5
47A
330
1F
100
AcDbEntity
  8
D-0
  6
Continuous
 62
     7
370
     9
100
AcDbLine
 10
-373.6346239487605
 20
-358.6410380907026
 30
0.0
 11
-373.6346239487605
 21
-360.1413156099287
 31
0.0
  0
LINE
  5
47B
330
1F
100
AcDbEntity
  8
D-0
  6
Continuous
 62
     7
370
     9
100
AcDbLine
 10
-373.6346239487605
 20
-360.1413156099287
 30
0.0
 11
-375.1349062363582
 21
-360.1413156099287
 31
0.0
  0
LINE
  5
47C
330
1F
100
AcDbEntity
  8
D-0
  6
Continuous
 62
     7
370
     9
100
AcDbLine
 10
-350.7771677414851
 20
-396.2674333162275
 30
0.0
 11
-350.7771677414851
 21
-394.7671510286298
 31
0.0
  0
LINE
  5
47D
330
1F
100
AcDbEntity
  8
D-0
  6
Continuous
 62
     7
370
     9
100
AcDbLine
 10
-350.7771677414851
 20
-394.7671510286298
 30
0.0
 11
-349.2768854538875
 21
-394.7671510286298
 31
0.0
  0
LINE
  5
47E
330
1F
100
AcDbEntity
  8
D-0
  6
Continuous
 62
     7
370
     9
100
AcDbLine
 10
-349.2768854538875
 20
-394.7671510286298
 30
0.0
 11
-349.2768854538875
 21
-396.2674333162275
 31
0.0
  0
LINE
  5
47F
330
1F
100
AcDbEntity
  8
D-0
  6
Continuous
 62
     7
370
     9
100
AcDbLine
 10
-349.2768854538875
 20
-396.2674333162275
 30
0.0
 11
-350.7771677414851
 21
-396.2674333162275
 31
0.0
  0
LINE
  5
480
330
1F
100
AcDbEntity
  8
D-0
  6
Continuous
 62
     7
370
     9
100
AcDbLine
 10
-346.8540567795711
 20
-434.8401691026655
 30
0.0
 11
-346.8540567795711
 21
-433.3398868150678
 31
0.0
  0
LINE
  5
481
330
1F
100
AcDbEntity
  8
D-0
  6
Continuous
 62
     7
370
     9
100
AcDbLine
 10
-346.8540567795711
 20
-433.3398868150678
 30
0.0
 11
-345.3542704026179
 21
-433.3398868150678
 31
0.0
  0
LINE
  5
482
330
1F
100
AcDbEntity
  8
D-0
  6
Continuous
 62
     7
370
     9
100
AcDbLine
 10
-345.3542704026179
 20
-433.3398868150678
 30
0.0
 11
-345.3542704026179
 21
-434.8401691026655
 31
0.0
  0
LINE
  5
483
330
1F
100
AcDbEntity
  8
D-0
  6
Continuous
 62
     7
370
     9
100
AcDbLine
 10
-345.3542704026179
 20
-434.8401691026655
 30
0.0
 11
-346.8540567795711
 21
-434.8401691026655
 31
0.0
  0
LINE
  5
484
330
1F
100
AcDbEntity
  8
D-0
  6
Continuous
 62
     7
370
     9
100
AcDbLine
 10
-422.5230307023006
 20
-358.4661366052595
 30
0.0
 11
-422.5230307023006
 21
-356.9658567018476
 31
0.0
  0
LINE
  5
485
330
1F
100
AcDbEntity
  8
D-0
  6
Continuous
 62
     7
370
     9
100
AcDbLine
 10
-422.5230307023006
 20
-356.9658567018476
 30
0.0
 11
-421.0227484147029
 21
-356.9658567018476
 31
0.0
  0
LINE
  5
486
330
1F
100
AcDbEntity
  8
D-0
  6
Continuous
 62
     7
370
     9
100
AcDbLine
 10
-421.0227484147029
 20
-356.9658567018476
 30
0.0
 11
-421.0227484147029
 21
-358.4661366052595
 31
0.0
  0
LINE
  5
487
330
1F
100
AcDbEntity
  8
D-0
  6
Continuous
 62
     7
370
     9
100
AcDbLine
 10
-421.0227484147029
 20
-358.4661366052595
 30
0.0
 11
-422.5230307023006
 21
-358.4661366052595
 31
0.0
  0
LINE
  5
488
330
1F
100
AcDbEntity
  8
D-0
  6
Continuous
 62
     7
370
     9
100
AcDbLine
 10
-500.8051151673274
 20
-485.9051562852827
 30
0.0
 11
-500.8051151673274
 21
-484.4048835344282
 31
0.0
  0
LINE
  5
489
330
1F
100
AcDbEntity
  8
D-0
  6
Continuous
 62
     7
370
     9
100
AcDbLine
 10
-500.8051151673274
 20
-484.4048835344282
 30
0.0
 11
-499.3048376481013
 21
-484.4048835344282
 31
0.0
  0
LINE
  5
48A
330
1F
100
AcDbEntity
  8
D-0
  6
Continuous
 62
     7
370
     9
100
AcDbLine
 10
-499.3048376481013
 20
-484.4048835344282
 30
0.0
 11
-499.3048376481013
 21
-485.9051562852827
 31
0.0
  0
LINE
  5
48B
330
1F
100
AcDbEntity
  8
D-0
  6
Continuous
 62
     7
370
     9
100
AcDbLine
 10
-499.3048376481013
 20
-485.9051562852827
 30
0.0
 11
-500.8051151673274
 21
-485.9051562852827
 31
0.0
  0
LINE
  5
48C
330
1F
100
AcDbEntity
  8
D-0
  6
Continuous
 62
     7
370
     9
100
AcDbLine
 10
-651.576260987945
 20
-474.9667026109663
 30
0.0
 11
-651.576260987945
 21
-473.4664203233686
 31
0.0
  0
LINE
  5
48D
330
1F
100
AcDbEntity
  8
D-0
  6
Continuous
 62
     7
370
     9
100
AcDbLine
 10
-651.576260987945
 20
-473.4664203233686
 30
0.0
 11
-650.0759882370905
 21
-473.4664203233686
 31
0.0
  0
LINE
  5
48E
330
1F
100
AcDbEntity
  8
D-0
  6
Continuous
 62
     7
370
     9
100
AcDbLine
 10
-650.0759882370905
 20
-473.4664203233686
 30
0.0
 11
-650.0759882370905
 21
-474.9667026109663
 31
0.0
  0
LINE
  5
48F
330
1F
100
AcDbEntity
  8
D-0
  6
Continuous
 62
     7
370
     9
100
AcDbLine
 10
-650.0759882370905
 20
-474.9667026109663
 30
0.0
 11
-651.576260987945
 21
-474.9667026109663
 31
0.0
  0
LINE
  5
490
330
1F
100
AcDbEntity
  8
D-0
  6
Continuous
 62
     7
370
     9
100
AcDbLine
 10
-592.3380178849177
 20
-579.6201182908978
 30
0.0
 11
-592.3380178849177
 21
-578.1198360033002
 31
0.0
  0
LINE
  5
491
330
1F
100
AcDbEntity
  8
D-0
  6
Continuous
 62
     7
370
     9
100
AcDbLine
 10
-592.3380178849177
 20
-578.1198360033002
 30
0.0
 11
-590.8382362763361
 21
-578.1198360033002
 31
0.0
  0
LINE
  5
492
330
1F
100
AcDbEntity
  8
D-0
  6
Continuous
 62
     7
370
     9
100
AcDbLine
 10
-590.8382362763361
 20
-578.1198360033002
 30
0.0
 11
-590.8382362763361
 21
-579.6201182908978
 31
0.0
  0
LINE
  5
493
330
1F
100
AcDbEntity
  8
D-0
  6
Continuous
 62
     7
370
     9
100
AcDbLine
 10
-590.8382362763361
 20
-579.6201182908978
 30
0.0
 11
-592.3380178849177
 21
-579.6201182908978
 31
0.0
  0
LINE
  5
494
330
1F
100
AcDbEntity
  8
D-0
  6
Continuous
 62
     7
370
     9
100
AcDbLine
 10
-606.160606805511
 20
-638.8578654832806
 30
0.0
 11
-606.160606805511
 21
-637.357583195683
 31
0.0
  0
LINE
  5
495
330
1F
100
AcDbEntity
  8
D-0
  6
Continuous
 62
     7
370
     9
100
AcDbLine
 10
-606.160606805511
 20
-637.357583195683
 30
0.0
 11
-604.6603245179133
 21
-637.357583195683
 31
0.0
  0
LINE
  5
496
330
1F
100
AcDbEntity
  8
D-0
  6
Continuous
 62
     7
370
     9
100
AcDbLine
 10
-604.6603245179133
 20
-637.357583195683
 30
0.0
 11
-604.6603245179133
 21
-638.8578654832806
 31
0.0
  0
LINE
  5
497
330
1F
100
AcDbEntity
  8
D-0
  6
Continuous
 62
     7
370
     9
100
AcDbLine
 10
-604.6603245179133
 20
-638.8578654832806
 30
0.0
 11
-606.160606805511
 21
-638.8578654832806
 31
0.0
  0
LINE
  5
498
330
1F
100
AcDbEntity
  8
D-0
  6
Continuous
 62
     7
370
     9
100
AcDbLine
 10
-636.7667002121882
 20
-649.7180606431928
 30
0.0
 11
-636.7667002121882
 21
-648.2177783555951
 31
0.0
  0
LINE
  5
499
330
1F
100
AcDbEntity
  8
D-0
  6
Continuous
 62
     7
370
     9
100
AcDbLine
 10
-636.7667002121882
 20
-648.2177783555951
 30
0.0
 11
-635.2664274613337
 21
-648.2177783555951
 31
0.0
  0
LINE
  5
49A
330
1F
100
AcDbEntity
  8
D-0
  6
Continuous
 62
     7
370
     9
100
AcDbLine
 10
-635.2664274613337
 20
-648.2177783555951
 30
0.0
 11
-635.2664274613337
 21
-649.7180606431928
 31
0.0
  0
LINE
  5
49B
330
1F
100
AcDbEntity
  8
D-0
  6
Continuous
 62
     7
370
     9
100
AcDbLine
 10
-635.2664274613337
 20
-649.7180606431928
 30
0.0
 11
-636.7667002121882
 21
-649.7180606431928
 31
0.0
  0
LINE
  5
49C
330
1F
100
AcDbEntity
  8
D-0
  6
Continuous
 62
     7
370
     9
100
AcDbLine
 10
-659.6201986710505
 20
-583.5694934434857
 30
0.0
 11
-659.6201986710505
 21
-582.0692111558881
 31
0.0
  0
LINE
  5
49D
330
1F
100
AcDbEntity
  8
D-0
  6
Continuous
 62
     7
370
     9
100
AcDbLine
 10
-659.6201986710505
 20
-582.0692111558881
 30
0.0
 11
-658.1204122940974
 21
-582.0692111558881
 31
0.0
  0
LINE
  5
49E
330
1F
100
AcDbEntity
  8
D-0
  6
Continuous
 62
     7
370
     9
100
AcDbLine
 10
-658.1204122940974
 20
-582.0692111558881
 30
0.0
 11
-658.1204122940974
 21
-583.5694934434857
 31
0.0
  0
LINE
  5
49F
330
1F
100
AcDbEntity
  8
D-0
  6
Continuous
 62
     7
370
     9
100
AcDbLine
 10
-658.1204122940974
 20
-583.5694934434857
 30
0.0
 11
-659.6201986710505
 21
-583.5694934434857
 31
0.0
  0
LINE
  5
4A0
330
1F
100
AcDbEntity
  8
D-0
  6
Continuous
 62
     7
370
     9
100
AcDbLine
 10
-633.8047880570368
 20
-561.8491412706342
 30
0.0
 11
-633.8047880570368
 21
-560.3488589830365
 31
0.0
  0
LINE
  5
4A1
330
1F
100
AcDbEntity
  8
D-0
  6
Continuous
 62
     7
370
     9
100
AcDbLine
 10
-633.8047880570368
 20
-560.3488589830365
 30
0.0
 11
-632.3045153061823
 21
-560.3488589830365
 31
0.0
  0
LINE
  5
4A2
330
1F
100
AcDbEntity
  8
D-0
  6
Continuous
 62
     7
370
     9
100
AcDbLine
 10
-632.3045153061823
 20
-560.3488589830365
 30
0.0
 11
-632.3045153061823
 21
-561.8491412706342
 31
0.0
  0
LINE
  5
4A3
330
1F
100
AcDbEntity
  8
D-0
  6
Continuous
 62
     7
370
     9
100
AcDbLine
 10
-632.3045153061823
 20
-561.8491412706342
 30
0.0
 11
-633.8047880570368
 21
-561.8491412706342
 31
0.0
  0
LINE
  5
4A4
330
1F
100
AcDbEntity
  8
D-0
  6
Continuous
 62
     7
370
     9
100
AcDbLine
 10
-570.6176585595088
 20
-614.3420650072064
 30
0.0
 11
-570.6176585595088
 21
-612.8417827196088
 31
0.0
  0
LINE
  5
4A5
330
1F
100
AcDbEntity
  8
D-0
  6
Continuous
 62
     7
370
     9
100
AcDbLine
 10
-570.6176585595088
 20
-612.8417827196088
 30
0.0
 11
-569.1178745667414
 21
-612.8417827196088
 31
0.0
  0
LINE
  5
4A6
330
1F
100
AcDbEntity
  8
D-0
  6
Continuous
 62
     7
370
     9
100
AcDbLine
 10
-569.1178745667414
 20
-612.8417827196088
 30
0.0
 11
-569.1178745667414
 21
-614.3420650072064
 31
0.0
  0
LINE
  5
4A7
330
1F
100
AcDbEntity
  8
D-0
  6
Continuous
 62
     7
370
     9
100
AcDbLine
 10
-569.1178745667414
 20
-614.3420650072064
 30
0.0
 11
-570.6176585595088
 21
-614.3420650072064
 31
0.0
  0
LINE
  5
4A8
330
1F
100
AcDbEntity
  8
D-0
  6
Continuous
 62
     7
370
     9
100
AcDbLine
 10
-647.6268858353571
 20
-752.2211124010056
 30
0.0
 11
-647.6268858353571
 21
-750.7208301134079
 31
0.0
  0
LINE
  5
4A9
330
1F
100
AcDbEntity
  8
D-0
  6
Continuous
 62
     7
370
     9
100
AcDbLine
 10
-647.6268858353571
 20
-750.7208301134079
 30
0.0
 11
-646.127099458404
 21
-750.7208301134079
 31
0.0
  0
LINE
  5
4AA
330
1F
100
AcDbEntity
  8
D-0
  6
Continuous
 62
     7
370
     9
100
AcDbLine
 10
-646.127099458404
 20
-750.7208301134079
 30
0.0
 11
-646.127099458404
 21
-752.2211124010056
 31
0.0
  0
LINE
  5
4AB
330
1F
100
AcDbEntity
  8
D-0
  6
Continuous
 62
     7
370
     9
100
AcDbLine
 10
-646.127099458404
 20
-752.2211124010056
 30
0.0
 11
-647.6268858353571
 21
-752.2211124010056
 31
0.0
  0
LINE
  5
4AC
330
1F
100
AcDbEntity
  8
D-0
  6
Continuous
 62
     7
370
     9
100
AcDbLine
 10
-577.2366256157832
 20
-755.9331561632126
 30
0.0
 11
-577.2366256157832
 21
-754.432873875615
 31
0.0
  0
LINE
  5
4AD
330
1F
100
AcDbEntity
  8
D-0
  6
Continuous
 62
     7
370
     9
100
AcDbLine
 10
-577.2366256157832
 20
-754.432873875615
 30
0.0
 11
-575.7368416230158
 21
-754.432873875615
 31
0.0
  0
LINE
  5
4AE
330
1F
100
AcDbEntity
  8
D-0
  6
Continuous
 62
     7
370
     9
100
AcDbLine
 10
-575.7368416230158
 20
-754.432873875615
 30
0.0
 11
-575.7368416230158
 21
-755.9331561632126
 31
0.0
  0
LINE
  5
4AF
330
1F
100
AcDbEntity
  8
D-0
  6
Continuous
 62
     7
370
     9
100
AcDbLine
 10
-575.7368416230158
 20
-755.9331561632126
 30
0.0
 11
-577.2366256157832
 21
-755.9331561632126
 31
0.0
  0
LINE
  5
4B0
330
1F
100
AcDbEntity
  8
D-0
  6
Continuous
 62
     7
370
     9
100
AcDbLine
 10
-552.8461838404612
 20
-781.8397571153611
 30
0.0
 11
-552.8461838404612
 21
-780.3394748277634
 31
0.0
  0
LINE
  5
4B1
330
1F
100
AcDbEntity
  8
D-0
  6
Continuous
 62
     7
370
     9
100
AcDbLine
 10
-552.8461838404612
 20
-780.3394748277634
 30
0.0
 11
-551.3463996986823
 21
-780.3394748277634
 31
0.0
  0
LINE
  5
4B2
330
1F
100
AcDbEntity
  8
D-0
  6
Continuous
 62
     7
370
     9
100
AcDbLine
 10
-551.3463996986823
 20
-780.3394748277634
 30
0.0
 11
-551.3463996986823
 21
-781.8397571153611
 31
0.0
  0
LINE
  5
4B3
330
1F
100
AcDbEntity
  8
D-0
  6
Continuous
 62
     7
370
     9
100
AcDbLine
 10
-551.3463996986823
 20
-781.8397571153611
 30
0.0
 11
-552.8461838404612
 21
-781.8397571153611
 31
0.0
  0
LINE
  5
4B4
330
1F
100
AcDbEntity
  8
D-0
  6
Continuous
 62
     7
370
     9
100
AcDbLine
 10
-546.5676034132914
 20
-820.05177035999
 30
0.0
 11
-546.5676034132914
 21
-818.5514880723923
 31
0.0
  0
LINE
  5
4B5
330
1F
100
AcDbEntity
  8
D-0
  6
Continuous
 62
     7
370
     9
100
AcDbLine
 10
-546.5676034132914
 20
-818.5514880723923
 30
0.0
 11
-545.067324105926
 21
-818.5514880723923
 31
0.0
  0
LINE
  5
4B6
330
1F
100
AcDbEntity
  8
D-0
  6
Continuous
 62
     7
370
     9
100
AcDbLine
 10
-545.067324105926
 20
-818.5514880723923
 30
0.0
 11
-545.067324105926
 21
-820.05177035999
 31
0.0
  0
LINE
  5
4B7
330
1F
100
AcDbEntity
  8
D-0
  6
Continuous
 62
     7
370
     9
100
AcDbLine
 10
-545.067324105926
 20
-820.05177035999
 30
0.0
 11
-546.5676034132914
 21
-820.05177035999
 31
0.0
  0
LINE
  5
4B8
330
1F
100
AcDbEntity
  8
D-0
  6
Continuous
 62
     7
370
     9
100
AcDbLine
 10
-620.7962603012995
 20
-825.5103732652634
 30
0.0
 11
-620.7962603012995
 21
-824.0100909776658
 31
0.0
  0
LINE
  5
4B9
330
1F
100
AcDbEntity
  8
D-0
  6
Continuous
 62
     7
370
     9
100
AcDbLine
 10
-620.7962603012995
 20
-824.0100909776658
 30
0.0
 11
-619.2959780137019
 21
-824.0100909776658
 31
0.0
  0
LINE
  5
4BA
330
1F
100
AcDbEntity
  8
D-0
  6
Continuous
 62
     7
370
     9
100
AcDbLine
 10
-619.2959780137019
 20
-824.0100909776658
 30
0.0
 11
-619.2959780137019
 21
-825.5103732652634
 31
0.0
  0
LINE
  5
4BB
330
1F
100
AcDbEntity
  8
D-0
  6
Continuous
 62
     7
370
     9
100
AcDbLine
 10
-619.2959780137019
 20
-825.5103732652634
 30
0.0
 11
-620.7962603012995
 21
-825.5103732652634
 31
0.0
  0
LINE
  5
4BC
330
1F
100
AcDbEntity
  8
D-0
  6
Continuous
 62
     7
370
     9
100
AcDbLine
 10
-655.5251497666316
 20
-816.21387973499
 30
0.0
 11
-655.5251497666316
 21
-814.7135974473923
 31
0.0
  0
LINE
  5
4BD
330
1F
100
AcDbEntity
  8
D-0
  6
Continuous
 62
     7
370
     9
100
AcDbLine
 10
-655.5251497666316
 20
-814.7135974473923
 30
0.0
 11
-654.0248674790339
 21
-814.7135974473923
 31
0.0
  0
LINE
  5
4BE
330
1F
100
AcDbEntity
  8
D-0
  6
Continuous
 62
     7
370
     9
100
AcDbLine
 10
-654.0248674790339
 20
-814.7135974473923
 30
0.0
 11
-654.0248674790339
 21
-816.21387973499
 31
0.0
  0
LINE
  5
4BF
330
1F
100
AcDbEntity
  8
D-0
  6
Continuous
 62
     7
370
     9
100
AcDbLine
 10
-654.0248674790339
 20
-816.21387973499
 30
0.0
 11
-655.5251497666316
 21
-816.21387973499
 31
0.0
  0
LINE
  5
4C0
330
1F
100
AcDbEntity
  8
D-0
  6
Continuous
 62
     7
370
     9
100
AcDbLine
 10
-657.7364248673396
 20
-775.915913731572
 30
0.0
 11
-657.7364248673396
 21
-774.4156314439743
 31
0.0
  0
LINE
  5
4C1
330
1F
100
AcDbEntity
  8
D-0
  6
Continuous
 62
     7
370
     9
100
AcDbLine
 10
-657.7364248673396
 20
-774.4156314439743
 30
0.0
 11
-656.2366480271296
 21
-774.4156314439743
 31
0.0
  0
LINE
  5
4C2
330
1F
100
AcDbEntity
  8
D-0
  6
Continuous
 62
     7
370
     9
100
AcDbLine
 10
-656.2366480271296
 20
-774.4156314439743
 30
0.0
 11
-656.2366480271296
 21
-775.915913731572
 31
0.0
  0
LINE
  5
4C3
330
1F
100
AcDbEntity
  8
D-0
  6
Continuous
 62
     7
370
     9
100
AcDbLine
 10
-656.2366480271296
 20
-775.915913731572
 30
0.0
 11
-657.7364248673396
 21
-775.915913731572
 31
0.0
  0
LINE
  5
4C4
330
1F
100
AcDbEntity
  8
D-0
  6
Continuous
 62
     7
370
     9
100
AcDbLine
 10
-600.2367824952082
 20
-795.6618548936814
 30
0.0
 11
-600.2367824952082
 21
-794.1615726060837
 31
0.0
  0
LINE
  5
4C5
330
1F
100
AcDbEntity
  8
D-0
  6
Continuous
 62
     7
370
     9
100
AcDbLine
 10
-600.2367824952082
 20
-794.1615726060837
 30
0.0
 11
-598.7365002076106
 21
-794.1615726060837
 31
0.0
  0
LINE
  5
4C6
330
1F
100
AcDbEntity
  8
D-0
  6
Continuous
 62
     7
370
     9
100
AcDbLine
 10
-598.7365002076106
 20
-794.1615726060837
 30
0.0
 11
-598.7365002076106
 21
-795.6618548936814
 31
0.0
  0
LINE
  5
4C7
330
1F
100
AcDbEntity
  8
D-0
  6
Continuous
 62
     7
370
     9
100
AcDbLine
 10
-598.7365002076106
 20
-795.6618548936814
 30
0.0
 11
-600.2367824952082
 21
-795.6618548936814
 31
0.0
  0
LINE
  5
4C8
330
1F
100
AcDbEntity
  8
D-0
  6
Continuous
 62
     7
370
     9
100
AcDbLine
 10
-612.0844311158137
 20
-762.0938159532517
 30
0.0
 11
-612.0844311158137
 21
-760.593533665654
 31
0.0
  0
LINE
  5
4C9
330
1F
100
AcDbEntity
  8
D-0
  6
Continuous
 62
     7
370
     9
100
AcDbLine
 10
-612.0844311158137
 20
-760.593533665654
 30
0.0
 11
-610.584148828216
 21
-760.593533665654
 31
0.0
  0
LINE
  5
4CA
330
1F
100
AcDbEntity
  8
D-0
  6
Continuous
 62
     7
370
     9
100
AcDbLine
 10
-610.584148828216
 20
-760.593533665654
 30
0.0
 11
-610.584148828216
 21
-762.0938159532517
 31
0.0
  0
LINE
  5
4CB
330
1F
100
AcDbEntity
  8
D-0
  6
Continuous
 62
     7
370
     9
100
AcDbLine
 10
-610.584148828216
 20
-762.0938159532517
 30
0.0
 11
-612.0844311158137
 21
-762.0938159532517
 31
0.0
  0
LINE
  5
4CC
330
1F
100
AcDbEntity
  8
D-0
  6
Continuous
 62
     7
370
     9
100
AcDbLine
 10
-556.79556554956
 20
-647.9100848741498
 30
0.0
 11
-556.79556554956
 21
-646.4098025865521
 31
0.0
  0
LINE
  5
4CD
330
1F
100
AcDbEntity
  8
D-0
  6
Continuous
 62
     7
370
     9
100
AcDbLine
 10
-556.79556554956
 20
-646.4098025865521
 30
0.0
 11
-555.2957815567927
 21
-646.4098025865521
 31
0.0
  0
LINE
  5
4CE
330
1F
100
AcDbEntity
  8
D-0
  6
Continuous
 62
     7
370
     9
100
AcDbLine
 10
-555.2957815567927
 20
-646.4098025865521
 30
0.0
 11
-555.2957815567927
 21
-647.9100848741498
 31
0.0
  0
LINE
  5
4CF
330
1F
100
AcDbEntity
  8
D-0
  6
Continuous
 62
     7
370
     9
100
AcDbLine
 10
-555.2957815567927
 20
-647.9100848741498
 30
0.0
 11
-556.79556554956
 21
-647.9100848741498
 31
0.0
  0
LINE
  5
4D0
330
1F
100
AcDbEntity
  8
D-0
  6
Continuous
 62
     7
370
     9
100
AcDbLine
 10
-544.948411349483
 20
-548.0265475816693
 30
0.0
 11
-544.948411349483
 21
-546.5262652940717
 31
0.0
  0
LINE
  5
4D1
330
1F
100
AcDbEntity
  8
D-0
  6
Continuous
 62
     7
370
     9
100
AcDbLine
 10
-544.948411349483
 20
-546.5262652940717
 30
0.0
 11
-543.4481317440943
 21
-546.5262652940717
 31
0.0
  0
LINE
  5
4D2
330
1F
100
AcDbEntity
  8
D-0
  6
Continuous
 62
     7
370
     9
100
AcDbLine
 10
-543.4481317440943
 20
-546.5262652940717
 30
0.0
 11
-543.4481317440943
 21
-548.0265475816693
 31
0.0
  0
LINE
  5
4D3
330
1F
100
AcDbEntity
  8
D-0
  6
Continuous
 62
     7
370
     9
100
AcDbLine
 10
-543.4481317440943
 20
-548.0265475816693
 30
0.0
 11
-544.948411349483
 21
-548.0265475816693
 31
0.0
  0
LINE
  5
4D4
330
1F
100
AcDbEntity
  8
D-0
  6
Continuous
 62
     7
370
     9
100
AcDbLine
 10
-448.8373751084285
 20
-559.250893742558
 30
0.0
 11
-448.8373751084285
 21
-557.7506114549603
 31
0.0
  0
LINE
  5
4D5
330
1F
100
AcDbEntity
  8
D-0
  6
Continuous
 62
     7
370
     9
100
AcDbLine
 10
-448.8373751084285
 20
-557.7506114549603
 30
0.0
 11
-447.3375982682185
 21
-557.7506114549603
 31
0.0
  0
LINE
  5
4D6
330
1F
100
AcDbEntity
  8
D-0
  6
Continuous
 62
     7
370
     9
100
AcDbLine
 10
-447.3375982682185
 20
-557.7506114549603
 30
0.0
 11
-447.3375982682185
 21
-559.250893742558
 31
0.0
  0
LINE
  5
4D7
330
1F
100
AcDbEntity
  8
D-0
  6
Continuous
 62
     7
370
     9
100
AcDbLine
 10
-447.3375982682185
 20
-559.250893742558
 30
0.0
 11
-448.8373751084285
 21
-559.250893742558
 31
0.0
  0
LINE
  5
4D8
330
1F
100
AcDbEntity
  8
D-0
  6
Continuous
 62
     7
370
     9
100
AcDbLine
 10
-501.3719314972835
 20
-550.6257678575482
 30
0.0
 11
-501.3719314972835
 21
-549.1254855699506
 31
0.0
  0
LINE
  5
4D9
330
1F
100
AcDbEntity
  8
D-0
  6
Continuous
 62
     7
370
     9
100
AcDbLine
 10
-501.3719314972835
 20
-549.1254855699506
 30
0.0
 11
-499.8721498887019
 21
-549.1254855699506
 31
0.0
  0
LINE
  5
4DA
330
1F
100
AcDbEntity
  8
D-0
  6
Continuous
 62
     7
370
     9
100
AcDbLine
 10
-499.8721498887019
 20
-549.1254855699506
 30
0.0
 11
-499.8721498887019
 21
-550.6257678575482
 31
0.0
  0
LINE
  5
4DB
330
1F
100
AcDbEntity
  8
D-0
  6
Continuous
 62
     7
370
     9
100
AcDbLine
 10
-499.8721498887019
 20
-550.6257678575482
 30
0.0
 11
-501.3719314972835
 21
-550.6257678575482
 31
0.0
  0
LINE
  5
4DC
330
1F
100
AcDbEntity
  8
D-0
  6
Continuous
 62
     7
370
     9
100
AcDbLine
 10
-637.7536768357234
 20
-611.21366992664
 30
0.0
 11
-637.7536768357234
 21
-609.7134067125287
 31
0.0
  0
LINE
  5
4DD
330
1F
100
AcDbEntity
  8
D-0
  6
Continuous
 62
     7
370
     9
100
AcDbLine
 10
-637.7536768357234
 20
-609.7134067125287
 30
0.0
 11
-636.2538904587702
 21
-609.7134067125287
 31
0.0
  0
LINE
  5
4DE
330
1F
100
AcDbEntity
  8
D-0
  6
Continuous
 62
     7
370
     9
100
AcDbLine
 10
-636.2538904587702
 20
-609.7134067125287
 30
0.0
 11
-636.2538904587702
 21
-611.21366992664
 31
0.0
  0
LINE
  5
4DF
330
1F
100
AcDbEntity
  8
D-0
  6
Continuous
 62
     7
370
     9
100
AcDbLine
 10
-636.2538904587702
 20
-611.21366992664
 30
0.0
 11
-637.7536768357234
 21
-611.21366992664
 31
0.0
  0
LINE
  5
4E0
330
1F
100
AcDbEntity
  8
D-0
  6
Continuous
 62
     7
370
     9
100
AcDbLine
 10
-606.633281175323
 20
-469.44271579456
 30
0.0
 11
-606.633281175323
 21
-467.9424430437055
 31
0.0
  0
LINE
  5
4E1
330
1F
100
AcDbEntity
  8
D-0
  6
Continuous
 62
     7
370
     9
100
AcDbLine
 10
-606.633281175323
 20
-467.9424430437055
 30
0.0
 11
-605.1330036560969
 21
-467.9424430437055
 31
0.0
  0
LINE
  5
4E2
330
1F
100
AcDbEntity
  8
D-0
  6
Continuous
 62
     7
370
     9
100
AcDbLine
 10
-605.1330036560969
 20
-467.9424430437055
 30
0.0
 11
-605.1330036560969
 21
-469.44271579456
 31
0.0
  0
LINE
  5
4E3
330
1F
100
AcDbEntity
  8
D-0
  6
Continuous
 62
     7
370
     9
100
AcDbLine
 10
-605.1330036560969
 20
-469.44271579456
 30
0.0
 11
-606.633281175323
 21
-469.44271579456
 31
0.0
  0
LINE
  5
4E4
330
1F
100
AcDbEntity
  8
D-0
  6
Continuous
 62
     7
370
     9
100
AcDbLine
 10
-550.8722361068205
 20
-580.7740642137494
 30
0.0
 11
-550.8722361068205
 21
-579.2737819261517
 31
0.0
  0
LINE
  5
4E5
330
1F
100
AcDbEntity
  8
D-0
  6
Continuous
 62
     7
370
     9
100
AcDbLine
 10
-550.8722361068205
 20
-579.2737819261517
 30
0.0
 11
-549.3719566876964
 21
-579.2737819261517
 31
0.0
  0
LINE
  5
4E6
330
1F
100
AcDbEntity
  8
D-0
  6
Continuous
 62
     7
370
     9
100
AcDbLine
 10
-549.3719566876964
 20
-579.2737819261517
 30
0.0
 11
-549.3719566876964
 21
-580.7740642137494
 31
0.0
  0
LINE
  5
4E7
330
1F
100
AcDbEntity
  8
D-0
  6
Continuous
 62
     7
370
     9
100
AcDbLine
 10
-549.3719566876964
 20
-580.7740642137494
 30
0.0
 11
-550.8722361068205
 21
-580.7740642137494
 31
0.0
  0
LINE
  5
4E8
330
1F
100
AcDbEntity
  8
D-0
  6
Continuous
 62
     7
370
     9
100
AcDbLine
 10
-610.1094908158259
 20
-603.3154155321088
 30
0.0
 11
-610.1094908158259
 21
-601.8151332445111
 31
0.0
  0
LINE
  5
4E9
330
1F
100
AcDbEntity
  8
D-0
  6
Continuous
 62
     7
370
     9
100
AcDbLine
 10
-610.1094908158259
 20
-601.8151332445111
 30
0.0
 11
-608.6097092072444
 21
-601.8151332445111
 31
0.0
  0
LINE
  5
4EA
330
1F
100
AcDbEntity
  8
D-0
  6
Continuous
 62
     7
370
     9
100
AcDbLine
 10
-608.6097092072444
 20
-601.8151332445111
 30
0.0
 11
-608.6097092072444
 21
-603.3154155321088
 31
0.0
  0
LINE
  5
4EB
330
1F
100
AcDbEntity
  8
D-0
  6
Continuous
 62
     7
370
     9
100
AcDbLine
 10
-608.6097092072444
 20
-603.3154155321088
 30
0.0
 11
-610.1094908158259
 21
-603.3154155321088
 31
0.0
  0
LINE
  5
4EC
330
1F
100
AcDbEntity
  8
D-0
  6
Continuous
 62
     7
370
     9
100
AcDbLine
 10
-598.2618421952204
 20
-676.3752414293256
 30
0.0
 11
-598.2618421952204
 21
-674.8749591417279
 31
0.0
  0
LINE
  5
4ED
330
1F
100
AcDbEntity
  8
D-0
  6
Continuous
 62
     7
370
     9
100
AcDbLine
 10
-598.2618421952204
 20
-674.8749591417279
 30
0.0
 11
-596.7620605866389
 21
-674.8749591417279
 31
0.0
  0
LINE
  5
4EE
330
1F
100
AcDbEntity
  8
D-0
  6
Continuous
 62
     7
370
     9
100
AcDbLine
 10
-596.7620605866389
 20
-674.8749591417279
 30
0.0
 11
-596.7620605866389
 21
-676.3752414293256
 31
0.0
  0
LINE
  5
4EF
330
1F
100
AcDbEntity
  8
D-0
  6
Continuous
 62
     7
370
     9
100
AcDbLine
 10
-596.7620605866389
 20
-676.3752414293256
 30
0.0
 11
-598.2618421952204
 21
-676.3752414293256
 31
0.0
  0
LINE
  5
4F0
330
1F
100
AcDbEntity
  8
D-0
  6
Continuous
 62
     7
370
     9
100
AcDbLine
 10
-646.6394133011775
 20
-675.3877688951459
 30
0.0
 11
-646.6394133011775
 21
-673.8874866075482
 31
0.0
  0
LINE
  5
4F1
330
1F
100
AcDbEntity
  8
D-0
  6
Continuous
 62
     7
370
     9
100
AcDbLine
 10
-646.6394133011775
 20
-673.8874866075482
 30
0.0
 11
-645.1391310135798
 21
-673.8874866075482
 31
0.0
  0
LINE
  5
4F2
330
1F
100
AcDbEntity
  8
D-0
  6
Continuous
 62
     7
370
     9
100
AcDbLine
 10
-645.1391310135798
 20
-673.8874866075482
 30
0.0
 11
-645.1391310135798
 21
-675.3877688951459
 31
0.0
  0
LINE
  5
4F3
330
1F
100
AcDbEntity
  8
D-0
  6
Continuous
 62
     7
370
     9
100
AcDbLine
 10
-645.1391310135798
 20
-675.3877688951459
 30
0.0
 11
-646.6394133011775
 21
-675.3877688951459
 31
0.0
  0
LINE
  5
4F4
330
1F
100
AcDbEntity
  8
D-0
  6
Continuous
 62
     7
370
     9
100
AcDbLine
 10
-633.6863703171687
 20
-794.4935275621384
 30
0.0
 11
-633.6863703171687
 21
-792.9932452745408
 31
0.0
  0
LINE
  5
4F5
330
1F
100
AcDbEntity
  8
D-0
  6
Continuous
 62
     7
370
     9
100
AcDbLine
 10
-633.6863703171687
 20
-792.9932452745408
 30
0.0
 11
-632.1865934769587
 21
-792.9932452745408
 31
0.0
  0
LINE
  5
4F6
330
1F
100
AcDbEntity
  8
D-0
  6
Continuous
 62
     7
370
     9
100
AcDbLine
 10
-632.1865934769587
 20
-792.9932452745408
 30
0.0
 11
-632.1865934769587
 21
-794.4935275621384
 31
0.0
  0
LINE
  5
4F7
330
1F
100
AcDbEntity
  8
D-0
  6
Continuous
 62
     7
370
     9
100
AcDbLine
 10
-632.1865934769587
 20
-794.4935275621384
 30
0.0
 11
-633.6863703171687
 21
-794.4935275621384
 31
0.0
  0
LINE
  5
4F8
330
1F
100
AcDbEntity
  8
D-0
  6
Continuous
 62
     7
370
     9
100
AcDbLine
 10
-583.1604499260859
 20
-824.0011645860642
 30
0.0
 11
-583.1604499260859
 21
-822.5008822984665
 31
0.0
  0
LINE
  5
4F9
330
1F
100
AcDbEntity
  8
D-0
  6
Continuous
 62
     7
370
     9
100
AcDbLine
 10
-583.1604499260859
 20
-822.5008822984665
 30
0.0
 11
-581.6606659333186
 21
-822.5008822984665
 31
0.0
  0
LINE
  5
4FA
330
1F
100
AcDbEntity
  8
D-0
  6
Continuous
 62
     7
370
     9
100
AcDbLine
 10
-581.6606659333186
 20
-822.5008822984665
 30
0.0
 11
-581.6606659333186
 21
-824.0011645860642
 31
0.0
  0
LINE
  5
4FB
330
1F
100
AcDbEntity
  8
D-0
  6
Continuous
 62
     7
370
     9
100
AcDbLine
 10
-581.6606659333186
 20
-824.0011645860642
 30
0.0
 11
-583.1604499260859
 21
-824.0011645860642
 31
0.0
  0
LINE
  5
4FC
330
1F
100
AcDbEntity
  8
D-0
  6
Continuous
 62
     7
370
     9
100
AcDbLine
 10
-546.9228545467333
 20
-748.2717181749314
 30
0.0
 11
-546.9228545467333
 21
-746.7714740343064
 31
0.0
  0
LINE
  5
4FD
330
1F
100
AcDbEntity
  8
D-0
  6
Continuous
 62
     7
370
     9
100
AcDbLine
 10
-546.9228545467333
 20
-746.7714740343064
 30
0.0
 11
-545.4225749413447
 21
-746.7714740343064
 31
0.0
  0
LINE
  5
4FE
330
1F
100
AcDbEntity
  8
D-0
  6
Continuous
 62
     7
370
     9
100
AcDbLine
 10
-545.4225749413447
 20
-746.7714740343064
 30
0.0
 11
-545.4225749413447
 21
-748.2717181749314
 31
0.0
  0
LINE
  5
4FF
330
1F
100
AcDbEntity
  8
D-0
  6
Continuous
 62
     7
370
     9
100
AcDbLine
 10
-545.4225749413447
 20
-748.2717181749314
 30
0.0
 11
-546.9228545467333
 21
-748.2717181749314
 31
0.0
  0
LINE
  5
500
330
1F
100
AcDbEntity
  8
D-0
  6
Continuous
 62
     7
370
     9
100
AcDbLine
 10
-663.9555544297175
 20
-630.2084590501752
 30
0.0
 11
-663.9555544297175
 21
-628.7081767625775
 31
0.0
  0
LINE
  5
501
330
1F
100
AcDbEntity
  8
D-0
  6
Continuous
 62
     7
370
     9
100
AcDbLine
 10
-663.9555544297175
 20
-628.7081767625775
 30
0.0
 11
-662.4552721421198
 21
-628.7081767625775
 31
0.0
  0
LINE
  5
502
330
1F
100
AcDbEntity
  8
D-0
  6
Continuous
 62
     7
370
     9
100
AcDbLine
 10
-662.4552721421198
 20
-628.7081767625775
 30
0.0
 11
-662.4552721421198
 21
-630.2084590501752
 31
0.0
  0
LINE
  5
503
330
1F
100
AcDbEntity
  8
D-0
  6
Continuous
 62
     7
370
     9
100
AcDbLine
 10
-662.4552721421198
 20
-630.2084590501752
 30
0.0
 11
-663.9555544297175
 21
-630.2084590501752
 31
0.0
  0
LINE
  5
504
330
1F
100
AcDbEntity
  8
D-0
  6
Continuous
 62
     7
370
     9
100
AcDbLine
 10
-547.033839587398
 20
-673.9424945421185
 30
0.0
 11
-547.033839587398
 21
-672.4422122545209
 31
0.0
  0
LINE
  5
505
330
1F
100
AcDbEntity
  8
D-0
  6
Continuous
 62
     7
370
     9
100
AcDbLine
 10
-547.033839587398
 20
-672.4422122545209
 30
0.0
 11
-545.5335599820094
 21
-672.4422122545209
 31
0.0
  0
LINE
  5
506
330
1F
100
AcDbEntity
  8
D-0
  6
Continuous
 62
     7
370
     9
100
AcDbLine
 10
-545.5335599820094
 20
-672.4422122545209
 30
0.0
 11
-545.5335599820094
 21
-673.9424945421185
 31
0.0
  0
LINE
  5
507
330
1F
100
AcDbEntity
  8
D-0
  6
Continuous
 62
     7
370
     9
100
AcDbLine
 10
-545.5335599820094
 20
-673.9424945421185
 30
0.0
 11
-547.033839587398
 21
-673.9424945421185
 31
0.0
  0
LINE
  5
508
330
1F
100
AcDbEntity
  8
D-0
  6
Continuous
 62
     7
370
     9
100
AcDbLine
 10
-571.7641729752497
 20
-797.2884799547165
 30
0.0
 11
-571.7641729752497
 21
-795.7881976671189
 31
0.0
  0
LINE
  5
509
330
1F
100
AcDbEntity
  8
D-0
  6
Continuous
 62
     7
370
     9
100
AcDbLine
 10
-571.7641729752497
 20
-795.7881976671189
 30
0.0
 11
-570.2638930718379
 21
-795.7881976671189
 31
0.0
  0
LINE
  5
50A
330
1F
100
AcDbEntity
  8
D-0
  6
Continuous
 62
     7
370
     9
100
AcDbLine
 10
-570.2638930718379
 20
-795.7881976671189
 30
0.0
 11
-570.2638930718379
 21
-797.2884799547165
 31
0.0
  0
LINE
  5
50B
330
1F
100
AcDbEntity
  8
D-0
  6
Continuous
 62
     7
370
     9
100
AcDbLine
 10
-570.2638930718379
 20
-797.2884799547165
 30
0.0
 11
-571.7641729752497
 21
-797.2884799547165
 31
0.0
  0
LINE
  5
50C
330
1F
100
AcDbEntity
  8
D-0
  6
Continuous
 62
     7
370
     9
100
AcDbLine
 10
-539.9203944842295
 20
-484.8265315599409
 30
0.0
 11
-539.9203944842295
 21
-483.3262492723432
 31
0.0
  0
LINE
  5
50D
330
1F
100
AcDbEntity
  8
D-0
  6
Continuous
 62
     7
370
     9
100
AcDbLine
 10
-539.9203944842295
 20
-483.3262492723432
 30
0.0
 11
-538.4201151768641
 21
-483.3262492723432
 31
0.0
  0
LINE
  5
50E
330
1F
100
AcDbEntity
  8
D-0
  6
Continuous
 62
     7
370
     9
100
AcDbLine
 10
-538.4201151768641
 20
-483.3262492723432
 30
0.0
 11
-538.4201151768641
 21
-484.8265315599409
 31
0.0
  0
LINE
  5
50F
330
1F
100
AcDbEntity
  8
D-0
  6
Continuous
 62
     7
370
     9
100
AcDbLine
 10
-538.4201151768641
 20
-484.8265315599409
 30
0.0
 11
-539.9203944842295
 21
-484.8265315599409
 31
0.0
  0
LINE
  5
510
330
1F
100
AcDbEntity
  8
D-4
  6
Continuous
 62
     7
370
     9
100
AcDbLine
 10
-374.0830225388484
 20
-472.3372508592573
 30
0.0
 11
-374.0830225388484
 21
-534.8208095140424
 31
0.0
  0
LINE
  5
511
330
1F
100
AcDbEntity
  8
D-5
  6
Continuous
 62
     7
370
     9
100
AcDbLine
 10
-384.0835756699519
 20
-410.5112124986616
 30
0.0
 11
-370.2718920151668
 21
-389.6717979021039
 31
0.0
  0
LINE
  5
512
330
1F
100
AcDbEntity
  8
D-5
  6
Continuous
 62
     7
370
     9
100
AcDbLine
 10
-384.0835756699519
 20
-410.5112124986616
 30
0.0
 11
-365.3489107529597
 21
-393.9571096010175
 31
0.0
  0
LINE
  5
513
330
1F
100
AcDbEntity
  8
D-5
  6
Continuous
 62
     7
370
     9
100
AcDbLine
 10
-384.0835756699519
 20
-410.5112124986616
 30
0.0
 11
-262.3369783799129
 21
-270.6304694719282
 31
0.0
  0
LINE
  5
514
330
1F
100
AcDbEntity
  8
D-5
  6
Continuous
 62
     7
370
     9
100
AcDbLine
 10
-262.3369783799129
 20
-270.6304694719282
 30
0.0
 11
124.3664937575383
 21
-270.6304694719282
 31
0.0
  0
LINE
  5
515
330
1F
100
AcDbEntity
  8
D-4
  6
Continuous
 62
     7
370
     9
100
AcDbLine
 10
-362.2561830918269
 20
-460.5114032335248
 30
0.0
 11
-272.5091356675105
 21
-460.5114032335248
 31
0.0
  0
LINE
  5
516
330
1F
100
AcDbEntity
  8
D-4
  6
Continuous
 62
     7
370
     9
100
AcDbLine
 10
-362.2561830918269
 20
-410.5111648149457
 30
0.0
 11
-272.5091356675105
 21
-410.5111648149457
 31
0.0
  0
LINE
  5
517
330
1F
100
AcDbEntity
  8
D-4
  6
Continuous
 62
     7
370
     9
100
AcDbLine
 10
-275.5096811692195
 20
-410.5111648149457
 30
0.0
 11
-275.5096811692195
 21
-325.5110217637983
 31
0.0
  0
LINE
  5
518
330
1F
100
AcDbEntity
  8
D-4
  6
Continuous
 62
     7
370
     9
100
AcDbLine
 10
-275.5096811692195
 20
-460.5114032335248
 30
0.0
 11
-275.5096811692195
 21
-410.5111648149457
 31
0.0
  0
LINE
  5
519
330
1F
100
AcDbEntity
  8
D-4
  6
Continuous
 62
     7
370
     9
100
AcDbLine
 10
-519.0834540764765
 20
-531.8202640123334
 30
0.0
 11
-674.0824407975153
 21
-531.8202640123334
 31
0.0
  0
LINE
  5
51A
330
1F
100
AcDbEntity
  8
D-9
  6
Continuous
 62
     4
370
     9
100
AcDbLine
 10
-659.0830797593073
 20
-403.0116893358198
 30
0.0
 11
-544.083322946258
 21
-403.0116893358198
 31
0.0
  0
LINE
  5
51B
330
1F
100
AcDbEntity
  8
D-1
  6
Continuous
 62
     2
370
     9
100
AcDbLine
 10
-519.0834874550776
 20
-328.5110218830076
 30
0.0
 11
-519.0834874550776
 21
-353.0109049386945
 31
0.0
  0
LINE
  5
51C
330
1F
100
AcDbEntity
  8
D-1
  6
Continuous
 62
     2
370
     9
100
AcDbLine
 10
-519.0834874550776
 20
-447.5106479234663
 30
0.0
 11
-519.0834874550776
 21
-423.0107642717329
 31
0.0
  0
LINE
  5
51D
330
1F
100
AcDbEntity
  8
D-1
  6
Continuous
 62
     2
370
     9
100
AcDbLine
 10
-541.0832387844996
 20
-325.5114325525781
 30
0.0
 11
-522.0829529206233
 21
-325.5114325525781
 31
0.0
  0
LINE
  5
51E
330
1F
100
AcDbEntity
  8
D-1
  6
Continuous
 62
     2
370
     9
100
AcDbLine
 10
-669.08311790628
 20
-420.510945469853
 30
0.0
 11
-669.08311790628
 21
-413.0110408372846
 31
0.0
  0
LINE
  5
51F
330
1F
100
AcDbEntity
  8
D-1
  6
Continuous
 62
     2
370
     9
100
AcDbLine
 10
-674.0835089127497
 20
-420.510945469853
 30
0.0
 11
-674.0835089127497
 21
-413.0110408372846
 31
0.0
  0
LINE
  5
520
330
1F
100
AcDbEntity
  8
D-1
  6
Continuous
 62
     2
370
     9
100
AcDbLine
 10
-539.0835536162333
 20
-445.5109645433393
 30
0.0
 11
-524.0832561890559
 21
-445.5109645433393
 31
0.0
  0
LINE
  5
521
330
1F
100
AcDbEntity
  8
D-1
  6
Continuous
 62
     2
370
     9
100
AcDbLine
 10
-539.0833062569575
 20
-450.5112220354047
 30
0.0
 11
-522.0829529206233
 21
-450.5112220354047
 31
0.0
  0
LINE
  5
522
330
1F
100
AcDbEntity
  8
D-1
  6
Continuous
 62
     2
370
     9
100
AcDbLine
 10
-544.083322946258
 20
-415.5106784410444
 30
0.0
 11
-544.083322946258
 21
-328.5110218830076
 31
0.0
  0
LINE
  5
523
330
1F
100
AcDbEntity
  8
D-1
  6
Continuous
 62
     2
370
     9
100
AcDbLine
 10
-544.083322946258
 20
-415.5106784410444
 30
0.0
 11
-594.0829939286189
 21
-415.5106784410444
 31
0.0
  0
LINE
  5
524
330
1F
100
AcDbEntity
  8
D-1
  6
Continuous
 62
     2
370
     9
100
AcDbLine
 10
-669.08311790628
 20
-425.5112029619184
 30
0.0
 11
-544.083322946258
 21
-425.5112029619184
 31
0.0
  0
LINE
  5
525
330
1F
100
AcDbEntity
  8
D-1
  6
Continuous
 62
     2
370
     9
100
AcDbLine
 10
-544.083322946258
 20
-445.5112124986616
 30
0.0
 11
-544.083322946258
 21
-425.5112029619184
 31
0.0
  0
LINE
  5
526
330
1F
100
AcDbEntity
  8
D-1
  6
Continuous
 62
     2
370
     9
100
AcDbLine
 10
-539.0835536162333
 20
-425.5109550065961
 30
0.0
 11
-539.0835536162333
 21
-445.5109645433393
 31
0.0
  0
LINE
  5
527
330
1F
100
AcDbEntity
  8
D-1
  6
Continuous
 62
     2
370
     9
100
AcDbLine
 10
-544.0835703055338
 20
-420.510945469853
 30
0.0
 11
-669.08311790628
 21
-420.510945469853
 31
0.0
  0
LINE
  5
528
330
1F
100
AcDbEntity
  8
D-1
  6
Continuous
 62
     2
370
     9
100
AcDbLine
 10
-539.0835536162333
 20
-415.5109263963666
 30
0.0
 11
-539.0835536162333
 21
-330.5107067532506
 31
0.0
  0
LINE
  5
529
330
1F
100
AcDbEntity
  8
D-9
  6
Continuous
 62
     4
370
     9
100
AcDbLine
 10
-544.083322946258
 20
-408.6020995683637
 30
0.0
 11
-550.9919046501593
 21
-415.5106784410444
 31
0.0
  0
LINE
  5
52A
330
1F
100
AcDbEntity
  8
D-9
  6
Continuous
 62
     4
370
     9
100
AcDbLine
 10
-545.5632603804545
 20
-403.0116893358198
 30
0.0
 11
-558.0624354521708
 21
-415.5106784410444
 31
0.0
  0
LINE
  5
52B
330
1F
100
AcDbEntity
  8
D-9
  6
Continuous
 62
     4
370
     9
100
AcDbLine
 10
-552.6345956961588
 20
-403.0116893358198
 30
0.0
 11
-565.1337713639216
 21
-415.5106784410444
 31
0.0
  0
LINE
  5
52C
330
1F
100
AcDbEntity
  8
D-9
  6
Continuous
 62
     4
370
     9
100
AcDbLine
 10
-559.7054356972651
 20
-403.0116893358198
 30
0.0
 11
-572.2046107689814
 21
-415.5106784410444
 31
0.0
  0
LINE
  5
52D
330
1F
100
AcDbEntity
  8
D-9
  6
Continuous
 62
     4
370
     9
100
AcDbLine
 10
-566.7767710129694
 20
-403.0116893358198
 30
0.0
 11
-579.2759460846858
 21
-415.5106784410444
 31
0.0
  0
LINE
  5
52E
330
1F
100
AcDbEntity
  8
D-9
  6
Continuous
 62
     4
370
     9
100
AcDbLine
 10
-573.847612802215
 20
-403.0116893358198
 30
0.0
 11
-586.3469714562373
 21
-415.5106784410444
 31
0.0
  0
LINE
  5
52F
330
1F
100
AcDbEntity
  8
D-9
  6
Continuous
 62
     4
370
     9
100
AcDbLine
 10
-580.9189481179194
 20
-403.0116893358198
 30
0.0
 11
-593.4183067719416
 21
-415.5106784410444
 31
0.0
  0
LINE
  5
530
330
1F
100
AcDbEntity
  8
D-9
  6
Continuous
 62
     4
370
     9
100
AcDbLine
 10
-616.2746328751521
 20
-403.0116893358198
 30
0.0
 11
-621.2737221161799
 21
-408.010773808476
 31
0.0
  0
LINE
  5
531
330
1F
100
AcDbEntity
  8
D-9
  6
Continuous
 62
     4
370
     9
100
AcDbLine
 10
-623.3454746643977
 20
-403.0116893358198
 30
0.0
 11
-628.3446258942561
 21
-408.010773808476
 31
0.0
  0
LINE
  5
532
330
1F
100
AcDbEntity
  8
D-9
  6
Continuous
 62
     4
370
     9
100
AcDbLine
 10
-658.7011618058161
 20
-403.0116893358198
 30
0.0
 11
-663.7006182114558
 21
-408.010773808476
 31
0.0
  0
LINE
  5
533
330
1F
100
AcDbEntity
  8
D-9
  6
Continuous
 62
     4
370
     9
100
AcDbLine
 10
-609.2032999436335
 20
-403.0116893358198
 30
0.0
 11
-614.2025656144099
 21
-408.010773808476
 31
0.0
  0
LINE
  5
534
330
1F
100
AcDbEntity
  8
D-9
  6
Continuous
 62
     4
370
     9
100
AcDbLine
 10
-595.0611204544978
 20
-403.0116893358198
 30
0.0
 11
-600.0603145997004
 21
-408.010773808476
 31
0.0
  0
LINE
  5
535
330
1F
100
AcDbEntity
  8
D-9
  6
Continuous
 62
     4
370
     9
100
AcDbLine
 10
-602.1324581543879
 20
-403.0116893358198
 30
0.0
 11
-607.1316332261042
 21
-408.010773808476
 31
0.0
  0
LINE
  5
536
330
1F
100
AcDbEntity
  8
D-9
  6
Continuous
 62
     4
370
     9
100
AcDbLine
 10
-630.4168123642878
 20
-403.0116893358198
 30
0.0
 11
-635.4158968369441
 21
-408.010773808476
 31
0.0
  0
LINE
  5
537
330
1F
100
AcDbEntity
  8
D-9
  6
Continuous
 62
     4
370
     9
100
AcDbLine
 10
-637.4876493851618
 20
-403.0116893358198
 30
0.0
 11
-642.4868292252497
 21
-408.010773808476
 31
0.0
  0
LINE
  5
538
330
1F
100
AcDbEntity
  8
D-9
  6
Continuous
 62
     4
370
     9
100
AcDbLine
 10
-644.5584864060359
 20
-403.0116893358198
 30
0.0
 11
-649.5576948563532
 21
-408.010773808476
 31
0.0
  0
LINE
  5
539
330
1F
100
AcDbEntity
  8
D-9
  6
Continuous
 62
     4
370
     9
100
AcDbLine
 10
-651.6298288742976
 20
-403.0116893358198
 30
0.0
 11
-656.6290945450739
 21
-408.010773808476
 31
0.0
  0
LINE
  5
53A
330
1F
100
AcDbEntity
  8
D-1
  6
Continuous
 62
     2
370
     9
100
AcDbLine
 10
-599.083322946258
 20
-413.0110408372846
 30
0.0
 11
-669.08311790628
 21
-413.0110408372846
 31
0.0
  0
LINE
  5
53B
330
1F
100
AcDbEntity
  8
D-1
  6
Continuous
 62
     2
370
     9
100
AcDbLine
 10
-599.083322946258
 20
-415.510945469853
 30
0.0
 11
-599.083322946258
 21
-413.0110408372846
 31
0.0
  0
LINE
  5
53C
330
1F
100
AcDbEntity
  8
D-1
  6
Continuous
 62
     2
370
     9
100
AcDbLine
 10
-599.083322946258
 20
-408.010773808476
 30
0.0
 11
-669.08311790628
 21
-408.010773808476
 31
0.0
  0
LINE
  5
53D
330
1F
100
AcDbEntity
  8
D-1
  6
Continuous
 62
     2
370
     9
100
AcDbLine
 10
-594.083322946258
 20
-413.010773808476
 30
0.0
 11
-594.083322946258
 21
-415.5106784410444
 31
0.0
  0
LINE
  5
53E
330
1F
100
AcDbEntity
  8
D-9
  6
Continuous
 62
     4
370
     9
100
AcDbLine
 10
-587.9902834336237
 20
-403.0116893358198
 30
0.0
 11
-595.0433821122126
 21
-410.0647880144086
 31
0.0
  0
LINE
  5
53F
330
1F
100
AcDbEntity
  8
D-3
  6
Continuous
 62
     3
370
     9
100
AcDbLine
 10
-535.583270255752
 20
-330.5107067532506
 30
0.0
 11
-535.583270255752
 21
-443.0107070512739
 31
0.0
  0
LINE
  5
540
330
1F
100
AcDbEntity
  8
D-3
  6
Continuous
 62
     3
370
     9
100
AcDbLine
 10
-374.0833849350886
 20
-420.5106307573286
 30
0.0
 11
-374.0833849350886
 21
-460.5106402940717
 31
0.0
  0
LINE
  5
541
330
1F
100
AcDbEntity
  8
D-3
  6
Continuous
 62
     3
370
     9
100
AcDbLine
 10
-499.0832991044002
 20
-442.330374867436
 30
0.0
 11
-499.0832991044002
 21
-460.5106402940717
 31
0.0
  0
LINE
  5
542
330
1F
100
AcDbEntity
  8
D-3
  6
Continuous
 62
     3
370
     9
100
AcDbLine
 10
-502.0122427384334
 20
-435.2592803544965
 30
0.0
 11
-524.0832561890559
 21
-413.1882716722455
 31
0.0
  0
LINE
  5
543
330
1F
100
AcDbEntity
  8
D-3
  6
JWW_CENTER1
 62
     3
370
     9
100
AcDbLine
 10
-474.1448301712947
 20
-382.0106031007734
 30
0.0
 11
-542.8158122937159
 21
-382.0106031007734
 31
0.0
  0
LINE
  5
544
330
1F
100
AcDbEntity
  8
D-3
  6
Continuous
 62
     3
370
     9
100
AcDbLine
 10
-481.4057011048274
 20
-403.1882382936445
 30
0.0
 11
-484.5830768982844
 21
-400.0108625001874
 31
0.0
  0
LINE
  5
545
330
1F
100
AcDbEntity
  8
D-3
  6
Continuous
 62
     3
370
     9
100
AcDbLine
 10
-512.5837392250971
 20
-372.0100785798994
 30
0.0
 11
-524.0832561890559
 21
-360.5105592317548
 31
0.0
  0
LINE
  5
546
330
1F
100
AcDbEntity
  8
D-A
  6
Continuous
 62
     7
370
     9
100
AcDbLine
 10
-537.8339833657221
 20
-392.0101405687299
 30
0.0
 11
-537.8339833657221
 21
-372.0100785798994
 31
0.0
  0
LINE
  5
547
330
1F
100
AcDbEntity
  8
D-A
  6
Continuous
 62
     7
370
     9
100
AcDbLine
 10
-537.8339833657221
 20
-372.0100785798994
 30
0.0
 11
-539.0835536162333
 21
-373.2601405687299
 31
0.0
  0
LINE
  5
548
330
1F
100
AcDbEntity
  8
D-A
  6
Continuous
 62
     7
370
     9
100
AcDbLine
 10
-537.8339833657221
 20
-392.0101405687299
 30
0.0
 11
-539.0835536162333
 21
-390.7605697221723
 31
0.0
  0
LINE
  5
549
330
1F
100
AcDbEntity
  8
D-A
  6
Continuous
 62
     7
370
     9
100
AcDbLine
 10
-476.0835213105159
 20
-393.5108663148847
 30
0.0
 11
-476.0835213105159
 21
-370.5103446550336
 31
0.0
  0
LINE
  5
54A
330
1F
100
AcDbEntity
  8
D-A
  6
Continuous
 62
     7
370
     9
100
AcDbLine
 10
-482.5835174958186
 20
-400.0108625001874
 30
0.0
 11
-489.0835136811214
 21
-400.0108625001874
 31
0.0
  0
LINE
  5
54B
330
1F
100
AcDbEntity
  8
D-A
  6
Continuous
 62
     7
370
     9
100
AcDbLine
 10
-482.5835174958186
 20
-364.0103460855451
 30
0.0
 11
-489.0835136811214
 21
-364.0103460855451
 31
0.0
  0
LINE
  5
54C
330
1F
100
AcDbEntity
  8
D-A
  6
Continuous
 62
     7
370
     9
100
AcDbLine
 10
-489.0835136811214
 20
-364.0103460855451
 30
0.0
 11
-489.0835136811214
 21
-400.0108625001874
 31
0.0
  0
LINE
  5
54D
330
1F
100
AcDbEntity
  8
D-A
  6
Continuous
 62
     7
370
     9
100
AcDbLine
 10
-489.0835136811214
 20
-372.0100785798994
 30
0.0
 11
-524.0832561890559
 21
-372.0100785798994
 31
0.0
  0
LINE
  5
54E
330
1F
100
AcDbEntity
  8
D-A
  6
Continuous
 62
     7
370
     9
100
AcDbLine
 10
-489.0835136811214
 20
-373.2601405687299
 30
0.0
 11
-524.0832561890559
 21
-373.2601405687299
 31
0.0
  0
LINE
  5
54F
330
1F
100
AcDbEntity
  8
D-A
  6
Continuous
 62
     7
370
     9
100
AcDbLine
 10
-489.0835136811214
 20
-390.7605697221723
 30
0.0
 11
-524.0832561890559
 21
-390.7605697221723
 31
0.0
  0
LINE
  5
550
330
1F
100
AcDbEntity
  8
D-A
  6
Continuous
 62
     7
370
     9
100
AcDbLine
 10
-489.0835136811214
 20
-392.0101405687299
 30
0.0
 11
-524.0832561890559
 21
-392.0101405687299
 31
0.0
  0
LINE
  5
551
330
1F
100
AcDbEntity
  8
D-A
  6
Continuous
 62
     7
370
     9
100
AcDbLine
 10
-535.583270255752
 20
-390.7605697221723
 30
0.0
 11
-539.0835536162333
 21
-390.7605697221723
 31
0.0
  0
LINE
  5
552
330
1F
100
AcDbEntity
  8
D-A
  6
Continuous
 62
     7
370
     9
100
AcDbLine
 10
-535.583270255752
 20
-392.0101405687299
 30
0.0
 11
-537.8339833657221
 21
-392.0101405687299
 31
0.0
  0
LINE
  5
553
330
1F
100
AcDbEntity
  8
D-A
  6
Continuous
 62
     7
370
     9
100
AcDbLine
 10
-535.583270255752
 20
-373.2601405687299
 30
0.0
 11
-539.0835536162333
 21
-373.2601405687299
 31
0.0
  0
LINE
  5
554
330
1F
100
AcDbEntity
  8
D-A
  6
Continuous
 62
     7
370
     9
100
AcDbLine
 10
-535.583270255752
 20
-372.0100785798994
 30
0.0
 11
-537.8339833657221
 21
-372.0100785798994
 31
0.0
  0
LINE
  5
555
330
1F
100
AcDbEntity
  8
D-3
  6
JWW_DASHED2
 62
     3
370
     9
100
AcDbLine
 10
-499.0832991044002
 20
-449.0106250352827
 30
0.0
 11
-374.0833849350886
 21
-449.0106250352827
 31
0.0
  0
LINE
  5
556
330
1F
100
AcDbEntity
  8
D-3
  6
Continuous
 62
     3
370
     9
100
AcDbLine
 10
-384.083289567657
 20
-410.5107261247602
 30
0.0
 11
-463.7279791275935
 21
-410.5107261247602
 31
0.0
  0
LINE
  5
557
330
1F
100
AcDbEntity
  8
D-3
  6
Continuous
 62
     3
370
     9
100
AcDbLine
 10
-499.0832991044002
 20
-460.5106402940717
 30
0.0
 11
-374.0833849350886
 21
-460.5106402940717
 31
0.0
  0
LINE
  5
558
330
1F
100
AcDbEntity
  8
D-1
  6
Continuous
 62
     2
370
     9
100
AcDbLine
 10
-539.0835536162333
 20
-330.5107067532506
 30
0.0
 11
-524.0832561890559
 21
-330.5107067532506
 31
0.0
  0
LINE
  5
559
330
1F
100
AcDbEntity
  8
D-1
  6
Continuous
 62
     2
370
     9
100
AcDbLine
 10
-519.0834874550776
 20
-353.0109049386945
 30
0.0
 11
-524.0832561890559
 21
-353.0109049386945
 31
0.0
  0
LINE
  5
55A
330
1F
100
AcDbEntity
  8
D-1
  6
Continuous
 62
     2
370
     9
100
AcDbLine
 10
-524.0832561890559
 20
-353.0109049386945
 30
0.0
 11
-524.0832561890559
 21
-330.5107067532506
 31
0.0
  0
LINE
  5
55B
330
1F
100
AcDbEntity
  8
D-3
  6
Continuous
 62
     3
370
     9
100
AcDbLine
 10
-535.583270255752
 20
-330.5107067532506
 30
0.0
 11
-524.0832561890559
 21
-330.5107067532506
 31
0.0
  0
LINE
  5
55C
330
1F
100
AcDbEntity
  8
D-1
  6
Continuous
 62
     2
370
     9
100
AcDbLine
 10
-519.0834874550776
 20
-423.0107642717329
 30
0.0
 11
-524.0832561890559
 21
-423.0107642717329
 31
0.0
  0
LINE
  5
55D
330
1F
100
AcDbEntity
  8
D-1
  6
Continuous
 62
     2
370
     9
100
AcDbLine
 10
-524.0832561890559
 20
-445.5109645433393
 30
0.0
 11
-524.0832561890559
 21
-423.0107642717329
 31
0.0
  0
LINE
  5
55E
330
1F
100
AcDbEntity
  8
D-3
  6
Continuous
 62
     3
370
     9
100
AcDbLine
 10
-535.583270255752
 20
-443.0107070512739
 30
0.0
 11
-524.0832561890559
 21
-443.0107070512739
 31
0.0
  0
LINE
  5
55F
330
1F
100
AcDbEntity
  8
D-3
  6
Continuous
 62
     3
370
     9
100
AcDbLine
 10
-524.0832561890559
 20
-330.5107067532506
 30
0.0
 11
-524.0832561890559
 21
-443.0107070512739
 31
0.0
  0
LINE
  5
560
330
1F
100
AcDbEntity
  8
D-6
  6
Continuous
 62
     6
370
     9
100
AcDbLine
 10
-522.0829529206233
 20
-325.5110217637983
 30
0.0
 11
-109.0815729538875
 21
-325.5110217637983
 31
0.0
  0
LINE
  5
561
330
1F
100
AcDbEntity
  8
D-6
  6
Continuous
 62
     6
370
     9
100
AcDbLine
 10
-674.0824407975153
 20
-420.510945469853
 30
0.0
 11
-674.0824407975153
 21
-825.5103732652634
 31
0.0
  0
LINE
  5
562
330
1F
100
AcDbEntity
  8
D-4
  6
Continuous
 62
     7
370
     9
100
AcDbLine
 10
-590.9373182694392
 20
-450.5108596391645
 30
0.0
 11
-822.5655168930964
 21
-450.5108596391645
 31
0.0
  0
LINE
  5
563
330
1F
100
AcDbEntity
  8
D-5
  6
Continuous
 62
     7
370
     9
100
AcDbLine
 10
-549.5661804343538
 20
-464.287858159062
 30
0.0
 11
-614.6146721283869
 21
-407.6708556718793
 31
0.0
  0
LINE
  5
564
330
1F
100
AcDbEntity
  8
D-5
  6
Continuous
 62
     7
370
     9
100
AcDbLine
 10
-614.6146721283869
 20
-407.6708556718793
 30
0.0
 11
-598.0610603730158
 21
-426.405024678227
 31
0.0
  0
LINE
  5
565
330
1F
100
AcDbEntity
  8
D-5
  6
Continuous
 62
     7
370
     9
100
AcDbLine
 10
-614.6146721283869
 20
-407.6708556718793
 30
0.0
 11
-593.7762493531184
 21
-421.4825488634077
 31
0.0
  0
ARC
  5
566
330
1F
100
AcDbEntity
  8
D-9
  6
Continuous
 62
     4
370
     9
100
AcDbCircle
 10
-659.0830797593073
 20
-408.0109645433393
 30
0.0
 40
5.0
100
AcDbArc
 50
90.0
 51
180.0
  0
ARC
  5
567
330
1F
100
AcDbEntity
  8
D-1
  6
Continuous
 62
     2
370
     9
100
AcDbCircle
 10
-669.08311790628
 20
-413.0110408372846
 30
0.0
 40
5.0
100
AcDbArc
 50
90.0
 51
180.0
  0
ARC
  5
568
330
1F
100
AcDbEntity
  8
D-1
  6
Continuous
 62
     2
370
     9
100
AcDbCircle
 10
-522.0829529206233
 20
-328.5110218830076
 30
0.0
 40
3.00000011920929
100
AcDbArc
 50
0.0
 51
90.0
  0
ARC
  5
569
330
1F
100
AcDbEntity
  8
D-1
  6
Continuous
 62
     2
370
     9
100
AcDbCircle
 10
-541.0832387844996
 20
-328.5110218830076
 30
0.0
 40
3.00000011920929
100
AcDbArc
 50
90.0
 51
180.0
  0
ARC
  5
56A
330
1F
100
AcDbEntity
  8
D-1
  6
Continuous
 62
     2
370
     9
100
AcDbCircle
 10
-522.0829529206233
 20
-447.5106479234663
 30
0.0
 40
3.00000011920929
100
AcDbArc
 50
270.0
 51
0.0
  0
ARC
  5
56B
330
1F
100
AcDbEntity
  8
D-1
  6
Continuous
 62
     2
370
     9
100
AcDbCircle
 10
-669.08311790628
 20
-420.510945469853
 30
0.0
 40
5.0
100
AcDbArc
 50
180.0
 51
270.0
  0
ARC
  5
56C
330
1F
100
AcDbEntity
  8
D-1
  6
Continuous
 62
     2
370
     9
100
AcDbCircle
 10
-539.0833062569575
 20
-445.5112124986616
 30
0.0
 40
5.0
100
AcDbArc
 50
180.0
 51
270.0
  0
ARC
  5
56D
330
1F
100
AcDbEntity
  8
D-1
  6
Continuous
 62
     2
370
     9
100
AcDbCircle
 10
-544.0835703055338
 20
-425.5109550065961
 30
0.0
 40
5.0
100
AcDbArc
 50
0.0
 51
90.0
  0
ARC
  5
56E
330
1F
100
AcDbEntity
  8
D-1
  6
Continuous
 62
     2
370
     9
100
AcDbCircle
 10
-544.0835703055338
 20
-415.5109263963666
 30
0.0
 40
5.0
100
AcDbArc
 50
270.0
 51
0.0
  0
ARC
  5
56F
330
1F
100
AcDbEntity
  8
D-1
  6
Continuous
 62
     2
370
     9
100
AcDbCircle
 10
-594.083322946258
 20
-415.510945469853
 30
0.0
 40
5.0
100
AcDbArc
 50
180.0
 51
270.0
  0
ARC
  5
570
330
1F
100
AcDbEntity
  8
D-1
  6
Continuous
 62
     2
370
     9
100
AcDbCircle
 10
-599.083322946258
 20
-413.010773808476
 30
0.0
 40
5.0
100
AcDbArc
 50
0.0
 51
90.0
  0
ARC
  5
571
330
1F
100
AcDbEntity
  8
D-3
  6
Continuous
 62
     3
370
     9
100
AcDbCircle
 10
-463.7279791275935
 20
-385.5106402940717
 30
0.0
 40
25.0
100
AcDbArc
 50
225.0
 51
270.0
  0
ARC
  5
572
330
1F
100
AcDbEntity
  8
D-3
  6
Continuous
 62
     3
370
     9
100
AcDbCircle
 10
-384.083289567657
 20
-420.5106307573286
 30
0.0
 40
10.0
100
AcDbArc
 50
0.0
 51
90.0
  0
ARC
  5
573
330
1F
100
AcDbEntity
  8
D-3
  6
Continuous
 62
     3
370
     9
100
AcDbCircle
 10
-509.0833300988155
 20
-442.330374867436
 30
0.0
 40
10.0
100
AcDbArc
 50
0.0
 51
45.000244140625
  0
ARC
  5
574
330
1F
100
AcDbEntity
  8
D-A
  6
Continuous
 62
     7
370
     9
100
AcDbCircle
 10
-482.5835174958186
 20
-370.5103446550336
 30
0.0
 40
6.499999761581421
100
AcDbArc
 50
0.0
 51
90.0
  0
ARC
  5
575
330
1F
100
AcDbEntity
  8
D-A
  6
Continuous
 62
     7
370
     9
100
AcDbCircle
 10
-482.5835174958186
 20
-393.5108663148847
 30
0.0
 40
6.499999761581421
100
AcDbArc
 50
270.0
 51
0.0
  0
LWPOLYLINE
  5
576
330
1F
100
AcDbEntity
  8
D-4
  6
Continuous
 62
     7
370
     9
100
AcDbPolyline
 90
        4
 70
     1
 43
1.0
 10
-518.5834540764766
 20
14.85621914196344
 42
0.4142135623731
 10
-519.0834540764765
 20
15.35621914196344
 42
0.4142135623731
 10
-519.5834540764765
 20
14.85621914196344
 42
0.4142135623731
 10
-519.0834540764765
 20
14.35621914196344
 42
0.4142135623731
  0
LWPOLYLINE
  5
577
330
1F
100
AcDbEntity
  8
D-4
  6
Continuous
 62
     7
370
     9
100
AcDbPolyline
 90
        4
 70
     1
 43
1.0
 10
-673.5824407975155
 20
-204.5918704576459
 42
0.4142135623731
 10
-674.0824407975153
 20
-204.0918704576459
 42
0.4142135623731
 10
-674.5824407975153
 20
-204.5918704576459
 42
0.4142135623731
 10
-674.0824407975153
 20
-205.0918704576459
 42
0.4142135623731
  0
LWPOLYLINE
  5
578
330
1F
100
AcDbEntity
  8
D-4
  6
Continuous
 62
     7
370
     9
100
AcDbPolyline
 90
        4
 70
     1
 43
1.0
 10
-548.5826029221492
 20
-204.5918704576459
 42
0.4142135623731
 10
-549.0826029221491
 20
-204.0918704576459
 42
0.4142135623731
 10
-549.5826029221491
 20
-204.5918704576459
 42
0.4142135623731
 10
-549.0826029221491
 20
-205.0918704576459
 42
0.4142135623731
  0
LWPOLYLINE
  5
579
330
1F
100
AcDbEntity
  8
D-4
  6
Continuous
 62
     7
370
     9
100
AcDbPolyline
 90
        4
 70
     1
 43
1.0
 10
-548.5826029221492
 20
-95.83944812488227
 42
0.4142135623731
 10
-549.0826029221491
 20
-95.33944812488227
 42
0.4142135623731
 10
-549.5826029221491
 20
-95.83944812488227
 42
0.4142135623731
 10
-549.0826029221491
 20
-96.33944812488227
 42
0.4142135623731
  0
LWPOLYLINE
  5
57A
330
1F
100
AcDbEntity
  8
D-4
  6
Continuous
 62
     7
370
     9
100
AcDbPolyline
 90
        4
 70
     1
 43
1.0
 10
-543.582332317062
 20
-95.83944812488227
 42
0.4142135623731
 10
-544.0823323170619
 20
-95.33944812488227
 42
0.4142135623731
 10
-544.5823323170619
 20
-95.83944812488227
 42
0.4142135623731
 10
-544.0823323170619
 20
-96.33944812488227
 42
0.4142135623731
  0
LWPOLYLINE
  5
57B
330
1F
100
AcDbEntity
  8
D-4
  6
Continuous
 62
     7
370
     9
100
AcDbPolyline
 90
        4
 70
     1
 43
1.0
 10
-518.5834540764766
 20
-95.83944812488227
 42
0.4142135623731
 10
-519.0834540764765
 20
-95.33944812488227
 42
0.4142135623731
 10
-519.5834540764765
 20
-95.83944812488227
 42
0.4142135623731
 10
-519.0834540764765
 20
-96.33944812488227
 42
0.4142135623731
  0
LWPOLYLINE
  5
57C
330
1F
100
AcDbEntity
  8
D-4
  6
Continuous
 62
     7
370
     9
100
AcDbPolyline
 90
        4
 70
     1
 43
1.0
 10
-819.0649523179012
 20
-450.5108596391645
 42
0.4142135623731
 10
-819.5649523179011
 20
-450.0108596391646
 42
0.4142135623731
 10
-820.0649523179011
 20
-450.5108596391645
 42
0.4142135623731
 10
-819.5649523179011
 20
-451.0108596391644
 42
0.4142135623731
  0
LWPOLYLINE
  5
57D
330
1F
100
AcDbEntity
  8
D-4
  6
Continuous
 62
     7
370
     9
100
AcDbPolyline
 90
        4
 70
     1
 43
1.0
 10
-819.0649523179012
 20
-325.5110217637983
 42
0.4142135623731
 10
-819.5649523179011
 20
-325.0110217637983
 42
0.4142135623731
 10
-820.0649523179011
 20
-325.5110217637983
 42
0.4142135623731
 10
-819.5649523179011
 20
-326.0110217637982
 42
0.4142135623731
  0
LWPOLYLINE
  5
57E
330
1F
100
AcDbEntity
  8
D-4
  6
Continuous
 62
     7
370
     9
100
AcDbPolyline
 90
        4
 70
     1
 43
1.0
 10
-518.5834540764766
 20
-531.8202640123334
 42
0.4142135623731
 10
-519.0834540764765
 20
-531.3202640123335
 42
0.4142135623731
 10
-519.5834540764765
 20
-531.8202640123334
 42
0.4142135623731
 10
-519.0834540764765
 20
-532.3202640123334
 42
0.4142135623731
  0
LWPOLYLINE
  5
57F
330
1F
100
AcDbEntity
  8
D-4
  6
Continuous
 62
     7
370
     9
100
AcDbPolyline
 90
        4
 70
     1
 43
1.0
 10
-373.5830225388485
 20
-531.8202640123334
 42
0.4142135623731
 10
-374.0830225388484
 20
-531.3202640123335
 42
0.4142135623731
 10
-374.5830225388484
 20
-531.8202640123334
 42
0.4142135623731
 10
-374.0830225388484
 20
-532.3202640123334
 42
0.4142135623731
  0
LWPOLYLINE
  5
580
330
1F
100
AcDbEntity
  8
D-4
  6
Continuous
 62
     7
370
     9
100
AcDbPolyline
 90
        4
 70
     1
 43
1.0
 10
-673.5824407975155
 20
-731.1294986314743
 42
0.4142135623731
 10
-674.0824407975153
 20
-730.6294986314743
 42
0.4142135623731
 10
-674.5824407975153
 20
-731.1294986314743
 42
0.4142135623731
 10
-674.0824407975153
 20
-731.6294986314743
 42
0.4142135623731
  0
LWPOLYLINE
  5
581
330
1F
100
AcDbEntity
  8
D-4
  6
Continuous
 62
     7
370
     9
100
AcDbPolyline
 90
        4
 70
     1
 43
1.0
 10
-523.5832299630123
 20
-731.1294986314743
 42
0.4142135623731
 10
-524.0832299630122
 20
-730.6294986314743
 42
0.4142135623731
 10
-524.5832299630122
 20
-731.1294986314743
 42
0.4142135623731
 10
-524.0832299630122
 20
-731.6294986314743
 42
0.4142135623731
  0
LWPOLYLINE
  5
582
330
1F
100
AcDbEntity
  8
D-4
  6
Continuous
 62
     7
370
     9
100
AcDbPolyline
 90
        4
 70
     1
 43
1.0
 10
-673.5824407975155
 20
-885.5938769884079
 42
0.4142135623731
 10
-674.0824407975153
 20
-885.0938769884079
 42
0.4142135623731
 10
-674.5824407975153
 20
-885.5938769884079
 42
0.4142135623731
 10
-674.0824407975153
 20
-886.0938769884079
 42
0.4142135623731
  0
LWPOLYLINE
  5
583
330
1F
100
AcDbEntity
  8
D-4
  6
Continuous
 62
     7
370
     9
100
AcDbPolyline
 90
        4
 70
     1
 43
1.0
 10
-273.5815729538875
 20
-885.5938769884079
 42
0.4142135623731
 10
-274.0815729538875
 20
-885.0938769884079
 42
0.4142135623731
 10
-274.5815729538875
 20
-885.5938769884079
 42
0.4142135623731
 10
-274.0815729538875
 20
-886.0938769884079
 42
0.4142135623731
  0
LWPOLYLINE
  5
584
330
1F
100
AcDbEntity
  8
D-4
  6
Continuous
 62
     7
370
     9
100
AcDbPolyline
 90
        4
 70
     1
 43
1.0
 10
-1.897231523223411
 20
-325.5110217637983
 42
0.4142135623731
 10
-2.397231523223411
 20
-325.0110217637983
 42
0.4142135623731
 10
-2.897231523223411
 20
-325.5110217637983
 42
0.4142135623731
 10
-2.397231523223411
 20
-326.0110217637982
 42
0.4142135623731
  0
LWPOLYLINE
  5
585
330
1F
100
AcDbEntity
  8
D-4
  6
Continuous
 62
     7
370
     9
100
AcDbPolyline
 90
        4
 70
     1
 43
1.0
 10
-1.897231523223411
 20
-575.5106975145306
 42
0.4142135623731
 10
-2.397231523223411
 20
-575.0106975145308
 42
0.4142135623731
 10
-2.897231523223411
 20
-575.5106975145306
 42
0.4142135623731
 10
-2.397231523223411
 20
-576.0106975145306
 42
0.4142135623731
  0
LWPOLYLINE
  5
586
330
1F
100
AcDbEntity
  8
D-4
  6
Continuous
 62
     7
370
     9
100
AcDbPolyline
 90
        4
 70
     1
 43
1.0
 10
-275.0096811692195
 20
-325.5110217637983
 42
0.4142135623731
 10
-275.5096811692195
 20
-325.0110217637983
 42
0.4142135623731
 10
-276.0096811692195
 20
-325.5110217637983
 42
0.4142135623731
 10
-275.5096811692195
 20
-326.0110217637982
 42
0.4142135623731
  0
LWPOLYLINE
  5
587
330
1F
100
AcDbEntity
  8
D-4
  6
Continuous
 62
     7
370
     9
100
AcDbPolyline
 90
        4
 70
     1
 43
1.0
 10
-275.0096811692195
 20
-410.5111648149457
 42
0.4142135623731
 10
-275.5096811692195
 20
-410.0111648149458
 42
0.4142135623731
 10
-276.0096811692195
 20
-410.5111648149457
 42
0.4142135623731
 10
-275.5096811692195
 20
-411.0111648149457
 42
0.4142135623731
  0
LWPOLYLINE
  5
588
330
1F
100
AcDbEntity
  8
D-4
  6
Continuous
 62
     7
370
     9
100
AcDbPolyline
 90
        4
 70
     1
 43
1.0
 10
-275.0096811692195
 20
-460.5114032335248
 42
0.4142135623731
 10
-275.5096811692195
 20
-460.0114032335249
 42
0.4142135623731
 10
-276.0096811692195
 20
-460.5114032335248
 42
0.4142135623731
 10
-275.5096811692195
 20
-461.0114032335248
 42
0.4142135623731
  0
LWPOLYLINE
  5
589
330
1F
100
AcDbEntity
  8
D-4
  6
Continuous
 62
     7
370
     9
100
AcDbPolyline
 90
        4
 70
     1
 43
1.0
 10
-518.5834540764766
 20
-531.8202640123334
 42
0.4142135623731
 10
-519.0834540764765
 20
-531.3202640123335
 42
0.4142135623731
 10
-519.5834540764765
 20
-531.8202640123334
 42
0.4142135623731
 10
-519.0834540764765
 20
-532.3202640123334
 42
0.4142135623731
  0
LWPOLYLINE
  5
58A
330
1F
100
AcDbEntity
  8
D-4
  6
Continuous
 62
     7
370
     9
100
AcDbPolyline
 90
        4
 70
     1
 43
1.0
 10
-673.5824407975155
 20
-531.8202640123334
 42
0.4142135623731
 10
-674.0824407975153
 20
-531.3202640123335
 42
0.4142135623731
 10
-674.5824407975153
 20
-531.8202640123334
 42
0.4142135623731
 10
-674.0824407975153
 20
-532.3202640123334
 42
0.4142135623731
  0
TEXT
  5
58B
330
1F
100
AcDbEntity
  8
D-4
  6
Continuous
 62
     2
370
     9
100
AcDbText
 10
-582.0273131768183
 20
-85.20017291736274
 30
0.0
 40
30.48
  1
1
 41
0.9999999999999998
  7
ＭＳ ゴシック
100
AcDbText
  0
TEXT
  5
58C
330
1F
100
AcDbEntity
  8
D-4
  6
Continuous
 62
     2
370
     9
100
AcDbText
 10
-632.8316873948054
 20
-193.9515938920942
 30
0.0
 40
30.48
  1
25
 41
1.0625
  7
ＭＳ ゴシック
100
AcDbText
  0
TEXT
  5
58D
330
1F
100
AcDbEntity
  8
D-4
  6
Continuous
 62
     2
370
     9
100
AcDbText
 10
-665.3324598710017
 20
-720.4902234239548
 30
0.0
 40
30.48
  1
25～30
 41
1.104166666666667
  7
ＭＳ ゴシック
100
AcDbText
  0
TEXT
  5
58E
330
1F
100
AcDbEntity
  8
D-4
  6
Continuous
 62
     2
370
     9
100
AcDbText
 10
-541.9508044074588
 20
-874.9536099596388
 30
0.0
 40
30.48
  1
75～80
 50
359.9997855578314
 41
1.104166666666666
  7
ＭＳ ゴシック
100
AcDbText
  0
TEXT
  5
58F
330
1F
100
AcDbEntity
  8
D-4
  6
Continuous
 62
     2
370
     9
100
AcDbText
 10
-13.03650673074294
 20
-516.7609838633579
 30
0.0
 40
30.48
  1
40～50
 50
90.00000250447816
 41
1.104166666666665
  7
ＭＳ ゴシック
100
AcDbText
  0
TEXT
  5
590
330
1F
100
AcDbEntity
  8
D-4
  6
Continuous
 62
     2
370
     9
100
AcDbText
 10
-483.4994492042118
 20
-521.1809697317115
 30
0.0
 40
30.48
  1
29
 50
0.0006685549992706
 41
1.0625
  7
ＭＳ ゴシック
100
AcDbText
  0
TEXT
  5
591
330
1F
100
AcDbEntity
  8
D-4
  6
Continuous
 62
     2
370
     9
100
AcDbText
 10
-510.1699728409724
 20
-85.20017291736274
 30
0.0
 40
30.48
  1
5
 41
0.9999999999999998
  7
ＭＳ ゴシック
100
AcDbText
  0
TEXT
  5
592
330
1F
100
AcDbEntity
  8
D-5
  6
Continuous
 62
     2
370
     9
100
AcDbText
 10
-973.5764715234227
 20
-1003.313480870244
 30
0.0
 40
30.48
  1
断面詳細図　Ｓ＝１：２
 50
0.0000267631904831
 41
1.113636363636363
  7
ＭＳ ゴシック
100
AcDbText
  0
TEXT
  5
593
330
1F
100
AcDbEntity
  8
D-5
  6
Continuous
 62
     2
370
     9
100
AcDbText
 10
327.6791005690617
 20
-767.5538220567673
 30
0.0
 40
30.48
  1
ステンレス製受枠　ＳＦ１５Ｂ
 41
1.116071428571428
  7
ＭＳ ゴシック
100
AcDbText
  0
TEXT
  5
594
330
1F
100
AcDbEntity
  8
D-5
  6
Continuous
 62
     7
370
     9
100
AcDbText
 10
-325.1059336106258
 20
-209.710367848393
 30
0.0
 40
22.86
  1
塩ビクッション
 41
1.142857142857143
  7
ＭＳ ゴシック
100
AcDbText
  0
TEXT
  5
595
330
1F
100
AcDbEntity
  8
D-5
  6
Continuous
 62
     7
370
     9
100
AcDbText
 10
-384.5939058701472
 20
-153.6114203233686
 30
0.0
 40
22.86
  1
ステンレス製受枠ＳＦ１５Ｂ
 41
1.153846153846154
  7
ＭＳ ゴシック
100
AcDbText
  0
TEXT
  5
596
330
1F
100
AcDbEntity
  8
D-5
  6
Continuous
 62
     2
370
     9
100
AcDbText
 10
387.3910146315617
 20
-832.5533642930955
 30
0.0
 40
30.48
  1
材質：冷間圧延ステンレス鋼板（ＳＵＳ３０４－２Ｂ）
 41
1.12
  7
ＭＳ ゴシック
100
AcDbText
  0
TEXT
  5
597
330
1F
100
AcDbEntity
  8
D-5
  6
Continuous
 62
     7
370
     9
100
AcDbText
 10
-261.8950266282039
 20
-300.160225560185
 30
0.0
 40
22.86
  1
ｔ＝２．３（ＳＰＨＣ）
 41
1.151515151515152
  7
ＭＳ ゴシック
100
AcDbText
  0
TEXT
  5
598
330
1F
100
AcDbEntity
  8
D-4
  6
Continuous
 62
     2
370
     9
100
AcDbText
 10
-286.1499672715144
 20
-456.7606977610629
 30
0.0
 40
30.48
  1
10
 50
90.00000250447819
 41
1.062500000000001
  7
ＭＳ ゴシック
100
AcDbText
  0
TEXT
  5
599
330
1F
100
AcDbEntity
  8
D-4
  6
Continuous
 62
     2
370
     9
100
AcDbText
 10
-286.1499672715144
 20
-389.2610077052158
 30
0.0
 40
30.48
  1
17
 50
90.00000250447819
 41
1.062500000000001
  7
ＭＳ ゴシック
100
AcDbText
  0
TEXT
  5
59A
330
1F
100
AcDbEntity
  8
D-4
  6
Continuous
 62
     2
370
     9
100
AcDbText
 10
-617.832946244903
 20
-520.1802601976361
 30
0.0
 40
30.48
  1
31
 41
1.0625
  7
ＭＳ ゴシック
100
AcDbText
  0
LINE
  5
59B
330
1F
100
AcDbEntity
  8
D-2
  6
Continuous
 62
     3
370
     9
100
AcDbLine
 10
-566.5825373570399
 20
-348.0112196512189
 30
0.0
 11
-566.5825373570399
 21
-398.0102683610883
 31
0.0
  0
LINE
  5
59C
330
1F
100
AcDbEntity
  8
D-2
  6
Continuous
 62
     3
370
     9
100
AcDbLine
 10
-576.5830654541926
 20
-348.0112196512189
 30
0.0
 11
-576.5830654541926
 21
-398.0102683610883
 31
0.0
  0
LINE
  5
59D
330
1F
100
AcDbEntity
  8
D-2
  6
Continuous
 62
     3
370
     9
100
AcDbLine
 10
-589.0827364365534
 20
-338.0111862726179
 30
0.0
 11
-586.5835923592524
 21
-338.0111862726179
 31
0.0
  0
LINE
  5
59E
330
1F
100
AcDbEntity
  8
D-2
  6
Continuous
 62
     3
370
     9
100
AcDbLine
 10
-554.0828669707255
 20
-338.0111862726179
 30
0.0
 11
-556.5820092598872
 21
-338.0111862726179
 31
0.0
  0
LINE
  5
59F
330
1F
100
AcDbEntity
  8
D-2
  6
Continuous
 62
     3
370
     9
100
AcDbLine
 10
-594.0829986969904
 20
-330.5112858123746
 30
0.0
 11
-594.0829986969904
 21
-333.0114175386396
 31
0.0
  0
LINE
  5
5A0
330
1F
100
AcDbEntity
  8
D-2
  6
Continuous
 62
     3
370
     9
100
AcDbLine
 10
-549.0826029221491
 20
-330.5107907957998
 30
0.0
 11
-594.0829986969904
 21
-330.5107907957998
 31
0.0
  0
LINE
  5
5A1
330
1F
100
AcDbEntity
  8
D-2
  6
Continuous
 62
     3
370
     9
100
AcDbLine
 10
-641.5826601426081
 20
-348.0112196512189
 30
0.0
 11
-641.5826601426081
 21
-398.0102683610883
 31
0.0
  0
LINE
  5
5A2
330
1F
100
AcDbEntity
  8
D-2
  6
Continuous
 62
     3
370
     9
100
AcDbLine
 10
-651.5831846634821
 20
-348.0112196512189
 30
0.0
 11
-651.5831846634821
 21
-398.0102683610883
 31
0.0
  0
LINE
  5
5A3
330
1F
100
AcDbEntity
  8
D-2
  6
Continuous
 62
     3
370
     9
100
AcDbLine
 10
-664.0828604142146
 20
-338.0111862726179
 30
0.0
 11
-661.5837187210993
 21
-338.0111862726179
 31
0.0
  0
LINE
  5
5A4
330
1F
100
AcDbEntity
  8
D-2
  6
Continuous
 62
     3
370
     9
100
AcDbLine
 10
-629.0829939286189
 20
-338.0111862726179
 30
0.0
 11
-631.5821356217341
 21
-338.0111862726179
 31
0.0
  0
LINE
  5
5A5
330
1F
100
AcDbEntity
  8
D-2
  6
Continuous
 62
     3
370
     9
100
AcDbLine
 10
-669.08311790628
 20
-330.5112858123746
 30
0.0
 11
-669.08311790628
 21
-333.0114175386396
 31
0.0
  0
LINE
  5
5A6
330
1F
100
AcDbEntity
  8
D-2
  6
Continuous
 62
     3
370
     9
100
AcDbLine
 10
-624.0827268998103
 20
-330.5112858123746
 30
0.0
 11
-624.0827268998103
 21
-333.0114175386396
 31
0.0
  0
LINE
  5
5A7
330
1F
100
AcDbEntity
  8
D-2
  6
Continuous
 62
     3
370
     9
100
AcDbLine
 10
-624.0827268998103
 20
-330.5107907957998
 30
0.0
 11
-669.08311790628
 21
-330.5107907957998
 31
0.0
  0
LINE
  5
5A8
330
1F
100
AcDbEntity
  8
D-2
  6
Continuous
 62
     3
370
     9
100
AcDbLine
 10
-716.5827745835261
 20
-348.0112196512189
 30
0.0
 11
-716.5827745835261
 21
-398.0102683610883
 31
0.0
  0
LINE
  5
5A9
330
1F
100
AcDbEntity
  8
D-2
  6
Continuous
 62
     3
370
     9
100
AcDbLine
 10
-726.5833086411433
 20
-348.0112196512189
 30
0.0
 11
-726.5833086411433
 21
-398.0102683610883
 31
0.0
  0
LINE
  5
5AA
330
1F
100
AcDbEntity
  8
D-2
  6
Continuous
 62
     3
370
     9
100
AcDbLine
 10
-739.0829843918757
 20
-338.0111862726179
 30
0.0
 11
-736.5828508774714
 21
-338.0111862726179
 31
0.0
  0
LINE
  5
5AB
330
1F
100
AcDbEntity
  8
D-2
  6
Continuous
 62
     3
370
     9
100
AcDbLine
 10
-704.0831083695368
 20
-338.0111862726179
 30
0.0
 11
-706.5822595993952
 21
-338.0111862726179
 31
0.0
  0
LINE
  5
5AC
330
1F
100
AcDbEntity
  8
D-2
  6
Continuous
 62
     3
370
     9
100
AcDbLine
 10
-744.0822595993952
 20
-330.5112858123746
 30
0.0
 11
-744.0822595993952
 21
-333.0114175386396
 31
0.0
  0
LINE
  5
5AD
330
1F
100
AcDbEntity
  8
D-2
  6
Continuous
 62
     3
370
     9
100
AcDbLine
 10
-699.0828508774714
 20
-330.5112858123746
 30
0.0
 11
-699.0828508774714
 21
-333.0114175386396
 31
0.0
  0
LINE
  5
5AE
330
1F
100
AcDbEntity
  8
D-2
  6
Continuous
 62
     3
370
     9
100
AcDbLine
 10
-699.0828508774714
 20
-330.5107907957998
 30
0.0
 11
-744.0822595993952
 21
-330.5107907957998
 31
0.0
  0
LINE
  5
5AF
330
1F
100
AcDbEntity
  8
D-2
  6
Continuous
 62
     3
370
     9
100
AcDbLine
 10
-791.5818018357234
 20
-348.0112196512189
 30
0.0
 11
-791.5818018357234
 21
-398.0102683610883
 31
0.0
  0
LINE
  5
5B0
330
1F
100
AcDbEntity
  8
D-2
  6
Continuous
 62
     3
370
     9
100
AcDbLine
 10
-801.5834421555476
 20
-348.0112196512189
 30
0.0
 11
-801.5834421555476
 21
-398.0102683610883
 31
0.0
  0
LINE
  5
5B1
330
1F
100
AcDbEntity
  8
D-2
  6
Continuous
 62
     3
370
     9
100
AcDbLine
 10
-814.0830988327937
 20
-338.0111862726179
 30
0.0
 11
-811.5829653183894
 21
-338.0111862726179
 31
0.0
  0
LINE
  5
5B2
330
1F
100
AcDbEntity
  8
D-2
  6
Continuous
 62
     3
370
     9
100
AcDbLine
 10
-779.08311790628
 20
-338.0111862726179
 30
0.0
 11
-781.5822595993952
 21
-338.0111862726179
 31
0.0
  0
LINE
  5
5B3
330
1F
100
AcDbEntity
  8
D-2
  6
Continuous
 62
     3
370
     9
100
AcDbLine
 10
-819.0833658616023
 20
-330.5112858123746
 30
0.0
 11
-819.0833658616023
 21
-333.0114175386396
 31
0.0
  0
LINE
  5
5B4
330
1F
100
AcDbEntity
  8
D-2
  6
Continuous
 62
     3
370
     9
100
AcDbLine
 10
-774.0828508774714
 20
-330.5112858123746
 30
0.0
 11
-774.0828508774714
 21
-333.0114175386396
 31
0.0
  0
LINE
  5
5B5
330
1F
100
AcDbEntity
  8
D-2
  6
Continuous
 62
     3
370
     9
100
AcDbLine
 10
-774.0828508774714
 20
-330.5107907957998
 30
0.0
 11
-819.0833658616023
 21
-330.5107907957998
 31
0.0
  0
LINE
  5
5B6
330
1F
100
AcDbEntity
  8
D-2
  6
Continuous
 62
     3
370
     9
100
AcDbLine
 10
-866.5820307175593
 20
-348.0112196512189
 30
0.0
 11
-866.5820307175593
 21
-398.0102683610883
 31
0.0
  0
LINE
  5
5B7
330
1F
100
AcDbEntity
  8
D-2
  6
Continuous
 62
     3
370
     9
100
AcDbLine
 10
-876.5835565964655
 20
-348.0112196512189
 30
0.0
 11
-876.5835565964655
 21
-398.0102683610883
 31
0.0
  0
LINE
  5
5B8
330
1F
100
AcDbEntity
  8
D-2
  6
Continuous
 62
     3
370
     9
100
AcDbLine
 10
-889.0822214524226
 20
-338.0111862726179
 30
0.0
 11
-886.5830988327937
 21
-338.0111862726179
 31
0.0
  0
LINE
  5
5B9
330
1F
100
AcDbEntity
  8
D-2
  6
Continuous
 62
     3
370
     9
100
AcDbLine
 10
-854.0822405259089
 20
-338.0111862726179
 30
0.0
 11
-856.5823740403132
 21
-338.0111862726179
 31
0.0
  0
LINE
  5
5BA
330
1F
100
AcDbEntity
  8
D-2
  6
Continuous
 62
     3
370
     9
100
AcDbLine
 10
-894.0824884812312
 20
-330.5112858123746
 30
0.0
 11
-894.0824884812312
 21
-333.0114175386396
 31
0.0
  0
LINE
  5
5BB
330
1F
100
AcDbEntity
  8
D-2
  6
Continuous
 62
     3
370
     9
100
AcDbLine
 10
-849.0829653183894
 20
-330.5112858123746
 30
0.0
 11
-849.0829653183894
 21
-333.0114175386396
 31
0.0
  0
LINE
  5
5BC
330
1F
100
AcDbEntity
  8
D-2
  6
Continuous
 62
     3
370
     9
100
AcDbLine
 10
-849.0829653183894
 20
-330.5107907957998
 30
0.0
 11
-894.0824884812312
 21
-330.5107907957998
 31
0.0
  0
LINE
  5
5BD
330
1F
100
AcDbEntity
  8
D-2
  6
Continuous
 62
     3
370
     9
100
AcDbLine
 10
-941.5820307175593
 20
-348.0112196512189
 30
0.0
 11
-941.5820307175593
 21
-398.0102683610883
 31
0.0
  0
LINE
  5
5BE
330
1F
100
AcDbEntity
  8
D-2
  6
Continuous
 62
     3
370
     9
100
AcDbLine
 10
-951.5835565964655
 20
-348.0112196512189
 30
0.0
 11
-951.5835565964655
 21
-398.0102683610883
 31
0.0
  0
LINE
  5
5BF
330
1F
100
AcDbEntity
  8
D-2
  6
Continuous
 62
     3
370
     9
100
AcDbLine
 10
-964.0832132737116
 20
-338.0111862726179
 30
0.0
 11
-961.5830988327937
 21
-338.0111862726179
 31
0.0
  0
LINE
  5
5C0
330
1F
100
AcDbEntity
  8
D-2
  6
Continuous
 62
     3
370
     9
100
AcDbLine
 10
-929.0823740403132
 20
-338.0111862726179
 30
0.0
 11
-931.5824884812312
 21
-338.0111862726179
 31
0.0
  0
LINE
  5
5C1
330
1F
100
AcDbEntity
  8
D-2
  6
Continuous
 62
     3
370
     9
100
AcDbLine
 10
-969.0824884812312
 20
-330.5112858123746
 30
0.0
 11
-969.0824884812312
 21
-333.0114175386396
 31
0.0
  0
LINE
  5
5C2
330
1F
100
AcDbEntity
  8
D-2
  6
Continuous
 62
     3
370
     9
100
AcDbLine
 10
-924.0830988327937
 20
-330.5112858123746
 30
0.0
 11
-924.0830988327937
 21
-333.0114175386396
 31
0.0
  0
LINE
  5
5C3
330
1F
100
AcDbEntity
  8
D-2
  6
Continuous
 62
     3
370
     9
100
AcDbLine
 10
-924.0830988327937
 20
-330.5107907957998
 30
0.0
 11
-969.0824884812312
 21
-330.5107907957998
 31
0.0
  0
LINE
  5
5C4
330
1F
100
AcDbEntity
  8
D-2
  6
Continuous
 62
     3
370
     9
100
AcDbLine
 10
-1016.582145158477
 20
-348.0112196512189
 30
0.0
 11
-1016.582145158477
 21
-398.0102683610883
 31
0.0
  0
LINE
  5
5C5
330
1F
100
AcDbEntity
  8
D-2
  6
Continuous
 62
     3
370
     9
100
AcDbLine
 10
-1026.583671037384
 20
-348.0112196512189
 30
0.0
 11
-1026.583671037384
 21
-398.0102683610883
 31
0.0
  0
LINE
  5
5C6
330
1F
100
AcDbEntity
  8
D-2
  6
Continuous
 62
     3
370
     9
100
AcDbLine
 10
-1039.08348030252
 20
-338.0111862726179
 30
0.0
 11
-1036.583213273712
 21
-338.0111862726179
 31
0.0
  0
LINE
  5
5C7
330
1F
100
AcDbEntity
  8
D-2
  6
Continuous
 62
     3
370
     9
100
AcDbLine
 10
-1004.082488481231
 20
-338.0111862726179
 30
0.0
 11
-1006.581649247833
 21
-338.0111862726179
 31
0.0
  0
LINE
  5
5C8
330
1F
100
AcDbEntity
  8
D-2
  6
Continuous
 62
     3
370
     9
100
AcDbLine
 10
-1044.08275551004
 20
-330.5112858123746
 30
0.0
 11
-1044.08275551004
 21
-333.0114175386396
 31
0.0
  0
LINE
  5
5C9
330
1F
100
AcDbEntity
  8
D-2
  6
Continuous
 62
     3
370
     9
100
AcDbLine
 10
-999.0832132737116
 20
-330.5112858123746
 30
0.0
 11
-999.0832132737116
 21
-333.0114175386396
 31
0.0
  0
LINE
  5
5CA
330
1F
100
AcDbEntity
  8
D-2
  6
Continuous
 62
     3
370
     9
100
AcDbLine
 10
-999.0832132737116
 20
-330.5107907957998
 30
0.0
 11
-1044.08275551004
 21
-330.5107907957998
 31
0.0
  0
LINE
  5
5CB
330
1F
100
AcDbEntity
  8
D-2
  6
Continuous
 62
     3
370
     9
100
AcDbLine
 10
-1091.582297746368
 20
-348.0112196512189
 30
0.0
 11
-1091.582297746368
 21
-398.0102683610883
 31
0.0
  0
LINE
  5
5CC
330
1F
100
AcDbEntity
  8
D-2
  6
Continuous
 62
     3
370
     9
100
AcDbLine
 10
-1101.582831803985
 20
-348.0112196512189
 30
0.0
 11
-1101.582831803985
 21
-398.0102683610883
 31
0.0
  0
LINE
  5
5CD
330
1F
100
AcDbEntity
  8
D-2
  6
Continuous
 62
     3
370
     9
100
AcDbLine
 10
-1114.082488481231
 20
-338.0111862726179
 30
0.0
 11
-1111.58332771463
 21
-338.0111862726179
 31
0.0
  0
LINE
  5
5CE
330
1F
100
AcDbEntity
  8
D-2
  6
Continuous
 62
     3
370
     9
100
AcDbLine
 10
-1079.082602922149
 20
-338.0111862726179
 30
0.0
 11
-1081.58275551004
 21
-338.0111862726179
 31
0.0
  0
LINE
  5
5CF
330
1F
100
AcDbEntity
  8
D-2
  6
Continuous
 62
     3
370
     9
100
AcDbLine
 10
-1119.08275551004
 20
-330.5112858123746
 30
0.0
 11
-1119.08275551004
 21
-333.0114175386396
 31
0.0
  0
LINE
  5
5D0
330
1F
100
AcDbEntity
  8
D-2
  6
Continuous
 62
     3
370
     9
100
AcDbLine
 10
-1074.082335893341
 20
-330.5112858123746
 30
0.0
 11
-1074.082335893341
 21
-333.0114175386396
 31
0.0
  0
LINE
  5
5D1
330
1F
100
AcDbEntity
  8
D-2
  6
Continuous
 62
     3
370
     9
100
AcDbLine
 10
-1074.082335893341
 20
-330.5107907957998
 30
0.0
 11
-1119.08275551004
 21
-330.5107907957998
 31
0.0
  0
LINE
  5
5D2
330
1F
100
AcDbEntity
  8
D-2
  6
Continuous
 62
     3
370
     9
100
AcDbLine
 10
-1166.582297746368
 20
-348.0112196512189
 30
0.0
 11
-1166.582297746368
 21
-398.0102683610883
 31
0.0
  0
LINE
  5
5D3
330
1F
100
AcDbEntity
  8
D-2
  6
Continuous
 62
     3
370
     9
100
AcDbLine
 10
-1176.582946244903
 20
-348.0112196512189
 30
0.0
 11
-1176.582946244903
 21
-398.0102683610883
 31
0.0
  0
LINE
  5
5D4
330
1F
100
AcDbEntity
  8
D-2
  6
Continuous
 62
     3
370
     9
100
AcDbLine
 10
-1189.082602922149
 20
-338.0111862726179
 30
0.0
 11
-1186.58348030252
 21
-338.0111862726179
 31
0.0
  0
LINE
  5
5D5
330
1F
100
AcDbEntity
  8
D-2
  6
Continuous
 62
     3
370
     9
100
AcDbLine
 10
-1154.082602922149
 20
-338.0111862726179
 30
0.0
 11
-1156.58275551004
 21
-338.0111862726179
 31
0.0
  0
LINE
  5
5D6
330
1F
100
AcDbEntity
  8
D-2
  6
Continuous
 62
     3
370
     9
100
AcDbLine
 10
-1194.08275551004
 20
-330.5112858123746
 30
0.0
 11
-1194.08275551004
 21
-333.0114175386396
 31
0.0
  0
LINE
  5
5D7
330
1F
100
AcDbEntity
  8
D-2
  6
Continuous
 62
     3
370
     9
100
AcDbLine
 10
-1149.082335893341
 20
-330.5112858123746
 30
0.0
 11
-1149.082335893341
 21
-333.0114175386396
 31
0.0
  0
LINE
  5
5D8
330
1F
100
AcDbEntity
  8
D-2
  6
Continuous
 62
     3
370
     9
100
AcDbLine
 10
-1149.082335893341
 20
-330.5107907957998
 30
0.0
 11
-1194.08275551004
 21
-330.5107907957998
 31
0.0
  0
LINE
  5
5D9
330
1F
100
AcDbEntity
  8
D-2
  6
Continuous
 62
     3
370
     9
100
AcDbLine
 10
-549.0826029221491
 20
-328.0111537880865
 30
0.0
 11
-549.0826029221491
 21
-403.0105353898969
 31
0.0
  0
LINE
  5
5DA
330
1F
100
AcDbEntity
  8
D-2
  6
Continuous
 62
     3
370
     9
100
AcDbLine
 10
-651.9012731949763
 20
-346.0100509233442
 30
0.0
 11
-716.2647051255183
 21
-346.0100509233442
 31
0.0
  0
LINE
  5
5DB
330
1F
100
AcDbEntity
  8
D-2
  6
Continuous
 62
     3
370
     9
100
AcDbLine
 10
-726.9013971726374
 20
-346.0100509233442
 30
0.0
 11
-791.2648195664362
 21
-346.0100509233442
 31
0.0
  0
LINE
  5
5DC
330
1F
100
AcDbEntity
  8
D-2
  6
Continuous
 62
     3
370
     9
100
AcDbLine
 10
-801.9005197922663
 20
-346.0100509233442
 30
0.0
 11
-866.2638277451472
 21
-346.0100509233442
 31
0.0
  0
LINE
  5
5DD
330
1F
100
AcDbEntity
  8
D-2
  6
Continuous
 62
     3
370
     9
100
AcDbLine
 10
-876.9005197922663
 20
-346.0100509233442
 30
0.0
 11
-941.2639612595515
 21
-346.0100509233442
 31
0.0
  0
LINE
  5
5DE
330
1F
100
AcDbEntity
  8
D-2
  6
Continuous
 62
     3
370
     9
100
AcDbLine
 10
-951.9007868210749
 20
-346.0100509233442
 30
0.0
 11
-1016.264075700469
 21
-346.0100509233442
 31
0.0
  0
LINE
  5
5DF
330
1F
100
AcDbEntity
  8
D-2
  6
Continuous
 62
     3
370
     9
100
AcDbLine
 10
-1026.900786821075
 20
-346.0100509233442
 30
0.0
 11
-1091.264190141387
 21
-346.0100509233442
 31
0.0
  0
LINE
  5
5E0
330
1F
100
AcDbEntity
  8
D-2
  6
Continuous
 62
     3
370
     9
100
AcDbLine
 10
-1101.900901261993
 20
-346.0100509233442
 30
0.0
 11
-1166.264342729278
 21
-346.0100509233442
 31
0.0
  0
LINE
  5
5E1
330
1F
100
AcDbEntity
  8
D-2
  6
Continuous
 62
     3
370
     9
100
AcDbLine
 10
-1221.750831071563
 20
-293.0112864084211
 30
0.0
 11
-1221.750831071563
 21
-438.0104018754926
 31
0.0
  0
LINE
  5
5E2
330
1F
100
AcDbEntity
  8
D-2
  6
Continuous
 62
     3
370
     9
100
AcDbLine
 10
-549.0826029221491
 20
-328.0111537880865
 30
0.0
 11
-1221.750831071563
 21
-328.0111537880865
 31
0.0
  0
LINE
  5
5E3
330
1F
100
AcDbEntity
  8
D-2
  6
Continuous
 62
     3
370
     9
100
AcDbLine
 10
-1221.750831071563
 20
-403.0105353898969
 30
0.0
 11
-549.0826029221491
 21
-403.0105353898969
 31
0.0
  0
LINE
  5
5E4
330
1F
100
AcDbEntity
  8
D-2
  6
Continuous
 62
     3
370
     9
100
AcDbLine
 10
-1176.901015702911
 20
-346.0100509233442
 30
0.0
 11
-1221.750831071563
 21
-346.0100509233442
 31
0.0
  0
LINE
  5
5E5
330
1F
100
AcDbEntity
  8
D-5
  6
Continuous
 62
     7
370
     9
100
AcDbLine
 10
-424.5603651444392
 20
-101.7652942247358
 30
0.0
 11
-622.073144380279
 21
-330.5112858123746
 31
0.0
  0
LINE
  5
5E6
330
1F
100
AcDbEntity
  8
D-5
  6
Continuous
 62
     7
370
     9
100
AcDbLine
 10
-622.073144380279
 20
-330.5112858123746
 30
0.0
 11
-608.3446878830866
 21
-309.6183337278333
 31
0.0
  0
LINE
  5
5E7
330
1F
100
AcDbEntity
  8
D-5
  6
Continuous
 62
     7
370
     9
100
AcDbLine
 10
-622.073144380279
 20
-330.5112858123746
 30
0.0
 11
-603.4047979752497
 21
-313.8833297796216
 31
0.0
  0
LINE
  5
5E8
330
1F
100
AcDbEntity
  8
D-5
  6
Continuous
 62
     2
370
     9
100
AcDbLine
 10
450.5891042311711
 20
-313.011846692082
 30
0.0
 11
225.5888753493352
 21
-313.011846692082
 31
0.0
  0
LINE
  5
5E9
330
1F
100
AcDbEntity
  8
D-5
  6
Continuous
 62
     2
370
     9
100
AcDbLine
 10
450.5891042311711
 20
-263.0115605897871
 30
0.0
 11
450.5891042311711
 21
-313.011846692082
 31
0.0
  0
LINE
  5
5EA
330
1F
100
AcDbEntity
  8
D-5
  6
Continuous
 62
     2
370
     9
100
AcDbLine
 10
225.5888753493352
 20
-263.0115605897871
 30
0.0
 11
450.5891042311711
 21
-263.0115605897871
 31
0.0
  0
LINE
  5
5EB
330
1F
100
AcDbEntity
  8
D-5
  6
Continuous
 62
     2
370
     9
100
AcDbLine
 10
225.5888753493352
 20
-313.011846692082
 30
0.0
 11
225.5888753493352
 21
-263.0115605897871
 31
0.0
  0
LINE
  5
5EC
330
1F
100
AcDbEntity
  8
D-4
  6
Continuous
 62
     7
370
     9
100
AcDbLine
 10
-1281.751136247344
 20
-403.0105353898969
 30
0.0
 11
-1281.751136247344
 21
-328.0111537880865
 31
0.0
  0
LINE
  5
5ED
330
1F
100
AcDbEntity
  8
D-4
  6
Continuous
 62
     7
370
     9
100
AcDbLine
 10
-1236.751746598907
 20
-403.0105353898969
 30
0.0
 11
-1284.750632707305
 21
-403.0105353898969
 31
0.0
  0
LINE
  5
5EE
330
1F
100
AcDbEntity
  8
D-4
  6
Continuous
 62
     7
370
     9
100
AcDbLine
 10
-1236.751746598907
 20
-328.0111537880865
 30
0.0
 11
-1284.750632707305
 21
-328.0111537880865
 31
0.0
  0
LINE
  5
5EF
330
1F
100
AcDbEntity
  8
D-2
  6
Continuous
 62
     3
370
     9
100
AcDbLine
 10
-576.5830654541926
 20
-370.7592298097578
 30
0.0
 11
-641.683740083404
 21
-370.7592298097578
 31
0.0
  0
LINE
  5
5F0
330
1F
100
AcDbEntity
  8
D-2
  6
Continuous
 62
     3
370
     9
100
AcDbLine
 10
-576.5830654541926
 20
-395.5079127855268
 30
0.0
 11
-641.683740083404
 21
-395.5079127855268
 31
0.0
  0
LINE
  5
5F1
330
1F
100
AcDbEntity
  8
D-2
  6
Continuous
 62
     3
370
     9
100
AcDbLine
 10
-576.9011492173152
 20
-346.0100509233442
 30
0.0
 11
-641.264571611114
 21
-346.0100509233442
 31
0.0
  0
LINE
  5
5F2
330
1F
100
AcDbEntity
  8
D-2
  6
Continuous
 62
     3
370
     9
100
AcDbLine
 10
-651.5831846634821
 20
-370.7592298097578
 30
0.0
 11
-716.6828722397761
 21
-370.7592298097578
 31
0.0
  0
LINE
  5
5F3
330
1F
100
AcDbEntity
  8
D-2
  6
Continuous
 62
     3
370
     9
100
AcDbLine
 10
-651.5831846634821
 20
-395.5079127855268
 30
0.0
 11
-716.6828722397761
 21
-395.5079127855268
 31
0.0
  0
LINE
  5
5F4
330
1F
100
AcDbEntity
  8
D-2
  6
Continuous
 62
     3
370
     9
100
AcDbLine
 10
-726.5823168198542
 20
-370.7592298097578
 30
0.0
 11
-791.6820139328913
 21
-370.7592298097578
 31
0.0
  0
LINE
  5
5F5
330
1F
100
AcDbEntity
  8
D-2
  6
Continuous
 62
     3
370
     9
100
AcDbLine
 10
-726.5823168198542
 20
-395.5079127855268
 30
0.0
 11
-791.6820139328913
 21
-395.5079127855268
 31
0.0
  0
LINE
  5
5F6
330
1F
100
AcDbEntity
  8
D-2
  6
Continuous
 62
     3
370
     9
100
AcDbLine
 10
-801.5814585129694
 20
-370.7592298097578
 30
0.0
 11
-866.6820139328913
 21
-370.7592298097578
 31
0.0
  0
LINE
  5
5F7
330
1F
100
AcDbEntity
  8
D-2
  6
Continuous
 62
     3
370
     9
100
AcDbLine
 10
-801.5814585129694
 20
-395.5079127855268
 30
0.0
 11
-866.6820139328913
 21
-395.5079127855268
 31
0.0
  0
LINE
  5
5F8
330
1F
100
AcDbEntity
  8
D-2
  6
Continuous
 62
     3
370
     9
100
AcDbLine
 10
-876.5815729538874
 20
-370.7592298097578
 30
0.0
 11
-941.6821283738093
 21
-370.7592298097578
 31
0.0
  0
LINE
  5
5F9
330
1F
100
AcDbEntity
  8
D-2
  6
Continuous
 62
     3
370
     9
100
AcDbLine
 10
-876.5815729538874
 20
-395.5079127855268
 30
0.0
 11
-941.6821283738093
 21
-395.5079127855268
 31
0.0
  0
LINE
  5
5FA
330
1F
100
AcDbEntity
  8
D-2
  6
Continuous
 62
     3
370
     9
100
AcDbLine
 10
-951.5815729538874
 20
-370.7592298097578
 30
0.0
 11
-1016.681250993438
 21
-370.7592298097578
 31
0.0
  0
LINE
  5
5FB
330
1F
100
AcDbEntity
  8
D-2
  6
Continuous
 62
     3
370
     9
100
AcDbLine
 10
-951.5815729538874
 20
-395.5079127855268
 30
0.0
 11
-1016.681250993438
 21
-395.5079127855268
 31
0.0
  0
LINE
  5
5FC
330
1F
100
AcDbEntity
  8
D-2
  6
Continuous
 62
     3
370
     9
100
AcDbLine
 10
-1026.580695573516
 20
-370.7592298097578
 30
0.0
 11
-1091.68041176004
 21
-370.7592298097578
 31
0.0
  0
LINE
  5
5FD
330
1F
100
AcDbEntity
  8
D-2
  6
Continuous
 62
     3
370
     9
100
AcDbLine
 10
-1026.580695573516
 20
-395.5079127855268
 30
0.0
 11
-1091.68041176004
 21
-395.5079127855268
 31
0.0
  0
LINE
  5
5FE
330
1F
100
AcDbEntity
  8
D-2
  6
Continuous
 62
     3
370
     9
100
AcDbLine
 10
-1101.579856340118
 20
-370.7592298097578
 30
0.0
 11
-1166.680526200958
 21
-370.7592298097578
 31
0.0
  0
LINE
  5
5FF
330
1F
100
AcDbEntity
  8
D-2
  6
Continuous
 62
     3
370
     9
100
AcDbLine
 10
-1101.579856340118
 20
-395.5079127855268
 30
0.0
 11
-1166.680526200958
 21
-395.5079127855268
 31
0.0
  0
LINE
  5
600
330
1F
100
AcDbEntity
  8
D-2
  6
Continuous
 62
     3
370
     9
100
AcDbLine
 10
-1176.579856340118
 20
-370.7592298097578
 30
0.0
 11
-1221.750831071563
 21
-370.7592298097578
 31
0.0
  0
LINE
  5
601
330
1F
100
AcDbEntity
  8
D-2
  6
Continuous
 62
     3
370
     9
100
AcDbLine
 10
-1176.579856340118
 20
-395.5079127855268
 30
0.0
 11
-1221.750831071563
 21
-395.5079127855268
 31
0.0
  0
LINE
  5
602
330
1F
100
AcDbEntity
  8
D-5
  6
Continuous
 62
     7
370
     9
100
AcDbLine
 10
-424.5603651444392
 20
-101.7652942247358
 30
0.0
 11
396.6205220778508
 21
-101.7652942247358
 31
0.0
  0
ARC
  5
603
330
1F
100
AcDbEntity
  8
D-2
  6
Continuous
 62
     3
370
     9
100
AcDbCircle
 10
-571.5828008095698
 20
-398.0102683610883
 30
0.0
 40
5.0
100
AcDbArc
 50
180.0
 51
0.0
  0
ARC
  5
604
330
1F
100
AcDbEntity
  8
D-2
  6
Continuous
 62
     3
370
     9
100
AcDbCircle
 10
-556.5820092598872
 20
-348.0112196512189
 30
0.0
 40
10.0
100
AcDbArc
 50
90.0
 51
180.0
  0
ARC
  5
605
330
1F
100
AcDbEntity
  8
D-2
  6
Continuous
 62
     3
370
     9
100
AcDbCircle
 10
-586.5835923592524
 20
-348.0112196512189
 30
0.0
 40
10.0
100
AcDbArc
 50
0.0
 51
90.0
  0
ARC
  5
606
330
1F
100
AcDbEntity
  8
D-2
  6
Continuous
 62
     3
370
     9
100
AcDbCircle
 10
-589.0827364365534
 20
-333.0114175386396
 30
0.0
 40
5.0
100
AcDbArc
 50
180.0
 51
270.0
  0
ARC
  5
607
330
1F
100
AcDbEntity
  8
D-2
  6
Continuous
 62
     3
370
     9
100
AcDbCircle
 10
-554.0828669707255
 20
-333.0114175386396
 30
0.0
 40
5.0
100
AcDbArc
 50
270.0
 51
0.0
  0
ARC
  5
608
330
1F
100
AcDbEntity
  8
D-2
  6
Continuous
 62
     3
370
     9
100
AcDbCircle
 10
-591.5828651825861
 20
-330.5112858123746
 30
0.0
 40
2.5
100
AcDbArc
 50
90.0
 51
180.0
  0
ARC
  5
609
330
1F
100
AcDbEntity
  8
D-2
  6
Continuous
 62
     3
370
     9
100
AcDbCircle
 10
-551.5827349464373
 20
-330.5112858123746
 30
0.0
 40
2.5
100
AcDbArc
 50
0.0
 51
90.0
  0
ARC
  5
60A
330
1F
100
AcDbEntity
  8
D-2
  6
Continuous
 62
     3
370
     9
100
AcDbCircle
 10
-646.5829271714167
 20
-398.0102683610883
 30
0.0
 40
5.0
100
AcDbArc
 50
180.0
 51
0.0
  0
ARC
  5
60B
330
1F
100
AcDbEntity
  8
D-2
  6
Continuous
 62
     3
370
     9
100
AcDbCircle
 10
-631.5821356217341
 20
-348.0112196512189
 30
0.0
 40
10.0
100
AcDbArc
 50
90.0
 51
180.0
  0
ARC
  5
60C
330
1F
100
AcDbEntity
  8
D-2
  6
Continuous
 62
     3
370
     9
100
AcDbCircle
 10
-661.5837187210993
 20
-348.0112196512189
 30
0.0
 40
10.0
100
AcDbArc
 50
0.0
 51
90.0
  0
ARC
  5
60D
330
1F
100
AcDbEntity
  8
D-2
  6
Continuous
 62
     3
370
     9
100
AcDbCircle
 10
-664.0828604142146
 20
-333.0114175386396
 30
0.0
 40
5.0
100
AcDbArc
 50
180.0
 51
270.0
  0
ARC
  5
60E
330
1F
100
AcDbEntity
  8
D-2
  6
Continuous
 62
     3
370
     9
100
AcDbCircle
 10
-629.0829939286189
 20
-333.0114175386396
 30
0.0
 40
5.0
100
AcDbArc
 50
270.0
 51
0.0
  0
ARC
  5
60F
330
1F
100
AcDbEntity
  8
D-2
  6
Continuous
 62
     3
370
     9
100
AcDbCircle
 10
-666.5829939286189
 20
-330.5112858123746
 30
0.0
 40
2.5
100
AcDbArc
 50
90.0
 51
180.0
  0
ARC
  5
610
330
1F
100
AcDbEntity
  8
D-2
  6
Continuous
 62
     3
370
     9
100
AcDbCircle
 10
-626.582855645843
 20
-330.5112858123746
 30
0.0
 40
2.5
100
AcDbArc
 50
0.0
 51
90.0
  0
ARC
  5
611
330
1F
100
AcDbEntity
  8
D-2
  6
Continuous
 62
     3
370
     9
100
AcDbCircle
 10
-721.5820497910456
 20
-398.0102683610883
 30
0.0
 40
5.0
100
AcDbArc
 50
180.0
 51
0.0
  0
ARC
  5
612
330
1F
100
AcDbEntity
  8
D-2
  6
Continuous
 62
     3
370
     9
100
AcDbCircle
 10
-706.5822595993952
 20
-348.0112196512189
 30
0.0
 40
10.0
100
AcDbArc
 50
90.0
 51
180.0
  0
ARC
  5
613
330
1F
100
AcDbEntity
  8
D-2
  6
Continuous
 62
     3
370
     9
100
AcDbCircle
 10
-736.5828508774714
 20
-348.0112196512189
 30
0.0
 40
10.0
100
AcDbArc
 50
0.0
 51
90.0
  0
ARC
  5
614
330
1F
100
AcDbEntity
  8
D-2
  6
Continuous
 62
     3
370
     9
100
AcDbCircle
 10
-739.0829843918757
 20
-333.0114175386396
 30
0.0
 40
5.0
100
AcDbArc
 50
180.0
 51
270.0
  0
ARC
  5
615
330
1F
100
AcDbEntity
  8
D-2
  6
Continuous
 62
     3
370
     9
100
AcDbCircle
 10
-704.0831083695368
 20
-333.0114175386396
 30
0.0
 40
5.0
100
AcDbArc
 50
270.0
 51
0.0
  0
ARC
  5
616
330
1F
100
AcDbEntity
  8
D-2
  6
Continuous
 62
     3
370
     9
100
AcDbCircle
 10
-741.58311790628
 20
-330.5112858123746
 30
0.0
 40
2.5
100
AcDbArc
 50
90.0
 51
180.0
  0
ARC
  5
617
330
1F
100
AcDbEntity
  8
D-2
  6
Continuous
 62
     3
370
     9
100
AcDbCircle
 10
-701.5819925705866
 20
-330.5112858123746
 30
0.0
 40
2.5
100
AcDbArc
 50
0.0
 51
90.0
  0
ARC
  5
618
330
1F
100
AcDbEntity
  8
D-2
  6
Continuous
 62
     3
370
     9
100
AcDbCircle
 10
-796.583175126739
 20
-398.0102683610883
 30
0.0
 40
5.0
100
AcDbArc
 50
180.0
 51
0.0
  0
ARC
  5
619
330
1F
100
AcDbEntity
  8
D-2
  6
Continuous
 62
     3
370
     9
100
AcDbCircle
 10
-781.5822595993952
 20
-348.0112196512189
 30
0.0
 40
10.0
100
AcDbArc
 50
90.0
 51
180.0
  0
ARC
  5
61A
330
1F
100
AcDbEntity
  8
D-2
  6
Continuous
 62
     3
370
     9
100
AcDbCircle
 10
-811.5829653183894
 20
-348.0112196512189
 30
0.0
 40
10.0
100
AcDbArc
 50
0.0
 51
90.0
  0
ARC
  5
61B
330
1F
100
AcDbEntity
  8
D-2
  6
Continuous
 62
     3
370
     9
100
AcDbCircle
 10
-814.0830988327937
 20
-333.0114175386396
 30
0.0
 40
5.0
100
AcDbArc
 50
180.0
 51
270.0
  0
ARC
  5
61C
330
1F
100
AcDbEntity
  8
D-2
  6
Continuous
 62
     3
370
     9
100
AcDbCircle
 10
-779.08311790628
 20
-333.0114175386396
 30
0.0
 40
5.0
100
AcDbArc
 50
270.0
 51
0.0
  0
ARC
  5
61D
330
1F
100
AcDbEntity
  8
D-2
  6
Continuous
 62
     3
370
     9
100
AcDbCircle
 10
-816.583232347198
 20
-330.5112858123746
 30
0.0
 40
2.5
100
AcDbArc
 50
90.0
 51
180.0
  0
ARC
  5
61E
330
1F
100
AcDbEntity
  8
D-2
  6
Continuous
 62
     3
370
     9
100
AcDbCircle
 10
-776.5819925705866
 20
-330.5112858123746
 30
0.0
 40
2.5
100
AcDbArc
 50
0.0
 51
90.0
  0
ARC
  5
61F
330
1F
100
AcDbEntity
  8
D-2
  6
Continuous
 62
     3
370
     9
100
AcDbCircle
 10
-871.5821833054499
 20
-398.0102683610883
 30
0.0
 40
5.0
100
AcDbArc
 50
180.0
 51
0.0
  0
ARC
  5
620
330
1F
100
AcDbEntity
  8
D-2
  6
Continuous
 62
     3
370
     9
100
AcDbCircle
 10
-856.5823740403132
 20
-348.0112196512189
 30
0.0
 40
10.0
100
AcDbArc
 50
90.0
 51
180.0
  0
ARC
  5
621
330
1F
100
AcDbEntity
  8
D-2
  6
Continuous
 62
     3
370
     9
100
AcDbCircle
 10
-886.5830988327937
 20
-348.0112196512189
 30
0.0
 40
10.0
100
AcDbArc
 50
0.0
 51
90.0
  0
ARC
  5
622
330
1F
100
AcDbEntity
  8
D-2
  6
Continuous
 62
     3
370
     9
100
AcDbCircle
 10
-889.0822214524226
 20
-333.0114175386396
 30
0.0
 40
5.0
100
AcDbArc
 50
180.0
 51
270.0
  0
ARC
  5
623
330
1F
100
AcDbEntity
  8
D-2
  6
Continuous
 62
     3
370
     9
100
AcDbCircle
 10
-854.0822405259089
 20
-333.0114175386396
 30
0.0
 40
5.0
100
AcDbArc
 50
270.0
 51
0.0
  0
ARC
  5
624
330
1F
100
AcDbEntity
  8
D-2
  6
Continuous
 62
     3
370
     9
100
AcDbCircle
 10
-891.5823740403132
 20
-330.5112858123746
 30
0.0
 40
2.5
100
AcDbArc
 50
90.0
 51
180.0
  0
ARC
  5
625
330
1F
100
AcDbEntity
  8
D-2
  6
Continuous
 62
     3
370
     9
100
AcDbCircle
 10
-851.5821070115046
 20
-330.5112858123746
 30
0.0
 40
2.5
100
AcDbArc
 50
0.0
 51
90.0
  0
ARC
  5
626
330
1F
100
AcDbEntity
  8
D-2
  6
Continuous
 62
     3
370
     9
100
AcDbCircle
 10
-946.5822977463679
 20
-398.0102683610883
 30
0.0
 40
5.0
100
AcDbArc
 50
180.0
 51
0.0
  0
ARC
  5
627
330
1F
100
AcDbEntity
  8
D-2
  6
Continuous
 62
     3
370
     9
100
AcDbCircle
 10
-931.5824884812312
 20
-348.0112196512189
 30
0.0
 40
10.0
100
AcDbArc
 50
90.0
 51
180.0
  0
ARC
  5
628
330
1F
100
AcDbEntity
  8
D-2
  6
Continuous
 62
     3
370
     9
100
AcDbCircle
 10
-961.5830988327937
 20
-348.0112196512189
 30
0.0
 40
10.0
100
AcDbArc
 50
0.0
 51
90.0
  0
ARC
  5
629
330
1F
100
AcDbEntity
  8
D-2
  6
Continuous
 62
     3
370
     9
100
AcDbCircle
 10
-964.0832132737116
 20
-333.0114175386396
 30
0.0
 40
5.0
100
AcDbArc
 50
180.0
 51
270.0
  0
ARC
  5
62A
330
1F
100
AcDbEntity
  8
D-2
  6
Continuous
 62
     3
370
     9
100
AcDbCircle
 10
-929.0823740403132
 20
-333.0114175386396
 30
0.0
 40
5.0
100
AcDbArc
 50
270.0
 51
0.0
  0
ARC
  5
62B
330
1F
100
AcDbEntity
  8
D-2
  6
Continuous
 62
     3
370
     9
100
AcDbCircle
 10
-966.5823740403132
 20
-330.5112858123746
 30
0.0
 40
2.5
100
AcDbArc
 50
90.0
 51
180.0
  0
ARC
  5
62C
330
1F
100
AcDbEntity
  8
D-2
  6
Continuous
 62
     3
370
     9
100
AcDbCircle
 10
-926.5822214524226
 20
-330.5112858123746
 30
0.0
 40
2.5
100
AcDbArc
 50
0.0
 51
90.0
  0
ARC
  5
62D
330
1F
100
AcDbEntity
  8
D-2
  6
Continuous
 62
     3
370
     9
100
AcDbCircle
 10
-1021.582412187286
 20
-398.0102683610883
 30
0.0
 40
5.0
100
AcDbArc
 50
180.0
 51
0.0
  0
ARC
  5
62E
330
1F
100
AcDbEntity
  8
D-2
  6
Continuous
 62
     3
370
     9
100
AcDbCircle
 10
-1006.581649247833
 20
-348.0112196512189
 30
0.0
 40
10.0
100
AcDbArc
 50
90.0
 51
180.0
  0
ARC
  5
62F
330
1F
100
AcDbEntity
  8
D-2
  6
Continuous
 62
     3
370
     9
100
AcDbCircle
 10
-1036.583213273712
 20
-348.0112196512189
 30
0.0
 40
10.0
100
AcDbArc
 50
0.0
 51
90.0
  0
ARC
  5
630
330
1F
100
AcDbEntity
  8
D-2
  6
Continuous
 62
     3
370
     9
100
AcDbCircle
 10
-1039.08348030252
 20
-333.0114175386396
 30
0.0
 40
5.0
100
AcDbArc
 50
180.0
 51
270.0
  0
ARC
  5
631
330
1F
100
AcDbEntity
  8
D-2
  6
Continuous
 62
     3
370
     9
100
AcDbCircle
 10
-1004.082488481231
 20
-333.0114175386396
 30
0.0
 40
5.0
100
AcDbArc
 50
270.0
 51
0.0
  0
ARC
  5
632
330
1F
100
AcDbEntity
  8
D-2
  6
Continuous
 62
     3
370
     9
100
AcDbCircle
 10
-1041.582488481231
 20
-330.5112858123746
 30
0.0
 40
2.5
100
AcDbArc
 50
90.0
 51
180.0
  0
ARC
  5
633
330
1F
100
AcDbEntity
  8
D-2
  6
Continuous
 62
     3
370
     9
100
AcDbCircle
 10
-1001.582374040313
 20
-330.5112858123746
 30
0.0
 40
2.5
100
AcDbArc
 50
0.0
 51
90.0
  0
ARC
  5
634
330
1F
100
AcDbEntity
  8
D-2
  6
Continuous
 62
     3
370
     9
100
AcDbCircle
 10
-1096.582564775176
 20
-398.0102683610883
 30
0.0
 40
5.0
100
AcDbArc
 50
180.0
 51
0.0
  0
ARC
  5
635
330
1F
100
AcDbEntity
  8
D-2
  6
Continuous
 62
     3
370
     9
100
AcDbCircle
 10
-1081.58275551004
 20
-348.0112196512189
 30
0.0
 40
10.0
100
AcDbArc
 50
90.0
 51
180.0
  0
ARC
  5
636
330
1F
100
AcDbEntity
  8
D-2
  6
Continuous
 62
     3
370
     9
100
AcDbCircle
 10
-1111.58332771463
 20
-348.0112196512189
 30
0.0
 40
10.0
100
AcDbArc
 50
0.0
 51
90.0
  0
ARC
  5
637
330
1F
100
AcDbEntity
  8
D-2
  6
Continuous
 62
     3
370
     9
100
AcDbCircle
 10
-1114.082488481231
 20
-333.0114175386396
 30
0.0
 40
5.0
100
AcDbArc
 50
180.0
 51
270.0
  0
ARC
  5
638
330
1F
100
AcDbEntity
  8
D-2
  6
Continuous
 62
     3
370
     9
100
AcDbCircle
 10
-1079.082602922149
 20
-333.0114175386396
 30
0.0
 40
5.0
100
AcDbArc
 50
270.0
 51
0.0
  0
ARC
  5
639
330
1F
100
AcDbEntity
  8
D-2
  6
Continuous
 62
     3
370
     9
100
AcDbCircle
 10
-1116.582602922149
 20
-330.5112858123746
 30
0.0
 40
2.5
100
AcDbArc
 50
90.0
 51
180.0
  0
ARC
  5
63A
330
1F
100
AcDbEntity
  8
D-2
  6
Continuous
 62
     3
370
     9
100
AcDbCircle
 10
-1076.582488481231
 20
-330.5112858123746
 30
0.0
 40
2.5
100
AcDbArc
 50
0.0
 51
90.0
  0
ARC
  5
63B
330
1F
100
AcDbEntity
  8
D-2
  6
Continuous
 62
     3
370
     9
100
AcDbCircle
 10
-1171.582679216094
 20
-398.0102683610883
 30
0.0
 40
5.0
100
AcDbArc
 50
180.0
 51
0.0
  0
ARC
  5
63C
330
1F
100
AcDbEntity
  8
D-2
  6
Continuous
 62
     3
370
     9
100
AcDbCircle
 10
-1156.58275551004
 20
-348.0112196512189
 30
0.0
 40
10.0
100
AcDbArc
 50
90.0
 51
180.0
  0
ARC
  5
63D
330
1F
100
AcDbEntity
  8
D-2
  6
Continuous
 62
     3
370
     9
100
AcDbCircle
 10
-1186.58348030252
 20
-348.0112196512189
 30
0.0
 40
10.0
100
AcDbArc
 50
0.0
 51
90.0
  0
ARC
  5
63E
330
1F
100
AcDbEntity
  8
D-2
  6
Continuous
 62
     3
370
     9
100
AcDbCircle
 10
-1189.082602922149
 20
-333.0114175386396
 30
0.0
 40
5.0
100
AcDbArc
 50
180.0
 51
270.0
  0
ARC
  5
63F
330
1F
100
AcDbEntity
  8
D-2
  6
Continuous
 62
     3
370
     9
100
AcDbCircle
 10
-1154.082602922149
 20
-333.0114175386396
 30
0.0
 40
5.0
100
AcDbArc
 50
270.0
 51
0.0
  0
ARC
  5
640
330
1F
100
AcDbEntity
  8
D-2
  6
Continuous
 62
     3
370
     9
100
AcDbCircle
 10
-1191.58275551004
 20
-330.5112858123746
 30
0.0
 40
2.5
100
AcDbArc
 50
90.0
 51
180.0
  0
ARC
  5
641
330
1F
100
AcDbEntity
  8
D-2
  6
Continuous
 62
     3
370
     9
100
AcDbCircle
 10
-1151.582488481231
 20
-330.5112858123746
 30
0.0
 40
2.5
100
AcDbArc
 50
0.0
 51
90.0
  0
LWPOLYLINE
  5
642
330
1F
100
AcDbEntity
  8
D-4
  6
Continuous
 62
     7
370
     9
100
AcDbPolyline
 90
        4
 70
     1
 43
1.0
 10
-1281.251136247344
 20
-403.0105353898969
 42
0.4142135623731
 10
-1281.751136247344
 20
-402.510535389897
 42
0.4142135623731
 10
-1282.251136247345
 20
-403.0105353898969
 42
0.4142135623731
 10
-1281.751136247344
 20
-403.5105353898969
 42
0.4142135623731
  0
LWPOLYLINE
  5
643
330
1F
100
AcDbEntity
  8
D-4
  6
Continuous
 62
     7
370
     9
100
AcDbPolyline
 90
        4
 70
     1
 43
1.0
 10
-1281.251136247344
 20
-328.0111537880865
 42
0.4142135623731
 10
-1281.751136247344
 20
-327.5111537880865
 42
0.4142135623731
 10
-1282.251136247345
 20
-328.0111537880865
 42
0.4142135623731
 10
-1281.751136247344
 20
-328.5111537880864
 42
0.4142135623731
  0
TEXT
  5
644
330
1F
100
AcDbEntity
  8
D-5
  6
Continuous
 62
     2
370
     9
100
AcDbText
 10
273.0894094069524
 20
-302.3715832395521
 30
0.0
 40
30.48
  1
仕　様
 41
1.083333333333333
  7
ＭＳ ゴシック
100
AcDbText
  0
TEXT
  5
645
330
1F
100
AcDbEntity
  8
D-5
  6
Continuous
 62
     2
370
     9
100
AcDbText
 10
387.3910146315617
 20
-495.2914967699018
 30
0.0
 40
30.48
  1
材質：メインバー　ＳＵＳ３０４　＠１５
 41
1.118421052631579
  7
ＭＳ ゴシック
100
AcDbText
  0
TEXT
  5
646
330
1F
100
AcDbEntity
  8
D-5
  6
Continuous
 62
     2
370
     9
100
AcDbText
 10
387.3910152737976
 20
-625.291801945683
 30
0.0
 40
30.48
  1
　　　サイドバー　ＳＵＳ３０４
 50
359.9999934756395
 41
1.116666666666667
  7
ＭＳ ゴシック
100
AcDbText
  0
TEXT
  5
647
330
1F
100
AcDbEntity
  8
D-5
  6
Continuous
 62
     2
370
     9
100
AcDbText
 10
387.3910146315617
 20
-560.2918400926557
 30
0.0
 40
30.48
  1
　　　クロスバー　ＳＵＳ３０４　＠８０
 41
1.118421052631579
  7
ＭＳ ゴシック
100
AcDbText
  0
TEXT
  5
648
330
1F
100
AcDbEntity
  8
D-4
  6
Continuous
 62
     2
370
     9
100
AcDbText
 10
-1297.391670304962
 20
-386.7609123377841
 30
0.0
 40
30.48
  1
15
 50
90.00000250447827
 41
1.062500000000001
  7
ＭＳ ゴシック
100
AcDbText
  0
TEXT
  5
649
330
1F
100
AcDbEntity
  8
D-5
  6
Continuous
 62
     7
370
     9
100
AcDbText
 10
-424.5603651444392
 20
-89.60818164539008
 30
0.0
 40
22.86
  1
ステンレス製グレーチングＤＱ-Ｗ-Ａ－１５（h=15）
 41
1.159722222222222
  7
ＭＳ ゴシック
100
AcDbText
  0
TEXT
  5
64A
330
1F
100
AcDbEntity
  8
D-5
  6
Continuous
 62
     2
370
     9
100
AcDbText
 10
327.6797109206242
 20
-365.2921500368086
 30
0.0
 40
30.48
  1
ステンレス製縦目タイプ細目ノンスリップタイプ（デルタ模様）
 41
1.120689655172413
  7
ＭＳ ゴシック
100
AcDbText
  0
TEXT
  5
64B
330
1F
100
AcDbEntity
  8
D-5
  6
Continuous
 62
     7
370
     9
100
AcDbText
 10
-424.5603651444392
 20
-56.90333240222601
 30
0.0
 40
22.86
  1
縦目タイプ・細目ノンスリップ加工
 41
1.15625
  7
ＭＳ ゴシック
100
AcDbText
  0
TEXT
  5
64C
330
1F
100
AcDbEntity
  8
D-4
  6
Continuous
 62
     2
370
     9
100
AcDbText
 10
-830.2052193467097
 20
-458.7383570402097
 30
0.0
 40
30.48
  1
25
 50
90.00000250000005
 41
1.062500000000001
  7
ＭＳ ゴシック
100
AcDbText
  0
TEXT
  5
64D
330
1F
100
AcDbEntity
  8
D-5
  6
Continuous
 62
     7
370
     9
100
AcDbText
 10
-261.8950266282039
 20
-258.9367281694379
 30
0.0
 40
22.86
  1
溶接用アンカー
 41
1.142857142857143
  7
ＭＳ ゴシック
100
AcDbText
  0
TEXT
  5
64E
330
1F
100
AcDbEntity
  8
F-4
  6
Continuous
 62
     2
370
     9
100
AcDbText
 10
-764.000047168216
 20
-1349.359880404086
 30
0.0
 40
30.48
  1
ステンレス製グレーチング　ＤＱ－Ｗ－Ａ－１５　４５０×４５０×１５＋ＳＦ１５Ｂ
 41
0.7743589743589743
  7
ＭＳ ゴシック
100
AcDbText
  0
ENDSEC
  0
SECTION
  2
OBJECTS
  0
DICTIONARY
  5
C
330
0
100
AcDbDictionary
281
     1
  3
ACAD_GROUP
350
D
  3
ACAD_LAYOUT
350
1A
  3
ACAD_MLEADERSTYLE
350
650
  3
ACAD_MLINESTYLE
350
17
  3
ACAD_PLOTSETTINGS
350
19
  3
ACAD_PLOTSTYLENAME
350
E
  3
ACAD_TABLESTYLE
350
64F
  3
ACAD_VISUALSTYLE
350
2A
  0
DICTIONARY
  5
D
102
{ACAD_REACTORS
330
C
102
}
330
C
100
AcDbDictionary
281
     1
  0
DICTIONARY
  5
1A
102
{ACAD_REACTORS
330
C
102
}
330
C
100
AcDbDictionary
281
     1
  3
Layout1
350
1E
  3
Layout2
350
26
  3
Model
350
22
  0
DICTIONARY
  5
650
102
{ACAD_REACTORS
330
C
102
}
330
C
100
AcDbDictionary
281
     1
  0
DICTIONARY
  5
17
102
{ACAD_REACTORS
330
C
102
}
330
C
100
AcDbDictionary
281
     1
  3
Standard
350
18
  0
DICTIONARY
  5
19
102
{ACAD_REACTORS
330
C
102
}
330
C
100
AcDbDictionary
281
     1
  0
ACDBDICTIONARYWDFLT
  5
E
102
{ACAD_REACTORS
330
C
102
}
330
C
100
AcDbDictionary
281
     1
  3
Normal
350
F
100
AcDbDictionaryWithDefault
340
F
  0
DICTIONARY
  5
64F
102
{ACAD_REACTORS
330
C
102
}
330
C
100
AcDbDictionary
281
     1
  0
DICTIONARY
  5
2A
102
{ACAD_REACTORS
330
C
102
}
330
C
100
AcDbDictionary
281
     1
  3
2dWireframe
350
2F
  3
3D Hidden
350
31
  3
3dWireframe
350
30
  3
Basic
350
32
  3
Brighten
350
36
  3
ColorChange
350
3A
  3
Conceptual
350
34
  3
Dim
350
35
  3
Facepattern
350
39
  3
Flat
350
2B
  3
FlatWithEdges
350
2C
  3
Gouraud
350
2D
  3
GouraudWithEdges
350
2E
  3
Linepattern
350
38
  3
Realistic
350
33
  3
Thicken
350
37
  0
LAYOUT
  5
1E
102
{ACAD_REACTORS
330
1A
102
}
330
1A
100
AcDbPlotSettings
  1

  2
none_device
  4

  6

 40
0.0
 41
0.0
 42
0.0
 43
0.0
 44
0.0
 45
0.0
 46
0.0
 47
0.0
 48
0.0
 49
0.0
140
0.0
141
0.0
142
1.0
143
1.0
 70
   688
 72
     0
 73
     0
 74
     5
  7

 75
    16
 76
     0
 77
     5
 78
   300
147
1.0
148
0.0
149
0.0
100
AcDbLayout
  1
Layout1
 70
     1
 71
     1
 10
0.0
 20
0.0
 11
420.0
 21
297.0
 12
0.0
 22
0.0
 32
0.0
 14
1.000000000000000E+20
 24
1.000000000000000E+20
 34
1.000000000000000E+20
 15
-1.000000000000000E+20
 25
-1.000000000000000E+20
 35
-1.000000000000000E+20
146
0.0
 13
0.0
 23
0.0
 33
0.0
 16
1.0
 26
0.0
 36
0.0
 17
0.0
 27
1.0
 37
0.0
 76
     0
330
1B
  0
LAYOUT
  5
26
102
{ACAD_REACTORS
330
1A
102
}
330
1A
100
AcDbPlotSettings
  1

  2
none_device
  4

  6

 40
0.0
 41
0.0
 42
0.0
 43
0.0
 44
0.0
 45
0.0
 46
0.0
 47
0.0
 48
0.0
 49
0.0
140
0.0
141
0.0
142
1.0
143
1.0
 70
   688
 72
     0
 73
     0
 74
     5
  7

 75
    16
 76
     0
 77
     5
 78
   300
147
1.0
148
0.0
149
0.0
100
AcDbLayout
  1
Layout2
 70
     1
 71
     2
 10
0.0
 20
0.0
 11
0.0
 21
0.0
 12
0.0
 22
0.0
 32
0.0
 14
0.0
 24
0.0
 34
0.0
 15
0.0
 25
0.0
 35
0.0
146
0.0
 13
0.0
 23
0.0
 33
0.0
 16
1.0
 26
0.0
 36
0.0
 17
0.0
 27
1.0
 37
0.0
 76
     0
330
23
  0
LAYOUT
  5
22
102
{ACAD_REACTORS
330
1A
102
}
330
1A
100
AcDbPlotSettings
  1

  2
none_device
  4

  6

 40
0.0
 41
0.0
 42
0.0
 43
0.0
 44
0.0
 45
0.0
 46
0.0
 47
0.0
 48
0.0
 49
0.0
140
0.0
141
0.0
142
1.0
143
1.0
 70
  1712
 72
     0
 73
     0
 74
     0
  7

 75
     0
 76
     0
 77
     5
 78
   300
147
1.0
148
0.0
149
0.0
100
AcDbLayout
  1
Model
 70
     1
 71
     0
 10
-2100.0
 20
-1485.0
 11
2100.0
 21
1485.0
 12
0.0
 22
0.0
 32
0.0
 14
-2100.0
 24
-1485.0
 34
0.0
 15
2100.0
 25
1485.0
 35
0.0
146
0.0
 13
0.0
 23
0.0
 33
0.0
 16
1.0
 26
0.0
 36
0.0
 17
0.0
 27
1.0
 37
0.0
 76
     0
330
1F
331
29
  0
MLINESTYLE
  5
18
102
{ACAD_REACTORS
330
17
102
}
330
17
100
AcDbMlineStyle
  2
Standard
 70
     0
  3

 62
   256
 51
90.0
 52
90.0
 71
     2
 49
0.5
 62
   256
  6
BYLAYER
 49
-0.5
 62
   256
  6
BYLAYER
  0
ACDBPLACEHOLDER
  5
F
102
{ACAD_REACTORS
330
E
102
}
330
E
  0
VISUALSTYLE
  5
2F
102
{ACAD_REACTORS
330
2A
102
}
330
2A
100
AcDbVisualStyle
  2
2dWireframe
 70
     4
 71
     0
 72
     2
 73
     0
 90
        0
 40
-0.6
 41
-30.0
 62
     5
 63
     7
421
 16777215
 74
     1
 91
        4
 64
     7
 65
   257
 75
     1
175
     1
 42
1.0
 92
        0
 66
   257
 43
1.0
 76
     1
 77
     6
 78
     2
 67
     7
 79
     5
170
     0
171
     0
290
     0
174
     0
 93
        1
 44
0.0
173
     0
291
     0
 45
0.0
1001
ACAD
1000
AcDbSavedByObjectVersion
1070
     0
  0
VISUALSTYLE
  5
31
102
{ACAD_REACTORS
330
2A
102
}
330
2A
100
AcDbVisualStyle
  2
3D Hidden
 70
     6
 71
     1
 72
     2
 73
     2
 90
        0
 40
-0.6
 41
-30.0
 62
     5
 63
     7
421
 16777215
 74
     2
 91
        2
 64
     7
 65
   257
 75
     2
175
     1
 42
40.0
 92
        0
 66
   257
 43
1.0
 76
     1
 77
     6
 78
     2
 67
     7
 79
     3
170
     0
171
     0
290
     0
174
     0
 93
        1
 44
0.0
173
     0
291
     0
 45
0.0
1001
ACAD
1000
AcDbSavedByObjectVersion
1070
     0
  0
VISUALSTYLE
  5
30
102
{ACAD_REACTORS
330
2A
102
}
330
2A
100
AcDbVisualStyle
  2
3dWireframe
 70
     5
 71
     0
 72
     2
 73
     0
 90
        0
 40
-0.6
 41
-30.0
 62
     5
 63
     7
421
 16777215
 74
     1
 91
        4
 64
     7
 65
   257
 75
     1
175
     1
 42
1.0
 92
        0
 66
   257
 43
1.0
 76
     1
 77
     6
 78
     2
 67
     7
 79
     5
170
     0
171
     0
290
     0
174
     0
 93
        1
 44
0.0
173
     0
291
     0
 45
0.0
1001
ACAD
1000
AcDbSavedByObjectVersion
1070
     0
  0
VISUALSTYLE
  5
32
102
{ACAD_REACTORS
330
2A
102
}
330
2A
100
AcDbVisualStyle
  2
Basic
 70
     7
 71
     1
 72
     0
 73
     1
 90
        0
 40
-0.6
 41
-30.0
 62
     5
 63
     7
421
 16777215
 74
     0
 91
        4
 64
     7
 65
   257
 75
     1
175
     1
 42
1.0
 92
        8
 66
     7
 43
1.0
 76
     1
 77
     6
 78
     2
 67
     7
 79
     5
170
     0
171
     0
290
     0
174
     0
 93
        1
 44
0.0
173
     0
291
     1
 45
0.0
1001
ACAD
1000
AcDbSavedByObjectVersion
1070
     0
  0
VISUALSTYLE
  5
36
102
{ACAD_REACTORS
330
2A
102
}
330
2A
100
AcDbVisualStyle
  2
Brighten
 70
    12
 71
     2
 72
     2
 73
     0
 90
        0
 40
-0.6
 41
-30.0
 62
     5
 63
     7
421
 16777215
 74
     1
 91
        4
 64
     7
 65
   257
 75
     1
175
     1
 42
1.0
 92
        8
 66
     7
 43
1.0
 76
     1
 77
     6
 78
     2
 67
     7
 79
     5
170
     0
171
     0
290
     0
174
     0
 93
        1
 44
50.0
173
     0
291
     1
 45
0.0
1001
ACAD
1000
AcDbSavedByObjectVersion
1070
     0
  0
VISUALSTYLE
  5
3A
102
{ACAD_REACTORS
330
2A
102
}
330
2A
100
AcDbVisualStyle
  2
ColorChange
 70
    16
 71
     2
 72
     2
 73
     3
 90
        0
 40
-0.6
 41
-30.0
 62
     5
 63
     8
421
  8421504
 74
     1
 91
        4
 64
     7
 65
   257
 75
     1
175
     1
 42
1.0
 92
        8
 66
     8
424
  8421504
 43
1.0
 76
     1
 77
     6
 78
     2
 67
     7
 79
     5
170
     0
171
     0
290
     0
174
     0
 93
        1
 44
0.0
173
     0
291
     1
 45
0.0
1001
ACAD
1000
AcDbSavedByObjectVersion
1070
     0
  0
VISUALSTYLE
  5
34
102
{ACAD_REACTORS
330
2A
102
}
330
2A
100
AcDbVisualStyle
  2
Conceptual
 70
     9
 71
     3
 72
     2
 73
     0
 90
        0
 40
-0.6
 41
-30.0
 62
     5
 63
     7
421
 16777215
 74
     2
 91
        2
 64
     7
 65
   257
 75
     1
175
     1
 42
40.0
 92
        8
 66
     7
 43
1.0
 76
     1
 77
     6
 78
     2
 67
     7
 79
     3
170
     0
171
     0
290
     0
174
     0
 93
        1
 44
0.0
173
     0
291
     0
 45
0.0
1001
ACAD
1000
AcDbSavedByObjectVersion
1070
     0
  0
VISUALSTYLE
  5
35
102
{ACAD_REACTORS
330
2A
102
}
330
2A
100
AcDbVisualStyle
  2
Dim
 70
    11
 71
     2
 72
     2
 73
     0
 90
        0
 40
-0.6
 41
-30.0
 62
     5
 63
     7
421
 16777215
 74
     1
 91
        4
 64
     7
 65
   257
 75
     1
175
     1
 42
1.0
 92
        8
 66
     7
 43
1.0
 76
     1
 77
     6
 78
     2
 67
     7
 79
     5
170
     0
171
     0
290
     0
174
     0
 93
        1
 44
-50.0
173
     0
291
     1
 45
0.0
1001
ACAD
1000
AcDbSavedByObjectVersion
1070
     0
  0
VISUALSTYLE
  5
39
102
{ACAD_REACTORS
330
2A
102
}
330
2A
100
AcDbVisualStyle
  2
Facepattern
 70
    15
 71
     2
 72
     2
 73
     0
 90
        0
 40
-0.6
 41
-30.0
 62
     5
 63
     7
421
 16777215
 74
     1
 91
        4
 64
     7
 65
   257
 75
     1
175
     1
 42
1.0
 92
        8
 66
     7
 43
1.0
 76
     1
 77
     6
 78
     2
 67
     7
 79
     5
170
     0
171
     0
290
     0
174
     0
 93
        1
 44
0.0
173
     0
291
     1
 45
0.0
1001
ACAD
1000
AcDbSavedByObjectVersion
1070
     0
  0
VISUALSTYLE
  5
2B
102
{ACAD_REACTORS
330
2A
102
}
330
2A
100
AcDbVisualStyle
  2
Flat
 70
     0
 71
     2
 72
     1
 73
     1
 90
        2
 40
-0.6
 41
30.0
 62
     5
 63
     7
421
 16777215
 74
     0
 91
        4
 64
     7
 65
   257
 75
     1
175
     1
 42
1.0
 92
        8
 66
     7
 43
1.0
 76
     1
 77
     6
 78
     2
 67
     7
 79
     5
170
     0
171
     0
290
     0
174
     0
 93
       13
 44
0.0
173
     0
291
     1
 45
0.0
1001
ACAD
1000
AcDbSavedByObjectVersion
1070
     0
  0
VISUALSTYLE
  5
2C
102
{ACAD_REACTORS
330
2A
102
}
330
2A
100
AcDbVisualStyle
  2
FlatWithEdges
 70
     1
 71
     2
 72
     1
 73
     1
 90
        2
 40
-0.6
 41
30.0
 62
     5
 63
     7
421
 16777215
 74
     1
 91
        4
 64
     7
 65
   257
 75
     1
175
     1
 42
1.0
 92
        0
 66
   257
 43
1.0
 76
     1
 77
     6
 78
     2
 67
     7
 79
     5
170
     0
171
     0
290
     0
174
     0
 93
       13
 44
0.0
173
     0
291
     1
 45
0.0
1001
ACAD
1000
AcDbSavedByObjectVersion
1070
     0
  0
VISUALSTYLE
  5
2D
102
{ACAD_REACTORS
330
2A
102
}
330
2A
100
AcDbVisualStyle
  2
Gouraud
 70
     2
 71
     2
 72
     2
 73
     1
 90
        2
 40
-0.6
 41
30.0
 62
     5
 63
     7
421
 16777215
 74
     0
 91
        4
 64
     7
 65
   257
 75
     1
175
     1
 42
1.0
 92
        0
 66
     7
 43
1.0
 76
     1
 77
     6
 78
     2
 67
     7
 79
     5
170
     0
171
     0
290
     0
174
     0
 93
       13
 44
0.0
173
     0
291
     1
 45
0.0
1001
ACAD
1000
AcDbSavedByObjectVersion
1070
     0
  0
VISUALSTYLE
  5
2E
102
{ACAD_REACTORS
330
2A
102
}
330
2A
100
AcDbVisualStyle
  2
GouraudWithEdges
 70
     3
 71
     2
 72
     2
 73
     1
 90
        2
 40
-0.6
 41
30.0
 62
     5
 63
     7
421
 16777215
 74
     1
 91
        4
 64
     7
 65
   257
 75
     1
175
     1
 42
1.0
 92
        0
 66
   257
 43
1.0
 76
     1
 77
     6
 78
     2
 67
     7
 79
     5
170
     0
171
     0
290
     0
174
     0
 93
       13
 44
0.0
173
     0
291
     1
 45
0.0
1001
ACAD
1000
AcDbSavedByObjectVersion
1070
     0
  0
VISUALSTYLE
  5
38
102
{ACAD_REACTORS
330
2A
102
}
330
2A
100
AcDbVisualStyle
  2
Linepattern
 70
    14
 71
     2
 72
     2
 73
     0
 90
        0
 40
-0.6
 41
-30.0
 62
     5
 63
     7
421
 16777215
 74
     1
 91
        4
 64
     7
 65
   257
 75
     7
175
     7
 42
1.0
 92
        8
 66
     7
 43
1.0
 76
     1
 77
     6
 78
     2
 67
     7
 79
     5
170
     0
171
     0
290
     0
174
     0
 93
        1
 44
0.0
173
     0
291
     1
 45
0.0
1001
ACAD
1000
AcDbSavedByObjectVersion
1070
     0
  0
VISUALSTYLE
  5
33
102
{ACAD_REACTORS
330
2A
102
}
330
2A
100
AcDbVisualStyle
  2
Realistic
 70
     8
 71
     2
 72
     2
 73
     0
 90
        0
 40
-0.6
 41
-30.0
 62
     5
 63
     7
421
 16777215
 74
     1
 91
        0
 64
     7
 65
   257
 75
     1
175
     1
 42
1.0
 92
        8
 66
     8
424
  7895160
 43
1.0
 76
     1
 77
     6
 78
     2
 67
     7
 79
     5
170
     0
171
     0
290
     0
174
     0
 93
       13
 44
0.0
173
     0
291
     0
 45
0.0
1001
ACAD
1000
AcDbSavedByObjectVersion
1070
     0
  0
VISUALSTYLE
  5
37
102
{ACAD_REACTORS
330
2A
102
}
330
2A
100
AcDbVisualStyle
  2
Thicken
 70
    13
 71
     2
 72
     2
 73
     0
 90
        0
 40
-0.6
 41
-30.0
 62
     5
 63
     7
421
 16777215
 74
     1
 91
        4
 64
     7
 65
   257
 75
     1
175
     1
 42
1.0
 92
       12
 66
     7
 43
1.0
 76
     1
 77
     6
 78
     2
 67
     7
 79
     5
170
     0
171
     0
290
     0
174
     0
 93
        1
 44
0.0
173
     0
291
     1
 45
0.0
1001
ACAD
1000
AcDbSavedByObjectVersion
1070
     0
  0
ENDSEC
  0
EOF
