  0
SECTION
  2
HEADER
  9
$ACADVER
  1
AC1018
  9
$ACADMAINTVER
 70
     0
  9
$DWGCODEPAGE
  3
ANSI_932
  9
$INSBASE
 10
0.0
 20
0.0
 30
0.0
  9
$EXTMIN
 10
-2100.0
 20
-1485.0
 30
0.0
  9
$EXTMAX
 10
2100.0
 20
1485.0
 30
0.0
  9
$LIMMIN
 10
-2100.0
 20
-1485.0
  9
$LIMMAX
 10
2100.0
 20
1485.0
  9
$ORTHOMODE
 70
     0
  9
$REGENMODE
 70
     1
  9
$FILLMODE
 70
     1
  9
$QTEXTMODE
 70
     0
  9
$MIRRTEXT
 70
     1
  9
$LTSCALE
 40
10.0
  9
$ATTMODE
 70
     1
  9
$TEXTSIZE
 40
2.5
  9
$TRACEWID
 40
1.0
  9
$TEXTSTYLE
  7
Standard
  9
$CLAYER
  8
0
  9
$CELTYPE
  6
ByLayer
  9
$CECOLOR
 62
   256
  9
$CELTSCALE
 40
1.0
  9
$DISPSILH
 70
     0
  9
$DIMSCALE
 40
1.0
  9
$DIMASZ
 40
2.5
  9
$DIMEXO
 40
0.625
  9
$DIMDLI
 40
3.75
  9
$DIMRND
 40
0.0
  9
$DIMDLE
 40
0.0
  9
$DIMEXE
 40
1.25
  9
$DIMTP
 40
0.0
  9
$DIMTM
 40
0.0
  9
$DIMTXT
 40
2.5
  9
$DIMCEN
 40
2.5
  9
$DIMTSZ
 40
0.0
  9
$DIMTOL
 70
     0
  9
$DIMLIM
 70
     0
  9
$DIMTIH
 70
     0
  9
$DIMTOH
 70
     0
  9
$DIMSE1
 70
     0
  9
$DIMSE2
 70
     0
  9
$DIMTAD
 70
     1
  9
$DIMZIN
 70
     8
  9
$DIMBLK
  1

  9
$DIMASO
 70
     1
  9
$DIMSHO
 70
     1
  9
$DIMPOST
  1

  9
$DIMAPOST
  1

  9
$DIMALT
 70
     0
  9
$DIMALTD
 70
     3
  9
$DIMALTF
 40
0.03937007874016
  9
$DIMLFAC
 40
1.0
  9
$DIMTOFL
 70
     1
  9
$DIMTVP
 40
0.0
  9
$DIMTIX
 70
     0
  9
$DIMSOXD
 70
     0
  9
$DIMSAH
 70
     0
  9
$DIMBLK1
  1

  9
$DIMBLK2
  1

  9
$DIMSTYLE
  2
ISO-25
  9
$DIMCLRD
 70
     0
  9
$DIMCLRE
 70
     0
  9
$DIMCLRT
 70
     0
  9
$DIMTFAC
 40
1.0
  9
$DIMGAP
 40
0.625
  9
$DIMJUST
 70
     0
  9
$DIMSD1
 70
     0
  9
$DIMSD2
 70
     0
  9
$DIMTOLJ
 70
     0
  9
$DIMTZIN
 70
     8
  9
$DIMALTZ
 70
     0
  9
$DIMALTTZ
 70
     0
  9
$DIMUPT
 70
     0
  9
$DIMDEC
 70
     2
  9
$DIMTDEC
 70
     2
  9
$DIMALTU
 70
     2
  9
$DIMALTTD
 70
     3
  9
$DIMTXSTY
  7
Standard
  9
$DIMAUNIT
 70
     0
  9
$DIMADEC
 70
     0
  9
$DIMALTRND
 40
0.0
  9
$DIMAZIN
 70
     0
  9
$DIMDSEP
 70
    44
  9
$DIMATFIT
 70
     3
  9
$DIMFRAC
 70
     0
  9
$DIMLDRBLK
  1

  9
$DIMLUNIT
 70
     2
  9
$DIMLWD
 70
    -2
  9
$DIMLWE
 70
    -2
  9
$DIMTMOVE
 70
     0
  9
$LUNITS
 70
     2
  9
$LUPREC
 70
     4
  9
$SKETCHINC
 40
1.0
  9
$FILLETRAD
 40
10.0
  9
$AUNITS
 70
     0
  9
$AUPREC
 70
     0
  9
$MENU
  1
.
  9
$ELEVATION
 40
0.0
  9
$PELEVATION
 40
0.0
  9
$THICKNESS
 40
0.0
  9
$LIMCHECK
 70
     0
  9
$CHAMFERA
 40
0.0
  9
$CHAMFERB
 40
0.0
  9
$CHAMFERC
 40
0.0
  9
$CHAMFERD
 40
0.0
  9
$SKPOLY
 70
     0
  9
$TDCREATE
 40
2459278.501858681
  9
$TDUCREATE
 40
2459278.126858681
  9
$TDUPDATE
 40
2459278.501858796
  9
$TDUUPDATE
 40
2459278.126858796
  9
$TDINDWG
 40
0.0000000116
  9
$TDUSRTIMER
 40
0.0000000116
  9
$USRTIMER
 70
     1
  9
$ANGBASE
 50
0.0
  9
$ANGDIR
 70
     0
  9
$PDMODE
 70
     0
  9
$PDSIZE
 40
0.0
  9
$PLINEWID
 40
0.0
  9
$SPLFRAME
 70
     0
  9
$SPLINETYPE
 70
     6
  9
$SPLINESEGS
 70
     8
  9
$HANDSEED
  5
2BE
  9
$SURFTAB1
 70
     6
  9
$SURFTAB2
 70
     6
  9
$SURFTYPE
 70
     6
  9
$SURFU
 70
     6
  9
$SURFV
 70
     6
  9
$UCSBASE
  2

  9
$UCSNAME
  2

  9
$UCSORG
 10
0.0
 20
0.0
 30
0.0
  9
$UCSXDIR
 10
1.0
 20
0.0
 30
0.0
  9
$UCSYDIR
 10
0.0
 20
1.0
 30
0.0
  9
$UCSORTHOREF
  2

  9
$UCSORTHOVIEW
 70
     0
  9
$UCSORGTOP
 10
0.0
 20
0.0
 30
0.0
  9
$UCSORGBOTTOM
 10
0.0
 20
0.0
 30
0.0
  9
$UCSORGLEFT
 10
0.0
 20
0.0
 30
0.0
  9
$UCSORGRIGHT
 10
0.0
 20
0.0
 30
0.0
  9
$UCSORGFRONT
 10
0.0
 20
0.0
 30
0.0
  9
$UCSORGBACK
 10
0.0
 20
0.0
 30
0.0
  9
$PUCSBASE
  2

  9
$PUCSNAME
  2

  9
$PUCSORG
 10
0.0
 20
0.0
 30
0.0
  9
$PUCSXDIR
 10
1.0
 20
0.0
 30
0.0
  9
$PUCSYDIR
 10
0.0
 20
1.0
 30
0.0
  9
$PUCSORTHOREF
  2

  9
$PUCSORTHOVIEW
 70
     0
  9
$PUCSORGTOP
 10
0.0
 20
0.0
 30
0.0
  9
$PUCSORGBOTTOM
 10
0.0
 20
0.0
 30
0.0
  9
$PUCSORGLEFT
 10
0.0
 20
0.0
 30
0.0
  9
$PUCSORGRIGHT
 10
0.0
 20
0.0
 30
0.0
  9
$PUCSORGFRONT
 10
0.0
 20
0.0
 30
0.0
  9
$PUCSORGBACK
 10
0.0
 20
0.0
 30
0.0
  9
$USERI1
 70
     0
  9
$USERI2
 70
     0
  9
$USERI3
 70
     0
  9
$USERI4
 70
     0
  9
$USERI5
 70
     0
  9
$USERR1
 40
0.0
  9
$USERR2
 40
0.0
  9
$USERR3
 40
0.0
  9
$USERR4
 40
0.0
  9
$USERR5
 40
0.0
  9
$WORLDVIEW
 70
     1
  9
$SHADEDGE
 70
     3
  9
$SHADEDIF
 70
    70
  9
$TILEMODE
 70
     1
  9
$MAXACTVP
 70
    64
  9
$PINSBASE
 10
0.0
 20
0.0
 30
0.0
  9
$PLIMCHECK
 70
     0
  9
$PEXTMIN
 10
1.000000000000000E+20
 20
1.000000000000000E+20
 30
1.000000000000000E+20
  9
$PEXTMAX
 10
-1.000000000000000E+20
 20
-1.000000000000000E+20
 30
-1.000000000000000E+20
  9
$PLIMMIN
 10
0.0
 20
0.0
  9
$PLIMMAX
 10
420.0
 20
297.0
  9
$UNITMODE
 70
     0
  9
$VISRETAIN
 70
     1
  9
$PLINEGEN
 70
     0
  9
$PSLTSCALE
 70
     1
  9
$TREEDEPTH
 70
  3020
  9
$CMLSTYLE
  2
Standard
  9
$CMLJUST
 70
     0
  9
$CMLSCALE
 40
20.0
  9
$PROXYGRAPHICS
 70
     1
  9
$MEASUREMENT
 70
     1
  9
$CELWEIGHT
370
    -1
  9
$ENDCAPS
280
     0
  9
$JOINSTYLE
280
     0
  9
$LWDISPLAY
290
     0
  9
$INSUNITS
 70
     4
  9
$HYPERLINKBASE
  1

  9
$STYLESHEET
  1

  9
$XEDIT
290
     1
  9
$CEPSNTYPE
380
     0
  9
$PSTYLEMODE
290
     1
  9
$FINGERPRINTGUID
  2
{EB1EDC3B-0B7D-4E2F-ADD9-CC214E05E5B8}
  9
$VERSIONGUID
  2
{FAEB1C32-E019-11D5-929B-00C0DF256EC4}
  9
$EXTNAMES
290
     1
  9
$PSVPSCALE
 40
0.0
  9
$OLESTARTUP
290
     0
  9
$SORTENTS
280
   127
  9
$INDEXCTL
280
     0
  9
$HIDETEXT
280
     1
  9
$XCLIPFRAME
290
     0
  9
$HALOGAP
280
     0
  9
$OBSCOLOR
 70
   257
  9
$OBSLTYPE
280
     0
  9
$INTERSECTIONDISPLAY
280
     0
  9
$INTERSECTIONCOLOR
 70
   257
  9
$DIMASSOC
280
     2
  9
$PROJECTNAME
  1

  0
ENDSEC
  0
SECTION
  2
CLASSES
  0
CLASS
  1
ACDBDICTIONARYWDFLT
  2
AcDbDictionaryWithDefault
  3
ObjectDBX Classes
 90
        0
 91
        4
280
     0
281
     0
  0
CLASS
  1
VISUALSTYLE
  2
AcDbVisualStyle
  3
ObjectDBX Classes
 90
     4095
 91
        4
280
     0
281
     0
  0
CLASS
  1
MATERIAL
  2
AcDbMaterial
  3
ObjectDBX Classes
 90
     1153
 91
        4
280
     0
281
     0
  0
CLASS
  1
SCALE
  2
AcDbScale
  3
ObjectDBX Classes
 90
     1153
 91
        4
280
     0
281
     0
  0
CLASS
  1
TABLESTYLE
  2
AcDbTableStyle
  3
ObjectDBX Classes
 90
     4095
 91
        4
280
     0
281
     0
  0
CLASS
  1
MLEADERSTYLE
  2
AcDbMLeaderStyle
  3
ACDB_MLEADERSTYLE_CLASS
 90
     4095
 91
        4
280
     0
281
     0
  0
CLASS
  1
SUN
  2
AcDbSun
  3
SCENEOE
 90
     1153
 91
        4
280
     0
281
     0
  0
CLASS
  1
DICTIONARYVAR
  2
AcDbDictionaryVar
  3
ObjectDBX Classes
 90
        0
 91
        4
280
     0
281
     0
  0
CLASS
  1
CELLSTYLEMAP
  2
AcDbCellStyleMap
  3
ObjectDBX Classes
 90
     1152
 91
        4
280
     0
281
     0
  0
ENDSEC
  0
SECTION
  2
TABLES
  0
TABLE
  2
VPORT
  5
8
102
{ACAD_XDICTIONARY
360
275
102
}
330
0
100
AcDbSymbolTable
 70
     1
  0
VPORT
  5
29
330
8
100
AcDbSymbolTableRecord
100
AcDbViewportTableRecord
  2
*Active
 70
     0
 10
0.0
 20
0.0
 11
1.0
 21
1.0
 12
0.0
 22
0.0
 13
0.0
 23
0.0
 14
10.0
 24
10.0
 15
10.0
 25
10.0
 16
0.0
 26
0.0
 36
1.0
 17
0.0
 27
0.0
 37
0.0
 40
3267.0
 41
1.414141414141414
 42
50.0
 43
0.0
 44
0.0
 50
0.0
 51
0.0
 71
     0
 72
 10000
 73
     1
 74
     3
 75
     0
 76
     0
 77
     0
 78
     0
281
     0
 65
     1
110
0.0
120
0.0
130
0.0
111
1.0
121
0.0
131
0.0
112
0.0
122
1.0
132
0.0
 79
     0
146
0.0
  0
ENDTAB
  0
TABLE
  2
LTYPE
  5
5
330
0
100
AcDbSymbolTable
 70
     5
  0
LTYPE
  5
14
330
5
100
AcDbSymbolTableRecord
100
AcDbLinetypeTableRecord
  2
ByBlock
 70
     0
  3

 72
    65
 73
     0
 40
0.0
  0
LTYPE
  5
15
330
5
100
AcDbSymbolTableRecord
100
AcDbLinetypeTableRecord
  2
ByLayer
 70
     0
  3

 72
    65
 73
     0
 40
0.0
  0
LTYPE
  5
16
330
5
100
AcDbSymbolTableRecord
100
AcDbLinetypeTableRecord
  2
Continuous
 70
     0
  3
Solid line
 72
    65
 73
     0
 40
0.0
  0
LTYPE
  5
6F
330
5
100
AcDbSymbolTableRecord
100
AcDbLinetypeTableRecord
  2
JWW_CENTER2
 70
     0
  3
-------------  --  -------------
 72
    65
 73
     4
 40
13.54666666666667
 49
11.00666666666667
 74
     0
 49
-0.8466666666666667
 74
     0
 49
0.8466666666666667
 74
     0
 49
-0.8466666666666667
 74
     0
  0
LTYPE
  5
70
330
5
100
AcDbSymbolTableRecord
100
AcDbLinetypeTableRecord
  2
JWW_DASHED1
 70
     0
  3
-  --  --  --  --  --  --  --  -
 72
    65
 73
     2
 40
1.693333333333333
 49
0.8466666666666667
 74
     0
 49
-0.8466666666666667
 74
     0
  0
LTYPE
  5
71
330
5
100
AcDbSymbolTableRecord
100
AcDbLinetypeTableRecord
  2
JWW_CENTER1
 70
     0
  3
-----  --  ----------  --  -----
 72
    65
 73
     4
 40
6.773333333333333
 49
4.233333333333333
 74
     0
 49
-0.8466666666666667
 74
     0
 49
0.8466666666666667
 74
     0
 49
-0.8466666666666667
 74
     0
  0
LTYPE
  5
72
330
5
100
AcDbSymbolTableRecord
100
AcDbLinetypeTableRecord
  2
JWW_PHANTOM1
 70
     0
  3
----  -  -  --------  -  -  ----
 72
    65
 73
     6
 40
6.773333333333333
 49
3.386666666666667
 74
     0
 49
-0.8466666666666667
 74
     0
 49
0.4233333333333333
 74
     0
 49
-0.8466666666666667
 74
     0
 49
0.4233333333333333
 74
     0
 49
-0.8466666666666667
 74
     0
  0
ENDTAB
  0
TABLE
  2
LAYER
  5
2
330
0
100
AcDbSymbolTable
 70
    22
  0
LAYER
  5
10
330
2
100
AcDbSymbolTableRecord
100
AcDbLayerTableRecord
  2
0
 70
     0
 62
     7
  6
Continuous
370
    -3
390
F
  0
LAYER
  5
73
330
2
100
AcDbSymbolTableRecord
100
AcDbLayerTableRecord
  2
C-0
 70
     0
 62
     7
  6
Continuous
370
    -3
390
F
  0
LAYER
  5
74
330
2
100
AcDbSymbolTableRecord
100
AcDbLayerTableRecord
  2
C-5
 70
     0
 62
     7
  6
Continuous
370
    -3
390
F
  0
LAYER
  5
75
330
2
100
AcDbSymbolTableRecord
100
AcDbLayerTableRecord
  2
C-E
 70
     0
 62
     7
  6
Continuous
370
    -3
390
F
  0
LAYER
  5
76
330
2
100
AcDbSymbolTableRecord
100
AcDbLayerTableRecord
  2
C-1
 70
     0
 62
     7
  6
Continuous
370
    -3
390
F
  0
LAYER
  5
77
330
2
100
AcDbSymbolTableRecord
100
AcDbLayerTableRecord
  2
C-9
 70
     0
 62
     7
  6
Continuous
370
    -3
390
F
  0
LAYER
  5
78
330
2
100
AcDbSymbolTableRecord
100
AcDbLayerTableRecord
  2
C-6
 70
     0
 62
     7
  6
Continuous
370
    -3
390
F
  0
LAYER
  5
79
330
2
100
AcDbSymbolTableRecord
100
AcDbLayerTableRecord
  2
C-7
 70
     0
 62
     7
  6
Continuous
370
    -3
390
F
  0
LAYER
  5
7A
330
2
100
AcDbSymbolTableRecord
100
AcDbLayerTableRecord
  2
C-4
 70
     0
 62
     7
  6
Continuous
370
    -3
390
F
  0
LAYER
  5
7B
330
2
100
AcDbSymbolTableRecord
100
AcDbLayerTableRecord
  2
C-B
 70
     0
 62
     7
  6
Continuous
370
    -3
390
F
  0
LAYER
  5
7C
330
2
100
AcDbSymbolTableRecord
100
AcDbLayerTableRecord
  2
C-2
 70
     0
 62
     7
  6
Continuous
370
    -3
390
F
  0
LAYER
  5
7D
330
2
100
AcDbSymbolTableRecord
100
AcDbLayerTableRecord
  2
C-A
 70
     0
 62
     7
  6
Continuous
370
    -3
390
F
  0
LAYER
  5
7E
330
2
100
AcDbSymbolTableRecord
100
AcDbLayerTableRecord
  2
D-0
 70
     0
 62
     7
  6
Continuous
370
    -3
390
F
  0
LAYER
  5
7F
330
2
100
AcDbSymbolTableRecord
100
AcDbLayerTableRecord
  2
D-6
 70
     0
 62
     7
  6
Continuous
370
    -3
390
F
  0
LAYER
  5
80
330
2
100
AcDbSymbolTableRecord
100
AcDbLayerTableRecord
  2
D-B
 70
     0
 62
     7
  6
Continuous
370
    -3
390
F
  0
LAYER
  5
81
330
2
100
AcDbSymbolTableRecord
100
AcDbLayerTableRecord
  2
D-9
 70
     0
 62
     7
  6
Continuous
370
    -3
390
F
  0
LAYER
  5
82
330
2
100
AcDbSymbolTableRecord
100
AcDbLayerTableRecord
  2
D-5
 70
     0
 62
     7
  6
Continuous
370
    -3
390
F
  0
LAYER
  5
83
330
2
100
AcDbSymbolTableRecord
100
AcDbLayerTableRecord
  2
D-4
 70
     0
 62
     7
  6
Continuous
370
    -3
390
F
  0
LAYER
  5
84
330
2
100
AcDbSymbolTableRecord
100
AcDbLayerTableRecord
  2
D-1
 70
     0
 62
     7
  6
Continuous
370
    -3
390
F
  0
LAYER
  5
85
330
2
100
AcDbSymbolTableRecord
100
AcDbLayerTableRecord
  2
D-2
 70
     0
 62
     7
  6
Continuous
370
    -3
390
F
  0
LAYER
  5
86
330
2
100
AcDbSymbolTableRecord
100
AcDbLayerTableRecord
  2
D-A
 70
     0
 62
     7
  6
Continuous
370
    -3
390
F
  0
LAYER
  5
87
330
2
100
AcDbSymbolTableRecord
100
AcDbLayerTableRecord
  2
F-5ﾚｲﾔ
 70
     0
 62
     7
  6
Continuous
370
    -3
390
F
  0
ENDTAB
  0
TABLE
  2
STYLE
  5
3
330
0
100
AcDbSymbolTable
 70
     2
  0
STYLE
  5
11
330
3
100
AcDbSymbolTableRecord
100
AcDbTextStyleTableRecord
  2
Standard
 70
     0
 40
0.0
 41
1.0
 50
0.0
 71
     0
 42
2.5
  3
txt
  4

  0
STYLE
  5
6E
330
3
100
AcDbSymbolTableRecord
100
AcDbTextStyleTableRecord
  2
ＭＳ ゴシック
 70
     0
 40
1.0
 41
1.0
 50
0.0
 71
     0
 42
2.5
  3

  4

1001
ACAD
1000
MS Gothic
1071
    32817
  0
ENDTAB
  0
TABLE
  2
VIEW
  5
6
330
0
100
AcDbSymbolTable
 70
     0
  0
ENDTAB
  0
TABLE
  2
UCS
  5
7
330
0
100
AcDbSymbolTable
 70
     0
  0
ENDTAB
  0
TABLE
  2
APPID
  5
9
330
0
100
AcDbSymbolTable
 70
     2
  0
APPID
  5
12
330
9
100
AcDbSymbolTableRecord
100
AcDbRegAppTableRecord
  2
ACAD
 70
     0
  0
APPID
  5
2B4
330
9
100
AcDbSymbolTableRecord
100
AcDbRegAppTableRecord
  2
ACAD_MLEADERVER
 70
     0
  0
ENDTAB
  0
TABLE
  2
DIMSTYLE
  5
A
330
0
100
AcDbSymbolTable
 70
     1
100
AcDbDimStyleTable
  0
DIMSTYLE
105
27
330
A
100
AcDbSymbolTableRecord
100
AcDbDimStyleTableRecord
  2
ISO-25
 70
     0
 41
2.5
 42
0.625
 43
3.75
 44
1.25
 73
     0
 74
     0
 77
     1
 78
     8
140
2.5
141
2.5
143
0.03937007874016
147
0.625
171
     3
172
     1
178
     0
271
     2
272
     2
274
     3
278
    44
283
     0
284
     8
340
11
  0
ENDTAB
  0
TABLE
  2
BLOCK_RECORD
  5
1
330
0
100
AcDbSymbolTable
 70
     1
  0
BLOCK_RECORD
  5
1F
330
1
100
AcDbSymbolTableRecord
100
AcDbBlockTableRecord
  2
*Model_Space
340
22
  0
BLOCK_RECORD
  5
1B
330
1
100
AcDbSymbolTableRecord
100
AcDbBlockTableRecord
  2
*Paper_Space
340
1E
  0
BLOCK_RECORD
  5
23
330
1
100
AcDbSymbolTableRecord
100
AcDbBlockTableRecord
  2
*Paper_Space0
340
26
  0
ENDTAB
  0
ENDSEC
  0
SECTION
  2
BLOCKS
  0
BLOCK
  5
20
330
1F
100
AcDbEntity
  8
0
100
AcDbBlockBegin
  2
*Model_Space
 70
     0
 10
0.0
 20
0.0
 30
0.0
  3
*Model_Space
  1

  0
ENDBLK
  5
21
330
1F
100
AcDbEntity
  8
0
100
AcDbBlockEnd
  0
BLOCK
  5
1C
330
1B
100
AcDbEntity
 67
     1
  8
0
100
AcDbBlockBegin
  2
*Paper_Space
 70
     0
 10
0.0
 20
0.0
 30
0.0
  3
*Paper_Space
  1

  0
ENDBLK
  5
1D
330
1B
100
AcDbEntity
 67
     1
  8
0
100
AcDbBlockEnd
  0
BLOCK
  5
24
330
23
100
AcDbEntity
  8
0
100
AcDbBlockBegin
  2
*Paper_Space0
 70
     0
 10
0.0
 20
0.0
 30
0.0
  3
*Paper_Space0
  1

  0
ENDBLK
  5
25
330
23
100
AcDbEntity
  8
0
100
AcDbBlockEnd
  0
ENDSEC
  0
SECTION
  2
ENTITIES
  0
ARC
  5
88
330
1F
100
AcDbEntity
  8
C-0
  6
Continuous
 62
     4
370
     9
100
AcDbCircle
 10
0.0
 20
-25.09910692817163
 30
0.0
 40
23.709871621
100
AcDbArc
 50
102.0611093484091
 51
245.053914462181
  0
ARC
  5
89
330
1F
100
AcDbEntity
  8
C-0
  6
Continuous
 62
     4
370
     9
100
AcDbCircle
 10
0.0
 20
-25.09910692817163
 30
0.0
 40
23.709871621
100
AcDbArc
 50
294.946085537819
 51
77.93889065159101
  0
LINE
  5
8A
330
1F
100
AcDbEntity
  8
C-0
  6
Continuous
 62
     4
370
     9
100
AcDbLine
 10
13.4647174279479
 20
-46.5969675729956
 30
0.0
 11
9.999999999150475
 21
-46.5969675729956
 31
0.0
  0
CIRCLE
  5
8B
330
1F
100
AcDbEntity
  8
C-0
  6
Continuous
 62
     4
370
     9
100
AcDbCircle
 10
0.0
 20
-10.59910692817164
 30
0.0
 40
10.0
  0
LINE
  5
8C
330
1F
100
AcDbEntity
  8
C-0
  6
JWW_CENTER2
 62
     7
370
     9
100
AcDbLine
 10
-11.08469916122431
 20
-10.59910692817164
 30
0.0
 11
10.47481543213422
 21
-10.59910692817164
 31
0.0
  0
LINE
  5
8D
330
1F
100
AcDbEntity
  8
C-0
  6
Continuous
 62
     4
370
     9
100
AcDbLine
 10
-15.50000000000011
 20
-51.94589444488326
 30
0.0
 11
-15.50000000000011
 21
-68.40903650557982
 31
0.0
  0
TEXT
  5
8E
330
1F
100
AcDbEntity
  8
C-5
  6
Continuous
 62
     2
370
     0
100
AcDbText
 10
1360.989361702128
 20
-1105.125957446808
 30
0.0
 40
30.48
  1
支柱質量：3.9kg／本
 41
1.111842105263158
  7
ＭＳ ゴシック
100
AcDbText
  0
LINE
  5
8F
330
1F
100
AcDbEntity
  8
C-E
  6
Continuous
 62
     6
370
     9
100
AcDbLine
 10
-44.56427043989208
 20
-76.52400358742973
 30
0.0
 11
-289.8286134086987
 21
-76.52400358742973
 31
0.0
  0
LINE
  5
90
330
1F
100
AcDbEntity
  8
C-E
  6
Continuous
 62
     6
370
     9
100
AcDbLine
 10
-44.56427043989208
 20
-149.5639832257141
 30
0.0
 11
-150.0
 21
-254.9997127858222
 31
0.0
  0
LINE
  5
91
330
1F
100
AcDbEntity
  8
C-E
  6
Continuous
 62
     6
370
     9
100
AcDbLine
 10
-44.56427043989208
 20
-135.4218476019832
 30
0.0
 11
-150.0
 21
-240.8575771620912
 31
0.0
  0
LINE
  5
92
330
1F
100
AcDbEntity
  8
C-E
  6
Continuous
 62
     6
370
     9
100
AcDbLine
 10
-44.56427043989208
 20
-121.2797119782523
 30
0.0
 11
-150.0
 21
-226.7154415383603
 31
0.0
  0
LINE
  5
93
330
1F
100
AcDbEntity
  8
C-1
  6
Continuous
 62
     3
370
     9
100
AcDbLine
 10
38.15014813397369
 20
760.8593440422737
 30
0.0
 11
38.5748785895268
 21
761.4759640802805
 31
0.0
  0
LINE
  5
94
330
1F
100
AcDbEntity
  8
C-1
  6
Continuous
 62
     3
370
     9
100
AcDbLine
 10
38.15014813397369
 20
760.8593440422737
 30
0.0
 11
0.0
 21
760.8593440422737
 31
0.0
  0
LINE
  5
95
330
1F
100
AcDbEntity
  8
C-1
  6
JWW_DASHED1
 62
     3
370
     9
100
AcDbLine
 10
38.15014813397383
 20
-76.52402932132406
 30
0.0
 11
38.15014813397383
 21
-326.5242355211768
 31
0.0
  0
ARC
  5
96
330
1F
100
AcDbEntity
  8
C-1
  6
Continuous
 62
     3
370
     9
100
AcDbCircle
 10
0.0
 20
705.4760020210534
 30
0.0
 40
67.99999701010215
100
AcDbArc
 50
55.43952941894531
 51
124.5604248046875
  0
LINE
  5
97
330
1F
100
AcDbEntity
  8
C-0
  6
Continuous
 62
     2
370
     9
100
AcDbLine
 10
50.00004123997044
 20
-326.5242355211768
 30
0.0
 11
-49.99991752005911
 21
-326.5237406415312
 31
0.0
  0
LINE
  5
98
330
1F
100
AcDbEntity
  8
C-0
  6
Continuous
 62
     2
370
     9
100
AcDbLine
 10
-49.99991752005911
 20
-326.5237406415312
 30
0.0
 11
-49.99991752005911
 21
-329.7238798676715
 31
0.0
  0
LINE
  5
99
330
1F
100
AcDbEntity
  8
C-0
  6
Continuous
 62
     2
370
     9
100
AcDbLine
 10
50.00004123997044
 20
-326.5242355211768
 30
0.0
 11
50.00004123997044
 21
-329.7241273074939
 31
0.0
  0
LINE
  5
9A
330
1F
100
AcDbEntity
  8
C-0
  6
Continuous
 62
     2
370
     9
100
AcDbLine
 10
-12.0000890783362
 20
-326.5239880813538
 30
0.0
 11
-12.0000890783362
 21
-329.7238798676715
 31
0.0
  0
LINE
  5
9B
330
1F
100
AcDbEntity
  8
C-0
  6
JWW_DASHED1
 62
     2
370
     9
100
AcDbLine
 10
40.54994325380065
 20
-76.52402932132406
 30
0.0
 11
40.54994325380065
 21
-326.5242355211768
 31
0.0
  0
LINE
  5
9C
330
1F
100
AcDbEntity
  8
C-1
  6
Continuous
 62
     3
370
     9
100
AcDbLine
 10
-38.1501481339734
 20
760.8593440422737
 30
0.0
 11
-38.57487858952652
 21
761.4759640802805
 31
0.0
  0
LINE
  5
9D
330
1F
100
AcDbEntity
  8
C-1
  6
Continuous
 62
     3
370
     9
100
AcDbLine
 10
-38.1501481339734
 20
760.8593440422737
 30
0.0
 11
0.0
 21
760.8593440422737
 31
0.0
  0
LINE
  5
9E
330
1F
100
AcDbEntity
  8
C-1
  6
JWW_DASHED1
 62
     3
370
     9
100
AcDbLine
 10
-38.15014813397369
 20
-76.52402932132404
 30
0.0
 11
-38.15014813397369
 21
-326.5242355211767
 31
0.0
  0
LINE
  5
9F
330
1F
100
AcDbEntity
  8
C-0
  6
JWW_DASHED1
 62
     2
370
     9
100
AcDbLine
 10
-40.54994325380051
 20
-76.52402932132404
 30
0.0
 11
-40.54994325380051
 21
-326.5242355211767
 31
0.0
  0
LINE
  5
A0
330
1F
100
AcDbEntity
  8
C-E
  6
Continuous
 62
     6
370
     9
100
AcDbLine
 10
-150.0
 20
-329.7240035874296
 30
0.0
 11
-150.0
 21
-76.52400358742973
 31
0.0
  0
LINE
  5
A1
330
1F
100
AcDbEntity
  8
C-E
  6
Continuous
 62
     6
370
     9
100
AcDbLine
 10
149.9999999999999
 20
-329.7240035874296
 30
0.0
 11
149.9999999999999
 21
-76.52400358742973
 31
0.0
  0
LINE
  5
A2
330
1F
100
AcDbEntity
  8
C-E
  6
Continuous
 62
     6
370
     9
100
AcDbLine
 10
199.9999999999999
 20
-429.7240035874296
 30
0.0
 11
199.9999999999999
 21
-329.7240035874296
 31
0.0
  0
LINE
  5
A3
330
1F
100
AcDbEntity
  8
C-E
  6
Continuous
 62
     6
370
     9
100
AcDbLine
 10
-200.0
 20
-329.7240035874296
 30
0.0
 11
200.0
 21
-329.7240035874296
 31
0.0
  0
LINE
  5
A4
330
1F
100
AcDbEntity
  8
C-E
  6
Continuous
 62
     6
370
     9
100
AcDbLine
 10
-200.0
 20
-429.7240035874296
 30
0.0
 11
-200.0
 21
-329.7240035874296
 31
0.0
  0
LINE
  5
A5
330
1F
100
AcDbEntity
  8
C-E
  6
Continuous
 62
     6
370
     9
100
AcDbLine
 10
-200.0
 20
-429.7240035874296
 30
0.0
 11
200.0
 21
-429.7240035874296
 31
0.0
  0
LINE
  5
A6
330
1F
100
AcDbEntity
  8
C-E
  6
Continuous
 62
     6
370
     9
100
AcDbLine
 10
0.0
 20
-329.7240035874296
 30
0.0
 11
-26.79491924311236
 21
-429.7240035874296
 31
0.0
  0
LINE
  5
A7
330
1F
100
AcDbEntity
  8
C-E
  6
Continuous
 62
     6
370
     9
100
AcDbLine
 10
-13.7455504295724
 20
-429.7240035874296
 30
0.0
 11
-20.27023483634252
 21
-405.3735498780117
 31
0.0
  0
LINE
  5
A8
330
1F
100
AcDbEntity
  8
C-E
  6
Continuous
 62
     6
370
     9
100
AcDbLine
 10
-13.04936881354024
 20
-329.7240035874296
 30
0.0
 11
-6.52468440677012
 21
-354.0744572968478
 31
0.0
  0
LINE
  5
A9
330
1F
100
AcDbEntity
  8
C-E
  6
Continuous
 62
     6
370
     9
100
AcDbLine
 10
-50.0
 20
-329.7240035874296
 30
0.0
 11
-76.79491924311236
 21
-429.7240035874296
 31
0.0
  0
LINE
  5
AA
330
1F
100
AcDbEntity
  8
C-E
  6
Continuous
 62
     6
370
     9
100
AcDbLine
 10
-63.7455504295724
 20
-429.7240035874296
 30
0.0
 11
-70.27023483634252
 21
-405.3735498780117
 31
0.0
  0
LINE
  5
AB
330
1F
100
AcDbEntity
  8
C-E
  6
Continuous
 62
     6
370
     9
100
AcDbLine
 10
-63.04936881354024
 20
-329.7240035874296
 30
0.0
 11
-56.52468440677012
 21
-354.0744572968478
 31
0.0
  0
LINE
  5
AC
330
1F
100
AcDbEntity
  8
C-E
  6
Continuous
 62
     6
370
     9
100
AcDbLine
 10
-100.0
 20
-329.7240035874296
 30
0.0
 11
-126.7949192431124
 21
-429.7240035874296
 31
0.0
  0
LINE
  5
AD
330
1F
100
AcDbEntity
  8
C-E
  6
Continuous
 62
     6
370
     9
100
AcDbLine
 10
-113.7455504295724
 20
-429.7240035874296
 30
0.0
 11
-120.2702348363425
 21
-405.3735498780117
 31
0.0
  0
LINE
  5
AE
330
1F
100
AcDbEntity
  8
C-E
  6
Continuous
 62
     6
370
     9
100
AcDbLine
 10
-113.0493688135402
 20
-329.7240035874296
 30
0.0
 11
-106.5246844067701
 21
-354.0744572968478
 31
0.0
  0
LINE
  5
AF
330
1F
100
AcDbEntity
  8
C-E
  6
Continuous
 62
     6
370
     9
100
AcDbLine
 10
-150.0
 20
-329.7240035874296
 30
0.0
 11
-176.7949192431121
 21
-429.7240035874296
 31
0.0
  0
LINE
  5
B0
330
1F
100
AcDbEntity
  8
C-E
  6
Continuous
 62
     6
370
     9
100
AcDbLine
 10
-163.7455504295724
 20
-429.7240035874296
 30
0.0
 11
-170.270234836342
 21
-405.3735498780117
 31
0.0
  0
LINE
  5
B1
330
1F
100
AcDbEntity
  8
C-E
  6
Continuous
 62
     6
370
     9
100
AcDbLine
 10
-163.0493688135397
 20
-329.7240035874296
 30
0.0
 11
-156.5246844067701
 21
-354.0744572968478
 31
0.0
  0
LINE
  5
B2
330
1F
100
AcDbEntity
  8
C-E
  6
Continuous
 62
     6
370
     9
100
AcDbLine
 10
49.99999999999986
 20
-329.7240035874296
 30
0.0
 11
23.20508075688764
 21
-429.7240035874296
 31
0.0
  0
LINE
  5
B3
330
1F
100
AcDbEntity
  8
C-E
  6
Continuous
 62
     6
370
     9
100
AcDbLine
 10
36.2544495704276
 20
-429.7240035874296
 30
0.0
 11
29.72976516365748
 21
-405.3735498780117
 31
0.0
  0
LINE
  5
B4
330
1F
100
AcDbEntity
  8
C-E
  6
Continuous
 62
     6
370
     9
100
AcDbLine
 10
36.95063118645976
 20
-329.7240035874296
 30
0.0
 11
43.47531559322988
 21
-354.0744572968478
 31
0.0
  0
LINE
  5
B5
330
1F
100
AcDbEntity
  8
C-E
  6
Continuous
 62
     6
370
     9
100
AcDbLine
 10
99.99999999999986
 20
-329.7240035874296
 30
0.0
 11
73.20508075688764
 21
-429.7240035874296
 31
0.0
  0
LINE
  5
B6
330
1F
100
AcDbEntity
  8
C-E
  6
Continuous
 62
     6
370
     9
100
AcDbLine
 10
86.2544495704276
 20
-429.7240035874296
 30
0.0
 11
79.72976516365748
 21
-405.3735498780117
 31
0.0
  0
LINE
  5
B7
330
1F
100
AcDbEntity
  8
C-E
  6
Continuous
 62
     6
370
     9
100
AcDbLine
 10
86.9506311864599
 20
-329.7240035874296
 30
0.0
 11
93.47531559323002
 21
-354.0744572968478
 31
0.0
  0
LINE
  5
B8
330
1F
100
AcDbEntity
  8
C-E
  6
Continuous
 62
     6
370
     9
100
AcDbLine
 10
149.9999999999999
 20
-329.7240035874296
 30
0.0
 11
123.2050807568876
 21
-429.7240035874296
 31
0.0
  0
LINE
  5
B9
330
1F
100
AcDbEntity
  8
C-E
  6
Continuous
 62
     6
370
     9
100
AcDbLine
 10
136.2544495704276
 20
-429.7240035874296
 30
0.0
 11
129.7297651636575
 21
-405.3735498780117
 31
0.0
  0
LINE
  5
BA
330
1F
100
AcDbEntity
  8
C-E
  6
Continuous
 62
     6
370
     9
100
AcDbLine
 10
136.9506311864599
 20
-329.7240035874296
 30
0.0
 11
143.47531559323
 21
-354.0744572968478
 31
0.0
  0
LINE
  5
BB
330
1F
100
AcDbEntity
  8
C-E
  6
Continuous
 62
     6
370
     9
100
AcDbLine
 10
199.9999999999999
 20
-329.7240035874296
 30
0.0
 11
173.2050807568876
 21
-429.7240035874296
 31
0.0
  0
LINE
  5
BC
330
1F
100
AcDbEntity
  8
C-E
  6
Continuous
 62
     6
370
     9
100
AcDbLine
 10
186.2544495704276
 20
-429.7240035874296
 30
0.0
 11
179.7297651636575
 21
-405.3735498780117
 31
0.0
  0
LINE
  5
BD
330
1F
100
AcDbEntity
  8
C-E
  6
Continuous
 62
     6
370
     9
100
AcDbLine
 10
186.9506311864599
 20
-329.7240035874296
 30
0.0
 11
193.47531559323
 21
-354.0744572968478
 31
0.0
  0
LINE
  5
BE
330
1F
100
AcDbEntity
  8
C-0
  6
Continuous
 62
     2
370
     9
100
AcDbLine
 10
12.0000890783362
 20
-326.5239880813539
 30
0.0
 11
12.0000890783362
 21
-329.7238798676716
 31
0.0
  0
LINE
  5
BF
330
1F
100
AcDbEntity
  8
C-0
  6
Continuous
 62
     2
370
     9
100
AcDbLine
 10
-44.56427043989208
 20
-76.52402932132406
 30
0.0
 11
-44.56427043989208
 21
-326.5242355211768
 31
0.0
  0
LINE
  5
C0
330
1F
100
AcDbEntity
  8
C-E
  6
Continuous
 62
     6
370
     9
100
AcDbLine
 10
149.9999999999999
 20
-125.5966031207506
 30
0.0
 11
44.56427043989208
 21
-231.0323326808584
 31
0.0
  0
LINE
  5
C1
330
1F
100
AcDbEntity
  8
C-E
  6
Continuous
 62
     6
370
     9
100
AcDbLine
 10
149.9999999999999
 20
-139.7387387444816
 30
0.0
 11
44.56427043989208
 21
-245.1744683045892
 31
0.0
  0
LINE
  5
C2
330
1F
100
AcDbEntity
  8
C-E
  6
Continuous
 62
     6
370
     9
100
AcDbLine
 10
149.9999999999999
 20
-153.8808743682125
 30
0.0
 11
44.56427043989208
 21
-259.3166039283204
 31
0.0
  0
LINE
  5
C3
330
1F
100
AcDbEntity
  8
C-0
  6
Continuous
 62
     2
370
     9
100
AcDbLine
 10
44.56427043989208
 20
-76.52402932132406
 30
0.0
 11
44.56427043989208
 21
-326.5242355211768
 31
0.0
  0
LINE
  5
C4
330
1F
100
AcDbEntity
  8
C-0
  6
Continuous
 62
     2
370
     9
100
AcDbLine
 10
16.3
 20
-99.02397983335952
 30
0.0
 11
-16.3
 21
-99.02397983335952
 31
0.0
  0
LINE
  5
C5
330
1F
100
AcDbEntity
  8
C-0
  6
Continuous
 62
     2
370
     9
100
AcDbLine
 10
-44.56427043989208
 20
-76.52402932132406
 30
0.0
 11
-16.3
 21
-76.52402932132406
 31
0.0
  0
LINE
  5
C6
330
1F
100
AcDbEntity
  8
C-0
  6
Continuous
 62
     2
370
     9
100
AcDbLine
 10
16.3
 20
-76.52402932132406
 30
0.0
 11
44.56427043989208
 21
-76.52402932132406
 31
0.0
  0
LINE
  5
C7
330
1F
100
AcDbEntity
  8
C-0
  6
Continuous
 62
     2
370
     9
100
AcDbLine
 10
-16.3
 20
-74.0241447932413
 30
0.0
 11
-16.3
 21
-99.02397983335952
 31
0.0
  0
LINE
  5
C8
330
1F
100
AcDbEntity
  8
C-0
  6
Continuous
 62
     2
370
     9
100
AcDbLine
 10
-16.3
 20
-74.0241447932413
 30
0.0
 11
16.3
 21
-74.0241447932413
 31
0.0
  0
LINE
  5
C9
330
1F
100
AcDbEntity
  8
C-0
  6
Continuous
 62
     2
370
     9
100
AcDbLine
 10
16.3
 20
-74.0241447932413
 30
0.0
 11
16.3
 21
-99.02397983335959
 31
0.0
  0
LINE
  5
CA
330
1F
100
AcDbEntity
  8
C-E
  6
Continuous
 62
     6
370
     9
100
AcDbLine
 10
44.56427043989208
 20
-76.52400358742973
 30
0.0
 11
351.0201425124262
 21
-76.52400358742973
 31
0.0
  0
TEXT
  5
CB
330
1F
100
AcDbEntity
  8
C-5
  6
Continuous
 62
     2
370
     9
100
AcDbText
 10
199.6311390273669
 20
-60.5056966278719
 30
0.0
 40
30.48
  1
▽G.L.
 41
1.104166666666667
  7
ＭＳ ゴシック
100
AcDbText
  0
LINE
  5
CC
330
1F
100
AcDbEntity
  8
C-0
  6
Continuous
 62
     4
370
     9
100
AcDbLine
 10
-15.9000000000006
 20
-67.73055072262912
 30
0.0
 11
-16.50000000000006
 21
-61.92128661728919
 31
0.0
  0
LINE
  5
CD
330
1F
100
AcDbEntity
  8
C-0
  6
Continuous
 62
     4
370
     9
100
AcDbLine
 10
-15.9000000000006
 20
-67.73055072262912
 30
0.0
 11
-15.50000000000011
 21
-68.40903650557982
 31
0.0
  0
ARC
  5
CE
330
1F
100
AcDbEntity
  8
C-0
  6
Continuous
 62
     4
370
     9
100
AcDbCircle
 10
-10.0
 20
-52.09910099992692
 30
0.0
 40
5.502133427000001
100
AcDbArc
 50
89.9999999911552
 51
178.4043964318959
  0
ARC
  5
CF
330
1F
100
AcDbEntity
  8
C-0
  6
Continuous
 62
     4
370
     9
100
AcDbCircle
 10
-10.0
 20
-52.09910099992692
 30
0.0
 40
6.502133427
100
AcDbArc
 50
122.1988001718858
 51
178.5322217069221
  0
LINE
  5
D0
330
1F
100
AcDbEntity
  8
C-0
  6
Continuous
 62
     4
370
     9
100
AcDbLine
 10
-13.4647174279479
 20
-46.5969675729956
 30
0.0
 11
-9.999999999150475
 21
-46.5969675729956
 31
0.0
  0
ARC
  5
D1
330
1F
100
AcDbEntity
  8
C-0
  6
Continuous
 62
     4
370
     9
100
AcDbCircle
 10
0.0
 20
-25.09910692817163
 30
0.0
 40
25.36644688800001
100
AcDbArc
 50
302.0600763636684
 51
237.9399236363316
  0
ARC
  5
D2
330
1F
100
AcDbEntity
  8
C-0
  6
Continuous
 62
     4
370
     9
100
AcDbCircle
 10
0.0
 20
-25.09910692817163
 30
0.0
 40
45.5
100
AcDbArc
 50
249.404894596349
 51
249.546288045744
  0
ARC
  5
D3
330
1F
100
AcDbEntity
  8
C-0
  6
Continuous
 62
     4
370
     9
100
AcDbCircle
 10
0.0
 20
-25.09910692817163
 30
0.0
 40
40.350005168
100
AcDbArc
 50
294.1371270092733
 51
245.8628729907267
  0
LINE
  5
D4
330
1F
100
AcDbEntity
  8
C-0
  6
Continuous
 62
     4
370
     9
100
AcDbLine
 10
-16.50000000000006
 20
-51.93255039948406
 30
0.0
 11
-16.50000000000006
 21
-61.92128661728919
 31
0.0
  0
ARC
  5
D5
330
1F
100
AcDbEntity
  8
C-0
  6
Continuous
 62
     4
370
     9
100
AcDbCircle
 10
10.0
 20
-52.09910099992692
 30
0.0
 40
5.502133427000001
100
AcDbArc
 50
1.595603568104044
 51
90.00000000884478
  0
ARC
  5
D6
330
1F
100
AcDbEntity
  8
C-0
  6
Continuous
 62
     4
370
     9
100
AcDbCircle
 10
10.0
 20
-52.09910099992692
 30
0.0
 40
6.502133427
100
AcDbArc
 50
1.467778293077862
 51
57.80119982811417
  0
LINE
  5
D7
330
1F
100
AcDbEntity
  8
C-0
  6
Continuous
 62
     4
370
     9
100
AcDbLine
 10
15.50000000000011
 20
-51.94589444488326
 30
0.0
 11
15.50000000000011
 21
-68.40903650557982
 31
0.0
  0
LINE
  5
D8
330
1F
100
AcDbEntity
  8
C-0
  6
Continuous
 62
     4
370
     9
100
AcDbLine
 10
16.50000000000006
 20
-51.93255039948406
 30
0.0
 11
16.50000000000006
 21
-61.92128661728919
 31
0.0
  0
LINE
  5
D9
330
1F
100
AcDbEntity
  8
C-0
  6
Continuous
 62
     4
370
     9
100
AcDbLine
 10
15.9000000000006
 20
-67.73055072262912
 30
0.0
 11
15.50000000000011
 21
-68.40903650557982
 31
0.0
  0
LINE
  5
DA
330
1F
100
AcDbEntity
  8
C-0
  6
Continuous
 62
     4
370
     9
100
AcDbLine
 10
15.9000000000006
 20
-67.73055072262912
 30
0.0
 11
16.50000000000006
 21
-61.92128661728919
 31
0.0
  0
LINE
  5
DB
330
1F
100
AcDbEntity
  8
C-9
  6
Continuous
 62
     7
370
     9
100
AcDbLine
 10
-15.0
 20
-52.09910692817027
 30
0.0
 11
-15.0
 21
-68.96426663215095
 31
0.0
  0
LINE
  5
DC
330
1F
100
AcDbEntity
  8
C-9
  6
Continuous
 62
     7
370
     9
100
AcDbLine
 10
15.0
 20
-52.09910692817027
 30
0.0
 11
15.0
 21
-68.96426663215095
 31
0.0
  0
LINE
  5
DD
330
1F
100
AcDbEntity
  8
C-6
  6
Continuous
 62
     2
370
     9
100
AcDbLine
 10
10.0
 20
-46.99902411831079
 30
0.0
 11
-10.0
 21
-46.99902411831079
 31
0.0
  0
ARC
  5
DE
330
1F
100
AcDbEntity
  8
C-6
  6
Continuous
 62
     2
370
     9
100
AcDbCircle
 10
-10.0
 20
-51.99902411831079
 30
0.0
 40
5.0
100
AcDbArc
 50
90.0
 51
180.0
  0
ARC
  5
DF
330
1F
100
AcDbEntity
  8
C-6
  6
Continuous
 62
     2
370
     9
100
AcDbCircle
 10
10.0
 20
-51.99902411831079
 30
0.0
 40
5.0
100
AcDbArc
 50
0.0
 51
89.99999999999999
  0
LINE
  5
E0
330
1F
100
AcDbEntity
  8
C-6
  6
JWW_CENTER2
 62
     2
370
     9
100
AcDbLine
 10
4.538550376417447
 20
-54.29913595079859
 30
0.0
 11
-4.538550376419153
 21
-54.29913595079859
 31
0.0
  0
CIRCLE
  5
E1
330
1F
100
AcDbEntity
  8
C-7
  6
Continuous
 62
     2
370
     9
100
AcDbCircle
 10
0.0
 20
-54.29913595079859
 30
0.0
 40
4.75
  0
LINE
  5
E2
330
1F
100
AcDbEntity
  8
C-7
  6
Continuous
 62
     2
370
     9
100
AcDbLine
 10
0.0
 20
-56.03118675836857
 30
0.0
 11
-1.500000000000057
 21
-55.16516135458266
 31
0.0
  0
LINE
  5
E3
330
1F
100
AcDbEntity
  8
C-7
  6
Continuous
 62
     2
370
     9
100
AcDbLine
 10
-1.500000000000057
 20
-55.16516135458266
 30
0.0
 11
-1.500000000000057
 21
-53.43311054701451
 31
0.0
  0
LINE
  5
E4
330
1F
100
AcDbEntity
  8
C-7
  6
Continuous
 62
     2
370
     9
100
AcDbLine
 10
0.0
 20
-52.56708514322861
 30
0.0
 11
-1.500000000000057
 21
-53.43311054701451
 31
0.0
  0
LINE
  5
E5
330
1F
100
AcDbEntity
  8
C-7
  6
Continuous
 62
     2
370
     9
100
AcDbLine
 10
1.500000000000057
 20
-53.43311054701451
 30
0.0
 11
0.0
 21
-52.56708514322861
 31
0.0
  0
LINE
  5
E6
330
1F
100
AcDbEntity
  8
C-7
  6
Continuous
 62
     2
370
     9
100
AcDbLine
 10
1.500000000000057
 20
-55.16516135458266
 30
0.0
 11
1.500000000000057
 21
-53.43311054701451
 31
0.0
  0
LINE
  5
E7
330
1F
100
AcDbEntity
  8
C-7
  6
Continuous
 62
     2
370
     9
100
AcDbLine
 10
1.500000000000057
 20
-55.16516135458266
 30
0.0
 11
0.0
 21
-56.03118675836857
 31
0.0
  0
CIRCLE
  5
E8
330
1F
100
AcDbEntity
  8
C-7
  6
Continuous
 62
     2
370
     9
100
AcDbCircle
 10
0.0
 20
-54.29913595079859
 30
0.0
 40
4.25
  0
LINE
  5
E9
330
1F
100
AcDbEntity
  8
C-1
  6
Continuous
 62
     3
370
     9
100
AcDbLine
 10
-38.1501481339734
 20
-49.89459436754021
 30
0.0
 11
-38.1501481339734
 21
-76.52402932132404
 31
0.0
  0
LINE
  5
EA
330
1F
100
AcDbEntity
  8
C-1
  6
Continuous
 62
     3
370
     9
100
AcDbLine
 10
-38.1501481339734
 20
760.8593440422737
 30
0.0
 11
-38.1501481339734
 21
-0.3036194888029797
 31
0.0
  0
LINE
  5
EB
330
1F
100
AcDbEntity
  8
C-1
  6
Continuous
 62
     3
370
     9
100
AcDbLine
 10
38.15014813397369
 20
760.8593440422737
 30
0.0
 11
38.15014813397369
 21
-0.3036194888034061
 31
0.0
  0
LINE
  5
EC
330
1F
100
AcDbEntity
  8
C-1
  6
Continuous
 62
     3
370
     9
100
AcDbLine
 10
38.15014813397369
 20
-49.89459436753979
 30
0.0
 11
38.15014813397369
 21
-76.52402932132404
 31
0.0
  0
LINE
  5
ED
330
1F
100
AcDbEntity
  8
C-6
  6
Continuous
 62
     2
370
     9
100
AcDbLine
 10
-15.0
 20
-74.0241447932413
 30
0.0
 11
-15.0
 21
-51.99902411831079
 31
0.0
  0
LINE
  5
EE
330
1F
100
AcDbEntity
  8
C-6
  6
Continuous
 62
     2
370
     9
100
AcDbLine
 10
15.0
 20
-51.99902411831079
 30
0.0
 11
15.0
 21
-74.0241447932413
 31
0.0
  0
LINE
  5
EF
330
1F
100
AcDbEntity
  8
C-0
  6
JWW_CENTER2
 62
     7
370
     9
100
AcDbLine
 10
0.0
 20
798.4760119186461
 30
0.0
 11
0.0
 21
-354.723838627701
 31
0.0
  0
LINE
  5
F0
330
1F
100
AcDbEntity
  8
C-0
  6
Continuous
 62
     2
370
     9
100
AcDbLine
 10
-1309.472585077309
 20
-76.52402932132406
 30
0.0
 11
-1220.344044197525
 21
-76.52402932132406
 31
0.0
  0
LINE
  5
F1
330
1F
100
AcDbEntity
  8
C-E
  6
Continuous
 62
     6
370
     9
100
AcDbLine
 10
-1309.472585077309
 20
-76.52400358742973
 30
0.0
 11
-1554.736928046116
 21
-76.52400358742973
 31
0.0
  0
LINE
  5
F2
330
1F
100
AcDbEntity
  8
C-0
  6
Continuous
 62
     2
370
     9
100
AcDbLine
 10
-1200.658461451711
 20
-99.02397983335952
 30
0.0
 11
-1220.344044197525
 21
-99.02397983335952
 31
0.0
  0
LINE
  5
F3
330
1F
100
AcDbEntity
  8
C-E
  6
Continuous
 62
     6
370
     9
100
AcDbLine
 10
-1309.472585077309
 20
-149.5639832257141
 30
0.0
 11
-1414.908314637417
 21
-254.9997127858222
 31
0.0
  0
LINE
  5
F4
330
1F
100
AcDbEntity
  8
C-E
  6
Continuous
 62
     6
370
     9
100
AcDbLine
 10
-1309.472585077309
 20
-135.4218476019832
 30
0.0
 11
-1414.908314637417
 21
-240.8575771620912
 31
0.0
  0
LINE
  5
F5
330
1F
100
AcDbEntity
  8
C-E
  6
Continuous
 62
     6
370
     9
100
AcDbLine
 10
-1309.472585077309
 20
-121.2797119782523
 30
0.0
 11
-1414.908314637417
 21
-226.7154415383603
 31
0.0
  0
LINE
  5
F6
330
1F
100
AcDbEntity
  8
C-1
  6
Continuous
 62
     3
370
     9
100
AcDbLine
 10
-1226.758166503443
 20
760.8593440422737
 30
0.0
 11
-1226.33343604789
 21
761.4759640802805
 31
0.0
  0
LINE
  5
F7
330
1F
100
AcDbEntity
  8
C-1
  6
Continuous
 62
     3
370
     9
100
AcDbLine
 10
-1226.758166503443
 20
760.8593440422737
 30
0.0
 11
-1264.908314637417
 21
760.8593440422737
 31
0.0
  0
LINE
  5
F8
330
1F
100
AcDbEntity
  8
C-1
  6
JWW_DASHED1
 62
     3
370
     9
100
AcDbLine
 10
-1226.758166503443
 20
-76.52402932132406
 30
0.0
 11
-1226.758166503443
 21
-326.5242355211768
 31
0.0
  0
LINE
  5
F9
330
1F
100
AcDbEntity
  8
C-1
  6
Continuous
 62
     3
370
     9
100
AcDbLine
 10
-1226.758166503443
 20
760.8593440422737
 30
0.0
 11
-1226.758166503443
 21
-76.52402932132406
 31
0.0
  0
ARC
  5
FA
330
1F
100
AcDbEntity
  8
C-1
  6
Continuous
 62
     3
370
     9
100
AcDbCircle
 10
-1264.908314637417
 20
705.4760020210534
 30
0.0
 40
67.99999701010215
100
AcDbArc
 50
55.43952941894531
 51
124.5604248046875
  0
LINE
  5
FB
330
1F
100
AcDbEntity
  8
C-0
  6
Continuous
 62
     2
370
     9
100
AcDbLine
 10
-1214.908273397446
 20
-326.5242355211768
 30
0.0
 11
-1314.908232157476
 21
-326.5237406415312
 31
0.0
  0
LINE
  5
FC
330
1F
100
AcDbEntity
  8
C-0
  6
Continuous
 62
     2
370
     9
100
AcDbLine
 10
-1314.908232157476
 20
-326.5237406415312
 30
0.0
 11
-1314.908232157476
 21
-329.7238798676715
 31
0.0
  0
LINE
  5
FD
330
1F
100
AcDbEntity
  8
C-0
  6
Continuous
 62
     2
370
     9
100
AcDbLine
 10
-1214.908273397446
 20
-326.5242355211768
 30
0.0
 11
-1214.908273397446
 21
-329.7241273074939
 31
0.0
  0
LINE
  5
FE
330
1F
100
AcDbEntity
  8
C-0
  6
Continuous
 62
     2
370
     9
100
AcDbLine
 10
-1276.908403715753
 20
-326.5239880813538
 30
0.0
 11
-1276.908403715753
 21
-329.7238798676715
 31
0.0
  0
LINE
  5
FF
330
1F
100
AcDbEntity
  8
C-0
  6
JWW_DASHED1
 62
     2
370
     9
100
AcDbLine
 10
-1224.358371383616
 20
-76.52402932132406
 30
0.0
 11
-1224.358371383616
 21
-326.5242355211768
 31
0.0
  0
LINE
  5
100
330
1F
100
AcDbEntity
  8
C-0
  6
JWW_CENTER2
 62
     7
370
     9
100
AcDbLine
 10
-1264.908314637417
 20
798.4760119186461
 30
0.0
 11
-1264.908314637417
 21
-354.723838627701
 31
0.0
  0
LINE
  5
101
330
1F
100
AcDbEntity
  8
C-1
  6
Continuous
 62
     3
370
     9
100
AcDbLine
 10
-1303.05846277139
 20
760.8593440422737
 30
0.0
 11
-1303.483193226943
 21
761.4759640802805
 31
0.0
  0
LINE
  5
102
330
1F
100
AcDbEntity
  8
C-1
  6
Continuous
 62
     3
370
     9
100
AcDbLine
 10
-1303.05846277139
 20
760.8593440422737
 30
0.0
 11
-1264.908314637417
 21
760.8593440422737
 31
0.0
  0
LINE
  5
103
330
1F
100
AcDbEntity
  8
C-1
  6
Continuous
 62
     3
370
     9
100
AcDbLine
 10
-1303.05846277139
 20
760.8593440422737
 30
0.0
 11
-1303.05846277139
 21
-76.52402932132404
 31
0.0
  0
LINE
  5
104
330
1F
100
AcDbEntity
  8
C-1
  6
JWW_DASHED1
 62
     3
370
     9
100
AcDbLine
 10
-1303.05846277139
 20
-76.52402932132404
 30
0.0
 11
-1303.05846277139
 21
-326.5242355211767
 31
0.0
  0
LINE
  5
105
330
1F
100
AcDbEntity
  8
C-0
  6
JWW_DASHED1
 62
     2
370
     9
100
AcDbLine
 10
-1305.458257891217
 20
-76.52402932132404
 30
0.0
 11
-1305.458257891217
 21
-326.5242355211767
 31
0.0
  0
ARC
  5
106
330
1F
100
AcDbEntity
  8
C-0
  6
Continuous
 62
     2
370
     9
100
AcDbCircle
 10
-1192.658360826183
 20
-77.22403657955903
 30
0.0
 40
3.199999557959067
100
AcDbArc
 50
0.0
 51
90.0
  0
LINE
  5
107
330
1F
100
AcDbEntity
  8
C-0
  6
Continuous
 62
     2
370
     9
100
AcDbLine
 10
-1189.458469039866
 20
-87.8241111414254
 30
0.0
 11
-1189.458469039866
 21
-77.22403657955903
 31
0.0
  0
ARC
  5
108
330
1F
100
AcDbEntity
  8
C-0
  6
Continuous
 62
     2
370
     9
100
AcDbCircle
 10
-1200.658461451711
 20
-87.8241111414254
 30
0.0
 40
11.19999821121628
100
AcDbArc
 50
270.0
 51
0.0
  0
LINE
  5
109
330
1F
100
AcDbEntity
  8
C-0
  6
Continuous
 62
     2
370
     9
100
AcDbLine
 10
-1226.758166503443
 20
-74.0241447932413
 30
0.0
 11
-1192.658360826183
 21
-74.0241447932413
 31
0.0
  0
LINE
  5
10A
330
1F
100
AcDbEntity
  8
C-4
  6
Continuous
 62
     7
370
     9
100
AcDbLine
 10
-1662.096861714993
 20
773.4759990311557
 30
0.0
 11
-1662.096861714993
 21
-326.5240344763207
 31
0.0
  0
LWPOLYLINE
  5
10B
330
1F
100
AcDbEntity
  8
C-4
  6
Continuous
 62
     7
370
     9
100
AcDbPolyline
 90
        4
 70
     1
 43
2.0
 10
-1661.096861714993
 20
773.4759990311557
 42
0.4142135623731
 10
-1662.096861714993
 20
774.4759990311557
 42
0.4142135623731
 10
-1663.096861714993
 20
773.4759990311557
 42
0.4142135623731
 10
-1662.096861714993
 20
772.4759990311557
 42
0.4142135623731
  0
LWPOLYLINE
  5
10C
330
1F
100
AcDbEntity
  8
C-4
  6
Continuous
 62
     7
370
     9
100
AcDbPolyline
 90
        4
 70
     1
 43
2.0
 10
-1661.096861714993
 20
-326.5240344763207
 42
0.4142135623731
 10
-1662.096861714993
 20
-325.5240344763207
 42
0.4142135623731
 10
-1663.096861714993
 20
-326.5240344763207
 42
0.4142135623731
 10
-1662.096861714993
 20
-327.5240344763207
 42
0.4142135623731
  0
LINE
  5
10D
330
1F
100
AcDbEntity
  8
C-4
  6
Continuous
 62
     7
370
     9
100
AcDbLine
 10
-1665.096861714993
 20
773.4759990311557
 30
0.0
 11
-1284.908314637417
 21
773.4759990311557
 31
0.0
  0
LINE
  5
10E
330
1F
100
AcDbEntity
  8
C-4
  6
Continuous
 62
     7
370
     9
100
AcDbLine
 10
-1665.096861714993
 20
-326.5240344763207
 30
0.0
 11
-1354.908360001384
 21
-326.5240344763207
 31
0.0
  0
TEXT
  5
10F
330
1F
100
AcDbEntity
  8
C-4
  6
Continuous
 62
     2
370
   211
100
AcDbText
 10
-1673.736861714993
 20
179.7259822774175
 30
0.0
 40
30.48
  1
1100
 50
90.0
 41
1.09375
  7
ＭＳ ゴシック
100
AcDbText
  0
LINE
  5
110
330
1F
100
AcDbEntity
  8
C-4
  6
Continuous
 62
     7
370
     9
100
AcDbLine
 10
-1517.334559814984
 20
773.4759990311557
 30
0.0
 11
-1517.334559814984
 21
-76.52407571629084
 31
0.0
  0
LWPOLYLINE
  5
111
330
1F
100
AcDbEntity
  8
C-4
  6
Continuous
 62
     7
370
     9
100
AcDbPolyline
 90
        4
 70
     1
 43
2.0
 10
-1516.334559814984
 20
773.4759990311557
 42
0.4142135623731
 10
-1517.334559814984
 20
774.4759990311557
 42
0.4142135623731
 10
-1518.334559814984
 20
773.4759990311557
 42
0.4142135623731
 10
-1517.334559814984
 20
772.4759990311557
 42
0.4142135623731
  0
LWPOLYLINE
  5
112
330
1F
100
AcDbEntity
  8
C-4
  6
Continuous
 62
     7
370
     9
100
AcDbPolyline
 90
        4
 70
     1
 43
2.0
 10
-1516.334559814984
 20
-76.52407571629084
 42
0.4142135623731
 10
-1517.334559814984
 20
-75.52407571629084
 42
0.4142135623731
 10
-1518.334559814984
 20
-76.52407571629084
 42
0.4142135623731
 10
-1517.334559814984
 20
-77.52407571629084
 42
0.4142135623731
  0
TEXT
  5
113
330
1F
100
AcDbEntity
  8
C-4
  6
Continuous
 62
     2
370
   211
100
AcDbText
 10
-1528.974559814984
 20
315.9759616574324
 30
0.0
 40
30.48
  1
850
 50
90.0
 41
1.083333333333333
  7
ＭＳ ゴシック
100
AcDbText
  0
LWPOLYLINE
  5
114
330
1F
100
AcDbEntity
  8
C-4
  6
Continuous
 62
     7
370
     9
100
AcDbPolyline
 90
        4
 70
     1
 43
2.0
 10
-1516.334559814984
 20
-326.5240344763207
 42
0.4142135623731
 10
-1517.334559814984
 20
-325.5240344763207
 42
0.4142135623731
 10
-1518.334559814984
 20
-326.5240344763207
 42
0.4142135623731
 10
-1517.334559814984
 20
-327.5240344763207
 42
0.4142135623731
  0
TEXT
  5
115
330
1F
100
AcDbEntity
  8
C-4
  6
Continuous
 62
     2
370
   211
100
AcDbText
 10
-1528.974559814984
 20
-234.0240550963057
 30
0.0
 40
30.48
  1
250
 50
90.0
 41
1.083333333333333
  7
ＭＳ ゴシック
100
AcDbText
  0
LINE
  5
116
330
1F
100
AcDbEntity
  8
C-4
  6
Continuous
 62
     7
370
     9
100
AcDbLine
 10
-1517.334559814984
 20
-76.52407571629084
 30
0.0
 11
-1517.334559814984
 21
-406.6191008831912
 31
0.0
  0
LWPOLYLINE
  5
117
330
1F
100
AcDbEntity
  8
C-4
  6
Continuous
 62
     7
370
     9
100
AcDbPolyline
 90
        4
 70
     1
 43
2.0
 10
-1516.334559814984
 20
-329.723926262638
 42
0.4142135623731
 10
-1517.334559814984
 20
-328.723926262638
 42
0.4142135623731
 10
-1518.334559814984
 20
-329.723926262638
 42
0.4142135623731
 10
-1517.334559814984
 20
-330.723926262638
 42
0.4142135623731
  0
LINE
  5
118
330
1F
100
AcDbEntity
  8
C-4
  6
Continuous
 62
     7
370
     9
100
AcDbLine
 10
-1520.334559814984
 20
-329.723926262638
 30
0.0
 11
-1489.4477239484
 21
-329.723926262638
 31
0.0
  0
TEXT
  5
119
330
1F
100
AcDbEntity
  8
C-4
  6
Continuous
 62
     2
370
   211
100
AcDbText
 10
-1528.974559814984
 20
-399.1758384718437
 30
0.0
 40
30.48
  1
3.2
 50
90.0
 41
1.083333333333333
  7
ＭＳ ゴシック
100
AcDbText
  0
TEXT
  5
11A
330
1F
100
AcDbEntity
  8
C-5
  6
Continuous
 62
     2
370
     9
100
AcDbText
 10
-1069.040119535477
 20
-60.5056966278719
 30
0.0
 40
30.48
  1
▽G.L.
 41
1.104166666666667
  7
ＭＳ ゴシック
100
AcDbText
  0
LINE
  5
11B
330
1F
100
AcDbEntity
  8
C-4
  6
Continuous
 62
     7
370
     9
100
AcDbLine
 10
-939.9852753887287
 20
-76.52392626263804
 30
0.0
 11
-939.9852753887287
 21
-329.723926262638
 31
0.0
  0
LWPOLYLINE
  5
11C
330
1F
100
AcDbEntity
  8
C-4
  6
Continuous
 62
     7
370
     9
100
AcDbPolyline
 90
        4
 70
     1
 43
2.0
 10
-938.9852753887288
 20
-76.52392626263804
 42
0.4142135623731
 10
-939.9852753887287
 20
-75.52392626263804
 42
0.4142135623731
 10
-940.9852753887287
 20
-76.52392626263804
 42
0.4142135623731
 10
-939.9852753887287
 20
-77.52392626263804
 42
0.4142135623731
  0
LWPOLYLINE
  5
11D
330
1F
100
AcDbEntity
  8
C-4
  6
Continuous
 62
     7
370
     9
100
AcDbPolyline
 90
        4
 70
     1
 43
2.0
 10
-938.9852753887288
 20
-329.723926262638
 42
0.4142135623731
 10
-939.9852753887287
 20
-328.723926262638
 42
0.4142135623731
 10
-940.9852753887287
 20
-329.723926262638
 42
0.4142135623731
 10
-939.9852753887287
 20
-330.723926262638
 42
0.4142135623731
  0
LINE
  5
11E
330
1F
100
AcDbEntity
  8
C-4
  6
Continuous
 62
     7
370
     9
100
AcDbLine
 10
-936.985275388729
 20
-329.723926262638
 30
0.0
 11
-1044.908314637417
 21
-329.723926262638
 31
0.0
  0
TEXT
  5
11F
330
1F
100
AcDbEntity
  8
C-4
  6
Continuous
 62
     2
370
   211
100
AcDbText
 10
-951.6252753887288
 20
-258.123926262638
 30
0.0
 40
30.48
  1
253.2
 50
90.0
 41
1.1
  7
ＭＳ ゴシック
100
AcDbText
  0
LINE
  5
120
330
1F
100
AcDbEntity
  8
C-4
  6
Continuous
 62
     7
370
     9
100
AcDbLine
 10
-939.9852753887287
 20
-329.723926262638
 30
0.0
 11
-939.9852753887287
 21
-429.723926262638
 31
0.0
  0
LWPOLYLINE
  5
121
330
1F
100
AcDbEntity
  8
C-4
  6
Continuous
 62
     7
370
     9
100
AcDbPolyline
 90
        4
 70
     1
 43
2.0
 10
-938.9852753887288
 20
-429.723926262638
 42
0.4142135623731
 10
-939.9852753887287
 20
-428.723926262638
 42
0.4142135623731
 10
-940.9852753887287
 20
-429.723926262638
 42
0.4142135623731
 10
-939.9852753887287
 20
-430.723926262638
 42
0.4142135623731
  0
LINE
  5
122
330
1F
100
AcDbEntity
  8
C-4
  6
Continuous
 62
     7
370
     9
100
AcDbLine
 10
-936.985275388729
 20
-429.723926262638
 30
0.0
 11
-1044.908314637417
 21
-429.723926262638
 31
0.0
  0
TEXT
  5
123
330
1F
100
AcDbEntity
  8
C-4
  6
Continuous
 62
     2
370
   211
100
AcDbText
 10
-951.6252753887288
 20
-412.223926262638
 30
0.0
 40
30.48
  1
100
 50
90.0
 41
1.083333333333333
  7
ＭＳ ゴシック
100
AcDbText
  0
LINE
  5
124
330
1F
100
AcDbEntity
  8
C-4
  6
Continuous
 62
     7
370
     9
100
AcDbLine
 10
-1464.908314637416
 20
-690.6209532443665
 30
0.0
 11
-1064.908314637417
 21
-690.6209532443665
 31
0.0
  0
LWPOLYLINE
  5
125
330
1F
100
AcDbEntity
  8
C-4
  6
Continuous
 62
     7
370
     9
100
AcDbPolyline
 90
        4
 70
     1
 43
2.0
 10
-1463.908314637416
 20
-690.6209532443665
 42
0.4142135623731
 10
-1464.908314637416
 20
-689.6209532443665
 42
0.4142135623731
 10
-1465.908314637416
 20
-690.6209532443665
 42
0.4142135623731
 10
-1464.908314637416
 20
-691.6209532443665
 42
0.4142135623731
  0
LWPOLYLINE
  5
126
330
1F
100
AcDbEntity
  8
C-4
  6
Continuous
 62
     7
370
     9
100
AcDbPolyline
 90
        4
 70
     1
 43
2.0
 10
-1063.908314637417
 20
-690.6209532443665
 42
0.4142135623731
 10
-1064.908314637417
 20
-689.6209532443665
 42
0.4142135623731
 10
-1065.908314637417
 20
-690.6209532443665
 42
0.4142135623731
 10
-1064.908314637417
 20
-691.6209532443665
 42
0.4142135623731
  0
LINE
  5
127
330
1F
100
AcDbEntity
  8
C-4
  6
Continuous
 62
     7
370
     9
100
AcDbLine
 10
-1464.908314637416
 20
-693.6209532443667
 30
0.0
 11
-1464.908314637416
 21
-449.723926262638
 31
0.0
  0
LINE
  5
128
330
1F
100
AcDbEntity
  8
C-4
  6
Continuous
 62
     7
370
     9
100
AcDbLine
 10
-1064.908314637417
 20
-693.6209532443667
 30
0.0
 11
-1064.908314637417
 21
-449.723926262638
 31
0.0
  0
LINE
  5
129
330
1F
100
AcDbEntity
  8
C-4
  6
Continuous
 62
     7
370
     9
100
AcDbLine
 10
-1414.908314637417
 20
-577.0291165096728
 30
0.0
 11
-1114.908314637417
 21
-577.0291165096728
 31
0.0
  0
LWPOLYLINE
  5
12A
330
1F
100
AcDbEntity
  8
C-4
  6
Continuous
 62
     7
370
     9
100
AcDbPolyline
 90
        4
 70
     1
 43
2.0
 10
-1413.908314637417
 20
-577.0291165096728
 42
0.4142135623731
 10
-1414.908314637417
 20
-576.0291165096728
 42
0.4142135623731
 10
-1415.908314637417
 20
-577.0291165096728
 42
0.4142135623731
 10
-1414.908314637417
 20
-578.0291165096728
 42
0.4142135623731
  0
LWPOLYLINE
  5
12B
330
1F
100
AcDbEntity
  8
C-4
  6
Continuous
 62
     7
370
     9
100
AcDbPolyline
 90
        4
 70
     1
 43
2.0
 10
-1113.908314637417
 20
-577.0291165096728
 42
0.4142135623731
 10
-1114.908314637417
 20
-576.0291165096728
 42
0.4142135623731
 10
-1115.908314637417
 20
-577.0291165096728
 42
0.4142135623731
 10
-1114.908314637417
 20
-578.0291165096728
 42
0.4142135623731
  0
LINE
  5
12C
330
1F
100
AcDbEntity
  8
C-4
  6
Continuous
 62
     7
370
     9
100
AcDbLine
 10
-1414.908314637417
 20
-580.0291165096733
 30
0.0
 11
-1414.908314637417
 21
-449.723926262638
 31
0.0
  0
LINE
  5
12D
330
1F
100
AcDbEntity
  8
C-4
  6
Continuous
 62
     7
370
     9
100
AcDbLine
 10
-1114.908314637417
 20
-580.0291165096733
 30
0.0
 11
-1114.908314637417
 21
-449.723926262638
 31
0.0
  0
TEXT
  5
12E
330
1F
100
AcDbEntity
  8
C-4
  6
Continuous
 62
     2
370
   211
100
AcDbText
 10
-1319.908314637416
 20
-674.9809532443666
 30
0.0
 40
30.48
  1
□400
 41
1.099999999999997
  7
ＭＳ ゴシック
100
AcDbText
  0
TEXT
  5
12F
330
1F
100
AcDbEntity
  8
C-4
  6
Continuous
 62
     2
370
   211
100
AcDbText
 10
-1319.908314637416
 20
-561.3891165096728
 30
0.0
 40
30.48
  1
□300
 41
1.099999999999997
  7
ＭＳ ゴシック
100
AcDbText
  0
LINE
  5
130
330
1F
100
AcDbEntity
  8
C-4
  6
Continuous
 62
     7
370
     9
100
AcDbLine
 10
-1303.05846277139
 20
851.7406810809229
 30
0.0
 11
-1226.758166503443
 21
851.7406810809229
 31
0.0
  0
LWPOLYLINE
  5
131
330
1F
100
AcDbEntity
  8
C-4
  6
Continuous
 62
     7
370
     9
100
AcDbPolyline
 90
        4
 70
     1
 43
2.0
 10
-1302.05846277139
 20
851.7406810809229
 42
0.4142135623731
 10
-1303.05846277139
 20
852.7406810809227
 42
0.4142135623731
 10
-1304.05846277139
 20
851.7406810809229
 42
0.4142135623731
 10
-1303.05846277139
 20
850.740681080923
 42
0.4142135623731
  0
LWPOLYLINE
  5
132
330
1F
100
AcDbEntity
  8
C-4
  6
Continuous
 62
     7
370
     9
100
AcDbPolyline
 90
        4
 70
     1
 43
2.0
 10
-1225.758166503443
 20
851.7406810809229
 42
0.4142135623731
 10
-1226.758166503443
 20
852.7406810809227
 42
0.4142135623731
 10
-1227.758166503443
 20
851.7406810809229
 42
0.4142135623731
 10
-1226.758166503443
 20
850.740681080923
 42
0.4142135623731
  0
TEXT
  5
133
330
1F
100
AcDbEntity
  8
C-4
  6
Continuous
 62
     2
370
   211
100
AcDbText
 10
-1331.158314637417
 20
867.3806810809228
 30
0.0
 40
30.48
  1
φ76.3
 41
1.104166666666667
  7
ＭＳ ゴシック
100
AcDbText
  0
LINE
  5
134
330
1F
100
AcDbEntity
  8
C-E
  6
Continuous
 62
     6
370
     9
100
AcDbLine
 10
-1414.908314637417
 20
-329.7240035874296
 30
0.0
 11
-1414.908314637417
 21
-76.52400358742973
 31
0.0
  0
LINE
  5
135
330
1F
100
AcDbEntity
  8
C-E
  6
Continuous
 62
     6
370
     9
100
AcDbLine
 10
-1114.908314637417
 20
-329.7240035874296
 30
0.0
 11
-1114.908314637417
 21
-76.52400358742973
 31
0.0
  0
LINE
  5
136
330
1F
100
AcDbEntity
  8
C-E
  6
Continuous
 62
     6
370
     9
100
AcDbLine
 10
-1064.908314637417
 20
-429.7240035874296
 30
0.0
 11
-1064.908314637417
 21
-329.7240035874296
 31
0.0
  0
LINE
  5
137
330
1F
100
AcDbEntity
  8
C-E
  6
Continuous
 62
     6
370
     9
100
AcDbLine
 10
-1464.908314637417
 20
-329.7240035874296
 30
0.0
 11
-1064.908314637417
 21
-329.7240035874296
 31
0.0
  0
LINE
  5
138
330
1F
100
AcDbEntity
  8
C-E
  6
Continuous
 62
     6
370
     9
100
AcDbLine
 10
-1464.908314637417
 20
-429.7240035874296
 30
0.0
 11
-1464.908314637417
 21
-329.7240035874296
 31
0.0
  0
LINE
  5
139
330
1F
100
AcDbEntity
  8
C-E
  6
Continuous
 62
     6
370
     9
100
AcDbLine
 10
-1464.908314637417
 20
-429.7240035874296
 30
0.0
 11
-1064.908314637417
 21
-429.7240035874296
 31
0.0
  0
LINE
  5
13A
330
1F
100
AcDbEntity
  8
C-E
  6
Continuous
 62
     6
370
     9
100
AcDbLine
 10
-1264.908314637417
 20
-329.7240035874296
 30
0.0
 11
-1291.703233880529
 21
-429.7240035874296
 31
0.0
  0
LINE
  5
13B
330
1F
100
AcDbEntity
  8
C-E
  6
Continuous
 62
     6
370
     9
100
AcDbLine
 10
-1278.653865066989
 20
-429.7240035874296
 30
0.0
 11
-1285.178549473759
 21
-405.3735498780117
 31
0.0
  0
LINE
  5
13C
330
1F
100
AcDbEntity
  8
C-E
  6
Continuous
 62
     6
370
     9
100
AcDbLine
 10
-1277.957683450957
 20
-329.7240035874296
 30
0.0
 11
-1271.432999044187
 21
-354.0744572968478
 31
0.0
  0
LINE
  5
13D
330
1F
100
AcDbEntity
  8
C-E
  6
Continuous
 62
     6
370
     9
100
AcDbLine
 10
-1314.908314637417
 20
-329.7240035874296
 30
0.0
 11
-1341.703233880529
 21
-429.7240035874296
 31
0.0
  0
LINE
  5
13E
330
1F
100
AcDbEntity
  8
C-E
  6
Continuous
 62
     6
370
     9
100
AcDbLine
 10
-1328.653865066989
 20
-429.7240035874296
 30
0.0
 11
-1335.178549473759
 21
-405.3735498780117
 31
0.0
  0
LINE
  5
13F
330
1F
100
AcDbEntity
  8
C-E
  6
Continuous
 62
     6
370
     9
100
AcDbLine
 10
-1327.957683450957
 20
-329.7240035874296
 30
0.0
 11
-1321.432999044187
 21
-354.0744572968478
 31
0.0
  0
LINE
  5
140
330
1F
100
AcDbEntity
  8
C-E
  6
Continuous
 62
     6
370
     9
100
AcDbLine
 10
-1364.908314637417
 20
-329.7240035874296
 30
0.0
 11
-1391.703233880529
 21
-429.7240035874296
 31
0.0
  0
LINE
  5
141
330
1F
100
AcDbEntity
  8
C-E
  6
Continuous
 62
     6
370
     9
100
AcDbLine
 10
-1378.653865066989
 20
-429.7240035874296
 30
0.0
 11
-1385.178549473759
 21
-405.3735498780117
 31
0.0
  0
LINE
  5
142
330
1F
100
AcDbEntity
  8
C-E
  6
Continuous
 62
     6
370
     9
100
AcDbLine
 10
-1377.957683450957
 20
-329.7240035874296
 30
0.0
 11
-1371.432999044187
 21
-354.0744572968478
 31
0.0
  0
LINE
  5
143
330
1F
100
AcDbEntity
  8
C-E
  6
Continuous
 62
     6
370
     9
100
AcDbLine
 10
-1414.908314637417
 20
-329.7240035874296
 30
0.0
 11
-1441.703233880529
 21
-429.7240035874296
 31
0.0
  0
LINE
  5
144
330
1F
100
AcDbEntity
  8
C-E
  6
Continuous
 62
     6
370
     9
100
AcDbLine
 10
-1428.653865066989
 20
-429.7240035874296
 30
0.0
 11
-1435.178549473759
 21
-405.3735498780117
 31
0.0
  0
LINE
  5
145
330
1F
100
AcDbEntity
  8
C-E
  6
Continuous
 62
     6
370
     9
100
AcDbLine
 10
-1427.957683450956
 20
-329.7240035874296
 30
0.0
 11
-1421.432999044187
 21
-354.0744572968478
 31
0.0
  0
LINE
  5
146
330
1F
100
AcDbEntity
  8
C-E
  6
Continuous
 62
     6
370
     9
100
AcDbLine
 10
-1214.908314637417
 20
-329.7240035874296
 30
0.0
 11
-1241.703233880529
 21
-429.7240035874296
 31
0.0
  0
LINE
  5
147
330
1F
100
AcDbEntity
  8
C-E
  6
Continuous
 62
     6
370
     9
100
AcDbLine
 10
-1228.653865066989
 20
-429.7240035874296
 30
0.0
 11
-1235.178549473759
 21
-405.3735498780117
 31
0.0
  0
LINE
  5
148
330
1F
100
AcDbEntity
  8
C-E
  6
Continuous
 62
     6
370
     9
100
AcDbLine
 10
-1227.957683450957
 20
-329.7240035874296
 30
0.0
 11
-1221.432999044187
 21
-354.0744572968478
 31
0.0
  0
LINE
  5
149
330
1F
100
AcDbEntity
  8
C-E
  6
Continuous
 62
     6
370
     9
100
AcDbLine
 10
-1164.908314637417
 20
-329.7240035874296
 30
0.0
 11
-1191.703233880529
 21
-429.7240035874296
 31
0.0
  0
LINE
  5
14A
330
1F
100
AcDbEntity
  8
C-E
  6
Continuous
 62
     6
370
     9
100
AcDbLine
 10
-1178.653865066989
 20
-429.7240035874296
 30
0.0
 11
-1185.178549473759
 21
-405.3735498780117
 31
0.0
  0
LINE
  5
14B
330
1F
100
AcDbEntity
  8
C-E
  6
Continuous
 62
     6
370
     9
100
AcDbLine
 10
-1177.957683450957
 20
-329.7240035874296
 30
0.0
 11
-1171.432999044187
 21
-354.0744572968478
 31
0.0
  0
LINE
  5
14C
330
1F
100
AcDbEntity
  8
C-E
  6
Continuous
 62
     6
370
     9
100
AcDbLine
 10
-1114.908314637417
 20
-329.7240035874296
 30
0.0
 11
-1141.703233880529
 21
-429.7240035874296
 31
0.0
  0
LINE
  5
14D
330
1F
100
AcDbEntity
  8
C-E
  6
Continuous
 62
     6
370
     9
100
AcDbLine
 10
-1128.653865066989
 20
-429.7240035874296
 30
0.0
 11
-1135.178549473759
 21
-405.3735498780117
 31
0.0
  0
LINE
  5
14E
330
1F
100
AcDbEntity
  8
C-E
  6
Continuous
 62
     6
370
     9
100
AcDbLine
 10
-1127.957683450957
 20
-329.7240035874296
 30
0.0
 11
-1121.432999044187
 21
-354.0744572968478
 31
0.0
  0
LINE
  5
14F
330
1F
100
AcDbEntity
  8
C-E
  6
Continuous
 62
     6
370
     9
100
AcDbLine
 10
-1064.908314637417
 20
-329.7240035874296
 30
0.0
 11
-1091.703233880529
 21
-429.7240035874296
 31
0.0
  0
LINE
  5
150
330
1F
100
AcDbEntity
  8
C-E
  6
Continuous
 62
     6
370
     9
100
AcDbLine
 10
-1078.653865066989
 20
-429.7240035874296
 30
0.0
 11
-1085.178549473759
 21
-405.3735498780117
 31
0.0
  0
LINE
  5
151
330
1F
100
AcDbEntity
  8
C-E
  6
Continuous
 62
     6
370
     9
100
AcDbLine
 10
-1077.957683450957
 20
-329.7240035874296
 30
0.0
 11
-1071.432999044187
 21
-354.0744572968478
 31
0.0
  0
LINE
  5
152
330
1F
100
AcDbEntity
  8
C-0
  6
Continuous
 62
     2
370
     9
100
AcDbLine
 10
-1252.908225559081
 20
-326.5239880813539
 30
0.0
 11
-1252.908225559081
 21
-329.7238798676716
 31
0.0
  0
LINE
  5
153
330
1F
100
AcDbEntity
  8
C-5
  6
Continuous
 62
     7
370
     9
100
AcDbLine
 10
-1157.234427531298
 20
371.8785772159634
 30
0.0
 11
-1226.694002462674
 21
251.5708610525343
 31
0.0
  0
LINE
  5
154
330
1F
100
AcDbEntity
  8
C-5
  6
Continuous
 62
     7
370
     9
100
AcDbLine
 10
-1226.694002462674
 20
251.5708610525343
 30
0.0
 11
-1217.126933554913
 21
274.6678563660845
 31
0.0
  0
LINE
  5
155
330
1F
100
AcDbEntity
  8
C-5
  6
Continuous
 62
     7
370
     9
100
AcDbLine
 10
-1226.694002462674
 20
251.5708610525343
 30
0.0
 11
-1211.47498125099
 21
271.4047056964333
 31
0.0
  0
TEXT
  5
156
330
1F
100
AcDbEntity
  8
C-5
  6
Continuous
 62
     7
370
     9
100
AcDbText
 10
-1157.234427531298
 20
334.8070776710446
 30
0.0
 40
22.86
  1
SUS304　ヘアライン仕上
 41
1.151515151515152
  7
ＭＳ ゴシック
100
AcDbText
  0
LINE
  5
157
330
1F
100
AcDbEntity
  8
C-5
  6
Continuous
 62
     7
370
     9
100
AcDbLine
 10
-1157.234427531298
 20
371.8785772159634
 30
0.0
 11
-771.0822526942934
 21
371.8785772159634
 31
0.0
  0
LINE
  5
158
330
1F
100
AcDbEntity
  8
C-E
  6
Continuous
 62
     6
370
     9
100
AcDbLine
 10
-1189.535869676337
 20
-76.52400358742973
 30
0.0
 11
-913.8881721249903
 21
-76.52400358742973
 31
0.0
  0
TEXT
  5
159
330
1F
100
AcDbEntity
  8
C-5
  6
Continuous
 62
     7
370
     9
100
AcDbText
 10
-1152.751349095659
 20
387.3327759461515
 30
0.0
 40
22.86
  1
本体：φ76.3×2.0
 41
1.156862745098039
  7
ＭＳ ゴシック
100
AcDbText
  0
LINE
  5
15A
330
1F
100
AcDbEntity
  8
C-0
  6
Continuous
 62
     2
370
     9
100
AcDbLine
 10
-1309.472585077309
 20
-76.52402932132406
 30
0.0
 11
-1309.472585077309
 21
-326.5242355211768
 31
0.0
  0
LINE
  5
15B
330
1F
100
AcDbEntity
  8
C-E
  6
Continuous
 62
     6
370
     9
100
AcDbLine
 10
-1114.908314637417
 20
-125.5966031207506
 30
0.0
 11
-1220.344044197525
 21
-231.0323326808584
 31
0.0
  0
LINE
  5
15C
330
1F
100
AcDbEntity
  8
C-E
  6
Continuous
 62
     6
370
     9
100
AcDbLine
 10
-1114.908314637417
 20
-139.7387387444816
 30
0.0
 11
-1220.344044197525
 21
-245.1744683045892
 31
0.0
  0
LINE
  5
15D
330
1F
100
AcDbEntity
  8
C-E
  6
Continuous
 62
     6
370
     9
100
AcDbLine
 10
-1114.908314637417
 20
-153.8808743682125
 30
0.0
 11
-1220.344044197525
 21
-259.3166039283204
 31
0.0
  0
LINE
  5
15E
330
1F
100
AcDbEntity
  8
C-0
  6
Continuous
 62
     2
370
     9
100
AcDbLine
 10
-1220.344044197525
 20
-76.52402932132406
 30
0.0
 11
-1220.344044197525
 21
-326.5242355211768
 31
0.0
  0
LINE
  5
15F
330
1F
100
AcDbEntity
  8
C-5
  6
Continuous
 62
     7
370
     9
100
AcDbLine
 10
-1220.344044197525
 20
-140.3436322950426
 30
0.0
 11
-987.8756258811455
 21
-545.2208110176466
 31
0.0
  0
TEXT
  5
160
330
1F
100
AcDbEntity
  8
C-5
  6
Continuous
 62
     7
370
     9
100
AcDbText
 10
-982.1639333702404
 20
-531.5859976992156
 30
0.0
 40
22.86
  1
脱着用埋設管
 41
1.138888888888889
  7
ＭＳ ゴシック
100
AcDbText
  0
TEXT
  5
161
330
1F
100
AcDbEntity
  8
C-5
  6
Continuous
 62
     7
370
     9
100
AcDbText
 10
-982.1639333702404
 20
-617.2065650751026
 30
0.0
 40
22.86
  1
埋設管本体：SGP　溶融亜鉛めっき
 41
1.155913978494624
  7
ＭＳ ゴシック
100
AcDbText
  0
LINE
  5
162
330
1F
100
AcDbEntity
  8
C-5
  6
Continuous
 62
     7
370
     9
100
AcDbLine
 10
-441.0924951654872
 20
-545.2208110176466
 30
0.0
 11
-987.8756258811455
 21
-545.2208110176466
 31
0.0
  0
LINE
  5
163
330
1F
100
AcDbEntity
  8
C-5
  6
Continuous
 62
     7
370
     9
100
AcDbLine
 10
-1220.344044197525
 20
-140.3436322950426
 30
0.0
 11
-1205.172421412304
 21
-160.2137571578351
 31
0.0
  0
LINE
  5
164
330
1F
100
AcDbEntity
  8
C-5
  6
Continuous
 62
     7
370
     9
100
AcDbLine
 10
-1220.344044197525
 20
-140.3436322950426
 30
0.0
 11
-1210.83214866562
 21
-163.4634039935292
 31
0.0
  0
LINE
  5
165
330
1F
100
AcDbEntity
  8
C-6
  6
Continuous
 62
     2
370
     9
100
AcDbLine
 10
-1197.903765858103
 20
-70.07309934270961
 30
0.0
 11
-1199.280387239537
 21
-62.26589152968852
 31
0.0
  0
LINE
  5
166
330
1F
100
AcDbEntity
  8
C-0
  6
Continuous
 62
     4
370
     9
100
AcDbLine
 10
-1203.222312991573
 20
-67.55221799697776
 30
0.0
 11
-1201.885224812343
 21
-66.62750075559883
 31
0.0
  0
LINE
  5
167
330
1F
100
AcDbEntity
  8
C-0
  6
Continuous
 62
     4
370
     9
100
AcDbLine
 10
-1201.885224812343
 20
-66.62750075559883
 30
0.0
 11
-1199.280387239536
 21
-62.26589152968828
 31
0.0
  0
LINE
  5
168
330
1F
100
AcDbEntity
  8
C-0
  6
Continuous
 62
     4
370
     9
100
AcDbLine
 10
-1203.222312991573
 20
-67.55221799697776
 30
0.0
 11
-1216.126096845251
 21
5.628776776660924
 31
0.0
  0
LINE
  5
169
330
1F
100
AcDbEntity
  8
C-6
  6
JWW_CENTER1
 62
     2
370
     9
100
AcDbLine
 10
-1217.083649393812
 20
-55.66877105928712
 30
0.0
 11
-1213.550934563499
 21
-55.04585811955394
 31
0.0
  0
LINE
  5
16A
330
1F
100
AcDbEntity
  8
C-6
  6
Continuous
 62
     2
370
     9
100
AcDbLine
 10
-1199.221768343791
 20
-71.81236858044463
 30
0.0
 11
-1200.534729542861
 21
-64.3661956022906
 31
0.0
  0
LINE
  5
16B
330
1F
100
AcDbEntity
  8
C-B
  6
Continuous
 62
     2
370
     9
100
AcDbLine
 10
-1212.552456382688
 20
-60.70850927367494
 30
0.0
 11
-1214.09561435619
 21
-60.98060965989882
 31
0.0
  0
LINE
  5
16C
330
1F
100
AcDbEntity
  8
C-6
  6
Continuous
 62
     2
370
     9
100
AcDbLine
 10
-1213.168908572632
 20
-57.21243517618107
 30
0.0
 11
-1216.123331831667
 21
-57.73337970918158
 31
0.0
  0
LINE
  5
16D
330
1F
100
AcDbEntity
  8
C-6
  6
Continuous
 62
     2
370
     9
100
AcDbLine
 10
-1213.029990030498
 20
-58.00028137859067
 30
0.0
 11
-1215.196556286486
 21
-58.38230546501384
 31
0.0
  0
LINE
  5
16E
330
1F
100
AcDbEntity
  8
C-6
  6
Continuous
 62
     2
370
     9
100
AcDbLine
 10
-1213.932960554366
 20
-52.87928106292682
 30
0.0
 11
-1216.887383813401
 21
-53.40022559592733
 31
0.0
  0
LINE
  5
16F
330
1F
100
AcDbEntity
  8
C-B
  6
Continuous
 62
     2
370
     9
100
AcDbLine
 10
-1214.549412744311
 20
-49.38320696543238
 30
0.0
 11
-1216.092570717813
 21
-49.65530735165628
 31
0.0
  0
LINE
  5
170
330
1F
100
AcDbEntity
  8
C-6
  6
Continuous
 62
     2
370
     9
100
AcDbLine
 10
-1214.0718790965
 20
-52.09143486051721
 30
0.0
 11
-1216.238445352488
 21
-52.47345894694037
 31
0.0
  0
LINE
  5
171
330
1F
100
AcDbEntity
  8
C-0
  6
Continuous
 62
     4
370
     9
100
AcDbLine
 10
-1214.549412744311
 20
-49.38320696543238
 30
0.0
 11
-1212.552456382688
 21
-60.70850927367494
 31
0.0
  0
LINE
  5
172
330
1F
100
AcDbEntity
  8
C-0
  6
Continuous
 62
     4
370
     9
100
AcDbLine
 10
-1218.730819510252
 20
20.40089307182836
 30
0.0
 11
-1216.126096845251
 21
5.628776776660924
 31
0.0
  0
LINE
  5
173
330
1F
100
AcDbEntity
  8
C-6
  6
JWW_DASHED1
 62
     2
370
     9
100
AcDbLine
 10
-1208.771621200641
 20
-73.51253537986452
 30
0.0
 11
-1199.120505221121
 21
-71.81078323872866
 31
0.0
  0
LINE
  5
174
330
1F
100
AcDbEntity
  8
C-0
  6
Continuous
 62
     4
370
     9
100
AcDbLine
 10
-1212.552456382688
 20
-60.70850927367494
 30
0.0
 11
-1212.106313755577
 21
-63.2387098437664
 31
0.0
  0
LINE
  5
175
330
1F
100
AcDbEntity
  8
C-0
  6
Continuous
 62
     4
370
     9
100
AcDbLine
 10
-1225.28090202121
 20
11.47809306807074
 30
0.0
 11
-1214.549412744311
 21
-49.38320696543238
 31
0.0
  0
LINE
  5
176
330
1F
100
AcDbEntity
  8
C-6
  6
Continuous
 62
     2
370
     9
100
AcDbLine
 10
-1216.23843455185
 20
-52.47345704249653
 30
0.0
 11
-1216.88737110832
 21
-53.40023449212066
 31
0.0
  0
LINE
  5
177
330
1F
100
AcDbEntity
  8
C-6
  6
Continuous
 62
     2
370
     9
100
AcDbLine
 10
-1215.196545485848
 20
-58.38230356057
 30
0.0
 11
-1216.123322935473
 21
-57.7333670041
 31
0.0
  0
LINE
  5
178
330
1F
100
AcDbEntity
  8
C-6
  6
Continuous
 62
     2
370
     9
100
AcDbLine
 10
-1216.123322935473
 20
-57.7333670041
 30
0.0
 11
-1216.88737110832
 21
-53.40023449212066
 31
0.0
  0
LINE
  5
179
330
1F
100
AcDbEntity
  8
C-B
  6
Continuous
 62
     2
370
     9
100
AcDbLine
 10
-1214.999605536522
 20
-58.34757773392452
 30
0.0
 11
-1214.652315142926
 21
-60.31715942925761
 31
0.0
  0
LINE
  5
17A
330
1F
100
AcDbEntity
  8
C-B
  6
Continuous
 62
     2
370
     9
100
AcDbLine
 10
-1216.388784996121
 20
-50.4691495205174
 30
0.0
 11
-1216.041494602524
 21
-52.43873121585105
 31
0.0
  0
LINE
  5
17B
330
1F
100
AcDbEntity
  8
C-B
  6
Continuous
 62
     2
370
     9
100
AcDbLine
 10
-1216.388784996121
 20
-50.4691495205174
 30
0.0
 11
-1216.092570717813
 21
-49.65530735165628
 31
0.0
  0
LINE
  5
17C
330
1F
100
AcDbEntity
  8
C-B
  6
Continuous
 62
     2
370
     9
100
AcDbLine
 10
-1214.652315142926
 20
-60.31715942925761
 30
0.0
 11
-1214.09561435619
 21
-60.98060965989882
 31
0.0
  0
ARC
  5
17D
330
1F
100
AcDbEntity
  8
C-6
  6
Continuous
 62
     2
370
     9
100
AcDbCircle
 10
-1199.380977487622
 20
-70.33357160921001
 30
0.0
 40
1.5
100
AcDbArc
 50
280.0
 51
10.0
  0
ARC
  5
17E
330
1F
100
AcDbEntity
  8
C-9
  6
Continuous
 62
     7
370
     9
100
AcDbCircle
 10
-1202.928827321967
 20
-69.21665793933795
 30
0.0
 40
3.200000000000001
100
AcDbArc
 50
280.0
 51
10.0
  0
LINE
  5
17F
330
1F
100
AcDbEntity
  8
C-9
  6
Continuous
 62
     7
370
     9
100
AcDbLine
 10
-1211.728826807049
 20
-74.01770043681287
 30
0.0
 11
-1202.373153153432
 21
-72.36804274897695
 31
0.0
  0
LINE
  5
180
330
1F
100
AcDbEntity
  8
C-0
  6
Continuous
 62
     4
370
     9
100
AcDbLine
 10
-1209.007605443095
 20
-63.53604651120885
 30
0.0
 11
-1212.106313755577
 21
-63.2387098437664
 31
0.0
  0
LINE
  5
181
330
1F
100
AcDbEntity
  8
C-0
  6
Continuous
 62
     4
370
     9
100
AcDbLine
 10
-1197.947648542253
 20
-60.03431845254964
 30
0.0
 11
-1211.348457808799
 21
15.96544750897843
 31
0.0
  0
LINE
  5
182
330
1F
100
AcDbEntity
  8
C-0
  6
Continuous
 62
     4
370
     9
100
AcDbLine
 10
-1217.189089422407
 20
20.16502837734246
 30
0.0
 11
-1211.348457808799
 21
15.96544750897843
 31
0.0
  0
LINE
  5
183
330
1F
100
AcDbEntity
  8
C-0
  6
Continuous
 62
     4
370
     9
100
AcDbLine
 10
-1217.189089422407
 20
20.16502837734246
 30
0.0
 11
-1218.730819510252
 21
20.40089307182836
 31
0.0
  0
LINE
  5
184
330
1F
100
AcDbEntity
  8
C-0
  6
Continuous
 62
     4
370
     9
100
AcDbLine
 10
-1217.576088174779
 20
13.85208624241864
 30
0.0
 11
-1225.28090202121
 21
11.47809306807074
 31
0.0
  0
LINE
  5
185
330
1F
100
AcDbEntity
  8
C-6
  6
Continuous
 62
     2
370
     9
100
AcDbLine
 10
-1215.196556286486
 20
-58.38230546501384
 30
0.0
 11
-1216.238445352488
 21
-52.47345894694037
 31
0.0
  0
LINE
  5
186
330
1F
100
AcDbEntity
  8
C-0
  6
Continuous
 62
     4
370
     9
100
AcDbLine
 10
-1199.280387239536
 20
-62.26589152968884
 30
0.0
 11
-1197.947648542252
 21
-60.03431845254944
 31
0.0
  0
CIRCLE
  5
187
330
1F
100
AcDbEntity
  8
C-0
  6
Continuous
 62
     4
370
     9
100
AcDbCircle
 10
-1206.458450894279
 20
-82.02412169885797
 30
0.0
 40
2.7
  0
ARC
  5
188
330
1F
100
AcDbEntity
  8
C-6
  6
JWW_DASHED1
 62
     2
370
     9
100
AcDbCircle
 10
-1207.903380312306
 20
-78.43657414492556
 30
0.0
 40
5.0
100
AcDbArc
 50
100.0
 51
118.0562980526531
  0
LINE
  5
189
330
1F
100
AcDbEntity
  8
C-9
  6
Continuous
 62
     7
370
     9
100
AcDbLine
 10
-1203.222312991573
 20
-67.55221799697776
 30
0.0
 11
-1202.081137680222
 21
-74.0241447932413
 31
0.0
  0
LINE
  5
18A
330
1F
100
AcDbEntity
  8
C-9
  6
Continuous
 62
     7
370
     9
100
AcDbLine
 10
-1199.777442512325
 20
-68.6609837708034
 30
0.0
 11
-1198.831772522185
 21
-74.02414479324129
 31
0.0
  0
LINE
  5
18B
330
1F
100
AcDbEntity
  8
C-6
  6
Continuous
 62
     2
370
     9
100
AcDbLine
 10
-1197.903765858103
 20
-70.07309934270961
 30
0.0
 11
-1197.207089943169
 21
-74.02414479324129
 31
0.0
  0
TEXT
  5
18C
330
1F
100
AcDbEntity
  8
C-5
  6
Continuous
 62
     7
370
     9
100
AcDbText
 10
-982.1639333702404
 20
-580.8909622382226
 30
0.0
 40
22.86
  1
蓋：FCD500　溶融亜鉛めっき
 41
1.153846153846154
  7
ＭＳ ゴシック
100
AcDbText
  0
LINE
  5
18D
330
1F
100
AcDbEntity
  8
C-0
  6
Continuous
 62
     4
370
     9
100
AcDbLine
 10
-1203.909918500373
 20
-63.65261337585136
 30
0.0
 11
-1209.007605443095
 21
-63.53604651120885
 31
0.0
  0
LINE
  5
18E
330
1F
100
AcDbEntity
  8
C-2
  6
Continuous
 62
     4
370
     9
100
AcDbLine
 10
-1330.742488463002
 20
-4.599062389003397
 30
0.0
 11
-1330.742488463002
 21
-16.5991514673396
 31
0.0
  0
LINE
  5
18F
330
1F
100
AcDbEntity
  8
C-2
  6
Continuous
 62
     4
370
     9
100
AcDbLine
 10
-1325.49231030633
 20
-16.5991514673396
 30
0.0
 11
-1330.742488463002
 21
-16.5991514673396
 31
0.0
  0
ARC
  5
190
330
1F
100
AcDbEntity
  8
C-2
  6
Continuous
 62
     4
370
     9
100
AcDbCircle
 10
-1323.242092559286
 20
-10.59910692817164
 30
0.0
 40
3.500000045106218
100
AcDbArc
 50
310.0048065185547
 51
229.9951934814453
  0
LINE
  5
191
330
1F
100
AcDbEntity
  8
C-2
  6
Continuous
 62
     6
370
     9
100
AcDbLine
 10
-1320.992369691887
 20
-11.84929663203542
 30
0.0
 11
-1320.992369691887
 21
-29.59914486894428
 31
0.0
  0
LINE
  5
192
330
1F
100
AcDbEntity
  8
C-2
  6
Continuous
 62
     6
370
     9
100
AcDbLine
 10
-1325.49231030633
 20
-11.84929663203542
 30
0.0
 11
-1325.49231030633
 21
-29.59914486894428
 31
0.0
  0
LINE
  5
193
330
1F
100
AcDbEntity
  8
C-2
  6
JWW_CENTER1
 62
     6
370
     9
100
AcDbLine
 10
-1323.242092559286
 20
-3.51181180834482
 30
0.0
 11
-1323.242092559286
 21
-18.12857701104742
 31
0.0
  0
LINE
  5
194
330
1F
100
AcDbEntity
  8
C-2
  6
JWW_CENTER1
 62
     6
370
     9
100
AcDbLine
 10
-1320.363130222926
 20
-11.84929663203542
 30
0.0
 11
-1326.208896032681
 21
-11.84929663203542
 31
0.0
  0
ARC
  5
195
330
1F
100
AcDbEntity
  8
C-2
  6
JWW_DASHED1
 62
     6
370
     9
100
AcDbCircle
 10
-1323.242092559286
 20
-11.84929663203542
 30
0.0
 40
2.250000028996854
100
AcDbArc
 50
180.0
 51
0.0
  0
ARC
  5
196
330
1F
100
AcDbEntity
  8
C-2
  6
Continuous
 62
     6
370
     9
100
AcDbCircle
 10
-1323.242092559286
 20
-11.84929663203542
 30
0.0
 40
2.250000028996854
100
AcDbArc
 50
0.0
 51
180.0
  0
LINE
  5
197
330
1F
100
AcDbEntity
  8
C-2
  6
Continuous
 62
     6
370
     9
100
AcDbLine
 10
-1318.242323503121
 20
-29.59914486894428
 30
0.0
 11
-1328.242356495097
 21
-29.59914486894428
 31
0.0
  0
LINE
  5
198
330
1F
100
AcDbEntity
  8
C-0
  6
JWW_CENTER2
 62
     7
370
     9
100
AcDbLine
 10
-1198.742168440831
 20
-10.59910692817164
 30
0.0
 11
-1335.74250495899
 21
-10.59910692817164
 31
0.0
  0
LINE
  5
199
330
1F
100
AcDbEntity
  8
C-2
  6
Continuous
 62
     4
370
     9
100
AcDbLine
 10
-1312.742478565409
 20
-4.599062389003397
 30
0.0
 11
-1312.742478565409
 21
-16.5991514673396
 31
0.0
  0
LINE
  5
19A
330
1F
100
AcDbEntity
  8
C-2
  6
Continuous
 62
     6
370
     9
100
AcDbLine
 10
-1318.242323503121
 20
-29.59914486894428
 30
0.0
 11
-1318.242323503121
 21
-53.09899970424846
 31
0.0
  0
LINE
  5
19B
330
1F
100
AcDbEntity
  8
C-2
  6
Continuous
 62
     6
370
     9
100
AcDbLine
 10
-1320.492293810341
 20
-29.59914486894428
 30
0.0
 11
-1320.492293810341
 21
-53.09899970424846
 31
0.0
  0
LINE
  5
19C
330
1F
100
AcDbEntity
  8
C-2
  6
Continuous
 62
     6
370
     9
100
AcDbLine
 10
-1325.992138748053
 20
-29.59914486894428
 30
0.0
 11
-1325.992138748053
 21
-53.09899970424846
 31
0.0
  0
LINE
  5
19D
330
1F
100
AcDbEntity
  8
C-2
  6
Continuous
 62
     6
370
     9
100
AcDbLine
 10
-1328.242356495097
 20
-29.59914486894428
 30
0.0
 11
-1328.242356495097
 21
-53.09899970424846
 31
0.0
  0
LINE
  5
19E
330
1F
100
AcDbEntity
  8
C-2
  6
Continuous
 62
     6
370
     9
100
AcDbLine
 10
-1318.242323503121
 20
-53.09899970424846
 30
0.0
 11
-1328.242356495097
 21
-53.09899970424846
 31
0.0
  0
LINE
  5
19F
330
1F
100
AcDbEntity
  8
C-2
  6
Continuous
 62
     4
370
     9
100
AcDbLine
 10
-1226.758166503443
 20
-16.5991514673396
 30
0.0
 11
-1220.330126265668
 21
-16.5991514673396
 31
0.0
  0
LINE
  5
1A0
330
1F
100
AcDbEntity
  8
C-2
  6
Continuous
 62
     4
370
     9
100
AcDbLine
 10
-1226.758166503443
 20
-4.599062389003397
 30
0.0
 11
-1222.446065741084
 21
-4.599062389003397
 31
0.0
  0
LINE
  5
1A1
330
1F
100
AcDbEntity
  8
C-2
  6
Continuous
 62
     4
370
     9
100
AcDbLine
 10
-1330.742488463002
 20
-4.599062389003397
 30
0.0
 11
-1303.05846277139
 21
-4.599062389003397
 31
0.0
  0
LINE
  5
1A2
330
1F
100
AcDbEntity
  8
C-2
  6
Continuous
 62
     4
370
     9
100
AcDbLine
 10
-1303.05846277139
 20
-16.5991514673396
 30
0.0
 11
-1320.992369691887
 21
-16.5991514673396
 31
0.0
  0
LINE
  5
1A3
330
1F
100
AcDbEntity
  8
C-2
  6
JWW_DASHED1
 62
     4
370
     9
100
AcDbLine
 10
-1226.758166503443
 20
-16.5991514673396
 30
0.0
 11
-1303.05846277139
 21
-16.5991514673396
 31
0.0
  0
LINE
  5
1A4
330
1F
100
AcDbEntity
  8
C-2
  6
JWW_DASHED1
 62
     4
370
     9
100
AcDbLine
 10
-1226.758166503443
 20
-4.599062389003397
 30
0.0
 11
-1303.05846277139
 21
-4.599062389003397
 31
0.0
  0
ARC
  5
1A5
330
1F
100
AcDbEntity
  8
C-0
  6
Continuous
 62
     4
370
     9
100
AcDbCircle
 10
0.0
 20
-25.09910692817163
 30
0.0
 40
45.5
100
AcDbArc
 50
290.4537119542559
 51
249.404894596349
  0
LINE
  5
1A6
330
1F
100
AcDbEntity
  8
C-2
  6
Continuous
 62
     4
370
     9
100
AcDbLine
 10
-1203.74218493682
 20
-10.59910692817164
 30
0.0
 11
-1203.74218493682
 21
-19.09928343524507
 31
0.0
  0
ARC
  5
1A7
330
1F
100
AcDbEntity
  8
C-2
  6
Continuous
 62
     4
370
     9
100
AcDbCircle
 10
-1205.242412581456
 20
-2.098930421098206
 30
0.0
 40
1.500000019331236
100
AcDbArc
 50
0.0
 51
77.1093114641178
  0
LINE
  5
1A8
330
1F
100
AcDbEntity
  8
C-2
  6
Continuous
 62
     4
370
     9
100
AcDbLine
 10
-1203.74218493682
 20
-10.59910692817164
 30
0.0
 11
-1203.74218493682
 21
-2.098930421098206
 31
0.0
  0
LINE
  5
1A9
330
1F
100
AcDbEntity
  8
C-2
  6
Continuous
 62
     4
370
     9
100
AcDbLine
 10
-1204.907775028556
 20
-0.6367342078004778
 30
0.0
 11
-1208.421045233506
 21
-0.6367342078004778
 31
0.0
  0
ARC
  5
1AA
330
1F
100
AcDbEntity
  8
C-2
  6
Continuous
 62
     4
370
     9
100
AcDbCircle
 10
-1205.242412581456
 20
-19.09928343524507
 30
0.0
 40
1.500000019331236
100
AcDbArc
 50
282.8906885358822
 51
0.0
  0
LINE
  5
1AB
330
1F
100
AcDbEntity
  8
C-4
  6
Continuous
 62
     7
370
     9
100
AcDbLine
 10
-1303.05846277139
 20
854.7406810809229
 30
0.0
 11
-1303.05846277139
 21
770.1252761823304
 31
0.0
  0
LINE
  5
1AC
330
1F
100
AcDbEntity
  8
C-4
  6
Continuous
 62
     7
370
     9
100
AcDbLine
 10
-1226.758166503443
 20
854.7406810809229
 30
0.0
 11
-1226.758166503443
 21
770.1252761823304
 31
0.0
  0
LINE
  5
1AD
330
1F
100
AcDbEntity
  8
C-2
  6
Continuous
 62
     3
370
     9
100
AcDbLine
 10
-1208.441314457611
 20
653.4759992125021
 30
0.0
 11
-1208.441314457611
 21
653.4859992124113
 31
0.0
  0
ARC
  5
1AE
330
1F
100
AcDbEntity
  8
C-2
  6
Continuous
 62
     3
370
     9
100
AcDbCircle
 10
-1208.441314457611
 20
666.1589990975108
 30
0.0
 40
12.68299988500862
100
AcDbArc
 50
270.0
 51
0.0
  0
ARC
  5
1AF
330
1F
100
AcDbEntity
  8
C-2
  6
Continuous
 62
     3
370
     9
100
AcDbCircle
 10
-1208.441314457611
 20
666.1589990975108
 30
0.0
 40
18.68299983060874
100
AcDbArc
 50
270.0
 51
0.0
  0
LINE
  5
1B0
330
1F
100
AcDbEntity
  8
C-2
  6
Continuous
 62
     3
370
     9
100
AcDbLine
 10
-1220.758314345932
 20
672.9759990357024
 30
0.0
 11
-1220.758314345932
 21
663.1341024324773
 31
0.0
  0
LINE
  5
1B1
330
1F
100
AcDbEntity
  8
C-2
  6
Continuous
 62
     3
370
     9
100
AcDbLine
 10
-1226.75831429154
 20
672.9759990357024
 30
0.0
 11
-1220.75831434594
 21
672.9759990357024
 31
0.0
  0
ARC
  5
1B2
330
1F
100
AcDbEntity
  8
C-2
  6
Continuous
 62
     3
370
     9
100
AcDbCircle
 10
-1208.441314457611
 20
666.1589990975108
 30
0.0
 40
12.68299988500862
100
AcDbArc
 50
193.7980315976056
 51
270.0
  0
ARC
  5
1B3
330
1F
100
AcDbEntity
  8
C-2
  6
Continuous
 62
     3
370
     9
100
AcDbCircle
 10
-1208.441314457611
 20
666.1589990975108
 30
0.0
 40
18.68299983060874
100
AcDbArc
 50
191.3596882805108
 51
270.0
  0
ARC
  5
1B4
330
1F
100
AcDbEntity
  8
C-2
  6
Continuous
 62
     3
370
     9
100
AcDbCircle
 10
-1208.441314457611
 20
680.7929989648271
 30
0.0
 40
12.68299988500862
100
AcDbArc
 50
0.0
 51
90.0
  0
ARC
  5
1B5
330
1F
100
AcDbEntity
  8
C-2
  6
Continuous
 62
     3
370
     9
100
AcDbCircle
 10
-1208.441314457611
 20
680.7929989648271
 30
0.0
 40
18.68299983060874
100
AcDbArc
 50
0.0
 51
90.0
  0
LINE
  5
1B6
330
1F
100
AcDbEntity
  8
C-2
  6
Continuous
 62
     3
370
     9
100
AcDbLine
 10
-1220.758314345932
 20
673.9759990266355
 30
0.0
 11
-1220.758314345932
 21
683.8178956298609
 31
0.0
  0
ARC
  5
1B7
330
1F
100
AcDbEntity
  8
C-2
  6
Continuous
 62
     3
370
     9
100
AcDbCircle
 10
-1208.441314457611
 20
680.7929989648271
 30
0.0
 40
12.68299988500862
100
AcDbArc
 50
90.0
 51
166.2019684023945
  0
ARC
  5
1B8
330
1F
100
AcDbEntity
  8
C-2
  6
Continuous
 62
     3
370
     9
100
AcDbCircle
 10
-1208.441314457611
 20
680.7929989648271
 30
0.0
 40
18.68299983060874
100
AcDbArc
 50
90.0
 51
168.6403117194892
  0
LINE
  5
1B9
330
1F
100
AcDbEntity
  8
C-2
  6
Continuous
 62
     3
370
     9
100
AcDbLine
 10
-1226.758314291525
 20
673.9759990266355
 30
0.0
 11
-1220.758314345932
 21
673.975999026632
 31
0.0
  0
LINE
  5
1BA
330
1F
100
AcDbEntity
  8
C-2
  6
Continuous
 62
     3
370
     9
100
AcDbLine
 10
-1195.758314572606
 20
666.1589990975108
 30
0.0
 11
-1195.758314572606
 21
680.7929989648271
 31
0.0
  0
LINE
  5
1BB
330
1F
100
AcDbEntity
  8
C-2
  6
Continuous
 62
     3
370
     9
100
AcDbLine
 10
-1189.758314627006
 20
666.1589990975108
 30
0.0
 11
-1189.758314627006
 21
680.7929989648271
 31
0.0
  0
LINE
  5
1BC
330
1F
100
AcDbEntity
  8
C-A
  6
JWW_CENTER1
 62
     7
370
     9
100
AcDbLine
 10
-1234.629721546824
 20
673.4759990311713
 30
0.0
 11
-1183.315807011195
 21
673.4759990311557
 31
0.0
  0
LINE
  5
1BD
330
1F
100
AcDbEntity
  8
C-A
  6
JWW_CENTER1
 62
     7
370
     9
100
AcDbLine
 10
-1208.441314457611
 20
638.9558704678877
 30
0.0
 11
-1208.441314457611
 21
707.9961275944386
 31
0.0
  0
ARC
  5
1BE
330
1F
100
AcDbEntity
  8
C-2
  6
Continuous
 62
     3
370
     9
100
AcDbCircle
 10
0.0
 20
696.4759987954227
 30
0.0
 40
3.0
100
AcDbArc
 50
90.0
 51
180.0
  0
ARC
  5
1BF
330
1F
100
AcDbEntity
  8
C-2
  6
Continuous
 62
     3
370
     9
100
AcDbCircle
 10
-0.0000000000002842
 20
696.4759987954227
 30
0.0
 40
3.0
100
AcDbArc
 50
0.0
 51
90.0
  0
LINE
  5
1C0
330
1F
100
AcDbEntity
  8
C-2
  6
Continuous
 62
     3
370
     9
100
AcDbLine
 10
-3.000000000000114
 20
650.4759992668886
 30
0.0
 11
-3.000000000000114
 21
696.4759987954227
 31
0.0
  0
ARC
  5
1C1
330
1F
100
AcDbEntity
  8
C-2
  6
Continuous
 62
     3
370
     9
100
AcDbCircle
 10
0.0
 20
650.4759992668886
 30
0.0
 40
3.0
100
AcDbArc
 50
180.0
 51
270.0
  0
LINE
  5
1C2
330
1F
100
AcDbEntity
  8
C-2
  6
Continuous
 62
     3
370
     9
100
AcDbLine
 10
2.999999999999829
 20
650.4759992668886
 30
0.0
 11
2.999999999999829
 21
696.4759987954227
 31
0.0
  0
ARC
  5
1C3
330
1F
100
AcDbEntity
  8
C-2
  6
Continuous
 62
     3
370
     9
100
AcDbCircle
 10
-0.0000000000002842
 20
650.4759992668886
 30
0.0
 40
3.0
100
AcDbArc
 50
270.0
 51
0.0
  0
LINE
  5
1C4
330
1F
100
AcDbEntity
  8
D-0
  6
JWW_PHANTOM1
 62
     4
370
     9
100
AcDbLine
 10
994.6743587066289
 20
-541.7817274590619
 30
0.0
 11
1044.674358706576
 21
-541.7817274590619
 31
0.0
  0
LINE
  5
1C5
330
1F
100
AcDbEntity
  8
D-0
  6
Continuous
 62
     2
370
     9
100
AcDbLine
 10
1357.388104125287
 20
-616.7815624991803
 30
0.0
 11
1291.769494972576
 21
-616.7815624991803
 31
0.0
  0
LINE
  5
1C6
330
1F
100
AcDbEntity
  8
D-0
  6
Continuous
 62
     2
370
     9
100
AcDbLine
 10
1394.721412164772
 20
-579.4486668593997
 30
0.0
 11
1394.721412164772
 21
-544.1150849865118
 31
0.0
  0
LINE
  5
1C7
330
1F
100
AcDbEntity
  8
D-0
  6
Continuous
 62
     2
370
     9
100
AcDbLine
 10
1291.769494972576
 20
-541.781727459062
 30
0.0
 11
1291.769494972576
 21
-714.3564770411012
 31
0.0
  0
LINE
  5
1C8
330
1F
100
AcDbEntity
  8
D-6
  6
Continuous
 62
     2
370
     9
100
AcDbLine
 10
1366.570422770646
 20
-520.2786275303472
 30
0.0
 11
1361.981684832535
 21
-494.2546014869436
 31
0.0
  0
LINE
  5
1C9
330
1F
100
AcDbEntity
  8
D-0
  6
Continuous
 62
     4
370
     9
100
AcDbLine
 10
1348.841932325747
 20
-511.875689711241
 30
0.0
 11
1353.298892923181
 21
-508.7932989066446
 31
0.0
  0
LINE
  5
1CA
330
1F
100
AcDbEntity
  8
D-0
  6
Continuous
 62
     4
370
     9
100
AcDbLine
 10
1353.298892923181
 20
-508.7932989066446
 30
0.0
 11
1361.981684832539
 21
-494.2546014869428
 31
0.0
  0
LINE
  5
1CB
330
1F
100
AcDbEntity
  8
D-0
  6
Continuous
 62
     4
370
     9
100
AcDbLine
 10
1348.841932325747
 20
-511.875689711241
 30
0.0
 11
1305.829319480155
 21
-267.9390404657788
 31
0.0
  0
LINE
  5
1CC
330
1F
100
AcDbEntity
  8
D-6
  6
Continuous
 62
     2
370
     9
100
AcDbLine
 10
1362.17708115169
 20
-526.0761916561306
 30
0.0
 11
1357.800543821453
 21
-501.2556150622839
 31
0.0
  0
LINE
  5
1CD
330
1F
100
AcDbEntity
  8
D-B
  6
Continuous
 62
     2
370
     9
100
AcDbLine
 10
1317.741454355366
 20
-489.0633273002317
 30
0.0
 11
1312.597594443692
 21
-489.9703285876446
 31
0.0
  0
LINE
  5
1CE
330
1F
100
AcDbEntity
  8
D-6
  6
Continuous
 62
     2
370
     9
100
AcDbLine
 10
1315.686613722219
 20
-477.4097469752521
 30
0.0
 11
1305.838536192102
 21
-479.1462287519204
 31
0.0
  0
LINE
  5
1CF
330
1F
100
AcDbEntity
  8
D-6
  6
Continuous
 62
     2
370
     9
100
AcDbLine
 10
1316.149675529331
 20
-480.0359009832841
 30
0.0
 11
1308.927788009372
 21
-481.3093146046946
 31
0.0
  0
LINE
  5
1D0
330
1F
100
AcDbEntity
  8
D-0
  6
Continuous
 62
     4
370
     9
100
AcDbLine
 10
1311.084933149956
 20
-451.3123196060898
 30
0.0
 11
1317.741454355366
 21
-489.0633273002317
 31
0.0
  0
LINE
  5
1D1
330
1F
100
AcDbEntity
  8
D-0
  6
Continuous
 62
     4
370
     9
100
AcDbLine
 10
1317.741454355366
 20
-489.0633273002317
 30
0.0
 11
1319.228596445736
 21
-497.4973292005365
 31
0.0
  0
LINE
  5
1D2
330
1F
100
AcDbEntity
  8
D-6
  6
Continuous
 62
     2
370
     9
100
AcDbLine
 10
1308.927824011498
 20
-481.3093082565485
 30
0.0
 11
1305.838565846082
 21
-479.1461864016485
 31
0.0
  0
LINE
  5
1D3
330
1F
100
AcDbEntity
  8
D-6
  6
Continuous
 62
     2
370
     9
100
AcDbLine
 10
1305.838565846082
 20
-479.1461864016485
 30
0.0
 11
1303.291738603259
 21
-464.7024113617175
 31
0.0
  0
LINE
  5
1D4
330
1F
100
AcDbEntity
  8
D-B
  6
Continuous
 62
     2
370
     9
100
AcDbLine
 10
1309.58429050925
 20
-481.1935555010635
 30
0.0
 11
1310.741925154572
 21
-487.7588278188406
 31
0.0
  0
LINE
  5
1D5
330
1F
100
AcDbEntity
  8
D-B
  6
Continuous
 62
     2
370
     9
100
AcDbLine
 10
1310.741925154572
 20
-487.7588278188406
 30
0.0
 11
1312.597594443692
 21
-489.9703285876446
 31
0.0
  0
LINE
  5
1D6
330
1F
100
AcDbEntity
  8
D-9
  6
Continuous
 62
     7
370
     9
100
AcDbLine
 10
1320.486886274163
 20
-533.4272978440247
 30
0.0
 11
1351.672465119551
 21
-527.9284388845717
 31
0.0
  0
LINE
  5
1D7
330
1F
100
AcDbEntity
  8
D-0
  6
Continuous
 62
     4
370
     9
100
AcDbLine
 10
1329.557624154007
 20
-498.4884514253447
 30
0.0
 11
1319.228596445736
 21
-497.4973292005365
 31
0.0
  0
LINE
  5
1D8
330
1F
100
AcDbEntity
  8
D-0
  6
Continuous
 62
     4
370
     9
100
AcDbLine
 10
1366.424147156815
 20
-486.8160245631473
 30
0.0
 11
1321.754782934994
 21
-233.4834713580537
 31
0.0
  0
LINE
  5
1D9
330
1F
100
AcDbEntity
  8
D-6
  6
Continuous
 62
     2
370
     9
100
AcDbLine
 10
1308.927788009372
 20
-481.3093146046946
 30
0.0
 11
1305.454824456033
 21
-461.6131595444498
 31
0.0
  0
LINE
  5
1DA
330
1F
100
AcDbEntity
  8
D-0
  6
Continuous
 62
     4
370
     9
100
AcDbLine
 10
1361.981684832539
 20
-494.2546014869446
 30
0.0
 11
1366.424147156819
 21
-486.8160245631466
 31
0.0
  0
LINE
  5
1DB
330
1F
100
AcDbEntity
  8
D-9
  6
Continuous
 62
     7
370
     9
100
AcDbLine
 10
1348.841932325747
 20
-511.875689711241
 30
0.0
 11
1352.645850030251
 21
-533.4487790321195
 31
0.0
  0
LINE
  5
1DC
330
1F
100
AcDbEntity
  8
D-9
  6
Continuous
 62
     7
370
     9
100
AcDbLine
 10
1360.324833923241
 20
-515.5715756239932
 30
0.0
 11
1363.477067223707
 21
-533.4487790321195
 31
0.0
  0
LINE
  5
1DD
330
1F
100
AcDbEntity
  8
D-6
  6
Continuous
 62
     2
370
     9
100
AcDbLine
 10
1366.570422770646
 20
-520.2786275303472
 30
0.0
 11
1368.892675820427
 21
-533.4487790321195
 31
0.0
  0
LINE
  5
1DE
330
1F
100
AcDbEntity
  8
D-0
  6
Continuous
 62
     4
370
     9
100
AcDbLine
 10
1346.549913963081
 20
-498.8770076408197
 30
0.0
 11
1329.557624154007
 21
-498.4884514253447
 31
0.0
  0
CIRCLE
  5
1DF
330
1F
100
AcDbEntity
  8
D-0
  6
Continuous
 62
     4
370
     9
100
AcDbCircle
 10
1338.054805983395
 20
-560.1153687175084
 30
0.0
 40
9.0
  0
ARC
  5
1E0
330
1F
100
AcDbEntity
  8
D-0
  6
Continuous
 62
     2
370
     9
100
AcDbCircle
 10
1384.05510621038
 20
-544.1150849865118
 30
0.0
 40
10.66666519319689
100
AcDbArc
 50
0.0
 51
90.0
  0
ARC
  5
1E1
330
1F
100
AcDbEntity
  8
D-0
  6
Continuous
 62
     2
370
     9
100
AcDbCircle
 10
1357.388104125287
 20
-579.4486668593997
 30
0.0
 40
37.33332737072094
100
AcDbArc
 50
270.0
 51
0.0
  0
LINE
  5
1E2
330
1F
100
AcDbEntity
  8
D-0
  6
Continuous
 62
     2
370
     9
100
AcDbLine
 10
994.6743587066289
 20
-541.781727459062
 30
0.0
 11
994.6743587066289
 21
-714.3564770411012
 31
0.0
  0
TEXT
  5
1E3
330
1F
100
AcDbEntity
  8
D-5
  6
Continuous
 62
     2
370
     9
100
AcDbText
 10
1560.371203068846
 20
-532.0614909690009
 30
0.0
 40
30.48
  1
▽G.L.
 41
1.104166666666667
  7
ＭＳ ゴシック
100
AcDbText
  0
LINE
  5
1E4
330
1F
100
AcDbEntity
  8
D-6
  6
JWW_CENTER1
 62
     2
370
     9
100
AcDbLine
 10
1302.637477651617
 20
-472.264199918939
 30
0.0
 11
1314.413193752662
 21
-470.1878234531617
 31
0.0
  0
LINE
  5
1E5
330
1F
100
AcDbEntity
  8
D-6
  6
Continuous
 62
     2
370
     9
100
AcDbLine
 10
1313.139773783104
 20
-462.9658999310712
 30
0.0
 11
1303.291696252987
 21
-464.7023817077396
 31
0.0
  0
LINE
  5
1E6
330
1F
100
AcDbEntity
  8
D-B
  6
Continuous
 62
     2
370
     9
100
AcDbLine
 10
1311.084933149956
 20
-451.3123196060898
 30
0.0
 11
1305.941073238282
 21
-452.2193208935028
 31
0.0
  0
LINE
  5
1E7
330
1F
100
AcDbEntity
  8
D-6
  6
Continuous
 62
     2
370
     9
100
AcDbLine
 10
1312.676711975992
 20
-460.3397459230392
 30
0.0
 11
1305.454824456033
 21
-461.6131595444498
 31
0.0
  0
LINE
  5
1E8
330
1F
100
AcDbEntity
  8
D-0
  6
Continuous
 62
     4
370
     9
100
AcDbLine
 10
1297.146910596817
 20
-218.6986528152207
 30
0.0
 11
1305.829319480155
 21
-267.9390404657788
 31
0.0
  0
LINE
  5
1E9
330
1F
100
AcDbEntity
  8
D-6
  6
JWW_DASHED1
 62
     2
370
     9
100
AcDbLine
 10
1330.344238295522
 20
-531.7434143208636
 30
0.0
 11
1362.51462489392
 21
-526.0709071837441
 31
0.0
  0
LINE
  5
1EA
330
1F
100
AcDbEntity
  8
D-0
  6
Continuous
 62
     4
370
     9
100
AcDbLine
 10
1275.313302226958
 20
-248.4413194944127
 30
0.0
 11
1311.084933149956
 21
-451.3123196060898
 31
0.0
  0
LINE
  5
1EB
330
1F
100
AcDbEntity
  8
D-6
  6
Continuous
 62
     2
370
     9
100
AcDbLine
 10
1305.454860458159
 20
-461.6131531963036
 30
0.0
 11
1303.291738603259
 21
-464.7024113617175
 31
0.0
  0
LINE
  5
1EC
330
1F
100
AcDbEntity
  8
D-B
  6
Continuous
 62
     2
370
     9
100
AcDbLine
 10
1304.953692310588
 20
-454.9321281230399
 30
0.0
 11
1306.111326955911
 21
-461.4974004408188
 31
0.0
  0
LINE
  5
1ED
330
1F
100
AcDbEntity
  8
D-B
  6
Continuous
 62
     2
370
     9
100
AcDbLine
 10
1304.953692310588
 20
-454.9321281230399
 30
0.0
 11
1305.941073238282
 21
-452.2193208935028
 31
0.0
  0
ARC
  5
1EE
330
1F
100
AcDbEntity
  8
D-6
  6
Continuous
 62
     2
370
     9
100
AcDbCircle
 10
1361.646384005585
 20
-521.146868418682
 30
0.0
 40
5.0
100
AcDbArc
 50
280.0
 51
10.0
  0
ARC
  5
1EF
330
1F
100
AcDbEntity
  8
D-9
  6
Continuous
 62
     7
370
     9
100
AcDbCircle
 10
1349.820217891104
 20
-517.4238228524417
 30
0.0
 40
10.66666666666667
100
AcDbArc
 50
280.0
 51
10.0
  0
LINE
  5
1F0
330
1F
100
AcDbEntity
  8
D-0
  6
Continuous
 62
     4
370
     9
100
AcDbLine
 10
1302.286010889634
 20
-219.484868463507
 30
0.0
 11
1321.754782934994
 21
-233.4834713580537
 31
0.0
  0
LINE
  5
1F1
330
1F
100
AcDbEntity
  8
D-0
  6
Continuous
 62
     4
370
     9
100
AcDbLine
 10
1302.286010889634
 20
-219.484868463507
 30
0.0
 11
1297.146910596817
 21
-218.6986528152207
 31
0.0
  0
LINE
  5
1F2
330
1F
100
AcDbEntity
  8
D-0
  6
Continuous
 62
     4
370
     9
100
AcDbLine
 10
1300.996015048393
 20
-240.5280089132531
 30
0.0
 11
1275.313302226958
 21
-248.4413194944127
 31
0.0
  0
ARC
  5
1F3
330
1F
100
AcDbEntity
  8
D-6
  6
JWW_DASHED1
 62
     2
370
     9
100
AcDbCircle
 10
1333.238374589971
 20
-548.156876871067
 30
0.0
 40
16.66666666666666
100
AcDbArc
 50
100.0
 51
118.0562980526531
  0
LINE
  5
1F4
330
1F
100
AcDbEntity
  8
D-5
  6
Continuous
 62
     7
370
     9
100
AcDbLine
 10
1365.061804498945
 20
-194.7803477585884
 30
0.0
 11
1423.426794697648
 21
-194.7803477585884
 31
0.0
  0
TEXT
  5
1F5
330
1F
100
AcDbEntity
  8
D-5
  6
Continuous
 62
     7
370
     9
100
AcDbText
 10
1393.426794697648
 20
-183.8836810919218
 30
0.0
 40
22.86
  1
蓋
  7
ＭＳ ゴシック
100
AcDbText
  0
LINE
  5
1F6
330
1F
100
AcDbEntity
  8
D-5
  6
Continuous
 62
     7
370
     9
100
AcDbLine
 10
1326.658903808943
 20
-261.2961229116916
 30
0.0
 11
1365.061804498945
 21
-194.7803477585884
 31
0.0
  0
LINE
  5
1F7
330
1F
100
AcDbEntity
  8
D-4
  6
Continuous
 62
     7
370
     9
100
AcDbLine
 10
1326.658903808943
 20
-261.2961229116916
 30
0.0
 11
1341.877939534162
 21
-241.4622894044107
 31
0.0
  0
LINE
  5
1F8
330
1F
100
AcDbEntity
  8
D-4
  6
Continuous
 62
     7
370
     9
100
AcDbLine
 10
1326.658903808943
 20
-261.2961229116916
 30
0.0
 11
1336.225989618071
 21
-238.1991345989095
 31
0.0
  0
LINE
  5
1F9
330
1F
100
AcDbEntity
  8
D-0
  6
JWW_PHANTOM1
 62
     4
370
     9
100
AcDbLine
 10
996.3410253732959
 20
-536.8572265617672
 30
0.0
 11
994.6743587066289
 21
-541.781727459062
 31
0.0
  0
LINE
  5
1FA
330
1F
100
AcDbEntity
  8
D-0
  6
JWW_PHANTOM1
 62
     4
370
     9
100
AcDbLine
 10
1292.374123964657
 20
-541.7817274590618
 30
0.0
 11
1044.674358706576
 21
-541.7817274590618
 31
0.0
  0
LINE
  5
1FB
330
1F
100
AcDbEntity
  8
D-0
  6
JWW_PHANTOM1
 62
     4
370
     9
100
AcDbLine
 10
1290.112504688155
 20
-536.8572265617635
 30
0.0
 11
1277.302433742655
 21
-525.7817274590535
 31
0.0
  0
LINE
  5
1FC
330
1F
100
AcDbEntity
  8
D-0
  6
JWW_PHANTOM1
 62
     4
370
     9
100
AcDbLine
 10
1292.374123964657
 20
-541.7817274590619
 30
0.0
 11
1290.112504688155
 21
-536.8572265617635
 31
0.0
  0
LINE
  5
1FD
330
1F
100
AcDbEntity
  8
D-0
  6
JWW_PHANTOM1
 62
     2
370
     9
100
AcDbLine
 10
1308.674512669193
 20
-531.1150607923879
 30
0.0
 11
1283.471038673453
 21
-531.1150607923879
 31
0.0
  0
LINE
  5
1FE
330
1F
100
AcDbEntity
  8
D-0
  6
JWW_PHANTOM1
 62
     2
370
     9
100
AcDbLine
 10
1362.394435039643
 20
-525.7817274590534
 30
0.0
 11
1277.302433742656
 21
-525.7817274590534
 31
0.0
  0
ARC
  5
1FF
330
1F
100
AcDbEntity
  8
D-0
  6
JWW_PHANTOM1
 62
     2
370
     9
100
AcDbCircle
 10
1303.727922335536
 20
-530.7817274590594
 30
0.0
 40
5.0
100
AcDbArc
 50
0.0
 51
90.0
  0
LINE
  5
200
330
1F
100
AcDbEntity
  8
D-0
  6
JWW_PHANTOM1
 62
     2
370
     9
100
AcDbLine
 10
1308.727922335536
 20
-533.4487790321193
 30
0.0
 11
1308.727922335536
 21
-530.7817274590594
 31
0.0
  0
LINE
  5
201
330
1F
100
AcDbEntity
  8
D-0
  6
JWW_PHANTOM1
 62
     2
370
     9
100
AcDbLine
 10
1362.394435039643
 20
-533.4487790321193
 30
0.0
 11
1362.394435039643
 21
-525.7817274590594
 31
0.0
  0
ARC
  5
202
330
1F
100
AcDbEntity
  8
D-9
  6
JWW_PHANTOM1
 62
     7
370
     9
100
AcDbCircle
 10
1298.007846002517
 20
-541.7817274590631
 30
0.0
 40
10.66666666666667
100
AcDbArc
 50
51.37185507720768
 51
90.0
  0
LINE
  5
203
330
1F
100
AcDbEntity
  8
D-9
  6
JWW_PHANTOM1
 62
     7
370
     9
100
AcDbLine
 10
1362.394435039643
 20
-531.1150607923879
 30
0.0
 11
1308.674512669187
 21
-531.1150607923879
 31
0.0
  0
LINE
  5
204
330
1F
100
AcDbEntity
  8
D-9
  6
JWW_PHANTOM1
 62
     7
370
     9
100
AcDbLine
 10
1328.841102354572
 20
-533.4487790321193
 30
0.0
 11
1328.841102354572
 21
-531.1150607923939
 31
0.0
  0
LINE
  5
205
330
1F
100
AcDbEntity
  8
D-9
  6
JWW_PHANTOM1
 62
     7
370
     9
100
AcDbLine
 10
1347.174435687905
 20
-533.4487790321193
 30
0.0
 11
1347.174435687905
 21
-531.1150607923939
 31
0.0
  0
LINE
  5
206
330
1F
100
AcDbEntity
  8
D-9
  6
JWW_PHANTOM1
 62
     7
370
     9
100
AcDbLine
 10
1362.341025373295
 20
-533.4487790321193
 30
0.0
 11
1362.341025373295
 21
-531.1150607923939
 31
0.0
  0
LINE
  5
207
330
1F
100
AcDbEntity
  8
D-0
  6
JWW_PHANTOM1
 62
     4
370
     9
100
AcDbLine
 10
996.3410253732959
 20
-536.8572265617672
 30
0.0
 11
1011.798751209339
 21
-521.781727459057
 31
0.0
  0
LINE
  5
208
330
1F
100
AcDbEntity
  8
D-0
  6
JWW_PHANTOM1
 62
     4
370
     9
100
AcDbLine
 10
1272.675980044565
 20
-521.781727459057
 30
0.0
 11
1011.798751209339
 21
-521.781727459057
 31
0.0
  0
LINE
  5
209
330
1F
100
AcDbEntity
  8
D-0
  6
JWW_PHANTOM1
 62
     4
370
     9
100
AcDbLine
 10
1277.302433742657
 20
-525.7817274590539
 30
0.0
 11
1272.675980044565
 21
-521.781727459057
 31
0.0
  0
LINE
  5
20A
330
1F
100
AcDbEntity
  8
D-0
  6
Continuous
 62
     2
370
     9
100
AcDbLine
 10
1286.170248518582
 20
-533.4487790321193
 30
0.0
 11
1384.05510621038
 21
-533.4487790321193
 31
0.0
  0
LINE
  5
20B
330
1F
100
AcDbEntity
  8
D-1
  6
Continuous
 62
     3
370
     9
100
AcDbLine
 10
1016.054766393024
 20
-152.0937341236141
 30
0.0
 11
1016.054766393024
 21
-521.781727459057
 31
0.0
  0
LINE
  5
20C
330
1F
100
AcDbEntity
  8
D-1
  6
Continuous
 62
     3
370
     9
100
AcDbLine
 10
1270.389087286182
 20
-152.0937341236141
 30
0.0
 11
1270.389087286182
 21
-521.781727459057
 31
0.0
  0
LWPOLYLINE
  5
20D
330
1F
100
AcDbEntity
  8
D-4
  6
Continuous
 62
     7
370
     9
100
AcDbPolyline
 90
        4
 70
     1
 43
2.0
 10
898.576229830393
 20
-521.781727459057
 42
0.4142135623731
 10
897.5762298303931
 20
-520.7817274590569
 42
0.4142135623731
 10
896.5762298303932
 20
-521.781727459057
 42
0.4142135623731
 10
897.5762298303931
 20
-522.781727459057
 42
0.4142135623731
  0
LWPOLYLINE
  5
20E
330
1F
100
AcDbEntity
  8
D-4
  6
Continuous
 62
     7
370
     9
100
AcDbPolyline
 90
        4
 70
     1
 43
2.0
 10
898.576229830393
 20
-541.781727459062
 42
0.4142135623731
 10
897.5762298303931
 20
-540.781727459062
 42
0.4142135623731
 10
896.5762298303932
 20
-541.781727459062
 42
0.4142135623731
 10
897.5762298303931
 20
-542.781727459062
 42
0.4142135623731
  0
LINE
  5
20F
330
1F
100
AcDbEntity
  8
D-4
  6
Continuous
 62
     7
370
     9
100
AcDbLine
 10
894.5762298303931
 20
-521.781727459057
 30
0.0
 11
991.7987512093391
 21
-521.781727459057
 31
0.0
  0
ARC
  5
210
330
1F
100
AcDbEntity
  8
D-0
  6
JWW_PHANTOM1
 62
     4
370
     9
100
AcDbCircle
 10
1338.054805983395
 20
-560.1153687175084
 30
0.0
 40
343.8695304527364
100
AcDbArc
 50
96.83249790869047
 51
176.9437869049903
  0
LINE
  5
211
330
1F
100
AcDbEntity
  8
D-2
  6
Continuous
 62
     4
370
     9
100
AcDbLine
 10
923.7746807543168
 20
-302.0318376846596
 30
0.0
 11
923.7746807543168
 21
-342.032134612447
 31
0.0
  0
LINE
  5
212
330
1F
100
AcDbEntity
  8
D-2
  6
Continuous
 62
     4
370
     9
100
AcDbLine
 10
941.2752746098915
 20
-342.032134612447
 30
0.0
 11
923.7746807543168
 21
-342.032134612447
 31
0.0
  0
ARC
  5
213
330
1F
100
AcDbEntity
  8
D-2
  6
Continuous
 62
     4
370
     9
100
AcDbCircle
 10
948.7760004333727
 20
-322.0319861485538
 30
0.0
 40
11.66666681702073
100
AcDbArc
 50
310.0048065185547
 51
229.9951934814453
  0
LINE
  5
214
330
1F
100
AcDbEntity
  8
D-2
  6
Continuous
 62
     6
370
     9
100
AcDbLine
 10
956.2750766580341
 20
-326.1992851614331
 30
0.0
 11
956.2750766580341
 21
-385.3654459511293
 31
0.0
  0
LINE
  5
215
330
1F
100
AcDbEntity
  8
D-2
  6
Continuous
 62
     6
370
     9
100
AcDbLine
 10
941.2752746098915
 20
-326.1992851614331
 30
0.0
 11
941.2752746098915
 21
-385.3654459511293
 31
0.0
  0
LINE
  5
216
330
1F
100
AcDbEntity
  8
D-2
  6
JWW_CENTER1
 62
     6
370
     9
100
AcDbLine
 10
948.7760004333727
 20
-298.4076690824644
 30
0.0
 11
948.7760004333727
 21
-347.1302197581397
 31
0.0
  0
LINE
  5
217
330
1F
100
AcDbEntity
  8
D-2
  6
JWW_CENTER1
 62
     6
370
     9
100
AcDbLine
 10
958.3725415545705
 20
-326.1992851614331
 30
0.0
 11
938.886655522055
 21
-326.1992851614331
 31
0.0
  0
ARC
  5
218
330
1F
100
AcDbEntity
  8
D-2
  6
JWW_DASHED1
 62
     6
370
     9
100
AcDbCircle
 10
948.7760004333727
 20
-326.1992851614331
 30
0.0
 40
7.500000096656181
100
AcDbArc
 50
180.0
 51
0.0
  0
ARC
  5
219
330
1F
100
AcDbEntity
  8
D-2
  6
Continuous
 62
     6
370
     9
100
AcDbCircle
 10
948.7760004333727
 20
-326.1992851614331
 30
0.0
 40
7.500000096656181
100
AcDbArc
 50
0.0
 51
180.0
  0
LINE
  5
21A
330
1F
100
AcDbEntity
  8
D-2
  6
Continuous
 62
     6
370
     9
100
AcDbLine
 10
965.4418972872561
 20
-385.3654459511293
 30
0.0
 11
932.1084539806695
 21
-385.3654459511293
 31
0.0
  0
LINE
  5
21B
330
1F
100
AcDbEntity
  8
D-0
  6
JWW_CENTER2
 62
     7
370
     9
100
AcDbLine
 10
1363.775747494887
 20
-322.0319861485538
 30
0.0
 11
907.1079591010237
 21
-322.0319861485538
 31
0.0
  0
LINE
  5
21C
330
1F
100
AcDbEntity
  8
D-2
  6
Continuous
 62
     4
370
     9
100
AcDbLine
 10
983.7747137462945
 20
-302.0318376846596
 30
0.0
 11
983.7747137462945
 21
-342.032134612447
 31
0.0
  0
ARC
  5
21D
330
1F
100
AcDbEntity
  8
D-2
  6
Continuous
 62
     4
370
     9
100
AcDbCircle
 10
1342.108267026137
 20
-350.3659078387986
 30
0.0
 40
5.000000064437453
100
AcDbArc
 50
282.8906885358822
 51
0.0
  0
LINE
  5
21E
330
1F
100
AcDbEntity
  8
D-2
  6
Continuous
 62
     4
370
     9
100
AcDbLine
 10
1270.389087286182
 20
-342.032134612447
 30
0.0
 11
1291.815888078764
 21
-342.032134612447
 31
0.0
  0
LINE
  5
21F
330
1F
100
AcDbEntity
  8
D-2
  6
Continuous
 62
     4
370
     9
100
AcDbLine
 10
1270.389087286182
 20
-302.0318376846596
 30
0.0
 11
1284.762756494046
 21
-302.0318376846596
 31
0.0
  0
LINE
  5
220
330
1F
100
AcDbEntity
  8
D-2
  6
Continuous
 62
     4
370
     9
100
AcDbLine
 10
923.7746807543168
 20
-302.0318376846596
 30
0.0
 11
1016.054766393024
 21
-302.0318376846596
 31
0.0
  0
LINE
  5
221
330
1F
100
AcDbEntity
  8
D-2
  6
Continuous
 62
     4
370
     9
100
AcDbLine
 10
1016.054766393024
 20
-342.032134612447
 30
0.0
 11
956.2750766580341
 21
-342.032134612447
 31
0.0
  0
LINE
  5
222
330
1F
100
AcDbEntity
  8
D-2
  6
JWW_DASHED1
 62
     4
370
     9
100
AcDbLine
 10
1270.389087286182
 20
-342.032134612447
 30
0.0
 11
1016.054766393024
 21
-342.032134612447
 31
0.0
  0
LINE
  5
223
330
1F
100
AcDbEntity
  8
D-2
  6
JWW_DASHED1
 62
     4
370
     9
100
AcDbLine
 10
1270.389087286182
 20
-302.0318376846596
 30
0.0
 11
1016.054766393024
 21
-302.0318376846596
 31
0.0
  0
LINE
  5
224
330
1F
100
AcDbEntity
  8
D-2
  6
Continuous
 62
     6
370
     9
100
AcDbLine
 10
932.1084539806695
 20
-385.3654459511293
 30
0.0
 11
932.1084539806695
 21
-463.6982954021431
 31
0.0
  0
LINE
  5
225
330
1F
100
AcDbEntity
  8
D-2
  6
Continuous
 62
     6
370
     9
100
AcDbLine
 10
939.6091798041487
 20
-385.3654459511293
 30
0.0
 11
939.6091798041487
 21
-463.6982954021431
 31
0.0
  0
LINE
  5
226
330
1F
100
AcDbEntity
  8
D-2
  6
Continuous
 62
     6
370
     9
100
AcDbLine
 10
957.9419962631868
 20
-385.3654459511293
 30
0.0
 11
957.9419962631868
 21
-463.6982954021431
 31
0.0
  0
LINE
  5
227
330
1F
100
AcDbEntity
  8
D-2
  6
Continuous
 62
     6
370
     9
100
AcDbLine
 10
965.4418972872561
 20
-385.3654459511293
 30
0.0
 11
965.4418972872561
 21
-463.6982954021431
 31
0.0
  0
LINE
  5
228
330
1F
100
AcDbEntity
  8
D-2
  6
Continuous
 62
     6
370
     9
100
AcDbLine
 10
965.4418972872561
 20
-463.6982954021431
 30
0.0
 11
932.1084539806695
 21
-463.6982954021431
 31
0.0
  0
LINE
  5
229
330
1F
100
AcDbEntity
  8
D-5
  6
Continuous
 62
     7
370
     9
100
AcDbLine
 10
923.7746807543168
 20
-302.0318376846596
 30
0.0
 11
860.000392917904
 21
-191.5715309354708
 31
0.0
  0
LINE
  5
22A
330
1F
100
AcDbEntity
  8
D-5
  6
Continuous
 62
     7
370
     9
100
AcDbLine
 10
860.000392917904
 20
-191.5715309354708
 30
0.0
 11
545.626199045971
 21
-191.5715309354708
 31
0.0
  0
LINE
  5
22B
330
1F
100
AcDbEntity
  8
D-5
  6
Continuous
 62
     7
370
     9
100
AcDbLine
 10
923.7746807543168
 20
-302.0318376846596
 30
0.0
 11
914.2075949451895
 21
-278.9348493718774
 31
0.0
  0
LINE
  5
22C
330
1F
100
AcDbEntity
  8
D-5
  6
Continuous
 62
     7
370
     9
100
AcDbLine
 10
923.7746807543168
 20
-302.0318376846596
 30
0.0
 11
908.5556450290987
 21
-282.1980041773787
 31
0.0
  0
LINE
  5
22D
330
1F
100
AcDbEntity
  8
D-5
  6
Continuous
 62
     7
370
     9
100
AcDbLine
 10
932.1084539806695
 20
-398.8714545238678
 30
0.0
 11
922.5413681715422
 21
-421.9684428366498
 31
0.0
  0
LINE
  5
22E
330
1F
100
AcDbEntity
  8
D-5
  6
Continuous
 62
     7
370
     9
100
AcDbLine
 10
932.1084539806695
 20
-398.8714545238678
 30
0.0
 11
916.8894182554515
 21
-418.7052880311487
 31
0.0
  0
LINE
  5
22F
330
1F
100
AcDbEntity
  8
D-5
  6
Continuous
 62
     7
370
     9
100
AcDbLine
 10
932.1084539806695
 20
-398.8714545238678
 30
0.0
 11
893.4273247825901
 21
-465.7886331458552
 31
0.0
  0
LINE
  5
230
330
1F
100
AcDbEntity
  8
D-5
  6
Continuous
 62
     7
370
     9
100
AcDbLine
 10
893.4273247825901
 20
-465.7886331458552
 30
0.0
 11
649.8291215537149
 21
-465.7886331458552
 31
0.0
  0
TEXT
  5
231
330
1F
100
AcDbEntity
  8
D-5
  6
Continuous
 62
     7
370
     9
100
AcDbText
 10
650.9273247825901
 20
-454.8919664791885
 30
0.0
 40
22.86
  1
南京錠：CAC202
 41
1.154761904761905
  7
ＭＳ ゴシック
100
AcDbText
  0
LINE
  5
232
330
1F
100
AcDbEntity
  8
D-4
  6
Continuous
 62
     7
370
     9
100
AcDbLine
 10
894.5762298303931
 20
-541.781727459062
 30
0.0
 11
991.7987512093391
 21
-541.781727459062
 31
0.0
  0
TEXT
  5
233
330
1F
100
AcDbEntity
  8
D-5
  6
Continuous
 62
     7
370
     9
100
AcDbText
 10
547.5003909615444
 20
-180.6750088014027
 30
0.0
 40
22.86
  1
ロックピン：SCS13A
 50
0.0000264995451948
 41
1.157407407407406
  7
ＭＳ ゴシック
100
AcDbText
  0
ARC
  5
234
330
1F
100
AcDbEntity
  8
D-2
  6
Continuous
 62
     4
370
     9
100
AcDbCircle
 10
1342.108267026137
 20
-293.698064458309
 30
0.0
 40
5.000000064437453
100
AcDbArc
 50
0.0
 51
77.1093114641178
  0
LINE
  5
235
330
1F
100
AcDbEntity
  8
D-2
  6
Continuous
 62
     4
370
     9
100
AcDbLine
 10
1347.109025841592
 20
-293.698064458309
 30
0.0
 11
1347.109025841592
 21
-350.3659078387986
 31
0.0
  0
LINE
  5
236
330
1F
100
AcDbEntity
  8
D-2
  6
Continuous
 62
     4
370
     9
100
AcDbLine
 10
1343.223725535807
 20
-288.8240770806499
 30
0.0
 11
1331.512824852637
 21
-288.8240770806499
 31
0.0
  0
TEXT
  5
237
330
1F
100
AcDbEntity
  8
D-4
  6
Continuous
 62
     2
370
   211
100
AcDbText
 10
881.9362298303931
 20
-611.4326722988507
 30
0.0
 40
30.48
  1
6.5
 50
90.0
 41
1.083333333333333
  7
ＭＳ ゴシック
100
AcDbText
  0
LINE
  5
238
330
1F
100
AcDbEntity
  8
D-4
  6
Continuous
 62
     7
370
     9
100
AcDbLine
 10
897.5762298303931
 20
-521.781727459057
 30
0.0
 11
897.5762298303931
 21
-612.0106864832478
 31
0.0
  0
LINE
  5
239
330
1F
100
AcDbEntity
  8
D-5
  6
Continuous
 62
     7
370
     9
100
AcDbLine
 10
835.2219285692429
 20
242.0192158189316
 30
0.0
 11
1451.221928569242
 21
242.0192158189316
 31
0.0
  0
LINE
  5
23A
330
1F
100
AcDbEntity
  8
D-5
  6
Continuous
 62
     7
370
     9
100
AcDbLine
 10
835.2219285692429
 20
172.0192158189316
 30
0.0
 11
1451.221928569242
 21
172.0192158189316
 31
0.0
  0
LINE
  5
23B
330
1F
100
AcDbEntity
  8
D-5
  6
Continuous
 62
     7
370
     9
100
AcDbLine
 10
835.2219285692429
 20
242.0192158189316
 30
0.0
 11
835.2219285692429
 21
172.0192158189316
 31
0.0
  0
LINE
  5
23C
330
1F
100
AcDbEntity
  8
D-5
  6
Continuous
 62
     7
370
     9
100
AcDbLine
 10
1451.221928569242
 20
242.0192158189316
 30
0.0
 11
1451.221928569242
 21
172.0192158189316
 31
0.0
  0
TEXT
  5
23D
330
1F
100
AcDbEntity
  8
D-5
  6
Continuous
 62
     2
370
     9
100
AcDbText
 10
853.221928569243
 20
192.6592158189316
 30
0.0
 40
30.48
  1
フック部詳細図　Ｓ＝１：３
 41
1.115384615384615
  7
ＭＳ ゴシック
100
AcDbText
  0
LINE
  5
23E
330
1F
100
AcDbEntity
  8
D-2
  6
Continuous
 62
     3
370
     9
100
AcDbLine
 10
1016.055261326029
 20
829.4924460477181
 30
0.0
 11
1270.388592353176
 21
829.4924460477181
 31
0.0
  0
LINE
  5
23F
330
1F
100
AcDbEntity
  8
D-2
  6
Continuous
 62
     3
370
     9
100
AcDbLine
 10
1016.055261325906
 20
352.8255470444205
 30
0.0
 11
1016.055261325906
 21
833.9606940324388
 31
0.0
  0
ARC
  5
240
330
1F
100
AcDbEntity
  8
D-2
  6
Continuous
 62
     3
370
     9
100
AcDbCircle
 10
1143.221926839602
 20
645.3508537862451
 30
0.0
 40
227.475345159794
100
AcDbArc
 50
56.01091647065034
 51
123.9890835293496
  0
LINE
  5
241
330
1F
100
AcDbEntity
  8
D-A
  6
JWW_CENTER1
 62
     7
370
     9
100
AcDbLine
 10
1244.150568168723
 20
539.4922129253011
 30
0.0
 11
1415.196949954152
 21
539.4922129252489
 31
0.0
  0
LINE
  5
242
330
1F
100
AcDbEntity
  8
D-A
  6
JWW_CENTER1
 62
     7
370
     9
100
AcDbLine
 10
1331.445258466099
 20
424.4251177143558
 30
0.0
 11
1331.445258466099
 21
654.5593081361919
 31
0.0
  0
LINE
  5
243
330
1F
100
AcDbEntity
  8
D-2
  6
Continuous
 62
     3
370
     9
100
AcDbLine
 10
1331.445258466099
 20
472.8255468630703
 30
0.0
 11
1331.445258466099
 21
472.8588801961012
 31
0.0
  0
ARC
  5
244
330
1F
100
AcDbEntity
  8
D-2
  6
Continuous
 62
     3
370
     9
100
AcDbCircle
 10
1331.445258466099
 20
515.1022131464326
 30
0.0
 40
42.27666628336208
100
AcDbArc
 50
270.0
 51
0.0
  0
ARC
  5
245
330
1F
100
AcDbEntity
  8
D-2
  6
Continuous
 62
     3
370
     9
100
AcDbCircle
 10
1331.445258466099
 20
515.1022131464326
 30
0.0
 40
62.27666610202914
100
AcDbArc
 50
270.0
 51
0.0
  0
LINE
  5
246
330
1F
100
AcDbEntity
  8
D-2
  6
Continuous
 62
     3
370
     9
100
AcDbLine
 10
1290.388592171695
 20
537.8255462737382
 30
0.0
 11
1290.388592171695
 21
505.0192242629878
 31
0.0
  0
LINE
  5
247
330
1F
100
AcDbEntity
  8
D-2
  6
Continuous
 62
     3
370
     9
100
AcDbLine
 10
1270.388592353002
 20
537.8255462737382
 30
0.0
 11
1290.388592171671
 21
537.8255462737382
 31
0.0
  0
ARC
  5
248
330
1F
100
AcDbEntity
  8
D-2
  6
Continuous
 62
     3
370
     9
100
AcDbCircle
 10
1331.445258466099
 20
515.1022131464326
 30
0.0
 40
42.27666628336208
100
AcDbArc
 50
193.7980315976056
 51
270.0
  0
ARC
  5
249
330
1F
100
AcDbEntity
  8
D-2
  6
Continuous
 62
     3
370
     9
100
AcDbCircle
 10
1331.445258466099
 20
515.1022131464326
 30
0.0
 40
62.27666610202914
100
AcDbArc
 50
191.3596882805108
 51
270.0
  0
ARC
  5
24A
330
1F
100
AcDbEntity
  8
D-2
  6
Continuous
 62
     3
370
     9
100
AcDbCircle
 10
1331.445258466099
 20
563.8822127041537
 30
0.0
 40
42.27666628336208
100
AcDbArc
 50
0.0
 51
90.0
  0
ARC
  5
24B
330
1F
100
AcDbEntity
  8
D-2
  6
Continuous
 62
     3
370
     9
100
AcDbCircle
 10
1331.445258466099
 20
563.8822127041537
 30
0.0
 40
62.27666610202914
100
AcDbArc
 50
0.0
 51
90.0
  0
ARC
  5
24C
330
1F
100
AcDbEntity
  8
D-2
  6
Continuous
 62
     3
370
     9
100
AcDbCircle
 10
1331.445258466099
 20
563.8822127041537
 30
0.0
 40
42.27666628336208
100
AcDbArc
 50
90.0
 51
166.2019684023945
  0
ARC
  5
24D
330
1F
100
AcDbEntity
  8
D-2
  6
Continuous
 62
     3
370
     9
100
AcDbCircle
 10
1331.445258466099
 20
563.8822127041537
 30
0.0
 40
62.27666610202914
100
AcDbArc
 50
90.0
 51
168.6403117194892
  0
LINE
  5
24E
330
1F
100
AcDbEntity
  8
D-2
  6
Continuous
 62
     3
370
     9
100
AcDbLine
 10
1270.388592353052
 20
541.1588795768482
 30
0.0
 11
1290.388592171695
 21
541.1588795768369
 31
0.0
  0
LINE
  5
24F
330
1F
100
AcDbEntity
  8
D-2
  6
Continuous
 62
     3
370
     9
100
AcDbLine
 10
1373.721924749449
 20
515.1022131464326
 30
0.0
 11
1373.721924749449
 21
563.8822127041537
 31
0.0
  0
LINE
  5
250
330
1F
100
AcDbEntity
  8
D-2
  6
Continuous
 62
     3
370
     9
100
AcDbLine
 10
1393.721924568117
 20
515.1022131464326
 30
0.0
 11
1393.721924568117
 21
563.8822127041537
 31
0.0
  0
LINE
  5
251
330
1F
100
AcDbEntity
  8
D-4
  6
Continuous
 62
     7
370
     9
100
AcDbLine
 10
1393.721924568129
 20
930.6273606991056
 30
0.0
 11
1270.388592353176
 21
930.6273606991056
 31
0.0
  0
LWPOLYLINE
  5
252
330
1F
100
AcDbEntity
  8
D-4
  6
Continuous
 62
     7
370
     9
100
AcDbPolyline
 90
        4
 70
     1
 43
2.0
 10
1394.721924568129
 20
930.6273606991056
 42
0.4142135623731
 10
1393.721924568129
 20
931.6273606991056
 42
0.4142135623731
 10
1392.721924568129
 20
930.6273606991056
 42
0.4142135623731
 10
1393.721924568129
 20
929.6273606991056
 42
0.4142135623731
  0
LWPOLYLINE
  5
253
330
1F
100
AcDbEntity
  8
D-4
  6
Continuous
 62
     7
370
     9
100
AcDbPolyline
 90
        4
 70
     1
 43
2.0
 10
1271.388592353175
 20
930.6273606991056
 42
0.4142135623731
 10
1270.388592353176
 20
931.6273606991056
 42
0.4142135623731
 10
1269.388592353176
 20
930.6273606991056
 42
0.4142135623731
 10
1270.388592353176
 20
929.6273606991056
 42
0.4142135623731
  0
LINE
  5
254
330
1F
100
AcDbEntity
  8
D-4
  6
Continuous
 62
     7
370
     9
100
AcDbLine
 10
1393.721924568129
 20
933.6273606991056
 30
0.0
 11
1393.721924568129
 21
583.8822127041537
 31
0.0
  0
LINE
  5
255
330
1F
100
AcDbEntity
  8
D-4
  6
Continuous
 62
     7
370
     9
100
AcDbLine
 10
1270.388592353176
 20
933.6273606991056
 30
0.0
 11
1270.388592353176
 21
853.960694032523
 31
0.0
  0
TEXT
  5
256
330
1F
100
AcDbEntity
  8
D-4
  6
Continuous
 62
     2
370
   211
100
AcDbText
 10
1310.805258460652
 20
946.2673606991056
 30
0.0
 40
30.48
  1
37
 41
1.0625
  7
ＭＳ ゴシック
100
AcDbText
  0
LINE
  5
257
330
1F
100
AcDbEntity
  8
D-4
  6
Continuous
 62
     7
370
     9
100
AcDbLine
 10
1557.76467265645
 20
872.8261989460391
 30
0.0
 11
1557.76467265645
 21
539.4922129252489
 31
0.0
  0
LWPOLYLINE
  5
258
330
1F
100
AcDbEntity
  8
D-4
  6
Continuous
 62
     7
370
     9
100
AcDbPolyline
 90
        4
 70
     1
 43
2.0
 10
1558.76467265645
 20
872.8261989460391
 42
0.4142135623731
 10
1557.76467265645
 20
873.8261989460391
 42
0.4142135623731
 10
1556.76467265645
 20
872.8261989460391
 42
0.4142135623731
 10
1557.76467265645
 20
871.8261989460392
 42
0.4142135623731
  0
LWPOLYLINE
  5
259
330
1F
100
AcDbEntity
  8
D-4
  6
Continuous
 62
     7
370
     9
100
AcDbPolyline
 90
        4
 70
     1
 43
2.0
 10
1558.76467265645
 20
539.4922129252489
 42
0.4142135623731
 10
1557.76467265645
 20
540.4922129252489
 42
0.4142135623731
 10
1556.76467265645
 20
539.4922129252489
 42
0.4142135623731
 10
1557.76467265645
 20
538.4922129252489
 42
0.4142135623731
  0
LINE
  5
25A
330
1F
100
AcDbEntity
  8
D-4
  6
Continuous
 62
     7
370
     9
100
AcDbLine
 10
1560.76467265645
 20
872.8261989460391
 30
0.0
 11
1163.221926839602
 21
872.8261989460391
 31
0.0
  0
TEXT
  5
25B
330
1F
100
AcDbEntity
  8
D-4
  6
Continuous
 62
     2
370
   211
100
AcDbText
 10
1542.12467265645
 20
673.659205935644
 30
0.0
 40
30.48
  1
100
 50
90.0
 41
1.083333333333333
  7
ＭＳ ゴシック
100
AcDbText
  0
LINE
  5
25C
330
1F
100
AcDbEntity
  8
D-4
  6
Continuous
 62
     7
370
     9
100
AcDbLine
 10
1560.76467265645
 20
539.4922129252489
 30
0.0
 11
1507.76467265645
 21
539.4922129252489
 31
0.0
  0
LINE
  5
25D
330
1F
100
AcDbEntity
  8
D-4
  6
Continuous
 62
     7
370
     9
100
AcDbLine
 10
1490.517278703511
 20
452.8255470444034
 30
0.0
 11
1490.517278703511
 21
626.1588788061829
 31
0.0
  0
LWPOLYLINE
  5
25E
330
1F
100
AcDbEntity
  8
D-4
  6
Continuous
 62
     7
370
     9
100
AcDbPolyline
 90
        4
 70
     1
 43
2.0
 10
1491.517278703511
 20
452.8255470444034
 42
0.4142135623731
 10
1490.517278703511
 20
453.8255470444034
 42
0.4142135623731
 10
1489.517278703511
 20
452.8255470444034
 42
0.4142135623731
 10
1490.517278703511
 20
451.8255470444034
 42
0.4142135623731
  0
LWPOLYLINE
  5
25F
330
1F
100
AcDbEntity
  8
D-4
  6
Continuous
 62
     7
370
     9
100
AcDbPolyline
 90
        4
 70
     1
 43
2.0
 10
1491.517278703511
 20
626.1588788061829
 42
0.4142135623731
 10
1490.517278703511
 20
627.1588788061829
 42
0.4142135623731
 10
1489.517278703511
 20
626.1588788061829
 42
0.4142135623731
 10
1490.517278703511
 20
625.1588788061829
 42
0.4142135623731
  0
LINE
  5
260
330
1F
100
AcDbEntity
  8
D-4
  6
Continuous
 62
     7
370
     9
100
AcDbLine
 10
1493.517278703511
 20
452.8255470444034
 30
0.0
 11
1351.445258466099
 21
452.8255470444034
 31
0.0
  0
LINE
  5
261
330
1F
100
AcDbEntity
  8
D-4
  6
Continuous
 62
     7
370
     9
100
AcDbLine
 10
1493.517278703511
 20
626.1588788061829
 30
0.0
 11
1351.445258466099
 21
626.1588788061829
 31
0.0
  0
LINE
  5
262
330
1F
100
AcDbEntity
  8
D-2
  6
Continuous
 62
     3
370
     9
100
AcDbLine
 10
1290.388592171695
 20
541.1588795768482
 30
0.0
 11
1290.388592171695
 21
573.9652015875997
 31
0.0
  0
LINE
  5
263
330
1F
100
AcDbEntity
  8
D-2
  6
Continuous
 62
     3
370
     9
100
AcDbLine
 10
1270.388592353176
 20
352.8255470444203
 30
0.0
 11
1270.388592353176
 21
833.9606940324388
 31
0.0
  0
LINE
  5
264
330
1F
100
AcDbEntity
  8
D-5
  6
Continuous
 62
     7
370
     9
100
AcDbLine
 10
835.2219285692429
 20
-822.2773719164162
 30
0.0
 11
1451.221928569242
 21
-822.2773719164162
 31
0.0
  0
LINE
  5
265
330
1F
100
AcDbEntity
  8
D-5
  6
Continuous
 62
     7
370
     9
100
AcDbLine
 10
835.2219285692429
 20
-892.2773719164162
 30
0.0
 11
1451.221928569242
 21
-892.2773719164162
 31
0.0
  0
LINE
  5
266
330
1F
100
AcDbEntity
  8
D-5
  6
Continuous
 62
     7
370
     9
100
AcDbLine
 10
835.2219285692429
 20
-822.2773719164162
 30
0.0
 11
835.2219285692429
 21
-892.2773719164162
 31
0.0
  0
LINE
  5
267
330
1F
100
AcDbEntity
  8
D-5
  6
Continuous
 62
     7
370
     9
100
AcDbLine
 10
1451.221928569242
 20
-822.2773719164162
 30
0.0
 11
1451.221928569242
 21
-892.2773719164162
 31
0.0
  0
TEXT
  5
268
330
1F
100
AcDbEntity
  8
D-5
  6
Continuous
 62
     2
370
     9
100
AcDbText
 10
853.221928569243
 20
-871.6373719164163
 30
0.0
 40
30.48
  1
南京錠部詳細図　Ｓ＝１：３
 41
1.115384615384615
  7
ＭＳ ゴシック
100
AcDbText
  0
LINE
  5
269
330
1F
100
AcDbEntity
  8
D-4
  6
Continuous
 62
     7
370
     9
100
AcDbLine
 10
1393.721924567968
 20
557.4802707289259
 30
0.0
 11
1373.721924749449
 21
557.4802707289259
 31
0.0
  0
LWPOLYLINE
  5
26A
330
1F
100
AcDbEntity
  8
D-4
  6
Continuous
 62
     7
370
     9
100
AcDbPolyline
 90
        4
 70
     1
 43
2.0
 10
1394.721924567968
 20
557.4802707289259
 42
0.4142135623731
 10
1393.721924567968
 20
558.480270728926
 42
0.4142135623731
 10
1392.721924567968
 20
557.4802707289259
 42
0.4142135623731
 10
1393.721924567968
 20
556.4802707289259
 42
0.4142135623731
  0
LWPOLYLINE
  5
26B
330
1F
100
AcDbEntity
  8
D-4
  6
Continuous
 62
     7
370
     9
100
AcDbPolyline
 90
        4
 70
     1
 43
2.0
 10
1374.721924749449
 20
557.4802707289259
 42
0.4142135623731
 10
1373.721924749449
 20
558.480270728926
 42
0.4142135623731
 10
1372.721924749449
 20
557.4802707289259
 42
0.4142135623731
 10
1373.721924749449
 20
556.4802707289259
 42
0.4142135623731
  0
LINE
  5
26C
330
1F
100
AcDbEntity
  8
D-4
  6
Continuous
 62
     7
370
     9
100
AcDbLine
 10
1470.431760912746
 20
557.4802707289259
 30
0.0
 11
1393.721924567968
 21
557.4802707289259
 31
0.0
  0
TEXT
  5
26D
330
1F
100
AcDbEntity
  8
D-4
  6
Continuous
 62
     2
370
   211
100
AcDbText
 10
1399.576842740357
 20
573.1202707289259
 30
0.0
 40
30.48
  1
φ6
 41
1.083333333333333
  7
ＭＳ ゴシック
100
AcDbText
  0
TEXT
  5
26E
330
1F
100
AcDbEntity
  8
D-4
  6
Continuous
 62
     2
370
   211
100
AcDbText
 10
1474.877278703511
 20
506.2064606140709
 30
0.0
 40
30.48
  1
52
 50
90.0
 41
1.0625
  7
ＭＳ ゴシック
100
AcDbText
  0
TEXT
  5
26F
330
1F
100
AcDbEntity
  8
F-5ﾚｲﾔ
  6
Continuous
 62
     2
370
     0
100
AcDbText
 10
-778.5003505397486
 20
-1370.637217473965
 30
0.0
 40
30.48
  1
脱着式　鋳鉄製蓋　鍵付　片フック付　ＥＡ０７８５ＲＥ－ＨＤＬ
 41
0.8991666666666664
  7
ＭＳ ゴシック
100
AcDbText
  0
LINE
  5
270
330
1F
100
AcDbEntity
  8
D-0
  6
JWW_CENTER2
 62
     7
370
     9
100
AcDbLine
 10
1143.221926839602
 20
-152.0937341236141
 30
0.0
 11
1143.221926839602
 21
-714.3564770411012
 31
0.0
  0
LINE
  5
271
330
1F
100
AcDbEntity
  8
D-0
  6
JWW_CENTER2
 62
     7
370
     9
100
AcDbLine
 10
1143.221926839602
 20
352.8255470444205
 30
0.0
 11
1143.221926839602
 21
925.7763317345631
 31
0.0
  0
TEXT
  5
272
330
1F
100
AcDbEntity
  8
F-5ﾚｲﾔ
  6
Continuous
 62
     2
370
     0
100
AcDbText
 10
-778.5003505397486
 20
-1326.363350089075
 30
0.0
 40
30.48
  1
車止め　ステンレス製
 41
0.8975
  7
ＭＳ ゴシック
100
AcDbText
  0
LINE
  5
273
330
1F
100
AcDbEntity
  8
D-6
  6
Continuous
 62
     6
370
     9
100
AcDbLine
 10
994.6743587066289
 20
-541.781727459062
 30
0.0
 11
689.9829051965055
 21
-541.781727459062
 31
0.0
  0
LINE
  5
274
330
1F
100
AcDbEntity
  8
D-6
  6
Continuous
 62
     6
370
     9
100
AcDbLine
 10
1394.463429273816
 20
-541.7817274590623
 30
0.0
 11
1701.736328077302
 21
-541.7817274590623
 31
0.0
  0
ENDSEC
  0
SECTION
  2
OBJECTS
  0
DICTIONARY
  5
C
330
0
100
AcDbDictionary
281
     1
  3
ACAD_DETAILVIEWSTYLE
350
2BA
  3
ACAD_GROUP
350
D
  3
ACAD_LAYOUT
350
1A
  3
ACAD_MATERIAL
350
43
  3
ACAD_MLEADERSTYLE
350
6B
  3
ACAD_MLINESTYLE
350
17
  3
ACAD_PLOTSETTINGS
350
19
  3
ACAD_PLOTSTYLENAME
350
E
  3
ACAD_SCALELIST
350
47
  3
ACAD_SECTIONVIEWSTYLE
350
2BB
  3
ACAD_TABLESTYLE
350
69
  3
ACAD_VISUALSTYLE
350
2A
  3
ACDB_RECOMPOSE_DATA
350
2B7
  3
AcDbVariableDictionary
350
277
  0
DICTIONARY
  5
275
330
8
100
AcDbDictionary
280
     1
281
     1
  3
ACAD_XREC_ROUNDTRIP
360
276
  0
DICTIONARY
  5
2BA
102
{ACAD_REACTORS
330
C
102
}
330
C
100
AcDbDictionary
281
     1
  0
DICTIONARY
  5
D
102
{ACAD_REACTORS
330
C
102
}
330
C
100
AcDbDictionary
281
     1
  0
DICTIONARY
  5
1A
102
{ACAD_REACTORS
330
C
102
}
330
C
100
AcDbDictionary
281
     1
  3
Layout1
350
1E
  3
Layout2
350
26
  3
Model
350
22
  0
DICTIONARY
  5
43
102
{ACAD_REACTORS
330
C
102
}
330
C
100
AcDbDictionary
281
     1
  3
ByBlock
350
45
  3
ByLayer
350
44
  3
Global
350
46
  0
DICTIONARY
  5
6B
102
{ACAD_REACTORS
330
C
102
}
330
C
100
AcDbDictionary
281
     1
  3
Standard
350
6C
  0
DICTIONARY
  5
17
102
{ACAD_REACTORS
330
C
102
}
330
C
100
AcDbDictionary
281
     1
  3
Standard
350
18
  0
DICTIONARY
  5
19
102
{ACAD_REACTORS
330
C
102
}
330
C
100
AcDbDictionary
281
     1
  0
ACDBDICTIONARYWDFLT
  5
E
102
{ACAD_REACTORS
330
C
102
}
330
C
100
AcDbDictionary
281
     1
  3
Normal
350
F
100
AcDbDictionaryWithDefault
340
F
  0
DICTIONARY
  5
47
102
{ACAD_REACTORS
330
C
102
}
330
C
100
AcDbDictionary
281
     1
  3
A0
350
48
  3
A1
350
49
  3
A2
350
4A
  3
A3
350
4B
  3
A4
350
4C
  3
A5
350
4D
  3
A6
350
4E
  3
A7
350
4F
  3
A8
350
50
  3
A9
350
51
  3
B0
350
52
  3
B1
350
53
  3
B2
350
54
  3
B3
350
55
  3
B4
350
56
  3
B5
350
57
  3
B6
350
58
  3
B7
350
59
  3
B8
350
5A
  3
B9
350
5B
  3
C0
350
5C
  3
C1
350
5D
  3
C2
350
5E
  3
C3
350
5F
  3
C4
350
60
  3
C5
350
61
  3
C6
350
62
  3
C7
350
63
  3
C8
350
64
  3
C9
350
65
  3
D0
350
66
  3
D1
350
67
  3
D2
350
68
  0
DICTIONARY
  5
2BB
102
{ACAD_REACTORS
330
C
102
}
330
C
100
AcDbDictionary
281
     1
  0
DICTIONARY
  5
69
102
{ACAD_REACTORS
330
C
102
}
330
C
100
AcDbDictionary
281
     1
  3
Standard
350
6A
  0
DICTIONARY
  5
2A
102
{ACAD_REACTORS
330
C
102
}
330
C
100
AcDbDictionary
281
     1
  3
2dWireframe
350
2F
  3
Basic
350
32
  3
Brighten
350
36
  3
ColorChange
350
3A
  3
Conceptual
350
34
  3
Dim
350
35
  3
EdgeColorOff
350
3D
  3
Facepattern
350
39
  3
Flat
350
2B
  3
FlatWithEdges
350
2C
  3
Gouraud
350
2D
  3
GouraudWithEdges
350
2E
  3
Hidden
350
31
  3
JitterOff
350
3B
  3
Linepattern
350
38
  3
OverhangOff
350
3C
  3
Realistic
350
33
  3
Shaded
350
42
  3
Shaded with edges
350
41
  3
Shades of Gray
350
3E
  3
Sketchy
350
3F
  3
Thicken
350
37
  3
Wireframe
350
30
  3
X-Ray
350
40
  0
XRECORD
  5
2B7
102
{ACAD_REACTORS
330
C
102
}
330
C
100
AcDbXrecord
280
     1
 90
        1
330
6A
  0
DICTIONARY
  5
277
102
{ACAD_REACTORS
330
C
102
}
330
C
100
AcDbDictionary
281
     1
  3
CANNOSCALE
350
278
  3
CENTEREXE
350
2BC
  3
CENTERLTYPEFILE
350
2BD
  3
CMLEADERSTYLE
350
2B9
  3
CTABLESTYLE
350
2B8
  3
MSLTSCALE
350
279
  3
XCLIPFRAME
350
27A
  0
XRECORD
  5
276
102
{ACAD_REACTORS
330
275
102
}
330
275
100
AcDbXrecord
280
     1
102
VTR_0.000_0.000_1.000_1.000_VISUALSTYLE
340
2F
102
VTR_0.000_0.000_1.000_1.000_GRIDDISPLAY
 70
     3
102
VTR_0.000_0.000_1.000_1.000_GRIDMAJOR
 70
     5
102
VTR_0.000_0.000_1.000_1.000_DEFAULTLIGHTING
280
     1
102
VTR_0.000_0.000_1.000_1.000_DEFAULTLIGHTINGTYPE
 70
     1
102
VTR_0.000_0.000_1.000_1.000_BRIGHTNESS
141
0.0
102
VTR_0.000_0.000_1.000_1.000_CONTRAST
142
0.0
  0
LAYOUT
  5
1E
102
{ACAD_REACTORS
330
1A
102
}
330
1A
100
AcDbPlotSettings
  1

  2
none_device
  4

  6

 40
0.0
 41
0.0
 42
0.0
 43
0.0
 44
0.0
 45
0.0
 46
0.0
 47
0.0
 48
0.0
 49
0.0
140
0.0
141
0.0
142
1.0
143
1.0
 70
   688
 72
     1
 73
     0
 74
     5
  7

 75
    16
 76
     0
 77
     5
 78
   300
147
1.0
148
0.0
149
0.0
100
AcDbLayout
  1
Layout1
 70
     1
 71
     1
 10
0.0
 20
0.0
 11
420.0
 21
297.0
 12
0.0
 22
0.0
 32
0.0
 14
1.000000000000000E+20
 24
1.000000000000000E+20
 34
1.000000000000000E+20
 15
-1.000000000000000E+20
 25
-1.000000000000000E+20
 35
-1.000000000000000E+20
146
0.0
 13
0.0
 23
0.0
 33
0.0
 16
1.0
 26
0.0
 36
0.0
 17
0.0
 27
1.0
 37
0.0
 76
     0
330
1B
  0
LAYOUT
  5
26
102
{ACAD_REACTORS
330
1A
102
}
330
1A
100
AcDbPlotSettings
  1

  2
none_device
  4

  6

 40
0.0
 41
0.0
 42
0.0
 43
0.0
 44
0.0
 45
0.0
 46
0.0
 47
0.0
 48
0.0
 49
0.0
140
0.0
141
0.0
142
1.0
143
1.0
 70
   688
 72
     1
 73
     0
 74
     5
  7

 75
    16
 76
     0
 77
     5
 78
   300
147
1.0
148
0.0
149
0.0
100
AcDbLayout
  1
Layout2
 70
     1
 71
     2
 10
0.0
 20
0.0
 11
0.0
 21
0.0
 12
0.0
 22
0.0
 32
0.0
 14
0.0
 24
0.0
 34
0.0
 15
0.0
 25
0.0
 35
0.0
146
0.0
 13
0.0
 23
0.0
 33
0.0
 16
1.0
 26
0.0
 36
0.0
 17
0.0
 27
1.0
 37
0.0
 76
     0
330
23
  0
LAYOUT
  5
22
102
{ACAD_REACTORS
330
1A
102
}
330
1A
100
AcDbPlotSettings
  1

  2
none_device
  4
Letter_(8.50_x_11.00_Inches)
  6

 40
6.35
 41
6.35
 42
6.35000508
 43
6.35000508
 44
215.9
 45
279.4
 46
0.0
 47
0.0
 48
0.0
 49
0.0
140
0.0
141
0.0
142
1.0
143
1.0
 70
  1712
 72
     1
 73
     0
 74
     0
  7

 75
     0
 76
     0
 77
     5
 78
   300
147
1.0
148
0.0
149
0.0
100
AcDbLayout
  1
Model
 70
     1
 71
     0
 10
-2100.0
 20
-1485.0
 11
2100.0
 21
1485.0
 12
0.0
 22
0.0
 32
0.0
 14
-2100.0
 24
-1485.0
 34
0.0
 15
2100.0
 25
1485.0
 35
0.0
146
0.0
 13
0.0
 23
0.0
 33
0.0
 16
1.0
 26
0.0
 36
0.0
 17
0.0
 27
1.0
 37
0.0
 76
     0
330
1F
331
29
  0
MATERIAL
  5
45
102
{ACAD_REACTORS
330
43
102
}
102
{ACAD_XDICTIONARY
360
2AD
102
}
330
43
100
AcDbMaterial
  1
ByBlock
  0
MATERIAL
  5
44
102
{ACAD_REACTORS
330
43
102
}
102
{ACAD_XDICTIONARY
360
2AB
102
}
330
43
100
AcDbMaterial
  1
ByLayer
  0
MATERIAL
  5
46
102
{ACAD_REACTORS
330
43
102
}
102
{ACAD_XDICTIONARY
360
2AF
102
}
330
43
100
AcDbMaterial
  1
Global
  0
MLEADERSTYLE
  5
6C
102
{ACAD_REACTORS
330
6B
102
}
102
{ACAD_XDICTIONARY
360
2B5
102
}
330
6B
100
AcDbMLeaderStyle
170
     2
171
     1
172
     0
 90
        2
 40
0.0
 41
0.0
173
     1
 91
-1056964608
340
14
 92
       -2
290
     1
 42
2.0
291
     1
 43
8.0
  3
Standard
341
0
 44
4.0
300

342
11
174
     1
178
     6
175
     1
176
     0
 93
-1056964608
 45
4.0
292
     0
297
     0
 46
4.0
343
0
 94
-1056964608
 47
1.0
 49
1.0
140
1.0
293
     1
141
0.0
294
     1
177
     0
142
1.0
295
     0
296
     0
143
3.75
1001
ACAD_MLEADERVER
1070
     2
  0
MLINESTYLE
  5
18
102
{ACAD_REACTORS
330
17
102
}
330
17
100
AcDbMlineStyle
  2
Standard
 70
     0
  3

 62
   256
 51
90.0
 52
90.0
 71
     2
 49
0.5
 62
   256
  6
BYLAYER
 49
-0.5
 62
   256
  6
BYLAYER
  0
ACDBPLACEHOLDER
  5
F
102
{ACAD_REACTORS
330
E
102
}
330
E
  0
SCALE
  5
48
102
{ACAD_REACTORS
330
47
102
}
330
47
100
AcDbScale
 70
     0
300
1:1
140
1.0
141
1.0
290
     1
  0
SCALE
  5
49
102
{ACAD_REACTORS
330
47
102
}
330
47
100
AcDbScale
 70
     0
300
1:2
140
1.0
141
2.0
290
     0
  0
SCALE
  5
4A
102
{ACAD_REACTORS
330
47
102
}
330
47
100
AcDbScale
 70
     0
300
1:4
140
1.0
141
4.0
290
     0
  0
SCALE
  5
4B
102
{ACAD_REACTORS
330
47
102
}
330
47
100
AcDbScale
 70
     0
300
1:5
140
1.0
141
5.0
290
     0
  0
SCALE
  5
4C
102
{ACAD_REACTORS
330
47
102
}
330
47
100
AcDbScale
 70
     0
300
1:8
140
1.0
141
8.0
290
     0
  0
SCALE
  5
4D
102
{ACAD_REACTORS
330
47
102
}
330
47
100
AcDbScale
 70
     0
300
1:10
140
1.0
141
10.0
290
     0
  0
SCALE
  5
4E
102
{ACAD_REACTORS
330
47
102
}
330
47
100
AcDbScale
 70
     0
300
1:16
140
1.0
141
16.0
290
     0
  0
SCALE
  5
4F
102
{ACAD_REACTORS
330
47
102
}
330
47
100
AcDbScale
 70
     0
300
1:20
140
1.0
141
20.0
290
     0
  0
SCALE
  5
50
102
{ACAD_REACTORS
330
47
102
}
330
47
100
AcDbScale
 70
     0
300
1:30
140
1.0
141
30.0
290
     0
  0
SCALE
  5
51
102
{ACAD_REACTORS
330
47
102
}
330
47
100
AcDbScale
 70
     0
300
1:40
140
1.0
141
40.0
290
     0
  0
SCALE
  5
52
102
{ACAD_REACTORS
330
47
102
}
330
47
100
AcDbScale
 70
     0
300
1:50
140
1.0
141
50.0
290
     0
  0
SCALE
  5
53
102
{ACAD_REACTORS
330
47
102
}
330
47
100
AcDbScale
 70
     0
300
1:100
140
1.0
141
100.0
290
     0
  0
SCALE
  5
54
102
{ACAD_REACTORS
330
47
102
}
330
47
100
AcDbScale
 70
     0
300
2:1
140
2.0
141
1.0
290
     0
  0
SCALE
  5
55
102
{ACAD_REACTORS
330
47
102
}
330
47
100
AcDbScale
 70
     0
300
4:1
140
4.0
141
1.0
290
     0
  0
SCALE
  5
56
102
{ACAD_REACTORS
330
47
102
}
330
47
100
AcDbScale
 70
     0
300
8:1
140
8.0
141
1.0
290
     0
  0
SCALE
  5
57
102
{ACAD_REACTORS
330
47
102
}
330
47
100
AcDbScale
 70
     0
300
10:1
140
10.0
141
1.0
290
     0
  0
SCALE
  5
58
102
{ACAD_REACTORS
330
47
102
}
330
47
100
AcDbScale
 70
     0
300
100:1
140
100.0
141
1.0
290
     0
  0
SCALE
  5
59
102
{ACAD_REACTORS
330
47
102
}
330
47
100
AcDbScale
 70
     0
300
1/128" = 1'-0"
140
0.0078125
141
12.0
290
     0
  0
SCALE
  5
5A
102
{ACAD_REACTORS
330
47
102
}
330
47
100
AcDbScale
 70
     0
300
1/64" = 1'-0"
140
0.015625
141
12.0
290
     0
  0
SCALE
  5
5B
102
{ACAD_REACTORS
330
47
102
}
330
47
100
AcDbScale
 70
     0
300
1/32" = 1'-0"
140
0.03125
141
12.0
290
     0
  0
SCALE
  5
5C
102
{ACAD_REACTORS
330
47
102
}
330
47
100
AcDbScale
 70
     0
300
1/16" = 1'-0"
140
0.0625
141
12.0
290
     0
  0
SCALE
  5
5D
102
{ACAD_REACTORS
330
47
102
}
330
47
100
AcDbScale
 70
     0
300
3/32" = 1'-0"
140
0.09375
141
12.0
290
     0
  0
SCALE
  5
5E
102
{ACAD_REACTORS
330
47
102
}
330
47
100
AcDbScale
 70
     0
300
1/8" = 1'-0"
140
0.125
141
12.0
290
     0
  0
SCALE
  5
5F
102
{ACAD_REACTORS
330
47
102
}
330
47
100
AcDbScale
 70
     0
300
3/16" = 1'-0"
140
0.1875
141
12.0
290
     0
  0
SCALE
  5
60
102
{ACAD_REACTORS
330
47
102
}
330
47
100
AcDbScale
 70
     0
300
1/4" = 1'-0"
140
0.25
141
12.0
290
     0
  0
SCALE
  5
61
102
{ACAD_REACTORS
330
47
102
}
330
47
100
AcDbScale
 70
     0
300
3/8" = 1'-0"
140
0.375
141
12.0
290
     0
  0
SCALE
  5
62
102
{ACAD_REACTORS
330
47
102
}
330
47
100
AcDbScale
 70
     0
300
1/2" = 1'-0"
140
0.5
141
12.0
290
     0
  0
SCALE
  5
63
102
{ACAD_REACTORS
330
47
102
}
330
47
100
AcDbScale
 70
     0
300
3/4" = 1'-0"
140
0.75
141
12.0
290
     0
  0
SCALE
  5
64
102
{ACAD_REACTORS
330
47
102
}
330
47
100
AcDbScale
 70
     0
300
1" = 1'-0"
140
1.0
141
12.0
290
     0
  0
SCALE
  5
65
102
{ACAD_REACTORS
330
47
102
}
330
47
100
AcDbScale
 70
     0
300
1-1/2" = 1'-0"
140
1.5
141
12.0
290
     0
  0
SCALE
  5
66
102
{ACAD_REACTORS
330
47
102
}
330
47
100
AcDbScale
 70
     0
300
3" = 1'-0"
140
3.0
141
12.0
290
     0
  0
SCALE
  5
67
102
{ACAD_REACTORS
330
47
102
}
330
47
100
AcDbScale
 70
     0
300
6" = 1'-0"
140
6.0
141
12.0
290
     0
  0
SCALE
  5
68
102
{ACAD_REACTORS
330
47
102
}
330
47
100
AcDbScale
 70
     0
300
1'-0" = 1'-0"
140
12.0
141
12.0
290
     0
  0
TABLESTYLE
  5
6A
102
{ACAD_REACTORS
330
69
102
}
102
{ACAD_XDICTIONARY
360
2B1
102
}
330
69
100
AcDbTableStyle
  3
Standard
 70
     0
 71
     0
 40
0.06
 41
0.06
280
     0
281
     0
  7
Standard
140
4.5
170
     2
 62
     0
 63
   257
283
     0
274
    -2
284
     1
 64
     0
275
    -2
285
     1
 65
     0
276
    -2
286
     1
 66
     0
277
    -2
287
     1
 67
     0
278
    -2
288
     1
 68
     0
279
    -2
289
     1
 69
     0
  7
Standard
140
6.0
170
     5
 62
     0
 63
   257
283
     0
274
    -2
284
     1
 64
     0
275
    -2
285
     1
 65
     0
276
    -2
286
     1
 66
     0
277
    -2
287
     1
 67
     0
278
    -2
288
     1
 68
     0
279
    -2
289
     1
 69
     0
  7
Standard
140
4.5
170
     5
 62
     0
 63
   257
283
     0
274
    -2
284
     1
 64
     0
275
    -2
285
     1
 65
     0
276
    -2
286
     1
 66
     0
277
    -2
287
     1
 67
     0
278
    -2
288
     1
 68
     0
279
    -2
289
     1
 69
     0
  0
VISUALSTYLE
  5
2F
102
{ACAD_REACTORS
330
2A
102
}
102
{ACAD_XDICTIONARY
360
283
102
}
330
2A
100
AcDbVisualStyle
  2
2dWireframe
 70
     4
 71
     0
 72
     2
 73
     0
 90
        0
 40
0.6
 41
30.0
 62
     5
 63
     7
421
 16777215
 74
     1
 91
        4
 64
     7
 65
   257
 75
     1
175
     1
 42
1.0
 92
        0
 66
   257
 43
1.0
 76
     1
 77
     6
 78
     2
 67
     7
 79
     5
170
     0
171
     0
290
     0
174
     0
 93
        1
 44
0.0
173
     0
291
     0
 45
0.0
1001
ACAD
1000
AcDbSavedByObjectVersion
1070
     0
  0
VISUALSTYLE
  5
32
102
{ACAD_REACTORS
330
2A
102
}
102
{ACAD_XDICTIONARY
360
289
102
}
330
2A
100
AcDbVisualStyle
  2
Basic
 70
     7
 71
     1
 72
     0
 73
     1
 90
        0
 40
0.6
 41
30.0
 62
     5
 63
     7
421
 16777215
 74
     0
 91
        4
 64
     7
 65
   257
 75
     1
175
     1
 42
1.0
 92
        8
 66
     7
 43
1.0
 76
     1
 77
     6
 78
     2
 67
     7
 79
     5
170
     0
171
     0
290
     0
174
     0
 93
        1
 44
0.0
173
     0
291
     1
 45
0.0
1001
ACAD
1000
AcDbSavedByObjectVersion
1070
     0
  0
VISUALSTYLE
  5
36
102
{ACAD_REACTORS
330
2A
102
}
102
{ACAD_XDICTIONARY
360
291
102
}
330
2A
100
AcDbVisualStyle
  2
Brighten
 70
    12
 71
     2
 72
     2
 73
     0
 90
        0
 40
0.6
 41
30.0
 62
     5
 63
     7
421
 16777215
 74
     1
 91
        4
 64
     7
 65
   257
 75
     1
175
     1
 42
1.0
 92
        8
 66
     7
 43
1.0
 76
     1
 77
     6
 78
     2
 67
     7
 79
     5
170
     0
171
     0
290
     0
174
     0
 93
        1
 44
50.0
173
     0
291
     1
 45
0.0
1001
ACAD
1000
AcDbSavedByObjectVersion
1070
     0
  0
VISUALSTYLE
  5
3A
102
{ACAD_REACTORS
330
2A
102
}
102
{ACAD_XDICTIONARY
360
299
102
}
330
2A
100
AcDbVisualStyle
  2
ColorChange
 70
    16
 71
     2
 72
     2
 73
     3
 90
        0
 40
0.6
 41
30.0
 62
     5
 63
     8
421
  8421504
 74
     1
 91
        4
 64
     7
 65
   257
 75
     1
175
     1
 42
1.0
 92
        8
 66
     8
424
  8421504
 43
1.0
 76
     1
 77
     6
 78
     2
 67
     7
 79
     5
170
     0
171
     0
290
     0
174
     0
 93
        1
 44
0.0
173
     0
291
     1
 45
0.0
1001
ACAD
1000
AcDbSavedByObjectVersion
1070
     0
  0
VISUALSTYLE
  5
34
102
{ACAD_REACTORS
330
2A
102
}
102
{ACAD_XDICTIONARY
360
28D
102
}
330
2A
100
AcDbVisualStyle
  2
Conceptual
 70
     9
 71
     3
 72
     2
 73
     0
 90
        0
 40
0.6
 41
30.0
 62
     5
 63
     7
421
 16777215
 74
     2
 91
        2
 64
     7
 65
   257
 75
     1
175
     1
 42
179.0
 92
        8
 66
     7
 43
1.0
 76
     1
 77
     6
 78
     2
 67
     7
 79
     3
170
     0
171
     0
290
     0
174
     0
 93
        1
 44
0.0
173
     0
291
     0
 45
0.0
1001
ACAD
1000
AcDbSavedByObjectVersion
1070
     0
  0
VISUALSTYLE
  5
35
102
{ACAD_REACTORS
330
2A
102
}
102
{ACAD_XDICTIONARY
360
28F
102
}
330
2A
100
AcDbVisualStyle
  2
Dim
 70
    11
 71
     2
 72
     2
 73
     0
 90
        0
 40
0.6
 41
30.0
 62
     5
 63
     7
421
 16777215
 74
     1
 91
        4
 64
     7
 65
   257
 75
     1
175
     1
 42
1.0
 92
        8
 66
     7
 43
1.0
 76
     1
 77
     6
 78
     2
 67
     7
 79
     5
170
     0
171
     0
290
     0
174
     0
 93
        1
 44
-50.0
173
     0
291
     1
 45
0.0
1001
ACAD
1000
AcDbSavedByObjectVersion
1070
     0
  0
VISUALSTYLE
  5
3D
102
{ACAD_REACTORS
330
2A
102
}
102
{ACAD_XDICTIONARY
360
29F
102
}
330
2A
100
AcDbVisualStyle
  2
EdgeColorOff
 70
    22
 71
     2
 72
     2
 73
     0
 90
        0
 40
0.6
 41
30.0
 62
     5
 63
     7
421
 16777215
 74
     1
 91
        4
 64
     7
 65
   257
 75
     1
175
     1
 42
1.0
 92
        8
 66
     7
 43
1.0
 76
     1
 77
     6
 78
     2
 67
     7
 79
     5
170
     0
171
     0
290
     0
174
     0
 93
        1
 44
0.0
173
     0
291
     1
 45
0.0
1001
ACAD
1000
AcDbSavedByObjectVersion
1070
     0
  0
VISUALSTYLE
  5
39
102
{ACAD_REACTORS
330
2A
102
}
102
{ACAD_XDICTIONARY
360
297
102
}
330
2A
100
AcDbVisualStyle
  2
Facepattern
 70
    15
 71
     2
 72
     2
 73
     0
 90
        0
 40
0.6
 41
30.0
 62
     5
 63
     7
421
 16777215
 74
     1
 91
        4
 64
     7
 65
   257
 75
     1
175
     1
 42
1.0
 92
        8
 66
     7
 43
1.0
 76
     1
 77
     6
 78
     2
 67
     7
 79
     5
170
     0
171
     0
290
     0
174
     0
 93
        1
 44
0.0
173
     0
291
     1
 45
0.0
1001
ACAD
1000
AcDbSavedByObjectVersion
1070
     0
  0
VISUALSTYLE
  5
2B
102
{ACAD_REACTORS
330
2A
102
}
102
{ACAD_XDICTIONARY
360
27B
102
}
330
2A
100
AcDbVisualStyle
  2
Flat
 70
     0
 71
     2
 72
     1
 73
     1
 90
        2
 40
0.6
 41
30.0
 62
     5
 63
     7
421
 16777215
 74
     0
 91
        0
 64
     7
 65
   257
 75
     1
175
     1
 42
1.0
 92
        8
 66
     7
 43
1.0
 76
     1
 77
     6
 78
     2
 67
     7
 79
     5
170
     0
171
     0
290
     0
174
     0
 93
       13
 44
0.0
173
     0
291
     1
 45
0.0
1001
ACAD
1000
AcDbSavedByObjectVersion
1070
     0
  0
VISUALSTYLE
  5
2C
102
{ACAD_REACTORS
330
2A
102
}
102
{ACAD_XDICTIONARY
360
27D
102
}
330
2A
100
AcDbVisualStyle
  2
FlatWithEdges
 70
     1
 71
     2
 72
     1
 73
     1
 90
        2
 40
0.6
 41
30.0
 62
     5
 63
     7
421
 16777215
 74
     1
 91
        0
 64
     7
 65
   257
 75
     1
175
     1
 42
1.0
 92
        0
 66
   257
 43
1.0
 76
     1
 77
     6
 78
     2
 67
     7
 79
     5
170
     0
171
     0
290
     0
174
     0
 93
       13
 44
0.0
173
     0
291
     1
 45
0.0
1001
ACAD
1000
AcDbSavedByObjectVersion
1070
     0
  0
VISUALSTYLE
  5
2D
102
{ACAD_REACTORS
330
2A
102
}
102
{ACAD_XDICTIONARY
360
27F
102
}
330
2A
100
AcDbVisualStyle
  2
Gouraud
 70
     2
 71
     2
 72
     2
 73
     1
 90
        2
 40
0.6
 41
30.0
 62
     5
 63
     7
421
 16777215
 74
     0
 91
        0
 64
     7
 65
   257
 75
     1
175
     1
 42
1.0
 92
        0
 66
     7
 43
1.0
 76
     1
 77
     6
 78
     2
 67
     7
 79
     5
170
     0
171
     0
290
     0
174
     0
 93
       13
 44
0.0
173
     0
291
     1
 45
0.0
1001
ACAD
1000
AcDbSavedByObjectVersion
1070
     0
  0
VISUALSTYLE
  5
2E
102
{ACAD_REACTORS
330
2A
102
}
102
{ACAD_XDICTIONARY
360
281
102
}
330
2A
100
AcDbVisualStyle
  2
GouraudWithEdges
 70
     3
 71
     2
 72
     2
 73
     1
 90
        2
 40
0.6
 41
30.0
 62
     5
 63
     7
421
 16777215
 74
     1
 91
        0
 64
     7
 65
   257
 75
     1
175
     1
 42
1.0
 92
        0
 66
   257
 43
1.0
 76
     1
 77
     6
 78
     2
 67
     7
 79
     5
170
     0
171
     0
290
     0
174
     0
 93
       13
 44
0.0
173
     0
291
     1
 45
0.0
1001
ACAD
1000
AcDbSavedByObjectVersion
1070
     0
  0
VISUALSTYLE
  5
31
102
{ACAD_REACTORS
330
2A
102
}
102
{ACAD_XDICTIONARY
360
287
102
}
330
2A
100
AcDbVisualStyle
  2
Hidden
 70
     6
 71
     1
 72
     2
 73
     2
 90
        0
 40
0.6
 41
30.0
 62
     5
 63
     7
421
 16777215
 74
     2
 91
        2
 64
     7
 65
   257
 75
     2
175
     1
 42
40.0
 92
        0
 66
   257
 43
1.0
 76
     1
 77
     6
 78
     2
 67
     7
 79
     3
170
     0
171
     0
290
     0
174
     0
 93
        1
 44
0.0
173
     0
291
     0
 45
0.0
1001
ACAD
1000
AcDbSavedByObjectVersion
1070
     0
  0
VISUALSTYLE
  5
3B
102
{ACAD_REACTORS
330
2A
102
}
102
{ACAD_XDICTIONARY
360
29B
102
}
330
2A
100
AcDbVisualStyle
  2
JitterOff
 70
    20
 71
     2
 72
     2
 73
     0
 90
        0
 40
0.6
 41
30.0
 62
     5
 63
     7
421
 16777215
 74
     1
 91
        4
 64
     7
 65
   257
 75
     1
175
     1
 42
1.0
 92
       10
 66
     7
 43
1.0
 76
     1
 77
     6
 78
     2
 67
     7
 79
     5
170
     0
171
     0
290
     0
174
     0
 93
        1
 44
0.0
173
     0
291
     1
 45
0.0
1001
ACAD
1000
AcDbSavedByObjectVersion
1070
     0
  0
VISUALSTYLE
  5
38
102
{ACAD_REACTORS
330
2A
102
}
102
{ACAD_XDICTIONARY
360
295
102
}
330
2A
100
AcDbVisualStyle
  2
Linepattern
 70
    14
 71
     2
 72
     2
 73
     0
 90
        0
 40
0.6
 41
30.0
 62
     5
 63
     7
421
 16777215
 74
     1
 91
        4
 64
     7
 65
   257
 75
     7
175
     7
 42
1.0
 92
        8
 66
     7
 43
1.0
 76
     1
 77
     6
 78
     2
 67
     7
 79
     5
170
     0
171
     0
290
     0
174
     0
 93
        1
 44
0.0
173
     0
291
     1
 45
0.0
1001
ACAD
1000
AcDbSavedByObjectVersion
1070
     0
  0
VISUALSTYLE
  5
3C
102
{ACAD_REACTORS
330
2A
102
}
102
{ACAD_XDICTIONARY
360
29D
102
}
330
2A
100
AcDbVisualStyle
  2
OverhangOff
 70
    21
 71
     2
 72
     2
 73
     0
 90
        0
 40
0.6
 41
30.0
 62
     5
 63
     7
421
 16777215
 74
     1
 91
        4
 64
     7
 65
   257
 75
     1
175
     1
 42
1.0
 92
        9
 66
     7
 43
1.0
 76
     1
 77
     6
 78
     2
 67
     7
 79
     5
170
     0
171
     0
290
     0
174
     0
 93
        1
 44
0.0
173
     0
291
     1
 45
0.0
1001
ACAD
1000
AcDbSavedByObjectVersion
1070
     0
  0
VISUALSTYLE
  5
33
102
{ACAD_REACTORS
330
2A
102
}
102
{ACAD_XDICTIONARY
360
28B
102
}
330
2A
100
AcDbVisualStyle
  2
Realistic
 70
     8
 71
     2
 72
     3
 73
     0
 90
        2
 40
0.6
 41
30.0
 62
     5
 63
     7
421
 16777215
 74
     0
 91
        0
 64
     7
 65
   257
 75
     1
175
     1
 42
1.0
 92
        8
 66
   257
 43
1.0
 76
     1
 77
     6
 78
     2
 67
     7
 79
     3
170
     0
171
     0
290
     0
174
     0
 93
       13
 44
0.0
173
     0
291
     0
 45
0.0
1001
ACAD
1000
AcDbSavedByObjectVersion
1070
     0
  0
VISUALSTYLE
  5
42
102
{ACAD_REACTORS
330
2A
102
}
102
{ACAD_XDICTIONARY
360
2A9
102
}
330
2A
100
AcDbVisualStyle
  2
Shaded
 70
    27
 71
     2
 72
     2
 73
     1
 90
        2
 40
0.6
 41
30.0
 62
     5
 63
     7
421
 16777215
 74
     0
 91
        4
 64
     7
 65
   257
 75
     1
175
     1
 42
1.0
 92
        8
 66
   257
 43
1.0
 76
     1
 77
     6
 78
     2
 67
     8
425
  7895160
 79
     3
170
     0
171
     0
290
     0
174
     0
 93
        5
 44
0.0
173
     0
291
     0
 45
0.0
1001
ACAD
1000
AcDbSavedByObjectVersion
1070
     0
  0
VISUALSTYLE
  5
41
102
{ACAD_REACTORS
330
2A
102
}
102
{ACAD_XDICTIONARY
360
2A7
102
}
330
2A
100
AcDbVisualStyle
  2
Shaded with edges
 70
    26
 71
     2
 72
     2
 73
     1
 90
        2
 40
0.6
 41
30.0
 62
     5
 63
     7
421
 16777215
 74
     1
 91
       10
 64
     7
 65
   257
 75
     2
175
     1
 42
1.0
 92
        8
 66
   257
 43
1.0
 76
     1
 77
     6
 78
     2
 67
     7
 79
     3
170
     0
171
     0
290
     0
174
     0
 93
        5
 44
0.0
173
     0
291
     0
 45
0.0
1001
ACAD
1000
AcDbSavedByObjectVersion
1070
     0
  0
VISUALSTYLE
  5
3E
102
{ACAD_REACTORS
330
2A
102
}
102
{ACAD_XDICTIONARY
360
2A1
102
}
330
2A
100
AcDbVisualStyle
  2
Shades of Gray
 70
    23
 71
     2
 72
     2
 73
     3
 90
        0
 40
0.6
 41
30.0
 62
     5
 63
     7
421
 16777215
 74
     2
 91
        2
 64
     7
 65
     7
 75
     1
175
     1
 42
40.0
 92
        8
 66
     7
 43
1.0
 76
     1
 77
     6
 78
     2
 67
     7
 79
     3
170
     0
171
     0
290
     0
174
     0
 93
        1
 44
0.0
173
     0
291
     0
 45
0.0
1001
ACAD
1000
AcDbSavedByObjectVersion
1070
     0
  0
VISUALSTYLE
  5
3F
102
{ACAD_REACTORS
330
2A
102
}
102
{ACAD_XDICTIONARY
360
2A3
102
}
330
2A
100
AcDbVisualStyle
  2
Sketchy
 70
    24
 71
     1
 72
     2
 73
     2
 90
        0
 40
0.6
 41
30.0
 62
     5
 63
     7
421
 16777215
 74
     2
 91
        2
 64
     7
 65
     7
 75
     1
175
     1
 42
40.0
 92
       11
 66
     7
 43
1.0
 76
     1
 77
     6
 78
     2
 67
     7
 79
     6
170
     0
171
     0
290
     0
174
     0
 93
        1
 44
0.0
173
     0
291
     0
 45
0.0
1001
ACAD
1000
AcDbSavedByObjectVersion
1070
     0
  0
VISUALSTYLE
  5
37
102
{ACAD_REACTORS
330
2A
102
}
102
{ACAD_XDICTIONARY
360
293
102
}
330
2A
100
AcDbVisualStyle
  2
Thicken
 70
    13
 71
     2
 72
     2
 73
     0
 90
        0
 40
0.6
 41
30.0
 62
     5
 63
     7
421
 16777215
 74
     1
 91
        4
 64
     7
 65
   257
 75
     1
175
     1
 42
1.0
 92
       12
 66
     7
 43
1.0
 76
     1
 77
     6
 78
     2
 67
     7
 79
     5
170
     0
171
     0
290
     0
174
     0
 93
        1
 44
0.0
173
     0
291
     1
 45
0.0
1001
ACAD
1000
AcDbSavedByObjectVersion
1070
     0
  0
VISUALSTYLE
  5
30
102
{ACAD_REACTORS
330
2A
102
}
102
{ACAD_XDICTIONARY
360
285
102
}
330
2A
100
AcDbVisualStyle
  2
Wireframe
 70
     5
 71
     0
 72
     2
 73
     0
 90
        0
 40
0.6
 41
30.0
 62
     5
 63
     7
421
 16777215
 74
     1
 91
        4
 64
     7
 65
   257
 75
     1
175
     1
 42
1.0
 92
        0
 66
   257
 43
1.0
 76
     1
 77
     6
 78
     2
 67
     7
 79
     3
170
     0
171
     0
290
     0
174
     0
 93
        1
 44
0.0
173
     0
291
     0
 45
0.0
1001
ACAD
1000
AcDbSavedByObjectVersion
1070
     0
  0
VISUALSTYLE
  5
40
102
{ACAD_REACTORS
330
2A
102
}
102
{ACAD_XDICTIONARY
360
2A5
102
}
330
2A
100
AcDbVisualStyle
  2
X-Ray
 70
    25
 71
     2
 72
     2
 73
     1
 90
        1
 40
0.5
 41
30.0
 62
     5
 63
     7
421
 16777215
 74
     1
 91
        0
 64
     7
 65
   257
 75
     1
175
     1
 42
1.0
 92
        8
 66
     7
 43
1.0
 76
     1
 77
     6
 78
     2
 67
     7
 79
     3
170
     0
171
     0
290
     0
174
     0
 93
       13
 44
0.0
173
     0
291
     0
 45
0.0
1001
ACAD
1000
AcDbSavedByObjectVersion
1070
     0
  0
DICTIONARYVAR
  5
278
102
{ACAD_REACTORS
330
277
102
}
330
277
100
DictionaryVariables
280
     0
  1
1:1
  0
DICTIONARYVAR
  5
2BC
102
{ACAD_REACTORS
330
277
102
}
330
277
100
DictionaryVariables
280
     0
  1
3.500000
  0
DICTIONARYVAR
  5
2BD
102
{ACAD_REACTORS
330
277
102
}
330
277
100
DictionaryVariables
280
     0
  1
acadiso.lin
  0
DICTIONARYVAR
  5
2B9
102
{ACAD_REACTORS
330
277
102
}
330
277
100
DictionaryVariables
280
     0
  1
Standard
  0
DICTIONARYVAR
  5
2B8
102
{ACAD_REACTORS
330
277
102
}
330
277
100
DictionaryVariables
280
     0
  1
Standard
  0
DICTIONARYVAR
  5
279
102
{ACAD_REACTORS
330
277
102
}
330
277
100
DictionaryVariables
280
     0
  1
1
  0
DICTIONARYVAR
  5
27A
102
{ACAD_REACTORS
330
277
102
}
330
277
100
DictionaryVariables
280
     0
  1
2
  0
DICTIONARY
  5
2AD
330
45
100
AcDbDictionary
280
     1
281
     1
  3
ACAD_XREC_ROUNDTRIP
360
2AE
  0
DICTIONARY
  5
2AB
330
44
100
AcDbDictionary
280
     1
281
     1
  3
ACAD_XREC_ROUNDTRIP
360
2AC
  0
DICTIONARY
  5
2AF
330
46
100
AcDbDictionary
280
     1
281
     1
  3
ACAD_XREC_ROUNDTRIP
360
2B0
  0
DICTIONARY
  5
2B5
330
6C
100
AcDbDictionary
280
     1
281
     1
  3
ACAD_XREC_ROUNDTRIP
360
2B6
  0
DICTIONARY
  5
2B1
330
6A
100
AcDbDictionary
280
     1
281
     1
  3
ACAD_ROUNDTRIP_2008_TABLESTYLE_CELLSTYLEMAP
360
2B3
  3
ACAD_XREC_ROUNDTRIP
360
2B2
  0
DICTIONARY
  5
283
330
2F
100
AcDbDictionary
280
     1
281
     1
  3
ACAD_XREC_ROUNDTRIP
360
284
  0
DICTIONARY
  5
289
330
32
100
AcDbDictionary
280
     1
281
     1
  3
ACAD_XREC_ROUNDTRIP
360
28A
  0
DICTIONARY
  5
291
330
36
100
AcDbDictionary
280
     1
281
     1
  3
ACAD_XREC_ROUNDTRIP
360
292
  0
DICTIONARY
  5
299
330
3A
100
AcDbDictionary
280
     1
281
     1
  3
ACAD_XREC_ROUNDTRIP
360
29A
  0
DICTIONARY
  5
28D
330
34
100
AcDbDictionary
280
     1
281
     1
  3
ACAD_XREC_ROUNDTRIP
360
28E
  0
DICTIONARY
  5
28F
330
35
100
AcDbDictionary
280
     1
281
     1
  3
ACAD_XREC_ROUNDTRIP
360
290
  0
DICTIONARY
  5
29F
330
3D
100
AcDbDictionary
280
     1
281
     1
  3
ACAD_XREC_ROUNDTRIP
360
2A0
  0
DICTIONARY
  5
297
330
39
100
AcDbDictionary
280
     1
281
     1
  3
ACAD_XREC_ROUNDTRIP
360
298
  0
DICTIONARY
  5
27B
330
2B
100
AcDbDictionary
280
     1
281
     1
  3
ACAD_XREC_ROUNDTRIP
360
27C
  0
DICTIONARY
  5
27D
330
2C
100
AcDbDictionary
280
     1
281
     1
  3
ACAD_XREC_ROUNDTRIP
360
27E
  0
DICTIONARY
  5
27F
330
2D
100
AcDbDictionary
280
     1
281
     1
  3
ACAD_XREC_ROUNDTRIP
360
280
  0
DICTIONARY
  5
281
330
2E
100
AcDbDictionary
280
     1
281
     1
  3
ACAD_XREC_ROUNDTRIP
360
282
  0
DICTIONARY
  5
287
330
31
100
AcDbDictionary
280
     1
281
     1
  3
ACAD_XREC_ROUNDTRIP
360
288
  0
DICTIONARY
  5
29B
330
3B
100
AcDbDictionary
280
     1
281
     1
  3
ACAD_XREC_ROUNDTRIP
360
29C
  0
DICTIONARY
  5
295
330
38
100
AcDbDictionary
280
     1
281
     1
  3
ACAD_XREC_ROUNDTRIP
360
296
  0
DICTIONARY
  5
29D
330
3C
100
AcDbDictionary
280
     1
281
     1
  3
ACAD_XREC_ROUNDTRIP
360
29E
  0
DICTIONARY
  5
28B
330
33
100
AcDbDictionary
280
     1
281
     1
  3
ACAD_XREC_ROUNDTRIP
360
28C
  0
DICTIONARY
  5
2A9
330
42
100
AcDbDictionary
280
     1
281
     1
  3
ACAD_XREC_ROUNDTRIP
360
2AA
  0
DICTIONARY
  5
2A7
330
41
100
AcDbDictionary
280
     1
281
     1
  3
ACAD_XREC_ROUNDTRIP
360
2A8
  0
DICTIONARY
  5
2A1
330
3E
100
AcDbDictionary
280
     1
281
     1
  3
ACAD_XREC_ROUNDTRIP
360
2A2
  0
DICTIONARY
  5
2A3
330
3F
100
AcDbDictionary
280
     1
281
     1
  3
ACAD_XREC_ROUNDTRIP
360
2A4
  0
DICTIONARY
  5
293
330
37
100
AcDbDictionary
280
     1
281
     1
  3
ACAD_XREC_ROUNDTRIP
360
294
  0
DICTIONARY
  5
285
330
30
100
AcDbDictionary
280
     1
281
     1
  3
ACAD_XREC_ROUNDTRIP
360
286
  0
DICTIONARY
  5
2A5
330
40
100
AcDbDictionary
280
     1
281
     1
  3
ACAD_XREC_ROUNDTRIP
360
2A6
  0
XRECORD
  5
2AE
102
{ACAD_REACTORS
330
2AD
102
}
330
2AD
100
AcDbXrecord
280
     1
102
MATERIAL
148
0.0
149
0.0
149
0.0
 93
        0
 94
      127
282
     0
 72
     1
 77
     1
171
     1
175
     1
179
     1
273
     0
  0
XRECORD
  5
2AC
102
{ACAD_REACTORS
330
2AB
102
}
330
2AB
100
AcDbXrecord
280
     1
102
MATERIAL
148
0.0
149
0.0
149
0.0
 93
        0
 94
      127
282
     0
 72
     1
 77
     1
171
     1
175
     1
179
     1
273
     0
  0
XRECORD
  5
2B0
102
{ACAD_REACTORS
330
2AF
102
}
330
2AF
100
AcDbXrecord
280
     1
102
MATERIAL
148
0.0
149
0.0
149
0.0
 93
        0
 94
      127
282
     0
 72
     1
 77
     1
171
     1
175
     1
179
     1
273
     0
  0
XRECORD
  5
2B6
102
{ACAD_REACTORS
330
2B5
102
}
330
2B5
100
AcDbXrecord
280
     1
102
ACAD_ROUNDTRIP_2010_MLEADER_STYLE
  0
CELLSTYLEMAP
  5
2B3
102
{ACAD_REACTORS
330
2B1
102
}
330
2B1
100
AcDbCellStyleMap
 90
        3
300
CELLSTYLE
  1
TABLEFORMAT_BEGIN
 90
        5
170
     1
 91
        0
 92
    32768
 62
   257
 93
        1
300
CONTENTFORMAT
  1
CONTENTFORMAT_BEGIN
 90
        0
 91
        0
 92
        4
 93
        0
300

 40
0.0
140
1.0
 94
        5
 62
     0
340
11
144
6.0
309
CONTENTFORMAT_END
171
     1
301
MARGIN
  1
CELLMARGIN_BEGIN
 40
1.5
 40
1.5
 40
1.5
 40
1.5
 40
1.5
 40
1.5
309
CELLMARGIN_END
 94
        6
 95
        1
302
GRIDFORMAT
  1
GRIDFORMAT_BEGIN
 90
        0
 91
        1
 62
     0
 92
       -2
340
14
 93
        0
 40
0.045
309
GRIDFORMAT_END
 95
        2
302
GRIDFORMAT
  1
GRIDFORMAT_BEGIN
 90
        0
 91
        1
 62
     0
 92
       -2
340
14
 93
        0
 40
0.045
309
GRIDFORMAT_END
 95
        4
302
GRIDFORMAT
  1
GRIDFORMAT_BEGIN
 90
        0
 91
        1
 62
     0
 92
       -2
340
14
 93
        0
 40
0.045
309
GRIDFORMAT_END
 95
        8
302
GRIDFORMAT
  1
GRIDFORMAT_BEGIN
 90
        0
 91
        1
 62
     0
 92
       -2
340
14
 93
        0
 40
0.045
309
GRIDFORMAT_END
 95
       16
302
GRIDFORMAT
  1
GRIDFORMAT_BEGIN
 90
        0
 91
        1
 62
     0
 92
       -2
340
14
 93
        0
 40
0.045
309
GRIDFORMAT_END
 95
       32
302
GRIDFORMAT
  1
GRIDFORMAT_BEGIN
 90
        0
 91
        1
 62
     0
 92
       -2
340
14
 93
        0
 40
0.045
309
GRIDFORMAT_END
309
TABLEFORMAT_END
  1
CELLSTYLE_BEGIN
 90
        1
 91
        1
300
_TITLE
309
CELLSTYLE_END
300
CELLSTYLE
  1
TABLEFORMAT_BEGIN
 90
        5
170
     1
 91
        0
 92
        0
 62
   257
 93
        1
300
CONTENTFORMAT
  1
CONTENTFORMAT_BEGIN
 90
        0
 91
        0
 92
        4
 93
        0
300

 40
0.0
140
1.0
 94
        5
 62
     0
340
11
144
4.5
309
CONTENTFORMAT_END
171
     1
301
MARGIN
  1
CELLMARGIN_BEGIN
 40
1.5
 40
1.5
 40
1.5
 40
1.5
 40
1.5
 40
1.5
309
CELLMARGIN_END
 94
        6
 95
        1
302
GRIDFORMAT
  1
GRIDFORMAT_BEGIN
 90
        0
 91
        1
 62
     0
 92
       -2
340
14
 93
        0
 40
0.045
309
GRIDFORMAT_END
 95
        2
302
GRIDFORMAT
  1
GRIDFORMAT_BEGIN
 90
        0
 91
        1
 62
     0
 92
       -2
340
14
 93
        0
 40
0.045
309
GRIDFORMAT_END
 95
        4
302
GRIDFORMAT
  1
GRIDFORMAT_BEGIN
 90
        0
 91
        1
 62
     0
 92
       -2
340
14
 93
        0
 40
0.045
309
GRIDFORMAT_END
 95
        8
302
GRIDFORMAT
  1
GRIDFORMAT_BEGIN
 90
        0
 91
        1
 62
     0
 92
       -2
340
14
 93
        0
 40
0.045
309
GRIDFORMAT_END
 95
       16
302
GRIDFORMAT
  1
GRIDFORMAT_BEGIN
 90
        0
 91
        1
 62
     0
 92
       -2
340
14
 93
        0
 40
0.045
309
GRIDFORMAT_END
 95
       32
302
GRIDFORMAT
  1
GRIDFORMAT_BEGIN
 90
        0
 91
        1
 62
     0
 92
       -2
340
14
 93
        0
 40
0.045
309
GRIDFORMAT_END
309
TABLEFORMAT_END
  1
CELLSTYLE_BEGIN
 90
        2
 91
        1
300
_HEADER
309
CELLSTYLE_END
300
CELLSTYLE
  1
TABLEFORMAT_BEGIN
 90
        5
170
     1
 91
        0
 92
        0
 62
   257
 93
        1
300
CONTENTFORMAT
  1
CONTENTFORMAT_BEGIN
 90
        0
 91
        0
 92
        4
 93
        0
300

 40
0.0
140
1.0
 94
        2
 62
     0
340
11
144
4.5
309
CONTENTFORMAT_END
171
     1
301
MARGIN
  1
CELLMARGIN_BEGIN
 40
1.5
 40
1.5
 40
1.5
 40
1.5
 40
1.5
 40
1.5
309
CELLMARGIN_END
 94
        6
 95
        1
302
GRIDFORMAT
  1
GRIDFORMAT_BEGIN
 90
        0
 91
        1
 62
     0
 92
       -2
340
14
 93
        0
 40
0.045
309
GRIDFORMAT_END
 95
        2
302
GRIDFORMAT
  1
GRIDFORMAT_BEGIN
 90
        0
 91
        1
 62
     0
 92
       -2
340
14
 93
        0
 40
0.045
309
GRIDFORMAT_END
 95
        4
302
GRIDFORMAT
  1
GRIDFORMAT_BEGIN
 90
        0
 91
        1
 62
     0
 92
       -2
340
14
 93
        0
 40
0.045
309
GRIDFORMAT_END
 95
        8
302
GRIDFORMAT
  1
GRIDFORMAT_BEGIN
 90
        0
 91
        1
 62
     0
 92
       -2
340
14
 93
        0
 40
0.045
309
GRIDFORMAT_END
 95
       16
302
GRIDFORMAT
  1
GRIDFORMAT_BEGIN
 90
        0
 91
        1
 62
     0
 92
       -2
340
14
 93
        0
 40
0.045
309
GRIDFORMAT_END
 95
       32
302
GRIDFORMAT
  1
GRIDFORMAT_BEGIN
 90
        0
 91
        1
 62
     0
 92
       -2
340
14
 93
        0
 40
0.045
309
GRIDFORMAT_END
309
TABLEFORMAT_END
  1
CELLSTYLE_BEGIN
 90
        3
 91
        2
300
_DATA
309
CELLSTYLE_END
  0
XRECORD
  5
2B2
102
{ACAD_REACTORS
330
2B1
102
}
330
2B1
100
AcDbXrecord
280
     1
102
ACAD_ROUNDTRIP_PRE2007_TABLESTYLE
 90
        4
 91
        0
  1

 92
        4
 93
        0
  2

 94
        4
 95
        0
  3

  0
XRECORD
  5
284
102
{ACAD_REACTORS
330
283
102
}
330
283
100
AcDbXrecord
280
     1
102
RTVSPropertyOp0
 70
     1
102
RTVSPropertyOp1
 70
     1
102
RTVSPropertyOp2
 70
     1
102
RTVSPropertyOp3
 70
     1
102
RTVSPropertyOp4
 70
     1
102
RTVSPropertyOp5
 70
     1
102
RTVSPropertyOp6
 70
     1
102
RTVSPropertyOp7
 70
     1
102
RTVSPropertyOp8
 70
     1
102
RTVSPropertyOp9
 70
     1
102
RTVSPropertyOp10
 70
     1
102
RTVSPropertyOp11
 70
     1
102
RTVSPropertyOp12
 70
     1
102
RTVSPropertyOp13
 70
     1
102
RTVSPropertyOp14
 70
     1
102
RTVSPropertyOp15
 70
     1
102
RTVSPropertyOp16
 70
     1
102
RTVSPropertyOp17
 70
     1
102
RTVSPropertyOp18
 70
     1
102
RTVSPropertyOp19
 70
     1
102
RTVSPropertyOp20
 70
     1
102
RTVSPropertyOp21
 70
     1
102
RTVSPropertyOp22
 70
     1
102
RTVSPropertyOp23
 70
     1
102
RTVSPropertyOp24
 70
     1
102
RTVSPropertyOp25
 70
     1
102
RTVSPropertyOp26
 70
     1
102
RTVSPropertyOp27
 70
     1
102
RTVSPropertyOp28
 70
     1
102
RTVSPropertyOp29
 70
     1
102
RTVSPropertyOp30
 70
     1
102
RTVSPropertyOp31
 70
     1
102
RTVSPropertyOp32
 70
     1
102
RTVSPropertyOp33
 70
     1
102
RTVSPropertyOp34
 70
     1
102
RTVSPropertyOp35
 70
     1
102
RTVSPropertyOp36
 70
     1
102
RTVSPropertyOp37
 70
     1
102
RTVSPropertyOp38
 70
     1
102
RTVSPropertyOp39
 70
     1
102
RTVSPropertyOp40
 70
     1
102
RTVSPropertyOp41
 70
     1
102
RTVSPropertyOp42
 70
     1
102
RTVSPropertyOp43
 70
     1
102
RTVSPropertyOp44
 70
     1
102
RTVSPropertyOp45
 70
     1
102
RTVSPropertyOp46
 70
     1
102
RTVSPropertyOp47
 70
     1
102
RTVSPropertyOp48
 70
     1
102
RTVSPropertyOp49
 70
     1
102
RTVSPropertyOp50
 70
     1
102
RTVSPropertyOp51
 70
     0
102
RTVSPropertyOp52
 70
     0
102
RTVSPropertyOp53
 70
     1
102
RTVSPropertyOp54
 70
     1
102
RTVSPropertyOp55
 70
     1
102
RTVSPropertyOp56
 70
     1
102
RTVSPropertyOp57
 70
     1
102
RTVSPost2010Prop28
280
     1
102
RTVSPost2010PropOp28
 70
     1
102
RTVSPost2010Prop29
280
     1
102
RTVSPost2010PropOp29
 70
     1
102
RTVSPost2010Prop30
280
     0
102
RTVSPost2010PropOp30
 70
     1
102
RTVSPost2010Prop31
280
     0
102
RTVSPost2010PropOp31
 70
     1
102
RTVSPost2010Prop32
280
     0
102
RTVSPost2010PropOp32
 70
     1
102
RTVSPost2010Prop33
280
     0
102
RTVSPost2010PropOp33
 70
     1
102
RTVSPost2010Prop34
280
     0
102
RTVSPost2010PropOp34
 70
     1
102
RTVSPost2010Prop35
280
     0
102
RTVSPost2010PropOp35
 70
     1
102
RTVSPost2010Prop36
280
     0
102
RTVSPost2010PropOp36
 70
     1
102
RTVSPost2010Prop37
 90
       50
102
RTVSPost2010PropOp37
 70
     1
102
RTVSPost2010Prop38
140
0.0
102
RTVSPost2010PropOp38
 70
     1
102
RTVSPost2010Prop39
140
1.0
102
RTVSPost2010PropOp39
 70
     1
102
RTVSPost2010Prop40
 90
        0
102
RTVSPost2010PropOp40
 70
     1
102
RTVSPost2010Prop41ColorIndex
 90
       18
102
RTVSPost2010Prop41ColorRGB
 90
        0
102
RTVSPost2010PropOp41
 70
     1
102
RTVSPost2010Prop42
 90
       50
102
RTVSPost2010PropOp42
 70
     1
102
RTVSPost2010Prop43
 90
        3
102
RTVSPost2010PropOp43
 70
     1
102
RTVSPost2010Prop44ColorIndex
 90
        5
102
RTVSPost2010Prop44ColorRGB
 90
      255
102
RTVSPost2010PropOp44
 70
     1
102
RTVSPost2010Prop45
280
     0
102
RTVSPost2010PropOp45
 70
     1
102
RTVSPost2010Prop46
 90
       50
102
RTVSPost2010PropOp46
 70
     1
102
RTVSPost2010Prop47
 90
       50
102
RTVSPost2010PropOp47
 70
     1
102
RTVSPost2010Prop48
 90
       50
102
RTVSPost2010PropOp48
 70
     1
102
RTVSPost2010Prop49
280
     0
102
RTVSPost2010PropOp49
 70
     1
102
RTVSPost2010Prop50
 90
       50
102
RTVSPost2010PropOp50
 70
     1
102
RTVSPost2010Prop51ColorIndex
 90
      256
102
RTVSPost2010Prop51ColorRGB
 90
-16777216
102
RTVSPost2010PropOp51
 70
     0
102
RTVSPost2010Prop52
140
1.0
102
RTVSPost2010PropOp52
 70
     0
102
RTVSPost2010Prop53
 90
        2
102
RTVSPost2010PropOp53
 70
     1
102
RTVSPost2010Prop54
  1
strokes_ogs.tif
102
RTVSPost2010PropOp54
 70
     1
102
RTVSPost2010Prop55
280
     0
102
RTVSPost2010PropOp55
 70
     1
102
RTVSPost2010Prop56
140
1.0
102
RTVSPost2010PropOp56
 70
     1
102
RTVSPost2010Prop57
140
1.0
102
RTVSPost2010PropOp57
 70
     1
  0
XRECORD
  5
28A
102
{ACAD_REACTORS
330
289
102
}
330
289
100
AcDbXrecord
280
     1
102
RTVSPropertyOp0
 70
     1
102
RTVSPropertyOp1
 70
     1
102
RTVSPropertyOp2
 70
     1
102
RTVSPropertyOp3
 70
     1
102
RTVSPropertyOp4
 70
     1
102
RTVSPropertyOp5
 70
     1
102
RTVSPropertyOp6
 70
     1
102
RTVSPropertyOp7
 70
     1
102
RTVSPropertyOp8
 70
     1
102
RTVSPropertyOp9
 70
     1
102
RTVSPropertyOp10
 70
     1
102
RTVSPropertyOp11
 70
     1
102
RTVSPropertyOp12
 70
     1
102
RTVSPropertyOp13
 70
     1
102
RTVSPropertyOp14
 70
     1
102
RTVSPropertyOp15
 70
     1
102
RTVSPropertyOp16
 70
     1
102
RTVSPropertyOp17
 70
     1
102
RTVSPropertyOp18
 70
     1
102
RTVSPropertyOp19
 70
     1
102
RTVSPropertyOp20
 70
     1
102
RTVSPropertyOp21
 70
     1
102
RTVSPropertyOp22
 70
     1
102
RTVSPropertyOp23
 70
     1
102
RTVSPropertyOp24
 70
     1
102
RTVSPropertyOp25
 70
     1
102
RTVSPropertyOp26
 70
     1
102
RTVSPropertyOp27
 70
     1
102
RTVSPropertyOp28
 70
     1
102
RTVSPropertyOp29
 70
     1
102
RTVSPropertyOp30
 70
     1
102
RTVSPropertyOp31
 70
     1
102
RTVSPropertyOp32
 70
     1
102
RTVSPropertyOp33
 70
     1
102
RTVSPropertyOp34
 70
     1
102
RTVSPropertyOp35
 70
     1
102
RTVSPropertyOp36
 70
     1
102
RTVSPropertyOp37
 70
     1
102
RTVSPropertyOp38
 70
     1
102
RTVSPropertyOp39
 70
     1
102
RTVSPropertyOp40
 70
     1
102
RTVSPropertyOp41
 70
     1
102
RTVSPropertyOp42
 70
     1
102
RTVSPropertyOp43
 70
     1
102
RTVSPropertyOp44
 70
     1
102
RTVSPropertyOp45
 70
     1
102
RTVSPropertyOp46
 70
     1
102
RTVSPropertyOp47
 70
     1
102
RTVSPropertyOp48
 70
     1
102
RTVSPropertyOp49
 70
     1
102
RTVSPropertyOp50
 70
     1
102
RTVSPropertyOp51
 70
     0
102
RTVSPropertyOp52
 70
     0
102
RTVSPropertyOp53
 70
     1
102
RTVSPropertyOp54
 70
     1
102
RTVSPropertyOp55
 70
     1
102
RTVSPropertyOp56
 70
     1
102
RTVSPropertyOp57
 70
     1
102
RTVSPost2010Prop28
280
     0
102
RTVSPost2010PropOp28
 70
     1
102
RTVSPost2010Prop29
280
     1
102
RTVSPost2010PropOp29
 70
     1
102
RTVSPost2010Prop30
280
     1
102
RTVSPost2010PropOp30
 70
     1
102
RTVSPost2010Prop31
280
     0
102
RTVSPost2010PropOp31
 70
     1
102
RTVSPost2010Prop32
280
     0
102
RTVSPost2010PropOp32
 70
     1
102
RTVSPost2010Prop33
280
     0
102
RTVSPost2010PropOp33
 70
     1
102
RTVSPost2010Prop34
280
     0
102
RTVSPost2010PropOp34
 70
     1
102
RTVSPost2010Prop35
280
     0
102
RTVSPost2010PropOp35
 70
     1
102
RTVSPost2010Prop36
280
     0
102
RTVSPost2010PropOp36
 70
     1
102
RTVSPost2010Prop37
 90
       50
102
RTVSPost2010PropOp37
 70
     1
102
RTVSPost2010Prop38
140
0.0
102
RTVSPost2010PropOp38
 70
     1
102
RTVSPost2010Prop39
140
1.0
102
RTVSPost2010PropOp39
 70
     1
102
RTVSPost2010Prop40
 90
        0
102
RTVSPost2010PropOp40
 70
     1
102
RTVSPost2010Prop41ColorIndex
 90
       18
102
RTVSPost2010Prop41ColorRGB
 90
        0
102
RTVSPost2010PropOp41
 70
     1
102
RTVSPost2010Prop42
 90
       50
102
RTVSPost2010PropOp42
 70
     1
102
RTVSPost2010Prop43
 90
        3
102
RTVSPost2010PropOp43
 70
     1
102
RTVSPost2010Prop44ColorIndex
 90
        5
102
RTVSPost2010Prop44ColorRGB
 90
      255
102
RTVSPost2010PropOp44
 70
     1
102
RTVSPost2010Prop45
280
     0
102
RTVSPost2010PropOp45
 70
     1
102
RTVSPost2010Prop46
 90
       50
102
RTVSPost2010PropOp46
 70
     1
102
RTVSPost2010Prop47
 90
       50
102
RTVSPost2010PropOp47
 70
     1
102
RTVSPost2010Prop48
 90
       50
102
RTVSPost2010PropOp48
 70
     1
102
RTVSPost2010Prop49
280
     0
102
RTVSPost2010PropOp49
 70
     1
102
RTVSPost2010Prop50
 90
       50
102
RTVSPost2010PropOp50
 70
     1
102
RTVSPost2010Prop51ColorIndex
 90
      256
102
RTVSPost2010Prop51ColorRGB
 90
-16777216
102
RTVSPost2010PropOp51
 70
     0
102
RTVSPost2010Prop52
140
1.0
102
RTVSPost2010PropOp52
 70
     0
102
RTVSPost2010Prop53
 90
        2
102
RTVSPost2010PropOp53
 70
     1
102
RTVSPost2010Prop54
  1
strokes_ogs.tif
102
RTVSPost2010PropOp54
 70
     1
102
RTVSPost2010Prop55
280
     0
102
RTVSPost2010PropOp55
 70
     1
102
RTVSPost2010Prop56
140
1.0
102
RTVSPost2010PropOp56
 70
     1
102
RTVSPost2010Prop57
140
1.0
102
RTVSPost2010PropOp57
 70
     1
  0
XRECORD
  5
292
102
{ACAD_REACTORS
330
291
102
}
330
291
100
AcDbXrecord
280
     1
102
RTVSPropertyOp0
 70
     1
102
RTVSPropertyOp1
 70
     1
102
RTVSPropertyOp2
 70
     1
102
RTVSPropertyOp3
 70
     1
102
RTVSPropertyOp4
 70
     1
102
RTVSPropertyOp5
 70
     1
102
RTVSPropertyOp6
 70
     1
102
RTVSPropertyOp7
 70
     1
102
RTVSPropertyOp8
 70
     1
102
RTVSPropertyOp9
 70
     1
102
RTVSPropertyOp10
 70
     1
102
RTVSPropertyOp11
 70
     1
102
RTVSPropertyOp12
 70
     1
102
RTVSPropertyOp13
 70
     1
102
RTVSPropertyOp14
 70
     1
102
RTVSPropertyOp15
 70
     1
102
RTVSPropertyOp16
 70
     1
102
RTVSPropertyOp17
 70
     1
102
RTVSPropertyOp18
 70
     1
102
RTVSPropertyOp19
 70
     1
102
RTVSPropertyOp20
 70
     1
102
RTVSPropertyOp21
 70
     1
102
RTVSPropertyOp22
 70
     1
102
RTVSPropertyOp23
 70
     1
102
RTVSPropertyOp24
 70
     1
102
RTVSPropertyOp25
 70
     1
102
RTVSPropertyOp26
 70
     1
102
RTVSPropertyOp27
 70
     1
102
RTVSPropertyOp28
 70
     1
102
RTVSPropertyOp29
 70
     1
102
RTVSPropertyOp30
 70
     1
102
RTVSPropertyOp31
 70
     1
102
RTVSPropertyOp32
 70
     1
102
RTVSPropertyOp33
 70
     1
102
RTVSPropertyOp34
 70
     1
102
RTVSPropertyOp35
 70
     1
102
RTVSPropertyOp36
 70
     1
102
RTVSPropertyOp37
 70
     1
102
RTVSPropertyOp38
 70
     1
102
RTVSPropertyOp39
 70
     1
102
RTVSPropertyOp40
 70
     1
102
RTVSPropertyOp41
 70
     1
102
RTVSPropertyOp42
 70
     1
102
RTVSPropertyOp43
 70
     1
102
RTVSPropertyOp44
 70
     1
102
RTVSPropertyOp45
 70
     1
102
RTVSPropertyOp46
 70
     1
102
RTVSPropertyOp47
 70
     1
102
RTVSPropertyOp48
 70
     1
102
RTVSPropertyOp49
 70
     1
102
RTVSPropertyOp50
 70
     1
102
RTVSPropertyOp51
 70
     0
102
RTVSPropertyOp52
 70
     0
102
RTVSPropertyOp53
 70
     1
102
RTVSPropertyOp54
 70
     1
102
RTVSPropertyOp55
 70
     1
102
RTVSPropertyOp56
 70
     1
102
RTVSPropertyOp57
 70
     1
102
RTVSPost2010Prop28
280
     0
102
RTVSPost2010PropOp28
 70
     1
102
RTVSPost2010Prop29
280
     1
102
RTVSPost2010PropOp29
 70
     1
102
RTVSPost2010Prop30
280
     1
102
RTVSPost2010PropOp30
 70
     1
102
RTVSPost2010Prop31
280
     0
102
RTVSPost2010PropOp31
 70
     1
102
RTVSPost2010Prop32
280
     0
102
RTVSPost2010PropOp32
 70
     1
102
RTVSPost2010Prop33
280
     0
102
RTVSPost2010PropOp33
 70
     1
102
RTVSPost2010Prop34
280
     0
102
RTVSPost2010PropOp34
 70
     1
102
RTVSPost2010Prop35
280
     0
102
RTVSPost2010PropOp35
 70
     1
102
RTVSPost2010Prop36
280
     0
102
RTVSPost2010PropOp36
 70
     1
102
RTVSPost2010Prop37
 90
       50
102
RTVSPost2010PropOp37
 70
     1
102
RTVSPost2010Prop38
140
0.0
102
RTVSPost2010PropOp38
 70
     1
102
RTVSPost2010Prop39
140
1.0
102
RTVSPost2010PropOp39
 70
     1
102
RTVSPost2010Prop40
 90
        0
102
RTVSPost2010PropOp40
 70
     1
102
RTVSPost2010Prop41ColorIndex
 90
       18
102
RTVSPost2010Prop41ColorRGB
 90
        0
102
RTVSPost2010PropOp41
 70
     1
102
RTVSPost2010Prop42
 90
       50
102
RTVSPost2010PropOp42
 70
     1
102
RTVSPost2010Prop43
 90
        3
102
RTVSPost2010PropOp43
 70
     1
102
RTVSPost2010Prop44ColorIndex
 90
        5
102
RTVSPost2010Prop44ColorRGB
 90
      255
102
RTVSPost2010PropOp44
 70
     1
102
RTVSPost2010Prop45
280
     0
102
RTVSPost2010PropOp45
 70
     1
102
RTVSPost2010Prop46
 90
       50
102
RTVSPost2010PropOp46
 70
     1
102
RTVSPost2010Prop47
 90
       50
102
RTVSPost2010PropOp47
 70
     1
102
RTVSPost2010Prop48
 90
       50
102
RTVSPost2010PropOp48
 70
     1
102
RTVSPost2010Prop49
280
     0
102
RTVSPost2010PropOp49
 70
     1
102
RTVSPost2010Prop50
 90
       50
102
RTVSPost2010PropOp50
 70
     1
102
RTVSPost2010Prop51ColorIndex
 90
      256
102
RTVSPost2010Prop51ColorRGB
 90
-16777216
102
RTVSPost2010PropOp51
 70
     0
102
RTVSPost2010Prop52
140
1.0
102
RTVSPost2010PropOp52
 70
     0
102
RTVSPost2010Prop53
 90
        2
102
RTVSPost2010PropOp53
 70
     1
102
RTVSPost2010Prop54
  1
strokes_ogs.tif
102
RTVSPost2010PropOp54
 70
     1
102
RTVSPost2010Prop55
280
     0
102
RTVSPost2010PropOp55
 70
     1
102
RTVSPost2010Prop56
140
1.0
102
RTVSPost2010PropOp56
 70
     1
102
RTVSPost2010Prop57
140
1.0
102
RTVSPost2010PropOp57
 70
     1
  0
XRECORD
  5
29A
102
{ACAD_REACTORS
330
299
102
}
330
299
100
AcDbXrecord
280
     1
102
RTVSPropertyOp0
 70
     1
102
RTVSPropertyOp1
 70
     1
102
RTVSPropertyOp2
 70
     1
102
RTVSPropertyOp3
 70
     1
102
RTVSPropertyOp4
 70
     1
102
RTVSPropertyOp5
 70
     1
102
RTVSPropertyOp6
 70
     1
102
RTVSPropertyOp7
 70
     1
102
RTVSPropertyOp8
 70
     1
102
RTVSPropertyOp9
 70
     1
102
RTVSPropertyOp10
 70
     1
102
RTVSPropertyOp11
 70
     1
102
RTVSPropertyOp12
 70
     1
102
RTVSPropertyOp13
 70
     1
102
RTVSPropertyOp14
 70
     1
102
RTVSPropertyOp15
 70
     1
102
RTVSPropertyOp16
 70
     1
102
RTVSPropertyOp17
 70
     1
102
RTVSPropertyOp18
 70
     1
102
RTVSPropertyOp19
 70
     1
102
RTVSPropertyOp20
 70
     1
102
RTVSPropertyOp21
 70
     1
102
RTVSPropertyOp22
 70
     1
102
RTVSPropertyOp23
 70
     1
102
RTVSPropertyOp24
 70
     1
102
RTVSPropertyOp25
 70
     1
102
RTVSPropertyOp26
 70
     1
102
RTVSPropertyOp27
 70
     1
102
RTVSPropertyOp28
 70
     1
102
RTVSPropertyOp29
 70
     1
102
RTVSPropertyOp30
 70
     1
102
RTVSPropertyOp31
 70
     1
102
RTVSPropertyOp32
 70
     1
102
RTVSPropertyOp33
 70
     1
102
RTVSPropertyOp34
 70
     1
102
RTVSPropertyOp35
 70
     1
102
RTVSPropertyOp36
 70
     1
102
RTVSPropertyOp37
 70
     1
102
RTVSPropertyOp38
 70
     1
102
RTVSPropertyOp39
 70
     1
102
RTVSPropertyOp40
 70
     1
102
RTVSPropertyOp41
 70
     1
102
RTVSPropertyOp42
 70
     1
102
RTVSPropertyOp43
 70
     1
102
RTVSPropertyOp44
 70
     1
102
RTVSPropertyOp45
 70
     1
102
RTVSPropertyOp46
 70
     1
102
RTVSPropertyOp47
 70
     1
102
RTVSPropertyOp48
 70
     1
102
RTVSPropertyOp49
 70
     1
102
RTVSPropertyOp50
 70
     1
102
RTVSPropertyOp51
 70
     0
102
RTVSPropertyOp52
 70
     0
102
RTVSPropertyOp53
 70
     1
102
RTVSPropertyOp54
 70
     1
102
RTVSPropertyOp55
 70
     1
102
RTVSPropertyOp56
 70
     1
102
RTVSPropertyOp57
 70
     1
102
RTVSPost2010Prop28
280
     0
102
RTVSPost2010PropOp28
 70
     1
102
RTVSPost2010Prop29
280
     1
102
RTVSPost2010PropOp29
 70
     1
102
RTVSPost2010Prop30
280
     1
102
RTVSPost2010PropOp30
 70
     1
102
RTVSPost2010Prop31
280
     0
102
RTVSPost2010PropOp31
 70
     1
102
RTVSPost2010Prop32
280
     0
102
RTVSPost2010PropOp32
 70
     1
102
RTVSPost2010Prop33
280
     0
102
RTVSPost2010PropOp33
 70
     1
102
RTVSPost2010Prop34
280
     0
102
RTVSPost2010PropOp34
 70
     1
102
RTVSPost2010Prop35
280
     0
102
RTVSPost2010PropOp35
 70
     1
102
RTVSPost2010Prop36
280
     0
102
RTVSPost2010PropOp36
 70
     1
102
RTVSPost2010Prop37
 90
       50
102
RTVSPost2010PropOp37
 70
     1
102
RTVSPost2010Prop38
140
0.0
102
RTVSPost2010PropOp38
 70
     1
102
RTVSPost2010Prop39
140
1.0
102
RTVSPost2010PropOp39
 70
     1
102
RTVSPost2010Prop40
 90
        0
102
RTVSPost2010PropOp40
 70
     1
102
RTVSPost2010Prop41ColorIndex
 90
       18
102
RTVSPost2010Prop41ColorRGB
 90
        0
102
RTVSPost2010PropOp41
 70
     1
102
RTVSPost2010Prop42
 90
       50
102
RTVSPost2010PropOp42
 70
     1
102
RTVSPost2010Prop43
 90
        3
102
RTVSPost2010PropOp43
 70
     1
102
RTVSPost2010Prop44ColorIndex
 90
        5
102
RTVSPost2010Prop44ColorRGB
 90
      255
102
RTVSPost2010PropOp44
 70
     1
102
RTVSPost2010Prop45
280
     0
102
RTVSPost2010PropOp45
 70
     1
102
RTVSPost2010Prop46
 90
       50
102
RTVSPost2010PropOp46
 70
     1
102
RTVSPost2010Prop47
 90
       50
102
RTVSPost2010PropOp47
 70
     1
102
RTVSPost2010Prop48
 90
       50
102
RTVSPost2010PropOp48
 70
     1
102
RTVSPost2010Prop49
280
     0
102
RTVSPost2010PropOp49
 70
     1
102
RTVSPost2010Prop50
 90
       50
102
RTVSPost2010PropOp50
 70
     1
102
RTVSPost2010Prop51ColorIndex
 90
      256
102
RTVSPost2010Prop51ColorRGB
 90
-16777216
102
RTVSPost2010PropOp51
 70
     0
102
RTVSPost2010Prop52
140
1.0
102
RTVSPost2010PropOp52
 70
     0
102
RTVSPost2010Prop53
 90
        2
102
RTVSPost2010PropOp53
 70
     1
102
RTVSPost2010Prop54
  1
strokes_ogs.tif
102
RTVSPost2010PropOp54
 70
     1
102
RTVSPost2010Prop55
280
     0
102
RTVSPost2010PropOp55
 70
     1
102
RTVSPost2010Prop56
140
1.0
102
RTVSPost2010PropOp56
 70
     1
102
RTVSPost2010Prop57
140
1.0
102
RTVSPost2010PropOp57
 70
     1
  0
XRECORD
  5
28E
102
{ACAD_REACTORS
330
28D
102
}
330
28D
100
AcDbXrecord
280
     1
102
RTVSPropertyOp0
 70
     1
102
RTVSPropertyOp1
 70
     1
102
RTVSPropertyOp2
 70
     1
102
RTVSPropertyOp3
 70
     1
102
RTVSPropertyOp4
 70
     1
102
RTVSPropertyOp5
 70
     1
102
RTVSPropertyOp6
 70
     1
102
RTVSPropertyOp7
 70
     1
102
RTVSPropertyOp8
 70
     1
102
RTVSPropertyOp9
 70
     1
102
RTVSPropertyOp10
 70
     1
102
RTVSPropertyOp11
 70
     1
102
RTVSPropertyOp12
 70
     1
102
RTVSPropertyOp13
 70
     1
102
RTVSPropertyOp14
 70
     1
102
RTVSPropertyOp15
 70
     1
102
RTVSPropertyOp16
 70
     1
102
RTVSPropertyOp17
 70
     1
102
RTVSPropertyOp18
 70
     1
102
RTVSPropertyOp19
 70
     1
102
RTVSPropertyOp20
 70
     1
102
RTVSPropertyOp21
 70
     1
102
RTVSPropertyOp22
 70
     1
102
RTVSPropertyOp23
 70
     1
102
RTVSPropertyOp24
 70
     1
102
RTVSPropertyOp25
 70
     1
102
RTVSPropertyOp26
 70
     1
102
RTVSPropertyOp27
 70
     1
102
RTVSPropertyOp28
 70
     1
102
RTVSPropertyOp29
 70
     1
102
RTVSPropertyOp30
 70
     1
102
RTVSPropertyOp31
 70
     1
102
RTVSPropertyOp32
 70
     1
102
RTVSPropertyOp33
 70
     1
102
RTVSPropertyOp34
 70
     1
102
RTVSPropertyOp35
 70
     1
102
RTVSPropertyOp36
 70
     1
102
RTVSPropertyOp37
 70
     1
102
RTVSPropertyOp38
 70
     1
102
RTVSPropertyOp39
 70
     1
102
RTVSPropertyOp40
 70
     1
102
RTVSPropertyOp41
 70
     1
102
RTVSPropertyOp42
 70
     1
102
RTVSPropertyOp43
 70
     1
102
RTVSPropertyOp44
 70
     1
102
RTVSPropertyOp45
 70
     1
102
RTVSPropertyOp46
 70
     1
102
RTVSPropertyOp47
 70
     1
102
RTVSPropertyOp48
 70
     1
102
RTVSPropertyOp49
 70
     1
102
RTVSPropertyOp50
 70
     1
102
RTVSPropertyOp51
 70
     0
102
RTVSPropertyOp52
 70
     0
102
RTVSPropertyOp53
 70
     1
102
RTVSPropertyOp54
 70
     1
102
RTVSPropertyOp55
 70
     1
102
RTVSPropertyOp56
 70
     1
102
RTVSPropertyOp57
 70
     1
102
RTVSPost2010Prop28
280
     0
102
RTVSPost2010PropOp28
 70
     1
102
RTVSPost2010Prop29
280
     1
102
RTVSPost2010PropOp29
 70
     1
102
RTVSPost2010Prop30
280
     1
102
RTVSPost2010PropOp30
 70
     1
102
RTVSPost2010Prop31
280
     0
102
RTVSPost2010PropOp31
 70
     1
102
RTVSPost2010Prop32
280
     0
102
RTVSPost2010PropOp32
 70
     1
102
RTVSPost2010Prop33
280
     0
102
RTVSPost2010PropOp33
 70
     1
102
RTVSPost2010Prop34
280
     0
102
RTVSPost2010PropOp34
 70
     1
102
RTVSPost2010Prop35
280
     0
102
RTVSPost2010PropOp35
 70
     1
102
RTVSPost2010Prop36
280
     0
102
RTVSPost2010PropOp36
 70
     1
102
RTVSPost2010Prop37
 90
       50
102
RTVSPost2010PropOp37
 70
     1
102
RTVSPost2010Prop38
140
0.0
102
RTVSPost2010PropOp38
 70
     1
102
RTVSPost2010Prop39
140
1.0
102
RTVSPost2010PropOp39
 70
     1
102
RTVSPost2010Prop40
 90
        0
102
RTVSPost2010PropOp40
 70
     1
102
RTVSPost2010Prop41ColorIndex
 90
       18
102
RTVSPost2010Prop41ColorRGB
 90
        0
102
RTVSPost2010PropOp41
 70
     1
102
RTVSPost2010Prop42
 90
       50
102
RTVSPost2010PropOp42
 70
     1
102
RTVSPost2010Prop43
 90
        3
102
RTVSPost2010PropOp43
 70
     1
102
RTVSPost2010Prop44ColorIndex
 90
        5
102
RTVSPost2010Prop44ColorRGB
 90
      255
102
RTVSPost2010PropOp44
 70
     1
102
RTVSPost2010Prop45
280
     0
102
RTVSPost2010PropOp45
 70
     1
102
RTVSPost2010Prop46
 90
       50
102
RTVSPost2010PropOp46
 70
     1
102
RTVSPost2010Prop47
 90
       50
102
RTVSPost2010PropOp47
 70
     1
102
RTVSPost2010Prop48
 90
       50
102
RTVSPost2010PropOp48
 70
     1
102
RTVSPost2010Prop49
280
     0
102
RTVSPost2010PropOp49
 70
     1
102
RTVSPost2010Prop50
 90
       50
102
RTVSPost2010PropOp50
 70
     1
102
RTVSPost2010Prop51ColorIndex
 90
      256
102
RTVSPost2010Prop51ColorRGB
 90
-16777216
102
RTVSPost2010PropOp51
 70
     0
102
RTVSPost2010Prop52
140
1.0
102
RTVSPost2010PropOp52
 70
     0
102
RTVSPost2010Prop53
 90
        2
102
RTVSPost2010PropOp53
 70
     1
102
RTVSPost2010Prop54
  1
strokes_ogs.tif
102
RTVSPost2010PropOp54
 70
     1
102
RTVSPost2010Prop55
280
     0
102
RTVSPost2010PropOp55
 70
     1
102
RTVSPost2010Prop56
140
1.0
102
RTVSPost2010PropOp56
 70
     1
102
RTVSPost2010Prop57
140
1.0
102
RTVSPost2010PropOp57
 70
     1
  0
XRECORD
  5
290
102
{ACAD_REACTORS
330
28F
102
}
330
28F
100
AcDbXrecord
280
     1
102
RTVSPropertyOp0
 70
     1
102
RTVSPropertyOp1
 70
     1
102
RTVSPropertyOp2
 70
     1
102
RTVSPropertyOp3
 70
     1
102
RTVSPropertyOp4
 70
     1
102
RTVSPropertyOp5
 70
     1
102
RTVSPropertyOp6
 70
     1
102
RTVSPropertyOp7
 70
     1
102
RTVSPropertyOp8
 70
     1
102
RTVSPropertyOp9
 70
     1
102
RTVSPropertyOp10
 70
     1
102
RTVSPropertyOp11
 70
     1
102
RTVSPropertyOp12
 70
     1
102
RTVSPropertyOp13
 70
     1
102
RTVSPropertyOp14
 70
     1
102
RTVSPropertyOp15
 70
     1
102
RTVSPropertyOp16
 70
     1
102
RTVSPropertyOp17
 70
     1
102
RTVSPropertyOp18
 70
     1
102
RTVSPropertyOp19
 70
     1
102
RTVSPropertyOp20
 70
     1
102
RTVSPropertyOp21
 70
     1
102
RTVSPropertyOp22
 70
     1
102
RTVSPropertyOp23
 70
     1
102
RTVSPropertyOp24
 70
     1
102
RTVSPropertyOp25
 70
     1
102
RTVSPropertyOp26
 70
     1
102
RTVSPropertyOp27
 70
     1
102
RTVSPropertyOp28
 70
     1
102
RTVSPropertyOp29
 70
     1
102
RTVSPropertyOp30
 70
     1
102
RTVSPropertyOp31
 70
     1
102
RTVSPropertyOp32
 70
     1
102
RTVSPropertyOp33
 70
     1
102
RTVSPropertyOp34
 70
     1
102
RTVSPropertyOp35
 70
     1
102
RTVSPropertyOp36
 70
     1
102
RTVSPropertyOp37
 70
     1
102
RTVSPropertyOp38
 70
     1
102
RTVSPropertyOp39
 70
     1
102
RTVSPropertyOp40
 70
     1
102
RTVSPropertyOp41
 70
     1
102
RTVSPropertyOp42
 70
     1
102
RTVSPropertyOp43
 70
     1
102
RTVSPropertyOp44
 70
     1
102
RTVSPropertyOp45
 70
     1
102
RTVSPropertyOp46
 70
     1
102
RTVSPropertyOp47
 70
     1
102
RTVSPropertyOp48
 70
     1
102
RTVSPropertyOp49
 70
     1
102
RTVSPropertyOp50
 70
     1
102
RTVSPropertyOp51
 70
     0
102
RTVSPropertyOp52
 70
     0
102
RTVSPropertyOp53
 70
     1
102
RTVSPropertyOp54
 70
     1
102
RTVSPropertyOp55
 70
     1
102
RTVSPropertyOp56
 70
     1
102
RTVSPropertyOp57
 70
     1
102
RTVSPost2010Prop28
280
     0
102
RTVSPost2010PropOp28
 70
     1
102
RTVSPost2010Prop29
280
     1
102
RTVSPost2010PropOp29
 70
     1
102
RTVSPost2010Prop30
280
     1
102
RTVSPost2010PropOp30
 70
     1
102
RTVSPost2010Prop31
280
     0
102
RTVSPost2010PropOp31
 70
     1
102
RTVSPost2010Prop32
280
     0
102
RTVSPost2010PropOp32
 70
     1
102
RTVSPost2010Prop33
280
     0
102
RTVSPost2010PropOp33
 70
     1
102
RTVSPost2010Prop34
280
     0
102
RTVSPost2010PropOp34
 70
     1
102
RTVSPost2010Prop35
280
     0
102
RTVSPost2010PropOp35
 70
     1
102
RTVSPost2010Prop36
280
     0
102
RTVSPost2010PropOp36
 70
     1
102
RTVSPost2010Prop37
 90
       50
102
RTVSPost2010PropOp37
 70
     1
102
RTVSPost2010Prop38
140
0.0
102
RTVSPost2010PropOp38
 70
     1
102
RTVSPost2010Prop39
140
1.0
102
RTVSPost2010PropOp39
 70
     1
102
RTVSPost2010Prop40
 90
        0
102
RTVSPost2010PropOp40
 70
     1
102
RTVSPost2010Prop41ColorIndex
 90
       18
102
RTVSPost2010Prop41ColorRGB
 90
        0
102
RTVSPost2010PropOp41
 70
     1
102
RTVSPost2010Prop42
 90
       50
102
RTVSPost2010PropOp42
 70
     1
102
RTVSPost2010Prop43
 90
        3
102
RTVSPost2010PropOp43
 70
     1
102
RTVSPost2010Prop44ColorIndex
 90
        5
102
RTVSPost2010Prop44ColorRGB
 90
      255
102
RTVSPost2010PropOp44
 70
     1
102
RTVSPost2010Prop45
280
     0
102
RTVSPost2010PropOp45
 70
     1
102
RTVSPost2010Prop46
 90
       50
102
RTVSPost2010PropOp46
 70
     1
102
RTVSPost2010Prop47
 90
       50
102
RTVSPost2010PropOp47
 70
     1
102
RTVSPost2010Prop48
 90
       50
102
RTVSPost2010PropOp48
 70
     1
102
RTVSPost2010Prop49
280
     0
102
RTVSPost2010PropOp49
 70
     1
102
RTVSPost2010Prop50
 90
       50
102
RTVSPost2010PropOp50
 70
     1
102
RTVSPost2010Prop51ColorIndex
 90
      256
102
RTVSPost2010Prop51ColorRGB
 90
-16777216
102
RTVSPost2010PropOp51
 70
     0
102
RTVSPost2010Prop52
140
1.0
102
RTVSPost2010PropOp52
 70
     0
102
RTVSPost2010Prop53
 90
        2
102
RTVSPost2010PropOp53
 70
     1
102
RTVSPost2010Prop54
  1
strokes_ogs.tif
102
RTVSPost2010PropOp54
 70
     1
102
RTVSPost2010Prop55
280
     0
102
RTVSPost2010PropOp55
 70
     1
102
RTVSPost2010Prop56
140
1.0
102
RTVSPost2010PropOp56
 70
     1
102
RTVSPost2010Prop57
140
1.0
102
RTVSPost2010PropOp57
 70
     1
  0
XRECORD
  5
2A0
102
{ACAD_REACTORS
330
29F
102
}
330
29F
100
AcDbXrecord
280
     1
102
RTVSPropertyOp0
 70
     0
102
RTVSPropertyOp1
 70
     0
102
RTVSPropertyOp2
 70
     0
102
RTVSPropertyOp3
 70
     0
102
RTVSPropertyOp4
 70
     0
102
RTVSPropertyOp5
 70
     0
102
RTVSPropertyOp6
 70
     0
102
RTVSPropertyOp7
 70
     0
102
RTVSPropertyOp8
 70
     0
102
RTVSPropertyOp9
 70
     0
102
RTVSPropertyOp10
 70
     0
102
RTVSPropertyOp11
 70
     0
102
RTVSPropertyOp12
 70
     0
102
RTVSPropertyOp13
 70
     0
102
RTVSPropertyOp14
 70
     2
102
RTVSPropertyOp15
 70
     0
102
RTVSPropertyOp16
 70
     0
102
RTVSPropertyOp17
 70
     0
102
RTVSPropertyOp18
 70
     0
102
RTVSPropertyOp19
 70
     0
102
RTVSPropertyOp20
 70
     0
102
RTVSPropertyOp21
 70
     0
102
RTVSPropertyOp22
 70
     0
102
RTVSPropertyOp23
 70
     0
102
RTVSPropertyOp24
 70
     0
102
RTVSPropertyOp25
 70
     0
102
RTVSPropertyOp26
 70
     0
102
RTVSPropertyOp27
 70
     0
102
RTVSPropertyOp28
 70
     0
102
RTVSPropertyOp29
 70
     0
102
RTVSPropertyOp30
 70
     0
102
RTVSPropertyOp31
 70
     0
102
RTVSPropertyOp32
 70
     0
102
RTVSPropertyOp33
 70
     0
102
RTVSPropertyOp34
 70
     0
102
RTVSPropertyOp35
 70
     0
102
RTVSPropertyOp36
 70
     0
102
RTVSPropertyOp37
 70
     0
102
RTVSPropertyOp38
 70
     0
102
RTVSPropertyOp39
 70
     0
102
RTVSPropertyOp40
 70
     0
102
RTVSPropertyOp41
 70
     0
102
RTVSPropertyOp42
 70
     0
102
RTVSPropertyOp43
 70
     0
102
RTVSPropertyOp44
 70
     0
102
RTVSPropertyOp45
 70
     0
102
RTVSPropertyOp46
 70
     0
102
RTVSPropertyOp47
 70
     0
102
RTVSPropertyOp48
 70
     0
102
RTVSPropertyOp49
 70
     0
102
RTVSPropertyOp50
 70
     0
102
RTVSPropertyOp51
 70
     0
102
RTVSPropertyOp52
 70
     0
102
RTVSPropertyOp53
 70
     0
102
RTVSPropertyOp54
 70
     0
102
RTVSPropertyOp55
 70
     0
102
RTVSPropertyOp56
 70
     0
102
RTVSPropertyOp57
 70
     0
102
RTVSPost2010Prop28
280
     0
102
RTVSPost2010PropOp28
 70
     0
102
RTVSPost2010Prop29
280
     1
102
RTVSPost2010PropOp29
 70
     0
102
RTVSPost2010Prop30
280
     1
102
RTVSPost2010PropOp30
 70
     0
102
RTVSPost2010Prop31
280
     0
102
RTVSPost2010PropOp31
 70
     0
102
RTVSPost2010Prop32
280
     0
102
RTVSPost2010PropOp32
 70
     0
102
RTVSPost2010Prop33
280
     0
102
RTVSPost2010PropOp33
 70
     0
102
RTVSPost2010Prop34
280
     0
102
RTVSPost2010PropOp34
 70
     0
102
RTVSPost2010Prop35
280
     0
102
RTVSPost2010PropOp35
 70
     0
102
RTVSPost2010Prop36
280
     0
102
RTVSPost2010PropOp36
 70
     0
102
RTVSPost2010Prop37
 90
       50
102
RTVSPost2010PropOp37
 70
     0
102
RTVSPost2010Prop38
140
0.0
102
RTVSPost2010PropOp38
 70
     0
102
RTVSPost2010Prop39
140
1.0
102
RTVSPost2010PropOp39
 70
     0
102
RTVSPost2010Prop40
 90
        0
102
RTVSPost2010PropOp40
 70
     0
102
RTVSPost2010Prop41ColorIndex
 90
       18
102
RTVSPost2010Prop41ColorRGB
 90
        0
102
RTVSPost2010PropOp41
 70
     0
102
RTVSPost2010Prop42
 90
       50
102
RTVSPost2010PropOp42
 70
     0
102
RTVSPost2010Prop43
 90
        3
102
RTVSPost2010PropOp43
 70
     0
102
RTVSPost2010Prop44ColorIndex
 90
        5
102
RTVSPost2010Prop44ColorRGB
 90
      255
102
RTVSPost2010PropOp44
 70
     0
102
RTVSPost2010Prop45
280
     0
102
RTVSPost2010PropOp45
 70
     0
102
RTVSPost2010Prop46
 90
       50
102
RTVSPost2010PropOp46
 70
     0
102
RTVSPost2010Prop47
 90
       50
102
RTVSPost2010PropOp47
 70
     0
102
RTVSPost2010Prop48
 90
       50
102
RTVSPost2010PropOp48
 70
     0
102
RTVSPost2010Prop49
280
     0
102
RTVSPost2010PropOp49
 70
     0
102
RTVSPost2010Prop50
 90
       50
102
RTVSPost2010PropOp50
 70
     0
102
RTVSPost2010Prop51ColorIndex
 90
      256
102
RTVSPost2010Prop51ColorRGB
 90
-16777216
102
RTVSPost2010PropOp51
 70
     0
102
RTVSPost2010Prop52
140
1.0
102
RTVSPost2010PropOp52
 70
     0
102
RTVSPost2010Prop53
 90
        2
102
RTVSPost2010PropOp53
 70
     0
102
RTVSPost2010Prop54
  1
strokes_ogs.tif
102
RTVSPost2010PropOp54
 70
     0
102
RTVSPost2010Prop55
280
     0
102
RTVSPost2010PropOp55
 70
     0
102
RTVSPost2010Prop56
140
1.0
102
RTVSPost2010PropOp56
 70
     0
102
RTVSPost2010Prop57
140
1.0
102
RTVSPost2010PropOp57
 70
     0
  0
XRECORD
  5
298
102
{ACAD_REACTORS
330
297
102
}
330
297
100
AcDbXrecord
280
     1
102
RTVSPropertyOp0
 70
     1
102
RTVSPropertyOp1
 70
     1
102
RTVSPropertyOp2
 70
     1
102
RTVSPropertyOp3
 70
     1
102
RTVSPropertyOp4
 70
     1
102
RTVSPropertyOp5
 70
     1
102
RTVSPropertyOp6
 70
     1
102
RTVSPropertyOp7
 70
     1
102
RTVSPropertyOp8
 70
     1
102
RTVSPropertyOp9
 70
     1
102
RTVSPropertyOp10
 70
     1
102
RTVSPropertyOp11
 70
     1
102
RTVSPropertyOp12
 70
     1
102
RTVSPropertyOp13
 70
     1
102
RTVSPropertyOp14
 70
     1
102
RTVSPropertyOp15
 70
     1
102
RTVSPropertyOp16
 70
     1
102
RTVSPropertyOp17
 70
     1
102
RTVSPropertyOp18
 70
     1
102
RTVSPropertyOp19
 70
     1
102
RTVSPropertyOp20
 70
     1
102
RTVSPropertyOp21
 70
     1
102
RTVSPropertyOp22
 70
     1
102
RTVSPropertyOp23
 70
     1
102
RTVSPropertyOp24
 70
     1
102
RTVSPropertyOp25
 70
     1
102
RTVSPropertyOp26
 70
     1
102
RTVSPropertyOp27
 70
     1
102
RTVSPropertyOp28
 70
     1
102
RTVSPropertyOp29
 70
     1
102
RTVSPropertyOp30
 70
     1
102
RTVSPropertyOp31
 70
     1
102
RTVSPropertyOp32
 70
     1
102
RTVSPropertyOp33
 70
     1
102
RTVSPropertyOp34
 70
     1
102
RTVSPropertyOp35
 70
     1
102
RTVSPropertyOp36
 70
     1
102
RTVSPropertyOp37
 70
     1
102
RTVSPropertyOp38
 70
     1
102
RTVSPropertyOp39
 70
     1
102
RTVSPropertyOp40
 70
     1
102
RTVSPropertyOp41
 70
     1
102
RTVSPropertyOp42
 70
     1
102
RTVSPropertyOp43
 70
     1
102
RTVSPropertyOp44
 70
     1
102
RTVSPropertyOp45
 70
     1
102
RTVSPropertyOp46
 70
     1
102
RTVSPropertyOp47
 70
     1
102
RTVSPropertyOp48
 70
     1
102
RTVSPropertyOp49
 70
     1
102
RTVSPropertyOp50
 70
     1
102
RTVSPropertyOp51
 70
     0
102
RTVSPropertyOp52
 70
     0
102
RTVSPropertyOp53
 70
     1
102
RTVSPropertyOp54
 70
     1
102
RTVSPropertyOp55
 70
     1
102
RTVSPropertyOp56
 70
     1
102
RTVSPropertyOp57
 70
     1
102
RTVSPost2010Prop28
280
     0
102
RTVSPost2010PropOp28
 70
     1
102
RTVSPost2010Prop29
280
     1
102
RTVSPost2010PropOp29
 70
     1
102
RTVSPost2010Prop30
280
     1
102
RTVSPost2010PropOp30
 70
     1
102
RTVSPost2010Prop31
280
     0
102
RTVSPost2010PropOp31
 70
     1
102
RTVSPost2010Prop32
280
     0
102
RTVSPost2010PropOp32
 70
     1
102
RTVSPost2010Prop33
280
     0
102
RTVSPost2010PropOp33
 70
     1
102
RTVSPost2010Prop34
280
     0
102
RTVSPost2010PropOp34
 70
     1
102
RTVSPost2010Prop35
280
     0
102
RTVSPost2010PropOp35
 70
     1
102
RTVSPost2010Prop36
280
     0
102
RTVSPost2010PropOp36
 70
     1
102
RTVSPost2010Prop37
 90
       50
102
RTVSPost2010PropOp37
 70
     1
102
RTVSPost2010Prop38
140
0.0
102
RTVSPost2010PropOp38
 70
     1
102
RTVSPost2010Prop39
140
1.0
102
RTVSPost2010PropOp39
 70
     1
102
RTVSPost2010Prop40
 90
        0
102
RTVSPost2010PropOp40
 70
     1
102
RTVSPost2010Prop41ColorIndex
 90
       18
102
RTVSPost2010Prop41ColorRGB
 90
        0
102
RTVSPost2010PropOp41
 70
     1
102
RTVSPost2010Prop42
 90
       50
102
RTVSPost2010PropOp42
 70
     1
102
RTVSPost2010Prop43
 90
        3
102
RTVSPost2010PropOp43
 70
     1
102
RTVSPost2010Prop44ColorIndex
 90
        5
102
RTVSPost2010Prop44ColorRGB
 90
      255
102
RTVSPost2010PropOp44
 70
     1
102
RTVSPost2010Prop45
280
     0
102
RTVSPost2010PropOp45
 70
     1
102
RTVSPost2010Prop46
 90
       50
102
RTVSPost2010PropOp46
 70
     1
102
RTVSPost2010Prop47
 90
       50
102
RTVSPost2010PropOp47
 70
     1
102
RTVSPost2010Prop48
 90
       50
102
RTVSPost2010PropOp48
 70
     1
102
RTVSPost2010Prop49
280
     0
102
RTVSPost2010PropOp49
 70
     1
102
RTVSPost2010Prop50
 90
       50
102
RTVSPost2010PropOp50
 70
     1
102
RTVSPost2010Prop51ColorIndex
 90
      256
102
RTVSPost2010Prop51ColorRGB
 90
-16777216
102
RTVSPost2010PropOp51
 70
     0
102
RTVSPost2010Prop52
140
1.0
102
RTVSPost2010PropOp52
 70
     0
102
RTVSPost2010Prop53
 90
        2
102
RTVSPost2010PropOp53
 70
     1
102
RTVSPost2010Prop54
  1
strokes_ogs.tif
102
RTVSPost2010PropOp54
 70
     1
102
RTVSPost2010Prop55
280
     0
102
RTVSPost2010PropOp55
 70
     1
102
RTVSPost2010Prop56
140
1.0
102
RTVSPost2010PropOp56
 70
     1
102
RTVSPost2010Prop57
140
1.0
102
RTVSPost2010PropOp57
 70
     1
  0
XRECORD
  5
27C
102
{ACAD_REACTORS
330
27B
102
}
330
27B
100
AcDbXrecord
280
     1
102
RTVSPropertyOp0
 70
     1
102
RTVSPropertyOp1
 70
     1
102
RTVSPropertyOp2
 70
     1
102
RTVSPropertyOp3
 70
     1
102
RTVSPropertyOp4
 70
     1
102
RTVSPropertyOp5
 70
     1
102
RTVSPropertyOp6
 70
     1
102
RTVSPropertyOp7
 70
     1
102
RTVSPropertyOp8
 70
     1
102
RTVSPropertyOp9
 70
     1
102
RTVSPropertyOp10
 70
     1
102
RTVSPropertyOp11
 70
     1
102
RTVSPropertyOp12
 70
     1
102
RTVSPropertyOp13
 70
     1
102
RTVSPropertyOp14
 70
     1
102
RTVSPropertyOp15
 70
     1
102
RTVSPropertyOp16
 70
     1
102
RTVSPropertyOp17
 70
     1
102
RTVSPropertyOp18
 70
     1
102
RTVSPropertyOp19
 70
     1
102
RTVSPropertyOp20
 70
     1
102
RTVSPropertyOp21
 70
     1
102
RTVSPropertyOp22
 70
     1
102
RTVSPropertyOp23
 70
     1
102
RTVSPropertyOp24
 70
     1
102
RTVSPropertyOp25
 70
     1
102
RTVSPropertyOp26
 70
     1
102
RTVSPropertyOp27
 70
     1
102
RTVSPropertyOp28
 70
     1
102
RTVSPropertyOp29
 70
     1
102
RTVSPropertyOp30
 70
     1
102
RTVSPropertyOp31
 70
     1
102
RTVSPropertyOp32
 70
     1
102
RTVSPropertyOp33
 70
     1
102
RTVSPropertyOp34
 70
     1
102
RTVSPropertyOp35
 70
     1
102
RTVSPropertyOp36
 70
     1
102
RTVSPropertyOp37
 70
     1
102
RTVSPropertyOp38
 70
     1
102
RTVSPropertyOp39
 70
     1
102
RTVSPropertyOp40
 70
     1
102
RTVSPropertyOp41
 70
     1
102
RTVSPropertyOp42
 70
     1
102
RTVSPropertyOp43
 70
     1
102
RTVSPropertyOp44
 70
     1
102
RTVSPropertyOp45
 70
     1
102
RTVSPropertyOp46
 70
     1
102
RTVSPropertyOp47
 70
     1
102
RTVSPropertyOp48
 70
     1
102
RTVSPropertyOp49
 70
     1
102
RTVSPropertyOp50
 70
     1
102
RTVSPropertyOp51
 70
     0
102
RTVSPropertyOp52
 70
     0
102
RTVSPropertyOp53
 70
     1
102
RTVSPropertyOp54
 70
     1
102
RTVSPropertyOp55
 70
     1
102
RTVSPropertyOp56
 70
     1
102
RTVSPropertyOp57
 70
     1
102
RTVSPost2010Prop28
280
     0
102
RTVSPost2010PropOp28
 70
     1
102
RTVSPost2010Prop29
280
     1
102
RTVSPost2010PropOp29
 70
     1
102
RTVSPost2010Prop30
280
     1
102
RTVSPost2010PropOp30
 70
     1
102
RTVSPost2010Prop31
280
     0
102
RTVSPost2010PropOp31
 70
     1
102
RTVSPost2010Prop32
280
     0
102
RTVSPost2010PropOp32
 70
     1
102
RTVSPost2010Prop33
280
     0
102
RTVSPost2010PropOp33
 70
     1
102
RTVSPost2010Prop34
280
     0
102
RTVSPost2010PropOp34
 70
     1
102
RTVSPost2010Prop35
280
     0
102
RTVSPost2010PropOp35
 70
     1
102
RTVSPost2010Prop36
280
     0
102
RTVSPost2010PropOp36
 70
     1
102
RTVSPost2010Prop37
 90
       50
102
RTVSPost2010PropOp37
 70
     1
102
RTVSPost2010Prop38
140
0.0
102
RTVSPost2010PropOp38
 70
     1
102
RTVSPost2010Prop39
140
1.0
102
RTVSPost2010PropOp39
 70
     1
102
RTVSPost2010Prop40
 90
        0
102
RTVSPost2010PropOp40
 70
     1
102
RTVSPost2010Prop41ColorIndex
 90
       18
102
RTVSPost2010Prop41ColorRGB
 90
        0
102
RTVSPost2010PropOp41
 70
     1
102
RTVSPost2010Prop42
 90
       50
102
RTVSPost2010PropOp42
 70
     1
102
RTVSPost2010Prop43
 90
        3
102
RTVSPost2010PropOp43
 70
     1
102
RTVSPost2010Prop44ColorIndex
 90
        5
102
RTVSPost2010Prop44ColorRGB
 90
      255
102
RTVSPost2010PropOp44
 70
     1
102
RTVSPost2010Prop45
280
     0
102
RTVSPost2010PropOp45
 70
     1
102
RTVSPost2010Prop46
 90
       50
102
RTVSPost2010PropOp46
 70
     1
102
RTVSPost2010Prop47
 90
       50
102
RTVSPost2010PropOp47
 70
     1
102
RTVSPost2010Prop48
 90
       50
102
RTVSPost2010PropOp48
 70
     1
102
RTVSPost2010Prop49
280
     0
102
RTVSPost2010PropOp49
 70
     1
102
RTVSPost2010Prop50
 90
       50
102
RTVSPost2010PropOp50
 70
     1
102
RTVSPost2010Prop51ColorIndex
 90
      256
102
RTVSPost2010Prop51ColorRGB
 90
-16777216
102
RTVSPost2010PropOp51
 70
     0
102
RTVSPost2010Prop52
140
1.0
102
RTVSPost2010PropOp52
 70
     0
102
RTVSPost2010Prop53
 90
        2
102
RTVSPost2010PropOp53
 70
     1
102
RTVSPost2010Prop54
  1
strokes_ogs.tif
102
RTVSPost2010PropOp54
 70
     1
102
RTVSPost2010Prop55
280
     0
102
RTVSPost2010PropOp55
 70
     1
102
RTVSPost2010Prop56
140
1.0
102
RTVSPost2010PropOp56
 70
     1
102
RTVSPost2010Prop57
140
1.0
102
RTVSPost2010PropOp57
 70
     1
  0
XRECORD
  5
27E
102
{ACAD_REACTORS
330
27D
102
}
330
27D
100
AcDbXrecord
280
     1
102
RTVSPropertyOp0
 70
     1
102
RTVSPropertyOp1
 70
     1
102
RTVSPropertyOp2
 70
     1
102
RTVSPropertyOp3
 70
     1
102
RTVSPropertyOp4
 70
     1
102
RTVSPropertyOp5
 70
     1
102
RTVSPropertyOp6
 70
     1
102
RTVSPropertyOp7
 70
     1
102
RTVSPropertyOp8
 70
     1
102
RTVSPropertyOp9
 70
     1
102
RTVSPropertyOp10
 70
     1
102
RTVSPropertyOp11
 70
     1
102
RTVSPropertyOp12
 70
     1
102
RTVSPropertyOp13
 70
     1
102
RTVSPropertyOp14
 70
     1
102
RTVSPropertyOp15
 70
     1
102
RTVSPropertyOp16
 70
     1
102
RTVSPropertyOp17
 70
     1
102
RTVSPropertyOp18
 70
     1
102
RTVSPropertyOp19
 70
     1
102
RTVSPropertyOp20
 70
     1
102
RTVSPropertyOp21
 70
     1
102
RTVSPropertyOp22
 70
     1
102
RTVSPropertyOp23
 70
     1
102
RTVSPropertyOp24
 70
     1
102
RTVSPropertyOp25
 70
     1
102
RTVSPropertyOp26
 70
     1
102
RTVSPropertyOp27
 70
     1
102
RTVSPropertyOp28
 70
     1
102
RTVSPropertyOp29
 70
     1
102
RTVSPropertyOp30
 70
     1
102
RTVSPropertyOp31
 70
     1
102
RTVSPropertyOp32
 70
     1
102
RTVSPropertyOp33
 70
     1
102
RTVSPropertyOp34
 70
     1
102
RTVSPropertyOp35
 70
     1
102
RTVSPropertyOp36
 70
     1
102
RTVSPropertyOp37
 70
     1
102
RTVSPropertyOp38
 70
     1
102
RTVSPropertyOp39
 70
     1
102
RTVSPropertyOp40
 70
     1
102
RTVSPropertyOp41
 70
     1
102
RTVSPropertyOp42
 70
     1
102
RTVSPropertyOp43
 70
     1
102
RTVSPropertyOp44
 70
     1
102
RTVSPropertyOp45
 70
     1
102
RTVSPropertyOp46
 70
     1
102
RTVSPropertyOp47
 70
     1
102
RTVSPropertyOp48
 70
     1
102
RTVSPropertyOp49
 70
     1
102
RTVSPropertyOp50
 70
     1
102
RTVSPropertyOp51
 70
     0
102
RTVSPropertyOp52
 70
     0
102
RTVSPropertyOp53
 70
     1
102
RTVSPropertyOp54
 70
     1
102
RTVSPropertyOp55
 70
     1
102
RTVSPropertyOp56
 70
     1
102
RTVSPropertyOp57
 70
     1
102
RTVSPost2010Prop28
280
     0
102
RTVSPost2010PropOp28
 70
     1
102
RTVSPost2010Prop29
280
     1
102
RTVSPost2010PropOp29
 70
     1
102
RTVSPost2010Prop30
280
     1
102
RTVSPost2010PropOp30
 70
     1
102
RTVSPost2010Prop31
280
     0
102
RTVSPost2010PropOp31
 70
     1
102
RTVSPost2010Prop32
280
     0
102
RTVSPost2010PropOp32
 70
     1
102
RTVSPost2010Prop33
280
     0
102
RTVSPost2010PropOp33
 70
     1
102
RTVSPost2010Prop34
280
     0
102
RTVSPost2010PropOp34
 70
     1
102
RTVSPost2010Prop35
280
     0
102
RTVSPost2010PropOp35
 70
     1
102
RTVSPost2010Prop36
280
     0
102
RTVSPost2010PropOp36
 70
     1
102
RTVSPost2010Prop37
 90
       50
102
RTVSPost2010PropOp37
 70
     1
102
RTVSPost2010Prop38
140
0.0
102
RTVSPost2010PropOp38
 70
     1
102
RTVSPost2010Prop39
140
1.0
102
RTVSPost2010PropOp39
 70
     1
102
RTVSPost2010Prop40
 90
        0
102
RTVSPost2010PropOp40
 70
     1
102
RTVSPost2010Prop41ColorIndex
 90
       18
102
RTVSPost2010Prop41ColorRGB
 90
        0
102
RTVSPost2010PropOp41
 70
     1
102
RTVSPost2010Prop42
 90
       50
102
RTVSPost2010PropOp42
 70
     1
102
RTVSPost2010Prop43
 90
        3
102
RTVSPost2010PropOp43
 70
     1
102
RTVSPost2010Prop44ColorIndex
 90
        5
102
RTVSPost2010Prop44ColorRGB
 90
      255
102
RTVSPost2010PropOp44
 70
     1
102
RTVSPost2010Prop45
280
     0
102
RTVSPost2010PropOp45
 70
     1
102
RTVSPost2010Prop46
 90
       50
102
RTVSPost2010PropOp46
 70
     1
102
RTVSPost2010Prop47
 90
       50
102
RTVSPost2010PropOp47
 70
     1
102
RTVSPost2010Prop48
 90
       50
102
RTVSPost2010PropOp48
 70
     1
102
RTVSPost2010Prop49
280
     0
102
RTVSPost2010PropOp49
 70
     1
102
RTVSPost2010Prop50
 90
       50
102
RTVSPost2010PropOp50
 70
     1
102
RTVSPost2010Prop51ColorIndex
 90
      256
102
RTVSPost2010Prop51ColorRGB
 90
-16777216
102
RTVSPost2010PropOp51
 70
     0
102
RTVSPost2010Prop52
140
1.0
102
RTVSPost2010PropOp52
 70
     0
102
RTVSPost2010Prop53
 90
        2
102
RTVSPost2010PropOp53
 70
     1
102
RTVSPost2010Prop54
  1
strokes_ogs.tif
102
RTVSPost2010PropOp54
 70
     1
102
RTVSPost2010Prop55
280
     0
102
RTVSPost2010PropOp55
 70
     1
102
RTVSPost2010Prop56
140
1.0
102
RTVSPost2010PropOp56
 70
     1
102
RTVSPost2010Prop57
140
1.0
102
RTVSPost2010PropOp57
 70
     1
  0
XRECORD
  5
280
102
{ACAD_REACTORS
330
27F
102
}
330
27F
100
AcDbXrecord
280
     1
102
RTVSPropertyOp0
 70
     1
102
RTVSPropertyOp1
 70
     1
102
RTVSPropertyOp2
 70
     1
102
RTVSPropertyOp3
 70
     1
102
RTVSPropertyOp4
 70
     1
102
RTVSPropertyOp5
 70
     1
102
RTVSPropertyOp6
 70
     1
102
RTVSPropertyOp7
 70
     1
102
RTVSPropertyOp8
 70
     1
102
RTVSPropertyOp9
 70
     1
102
RTVSPropertyOp10
 70
     1
102
RTVSPropertyOp11
 70
     1
102
RTVSPropertyOp12
 70
     1
102
RTVSPropertyOp13
 70
     1
102
RTVSPropertyOp14
 70
     1
102
RTVSPropertyOp15
 70
     1
102
RTVSPropertyOp16
 70
     1
102
RTVSPropertyOp17
 70
     1
102
RTVSPropertyOp18
 70
     1
102
RTVSPropertyOp19
 70
     1
102
RTVSPropertyOp20
 70
     1
102
RTVSPropertyOp21
 70
     1
102
RTVSPropertyOp22
 70
     1
102
RTVSPropertyOp23
 70
     1
102
RTVSPropertyOp24
 70
     1
102
RTVSPropertyOp25
 70
     1
102
RTVSPropertyOp26
 70
     1
102
RTVSPropertyOp27
 70
     1
102
RTVSPropertyOp28
 70
     1
102
RTVSPropertyOp29
 70
     1
102
RTVSPropertyOp30
 70
     1
102
RTVSPropertyOp31
 70
     1
102
RTVSPropertyOp32
 70
     1
102
RTVSPropertyOp33
 70
     1
102
RTVSPropertyOp34
 70
     1
102
RTVSPropertyOp35
 70
     1
102
RTVSPropertyOp36
 70
     1
102
RTVSPropertyOp37
 70
     1
102
RTVSPropertyOp38
 70
     1
102
RTVSPropertyOp39
 70
     1
102
RTVSPropertyOp40
 70
     1
102
RTVSPropertyOp41
 70
     1
102
RTVSPropertyOp42
 70
     1
102
RTVSPropertyOp43
 70
     1
102
RTVSPropertyOp44
 70
     1
102
RTVSPropertyOp45
 70
     1
102
RTVSPropertyOp46
 70
     1
102
RTVSPropertyOp47
 70
     1
102
RTVSPropertyOp48
 70
     1
102
RTVSPropertyOp49
 70
     1
102
RTVSPropertyOp50
 70
     1
102
RTVSPropertyOp51
 70
     0
102
RTVSPropertyOp52
 70
     0
102
RTVSPropertyOp53
 70
     1
102
RTVSPropertyOp54
 70
     1
102
RTVSPropertyOp55
 70
     1
102
RTVSPropertyOp56
 70
     1
102
RTVSPropertyOp57
 70
     1
102
RTVSPost2010Prop28
280
     0
102
RTVSPost2010PropOp28
 70
     1
102
RTVSPost2010Prop29
280
     1
102
RTVSPost2010PropOp29
 70
     1
102
RTVSPost2010Prop30
280
     1
102
RTVSPost2010PropOp30
 70
     1
102
RTVSPost2010Prop31
280
     0
102
RTVSPost2010PropOp31
 70
     1
102
RTVSPost2010Prop32
280
     0
102
RTVSPost2010PropOp32
 70
     1
102
RTVSPost2010Prop33
280
     0
102
RTVSPost2010PropOp33
 70
     1
102
RTVSPost2010Prop34
280
     0
102
RTVSPost2010PropOp34
 70
     1
102
RTVSPost2010Prop35
280
     0
102
RTVSPost2010PropOp35
 70
     1
102
RTVSPost2010Prop36
280
     0
102
RTVSPost2010PropOp36
 70
     1
102
RTVSPost2010Prop37
 90
       50
102
RTVSPost2010PropOp37
 70
     1
102
RTVSPost2010Prop38
140
0.0
102
RTVSPost2010PropOp38
 70
     1
102
RTVSPost2010Prop39
140
1.0
102
RTVSPost2010PropOp39
 70
     1
102
RTVSPost2010Prop40
 90
        0
102
RTVSPost2010PropOp40
 70
     1
102
RTVSPost2010Prop41ColorIndex
 90
       18
102
RTVSPost2010Prop41ColorRGB
 90
        0
102
RTVSPost2010PropOp41
 70
     1
102
RTVSPost2010Prop42
 90
       50
102
RTVSPost2010PropOp42
 70
     1
102
RTVSPost2010Prop43
 90
        3
102
RTVSPost2010PropOp43
 70
     1
102
RTVSPost2010Prop44ColorIndex
 90
        5
102
RTVSPost2010Prop44ColorRGB
 90
      255
102
RTVSPost2010PropOp44
 70
     1
102
RTVSPost2010Prop45
280
     0
102
RTVSPost2010PropOp45
 70
     1
102
RTVSPost2010Prop46
 90
       50
102
RTVSPost2010PropOp46
 70
     1
102
RTVSPost2010Prop47
 90
       50
102
RTVSPost2010PropOp47
 70
     1
102
RTVSPost2010Prop48
 90
       50
102
RTVSPost2010PropOp48
 70
     1
102
RTVSPost2010Prop49
280
     0
102
RTVSPost2010PropOp49
 70
     1
102
RTVSPost2010Prop50
 90
       50
102
RTVSPost2010PropOp50
 70
     1
102
RTVSPost2010Prop51ColorIndex
 90
      256
102
RTVSPost2010Prop51ColorRGB
 90
-16777216
102
RTVSPost2010PropOp51
 70
     0
102
RTVSPost2010Prop52
140
1.0
102
RTVSPost2010PropOp52
 70
     0
102
RTVSPost2010Prop53
 90
        2
102
RTVSPost2010PropOp53
 70
     1
102
RTVSPost2010Prop54
  1
strokes_ogs.tif
102
RTVSPost2010PropOp54
 70
     1
102
RTVSPost2010Prop55
280
     0
102
RTVSPost2010PropOp55
 70
     1
102
RTVSPost2010Prop56
140
1.0
102
RTVSPost2010PropOp56
 70
     1
102
RTVSPost2010Prop57
140
1.0
102
RTVSPost2010PropOp57
 70
     1
  0
XRECORD
  5
282
102
{ACAD_REACTORS
330
281
102
}
330
281
100
AcDbXrecord
280
     1
102
RTVSPropertyOp0
 70
     1
102
RTVSPropertyOp1
 70
     1
102
RTVSPropertyOp2
 70
     1
102
RTVSPropertyOp3
 70
     1
102
RTVSPropertyOp4
 70
     1
102
RTVSPropertyOp5
 70
     1
102
RTVSPropertyOp6
 70
     1
102
RTVSPropertyOp7
 70
     1
102
RTVSPropertyOp8
 70
     1
102
RTVSPropertyOp9
 70
     1
102
RTVSPropertyOp10
 70
     1
102
RTVSPropertyOp11
 70
     1
102
RTVSPropertyOp12
 70
     1
102
RTVSPropertyOp13
 70
     1
102
RTVSPropertyOp14
 70
     1
102
RTVSPropertyOp15
 70
     1
102
RTVSPropertyOp16
 70
     1
102
RTVSPropertyOp17
 70
     1
102
RTVSPropertyOp18
 70
     1
102
RTVSPropertyOp19
 70
     1
102
RTVSPropertyOp20
 70
     1
102
RTVSPropertyOp21
 70
     1
102
RTVSPropertyOp22
 70
     1
102
RTVSPropertyOp23
 70
     1
102
RTVSPropertyOp24
 70
     1
102
RTVSPropertyOp25
 70
     1
102
RTVSPropertyOp26
 70
     1
102
RTVSPropertyOp27
 70
     1
102
RTVSPropertyOp28
 70
     1
102
RTVSPropertyOp29
 70
     1
102
RTVSPropertyOp30
 70
     1
102
RTVSPropertyOp31
 70
     1
102
RTVSPropertyOp32
 70
     1
102
RTVSPropertyOp33
 70
     1
102
RTVSPropertyOp34
 70
     1
102
RTVSPropertyOp35
 70
     1
102
RTVSPropertyOp36
 70
     1
102
RTVSPropertyOp37
 70
     1
102
RTVSPropertyOp38
 70
     1
102
RTVSPropertyOp39
 70
     1
102
RTVSPropertyOp40
 70
     1
102
RTVSPropertyOp41
 70
     1
102
RTVSPropertyOp42
 70
     1
102
RTVSPropertyOp43
 70
     1
102
RTVSPropertyOp44
 70
     1
102
RTVSPropertyOp45
 70
     1
102
RTVSPropertyOp46
 70
     1
102
RTVSPropertyOp47
 70
     1
102
RTVSPropertyOp48
 70
     1
102
RTVSPropertyOp49
 70
     1
102
RTVSPropertyOp50
 70
     1
102
RTVSPropertyOp51
 70
     0
102
RTVSPropertyOp52
 70
     0
102
RTVSPropertyOp53
 70
     1
102
RTVSPropertyOp54
 70
     1
102
RTVSPropertyOp55
 70
     1
102
RTVSPropertyOp56
 70
     1
102
RTVSPropertyOp57
 70
     1
102
RTVSPost2010Prop28
280
     0
102
RTVSPost2010PropOp28
 70
     1
102
RTVSPost2010Prop29
280
     1
102
RTVSPost2010PropOp29
 70
     1
102
RTVSPost2010Prop30
280
     1
102
RTVSPost2010PropOp30
 70
     1
102
RTVSPost2010Prop31
280
     0
102
RTVSPost2010PropOp31
 70
     1
102
RTVSPost2010Prop32
280
     0
102
RTVSPost2010PropOp32
 70
     1
102
RTVSPost2010Prop33
280
     0
102
RTVSPost2010PropOp33
 70
     1
102
RTVSPost2010Prop34
280
     0
102
RTVSPost2010PropOp34
 70
     1
102
RTVSPost2010Prop35
280
     0
102
RTVSPost2010PropOp35
 70
     1
102
RTVSPost2010Prop36
280
     0
102
RTVSPost2010PropOp36
 70
     1
102
RTVSPost2010Prop37
 90
       50
102
RTVSPost2010PropOp37
 70
     1
102
RTVSPost2010Prop38
140
0.0
102
RTVSPost2010PropOp38
 70
     1
102
RTVSPost2010Prop39
140
1.0
102
RTVSPost2010PropOp39
 70
     1
102
RTVSPost2010Prop40
 90
        0
102
RTVSPost2010PropOp40
 70
     1
102
RTVSPost2010Prop41ColorIndex
 90
       18
102
RTVSPost2010Prop41ColorRGB
 90
        0
102
RTVSPost2010PropOp41
 70
     1
102
RTVSPost2010Prop42
 90
       50
102
RTVSPost2010PropOp42
 70
     1
102
RTVSPost2010Prop43
 90
        3
102
RTVSPost2010PropOp43
 70
     1
102
RTVSPost2010Prop44ColorIndex
 90
        5
102
RTVSPost2010Prop44ColorRGB
 90
      255
102
RTVSPost2010PropOp44
 70
     1
102
RTVSPost2010Prop45
280
     0
102
RTVSPost2010PropOp45
 70
     1
102
RTVSPost2010Prop46
 90
       50
102
RTVSPost2010PropOp46
 70
     1
102
RTVSPost2010Prop47
 90
       50
102
RTVSPost2010PropOp47
 70
     1
102
RTVSPost2010Prop48
 90
       50
102
RTVSPost2010PropOp48
 70
     1
102
RTVSPost2010Prop49
280
     0
102
RTVSPost2010PropOp49
 70
     1
102
RTVSPost2010Prop50
 90
       50
102
RTVSPost2010PropOp50
 70
     1
102
RTVSPost2010Prop51ColorIndex
 90
      256
102
RTVSPost2010Prop51ColorRGB
 90
-16777216
102
RTVSPost2010PropOp51
 70
     0
102
RTVSPost2010Prop52
140
1.0
102
RTVSPost2010PropOp52
 70
     0
102
RTVSPost2010Prop53
 90
        2
102
RTVSPost2010PropOp53
 70
     1
102
RTVSPost2010Prop54
  1
strokes_ogs.tif
102
RTVSPost2010PropOp54
 70
     1
102
RTVSPost2010Prop55
280
     0
102
RTVSPost2010PropOp55
 70
     1
102
RTVSPost2010Prop56
140
1.0
102
RTVSPost2010PropOp56
 70
     1
102
RTVSPost2010Prop57
140
1.0
102
RTVSPost2010PropOp57
 70
     1
  0
XRECORD
  5
288
102
{ACAD_REACTORS
330
287
102
}
330
287
100
AcDbXrecord
280
     1
102
RTVSPropertyOp0
 70
     1
102
RTVSPropertyOp1
 70
     1
102
RTVSPropertyOp2
 70
     1
102
RTVSPropertyOp3
 70
     1
102
RTVSPropertyOp4
 70
     1
102
RTVSPropertyOp5
 70
     1
102
RTVSPropertyOp6
 70
     1
102
RTVSPropertyOp7
 70
     1
102
RTVSPropertyOp8
 70
     1
102
RTVSPropertyOp9
 70
     1
102
RTVSPropertyOp10
 70
     1
102
RTVSPropertyOp11
 70
     1
102
RTVSPropertyOp12
 70
     1
102
RTVSPropertyOp13
 70
     1
102
RTVSPropertyOp14
 70
     1
102
RTVSPropertyOp15
 70
     1
102
RTVSPropertyOp16
 70
     1
102
RTVSPropertyOp17
 70
     1
102
RTVSPropertyOp18
 70
     1
102
RTVSPropertyOp19
 70
     1
102
RTVSPropertyOp20
 70
     1
102
RTVSPropertyOp21
 70
     1
102
RTVSPropertyOp22
 70
     1
102
RTVSPropertyOp23
 70
     1
102
RTVSPropertyOp24
 70
     1
102
RTVSPropertyOp25
 70
     1
102
RTVSPropertyOp26
 70
     1
102
RTVSPropertyOp27
 70
     1
102
RTVSPropertyOp28
 70
     1
102
RTVSPropertyOp29
 70
     1
102
RTVSPropertyOp30
 70
     1
102
RTVSPropertyOp31
 70
     1
102
RTVSPropertyOp32
 70
     1
102
RTVSPropertyOp33
 70
     1
102
RTVSPropertyOp34
 70
     1
102
RTVSPropertyOp35
 70
     1
102
RTVSPropertyOp36
 70
     1
102
RTVSPropertyOp37
 70
     1
102
RTVSPropertyOp38
 70
     1
102
RTVSPropertyOp39
 70
     1
102
RTVSPropertyOp40
 70
     1
102
RTVSPropertyOp41
 70
     1
102
RTVSPropertyOp42
 70
     1
102
RTVSPropertyOp43
 70
     1
102
RTVSPropertyOp44
 70
     1
102
RTVSPropertyOp45
 70
     1
102
RTVSPropertyOp46
 70
     1
102
RTVSPropertyOp47
 70
     1
102
RTVSPropertyOp48
 70
     1
102
RTVSPropertyOp49
 70
     1
102
RTVSPropertyOp50
 70
     1
102
RTVSPropertyOp51
 70
     0
102
RTVSPropertyOp52
 70
     0
102
RTVSPropertyOp53
 70
     1
102
RTVSPropertyOp54
 70
     1
102
RTVSPropertyOp55
 70
     1
102
RTVSPropertyOp56
 70
     1
102
RTVSPropertyOp57
 70
     1
102
RTVSPost2010Prop28
280
     0
102
RTVSPost2010PropOp28
 70
     1
102
RTVSPost2010Prop29
280
     1
102
RTVSPost2010PropOp29
 70
     1
102
RTVSPost2010Prop30
280
     1
102
RTVSPost2010PropOp30
 70
     1
102
RTVSPost2010Prop31
280
     0
102
RTVSPost2010PropOp31
 70
     1
102
RTVSPost2010Prop32
280
     0
102
RTVSPost2010PropOp32
 70
     1
102
RTVSPost2010Prop33
280
     0
102
RTVSPost2010PropOp33
 70
     1
102
RTVSPost2010Prop34
280
     0
102
RTVSPost2010PropOp34
 70
     1
102
RTVSPost2010Prop35
280
     0
102
RTVSPost2010PropOp35
 70
     1
102
RTVSPost2010Prop36
280
     0
102
RTVSPost2010PropOp36
 70
     1
102
RTVSPost2010Prop37
 90
       50
102
RTVSPost2010PropOp37
 70
     1
102
RTVSPost2010Prop38
140
0.0
102
RTVSPost2010PropOp38
 70
     1
102
RTVSPost2010Prop39
140
1.0
102
RTVSPost2010PropOp39
 70
     1
102
RTVSPost2010Prop40
 90
        0
102
RTVSPost2010PropOp40
 70
     1
102
RTVSPost2010Prop41ColorIndex
 90
       18
102
RTVSPost2010Prop41ColorRGB
 90
        0
102
RTVSPost2010PropOp41
 70
     1
102
RTVSPost2010Prop42
 90
       50
102
RTVSPost2010PropOp42
 70
     1
102
RTVSPost2010Prop43
 90
        3
102
RTVSPost2010PropOp43
 70
     1
102
RTVSPost2010Prop44ColorIndex
 90
        5
102
RTVSPost2010Prop44ColorRGB
 90
      255
102
RTVSPost2010PropOp44
 70
     1
102
RTVSPost2010Prop45
280
     0
102
RTVSPost2010PropOp45
 70
     1
102
RTVSPost2010Prop46
 90
       50
102
RTVSPost2010PropOp46
 70
     1
102
RTVSPost2010Prop47
 90
       50
102
RTVSPost2010PropOp47
 70
     1
102
RTVSPost2010Prop48
 90
       50
102
RTVSPost2010PropOp48
 70
     1
102
RTVSPost2010Prop49
280
     0
102
RTVSPost2010PropOp49
 70
     1
102
RTVSPost2010Prop50
 90
       50
102
RTVSPost2010PropOp50
 70
     1
102
RTVSPost2010Prop51ColorIndex
 90
      256
102
RTVSPost2010Prop51ColorRGB
 90
-16777216
102
RTVSPost2010PropOp51
 70
     0
102
RTVSPost2010Prop52
140
1.0
102
RTVSPost2010PropOp52
 70
     0
102
RTVSPost2010Prop53
 90
        2
102
RTVSPost2010PropOp53
 70
     1
102
RTVSPost2010Prop54
  1
strokes_ogs.tif
102
RTVSPost2010PropOp54
 70
     1
102
RTVSPost2010Prop55
280
     0
102
RTVSPost2010PropOp55
 70
     1
102
RTVSPost2010Prop56
140
1.0
102
RTVSPost2010PropOp56
 70
     1
102
RTVSPost2010Prop57
140
1.0
102
RTVSPost2010PropOp57
 70
     1
  0
XRECORD
  5
29C
102
{ACAD_REACTORS
330
29B
102
}
330
29B
100
AcDbXrecord
280
     1
102
RTVSPropertyOp0
 70
     0
102
RTVSPropertyOp1
 70
     0
102
RTVSPropertyOp2
 70
     0
102
RTVSPropertyOp3
 70
     0
102
RTVSPropertyOp4
 70
     0
102
RTVSPropertyOp5
 70
     0
102
RTVSPropertyOp6
 70
     0
102
RTVSPropertyOp7
 70
     0
102
RTVSPropertyOp8
 70
     0
102
RTVSPropertyOp9
 70
     0
102
RTVSPropertyOp10
 70
     0
102
RTVSPropertyOp11
 70
     0
102
RTVSPropertyOp12
 70
     0
102
RTVSPropertyOp13
 70
     0
102
RTVSPropertyOp14
 70
     2
102
RTVSPropertyOp15
 70
     0
102
RTVSPropertyOp16
 70
     0
102
RTVSPropertyOp17
 70
     0
102
RTVSPropertyOp18
 70
     0
102
RTVSPropertyOp19
 70
     0
102
RTVSPropertyOp20
 70
     0
102
RTVSPropertyOp21
 70
     0
102
RTVSPropertyOp22
 70
     0
102
RTVSPropertyOp23
 70
     0
102
RTVSPropertyOp24
 70
     0
102
RTVSPropertyOp25
 70
     0
102
RTVSPropertyOp26
 70
     0
102
RTVSPropertyOp27
 70
     0
102
RTVSPropertyOp28
 70
     0
102
RTVSPropertyOp29
 70
     0
102
RTVSPropertyOp30
 70
     0
102
RTVSPropertyOp31
 70
     0
102
RTVSPropertyOp32
 70
     0
102
RTVSPropertyOp33
 70
     0
102
RTVSPropertyOp34
 70
     0
102
RTVSPropertyOp35
 70
     0
102
RTVSPropertyOp36
 70
     0
102
RTVSPropertyOp37
 70
     0
102
RTVSPropertyOp38
 70
     0
102
RTVSPropertyOp39
 70
     0
102
RTVSPropertyOp40
 70
     0
102
RTVSPropertyOp41
 70
     0
102
RTVSPropertyOp42
 70
     0
102
RTVSPropertyOp43
 70
     0
102
RTVSPropertyOp44
 70
     0
102
RTVSPropertyOp45
 70
     0
102
RTVSPropertyOp46
 70
     0
102
RTVSPropertyOp47
 70
     0
102
RTVSPropertyOp48
 70
     0
102
RTVSPropertyOp49
 70
     0
102
RTVSPropertyOp50
 70
     0
102
RTVSPropertyOp51
 70
     0
102
RTVSPropertyOp52
 70
     0
102
RTVSPropertyOp53
 70
     0
102
RTVSPropertyOp54
 70
     0
102
RTVSPropertyOp55
 70
     0
102
RTVSPropertyOp56
 70
     0
102
RTVSPropertyOp57
 70
     0
102
RTVSPost2010Prop28
280
     0
102
RTVSPost2010PropOp28
 70
     0
102
RTVSPost2010Prop29
280
     1
102
RTVSPost2010PropOp29
 70
     0
102
RTVSPost2010Prop30
280
     1
102
RTVSPost2010PropOp30
 70
     0
102
RTVSPost2010Prop31
280
     0
102
RTVSPost2010PropOp31
 70
     0
102
RTVSPost2010Prop32
280
     0
102
RTVSPost2010PropOp32
 70
     0
102
RTVSPost2010Prop33
280
     0
102
RTVSPost2010PropOp33
 70
     0
102
RTVSPost2010Prop34
280
     0
102
RTVSPost2010PropOp34
 70
     0
102
RTVSPost2010Prop35
280
     0
102
RTVSPost2010PropOp35
 70
     0
102
RTVSPost2010Prop36
280
     0
102
RTVSPost2010PropOp36
 70
     0
102
RTVSPost2010Prop37
 90
       50
102
RTVSPost2010PropOp37
 70
     0
102
RTVSPost2010Prop38
140
0.0
102
RTVSPost2010PropOp38
 70
     0
102
RTVSPost2010Prop39
140
1.0
102
RTVSPost2010PropOp39
 70
     0
102
RTVSPost2010Prop40
 90
        0
102
RTVSPost2010PropOp40
 70
     0
102
RTVSPost2010Prop41ColorIndex
 90
       18
102
RTVSPost2010Prop41ColorRGB
 90
        0
102
RTVSPost2010PropOp41
 70
     0
102
RTVSPost2010Prop42
 90
       50
102
RTVSPost2010PropOp42
 70
     0
102
RTVSPost2010Prop43
 90
        3
102
RTVSPost2010PropOp43
 70
     0
102
RTVSPost2010Prop44ColorIndex
 90
        5
102
RTVSPost2010Prop44ColorRGB
 90
      255
102
RTVSPost2010PropOp44
 70
     0
102
RTVSPost2010Prop45
280
     0
102
RTVSPost2010PropOp45
 70
     0
102
RTVSPost2010Prop46
 90
       50
102
RTVSPost2010PropOp46
 70
     0
102
RTVSPost2010Prop47
 90
       50
102
RTVSPost2010PropOp47
 70
     0
102
RTVSPost2010Prop48
 90
       50
102
RTVSPost2010PropOp48
 70
     0
102
RTVSPost2010Prop49
280
     0
102
RTVSPost2010PropOp49
 70
     0
102
RTVSPost2010Prop50
 90
       50
102
RTVSPost2010PropOp50
 70
     0
102
RTVSPost2010Prop51ColorIndex
 90
      256
102
RTVSPost2010Prop51ColorRGB
 90
-16777216
102
RTVSPost2010PropOp51
 70
     0
102
RTVSPost2010Prop52
140
1.0
102
RTVSPost2010PropOp52
 70
     0
102
RTVSPost2010Prop53
 90
        2
102
RTVSPost2010PropOp53
 70
     0
102
RTVSPost2010Prop54
  1
strokes_ogs.tif
102
RTVSPost2010PropOp54
 70
     0
102
RTVSPost2010Prop55
280
     0
102
RTVSPost2010PropOp55
 70
     0
102
RTVSPost2010Prop56
140
1.0
102
RTVSPost2010PropOp56
 70
     0
102
RTVSPost2010Prop57
140
1.0
102
RTVSPost2010PropOp57
 70
     0
  0
XRECORD
  5
296
102
{ACAD_REACTORS
330
295
102
}
330
295
100
AcDbXrecord
280
     1
102
RTVSPropertyOp0
 70
     1
102
RTVSPropertyOp1
 70
     1
102
RTVSPropertyOp2
 70
     1
102
RTVSPropertyOp3
 70
     1
102
RTVSPropertyOp4
 70
     1
102
RTVSPropertyOp5
 70
     1
102
RTVSPropertyOp6
 70
     1
102
RTVSPropertyOp7
 70
     1
102
RTVSPropertyOp8
 70
     1
102
RTVSPropertyOp9
 70
     1
102
RTVSPropertyOp10
 70
     1
102
RTVSPropertyOp11
 70
     1
102
RTVSPropertyOp12
 70
     1
102
RTVSPropertyOp13
 70
     1
102
RTVSPropertyOp14
 70
     1
102
RTVSPropertyOp15
 70
     1
102
RTVSPropertyOp16
 70
     1
102
RTVSPropertyOp17
 70
     1
102
RTVSPropertyOp18
 70
     1
102
RTVSPropertyOp19
 70
     1
102
RTVSPropertyOp20
 70
     1
102
RTVSPropertyOp21
 70
     1
102
RTVSPropertyOp22
 70
     1
102
RTVSPropertyOp23
 70
     1
102
RTVSPropertyOp24
 70
     1
102
RTVSPropertyOp25
 70
     1
102
RTVSPropertyOp26
 70
     1
102
RTVSPropertyOp27
 70
     1
102
RTVSPropertyOp28
 70
     1
102
RTVSPropertyOp29
 70
     1
102
RTVSPropertyOp30
 70
     1
102
RTVSPropertyOp31
 70
     1
102
RTVSPropertyOp32
 70
     1
102
RTVSPropertyOp33
 70
     1
102
RTVSPropertyOp34
 70
     1
102
RTVSPropertyOp35
 70
     1
102
RTVSPropertyOp36
 70
     1
102
RTVSPropertyOp37
 70
     1
102
RTVSPropertyOp38
 70
     1
102
RTVSPropertyOp39
 70
     1
102
RTVSPropertyOp40
 70
     1
102
RTVSPropertyOp41
 70
     1
102
RTVSPropertyOp42
 70
     1
102
RTVSPropertyOp43
 70
     1
102
RTVSPropertyOp44
 70
     1
102
RTVSPropertyOp45
 70
     1
102
RTVSPropertyOp46
 70
     1
102
RTVSPropertyOp47
 70
     1
102
RTVSPropertyOp48
 70
     1
102
RTVSPropertyOp49
 70
     1
102
RTVSPropertyOp50
 70
     1
102
RTVSPropertyOp51
 70
     0
102
RTVSPropertyOp52
 70
     0
102
RTVSPropertyOp53
 70
     1
102
RTVSPropertyOp54
 70
     1
102
RTVSPropertyOp55
 70
     1
102
RTVSPropertyOp56
 70
     1
102
RTVSPropertyOp57
 70
     1
102
RTVSPost2010Prop28
280
     0
102
RTVSPost2010PropOp28
 70
     1
102
RTVSPost2010Prop29
280
     1
102
RTVSPost2010PropOp29
 70
     1
102
RTVSPost2010Prop30
280
     1
102
RTVSPost2010PropOp30
 70
     1
102
RTVSPost2010Prop31
280
     0
102
RTVSPost2010PropOp31
 70
     1
102
RTVSPost2010Prop32
280
     0
102
RTVSPost2010PropOp32
 70
     1
102
RTVSPost2010Prop33
280
     0
102
RTVSPost2010PropOp33
 70
     1
102
RTVSPost2010Prop34
280
     0
102
RTVSPost2010PropOp34
 70
     1
102
RTVSPost2010Prop35
280
     0
102
RTVSPost2010PropOp35
 70
     1
102
RTVSPost2010Prop36
280
     0
102
RTVSPost2010PropOp36
 70
     1
102
RTVSPost2010Prop37
 90
       50
102
RTVSPost2010PropOp37
 70
     1
102
RTVSPost2010Prop38
140
0.0
102
RTVSPost2010PropOp38
 70
     1
102
RTVSPost2010Prop39
140
1.0
102
RTVSPost2010PropOp39
 70
     1
102
RTVSPost2010Prop40
 90
        0
102
RTVSPost2010PropOp40
 70
     1
102
RTVSPost2010Prop41ColorIndex
 90
       18
102
RTVSPost2010Prop41ColorRGB
 90
        0
102
RTVSPost2010PropOp41
 70
     1
102
RTVSPost2010Prop42
 90
       50
102
RTVSPost2010PropOp42
 70
     1
102
RTVSPost2010Prop43
 90
        3
102
RTVSPost2010PropOp43
 70
     1
102
RTVSPost2010Prop44ColorIndex
 90
        5
102
RTVSPost2010Prop44ColorRGB
 90
      255
102
RTVSPost2010PropOp44
 70
     1
102
RTVSPost2010Prop45
280
     0
102
RTVSPost2010PropOp45
 70
     1
102
RTVSPost2010Prop46
 90
       50
102
RTVSPost2010PropOp46
 70
     1
102
RTVSPost2010Prop47
 90
       50
102
RTVSPost2010PropOp47
 70
     1
102
RTVSPost2010Prop48
 90
       50
102
RTVSPost2010PropOp48
 70
     1
102
RTVSPost2010Prop49
280
     0
102
RTVSPost2010PropOp49
 70
     1
102
RTVSPost2010Prop50
 90
       50
102
RTVSPost2010PropOp50
 70
     1
102
RTVSPost2010Prop51ColorIndex
 90
      256
102
RTVSPost2010Prop51ColorRGB
 90
-16777216
102
RTVSPost2010PropOp51
 70
     0
102
RTVSPost2010Prop52
140
1.0
102
RTVSPost2010PropOp52
 70
     0
102
RTVSPost2010Prop53
 90
        2
102
RTVSPost2010PropOp53
 70
     1
102
RTVSPost2010Prop54
  1
strokes_ogs.tif
102
RTVSPost2010PropOp54
 70
     1
102
RTVSPost2010Prop55
280
     0
102
RTVSPost2010PropOp55
 70
     1
102
RTVSPost2010Prop56
140
1.0
102
RTVSPost2010PropOp56
 70
     1
102
RTVSPost2010Prop57
140
1.0
102
RTVSPost2010PropOp57
 70
     1
  0
XRECORD
  5
29E
102
{ACAD_REACTORS
330
29D
102
}
330
29D
100
AcDbXrecord
280
     1
102
RTVSPropertyOp0
 70
     0
102
RTVSPropertyOp1
 70
     0
102
RTVSPropertyOp2
 70
     0
102
RTVSPropertyOp3
 70
     0
102
RTVSPropertyOp4
 70
     0
102
RTVSPropertyOp5
 70
     0
102
RTVSPropertyOp6
 70
     0
102
RTVSPropertyOp7
 70
     0
102
RTVSPropertyOp8
 70
     0
102
RTVSPropertyOp9
 70
     0
102
RTVSPropertyOp10
 70
     0
102
RTVSPropertyOp11
 70
     0
102
RTVSPropertyOp12
 70
     0
102
RTVSPropertyOp13
 70
     0
102
RTVSPropertyOp14
 70
     2
102
RTVSPropertyOp15
 70
     0
102
RTVSPropertyOp16
 70
     0
102
RTVSPropertyOp17
 70
     0
102
RTVSPropertyOp18
 70
     0
102
RTVSPropertyOp19
 70
     0
102
RTVSPropertyOp20
 70
     0
102
RTVSPropertyOp21
 70
     0
102
RTVSPropertyOp22
 70
     0
102
RTVSPropertyOp23
 70
     0
102
RTVSPropertyOp24
 70
     0
102
RTVSPropertyOp25
 70
     0
102
RTVSPropertyOp26
 70
     0
102
RTVSPropertyOp27
 70
     0
102
RTVSPropertyOp28
 70
     0
102
RTVSPropertyOp29
 70
     0
102
RTVSPropertyOp30
 70
     0
102
RTVSPropertyOp31
 70
     0
102
RTVSPropertyOp32
 70
     0
102
RTVSPropertyOp33
 70
     0
102
RTVSPropertyOp34
 70
     0
102
RTVSPropertyOp35
 70
     0
102
RTVSPropertyOp36
 70
     0
102
RTVSPropertyOp37
 70
     0
102
RTVSPropertyOp38
 70
     0
102
RTVSPropertyOp39
 70
     0
102
RTVSPropertyOp40
 70
     0
102
RTVSPropertyOp41
 70
     0
102
RTVSPropertyOp42
 70
     0
102
RTVSPropertyOp43
 70
     0
102
RTVSPropertyOp44
 70
     0
102
RTVSPropertyOp45
 70
     0
102
RTVSPropertyOp46
 70
     0
102
RTVSPropertyOp47
 70
     0
102
RTVSPropertyOp48
 70
     0
102
RTVSPropertyOp49
 70
     0
102
RTVSPropertyOp50
 70
     0
102
RTVSPropertyOp51
 70
     0
102
RTVSPropertyOp52
 70
     0
102
RTVSPropertyOp53
 70
     0
102
RTVSPropertyOp54
 70
     0
102
RTVSPropertyOp55
 70
     0
102
RTVSPropertyOp56
 70
     0
102
RTVSPropertyOp57
 70
     0
102
RTVSPost2010Prop28
280
     0
102
RTVSPost2010PropOp28
 70
     0
102
RTVSPost2010Prop29
280
     1
102
RTVSPost2010PropOp29
 70
     0
102
RTVSPost2010Prop30
280
     1
102
RTVSPost2010PropOp30
 70
     0
102
RTVSPost2010Prop31
280
     0
102
RTVSPost2010PropOp31
 70
     0
102
RTVSPost2010Prop32
280
     0
102
RTVSPost2010PropOp32
 70
     0
102
RTVSPost2010Prop33
280
     0
102
RTVSPost2010PropOp33
 70
     0
102
RTVSPost2010Prop34
280
     0
102
RTVSPost2010PropOp34
 70
     0
102
RTVSPost2010Prop35
280
     0
102
RTVSPost2010PropOp35
 70
     0
102
RTVSPost2010Prop36
280
     0
102
RTVSPost2010PropOp36
 70
     0
102
RTVSPost2010Prop37
 90
       50
102
RTVSPost2010PropOp37
 70
     0
102
RTVSPost2010Prop38
140
0.0
102
RTVSPost2010PropOp38
 70
     0
102
RTVSPost2010Prop39
140
1.0
102
RTVSPost2010PropOp39
 70
     0
102
RTVSPost2010Prop40
 90
        0
102
RTVSPost2010PropOp40
 70
     0
102
RTVSPost2010Prop41ColorIndex
 90
       18
102
RTVSPost2010Prop41ColorRGB
 90
        0
102
RTVSPost2010PropOp41
 70
     0
102
RTVSPost2010Prop42
 90
       50
102
RTVSPost2010PropOp42
 70
     0
102
RTVSPost2010Prop43
 90
        3
102
RTVSPost2010PropOp43
 70
     0
102
RTVSPost2010Prop44ColorIndex
 90
        5
102
RTVSPost2010Prop44ColorRGB
 90
      255
102
RTVSPost2010PropOp44
 70
     0
102
RTVSPost2010Prop45
280
     0
102
RTVSPost2010PropOp45
 70
     0
102
RTVSPost2010Prop46
 90
       50
102
RTVSPost2010PropOp46
 70
     0
102
RTVSPost2010Prop47
 90
       50
102
RTVSPost2010PropOp47
 70
     0
102
RTVSPost2010Prop48
 90
       50
102
RTVSPost2010PropOp48
 70
     0
102
RTVSPost2010Prop49
280
     0
102
RTVSPost2010PropOp49
 70
     0
102
RTVSPost2010Prop50
 90
       50
102
RTVSPost2010PropOp50
 70
     0
102
RTVSPost2010Prop51ColorIndex
 90
      256
102
RTVSPost2010Prop51ColorRGB
 90
-16777216
102
RTVSPost2010PropOp51
 70
     0
102
RTVSPost2010Prop52
140
1.0
102
RTVSPost2010PropOp52
 70
     0
102
RTVSPost2010Prop53
 90
        2
102
RTVSPost2010PropOp53
 70
     0
102
RTVSPost2010Prop54
  1
strokes_ogs.tif
102
RTVSPost2010PropOp54
 70
     0
102
RTVSPost2010Prop55
280
     0
102
RTVSPost2010PropOp55
 70
     0
102
RTVSPost2010Prop56
140
1.0
102
RTVSPost2010PropOp56
 70
     0
102
RTVSPost2010Prop57
140
1.0
102
RTVSPost2010PropOp57
 70
     0
  0
XRECORD
  5
28C
102
{ACAD_REACTORS
330
28B
102
}
330
28B
100
AcDbXrecord
280
     1
102
RTVSPropertyOp0
 70
     1
102
RTVSPropertyOp1
 70
     1
102
RTVSPropertyOp2
 70
     1
102
RTVSPropertyOp3
 70
     1
102
RTVSPropertyOp4
 70
     1
102
RTVSPropertyOp5
 70
     1
102
RTVSPropertyOp6
 70
     1
102
RTVSPropertyOp7
 70
     1
102
RTVSPropertyOp8
 70
     1
102
RTVSPropertyOp9
 70
     1
102
RTVSPropertyOp10
 70
     1
102
RTVSPropertyOp11
 70
     1
102
RTVSPropertyOp12
 70
     1
102
RTVSPropertyOp13
 70
     1
102
RTVSPropertyOp14
 70
     1
102
RTVSPropertyOp15
 70
     1
102
RTVSPropertyOp16
 70
     1
102
RTVSPropertyOp17
 70
     1
102
RTVSPropertyOp18
 70
     1
102
RTVSPropertyOp19
 70
     1
102
RTVSPropertyOp20
 70
     1
102
RTVSPropertyOp21
 70
     1
102
RTVSPropertyOp22
 70
     1
102
RTVSPropertyOp23
 70
     1
102
RTVSPropertyOp24
 70
     1
102
RTVSPropertyOp25
 70
     1
102
RTVSPropertyOp26
 70
     1
102
RTVSPropertyOp27
 70
     1
102
RTVSPropertyOp28
 70
     1
102
RTVSPropertyOp29
 70
     1
102
RTVSPropertyOp30
 70
     1
102
RTVSPropertyOp31
 70
     1
102
RTVSPropertyOp32
 70
     1
102
RTVSPropertyOp33
 70
     1
102
RTVSPropertyOp34
 70
     1
102
RTVSPropertyOp35
 70
     1
102
RTVSPropertyOp36
 70
     1
102
RTVSPropertyOp37
 70
     1
102
RTVSPropertyOp38
 70
     1
102
RTVSPropertyOp39
 70
     1
102
RTVSPropertyOp40
 70
     1
102
RTVSPropertyOp41
 70
     1
102
RTVSPropertyOp42
 70
     1
102
RTVSPropertyOp43
 70
     1
102
RTVSPropertyOp44
 70
     1
102
RTVSPropertyOp45
 70
     1
102
RTVSPropertyOp46
 70
     1
102
RTVSPropertyOp47
 70
     1
102
RTVSPropertyOp48
 70
     1
102
RTVSPropertyOp49
 70
     1
102
RTVSPropertyOp50
 70
     1
102
RTVSPropertyOp51
 70
     0
102
RTVSPropertyOp52
 70
     0
102
RTVSPropertyOp53
 70
     1
102
RTVSPropertyOp54
 70
     1
102
RTVSPropertyOp55
 70
     1
102
RTVSPropertyOp56
 70
     1
102
RTVSPropertyOp57
 70
     1
102
RTVSPost2010Prop28
280
     0
102
RTVSPost2010PropOp28
 70
     1
102
RTVSPost2010Prop29
280
     1
102
RTVSPost2010PropOp29
 70
     1
102
RTVSPost2010Prop30
280
     1
102
RTVSPost2010PropOp30
 70
     1
102
RTVSPost2010Prop31
280
     0
102
RTVSPost2010PropOp31
 70
     1
102
RTVSPost2010Prop32
280
     0
102
RTVSPost2010PropOp32
 70
     1
102
RTVSPost2010Prop33
280
     0
102
RTVSPost2010PropOp33
 70
     1
102
RTVSPost2010Prop34
280
     0
102
RTVSPost2010PropOp34
 70
     1
102
RTVSPost2010Prop35
280
     0
102
RTVSPost2010PropOp35
 70
     1
102
RTVSPost2010Prop36
280
     0
102
RTVSPost2010PropOp36
 70
     1
102
RTVSPost2010Prop37
 90
       50
102
RTVSPost2010PropOp37
 70
     1
102
RTVSPost2010Prop38
140
0.0
102
RTVSPost2010PropOp38
 70
     1
102
RTVSPost2010Prop39
140
1.0
102
RTVSPost2010PropOp39
 70
     1
102
RTVSPost2010Prop40
 90
        0
102
RTVSPost2010PropOp40
 70
     1
102
RTVSPost2010Prop41ColorIndex
 90
       18
102
RTVSPost2010Prop41ColorRGB
 90
        0
102
RTVSPost2010PropOp41
 70
     1
102
RTVSPost2010Prop42
 90
       50
102
RTVSPost2010PropOp42
 70
     1
102
RTVSPost2010Prop43
 90
        3
102
RTVSPost2010PropOp43
 70
     1
102
RTVSPost2010Prop44ColorIndex
 90
        5
102
RTVSPost2010Prop44ColorRGB
 90
      255
102
RTVSPost2010PropOp44
 70
     1
102
RTVSPost2010Prop45
280
     0
102
RTVSPost2010PropOp45
 70
     1
102
RTVSPost2010Prop46
 90
       50
102
RTVSPost2010PropOp46
 70
     1
102
RTVSPost2010Prop47
 90
       50
102
RTVSPost2010PropOp47
 70
     1
102
RTVSPost2010Prop48
 90
       50
102
RTVSPost2010PropOp48
 70
     1
102
RTVSPost2010Prop49
280
     0
102
RTVSPost2010PropOp49
 70
     1
102
RTVSPost2010Prop50
 90
       50
102
RTVSPost2010PropOp50
 70
     1
102
RTVSPost2010Prop51ColorIndex
 90
      256
102
RTVSPost2010Prop51ColorRGB
 90
-16777216
102
RTVSPost2010PropOp51
 70
     0
102
RTVSPost2010Prop52
140
1.0
102
RTVSPost2010PropOp52
 70
     0
102
RTVSPost2010Prop53
 90
        2
102
RTVSPost2010PropOp53
 70
     1
102
RTVSPost2010Prop54
  1
strokes_ogs.tif
102
RTVSPost2010PropOp54
 70
     1
102
RTVSPost2010Prop55
280
     0
102
RTVSPost2010PropOp55
 70
     1
102
RTVSPost2010Prop56
140
1.0
102
RTVSPost2010PropOp56
 70
     1
102
RTVSPost2010Prop57
140
1.0
102
RTVSPost2010PropOp57
 70
     1
  0
XRECORD
  5
2AA
102
{ACAD_REACTORS
330
2A9
102
}
330
2A9
100
AcDbXrecord
280
     1
102
RTVSPropertyOp0
 70
     1
102
RTVSPropertyOp1
 70
     1
102
RTVSPropertyOp2
 70
     1
102
RTVSPropertyOp3
 70
     1
102
RTVSPropertyOp4
 70
     1
102
RTVSPropertyOp5
 70
     1
102
RTVSPropertyOp6
 70
     1
102
RTVSPropertyOp7
 70
     1
102
RTVSPropertyOp8
 70
     1
102
RTVSPropertyOp9
 70
     1
102
RTVSPropertyOp10
 70
     1
102
RTVSPropertyOp11
 70
     1
102
RTVSPropertyOp12
 70
     1
102
RTVSPropertyOp13
 70
     1
102
RTVSPropertyOp14
 70
     1
102
RTVSPropertyOp15
 70
     1
102
RTVSPropertyOp16
 70
     1
102
RTVSPropertyOp17
 70
     1
102
RTVSPropertyOp18
 70
     1
102
RTVSPropertyOp19
 70
     1
102
RTVSPropertyOp20
 70
     1
102
RTVSPropertyOp21
 70
     1
102
RTVSPropertyOp22
 70
     1
102
RTVSPropertyOp23
 70
     1
102
RTVSPropertyOp24
 70
     1
102
RTVSPropertyOp25
 70
     1
102
RTVSPropertyOp26
 70
     1
102
RTVSPropertyOp27
 70
     1
102
RTVSPropertyOp28
 70
     1
102
RTVSPropertyOp29
 70
     1
102
RTVSPropertyOp30
 70
     1
102
RTVSPropertyOp31
 70
     1
102
RTVSPropertyOp32
 70
     1
102
RTVSPropertyOp33
 70
     1
102
RTVSPropertyOp34
 70
     1
102
RTVSPropertyOp35
 70
     1
102
RTVSPropertyOp36
 70
     1
102
RTVSPropertyOp37
 70
     1
102
RTVSPropertyOp38
 70
     1
102
RTVSPropertyOp39
 70
     1
102
RTVSPropertyOp40
 70
     1
102
RTVSPropertyOp41
 70
     1
102
RTVSPropertyOp42
 70
     1
102
RTVSPropertyOp43
 70
     1
102
RTVSPropertyOp44
 70
     1
102
RTVSPropertyOp45
 70
     1
102
RTVSPropertyOp46
 70
     1
102
RTVSPropertyOp47
 70
     1
102
RTVSPropertyOp48
 70
     1
102
RTVSPropertyOp49
 70
     1
102
RTVSPropertyOp50
 70
     1
102
RTVSPropertyOp51
 70
     0
102
RTVSPropertyOp52
 70
     0
102
RTVSPropertyOp53
 70
     1
102
RTVSPropertyOp54
 70
     1
102
RTVSPropertyOp55
 70
     1
102
RTVSPropertyOp56
 70
     1
102
RTVSPropertyOp57
 70
     1
102
RTVSPost2010Prop28
280
     0
102
RTVSPost2010PropOp28
 70
     1
102
RTVSPost2010Prop29
280
     1
102
RTVSPost2010PropOp29
 70
     1
102
RTVSPost2010Prop30
280
     1
102
RTVSPost2010PropOp30
 70
     1
102
RTVSPost2010Prop31
280
     0
102
RTVSPost2010PropOp31
 70
     1
102
RTVSPost2010Prop32
280
     0
102
RTVSPost2010PropOp32
 70
     1
102
RTVSPost2010Prop33
280
     0
102
RTVSPost2010PropOp33
 70
     1
102
RTVSPost2010Prop34
280
     0
102
RTVSPost2010PropOp34
 70
     1
102
RTVSPost2010Prop35
280
     0
102
RTVSPost2010PropOp35
 70
     1
102
RTVSPost2010Prop36
280
     0
102
RTVSPost2010PropOp36
 70
     1
102
RTVSPost2010Prop37
 90
       50
102
RTVSPost2010PropOp37
 70
     1
102
RTVSPost2010Prop38
140
0.0
102
RTVSPost2010PropOp38
 70
     1
102
RTVSPost2010Prop39
140
1.0
102
RTVSPost2010PropOp39
 70
     1
102
RTVSPost2010Prop40
 90
        0
102
RTVSPost2010PropOp40
 70
     1
102
RTVSPost2010Prop41ColorIndex
 90
       18
102
RTVSPost2010Prop41ColorRGB
 90
        0
102
RTVSPost2010PropOp41
 70
     1
102
RTVSPost2010Prop42
 90
       50
102
RTVSPost2010PropOp42
 70
     1
102
RTVSPost2010Prop43
 90
        3
102
RTVSPost2010PropOp43
 70
     1
102
RTVSPost2010Prop44ColorIndex
 90
        5
102
RTVSPost2010Prop44ColorRGB
 90
      255
102
RTVSPost2010PropOp44
 70
     1
102
RTVSPost2010Prop45
280
     0
102
RTVSPost2010PropOp45
 70
     1
102
RTVSPost2010Prop46
 90
       50
102
RTVSPost2010PropOp46
 70
     1
102
RTVSPost2010Prop47
 90
       50
102
RTVSPost2010PropOp47
 70
     1
102
RTVSPost2010Prop48
 90
       50
102
RTVSPost2010PropOp48
 70
     1
102
RTVSPost2010Prop49
280
     0
102
RTVSPost2010PropOp49
 70
     1
102
RTVSPost2010Prop50
 90
       50
102
RTVSPost2010PropOp50
 70
     1
102
RTVSPost2010Prop51ColorIndex
 90
      256
102
RTVSPost2010Prop51ColorRGB
 90
-16777216
102
RTVSPost2010PropOp51
 70
     0
102
RTVSPost2010Prop52
140
1.0
102
RTVSPost2010PropOp52
 70
     0
102
RTVSPost2010Prop53
 90
        2
102
RTVSPost2010PropOp53
 70
     1
102
RTVSPost2010Prop54
  1
strokes_ogs.tif
102
RTVSPost2010PropOp54
 70
     1
102
RTVSPost2010Prop55
280
     0
102
RTVSPost2010PropOp55
 70
     1
102
RTVSPost2010Prop56
140
1.0
102
RTVSPost2010PropOp56
 70
     1
102
RTVSPost2010Prop57
140
1.0
102
RTVSPost2010PropOp57
 70
     1
  0
XRECORD
  5
2A8
102
{ACAD_REACTORS
330
2A7
102
}
330
2A7
100
AcDbXrecord
280
     1
102
RTVSPropertyOp0
 70
     1
102
RTVSPropertyOp1
 70
     1
102
RTVSPropertyOp2
 70
     1
102
RTVSPropertyOp3
 70
     1
102
RTVSPropertyOp4
 70
     1
102
RTVSPropertyOp5
 70
     1
102
RTVSPropertyOp6
 70
     1
102
RTVSPropertyOp7
 70
     1
102
RTVSPropertyOp8
 70
     1
102
RTVSPropertyOp9
 70
     1
102
RTVSPropertyOp10
 70
     1
102
RTVSPropertyOp11
 70
     1
102
RTVSPropertyOp12
 70
     1
102
RTVSPropertyOp13
 70
     1
102
RTVSPropertyOp14
 70
     1
102
RTVSPropertyOp15
 70
     1
102
RTVSPropertyOp16
 70
     1
102
RTVSPropertyOp17
 70
     1
102
RTVSPropertyOp18
 70
     1
102
RTVSPropertyOp19
 70
     1
102
RTVSPropertyOp20
 70
     1
102
RTVSPropertyOp21
 70
     1
102
RTVSPropertyOp22
 70
     1
102
RTVSPropertyOp23
 70
     1
102
RTVSPropertyOp24
 70
     1
102
RTVSPropertyOp25
 70
     1
102
RTVSPropertyOp26
 70
     1
102
RTVSPropertyOp27
 70
     1
102
RTVSPropertyOp28
 70
     1
102
RTVSPropertyOp29
 70
     1
102
RTVSPropertyOp30
 70
     1
102
RTVSPropertyOp31
 70
     1
102
RTVSPropertyOp32
 70
     1
102
RTVSPropertyOp33
 70
     1
102
RTVSPropertyOp34
 70
     1
102
RTVSPropertyOp35
 70
     1
102
RTVSPropertyOp36
 70
     1
102
RTVSPropertyOp37
 70
     1
102
RTVSPropertyOp38
 70
     1
102
RTVSPropertyOp39
 70
     1
102
RTVSPropertyOp40
 70
     1
102
RTVSPropertyOp41
 70
     1
102
RTVSPropertyOp42
 70
     1
102
RTVSPropertyOp43
 70
     1
102
RTVSPropertyOp44
 70
     1
102
RTVSPropertyOp45
 70
     1
102
RTVSPropertyOp46
 70
     1
102
RTVSPropertyOp47
 70
     1
102
RTVSPropertyOp48
 70
     1
102
RTVSPropertyOp49
 70
     1
102
RTVSPropertyOp50
 70
     1
102
RTVSPropertyOp51
 70
     0
102
RTVSPropertyOp52
 70
     0
102
RTVSPropertyOp53
 70
     1
102
RTVSPropertyOp54
 70
     1
102
RTVSPropertyOp55
 70
     1
102
RTVSPropertyOp56
 70
     1
102
RTVSPropertyOp57
 70
     1
102
RTVSPost2010Prop28
280
     0
102
RTVSPost2010PropOp28
 70
     1
102
RTVSPost2010Prop29
280
     1
102
RTVSPost2010PropOp29
 70
     1
102
RTVSPost2010Prop30
280
     1
102
RTVSPost2010PropOp30
 70
     1
102
RTVSPost2010Prop31
280
     0
102
RTVSPost2010PropOp31
 70
     1
102
RTVSPost2010Prop32
280
     0
102
RTVSPost2010PropOp32
 70
     1
102
RTVSPost2010Prop33
280
     0
102
RTVSPost2010PropOp33
 70
     1
102
RTVSPost2010Prop34
280
     0
102
RTVSPost2010PropOp34
 70
     1
102
RTVSPost2010Prop35
280
     0
102
RTVSPost2010PropOp35
 70
     1
102
RTVSPost2010Prop36
280
     0
102
RTVSPost2010PropOp36
 70
     1
102
RTVSPost2010Prop37
 90
       50
102
RTVSPost2010PropOp37
 70
     1
102
RTVSPost2010Prop38
140
0.0
102
RTVSPost2010PropOp38
 70
     1
102
RTVSPost2010Prop39
140
1.0
102
RTVSPost2010PropOp39
 70
     1
102
RTVSPost2010Prop40
 90
        0
102
RTVSPost2010PropOp40
 70
     1
102
RTVSPost2010Prop41ColorIndex
 90
       18
102
RTVSPost2010Prop41ColorRGB
 90
        0
102
RTVSPost2010PropOp41
 70
     1
102
RTVSPost2010Prop42
 90
       50
102
RTVSPost2010PropOp42
 70
     1
102
RTVSPost2010Prop43
 90
        3
102
RTVSPost2010PropOp43
 70
     1
102
RTVSPost2010Prop44ColorIndex
 90
        5
102
RTVSPost2010Prop44ColorRGB
 90
      255
102
RTVSPost2010PropOp44
 70
     1
102
RTVSPost2010Prop45
280
     0
102
RTVSPost2010PropOp45
 70
     1
102
RTVSPost2010Prop46
 90
       50
102
RTVSPost2010PropOp46
 70
     1
102
RTVSPost2010Prop47
 90
       50
102
RTVSPost2010PropOp47
 70
     1
102
RTVSPost2010Prop48
 90
       50
102
RTVSPost2010PropOp48
 70
     1
102
RTVSPost2010Prop49
280
     0
102
RTVSPost2010PropOp49
 70
     1
102
RTVSPost2010Prop50
 90
       50
102
RTVSPost2010PropOp50
 70
     1
102
RTVSPost2010Prop51ColorIndex
 90
      256
102
RTVSPost2010Prop51ColorRGB
 90
-16777216
102
RTVSPost2010PropOp51
 70
     0
102
RTVSPost2010Prop52
140
1.0
102
RTVSPost2010PropOp52
 70
     0
102
RTVSPost2010Prop53
 90
        2
102
RTVSPost2010PropOp53
 70
     1
102
RTVSPost2010Prop54
  1
strokes_ogs.tif
102
RTVSPost2010PropOp54
 70
     1
102
RTVSPost2010Prop55
280
     0
102
RTVSPost2010PropOp55
 70
     1
102
RTVSPost2010Prop56
140
1.0
102
RTVSPost2010PropOp56
 70
     1
102
RTVSPost2010Prop57
140
1.0
102
RTVSPost2010PropOp57
 70
     1
  0
XRECORD
  5
2A2
102
{ACAD_REACTORS
330
2A1
102
}
330
2A1
100
AcDbXrecord
280
     1
102
RTVSPropertyOp0
 70
     1
102
RTVSPropertyOp1
 70
     1
102
RTVSPropertyOp2
 70
     1
102
RTVSPropertyOp3
 70
     1
102
RTVSPropertyOp4
 70
     1
102
RTVSPropertyOp5
 70
     1
102
RTVSPropertyOp6
 70
     1
102
RTVSPropertyOp7
 70
     1
102
RTVSPropertyOp8
 70
     1
102
RTVSPropertyOp9
 70
     1
102
RTVSPropertyOp10
 70
     1
102
RTVSPropertyOp11
 70
     1
102
RTVSPropertyOp12
 70
     1
102
RTVSPropertyOp13
 70
     1
102
RTVSPropertyOp14
 70
     1
102
RTVSPropertyOp15
 70
     1
102
RTVSPropertyOp16
 70
     1
102
RTVSPropertyOp17
 70
     1
102
RTVSPropertyOp18
 70
     1
102
RTVSPropertyOp19
 70
     1
102
RTVSPropertyOp20
 70
     1
102
RTVSPropertyOp21
 70
     1
102
RTVSPropertyOp22
 70
     1
102
RTVSPropertyOp23
 70
     1
102
RTVSPropertyOp24
 70
     1
102
RTVSPropertyOp25
 70
     1
102
RTVSPropertyOp26
 70
     1
102
RTVSPropertyOp27
 70
     1
102
RTVSPropertyOp28
 70
     1
102
RTVSPropertyOp29
 70
     1
102
RTVSPropertyOp30
 70
     1
102
RTVSPropertyOp31
 70
     1
102
RTVSPropertyOp32
 70
     1
102
RTVSPropertyOp33
 70
     1
102
RTVSPropertyOp34
 70
     1
102
RTVSPropertyOp35
 70
     1
102
RTVSPropertyOp36
 70
     1
102
RTVSPropertyOp37
 70
     1
102
RTVSPropertyOp38
 70
     1
102
RTVSPropertyOp39
 70
     1
102
RTVSPropertyOp40
 70
     1
102
RTVSPropertyOp41
 70
     1
102
RTVSPropertyOp42
 70
     1
102
RTVSPropertyOp43
 70
     1
102
RTVSPropertyOp44
 70
     1
102
RTVSPropertyOp45
 70
     1
102
RTVSPropertyOp46
 70
     1
102
RTVSPropertyOp47
 70
     1
102
RTVSPropertyOp48
 70
     1
102
RTVSPropertyOp49
 70
     1
102
RTVSPropertyOp50
 70
     1
102
RTVSPropertyOp51
 70
     0
102
RTVSPropertyOp52
 70
     0
102
RTVSPropertyOp53
 70
     1
102
RTVSPropertyOp54
 70
     1
102
RTVSPropertyOp55
 70
     1
102
RTVSPropertyOp56
 70
     1
102
RTVSPropertyOp57
 70
     1
102
RTVSPost2010Prop28
280
     0
102
RTVSPost2010PropOp28
 70
     1
102
RTVSPost2010Prop29
280
     1
102
RTVSPost2010PropOp29
 70
     1
102
RTVSPost2010Prop30
280
     1
102
RTVSPost2010PropOp30
 70
     1
102
RTVSPost2010Prop31
280
     0
102
RTVSPost2010PropOp31
 70
     1
102
RTVSPost2010Prop32
280
     0
102
RTVSPost2010PropOp32
 70
     1
102
RTVSPost2010Prop33
280
     0
102
RTVSPost2010PropOp33
 70
     1
102
RTVSPost2010Prop34
280
     0
102
RTVSPost2010PropOp34
 70
     1
102
RTVSPost2010Prop35
280
     0
102
RTVSPost2010PropOp35
 70
     1
102
RTVSPost2010Prop36
280
     0
102
RTVSPost2010PropOp36
 70
     1
102
RTVSPost2010Prop37
 90
       50
102
RTVSPost2010PropOp37
 70
     1
102
RTVSPost2010Prop38
140
0.0
102
RTVSPost2010PropOp38
 70
     1
102
RTVSPost2010Prop39
140
1.0
102
RTVSPost2010PropOp39
 70
     1
102
RTVSPost2010Prop40
 90
        0
102
RTVSPost2010PropOp40
 70
     1
102
RTVSPost2010Prop41ColorIndex
 90
       18
102
RTVSPost2010Prop41ColorRGB
 90
        0
102
RTVSPost2010PropOp41
 70
     1
102
RTVSPost2010Prop42
 90
       50
102
RTVSPost2010PropOp42
 70
     1
102
RTVSPost2010Prop43
 90
        3
102
RTVSPost2010PropOp43
 70
     1
102
RTVSPost2010Prop44ColorIndex
 90
        5
102
RTVSPost2010Prop44ColorRGB
 90
      255
102
RTVSPost2010PropOp44
 70
     1
102
RTVSPost2010Prop45
280
     0
102
RTVSPost2010PropOp45
 70
     1
102
RTVSPost2010Prop46
 90
       50
102
RTVSPost2010PropOp46
 70
     1
102
RTVSPost2010Prop47
 90
       50
102
RTVSPost2010PropOp47
 70
     1
102
RTVSPost2010Prop48
 90
       50
102
RTVSPost2010PropOp48
 70
     1
102
RTVSPost2010Prop49
280
     0
102
RTVSPost2010PropOp49
 70
     1
102
RTVSPost2010Prop50
 90
       50
102
RTVSPost2010PropOp50
 70
     1
102
RTVSPost2010Prop51ColorIndex
 90
      256
102
RTVSPost2010Prop51ColorRGB
 90
-16777216
102
RTVSPost2010PropOp51
 70
     0
102
RTVSPost2010Prop52
140
1.0
102
RTVSPost2010PropOp52
 70
     0
102
RTVSPost2010Prop53
 90
        2
102
RTVSPost2010PropOp53
 70
     1
102
RTVSPost2010Prop54
  1
strokes_ogs.tif
102
RTVSPost2010PropOp54
 70
     1
102
RTVSPost2010Prop55
280
     0
102
RTVSPost2010PropOp55
 70
     1
102
RTVSPost2010Prop56
140
1.0
102
RTVSPost2010PropOp56
 70
     1
102
RTVSPost2010Prop57
140
1.0
102
RTVSPost2010PropOp57
 70
     1
  0
XRECORD
  5
2A4
102
{ACAD_REACTORS
330
2A3
102
}
330
2A3
100
AcDbXrecord
280
     1
102
RTVSPropertyOp0
 70
     1
102
RTVSPropertyOp1
 70
     1
102
RTVSPropertyOp2
 70
     1
102
RTVSPropertyOp3
 70
     1
102
RTVSPropertyOp4
 70
     1
102
RTVSPropertyOp5
 70
     1
102
RTVSPropertyOp6
 70
     1
102
RTVSPropertyOp7
 70
     1
102
RTVSPropertyOp8
 70
     1
102
RTVSPropertyOp9
 70
     1
102
RTVSPropertyOp10
 70
     1
102
RTVSPropertyOp11
 70
     1
102
RTVSPropertyOp12
 70
     1
102
RTVSPropertyOp13
 70
     1
102
RTVSPropertyOp14
 70
     1
102
RTVSPropertyOp15
 70
     1
102
RTVSPropertyOp16
 70
     1
102
RTVSPropertyOp17
 70
     1
102
RTVSPropertyOp18
 70
     1
102
RTVSPropertyOp19
 70
     1
102
RTVSPropertyOp20
 70
     1
102
RTVSPropertyOp21
 70
     1
102
RTVSPropertyOp22
 70
     1
102
RTVSPropertyOp23
 70
     1
102
RTVSPropertyOp24
 70
     1
102
RTVSPropertyOp25
 70
     1
102
RTVSPropertyOp26
 70
     1
102
RTVSPropertyOp27
 70
     1
102
RTVSPropertyOp28
 70
     1
102
RTVSPropertyOp29
 70
     1
102
RTVSPropertyOp30
 70
     1
102
RTVSPropertyOp31
 70
     1
102
RTVSPropertyOp32
 70
     1
102
RTVSPropertyOp33
 70
     1
102
RTVSPropertyOp34
 70
     1
102
RTVSPropertyOp35
 70
     1
102
RTVSPropertyOp36
 70
     1
102
RTVSPropertyOp37
 70
     1
102
RTVSPropertyOp38
 70
     1
102
RTVSPropertyOp39
 70
     1
102
RTVSPropertyOp40
 70
     1
102
RTVSPropertyOp41
 70
     1
102
RTVSPropertyOp42
 70
     1
102
RTVSPropertyOp43
 70
     1
102
RTVSPropertyOp44
 70
     1
102
RTVSPropertyOp45
 70
     1
102
RTVSPropertyOp46
 70
     1
102
RTVSPropertyOp47
 70
     1
102
RTVSPropertyOp48
 70
     1
102
RTVSPropertyOp49
 70
     1
102
RTVSPropertyOp50
 70
     1
102
RTVSPropertyOp51
 70
     0
102
RTVSPropertyOp52
 70
     0
102
RTVSPropertyOp53
 70
     1
102
RTVSPropertyOp54
 70
     1
102
RTVSPropertyOp55
 70
     1
102
RTVSPropertyOp56
 70
     1
102
RTVSPropertyOp57
 70
     1
102
RTVSPost2010Prop28
280
     0
102
RTVSPost2010PropOp28
 70
     1
102
RTVSPost2010Prop29
280
     1
102
RTVSPost2010PropOp29
 70
     1
102
RTVSPost2010Prop30
280
     1
102
RTVSPost2010PropOp30
 70
     1
102
RTVSPost2010Prop31
280
     0
102
RTVSPost2010PropOp31
 70
     1
102
RTVSPost2010Prop32
280
     0
102
RTVSPost2010PropOp32
 70
     1
102
RTVSPost2010Prop33
280
     0
102
RTVSPost2010PropOp33
 70
     1
102
RTVSPost2010Prop34
280
     0
102
RTVSPost2010PropOp34
 70
     1
102
RTVSPost2010Prop35
280
     0
102
RTVSPost2010PropOp35
 70
     1
102
RTVSPost2010Prop36
280
     0
102
RTVSPost2010PropOp36
 70
     1
102
RTVSPost2010Prop37
 90
       50
102
RTVSPost2010PropOp37
 70
     1
102
RTVSPost2010Prop38
140
0.0
102
RTVSPost2010PropOp38
 70
     1
102
RTVSPost2010Prop39
140
1.0
102
RTVSPost2010PropOp39
 70
     1
102
RTVSPost2010Prop40
 90
        0
102
RTVSPost2010PropOp40
 70
     1
102
RTVSPost2010Prop41ColorIndex
 90
       18
102
RTVSPost2010Prop41ColorRGB
 90
        0
102
RTVSPost2010PropOp41
 70
     1
102
RTVSPost2010Prop42
 90
       50
102
RTVSPost2010PropOp42
 70
     1
102
RTVSPost2010Prop43
 90
        3
102
RTVSPost2010PropOp43
 70
     1
102
RTVSPost2010Prop44ColorIndex
 90
        5
102
RTVSPost2010Prop44ColorRGB
 90
      255
102
RTVSPost2010PropOp44
 70
     1
102
RTVSPost2010Prop45
280
     0
102
RTVSPost2010PropOp45
 70
     1
102
RTVSPost2010Prop46
 90
       50
102
RTVSPost2010PropOp46
 70
     1
102
RTVSPost2010Prop47
 90
       50
102
RTVSPost2010PropOp47
 70
     1
102
RTVSPost2010Prop48
 90
       50
102
RTVSPost2010PropOp48
 70
     1
102
RTVSPost2010Prop49
280
     0
102
RTVSPost2010PropOp49
 70
     1
102
RTVSPost2010Prop50
 90
       50
102
RTVSPost2010PropOp50
 70
     1
102
RTVSPost2010Prop51ColorIndex
 90
      256
102
RTVSPost2010Prop51ColorRGB
 90
-16777216
102
RTVSPost2010PropOp51
 70
     0
102
RTVSPost2010Prop52
140
1.0
102
RTVSPost2010PropOp52
 70
     0
102
RTVSPost2010Prop53
 90
        2
102
RTVSPost2010PropOp53
 70
     1
102
RTVSPost2010Prop54
  1
strokes_ogs.tif
102
RTVSPost2010PropOp54
 70
     1
102
RTVSPost2010Prop55
280
     0
102
RTVSPost2010PropOp55
 70
     1
102
RTVSPost2010Prop56
140
1.0
102
RTVSPost2010PropOp56
 70
     1
102
RTVSPost2010Prop57
140
1.0
102
RTVSPost2010PropOp57
 70
     1
  0
XRECORD
  5
294
102
{ACAD_REACTORS
330
293
102
}
330
293
100
AcDbXrecord
280
     1
102
RTVSPropertyOp0
 70
     1
102
RTVSPropertyOp1
 70
     1
102
RTVSPropertyOp2
 70
     1
102
RTVSPropertyOp3
 70
     1
102
RTVSPropertyOp4
 70
     1
102
RTVSPropertyOp5
 70
     1
102
RTVSPropertyOp6
 70
     1
102
RTVSPropertyOp7
 70
     1
102
RTVSPropertyOp8
 70
     1
102
RTVSPropertyOp9
 70
     1
102
RTVSPropertyOp10
 70
     1
102
RTVSPropertyOp11
 70
     1
102
RTVSPropertyOp12
 70
     1
102
RTVSPropertyOp13
 70
     1
102
RTVSPropertyOp14
 70
     1
102
RTVSPropertyOp15
 70
     1
102
RTVSPropertyOp16
 70
     1
102
RTVSPropertyOp17
 70
     1
102
RTVSPropertyOp18
 70
     1
102
RTVSPropertyOp19
 70
     1
102
RTVSPropertyOp20
 70
     1
102
RTVSPropertyOp21
 70
     1
102
RTVSPropertyOp22
 70
     1
102
RTVSPropertyOp23
 70
     1
102
RTVSPropertyOp24
 70
     1
102
RTVSPropertyOp25
 70
     1
102
RTVSPropertyOp26
 70
     1
102
RTVSPropertyOp27
 70
     1
102
RTVSPropertyOp28
 70
     1
102
RTVSPropertyOp29
 70
     1
102
RTVSPropertyOp30
 70
     1
102
RTVSPropertyOp31
 70
     1
102
RTVSPropertyOp32
 70
     1
102
RTVSPropertyOp33
 70
     1
102
RTVSPropertyOp34
 70
     1
102
RTVSPropertyOp35
 70
     1
102
RTVSPropertyOp36
 70
     1
102
RTVSPropertyOp37
 70
     1
102
RTVSPropertyOp38
 70
     1
102
RTVSPropertyOp39
 70
     1
102
RTVSPropertyOp40
 70
     1
102
RTVSPropertyOp41
 70
     1
102
RTVSPropertyOp42
 70
     1
102
RTVSPropertyOp43
 70
     1
102
RTVSPropertyOp44
 70
     1
102
RTVSPropertyOp45
 70
     1
102
RTVSPropertyOp46
 70
     1
102
RTVSPropertyOp47
 70
     1
102
RTVSPropertyOp48
 70
     1
102
RTVSPropertyOp49
 70
     1
102
RTVSPropertyOp50
 70
     1
102
RTVSPropertyOp51
 70
     0
102
RTVSPropertyOp52
 70
     0
102
RTVSPropertyOp53
 70
     1
102
RTVSPropertyOp54
 70
     1
102
RTVSPropertyOp55
 70
     1
102
RTVSPropertyOp56
 70
     1
102
RTVSPropertyOp57
 70
     1
102
RTVSPost2010Prop28
280
     0
102
RTVSPost2010PropOp28
 70
     1
102
RTVSPost2010Prop29
280
     1
102
RTVSPost2010PropOp29
 70
     1
102
RTVSPost2010Prop30
280
     1
102
RTVSPost2010PropOp30
 70
     1
102
RTVSPost2010Prop31
280
     0
102
RTVSPost2010PropOp31
 70
     1
102
RTVSPost2010Prop32
280
     0
102
RTVSPost2010PropOp32
 70
     1
102
RTVSPost2010Prop33
280
     0
102
RTVSPost2010PropOp33
 70
     1
102
RTVSPost2010Prop34
280
     0
102
RTVSPost2010PropOp34
 70
     1
102
RTVSPost2010Prop35
280
     0
102
RTVSPost2010PropOp35
 70
     1
102
RTVSPost2010Prop36
280
     0
102
RTVSPost2010PropOp36
 70
     1
102
RTVSPost2010Prop37
 90
       50
102
RTVSPost2010PropOp37
 70
     1
102
RTVSPost2010Prop38
140
0.0
102
RTVSPost2010PropOp38
 70
     1
102
RTVSPost2010Prop39
140
1.0
102
RTVSPost2010PropOp39
 70
     1
102
RTVSPost2010Prop40
 90
        0
102
RTVSPost2010PropOp40
 70
     1
102
RTVSPost2010Prop41ColorIndex
 90
       18
102
RTVSPost2010Prop41ColorRGB
 90
        0
102
RTVSPost2010PropOp41
 70
     1
102
RTVSPost2010Prop42
 90
       50
102
RTVSPost2010PropOp42
 70
     1
102
RTVSPost2010Prop43
 90
        3
102
RTVSPost2010PropOp43
 70
     1
102
RTVSPost2010Prop44ColorIndex
 90
        5
102
RTVSPost2010Prop44ColorRGB
 90
      255
102
RTVSPost2010PropOp44
 70
     1
102
RTVSPost2010Prop45
280
     0
102
RTVSPost2010PropOp45
 70
     1
102
RTVSPost2010Prop46
 90
       50
102
RTVSPost2010PropOp46
 70
     1
102
RTVSPost2010Prop47
 90
       50
102
RTVSPost2010PropOp47
 70
     1
102
RTVSPost2010Prop48
 90
       50
102
RTVSPost2010PropOp48
 70
     1
102
RTVSPost2010Prop49
280
     0
102
RTVSPost2010PropOp49
 70
     1
102
RTVSPost2010Prop50
 90
       50
102
RTVSPost2010PropOp50
 70
     1
102
RTVSPost2010Prop51ColorIndex
 90
      256
102
RTVSPost2010Prop51ColorRGB
 90
-16777216
102
RTVSPost2010PropOp51
 70
     0
102
RTVSPost2010Prop52
140
1.0
102
RTVSPost2010PropOp52
 70
     0
102
RTVSPost2010Prop53
 90
        2
102
RTVSPost2010PropOp53
 70
     1
102
RTVSPost2010Prop54
  1
strokes_ogs.tif
102
RTVSPost2010PropOp54
 70
     1
102
RTVSPost2010Prop55
280
     0
102
RTVSPost2010PropOp55
 70
     1
102
RTVSPost2010Prop56
140
1.0
102
RTVSPost2010PropOp56
 70
     1
102
RTVSPost2010Prop57
140
1.0
102
RTVSPost2010PropOp57
 70
     1
  0
XRECORD
  5
286
102
{ACAD_REACTORS
330
285
102
}
330
285
100
AcDbXrecord
280
     1
102
RTVSPropertyOp0
 70
     1
102
RTVSPropertyOp1
 70
     1
102
RTVSPropertyOp2
 70
     1
102
RTVSPropertyOp3
 70
     1
102
RTVSPropertyOp4
 70
     1
102
RTVSPropertyOp5
 70
     1
102
RTVSPropertyOp6
 70
     1
102
RTVSPropertyOp7
 70
     1
102
RTVSPropertyOp8
 70
     1
102
RTVSPropertyOp9
 70
     1
102
RTVSPropertyOp10
 70
     1
102
RTVSPropertyOp11
 70
     1
102
RTVSPropertyOp12
 70
     1
102
RTVSPropertyOp13
 70
     1
102
RTVSPropertyOp14
 70
     1
102
RTVSPropertyOp15
 70
     1
102
RTVSPropertyOp16
 70
     1
102
RTVSPropertyOp17
 70
     1
102
RTVSPropertyOp18
 70
     1
102
RTVSPropertyOp19
 70
     1
102
RTVSPropertyOp20
 70
     1
102
RTVSPropertyOp21
 70
     1
102
RTVSPropertyOp22
 70
     1
102
RTVSPropertyOp23
 70
     1
102
RTVSPropertyOp24
 70
     1
102
RTVSPropertyOp25
 70
     1
102
RTVSPropertyOp26
 70
     1
102
RTVSPropertyOp27
 70
     1
102
RTVSPropertyOp28
 70
     1
102
RTVSPropertyOp29
 70
     1
102
RTVSPropertyOp30
 70
     1
102
RTVSPropertyOp31
 70
     1
102
RTVSPropertyOp32
 70
     1
102
RTVSPropertyOp33
 70
     1
102
RTVSPropertyOp34
 70
     1
102
RTVSPropertyOp35
 70
     1
102
RTVSPropertyOp36
 70
     1
102
RTVSPropertyOp37
 70
     1
102
RTVSPropertyOp38
 70
     1
102
RTVSPropertyOp39
 70
     1
102
RTVSPropertyOp40
 70
     1
102
RTVSPropertyOp41
 70
     1
102
RTVSPropertyOp42
 70
     1
102
RTVSPropertyOp43
 70
     1
102
RTVSPropertyOp44
 70
     1
102
RTVSPropertyOp45
 70
     1
102
RTVSPropertyOp46
 70
     1
102
RTVSPropertyOp47
 70
     1
102
RTVSPropertyOp48
 70
     1
102
RTVSPropertyOp49
 70
     1
102
RTVSPropertyOp50
 70
     1
102
RTVSPropertyOp51
 70
     0
102
RTVSPropertyOp52
 70
     0
102
RTVSPropertyOp53
 70
     1
102
RTVSPropertyOp54
 70
     1
102
RTVSPropertyOp55
 70
     1
102
RTVSPropertyOp56
 70
     1
102
RTVSPropertyOp57
 70
     1
102
RTVSPost2010Prop28
280
     0
102
RTVSPost2010PropOp28
 70
     1
102
RTVSPost2010Prop29
280
     1
102
RTVSPost2010PropOp29
 70
     1
102
RTVSPost2010Prop30
280
     1
102
RTVSPost2010PropOp30
 70
     1
102
RTVSPost2010Prop31
280
     0
102
RTVSPost2010PropOp31
 70
     1
102
RTVSPost2010Prop32
280
     0
102
RTVSPost2010PropOp32
 70
     1
102
RTVSPost2010Prop33
280
     0
102
RTVSPost2010PropOp33
 70
     1
102
RTVSPost2010Prop34
280
     0
102
RTVSPost2010PropOp34
 70
     1
102
RTVSPost2010Prop35
280
     0
102
RTVSPost2010PropOp35
 70
     1
102
RTVSPost2010Prop36
280
     0
102
RTVSPost2010PropOp36
 70
     1
102
RTVSPost2010Prop37
 90
       50
102
RTVSPost2010PropOp37
 70
     1
102
RTVSPost2010Prop38
140
0.0
102
RTVSPost2010PropOp38
 70
     1
102
RTVSPost2010Prop39
140
1.0
102
RTVSPost2010PropOp39
 70
     1
102
RTVSPost2010Prop40
 90
        0
102
RTVSPost2010PropOp40
 70
     1
102
RTVSPost2010Prop41ColorIndex
 90
       18
102
RTVSPost2010Prop41ColorRGB
 90
        0
102
RTVSPost2010PropOp41
 70
     1
102
RTVSPost2010Prop42
 90
       50
102
RTVSPost2010PropOp42
 70
     1
102
RTVSPost2010Prop43
 90
        3
102
RTVSPost2010PropOp43
 70
     1
102
RTVSPost2010Prop44ColorIndex
 90
        5
102
RTVSPost2010Prop44ColorRGB
 90
      255
102
RTVSPost2010PropOp44
 70
     1
102
RTVSPost2010Prop45
280
     0
102
RTVSPost2010PropOp45
 70
     1
102
RTVSPost2010Prop46
 90
       50
102
RTVSPost2010PropOp46
 70
     1
102
RTVSPost2010Prop47
 90
       50
102
RTVSPost2010PropOp47
 70
     1
102
RTVSPost2010Prop48
 90
       50
102
RTVSPost2010PropOp48
 70
     1
102
RTVSPost2010Prop49
280
     0
102
RTVSPost2010PropOp49
 70
     1
102
RTVSPost2010Prop50
 90
       50
102
RTVSPost2010PropOp50
 70
     1
102
RTVSPost2010Prop51ColorIndex
 90
      256
102
RTVSPost2010Prop51ColorRGB
 90
-16777216
102
RTVSPost2010PropOp51
 70
     0
102
RTVSPost2010Prop52
140
1.0
102
RTVSPost2010PropOp52
 70
     0
102
RTVSPost2010Prop53
 90
        2
102
RTVSPost2010PropOp53
 70
     1
102
RTVSPost2010Prop54
  1
strokes_ogs.tif
102
RTVSPost2010PropOp54
 70
     1
102
RTVSPost2010Prop55
280
     0
102
RTVSPost2010PropOp55
 70
     1
102
RTVSPost2010Prop56
140
1.0
102
RTVSPost2010PropOp56
 70
     1
102
RTVSPost2010Prop57
140
1.0
102
RTVSPost2010PropOp57
 70
     1
  0
XRECORD
  5
2A6
102
{ACAD_REACTORS
330
2A5
102
}
330
2A5
100
AcDbXrecord
280
     1
102
RTVSPropertyOp0
 70
     1
102
RTVSPropertyOp1
 70
     1
102
RTVSPropertyOp2
 70
     1
102
RTVSPropertyOp3
 70
     1
102
RTVSPropertyOp4
 70
     1
102
RTVSPropertyOp5
 70
     1
102
RTVSPropertyOp6
 70
     1
102
RTVSPropertyOp7
 70
     1
102
RTVSPropertyOp8
 70
     1
102
RTVSPropertyOp9
 70
     1
102
RTVSPropertyOp10
 70
     1
102
RTVSPropertyOp11
 70
     1
102
RTVSPropertyOp12
 70
     1
102
RTVSPropertyOp13
 70
     1
102
RTVSPropertyOp14
 70
     1
102
RTVSPropertyOp15
 70
     1
102
RTVSPropertyOp16
 70
     1
102
RTVSPropertyOp17
 70
     1
102
RTVSPropertyOp18
 70
     1
102
RTVSPropertyOp19
 70
     1
102
RTVSPropertyOp20
 70
     1
102
RTVSPropertyOp21
 70
     1
102
RTVSPropertyOp22
 70
     1
102
RTVSPropertyOp23
 70
     1
102
RTVSPropertyOp24
 70
     1
102
RTVSPropertyOp25
 70
     1
102
RTVSPropertyOp26
 70
     1
102
RTVSPropertyOp27
 70
     1
102
RTVSPropertyOp28
 70
     1
102
RTVSPropertyOp29
 70
     1
102
RTVSPropertyOp30
 70
     1
102
RTVSPropertyOp31
 70
     1
102
RTVSPropertyOp32
 70
     1
102
RTVSPropertyOp33
 70
     1
102
RTVSPropertyOp34
 70
     1
102
RTVSPropertyOp35
 70
     1
102
RTVSPropertyOp36
 70
     1
102
RTVSPropertyOp37
 70
     1
102
RTVSPropertyOp38
 70
     1
102
RTVSPropertyOp39
 70
     1
102
RTVSPropertyOp40
 70
     1
102
RTVSPropertyOp41
 70
     1
102
RTVSPropertyOp42
 70
     1
102
RTVSPropertyOp43
 70
     1
102
RTVSPropertyOp44
 70
     1
102
RTVSPropertyOp45
 70
     1
102
RTVSPropertyOp46
 70
     1
102
RTVSPropertyOp47
 70
     1
102
RTVSPropertyOp48
 70
     1
102
RTVSPropertyOp49
 70
     1
102
RTVSPropertyOp50
 70
     1
102
RTVSPropertyOp51
 70
     0
102
RTVSPropertyOp52
 70
     0
102
RTVSPropertyOp53
 70
     1
102
RTVSPropertyOp54
 70
     1
102
RTVSPropertyOp55
 70
     1
102
RTVSPropertyOp56
 70
     1
102
RTVSPropertyOp57
 70
     1
102
RTVSPost2010Prop28
280
     0
102
RTVSPost2010PropOp28
 70
     1
102
RTVSPost2010Prop29
280
     1
102
RTVSPost2010PropOp29
 70
     1
102
RTVSPost2010Prop30
280
     1
102
RTVSPost2010PropOp30
 70
     1
102
RTVSPost2010Prop31
280
     0
102
RTVSPost2010PropOp31
 70
     1
102
RTVSPost2010Prop32
280
     0
102
RTVSPost2010PropOp32
 70
     1
102
RTVSPost2010Prop33
280
     0
102
RTVSPost2010PropOp33
 70
     1
102
RTVSPost2010Prop34
280
     0
102
RTVSPost2010PropOp34
 70
     1
102
RTVSPost2010Prop35
280
     0
102
RTVSPost2010PropOp35
 70
     1
102
RTVSPost2010Prop36
280
     0
102
RTVSPost2010PropOp36
 70
     1
102
RTVSPost2010Prop37
 90
       50
102
RTVSPost2010PropOp37
 70
     1
102
RTVSPost2010Prop38
140
0.0
102
RTVSPost2010PropOp38
 70
     1
102
RTVSPost2010Prop39
140
1.0
102
RTVSPost2010PropOp39
 70
     1
102
RTVSPost2010Prop40
 90
        0
102
RTVSPost2010PropOp40
 70
     1
102
RTVSPost2010Prop41ColorIndex
 90
       18
102
RTVSPost2010Prop41ColorRGB
 90
        0
102
RTVSPost2010PropOp41
 70
     1
102
RTVSPost2010Prop42
 90
       50
102
RTVSPost2010PropOp42
 70
     1
102
RTVSPost2010Prop43
 90
        3
102
RTVSPost2010PropOp43
 70
     1
102
RTVSPost2010Prop44ColorIndex
 90
        5
102
RTVSPost2010Prop44ColorRGB
 90
      255
102
RTVSPost2010PropOp44
 70
     1
102
RTVSPost2010Prop45
280
     0
102
RTVSPost2010PropOp45
 70
     1
102
RTVSPost2010Prop46
 90
       50
102
RTVSPost2010PropOp46
 70
     1
102
RTVSPost2010Prop47
 90
       50
102
RTVSPost2010PropOp47
 70
     1
102
RTVSPost2010Prop48
 90
       50
102
RTVSPost2010PropOp48
 70
     1
102
RTVSPost2010Prop49
280
     0
102
RTVSPost2010PropOp49
 70
     1
102
RTVSPost2010Prop50
 90
       50
102
RTVSPost2010PropOp50
 70
     1
102
RTVSPost2010Prop51ColorIndex
 90
      256
102
RTVSPost2010Prop51ColorRGB
 90
-16777216
102
RTVSPost2010PropOp51
 70
     0
102
RTVSPost2010Prop52
140
1.0
102
RTVSPost2010PropOp52
 70
     0
102
RTVSPost2010Prop53
 90
        2
102
RTVSPost2010PropOp53
 70
     1
102
RTVSPost2010Prop54
  1
strokes_ogs.tif
102
RTVSPost2010PropOp54
 70
     1
102
RTVSPost2010Prop55
280
     0
102
RTVSPost2010PropOp55
 70
     1
102
RTVSPost2010Prop56
140
1.0
102
RTVSPost2010PropOp56
 70
     1
102
RTVSPost2010Prop57
140
1.0
102
RTVSPost2010PropOp57
 70
     1
  0
ENDSEC
  0
EOF
