  0
SECTION
  2
HEADER
  9
$ACADVER
  1
AC1018
  9
$ACADMAINTVER
 70
     0
  9
$DWGCODEPAGE
  3
ANSI_932
  9
$INSBASE
 10
0.0
 20
0.0
 30
0.0
  9
$EXTMIN
 10
-630.0
 20
-445.5
 30
0.0
  9
$EXTMAX
 10
630.0
 20
445.5
 30
0.0
  9
$LIMMIN
 10
-630.0
 20
-445.5
  9
$LIMMAX
 10
630.0
 20
445.5
  9
$ORTHOMODE
 70
     0
  9
$REGENMODE
 70
     1
  9
$FILLMODE
 70
     1
  9
$QTEXTMODE
 70
     0
  9
$MIRRTEXT
 70
     1
  9
$LTSCALE
 40
3.0
  9
$ATTMODE
 70
     1
  9
$TEXTSIZE
 40
2.5
  9
$TRACEWID
 40
1.0
  9
$TEXTSTYLE
  7
Standard
  9
$CLAYER
  8
0
  9
$CELTYPE
  6
ByLayer
  9
$CECOLOR
 62
   256
  9
$CELTSCALE
 40
1.0
  9
$DISPSILH
 70
     0
  9
$DIMSCALE
 40
1.0
  9
$DIMASZ
 40
2.5
  9
$DIMEXO
 40
0.625
  9
$DIMDLI
 40
3.75
  9
$DIMRND
 40
0.0
  9
$DIMDLE
 40
0.0
  9
$DIMEXE
 40
1.25
  9
$DIMTP
 40
0.0
  9
$DIMTM
 40
0.0
  9
$DIMTXT
 40
2.5
  9
$DIMCEN
 40
2.5
  9
$DIMTSZ
 40
0.0
  9
$DIMTOL
 70
     0
  9
$DIMLIM
 70
     0
  9
$DIMTIH
 70
     0
  9
$DIMTOH
 70
     0
  9
$DIMSE1
 70
     0
  9
$DIMSE2
 70
     0
  9
$DIMTAD
 70
     1
  9
$DIMZIN
 70
     8
  9
$DIMBLK
  1

  9
$DIMASO
 70
     1
  9
$DIMSHO
 70
     1
  9
$DIMPOST
  1

  9
$DIMAPOST
  1

  9
$DIMALT
 70
     0
  9
$DIMALTD
 70
     3
  9
$DIMALTF
 40
0.03937007874016
  9
$DIMLFAC
 40
1.0
  9
$DIMTOFL
 70
     1
  9
$DIMTVP
 40
0.0
  9
$DIMTIX
 70
     0
  9
$DIMSOXD
 70
     0
  9
$DIMSAH
 70
     0
  9
$DIMBLK1
  1

  9
$DIMBLK2
  1

  9
$DIMSTYLE
  2
ISO-25
  9
$DIMCLRD
 70
     0
  9
$DIMCLRE
 70
     0
  9
$DIMCLRT
 70
     0
  9
$DIMTFAC
 40
1.0
  9
$DIMGAP
 40
0.625
  9
$DIMJUST
 70
     0
  9
$DIMSD1
 70
     0
  9
$DIMSD2
 70
     0
  9
$DIMTOLJ
 70
     0
  9
$DIMTZIN
 70
     8
  9
$DIMALTZ
 70
     0
  9
$DIMALTTZ
 70
     0
  9
$DIMUPT
 70
     0
  9
$DIMDEC
 70
     2
  9
$DIMTDEC
 70
     2
  9
$DIMALTU
 70
     2
  9
$DIMALTTD
 70
     3
  9
$DIMTXSTY
  7
Standard
  9
$DIMAUNIT
 70
     0
  9
$DIMADEC
 70
     0
  9
$DIMALTRND
 40
0.0
  9
$DIMAZIN
 70
     0
  9
$DIMDSEP
 70
    44
  9
$DIMATFIT
 70
     3
  9
$DIMFRAC
 70
     0
  9
$DIMLDRBLK
  1

  9
$DIMLUNIT
 70
     2
  9
$DIMLWD
 70
    -2
  9
$DIMLWE
 70
    -2
  9
$DIMTMOVE
 70
     0
  9
$LUNITS
 70
     2
  9
$LUPREC
 70
     4
  9
$SKETCHINC
 40
1.0
  9
$FILLETRAD
 40
10.0
  9
$AUNITS
 70
     0
  9
$AUPREC
 70
     0
  9
$MENU
  1
.
  9
$ELEVATION
 40
0.0
  9
$PELEVATION
 40
0.0
  9
$THICKNESS
 40
0.0
  9
$LIMCHECK
 70
     0
  9
$CHAMFERA
 40
0.0
  9
$CHAMFERB
 40
0.0
  9
$CHAMFERC
 40
0.0
  9
$CHAMFERD
 40
0.0
  9
$SKPOLY
 70
     0
  9
$TDCREATE
 40
2460129.417796782
  9
$TDUCREATE
 40
2460129.042796782
  9
$TDUPDATE
 40
2460129.417796887
  9
$TDUUPDATE
 40
2460129.042796887
  9
$TDINDWG
 40
0.0000000116
  9
$TDUSRTIMER
 40
0.0000000116
  9
$USRTIMER
 70
     1
  9
$ANGBASE
 50
0.0
  9
$ANGDIR
 70
     0
  9
$PDMODE
 70
     0
  9
$PDSIZE
 40
0.0
  9
$PLINEWID
 40
0.0
  9
$SPLFRAME
 70
     0
  9
$SPLINETYPE
 70
     6
  9
$SPLINESEGS
 70
     8
  9
$HANDSEED
  5
2CA
  9
$SURFTAB1
 70
     6
  9
$SURFTAB2
 70
     6
  9
$SURFTYPE
 70
     6
  9
$SURFU
 70
     6
  9
$SURFV
 70
     6
  9
$UCSBASE
  2

  9
$UCSNAME
  2

  9
$UCSORG
 10
0.0
 20
0.0
 30
0.0
  9
$UCSXDIR
 10
1.0
 20
0.0
 30
0.0
  9
$UCSYDIR
 10
0.0
 20
1.0
 30
0.0
  9
$UCSORTHOREF
  2

  9
$UCSORTHOVIEW
 70
     0
  9
$UCSORGTOP
 10
0.0
 20
0.0
 30
0.0
  9
$UCSORGBOTTOM
 10
0.0
 20
0.0
 30
0.0
  9
$UCSORGLEFT
 10
0.0
 20
0.0
 30
0.0
  9
$UCSORGRIGHT
 10
0.0
 20
0.0
 30
0.0
  9
$UCSORGFRONT
 10
0.0
 20
0.0
 30
0.0
  9
$UCSORGBACK
 10
0.0
 20
0.0
 30
0.0
  9
$PUCSBASE
  2

  9
$PUCSNAME
  2

  9
$PUCSORG
 10
0.0
 20
0.0
 30
0.0
  9
$PUCSXDIR
 10
1.0
 20
0.0
 30
0.0
  9
$PUCSYDIR
 10
0.0
 20
1.0
 30
0.0
  9
$PUCSORTHOREF
  2

  9
$PUCSORTHOVIEW
 70
     0
  9
$PUCSORGTOP
 10
0.0
 20
0.0
 30
0.0
  9
$PUCSORGBOTTOM
 10
0.0
 20
0.0
 30
0.0
  9
$PUCSORGLEFT
 10
0.0
 20
0.0
 30
0.0
  9
$PUCSORGRIGHT
 10
0.0
 20
0.0
 30
0.0
  9
$PUCSORGFRONT
 10
0.0
 20
0.0
 30
0.0
  9
$PUCSORGBACK
 10
0.0
 20
0.0
 30
0.0
  9
$USERI1
 70
     0
  9
$USERI2
 70
     0
  9
$USERI3
 70
     0
  9
$USERI4
 70
     0
  9
$USERI5
 70
     0
  9
$USERR1
 40
0.0
  9
$USERR2
 40
0.0
  9
$USERR3
 40
0.0
  9
$USERR4
 40
0.0
  9
$USERR5
 40
0.0
  9
$WORLDVIEW
 70
     1
  9
$SHADEDGE
 70
     3
  9
$SHADEDIF
 70
    70
  9
$TILEMODE
 70
     1
  9
$MAXACTVP
 70
    64
  9
$PINSBASE
 10
0.0
 20
0.0
 30
0.0
  9
$PLIMCHECK
 70
     0
  9
$PEXTMIN
 10
1.000000000000000E+20
 20
1.000000000000000E+20
 30
1.000000000000000E+20
  9
$PEXTMAX
 10
-1.000000000000000E+20
 20
-1.000000000000000E+20
 30
-1.000000000000000E+20
  9
$PLIMMIN
 10
0.0
 20
0.0
  9
$PLIMMAX
 10
420.0
 20
297.0
  9
$UNITMODE
 70
     0
  9
$VISRETAIN
 70
     1
  9
$PLINEGEN
 70
     0
  9
$PSLTSCALE
 70
     1
  9
$TREEDEPTH
 70
  3020
  9
$CMLSTYLE
  2
Standard
  9
$CMLJUST
 70
     0
  9
$CMLSCALE
 40
20.0
  9
$PROXYGRAPHICS
 70
     1
  9
$MEASUREMENT
 70
     1
  9
$CELWEIGHT
370
    -1
  9
$ENDCAPS
280
     0
  9
$JOINSTYLE
280
     0
  9
$LWDISPLAY
290
     0
  9
$INSUNITS
 70
     4
  9
$HYPERLINKBASE
  1

  9
$STYLESHEET
  1

  9
$XEDIT
290
     1
  9
$CEPSNTYPE
380
     0
  9
$PSTYLEMODE
290
     1
  9
$FINGERPRINTGUID
  2
{3434216D-75E3-468A-8DC2-A74A420F3F3B}
  9
$VERSIONGUID
  2
{FAEB1C32-E019-11D5-929B-00C0DF256EC4}
  9
$EXTNAMES
290
     1
  9
$PSVPSCALE
 40
0.0
  9
$OLESTARTUP
290
     0
  9
$SORTENTS
280
   127
  9
$INDEXCTL
280
     0
  9
$HIDETEXT
280
     1
  9
$XCLIPFRAME
290
     0
  9
$HALOGAP
280
     0
  9
$OBSCOLOR
 70
   257
  9
$OBSLTYPE
280
     0
  9
$INTERSECTIONDISPLAY
280
     0
  9
$INTERSECTIONCOLOR
 70
   257
  9
$DIMASSOC
280
     2
  9
$PROJECTNAME
  1

  0
ENDSEC
  0
SECTION
  2
CLASSES
  0
CLASS
  1
ACDBDICTIONARYWDFLT
  2
AcDbDictionaryWithDefault
  3
ObjectDBX Classes
 90
        0
 91
        4
280
     0
281
     0
  0
CLASS
  1
VISUALSTYLE
  2
AcDbVisualStyle
  3
ObjectDBX Classes
 90
     4095
 91
        4
280
     0
281
     0
  0
CLASS
  1
MATERIAL
  2
AcDbMaterial
  3
ObjectDBX Classes
 90
     1153
 91
        4
280
     0
281
     0
  0
CLASS
  1
SCALE
  2
AcDbScale
  3
ObjectDBX Classes
 90
     1153
 91
        4
280
     0
281
     0
  0
CLASS
  1
TABLESTYLE
  2
AcDbTableStyle
  3
ObjectDBX Classes
 90
     4095
 91
        4
280
     0
281
     0
  0
CLASS
  1
MLEADERSTYLE
  2
AcDbMLeaderStyle
  3
ACDB_MLEADERSTYLE_CLASS
 90
     4095
 91
        4
280
     0
281
     0
  0
CLASS
  1
SUN
  2
AcDbSun
  3
SCENEOE
 90
     1153
 91
        4
280
     0
281
     0
  0
CLASS
  1
DICTIONARYVAR
  2
AcDbDictionaryVar
  3
ObjectDBX Classes
 90
        0
 91
        4
280
     0
281
     0
  0
CLASS
  1
CELLSTYLEMAP
  2
AcDbCellStyleMap
  3
ObjectDBX Classes
 90
     1152
 91
        4
280
     0
281
     0
  0
ENDSEC
  0
SECTION
  2
TABLES
  0
TABLE
  2
VPORT
  5
8
102
{ACAD_XDICTIONARY
360
281
102
}
330
0
100
AcDbSymbolTable
 70
     1
  0
VPORT
  5
29
330
8
100
AcDbSymbolTableRecord
100
AcDbViewportTableRecord
  2
*Active
 70
     0
 10
0.0
 20
0.0
 11
1.0
 21
1.0
 12
0.0
 22
0.0
 13
0.0
 23
0.0
 14
10.0
 24
10.0
 15
10.0
 25
10.0
 16
0.0
 26
0.0
 36
1.0
 17
0.0
 27
0.0
 37
0.0
 40
980.1
 41
1.414141414141414
 42
50.0
 43
0.0
 44
0.0
 50
0.0
 51
0.0
 71
     0
 72
 10000
 73
     1
 74
     3
 75
     0
 76
     0
 77
     0
 78
     0
281
     0
 65
     1
110
0.0
120
0.0
130
0.0
111
1.0
121
0.0
131
0.0
112
0.0
122
1.0
132
0.0
 79
     0
146
0.0
  0
ENDTAB
  0
TABLE
  2
LTYPE
  5
5
330
0
100
AcDbSymbolTable
 70
     4
  0
LTYPE
  5
14
330
5
100
AcDbSymbolTableRecord
100
AcDbLinetypeTableRecord
  2
ByBlock
 70
     0
  3

 72
    65
 73
     0
 40
0.0
  0
LTYPE
  5
15
330
5
100
AcDbSymbolTableRecord
100
AcDbLinetypeTableRecord
  2
ByLayer
 70
     0
  3

 72
    65
 73
     0
 40
0.0
  0
LTYPE
  5
16
330
5
100
AcDbSymbolTableRecord
100
AcDbLinetypeTableRecord
  2
Continuous
 70
     0
  3
Solid line
 72
    65
 73
     0
 40
0.0
  0
LTYPE
  5
6F
330
5
100
AcDbSymbolTableRecord
100
AcDbLinetypeTableRecord
  2
JWW_CENTER1
 70
     0
  3
-----  --  ----------  --  -----
 72
    65
 73
     4
 40
6.773333333333333
 49
4.233333333333333
 74
     0
 49
-0.8466666666666667
 74
     0
 49
0.8466666666666667
 74
     0
 49
-0.8466666666666667
 74
     0
  0
LTYPE
  5
70
330
5
100
AcDbSymbolTableRecord
100
AcDbLinetypeTableRecord
  2
JWW_DASHED1
 70
     0
  3
-  --  --  --  --  --  --  --  -
 72
    65
 73
     2
 40
1.693333333333333
 49
0.8466666666666667
 74
     0
 49
-0.8466666666666667
 74
     0
  0
LTYPE
  5
71
330
5
100
AcDbSymbolTableRecord
100
AcDbLinetypeTableRecord
  2
JWW_PHANTOM1
 70
     0
  3
----  -  -  --------  -  -  ----
 72
    65
 73
     6
 40
6.773333333333333
 49
3.386666666666667
 74
     0
 49
-0.8466666666666667
 74
     0
 49
0.4233333333333333
 74
     0
 49
-0.8466666666666667
 74
     0
 49
0.4233333333333333
 74
     0
 49
-0.8466666666666667
 74
     0
  0
ENDTAB
  0
TABLE
  2
LAYER
  5
2
330
0
100
AcDbSymbolTable
 70
    10
  0
LAYER
  5
10
330
2
100
AcDbSymbolTableRecord
100
AcDbLayerTableRecord
  2
0
 70
     0
 62
     7
  6
Continuous
370
    -3
390
F
  0
LAYER
  5
72
330
2
100
AcDbSymbolTableRecord
100
AcDbLayerTableRecord
  2
通り芯
 70
     0
 62
     7
  6
Continuous
370
    -3
390
F
  0
LAYER
  5
73
330
2
100
AcDbSymbolTableRecord
100
AcDbLayerTableRecord
  2
躯体
 70
     0
 62
     7
  6
Continuous
370
    -3
390
F
  0
LAYER
  5
74
330
2
100
AcDbSymbolTableRecord
100
AcDbLayerTableRecord
  2
0-B
 70
     0
 62
     7
  6
Continuous
370
    -3
390
F
  0
LAYER
  5
75
330
2
100
AcDbSymbolTableRecord
100
AcDbLayerTableRecord
  2
その他
 70
     0
 62
     7
  6
Continuous
370
    -3
390
F
  0
LAYER
  5
76
330
2
100
AcDbSymbolTableRecord
100
AcDbLayerTableRecord
  2
寸法
 70
     0
 62
     7
  6
Continuous
370
    -3
390
F
  0
LAYER
  5
77
330
2
100
AcDbSymbolTableRecord
100
AcDbLayerTableRecord
  2
仕上
 70
     0
 62
     7
  6
Continuous
370
    -3
390
F
  0
LAYER
  5
78
330
2
100
AcDbSymbolTableRecord
100
AcDbLayerTableRecord
  2
建具
 70
     0
 62
     7
  6
Continuous
370
    -3
390
F
  0
LAYER
  5
79
330
2
100
AcDbSymbolTableRecord
100
AcDbLayerTableRecord
  2
F-4ﾚｲﾔ
 70
     0
 62
     7
  6
Continuous
370
    -3
390
F
  0
LAYER
  5
7A
330
2
100
AcDbSymbolTableRecord
100
AcDbLayerTableRecord
  2
F-5ﾚｲﾔ
 70
     0
 62
     7
  6
Continuous
370
    -3
390
F
  0
ENDTAB
  0
TABLE
  2
STYLE
  5
3
330
0
100
AcDbSymbolTable
 70
     2
  0
STYLE
  5
11
330
3
100
AcDbSymbolTableRecord
100
AcDbTextStyleTableRecord
  2
Standard
 70
     0
 40
0.0
 41
1.0
 50
0.0
 71
     0
 42
2.5
  3
txt
  4

  0
STYLE
  5
6E
330
3
100
AcDbSymbolTableRecord
100
AcDbTextStyleTableRecord
  2
ＭＳ ゴシック
 70
     0
 40
1.0
 41
1.0
 50
0.0
 71
     0
 42
2.5
  3

  4

1001
ACAD
1000
MS Gothic
1071
    32817
  0
ENDTAB
  0
TABLE
  2
VIEW
  5
6
330
0
100
AcDbSymbolTable
 70
     0
  0
ENDTAB
  0
TABLE
  2
UCS
  5
7
330
0
100
AcDbSymbolTable
 70
     0
  0
ENDTAB
  0
TABLE
  2
APPID
  5
9
330
0
100
AcDbSymbolTable
 70
     2
  0
APPID
  5
12
330
9
100
AcDbSymbolTableRecord
100
AcDbRegAppTableRecord
  2
ACAD
 70
     0
  0
APPID
  5
2C0
330
9
100
AcDbSymbolTableRecord
100
AcDbRegAppTableRecord
  2
ACAD_MLEADERVER
 70
     0
  0
ENDTAB
  0
TABLE
  2
DIMSTYLE
  5
A
330
0
100
AcDbSymbolTable
 70
     1
100
AcDbDimStyleTable
  0
DIMSTYLE
105
27
330
A
100
AcDbSymbolTableRecord
100
AcDbDimStyleTableRecord
  2
ISO-25
 70
     0
 41
2.5
 42
0.625
 43
3.75
 44
1.25
 73
     0
 74
     0
 77
     1
 78
     8
140
2.5
141
2.5
143
0.03937007874016
147
0.625
171
     3
172
     1
178
     0
271
     2
272
     2
274
     3
278
    44
283
     0
284
     8
340
11
  0
ENDTAB
  0
TABLE
  2
BLOCK_RECORD
  5
1
330
0
100
AcDbSymbolTable
 70
     1
  0
BLOCK_RECORD
  5
1F
330
1
100
AcDbSymbolTableRecord
100
AcDbBlockTableRecord
  2
*Model_Space
340
22
  0
BLOCK_RECORD
  5
1B
330
1
100
AcDbSymbolTableRecord
100
AcDbBlockTableRecord
  2
*Paper_Space
340
1E
  0
BLOCK_RECORD
  5
23
330
1
100
AcDbSymbolTableRecord
100
AcDbBlockTableRecord
  2
*Paper_Space0
340
26
  0
ENDTAB
  0
ENDSEC
  0
SECTION
  2
BLOCKS
  0
BLOCK
  5
20
330
1F
100
AcDbEntity
  8
0
100
AcDbBlockBegin
  2
*Model_Space
 70
     0
 10
0.0
 20
0.0
 30
0.0
  3
*Model_Space
  1

  0
ENDBLK
  5
21
330
1F
100
AcDbEntity
  8
0
100
AcDbBlockEnd
  0
BLOCK
  5
1C
330
1B
100
AcDbEntity
 67
     1
  8
0
100
AcDbBlockBegin
  2
*Paper_Space
 70
     0
 10
0.0
 20
0.0
 30
0.0
  3
*Paper_Space
  1

  0
ENDBLK
  5
1D
330
1B
100
AcDbEntity
 67
     1
  8
0
100
AcDbBlockEnd
  0
BLOCK
  5
24
330
23
100
AcDbEntity
  8
0
100
AcDbBlockBegin
  2
*Paper_Space0
 70
     0
 10
0.0
 20
0.0
 30
0.0
  3
*Paper_Space0
  1

  0
ENDBLK
  5
25
330
23
100
AcDbEntity
  8
0
100
AcDbBlockEnd
  0
ENDSEC
  0
SECTION
  2
ENTITIES
  0
LINE
  5
7B
330
1F
100
AcDbEntity
  8
通り芯
  6
Continuous
 62
     7
370
     9
100
AcDbLine
 10
-112.4865757710224
 20
-15.2702307229749
 30
0.0
 11
-112.4865757710224
 21
2.962001448161075
 31
0.0
  0
LINE
  5
7C
330
1F
100
AcDbEntity
  8
通り芯
  6
JWW_CENTER1
 62
     3
370
     9
100
AcDbLine
 10
55.44643608299467
 20
261.0816158373651
 30
0.0
 11
-146.1486998156691
 21
261.0816158373651
 31
0.0
  0
LINE
  5
7D
330
1F
100
AcDbEntity
  8
躯体
  6
Continuous
 62
     2
370
     9
100
AcDbLine
 10
27.94990707456378
 20
275.1805308490914
 30
0.0
 11
29.11167309735271
 21
275.4918119133937
 31
0.0
  0
LINE
  5
7E
330
1F
100
AcDbEntity
  8
躯体
  6
Continuous
 62
     2
370
     9
100
AcDbLine
 10
4.191707920383765
 20
316.3308726930978
 30
0.0
 11
5.04222787393107
 21
317.1813751491148
 31
0.0
  0
LINE
  5
7F
330
1F
100
AcDbEntity
  8
躯体
  6
Continuous
 62
     2
370
     9
100
AcDbLine
 10
11.26279237371615
 20
309.2597882397654
 30
0.0
 11
12.11331232726346
 21
310.1102906957824
 31
0.0
  0
LINE
  5
80
330
1F
100
AcDbEntity
  8
躯体
  6
Continuous
 62
     2
370
     9
100
AcDbLine
 10
-29.88758446535086
 20
333.0179698964151
 30
0.0
 11
-29.5762334109273
 21
334.1797534167344
 31
0.0
  0
LINE
  5
81
330
1F
100
AcDbEntity
  8
躯体
  6
Continuous
 62
     2
370
     9
100
AcDbLine
 10
-20.22828282536686
 20
330.4297877048241
 30
0.0
 11
-19.91700176106453
 21
331.5915362300827
 31
0.0
  0
LINE
  5
82
330
1F
100
AcDbEntity
  8
躯体
  6
Continuous
 62
     2
370
     9
100
AcDbLine
 10
25.3617423805031
 20
284.8397974940148
 30
0.0
 11
26.52350840329207
 21
285.1510960558474
 31
0.0
  0
LINE
  5
83
330
1F
100
AcDbEntity
  8
通り芯
  6
Continuous
 62
     3
370
     9
100
AcDbLine
 10
-30.98649935924867
 20
333.2247207146162
 30
0.0
 11
-30.98649935924867
 21
328.3367331285542
 31
0.0
  0
LINE
  5
84
330
1F
100
AcDbEntity
  8
通り芯
  6
Continuous
 62
     3
370
     9
100
AcDbLine
 10
-37.48649941816292
 20
329.2725272960912
 30
0.0
 11
-37.48649941816292
 21
334.0979174674516
 31
0.0
  0
LINE
  5
85
330
1F
100
AcDbEntity
  8
通り芯
  6
Continuous
 62
     3
370
     9
100
AcDbLine
 10
28.15658790264354
 20
274.0816159551936
 30
0.0
 11
23.26861781411191
 21
274.0816159551936
 31
0.0
  0
LINE
  5
86
330
1F
100
AcDbEntity
  8
通り芯
  6
Continuous
 62
     3
370
     9
100
AcDbLine
 10
24.2044207304141
 20
267.5816158962794
 30
0.0
 11
29.02978465547895
 21
267.5816158962794
 31
0.0
  0
ARC
  5
87
330
1F
100
AcDbEntity
  8
躯体
  6
Continuous
 62
     2
370
     9
100
AcDbCircle
 10
-43.98649947707713
 20
261.0816158373651
 30
0.0
 40
73.30503712657796
100
AcDbArc
 50
45.88273620605468
 51
74.99998474121094
  0
ARC
  5
88
330
1F
100
AcDbEntity
  8
通り芯
  6
Continuous
 62
     3
370
     9
100
AcDbCircle
 10
-43.98649947707713
 20
261.0816158373651
 30
0.0
 40
35.00001024371409
100
AcDbArc
 50
0.0
 51
180.0
  0
ARC
  5
89
330
1F
100
AcDbEntity
  8
通り芯
  6
Continuous
 62
     3
370
     9
100
AcDbCircle
 10
-43.98649947707713
 20
261.0816158373651
 30
0.0
 40
34.1185371590397
100
AcDbArc
 50
0.0
 51
180.0
  0
ARC
  5
8A
330
1F
100
AcDbEntity
  8
通り芯
  6
Continuous
 62
     3
370
     9
100
AcDbCircle
 10
-43.98649947707713
 20
261.0816158373651
 30
0.0
 40
92.50503339730633
100
AcDbArc
 50
0.0
 51
180.0
  0
ARC
  5
8B
330
1F
100
AcDbEntity
  8
通り芯
  6
Continuous
 62
     3
370
     9
100
AcDbCircle
 10
-43.98649947707713
 20
261.0816158373651
 30
0.0
 40
91.50503204227874
100
AcDbArc
 50
0.0
 51
180.0
  0
ARC
  5
8C
330
1F
100
AcDbEntity
  8
通り芯
  6
Continuous
 62
     3
370
     9
100
AcDbCircle
 10
-43.98649947707713
 20
261.0816158373651
 30
0.0
 40
89.50502933222354
100
AcDbArc
 50
0.0
 51
180.0
  0
LINE
  5
8D
330
1F
100
AcDbEntity
  8
通り芯
  6
Continuous
 62
     3
370
     9
100
AcDbLine
 10
-112.1774196845683
 20
267.5816158962794
 30
0.0
 11
-117.0027836096332
 21
267.5816158962794
 31
0.0
  0
LINE
  5
8E
330
1F
100
AcDbEntity
  8
通り芯
  6
Continuous
 62
     3
370
     9
100
AcDbLine
 10
-116.1295868567978
 20
274.0816159551936
 30
0.0
 11
-111.2416167682662
 21
274.0816159551936
 31
0.0
  0
LINE
  5
8F
330
1F
100
AcDbEntity
  8
通り芯
  6
Continuous
 62
     3
370
     9
100
AcDbLine
 10
-56.98649959490559
 20
333.2247207146162
 30
0.0
 11
-56.98649959490559
 21
328.3367331285542
 31
0.0
  0
LINE
  5
90
330
1F
100
AcDbEntity
  8
通り芯
  6
Continuous
 62
     3
370
     9
100
AcDbLine
 10
-50.48649953599134
 20
329.2725272960912
 30
0.0
 11
-50.48649953599134
 21
334.0979174674516
 31
0.0
  0
ARC
  5
91
330
1F
100
AcDbEntity
  8
躯体
  6
Continuous
 62
     2
370
     9
100
AcDbCircle
 10
-43.98649947707713
 20
261.0816158373651
 30
0.0
 40
73.30503712657796
100
AcDbArc
 50
74.99998474121094
 51
180.0
  0
LINE
  5
92
330
1F
100
AcDbEntity
  8
躯体
  6
Continuous
 62
     2
370
     9
100
AcDbLine
 10
-115.922906028718
 20
275.1805308490914
 30
0.0
 11
-117.084672051507
 21
275.4918119133937
 31
0.0
  0
LINE
  5
93
330
1F
100
AcDbEntity
  8
躯体
  6
Continuous
 62
     2
370
     9
100
AcDbLine
 10
-92.16470687453801
 20
316.3308726930978
 30
0.0
 11
-93.01522682808533
 21
317.1813751491148
 31
0.0
  0
LINE
  5
94
330
1F
100
AcDbEntity
  8
躯体
  6
Continuous
 62
     2
370
     9
100
AcDbLine
 10
-99.2357913278704
 20
309.2597882397654
 30
0.0
 11
-100.0863112814177
 21
310.1102906957824
 31
0.0
  0
LINE
  5
95
330
1F
100
AcDbEntity
  8
躯体
  6
Continuous
 62
     2
370
     9
100
AcDbLine
 10
-113.3347413346574
 20
284.8397974940148
 30
0.0
 11
-114.4965073574463
 21
285.1510960558474
 31
0.0
  0
LINE
  5
96
330
1F
100
AcDbEntity
  8
躯体
  6
Continuous
 62
     2
370
     9
100
AcDbLine
 10
-67.74471612878739
 20
330.4297877048241
 30
0.0
 11
-68.05599719308972
 21
331.5915362300827
 31
0.0
  0
LINE
  5
97
330
1F
100
AcDbEntity
  8
躯体
  6
Continuous
 62
     2
370
     9
100
AcDbLine
 10
-58.0854144888034
 20
333.0179698964151
 30
0.0
 11
-58.39676554322696
 21
334.1797534167344
 31
0.0
  0
ARC
  5
98
330
1F
100
AcDbEntity
  8
通り芯
  6
Continuous
 62
     3
370
     9
100
AcDbCircle
 10
-43.98649947707713
 20
261.0816158373651
 30
0.0
 40
74.50504400187017
100
AcDbArc
 50
0.0
 51
180.0
  0
ARC
  5
99
330
1F
100
AcDbEntity
  8
躯体
  6
Continuous
 62
     2
370
     9
100
AcDbCircle
 10
-43.98649947707713
 20
261.0816158373651
 30
0.0
 40
73.30503712657796
100
AcDbArc
 50
0.0000000000000382
 51
45.88273620605468
  0
LINE
  5
9A
330
1F
100
AcDbEntity
  8
通り芯
  6
JWW_CENTER1
 62
     3
370
     9
100
AcDbLine
 10
-43.98649947707713
 20
232.8106657814334
 30
0.0
 11
-43.98649947707714
 21
365.4329671887165
 31
0.0
  0
LINE
  5
9B
330
1F
100
AcDbEntity
  8
躯体
  6
Continuous
 62
     2
370
     9
100
AcDbLine
 10
30.51854452479303
 20
-15.82359453775231
 30
0.0
 11
30.51854452479303
 21
-3.823648267542382
 31
0.0
  0
LINE
  5
9C
330
1F
100
AcDbEntity
  8
躯体
  6
Continuous
 62
     2
370
     9
100
AcDbLine
 10
-118.4915434789473
 20
-15.82359453775229
 30
0.0
 11
-118.4915434789473
 21
-3.82364826754236
 31
0.0
  0
LINE
  5
9D
330
1F
100
AcDbEntity
  8
0-B
  6
Continuous
 62
     4
370
     9
100
AcDbLine
 10
-79.6864831107003
 20
-70.82368656180066
 30
0.0
 11
-8.286480848393344
 21
-70.82368656180066
 31
0.0
  0
LINE
  5
9E
330
1F
100
AcDbEntity
  8
0-B
  6
Continuous
 62
     4
370
     9
100
AcDbLine
 10
13.01349027184451
 20
-32.62367329431302
 30
0.0
 11
15.21352474845977
 21
-32.62367329431302
 31
0.0
  0
LINE
  5
9F
330
1F
100
AcDbEntity
  8
0-B
  6
Continuous
 62
     4
370
     9
100
AcDbLine
 10
-103.1864887075534
 20
-32.62367329431301
 30
0.0
 11
-100.9864892259988
 21
-32.62367329431301
 31
0.0
  0
LINE
  5
A0
330
1F
100
AcDbEntity
  8
0-B
  6
Continuous
 62
     4
370
     9
100
AcDbLine
 10
-101.9864730834961
 20
-29.8236135081387
 30
0.0
 11
-101.9864730834961
 21
-32.62367329431301
 31
0.0
  0
LINE
  5
A1
330
1F
100
AcDbEntity
  8
0-B
  6
Continuous
 62
     4
370
     9
100
AcDbLine
 10
-103.1864887075534
 20
-29.8236135081387
 30
0.0
 11
-103.1864887075534
 21
-32.62367329431301
 31
0.0
  0
LINE
  5
A2
330
1F
100
AcDbEntity
  8
0-B
  6
Continuous
 62
     4
370
     9
100
AcDbLine
 10
14.01354411946303
 20
-29.82361350813872
 30
0.0
 11
14.01354411946303
 21
-32.62367329431302
 31
0.0
  0
LINE
  5
A3
330
1F
100
AcDbEntity
  8
0-B
  6
Continuous
 62
     4
370
     9
100
AcDbLine
 10
15.21352474845977
 20
-29.82361350813872
 30
0.0
 11
15.21352474845977
 21
-32.62367329431302
 31
0.0
  0
LINE
  5
A4
330
1F
100
AcDbEntity
  8
0-B
  6
Continuous
 62
     4
370
     9
100
AcDbLine
 10
-78.48342291636813
 20
-70.82368656180066
 30
0.0
 11
-81.1568530756534
 21
-30.59556955057202
 31
0.0
  0
LINE
  5
A5
330
1F
100
AcDbEntity
  8
0-B
  6
Continuous
 62
     4
370
     9
100
AcDbLine
 10
-9.489541042725529
 20
-70.82368656180066
 30
0.0
 11
-6.816128380970596
 21
-30.59556955057204
 31
0.0
  0
LINE
  5
A6
330
1F
100
AcDbEntity
  8
0-B
  6
Continuous
 62
     4
370
     9
100
AcDbLine
 10
-100.9865067235291
 20
-27.62371901176591
 30
0.0
 11
-84.34873505816952
 21
-27.62371901176591
 31
0.0
  0
LINE
  5
A7
330
1F
100
AcDbEntity
  8
0-B
  6
Continuous
 62
     4
370
     9
100
AcDbLine
 10
-3.62429889104537
 20
-27.62371901176593
 30
0.0
 11
13.01352526690513
 21
-27.62371901176593
 31
0.0
  0
LINE
  5
A8
330
1F
100
AcDbEntity
  8
通り芯
  6
Continuous
 62
     2
370
     9
100
AcDbLine
 10
-104.4865202148908
 20
-16.82368338043149
 30
0.0
 11
-110.4865283450564
 21
-16.82368338043149
 31
0.0
  0
LINE
  5
A9
330
1F
100
AcDbEntity
  8
通り芯
  6
Continuous
 62
     3
370
     9
100
AcDbLine
 10
-136.4915678694441
 20
-12.82395792080609
 30
0.0
 11
-119.691576600535
 21
-12.82395792080611
 31
0.0
  0
LINE
  5
AA
330
1F
100
AcDbEntity
  8
通り芯
  6
Continuous
 62
     3
370
     9
100
AcDbLine
 10
31.71852515378977
 20
-10.30606330849011
 30
0.0
 11
31.71852515378977
 21
-24.42373567271401
 31
0.0
  0
LINE
  5
AB
330
1F
100
AcDbEntity
  8
通り芯
  6
Continuous
 62
     3
370
     9
100
AcDbLine
 10
-119.691576600535
 20
-10.30606330849009
 30
0.0
 11
-119.691576600535
 21
-24.42373567271398
 31
0.0
  0
LINE
  5
AC
330
1F
100
AcDbEntity
  8
通り芯
  6
Continuous
 62
     3
370
     9
100
AcDbLine
 10
-102.1536794831854
 20
-18.02387397979198
 30
0.0
 11
-116.4915757639527
 21
-18.02387397979198
 31
0.0
  0
LINE
  5
AD
330
1F
100
AcDbEntity
  8
通り芯
  6
Continuous
 62
     3
370
     9
100
AcDbLine
 10
45.54941299615218
 20
-3.823788247784915
 30
0.0
 11
32.0386599684314
 21
-8.213708633432848
 31
0.0
  0
LINE
  5
AE
330
1F
100
AcDbEntity
  8
通り芯
  6
Continuous
 62
     3
370
     9
100
AcDbLine
 10
30.51854452479303
 20
-24.42373567271401
 30
0.0
 11
30.51854452479303
 21
-10.30606330849011
 31
0.0
  0
LINE
  5
AF
330
1F
100
AcDbEntity
  8
通り芯
  6
Continuous
 62
     3
370
     9
100
AcDbLine
 10
-133.5224819404278
 20
-3.823788247784872
 30
0.0
 11
-120.011728912707
 21
-8.213708633432827
 31
0.0
  0
LINE
  5
B0
330
1F
100
AcDbEntity
  8
通り芯
  6
Continuous
 62
     3
370
     9
100
AcDbLine
 10
-8.665809808090373
 20
-41.82380474377308
 30
0.0
 11
-79.30720664359426
 21
-41.82380474377305
 31
0.0
  0
LINE
  5
B1
330
1F
100
AcDbEntity
  8
通り芯
  6
Continuous
 62
     3
370
     9
100
AcDbLine
 10
-134.496569453059
 20
-5.735498419871014
 30
0.0
 11
-135.2841682875938
 21
-12.82395792080609
 31
0.0
  0
LINE
  5
B2
330
1F
100
AcDbEntity
  8
通り芯
  6
Continuous
 62
     3
370
     9
100
AcDbLine
 10
-135.6892536119144
 20
-5.602937130205248
 30
0.0
 11
-136.4915678694441
 21
-12.82395792080609
 31
0.0
  0
LINE
  5
B3
330
1F
100
AcDbEntity
  8
通り芯
  6
Continuous
 62
     3
370
     9
100
AcDbLine
 10
-120.3825540726709
 20
-9.35496755069267
 30
0.0
 11
-133.7122951492839
 21
-5.023908857024136
 31
0.0
  0
LINE
  5
B4
330
1F
100
AcDbEntity
  8
通り芯
  6
Continuous
 62
     3
370
     9
100
AcDbLine
 10
46.52353550384403
 20
-5.735498419871057
 30
0.0
 11
47.31113433837892
 21
-12.82395792080614
 31
0.0
  0
LINE
  5
B5
330
1F
100
AcDbEntity
  8
通り芯
  6
Continuous
 62
     3
370
     9
100
AcDbLine
 10
47.71623716022977
 20
-5.602937130205291
 30
0.0
 11
48.5185339202292
 21
-12.82395792080614
 31
0.0
  0
LINE
  5
B6
330
1F
100
AcDbEntity
  8
通り芯
  6
Continuous
 62
     3
370
     9
100
AcDbLine
 10
32.40953762098628
 20
-9.354967550692692
 30
0.0
 11
45.73929619512963
 21
-5.023908857024178
 31
0.0
  0
LINE
  5
B7
330
1F
100
AcDbEntity
  8
通り芯
  6
Continuous
 62
     3
370
     9
100
AcDbLine
 10
-9.867960130846129
 20
-41.82380474377308
 30
0.0
 11
-9.12309026534028
 21
-28.47780846149752
 31
0.0
  0
LINE
  5
B8
330
1F
100
AcDbEntity
  8
通り芯
  6
Continuous
 62
     3
370
     9
100
AcDbLine
 10
-7.925734265890796
 20
-28.55633737755082
 30
0.0
 11
-8.665809808090373
 21
-41.82380474377308
 31
0.0
  0
LINE
  5
B9
330
1F
100
AcDbEntity
  8
通り芯
  6
Continuous
 62
     3
370
     9
100
AcDbLine
 10
-78.10505632083846
 20
-41.82380474377305
 30
0.0
 11
-78.8499261863443
 21
-28.4778084614975
 31
0.0
  0
LINE
  5
BA
330
1F
100
AcDbEntity
  8
通り芯
  6
Continuous
 62
     3
370
     9
100
AcDbLine
 10
-80.04661727964182
 20
-28.5681657080437
 30
0.0
 11
-79.30720664359426
 21
-41.82380474377305
 31
0.0
  0
LINE
  5
BB
330
1F
100
AcDbEntity
  8
通り芯
  6
Continuous
 62
     3
370
     9
100
AcDbLine
 10
-116.4915757639527
 20
-16.82368338043149
 30
0.0
 11
-102.0476794445376
 21
-16.82368338043149
 31
0.0
  0
LINE
  5
BC
330
1F
100
AcDbEntity
  8
通り芯
  6
Continuous
 62
     3
370
     9
100
AcDbLine
 10
-118.4915784740079
 20
-14.82368067037629
 30
0.0
 11
-118.4915784740079
 21
-10.30606330849009
 31
0.0
  0
LINE
  5
BD
330
1F
100
AcDbEntity
  8
通り芯
  6
JWW_DASHED1
 62
     3
370
     9
100
AcDbLine
 10
-116.4915757639527
 20
-26.42373838276917
 30
0.0
 11
-93.42538643619726
 21
-26.42373838276917
 31
0.0
  0
LINE
  5
BE
330
1F
100
AcDbEntity
  8
通り芯
  6
JWW_DASHED1
 62
     3
370
     9
100
AcDbLine
 10
-118.4915784740079
 20
-24.42373567271398
 30
0.0
 11
-118.4915784740079
 21
-15.82373451799482
 31
0.0
  0
LINE
  5
BF
330
1F
100
AcDbEntity
  8
通り芯
  6
Continuous
 62
     3
370
     9
100
AcDbLine
 10
28.51857680979846
 20
-27.62371901176593
 30
0.0
 11
-6.9865018336469
 21
-27.62371901176593
 31
0.0
  0
LINE
  5
C0
330
1F
100
AcDbEntity
  8
通り芯
  6
Continuous
 62
     3
370
     9
100
AcDbLine
 10
28.51857680979846
 20
-26.42373838276919
 30
0.0
 11
-93.42538643619726
 21
-26.42373838276917
 31
0.0
  0
LINE
  5
C1
330
1F
100
AcDbEntity
  8
通り芯
  6
JWW_PHANTOM1
 62
     3
370
     9
100
AcDbLine
 10
14.07464549532269
 20
-16.82368338043151
 30
0.0
 11
28.51857680979846
 21
-16.82368338043151
 31
0.0
  0
LINE
  5
C2
330
1F
100
AcDbEntity
  8
通り芯
  6
JWW_PHANTOM1
 62
     3
370
     9
100
AcDbLine
 10
12.41853924607678
 20
-17.70237435778582
 30
0.0
 11
7.108458736228231
 21
-25.54504740541492
 31
0.0
  0
LINE
  5
C3
330
1F
100
AcDbEntity
  8
通り芯
  6
JWW_PHANTOM1
 62
     3
370
     9
100
AcDbLine
 10
14.18068052903108
 20
-18.023873979792
 30
0.0
 11
28.51857680979846
 21
-18.023873979792
 31
0.0
  0
LINE
  5
C4
330
1F
100
AcDbEntity
  8
通り芯
  6
JWW_PHANTOM1
 62
     3
370
     9
100
AcDbLine
 10
13.35262740440812
 20
-18.46323696599947
 30
0.0
 11
7.962688166202289
 21
-26.42373838276919
 31
0.0
  0
LINE
  5
C5
330
1F
100
AcDbEntity
  8
通り芯
  6
Continuous
 62
     3
370
     9
100
AcDbLine
 10
-100.3915731952917
 20
-17.7023743577858
 30
0.0
 11
-95.08149268544315
 21
-25.5450474054149
 31
0.0
  0
LINE
  5
C6
330
1F
100
AcDbEntity
  8
通り芯
  6
Continuous
 62
     3
370
     9
100
AcDbLine
 10
-81.04500886188046
 20
-27.62385899200843
 30
0.0
 11
-116.4915757639527
 21
-27.62385899200843
 31
0.0
  0
LINE
  5
C7
330
1F
100
AcDbEntity
  8
通り芯
  6
Continuous
 62
     3
370
     9
100
AcDbLine
 10
-101.3256263585624
 20
-18.46323696599945
 30
0.0
 11
-96.07514243696644
 21
-26.21782744602332
 31
0.0
  0
LINE
  5
C8
330
1F
100
AcDbEntity
  8
通り芯
  6
Continuous
 62
     3
370
     9
100
AcDbLine
 10
-56.39154856913795
 20
-25.54508240047552
 30
0.0
 11
-51.08145056175906
 21
-17.70240935284643
 31
0.0
  0
LINE
  5
C9
330
1F
100
AcDbEntity
  8
通り芯
  6
Continuous
 62
     3
370
     9
100
AcDbLine
 10
-31.58145038501634
 20
-25.54508240047552
 30
0.0
 11
-36.89154839239522
 21
-17.70240935284643
 31
0.0
  0
LINE
  5
CA
330
1F
100
AcDbEntity
  8
通り芯
  6
Continuous
 62
     3
370
     9
100
AcDbLine
 10
-49.42534431251316
 20
-16.82375337055273
 30
0.0
 11
-38.54765464164112
 21
-16.82375337055273
 31
0.0
  0
LINE
  5
CB
330
1F
100
AcDbEntity
  8
通り芯
  6
Continuous
 62
     3
370
     9
100
AcDbLine
 10
48.5185339202292
 20
-12.82395792080614
 30
0.0
 11
31.71852515378977
 21
-12.82395792080613
 31
0.0
  0
LINE
  5
CC
330
1F
100
AcDbEntity
  8
通り芯
  6
JWW_CENTER1
 62
     3
370
     9
100
AcDbLine
 10
-43.98649947707713
 20
64.09805493852363
 30
0.0
 11
-43.98649947707716
 21
-111.7563941237502
 31
0.0
  0
ARC
  5
CD
330
1F
100
AcDbEntity
  8
0-B
  6
Continuous
 62
     4
370
     9
100
AcDbCircle
 10
-100.9865067235291
 20
-29.8236135081387
 30
0.0
 40
0.9999999880330441
100
AcDbArc
 50
90.0
 51
180.0
  0
ARC
  5
CE
330
1F
100
AcDbEntity
  8
0-B
  6
Continuous
 62
     4
370
     9
100
AcDbCircle
 10
-100.9865067235291
 20
-29.8236135081387
 30
0.0
 40
2.20000002835248
100
AcDbArc
 50
90.0
 51
180.0
  0
ARC
  5
CF
330
1F
100
AcDbEntity
  8
0-B
  6
Continuous
 62
     4
370
     9
100
AcDbCircle
 10
13.01352526690513
 20
-29.82361350813872
 30
0.0
 40
0.9999999880330441
100
AcDbArc
 50
0.0
 51
90.0
  0
ARC
  5
D0
330
1F
100
AcDbEntity
  8
0-B
  6
Continuous
 62
     4
370
     9
100
AcDbCircle
 10
13.01352526690513
 20
-29.82361350813872
 30
0.0
 40
2.20000002835248
100
AcDbArc
 50
0.0
 51
90.0
  0
ARC
  5
D1
330
1F
100
AcDbEntity
  8
0-B
  6
Continuous
 62
     4
370
     9
100
AcDbCircle
 10
-3.62429889104537
 20
-30.823597365636
 30
0.0
 40
1.999999976066088
100
AcDbArc
 50
90.0
 51
175.9141845703125
  0
ARC
  5
D2
330
1F
100
AcDbEntity
  8
0-B
  6
Continuous
 62
     4
370
     9
100
AcDbCircle
 10
-84.34873505816952
 20
-30.82359736563598
 30
0.0
 40
1.999999976066088
100
AcDbArc
 50
4.085800170898451
 51
90.00000000000001
  0
ARC
  5
D3
330
1F
100
AcDbEntity
  8
0-B
  6
Continuous
 62
     4
370
     9
100
AcDbCircle
 10
-84.34873505816952
 20
-30.82359736563598
 30
0.0
 40
3.200000016385523
100
AcDbArc
 50
4.085800170898451
 51
90.00000000000001
  0
ARC
  5
D4
330
1F
100
AcDbEntity
  8
0-B
  6
Continuous
 62
     4
370
     9
100
AcDbCircle
 10
-3.62429889104537
 20
-30.823597365636
 30
0.0
 40
3.200000016385523
100
AcDbArc
 50
90.0
 51
175.9141845703125
  0
ARC
  5
D5
330
1F
100
AcDbEntity
  8
通り芯
  6
Continuous
 62
     3
370
     9
100
AcDbCircle
 10
32.71854400634767
 20
-10.30606330849011
 30
0.0
 40
0.9999999880330441
100
AcDbArc
 50
108.0005187988282
 51
180.0
  0
ARC
  5
D6
330
1F
100
AcDbEntity
  8
通り芯
  6
Continuous
 62
     3
370
     9
100
AcDbCircle
 10
32.71854400634767
 20
-10.30606330849011
 30
0.0
 40
2.20000002835248
100
AcDbArc
 50
108.0005187988282
 51
180.0
  0
ARC
  5
D7
330
1F
100
AcDbEntity
  8
通り芯
  6
Continuous
 62
     3
370
     9
100
AcDbCircle
 10
-120.6915779555626
 20
-10.30606330849009
 30
0.0
 40
0.9999999880330441
100
AcDbArc
 50
0.0
 51
72.00015258789062
  0
ARC
  5
D8
330
1F
100
AcDbEntity
  8
通り芯
  6
Continuous
 62
     3
370
     9
100
AcDbCircle
 10
-120.6915779555626
 20
-10.30606330849009
 30
0.0
 40
2.20000002835248
100
AcDbArc
 50
0.0
 51
72.00015258789062
  0
ARC
  5
D9
330
1F
100
AcDbEntity
  8
通り芯
  6
Continuous
 62
     3
370
     9
100
AcDbCircle
 10
-6.927990092273818
 20
-28.62380785444512
 30
0.0
 40
0.9999999880330441
100
AcDbArc
 50
90.0
 51
176.1976623535157
  0
ARC
  5
DA
330
1F
100
AcDbEntity
  8
通り芯
  6
Continuous
 62
     3
370
     9
100
AcDbCircle
 10
-81.04500886188046
 20
-28.6238078544451
 30
0.0
 40
0.9999999880330441
100
AcDbArc
 50
3.802398681640624
 51
90.00000000000001
  0
ARC
  5
DB
330
1F
100
AcDbEntity
  8
通り芯
  6
Continuous
 62
     3
370
     9
100
AcDbCircle
 10
-81.04500886188046
 20
-28.6238078544451
 30
0.0
 40
2.20000002835248
100
AcDbArc
 50
3.802398681640624
 51
90.00000000000001
  0
ARC
  5
DC
330
1F
100
AcDbEntity
  8
通り芯
  6
Continuous
 62
     3
370
     9
100
AcDbCircle
 10
-6.927990092273818
 20
-28.62380785444512
 30
0.0
 40
2.20000002835248
100
AcDbArc
 50
90.0
 51
176.1976623535157
  0
ARC
  5
DD
330
1F
100
AcDbEntity
  8
通り芯
  6
Continuous
 62
     3
370
     9
100
AcDbCircle
 10
-133.7014816755493
 20
-5.823825952900673
 30
0.0
 40
1.999999976066088
100
AcDbArc
 50
90.0
 51
173.6600799560547
  0
ARC
  5
DE
330
1F
100
AcDbEntity
  8
通り芯
  6
Continuous
 62
     3
370
     9
100
AcDbCircle
 10
-133.7014816755493
 20
-5.823825952900673
 30
0.0
 40
0.7999999357466532
100
AcDbArc
 50
90.7744903564453
 51
173.6600799560547
  0
ARC
  5
DF
330
1F
100
AcDbEntity
  8
通り芯
  6
Continuous
 62
     3
370
     9
100
AcDbCircle
 10
45.72844772633439
 20
-5.823825952900716
 30
0.0
 40
1.999999976066088
100
AcDbArc
 50
6.339920043945305
 51
89.99999999999999
  0
ARC
  5
E0
330
1F
100
AcDbEntity
  8
通り芯
  6
Continuous
 62
     3
370
     9
100
AcDbCircle
 10
45.72844772633439
 20
-5.823825952900716
 30
0.0
 40
0.7999999357466532
100
AcDbArc
 50
6.339920043945305
 51
89.22300720214844
  0
ARC
  5
E1
330
1F
100
AcDbEntity
  8
通り芯
  6
Continuous
 62
     3
370
     9
100
AcDbCircle
 10
-116.4915757639527
 20
-14.82368067037629
 30
0.0
 40
1.999999976066088
100
AcDbArc
 50
180.0
 51
270.0
  0
ARC
  5
E2
330
1F
100
AcDbEntity
  8
通り芯
  6
JWW_DASHED1
 62
     3
370
     9
100
AcDbCircle
 10
-116.4915757639527
 20
-24.42373567271398
 30
0.0
 40
1.999999976066088
100
AcDbArc
 50
180.0
 51
270.0
  0
ARC
  5
E3
330
1F
100
AcDbEntity
  8
通り芯
  6
Continuous
 62
     3
370
     9
100
AcDbCircle
 10
-116.4915757639527
 20
-14.82368067037629
 30
0.0
 40
3.200000016385523
100
AcDbArc
 50
180.0
 51
270.0
  0
ARC
  5
E4
330
1F
100
AcDbEntity
  8
通り芯
  6
Continuous
 62
     3
370
     9
100
AcDbCircle
 10
-116.4915757639527
 20
-24.42373567271398
 30
0.0
 40
3.200000016385523
100
AcDbArc
 50
180.0
 51
270.0
  0
ARC
  5
E5
330
1F
100
AcDbEntity
  8
通り芯
  6
JWW_PHANTOM1
 62
     3
370
     9
100
AcDbCircle
 10
28.51857680979846
 20
-14.82368067037632
 30
0.0
 40
1.999999976066088
100
AcDbArc
 50
270.0
 51
0.0
  0
ARC
  5
E6
330
1F
100
AcDbEntity
  8
通り芯
  6
Continuous
 62
     3
370
     9
100
AcDbCircle
 10
28.51857680979846
 20
-24.42373567271401
 30
0.0
 40
1.999999976066088
100
AcDbArc
 50
270.0
 51
0.0
  0
ARC
  5
E7
330
1F
100
AcDbEntity
  8
通り芯
  6
Continuous
 62
     3
370
     9
100
AcDbCircle
 10
28.51857680979846
 20
-24.42373567271401
 30
0.0
 40
3.200000016385523
100
AcDbArc
 50
270.0
 51
0.0
  0
ARC
  5
E8
330
1F
100
AcDbEntity
  8
通り芯
  6
JWW_PHANTOM1
 62
     3
370
     9
100
AcDbCircle
 10
28.51857680979846
 20
-14.82368067037632
 30
0.0
 40
3.200000016385523
100
AcDbArc
 50
270.0
 51
0.0
  0
ARC
  5
E9
330
1F
100
AcDbEntity
  8
通り芯
  6
JWW_PHANTOM1
 62
     3
370
     9
100
AcDbCircle
 10
5.452369984512655
 20
-24.42373567271401
 30
0.0
 40
1.999999976066088
100
AcDbArc
 50
270.0
 51
325.8989715576172
  0
ARC
  5
EA
330
1F
100
AcDbEntity
  8
通り芯
  6
JWW_PHANTOM1
 62
     3
370
     9
100
AcDbCircle
 10
14.07464549532269
 20
-18.82365109542607
 30
0.0
 40
1.999999976066088
100
AcDbArc
 50
90.0
 51
145.8989715576172
  0
ARC
  5
EB
330
1F
100
AcDbEntity
  8
通り芯
  6
JWW_PHANTOM1
 62
     3
370
     9
100
AcDbCircle
 10
14.18068052903108
 20
-19.02382284222867
 30
0.0
 40
0.9999999880330441
100
AcDbArc
 50
90.0
 51
145.900634765625
  0
ARC
  5
EC
330
1F
100
AcDbEntity
  8
通り芯
  6
Continuous
 62
     3
370
     9
100
AcDbCircle
 10
-93.42538643619726
 20
-24.42373567271398
 30
0.0
 40
1.999999976066088
100
AcDbArc
 50
214.1010284423828
 51
270.0000000000001
  0
ARC
  5
ED
330
1F
100
AcDbEntity
  8
通り芯
  6
Continuous
 62
     3
370
     9
100
AcDbCircle
 10
-102.0476794445376
 20
-18.82365109542605
 30
0.0
 40
1.999999976066088
100
AcDbArc
 50
34.10102844238283
 51
90.00000000000001
  0
ARC
  5
EE
330
1F
100
AcDbEntity
  8
通り芯
  6
Continuous
 62
     3
370
     9
100
AcDbCircle
 10
-102.1536794831854
 20
-19.02382284222865
 30
0.0
 40
0.9999999880330441
100
AcDbArc
 50
34.099365234375
 51
90.0
  0
ARC
  5
EF
330
1F
100
AcDbEntity
  8
通り芯
  6
Continuous
 62
     3
370
     9
100
AcDbCircle
 10
-93.42538643619726
 20
-24.42373567271398
 30
0.0
 40
3.200000016385523
100
AcDbArc
 50
214.1010742187501
 51
270.0000000000001
  0
ARC
  5
F0
330
1F
100
AcDbEntity
  8
通り芯
  6
Continuous
 62
     3
370
     9
100
AcDbCircle
 10
-49.42534431251316
 20
-18.82379107566858
 30
0.0
 40
1.999999976066088
100
AcDbArc
 50
90.0
 51
145.8987579345703
  0
ARC
  5
F1
330
1F
100
AcDbEntity
  8
通り芯
  6
Continuous
 62
     3
370
     9
100
AcDbCircle
 10
-58.04765481838385
 20
-24.4237706677746
 30
0.0
 40
1.999999976066088
100
AcDbArc
 50
270.0
 51
325.8987579345704
  0
ARC
  5
F2
330
1F
100
AcDbEntity
  8
通り芯
  6
Continuous
 62
     3
370
     9
100
AcDbCircle
 10
-38.54765464164112
 20
-18.82379107566858
 30
0.0
 40
1.999999976066088
100
AcDbArc
 50
34.1012420654297
 51
90.00000000000001
  0
ARC
  5
F3
330
1F
100
AcDbEntity
  8
通り芯
  6
Continuous
 62
     3
370
     9
100
AcDbCircle
 10
-29.92534413577043
 20
-24.4237706677746
 30
0.0
 40
1.999999976066088
100
AcDbArc
 50
214.1012420654297
 51
270.0
  0
LINE
  5
F4
330
1F
100
AcDbEntity
  8
その他
  6
Continuous
 62
     7
370
     9
100
AcDbLine
 10
104.5051946609143
 20
-103.8237487752417
 30
0.0
 11
104.5051946609143
 21
53.17630648631861
 31
0.0
  0
LINE
  5
F5
330
1F
100
AcDbEntity
  8
その他
  6
Continuous
 62
     7
370
     9
100
AcDbLine
 10
104.5051946609143
 20
-103.8237487752417
 30
0.0
 11
103.5262482192639
 21
-96.38791231493815
 31
0.0
  0
LINE
  5
F6
330
1F
100
AcDbEntity
  8
その他
  6
Continuous
 62
     7
370
     9
100
AcDbLine
 10
104.5051946609143
 20
-103.8237487752417
 30
0.0
 11
105.4841411025645
 21
-96.38791231493815
 31
0.0
  0
LINE
  5
F7
330
1F
100
AcDbEntity
  8
その他
  6
Continuous
 62
     7
370
     9
100
AcDbLine
 10
105.4841411025645
 20
3.612153197700567
 30
0.0
 11
103.5262482192639
 21
-11.25951972290658
 31
0.0
  0
LINE
  5
F8
330
1F
100
AcDbEntity
  8
その他
  6
Continuous
 62
     7
370
     9
100
AcDbLine
 10
103.5262482192639
 20
3.612153197700567
 30
0.0
 11
105.4841411025645
 21
-11.25951972290658
 31
0.0
  0
LINE
  5
F9
330
1F
100
AcDbEntity
  8
その他
  6
Continuous
 62
     7
370
     9
100
AcDbLine
 10
28.64438106185796
 20
-103.8237487752417
 30
0.0
 11
105.4051946609141
 21
-103.8237487752417
 31
0.0
  0
LINE
  5
FA
330
1F
100
AcDbEntity
  8
その他
  6
Continuous
 62
     7
370
     9
100
AcDbLine
 10
52.51013251345142
 20
-3.823683262603004
 30
0.0
 11
105.4051946609141
 21
-3.823683262603004
 31
0.0
  0
LINE
  5
FB
330
1F
100
AcDbEntity
  8
その他
  6
Continuous
 62
     7
370
     9
100
AcDbLine
 10
104.5051946609143
 20
53.17630648631861
 30
0.0
 11
103.5262482192639
 21
45.74047002601505
 31
0.0
  0
LINE
  5
FC
330
1F
100
AcDbEntity
  8
その他
  6
Continuous
 62
     7
370
     9
100
AcDbLine
 10
104.5051946609143
 20
53.17630648631861
 30
0.0
 11
105.4841411025645
 21
45.74047002601505
 31
0.0
  0
LINE
  5
FD
330
1F
100
AcDbEntity
  8
その他
  6
Continuous
 62
     7
370
     9
100
AcDbLine
 10
10.8385349797895
 20
53.17630648631864
 30
0.0
 11
105.4051946609141
 21
53.17630648631861
 31
0.0
  0
TEXT
  5
FE
330
1F
100
AcDbEntity
  8
その他
  6
Continuous
 62
     2
370
   211
100
AcDbText
 10
99.81319466091426
 20
18.30131161185781
 30
0.0
 40
9.144
  1
57
 50
90.0
 41
1.0625
  7
ＭＳ ゴシック
100
AcDbText
  0
LINE
  5
FF
330
1F
100
AcDbEntity
  8
寸法
  6
Continuous
 62
     7
370
     9
100
AcDbLine
 10
-100.9864892259988
 20
-103.8237487752416
 30
0.0
 11
-129.8270448482037
 21
-153.7770564314164
 31
0.0
  0
LINE
  5
100
330
1F
100
AcDbEntity
  8
寸法
  6
Continuous
 62
     7
370
     9
100
AcDbLine
 10
-100.9864892259988
 20
-103.8237487752416
 30
0.0
 11
-105.5521999435644
 21
-109.7738988274259
 31
0.0
  0
LINE
  5
101
330
1F
100
AcDbEntity
  8
寸法
  6
Continuous
 62
     7
370
     9
100
AcDbLine
 10
-100.9864892259988
 20
-103.8237487752416
 30
0.0
 11
-103.856614968737
 21
-110.7528452690763
 31
0.0
  0
LINE
  5
102
330
1F
100
AcDbEntity
  8
寸法
  6
Continuous
 62
     7
370
     9
100
AcDbLine
 10
77.48111907095418
 20
-132.1797126535171
 30
0.0
 11
193.9791774931457
 21
-132.1797126535171
 31
0.0
  0
TEXT
  5
103
330
1F
100
AcDbEntity
  8
寸法
  6
Continuous
 62
     7
370
     0
100
AcDbText
 10
79.97917749314573
 20
-126.1962417128498
 30
0.0
 40
6.858000000000001
  1
アンカー：ＳＵＳ３０４
 41
1.151515151515151
  7
ＭＳ ゴシック
100
AcDbText
  0
LINE
  5
104
330
1F
100
AcDbEntity
  8
寸法
  6
Continuous
 62
     7
370
     9
100
AcDbLine
 10
35.01352008245166
 20
-58.62367352996995
 30
0.0
 11
77.48111907095418
 21
-132.1797126535171
 31
0.0
  0
LINE
  5
105
330
1F
100
AcDbEntity
  8
寸法
  6
Continuous
 62
     7
370
     9
100
AcDbLine
 10
35.01352008245166
 20
-58.62367352996995
 30
0.0
 11
39.57923080001709
 21
-64.5738235821542
 31
0.0
  0
LINE
  5
106
330
1F
100
AcDbEntity
  8
寸法
  6
Continuous
 62
     7
370
     9
100
AcDbLine
 10
35.01352008245166
 20
-58.62367352996995
 30
0.0
 11
37.88364582518986
 21
-65.5527700238046
 31
0.0
  0
TEXT
  5
107
330
1F
100
AcDbEntity
  8
その他
  6
Continuous
 62
     2
370
   211
100
AcDbText
 10
-57.11150822584219
 20
99.19560085494854
 30
0.0
 40
9.144
  1
φ93
 41
1.09375
  7
ＭＳ ゴシック
100
AcDbText
  0
LINE
  5
108
330
1F
100
AcDbEntity
  8
その他
  6
Continuous
 62
     7
370
     9
100
AcDbLine
 10
-90.48650124450444
 20
95.70360085494852
 30
0.0
 11
-83.05066478420082
 21
94.72465441329813
 31
0.0
  0
LINE
  5
109
330
1F
100
AcDbEntity
  8
その他
  6
Continuous
 62
     7
370
     9
100
AcDbLine
 10
-90.48650124450444
 20
95.70360085494852
 30
0.0
 11
-83.05066478420082
 21
96.68254729659891
 31
0.0
  0
LINE
  5
10A
330
1F
100
AcDbEntity
  8
その他
  6
Continuous
 62
     7
370
     9
100
AcDbLine
 10
-90.48650124450444
 20
96.6036008549485
 30
0.0
 11
-90.48650124450444
 21
59.19159673558768
 31
0.0
  0
LINE
  5
10B
330
1F
100
AcDbEntity
  8
その他
  6
Continuous
 62
     7
370
     9
100
AcDbLine
 10
2.513502290350146
 20
95.70360085494852
 30
0.0
 11
-4.922334169953473
 21
94.72465441329813
 31
0.0
  0
LINE
  5
10C
330
1F
100
AcDbEntity
  8
その他
  6
Continuous
 62
     7
370
     9
100
AcDbLine
 10
2.513502290350146
 20
95.70360085494852
 30
0.0
 11
-4.922334169953473
 21
96.68254729659891
 31
0.0
  0
LINE
  5
10D
330
1F
100
AcDbEntity
  8
その他
  6
Continuous
 62
     7
370
     9
100
AcDbLine
 10
2.513502290350146
 20
96.6036008549485
 30
0.0
 11
2.513502290350146
 21
59.19159673558764
 31
0.0
  0
LINE
  5
10E
330
1F
100
AcDbEntity
  8
その他
  6
Continuous
 62
     7
370
     9
100
AcDbLine
 10
-90.48650124450444
 20
95.70360085494852
 30
0.0
 11
2.513502290350146
 21
95.70360085494852
 31
0.0
  0
LINE
  5
10F
330
1F
100
AcDbEntity
  8
その他
  6
Continuous
 62
     7
370
     9
100
AcDbLine
 10
-112.5896614987877
 20
120.7036008549485
 30
0.0
 11
-105.1538250384842
 21
119.7246544132981
 31
0.0
  0
LINE
  5
110
330
1F
100
AcDbEntity
  8
その他
  6
Continuous
 62
     7
370
     9
100
AcDbLine
 10
-112.5896614987877
 20
120.7036008549485
 30
0.0
 11
-105.1538250384842
 21
121.6825472965989
 31
0.0
  0
LINE
  5
111
330
1F
100
AcDbEntity
  8
その他
  6
Continuous
 62
     7
370
     9
100
AcDbLine
 10
24.61666254463343
 20
120.7036008549485
 30
0.0
 11
17.18082608432989
 21
119.7246544132981
 31
0.0
  0
LINE
  5
112
330
1F
100
AcDbEntity
  8
その他
  6
Continuous
 62
     7
370
     9
100
AcDbLine
 10
24.61666254463343
 20
120.7036008549485
 30
0.0
 11
17.18082608432989
 21
121.6825472965989
 31
0.0
  0
LINE
  5
113
330
1F
100
AcDbEntity
  8
その他
  6
Continuous
 62
     7
370
     9
100
AcDbLine
 10
-112.5896614987877
 20
120.7036008549485
 30
0.0
 11
24.61666254463343
 21
120.7036008549485
 31
0.0
  0
TEXT
  5
114
330
1F
100
AcDbEntity
  8
その他
  6
Continuous
 62
     2
370
   211
100
AcDbText
 10
-60.48650822584227
 20
124.1956008549485
 30
0.0
 40
9.144
  1
φ137
 41
1.1
  7
ＭＳ ゴシック
100
AcDbText
  0
LINE
  5
115
330
1F
100
AcDbEntity
  8
その他
  6
Continuous
 62
     7
370
     9
100
AcDbLine
 10
-136.4915678694441
 20
145.7036008549485
 30
0.0
 11
-129.0557314091406
 21
144.7246544132981
 31
0.0
  0
LINE
  5
116
330
1F
100
AcDbEntity
  8
その他
  6
Continuous
 62
     7
370
     9
100
AcDbLine
 10
-136.4915678694441
 20
145.7036008549485
 30
0.0
 11
-129.0557314091406
 21
146.6825472965989
 31
0.0
  0
LINE
  5
117
330
1F
100
AcDbEntity
  8
その他
  6
Continuous
 62
     7
370
     9
100
AcDbLine
 10
-136.4915678694441
 20
146.6036008549485
 30
0.0
 11
-136.4915678694441
 21
2.17621175221565
 31
0.0
  0
LINE
  5
118
330
1F
100
AcDbEntity
  8
その他
  6
Continuous
 62
     7
370
     9
100
AcDbLine
 10
48.5185339202292
 20
145.7036008549485
 30
0.0
 11
41.08269745992558
 21
144.7246544132981
 31
0.0
  0
LINE
  5
119
330
1F
100
AcDbEntity
  8
その他
  6
Continuous
 62
     7
370
     9
100
AcDbLine
 10
48.5185339202292
 20
145.7036008549485
 30
0.0
 11
41.08269745992558
 21
146.6825472965989
 31
0.0
  0
LINE
  5
11A
330
1F
100
AcDbEntity
  8
その他
  6
Continuous
 62
     7
370
     9
100
AcDbLine
 10
48.5185339202292
 20
146.6036008549485
 30
0.0
 11
48.5185339202292
 21
2.17621175221565
 31
0.0
  0
LINE
  5
11B
330
1F
100
AcDbEntity
  8
その他
  6
Continuous
 62
     7
370
     9
100
AcDbLine
 10
-136.4915678694441
 20
145.7036008549485
 30
0.0
 11
48.5185339202292
 21
145.7036008549485
 31
0.0
  0
TEXT
  5
11C
330
1F
100
AcDbEntity
  8
その他
  6
Continuous
 62
     2
370
   211
100
AcDbText
 10
-60.48653447213778
 20
149.1956008549485
 30
0.0
 40
9.144
  1
φ185
 41
1.1
  7
ＭＳ ゴシック
100
AcDbText
  0
LINE
  5
11D
330
1F
100
AcDbEntity
  8
その他
  6
Continuous
 62
     7
370
     9
100
AcDbLine
 10
-79.6864831107003
 20
-136.220394123536
 30
0.0
 11
-72.25064665039676
 21
-135.2414476818856
 31
0.0
  0
LINE
  5
11E
330
1F
100
AcDbEntity
  8
その他
  6
Continuous
 62
     7
370
     9
100
AcDbLine
 10
-79.6864831107003
 20
-136.220394123536
 30
0.0
 11
-72.25064665039676
 21
-137.1993405651864
 31
0.0
  0
LINE
  5
11F
330
1F
100
AcDbEntity
  8
その他
  6
Continuous
 62
     7
370
     9
100
AcDbLine
 10
-79.6864831107003
 20
-137.120394123536
 30
0.0
 11
-79.6864831107003
 21
-76.82375655192142
 31
0.0
  0
LINE
  5
120
330
1F
100
AcDbEntity
  8
その他
  6
Continuous
 62
     7
370
     9
100
AcDbLine
 10
-8.286480848393344
 20
-137.120394123536
 30
0.0
 11
-8.286480848393344
 21
-76.82375655192142
 31
0.0
  0
LINE
  5
121
330
1F
100
AcDbEntity
  8
その他
  6
Continuous
 62
     7
370
     9
100
AcDbLine
 10
-8.286480848393344
 20
-136.220394123536
 30
0.0
 11
-15.72231730869696
 21
-135.2414476818856
 31
0.0
  0
LINE
  5
122
330
1F
100
AcDbEntity
  8
その他
  6
Continuous
 62
     7
370
     9
100
AcDbLine
 10
-8.286480848393344
 20
-136.220394123536
 30
0.0
 11
-15.72231730869696
 21
-137.1993405651864
 31
0.0
  0
LINE
  5
123
330
1F
100
AcDbEntity
  8
その他
  6
Continuous
 62
     7
370
     9
100
AcDbLine
 10
-79.6864831107003
 20
-136.220394123536
 30
0.0
 11
-8.286480848393344
 21
-136.220394123536
 31
0.0
  0
LINE
  5
124
330
1F
100
AcDbEntity
  8
その他
  6
Continuous
 62
     7
370
     9
100
AcDbLine
 10
-82.4772354413029
 20
-161.220394123536
 30
0.0
 11
-75.04139898099936
 21
-160.2414476818856
 31
0.0
  0
LINE
  5
125
330
1F
100
AcDbEntity
  8
その他
  6
Continuous
 62
     7
370
     9
100
AcDbLine
 10
-82.4772354413029
 20
-161.220394123536
 30
0.0
 11
-75.04139898099936
 21
-162.1993405651864
 31
0.0
  0
LINE
  5
126
330
1F
100
AcDbEntity
  8
その他
  6
Continuous
 62
     7
370
     9
100
AcDbLine
 10
-82.4772354413029
 20
-162.120394123536
 30
0.0
 11
-82.4772354413029
 21
-44.91870841823058
 31
0.0
  0
LINE
  5
127
330
1F
100
AcDbEntity
  8
その他
  6
Continuous
 62
     7
370
     9
100
AcDbLine
 10
-5.495728517790766
 20
-161.220394123536
 30
0.0
 11
-12.93156497809439
 21
-160.2414476818856
 31
0.0
  0
LINE
  5
128
330
1F
100
AcDbEntity
  8
その他
  6
Continuous
 62
     7
370
     9
100
AcDbLine
 10
-5.495728517790766
 20
-161.220394123536
 30
0.0
 11
-12.93156497809439
 21
-162.1993405651864
 31
0.0
  0
LINE
  5
129
330
1F
100
AcDbEntity
  8
その他
  6
Continuous
 62
     7
370
     9
100
AcDbLine
 10
-5.495728517790766
 20
-162.120394123536
 30
0.0
 11
-5.495728517790766
 21
-44.91870841823058
 31
0.0
  0
LINE
  5
12A
330
1F
100
AcDbEntity
  8
その他
  6
Continuous
 62
     7
370
     9
100
AcDbLine
 10
-82.4772354413029
 20
-161.220394123536
 30
0.0
 11
-5.495728517790766
 21
-161.220394123536
 31
0.0
  0
LINE
  5
12B
330
1F
100
AcDbEntity
  8
0-B
  6
Continuous
 62
     4
370
     9
100
AcDbLine
 10
-5.619155194408551
 20
-30.68110037601284
 30
0.0
 11
-8.286480848393344
 21
-70.82368656180066
 31
0.0
  0
LINE
  5
12C
330
1F
100
AcDbEntity
  8
0-B
  6
Continuous
 62
     4
370
     9
100
AcDbLine
 10
-3.62429889104537
 20
-28.8235596605202
 30
0.0
 11
13.01352526690513
 21
-28.8235596605202
 31
0.0
  0
LINE
  5
12D
330
1F
100
AcDbEntity
  8
0-B
  6
Continuous
 62
     4
370
     9
100
AcDbLine
 10
-84.34873505816952
 20
-28.82355966052018
 30
0.0
 11
-100.9865067235291
 21
-28.82355966052018
 31
0.0
  0
LINE
  5
12E
330
1F
100
AcDbEntity
  8
0-B
  6
Continuous
 62
     4
370
     9
100
AcDbLine
 10
-82.35380903702763
 20
-30.6810962773257
 30
0.0
 11
-79.6864831107003
 21
-70.82368656180066
 31
0.0
  0
LINE
  5
12F
330
1F
100
AcDbEntity
  8
その他
  6
Continuous
 62
     7
370
     9
100
AcDbLine
 10
-100.9864892259988
 20
-186.220394123536
 30
0.0
 11
-93.55065276569525
 21
-185.2414476818856
 31
0.0
  0
LINE
  5
130
330
1F
100
AcDbEntity
  8
その他
  6
Continuous
 62
     7
370
     9
100
AcDbLine
 10
-100.9864892259988
 20
-186.220394123536
 30
0.0
 11
-93.55065276569525
 21
-187.1993405651864
 31
0.0
  0
LINE
  5
131
330
1F
100
AcDbEntity
  8
その他
  6
Continuous
 62
     7
370
     9
100
AcDbLine
 10
-100.9864892259988
 20
-187.120394123536
 30
0.0
 11
-100.9864892259988
 21
-109.8238187653625
 31
0.0
  0
LINE
  5
132
330
1F
100
AcDbEntity
  8
その他
  6
Continuous
 62
     7
370
     9
100
AcDbLine
 10
13.01349027184448
 20
-186.220394123536
 30
0.0
 11
5.577653811540864
 21
-185.2414476818856
 31
0.0
  0
LINE
  5
133
330
1F
100
AcDbEntity
  8
その他
  6
Continuous
 62
     7
370
     9
100
AcDbLine
 10
13.01349027184448
 20
-186.220394123536
 30
0.0
 11
5.577653811540864
 21
-187.1993405651864
 31
0.0
  0
LINE
  5
134
330
1F
100
AcDbEntity
  8
その他
  6
Continuous
 62
     7
370
     9
100
AcDbLine
 10
13.01349027184448
 20
-187.120394123536
 30
0.0
 11
13.01349027184448
 21
-109.8238187653625
 31
0.0
  0
LINE
  5
135
330
1F
100
AcDbEntity
  8
その他
  6
Continuous
 62
     7
370
     9
100
AcDbLine
 10
-100.9864892259988
 20
-186.220394123536
 30
0.0
 11
13.01349027184448
 21
-186.220394123536
 31
0.0
  0
TEXT
  5
136
330
1F
100
AcDbEntity
  8
その他
  6
Continuous
 62
     2
370
   211
100
AcDbText
 10
-57.11148197954682
 20
-132.728394123536
 30
0.0
 40
9.144
  1
φ72
 41
1.09375
  7
ＭＳ ゴシック
100
AcDbText
  0
TEXT
  5
137
330
1F
100
AcDbEntity
  8
その他
  6
Continuous
 62
     2
370
   211
100
AcDbText
 10
-57.11148197954683
 20
-157.728394123536
 30
0.0
 40
9.144
  1
φ77
 41
1.09375
  7
ＭＳ ゴシック
100
AcDbText
  0
TEXT
  5
138
330
1F
100
AcDbEntity
  8
その他
  6
Continuous
 62
     2
370
   211
100
AcDbText
 10
-60.48649947707715
 20
-182.728394123536
 30
0.0
 40
9.144
  1
φ114
 41
1.1
  7
ＭＳ ゴシック
100
AcDbText
  0
TEXT
  5
139
330
1F
100
AcDbEntity
  8
寸法
  6
Continuous
 62
     7
370
     0
100
AcDbText
 10
-253.9614899587165
 20
-46.78249717012455
 30
0.0
 40
6.858000000000001
  1
本体：ＳＵＳ３０４
 41
1.148148148148148
  7
ＭＳ ゴシック
100
AcDbText
  0
LINE
  5
13A
330
1F
100
AcDbEntity
  8
寸法
  6
Continuous
 62
     7
370
     9
100
AcDbLine
 10
-158.6793339165659
 20
-51.25408605050885
 30
0.0
 11
-253.9614899587165
 21
-51.25408605050885
 31
0.0
  0
LINE
  5
13B
330
1F
100
AcDbEntity
  8
寸法
  6
Continuous
 62
     7
370
     9
100
AcDbLine
 10
-136.4915678694441
 20
-12.82374795044264
 30
0.0
 11
-158.6793339165659
 21
-51.25408605050885
 31
0.0
  0
LINE
  5
13C
330
1F
100
AcDbEntity
  8
寸法
  6
Continuous
 62
     7
370
     9
100
AcDbLine
 10
-136.4915678694441
 20
-12.82374795044264
 30
0.0
 11
-141.0572785870097
 21
-18.77389800262691
 31
0.0
  0
LINE
  5
13D
330
1F
100
AcDbEntity
  8
寸法
  6
Continuous
 62
     7
370
     9
100
AcDbLine
 10
-136.4915678694441
 20
-12.82374795044264
 30
0.0
 11
-139.3616936121823
 21
-19.75284444427729
 31
0.0
  0
LINE
  5
13E
330
1F
100
AcDbEntity
  8
寸法
  6
Continuous
 62
     7
370
     9
100
AcDbLine
 10
-102.9512290171583
 20
33.19957783761324
 30
0.0
 11
-150.4460692630212
 21
115.463054240815
 31
0.0
  0
LINE
  5
13F
330
1F
100
AcDbEntity
  8
寸法
  6
Continuous
 62
     7
370
     9
100
AcDbLine
 10
-102.9512290171583
 20
33.19957783761324
 30
0.0
 11
-107.5169397347237
 21
39.1497278897975
 31
0.0
  0
LINE
  5
140
330
1F
100
AcDbEntity
  8
寸法
  6
Continuous
 62
     7
370
     9
100
AcDbLine
 10
-102.9512290171583
 20
33.19957783761324
 30
0.0
 11
-105.8213547598965
 21
40.12867433144789
 31
0.0
  0
TEXT
  5
141
330
1F
100
AcDbEntity
  8
寸法
  6
Continuous
 62
     7
370
     0
100
AcDbText
 10
72.33479226472278
 20
142.9557464432967
 30
0.0
 40
6.858000000000001
  1
ストレーナー：ＳＵＳ３０４
 41
1.153846153846156
  7
ＭＳ ゴシック
100
AcDbText
  0
LINE
  5
142
330
1F
100
AcDbEntity
  8
寸法
  6
Continuous
 62
     7
370
     9
100
AcDbLine
 10
70.34166325619762
 20
136.7706244191729
 30
0.0
 11
207.334792264723
 21
136.7706244191729
 31
0.0
  0
LINE
  5
143
330
1F
100
AcDbEntity
  8
寸法
  6
Continuous
 62
     7
370
     9
100
AcDbLine
 10
6.404292860997685
 20
26.02783465731074
 30
0.0
 11
70.34166325619762
 21
136.7706244191728
 31
0.0
  0
LINE
  5
144
330
1F
100
AcDbEntity
  8
寸法
  6
Continuous
 62
     7
370
     9
100
AcDbLine
 10
6.404292860997685
 20
26.02783465731074
 30
0.0
 11
9.274418177422177
 21
32.95693132773029
 31
0.0
  0
LINE
  5
145
330
1F
100
AcDbEntity
  8
寸法
  6
Continuous
 62
     7
370
     9
100
AcDbLine
 10
6.404292860997685
 20
26.02783465731074
 30
0.0
 11
10.97000321247924
 21
31.977984990401
 31
0.0
  0
LINE
  5
146
330
1F
100
AcDbEntity
  8
寸法
  6
Continuous
 62
     7
370
     9
100
AcDbLine
 10
-150.3545213407919
 20
115.463054240815
 30
0.0
 11
-264.4460692630213
 21
115.463054240815
 31
0.0
  0
TEXT
  5
147
330
1F
100
AcDbEntity
  8
寸法
  6
Continuous
 62
     7
370
     9
100
AcDbText
 10
-232.9002962254329
 20
104.7070356003417
 30
0.0
 40
6.858000000000001
  1
Ｍ６×１２
 50
0.00004169783039
 41
1.133333333333334
  7
ＭＳ ゴシック
100
AcDbText
  0
ARC
  5
148
330
1F
100
AcDbEntity
  8
通り芯
  6
Continuous
 62
     7
370
     9
100
AcDbCircle
 10
19.51350782828908
 20
261.0816158373651
 30
0.0
 40
5.000004123997044
100
AcDbArc
 50
90.0
 51
180.0
  0
ARC
  5
149
330
1F
100
AcDbEntity
  8
通り芯
  6
Continuous
 62
     7
370
     9
100
AcDbCircle
 10
19.51350782828908
 20
261.0816158373651
 30
0.0
 40
3.585786561708192
100
AcDbArc
 50
99.63252258300781
 51
180.0
  0
LINE
  5
14A
330
1F
100
AcDbEntity
  8
通り芯
  6
Continuous
 62
     7
370
     9
100
AcDbLine
 10
18.91350337437228
 20
261.0816158373651
 30
0.0
 11
18.91350337437228
 21
266.0454937472575
 31
0.0
  0
LINE
  5
14B
330
1F
100
AcDbEntity
  8
通り芯
  6
Continuous
 62
     7
370
     9
100
AcDbLine
 10
20.11351228220587
 20
261.0816158373651
 30
0.0
 11
20.11351228220587
 21
266.0454937472575
 31
0.0
  0
ARC
  5
14C
330
1F
100
AcDbEntity
  8
通り芯
  6
Continuous
 62
     7
370
     9
100
AcDbCircle
 10
19.51350782828908
 20
261.0816158373651
 30
0.0
 40
3.585786561708192
100
AcDbArc
 50
0.0
 51
80.36747741699224
  0
ARC
  5
14D
330
1F
100
AcDbEntity
  8
通り芯
  6
Continuous
 62
     7
370
     9
100
AcDbCircle
 10
19.51350782828908
 20
261.0816158373651
 30
0.0
 40
5.000004123997044
100
AcDbArc
 50
0.0
 51
90.0
  0
ARC
  5
14E
330
1F
100
AcDbEntity
  8
通り芯
  6
Continuous
 62
     7
370
     9
100
AcDbCircle
 10
-107.4865067824433
 20
261.0816158373651
 30
0.0
 40
5.000004123997044
100
AcDbArc
 50
90.0
 51
180.0
  0
ARC
  5
14F
330
1F
100
AcDbEntity
  8
通り芯
  6
Continuous
 62
     7
370
     9
100
AcDbCircle
 10
-107.4865067824433
 20
261.0816158373651
 30
0.0
 40
3.585786561708192
100
AcDbArc
 50
99.63252258300781
 51
180.0
  0
LINE
  5
150
330
1F
100
AcDbEntity
  8
通り芯
  6
Continuous
 62
     7
370
     9
100
AcDbLine
 10
-108.0865112363601
 20
261.0816158373651
 30
0.0
 11
-108.0865112363601
 21
266.0454937472575
 31
0.0
  0
LINE
  5
151
330
1F
100
AcDbEntity
  8
通り芯
  6
Continuous
 62
     7
370
     9
100
AcDbLine
 10
-106.8865023285265
 20
261.0816158373651
 30
0.0
 11
-106.8865023285265
 21
266.0454937472575
 31
0.0
  0
ARC
  5
152
330
1F
100
AcDbEntity
  8
通り芯
  6
Continuous
 62
     7
370
     9
100
AcDbCircle
 10
-107.4865067824433
 20
261.0816158373651
 30
0.0
 40
3.585786561708192
100
AcDbArc
 50
0.0
 51
80.36747741699224
  0
ARC
  5
153
330
1F
100
AcDbEntity
  8
通り芯
  6
Continuous
 62
     7
370
     9
100
AcDbCircle
 10
-107.4865067824433
 20
261.0816158373651
 30
0.0
 40
5.000004123997044
100
AcDbArc
 50
0.0
 51
5.740020302245739
  0
ARC
  5
154
330
1F
100
AcDbEntity
  8
通り芯
  6
Continuous
 62
     7
370
     9
100
AcDbCircle
 10
-107.4865067824433
 20
261.0816158373651
 30
0.0
 40
5.000004123997044
100
AcDbArc
 50
21.63746614102257
 51
89.99999999999999
  0
LINE
  5
155
330
1F
100
AcDbEntity
  8
通り芯
  6
Continuous
 62
     7
370
     9
100
AcDbLine
 10
20.11352465419697
 20
4.376219010449923
 30
0.0
 11
20.11352465419697
 21
2.376237156036893
 31
0.0
  0
LINE
  5
156
330
1F
100
AcDbEntity
  8
通り芯
  6
Continuous
 62
     7
370
     9
100
AcDbLine
 10
20.11352465419697
 20
2.376237156036893
 30
0.0
 11
18.91351574636337
 21
2.376237156036893
 31
0.0
  0
LINE
  5
157
330
1F
100
AcDbEntity
  8
通り芯
  6
Continuous
 62
     7
370
     9
100
AcDbLine
 10
23.09930676198837
 20
4.376219010449923
 30
0.0
 11
20.11352465419697
 21
4.376219010449923
 31
0.0
  0
LINE
  5
158
330
1F
100
AcDbEntity
  8
通り芯
  6
Continuous
 62
     7
370
     9
100
AcDbLine
 10
24.51352432427728
 20
2.962001448161054
 30
0.0
 11
23.09930676198837
 21
4.376219010449923
 31
0.0
  0
LINE
  5
159
330
1F
100
AcDbEntity
  8
通り芯
  6
Continuous
 62
     7
370
     9
100
AcDbLine
 10
24.15995756171392
 20
-15.623772741556
 30
0.0
 11
14.8670828388465
 21
-15.623772741556
 31
0.0
  0
LINE
  5
15A
330
1F
100
AcDbEntity
  8
通り芯
  6
Continuous
 62
     7
370
     9
100
AcDbLine
 10
24.51352432427728
 20
-15.27023072297492
 30
0.0
 11
24.51352432427728
 21
2.962001448161054
 31
0.0
  0
LINE
  5
15B
330
1F
100
AcDbEntity
  8
通り芯
  6
Continuous
 62
     7
370
     9
100
AcDbLine
 10
24.15995756171392
 20
-15.623772741556
 30
0.0
 11
24.51352432427728
 21
-15.27023072297492
 31
0.0
  0
LINE
  5
15C
330
1F
100
AcDbEntity
  8
通り芯
  6
Continuous
 62
     7
370
     9
100
AcDbLine
 10
18.91351574636337
 20
4.376219010449923
 30
0.0
 11
18.91351574636337
 21
2.376237156036893
 31
0.0
  0
LINE
  5
15D
330
1F
100
AcDbEntity
  8
通り芯
  6
Continuous
 62
     7
370
     9
100
AcDbLine
 10
15.92773363857197
 20
4.376219010449923
 30
0.0
 11
18.91351574636337
 21
4.376219010449923
 31
0.0
  0
LINE
  5
15E
330
1F
100
AcDbEntity
  8
通り芯
  6
Continuous
 62
     7
370
     9
100
AcDbLine
 10
14.51351607628314
 20
2.962001448161054
 30
0.0
 11
15.92773363857197
 21
4.376219010449923
 31
0.0
  0
LINE
  5
15F
330
1F
100
AcDbEntity
  8
通り芯
  6
Continuous
 62
     7
370
     9
100
AcDbLine
 10
14.51351607628314
 20
-15.27023072297492
 30
0.0
 11
14.51351607628314
 21
2.962001448161054
 31
0.0
  0
LINE
  5
160
330
1F
100
AcDbEntity
  8
通り芯
  6
Continuous
 62
     7
370
     9
100
AcDbLine
 10
14.8670828388465
 20
-15.623772741556
 30
0.0
 11
14.51351607628314
 21
-15.27023072297492
 31
0.0
  0
LINE
  5
161
330
1F
100
AcDbEntity
  8
寸法
  6
Continuous
 62
     7
370
     9
100
AcDbLine
 10
22.57112661806346
 20
4.376219010449923
 30
0.0
 11
27.13683696954502
 21
10.32636934354017
 31
0.0
  0
LINE
  5
162
330
1F
100
AcDbEntity
  8
寸法
  6
Continuous
 62
     7
370
     9
100
AcDbLine
 10
22.57112661806346
 20
4.376219010449923
 30
0.0
 11
25.44125193448795
 21
11.30531568086945
 31
0.0
  0
LINE
  5
163
330
1F
100
AcDbEntity
  8
通り芯
  6
JWW_CENTER1
 62
     3
370
     9
100
AcDbLine
 10
19.51350782828906
 20
6.825193141264428
 30
0.0
 11
19.51350782828906
 21
-19.60509079929008
 31
0.0
  0
LINE
  5
164
330
1F
100
AcDbEntity
  8
躯体
  6
Continuous
 62
     2
370
     9
100
AcDbLine
 10
30.51854452479303
 20
-3.823648267542382
 30
0.0
 11
24.51352432427728
 21
-3.823648267542382
 31
0.0
  0
LINE
  5
165
330
1F
100
AcDbEntity
  8
その他
  6
Continuous
 62
     7
370
     9
100
AcDbLine
 10
24.61666254463343
 20
121.6036008549485
 30
0.0
 11
24.61666254463343
 21
4.221268237693231
 31
0.0
  0
LINE
  5
166
330
1F
100
AcDbEntity
  8
通り芯
  6
Continuous
 62
     7
370
     9
100
AcDbLine
 10
-108.0865761009421
 20
4.376219010449944
 30
0.0
 11
-108.0865761009421
 21
2.376237156036915
 31
0.0
  0
LINE
  5
167
330
1F
100
AcDbEntity
  8
通り芯
  6
Continuous
 62
     7
370
     9
100
AcDbLine
 10
-108.0865761009421
 20
2.376237156036915
 30
0.0
 11
-106.8865671931085
 21
2.376237156036915
 31
0.0
  0
LINE
  5
168
330
1F
100
AcDbEntity
  8
通り芯
  6
Continuous
 62
     7
370
     9
100
AcDbLine
 10
-111.0723582087335
 20
4.376219010449944
 30
0.0
 11
-108.0865761009421
 21
4.376219010449944
 31
0.0
  0
LINE
  5
169
330
1F
100
AcDbEntity
  8
通り芯
  6
Continuous
 62
     7
370
     9
100
AcDbLine
 10
-112.4865757710224
 20
2.962001448161075
 30
0.0
 11
-111.0723582087335
 21
4.376219010449944
 31
0.0
  0
LINE
  5
16A
330
1F
100
AcDbEntity
  8
通り芯
  6
Continuous
 62
     7
370
     9
100
AcDbLine
 10
-112.1330090084591
 20
-15.62377274155597
 30
0.0
 11
-102.8401342855916
 21
-15.62377274155597
 31
0.0
  0
LINE
  5
16B
330
1F
100
AcDbEntity
  8
通り芯
  6
Continuous
 62
     7
370
     9
100
AcDbLine
 10
-112.1330090084591
 20
-15.62377274155597
 30
0.0
 11
-112.4865757710224
 21
-15.2702307229749
 31
0.0
  0
LINE
  5
16C
330
1F
100
AcDbEntity
  8
通り芯
  6
Continuous
 62
     7
370
     9
100
AcDbLine
 10
-106.8865671931085
 20
4.376219010449944
 30
0.0
 11
-106.8865671931085
 21
2.376237156036915
 31
0.0
  0
LINE
  5
16D
330
1F
100
AcDbEntity
  8
通り芯
  6
Continuous
 62
     7
370
     9
100
AcDbLine
 10
-103.9007850853171
 20
4.376219010449944
 30
0.0
 11
-106.8865671931085
 21
4.376219010449944
 31
0.0
  0
LINE
  5
16E
330
1F
100
AcDbEntity
  8
通り芯
  6
Continuous
 62
     7
370
     9
100
AcDbLine
 10
-102.4865675230283
 20
2.962001448161075
 30
0.0
 11
-103.9007850853171
 21
4.376219010449944
 31
0.0
  0
LINE
  5
16F
330
1F
100
AcDbEntity
  8
通り芯
  6
Continuous
 62
     7
370
     9
100
AcDbLine
 10
-102.4865675230283
 20
-15.2702307229749
 30
0.0
 11
-102.4865675230283
 21
2.962001448161075
 31
0.0
  0
LINE
  5
170
330
1F
100
AcDbEntity
  8
通り芯
  6
Continuous
 62
     7
370
     9
100
AcDbLine
 10
-102.8401342855916
 20
-15.62377274155597
 30
0.0
 11
-102.4865675230283
 21
-15.2702307229749
 31
0.0
  0
LINE
  5
171
330
1F
100
AcDbEntity
  8
通り芯
  6
JWW_CENTER1
 62
     3
370
     9
100
AcDbLine
 10
-107.4865242799737
 20
5.505794209012843
 30
0.0
 11
-107.4865242799737
 21
-19.60509079929006
 31
0.0
  0
LINE
  5
172
330
1F
100
AcDbEntity
  8
躯体
  6
Continuous
 62
     2
370
     9
100
AcDbLine
 10
-112.4865757710224
 20
-3.82364826754236
 30
0.0
 11
-118.4915434789473
 21
-3.82364826754236
 31
0.0
  0
LINE
  5
173
330
1F
100
AcDbEntity
  8
寸法
  6
Continuous
 62
     7
370
     9
100
AcDbLine
 10
22.57112661806346
 20
4.376219010449923
 30
0.0
 11
63.69556688333889
 21
75.60584910348767
 31
0.0
  0
LINE
  5
174
330
1F
100
AcDbEntity
  8
寸法
  6
Continuous
 62
     7
370
     9
100
AcDbLine
 10
-129.8270448482037
 20
-153.7770564314164
 30
0.0
 11
-233.5193316681015
 21
-153.7770564314164
 31
0.0
  0
TEXT
  5
175
330
1F
100
AcDbEntity
  8
寸法
  6
Continuous
 62
     7
370
     0
100
AcDbText
 10
-207.1731882581525
 20
-149.7114494206338
 30
0.0
 40
6.858000000000001
  1
スペーサー
 41
1.133333333333333
  7
ＭＳ ゴシック
100
AcDbText
  0
LINE
  5
176
330
1F
100
AcDbEntity
  8
その他
  6
Continuous
 62
     7
370
     9
100
AcDbLine
 10
-112.5896614987877
 20
121.6036008549485
 30
0.0
 11
-112.5896614987877
 21
6.403940886699509
 31
0.0
  0
LINE
  5
177
330
1F
100
AcDbEntity
  8
通り芯
  6
Continuous
 62
     7
370
     9
100
AcDbLine
 10
-112.4865757710224
 20
2.962001448161075
 30
0.0
 11
-108.0865761524921
 21
2.962001448161075
 31
0.0
  0
LINE
  5
178
330
1F
100
AcDbEntity
  8
通り芯
  6
Continuous
 62
     7
370
     9
100
AcDbLine
 10
-106.886567283321
 20
2.962001448161075
 30
0.0
 11
-102.4865671879536
 21
2.962001448161075
 31
0.0
  0
LINE
  5
179
330
1F
100
AcDbEntity
  8
通り芯
  6
Continuous
 62
     7
370
     9
100
AcDbLine
 10
-112.4865757710224
 20
-15.27023159932428
 30
0.0
 11
-102.4865671879536
 21
-15.27023159932428
 31
0.0
  0
LINE
  5
17A
330
1F
100
AcDbEntity
  8
通り芯
  6
Continuous
 62
     7
370
     9
100
AcDbLine
 10
14.51351607628314
 20
2.962001448161054
 30
0.0
 11
18.91351569481341
 21
2.962001448161054
 31
0.0
  0
LINE
  5
17B
330
1F
100
AcDbEntity
  8
通り芯
  6
Continuous
 62
     7
370
     9
100
AcDbLine
 10
20.11352456398456
 20
2.962001448161054
 30
0.0
 11
24.51352465935198
 21
2.962001448161054
 31
0.0
  0
LINE
  5
17C
330
1F
100
AcDbEntity
  8
通り芯
  6
Continuous
 62
     7
370
     9
100
AcDbLine
 10
14.51351607628314
 20
-15.2702315993243
 30
0.0
 11
24.51352465935198
 21
-15.2702315993243
 31
0.0
  0
LINE
  5
17D
330
1F
100
AcDbEntity
  8
通り芯
  6
Continuous
 62
     3
370
     9
100
AcDbLine
 10
-133.7014816755493
 20
-3.823788247784872
 30
0.0
 11
-118.4915434789473
 21
-3.823788247784884
 31
0.0
  0
LINE
  5
17E
330
1F
100
AcDbEntity
  8
躯体
  6
Continuous
 62
     2
370
     9
100
AcDbLine
 10
-96.90059792419274
 20
-3.82364826754236
 30
0.0
 11
-102.4865675230283
 21
-3.82364826754236
 31
0.0
  0
LINE
  5
17F
330
1F
100
AcDbEntity
  8
躯体
  6
Continuous
 62
     2
370
     9
100
AcDbLine
 10
-85.09166011631581
 20
-3.82364826754236
 30
0.0
 11
-90.5068769190315
 21
-3.82364826754236
 31
0.0
  0
LINE
  5
180
330
1F
100
AcDbEntity
  8
躯体
  6
Continuous
 62
     2
370
     9
100
AcDbLine
 10
-69.20902647105953
 20
-3.82364826754236
 30
0.0
 11
-77.3134673017966
 21
-3.82364826754236
 31
0.0
  0
LINE
  5
181
330
1F
100
AcDbEntity
  8
躯体
  6
Continuous
 62
     2
370
     9
100
AcDbLine
 10
-49.48651567849411
 20
-3.82364826754236
 30
0.0
 11
-59.04635393739252
 21
-3.82364826754236
 31
0.0
  0
LINE
  5
182
330
1F
100
AcDbEntity
  8
躯体
  6
Continuous
 62
     2
370
     9
100
AcDbLine
 10
-28.92664501676178
 20
-3.823648267542382
 30
0.0
 11
-38.48648327566019
 21
-3.823648267542382
 31
0.0
  0
LINE
  5
183
330
1F
100
AcDbEntity
  8
躯体
  6
Continuous
 62
     2
370
     9
100
AcDbLine
 10
-10.65953165235768
 20
-3.823648267542382
 30
0.0
 11
-18.76397248309473
 21
-3.823648267542382
 31
0.0
  0
LINE
  5
184
330
1F
100
AcDbEntity
  8
躯体
  6
Continuous
 62
     2
370
     9
100
AcDbLine
 10
14.51351607628314
 20
-3.823648267542382
 30
0.0
 11
8.936143800229477
 21
-3.823648267542382
 31
0.0
  0
LINE
  5
185
330
1F
100
AcDbEntity
  8
躯体
  6
Continuous
 62
     2
370
     9
100
AcDbLine
 10
2.533863359385899
 20
-3.823648267542382
 30
0.0
 11
-2.881338837838498
 21
-3.823648267542382
 31
0.0
  0
LINE
  5
186
330
1F
100
AcDbEntity
  8
通り芯
  6
Continuous
 62
     3
370
     9
100
AcDbLine
 10
30.51854452479303
 20
-3.823788247784903
 30
0.0
 11
45.72844772633439
 21
-3.823788247784915
 31
0.0
  0
LINE
  5
187
330
1F
100
AcDbEntity
  8
躯体
  6
Continuous
 62
     2
370
     9
100
AcDbLine
 10
29.318493905675
 20
-16.65674710233911
 30
0.0
 11
29.318493905675
 21
-3.823648267542382
 31
0.0
  0
LINE
  5
188
330
1F
100
AcDbEntity
  8
躯体
  6
Continuous
 62
     2
370
     9
100
AcDbLine
 10
-117.2915628499506
 20
-16.65671655832314
 30
0.0
 11
-117.2915628499506
 21
-3.82364826754236
 31
0.0
  0
LINE
  5
189
330
1F
100
AcDbEntity
  8
通り芯
  6
Continuous
 62
     3
370
     9
100
AcDbLine
 10
27.01347424717023
 20
-50.62362769468857
 30
0.0
 11
27.01347424717024
 21
-32.62360330419173
 31
0.0
  0
LINE
  5
18A
330
1F
100
AcDbEntity
  8
通り芯
  6
Continuous
 62
     3
370
     9
100
AcDbLine
 10
29.01351195228608
 20
-52.62363040474376
 30
0.0
 11
35.0135200824517
 21
-52.62363040474376
 31
0.0
  0
LINE
  5
18B
330
1F
100
AcDbEntity
  8
通り芯
  6
Continuous
 62
     3
370
     9
100
AcDbLine
 10
35.0135200824517
 20
-52.62363040474376
 30
0.0
 11
35.0135200824517
 21
-58.62356854478807
 31
0.0
  0
LINE
  5
18C
330
1F
100
AcDbEntity
  8
通り芯
  6
Continuous
 62
     3
370
     9
100
AcDbLine
 10
29.01351195228608
 20
-58.62356854478807
 30
0.0
 11
35.0135200824517
 21
-58.62356854478807
 31
0.0
  0
LINE
  5
18D
330
1F
100
AcDbEntity
  8
通り芯
  6
Continuous
 62
     3
370
     9
100
AcDbLine
 10
21.01350111206531
 20
-32.62360330419173
 30
0.0
 11
21.01350111206529
 21
-50.62362769468857
 31
0.0
  0
ARC
  5
18E
330
1F
100
AcDbEntity
  8
通り芯
  6
Continuous
 62
     3
370
     9
100
AcDbCircle
 10
29.01351195228608
 20
-50.62362769468857
 30
0.0
 40
1.999999976066088
100
AcDbArc
 50
180.0
 51
270.0
  0
ARC
  5
18F
330
1F
100
AcDbEntity
  8
通り芯
  6
Continuous
 62
     3
370
     9
100
AcDbCircle
 10
29.01351195228608
 20
-50.62362769468857
 30
0.0
 40
7.999999904264353
100
AcDbArc
 50
180.0
 51
270.0
  0
LINE
  5
190
330
1F
100
AcDbEntity
  8
通り芯
  6
JWW_CENTER1
 62
     3
370
     9
100
AcDbLine
 10
24.01352267467838
 20
-27.62357903152346
 30
0.0
 11
24.01352267467838
 21
-50.62362769468857
 31
0.0
  0
ARC
  5
191
330
1F
100
AcDbEntity
  8
通り芯
  6
JWW_CENTER1
 62
     3
370
     9
100
AcDbCircle
 10
29.01351195228608
 20
-50.62362769468857
 30
0.0
 40
5.000000213564133
100
AcDbArc
 50
180.0
 51
270.0
  0
LINE
  5
192
330
1F
100
AcDbEntity
  8
通り芯
  6
JWW_CENTER1
 62
     3
370
     9
100
AcDbLine
 10
36.18546966788393
 20
-55.62361697229622
 30
0.0
 11
29.01351195228608
 21
-55.62361697229622
 31
0.0
  0
LINE
  5
193
330
1F
100
AcDbEntity
  8
通り芯
  6
Continuous
 62
     2
370
     9
100
AcDbLine
 10
-104.4865027173605
 20
-15.62359776625283
 30
0.0
 11
-104.4865027173605
 21
-16.82357839524957
 31
0.0
  0
LINE
  5
194
330
1F
100
AcDbEntity
  8
通り芯
  6
Continuous
 62
     2
370
     9
100
AcDbLine
 10
-110.4864758524655
 20
-15.62359776625283
 30
0.0
 11
-110.4864758524655
 21
-16.82357839524957
 31
0.0
  0
LINE
  5
195
330
1F
100
AcDbEntity
  8
通り芯
  6
Continuous
 62
     2
370
     9
100
AcDbLine
 10
-109.9864664261865
 20
-15.62359776625283
 30
0.0
 11
-109.9864664261865
 21
-16.82357839524957
 31
0.0
  0
LINE
  5
196
330
1F
100
AcDbEntity
  8
通り芯
  6
Continuous
 62
     2
370
     9
100
AcDbLine
 10
-104.9864946461092
 20
-15.62359776625283
 30
0.0
 11
-104.9864946461092
 21
-16.82357839524957
 31
0.0
  0
LINE
  5
197
330
1F
100
AcDbEntity
  8
通り芯
  6
Continuous
 62
     2
370
     9
100
AcDbLine
 10
16.51352126073654
 20
-15.62359776625285
 30
0.0
 11
16.51352126073654
 21
-16.82357839524959
 31
0.0
  0
LINE
  5
198
330
1F
100
AcDbEntity
  8
通り芯
  6
Continuous
 62
     2
370
     9
100
AcDbLine
 10
22.51349439584153
 20
-15.62359776625285
 30
0.0
 11
22.51349439584153
 21
-16.82357839524959
 31
0.0
  0
LINE
  5
199
330
1F
100
AcDbEntity
  8
通り芯
  6
Continuous
 62
     2
370
     9
100
AcDbLine
 10
22.01348496956258
 20
-15.62359776625285
 30
0.0
 11
22.01348496956258
 21
-16.82357839524959
 31
0.0
  0
LINE
  5
19A
330
1F
100
AcDbEntity
  8
通り芯
  6
Continuous
 62
     2
370
     9
100
AcDbLine
 10
17.01349569195488
 20
-15.62359776625285
 30
0.0
 11
17.01349569195488
 21
-16.82357839524959
 31
0.0
  0
LINE
  5
19B
330
1F
100
AcDbEntity
  8
通り芯
  6
Continuous
 62
     2
370
     9
100
AcDbLine
 10
19.01349840201006
 20
-32.62360330419173
 30
0.0
 11
29.01347695722549
 21
-32.62360330419173
 31
0.0
  0
LINE
  5
19C
330
1F
100
AcDbEntity
  8
通り芯
  6
Continuous
 62
     2
370
     9
100
AcDbLine
 10
21.48841907987266
 20
-30.22763148311006
 30
0.0
 11
18.51348897573111
 21
-28.62363287914198
 31
0.0
  0
LINE
  5
19D
330
1F
100
AcDbEntity
  8
通り芯
  6
Continuous
 62
     2
370
     9
100
AcDbLine
 10
21.48841907987266
 20
-30.22763148311006
 30
0.0
 11
21.48841907987266
 21
-27.62357903152346
 31
0.0
  0
LINE
  5
19E
330
1F
100
AcDbEntity
  8
通り芯
  6
Continuous
 62
     2
370
     9
100
AcDbLine
 10
18.51348897573111
 20
-28.62363287914198
 30
0.0
 11
18.51348897573111
 21
-27.62357903152346
 31
0.0
  0
LINE
  5
19F
330
1F
100
AcDbEntity
  8
通り芯
  6
Continuous
 62
     2
370
     9
100
AcDbLine
 10
19.01349840201006
 20
-32.62360330419173
 30
0.0
 11
19.01349840201006
 21
-28.89319983117352
 31
0.0
  0
LINE
  5
1A0
330
1F
100
AcDbEntity
  8
通り芯
  6
Continuous
 62
     2
370
     9
100
AcDbLine
 10
26.53862626948412
 20
-30.22763148311006
 30
0.0
 11
29.51348638350444
 21
-28.62363287914198
 31
0.0
  0
LINE
  5
1A1
330
1F
100
AcDbEntity
  8
通り芯
  6
Continuous
 62
     2
370
     9
100
AcDbLine
 10
26.53862626948412
 20
-30.22763148311006
 30
0.0
 11
26.53862626948412
 21
-27.62357903152346
 31
0.0
  0
LINE
  5
1A2
330
1F
100
AcDbEntity
  8
通り芯
  6
Continuous
 62
     2
370
     9
100
AcDbLine
 10
29.01347695722549
 20
-32.62360330419173
 30
0.0
 11
29.01347695722549
 21
-28.89319983117352
 31
0.0
  0
LINE
  5
1A3
330
1F
100
AcDbEntity
  8
通り芯
  6
Continuous
 62
     2
370
     9
100
AcDbLine
 10
29.51348638350444
 20
-28.62363287914198
 30
0.0
 11
29.51348638350444
 21
-27.62357903152346
 31
0.0
  0
LINE
  5
1A4
330
1F
100
AcDbEntity
  8
通り芯
  6
Continuous
 62
     2
370
     9
100
AcDbLine
 10
29.51348638350444
 20
-27.62357903152346
 30
0.0
 11
26.53862626948412
 21
-27.62357903152346
 31
0.0
  0
LINE
  5
1A5
330
1F
100
AcDbEntity
  8
仕上
  6
JWW_DASHED1
 62
     6
370
     9
100
AcDbLine
 10
-23.48135367139419
 20
304.0522257600319
 30
0.0
 11
-23.66976707782517
 21
303.5973949570261
 31
0.0
  0
LINE
  5
1A6
330
1F
100
AcDbEntity
  8
仕上
  6
JWW_DASHED1
 62
     6
370
     9
100
AcDbLine
 10
-28.10075416712223
 20
305.9656331925586
 30
0.0
 11
-28.28915007602288
 21
305.5108023895528
 31
0.0
  0
LINE
  5
1A7
330
1F
100
AcDbEntity
  8
仕上
  6
Continuous
 62
     6
370
     9
100
AcDbLine
 10
5.872345707131176
 20
266.5816320387821
 30
0.0
 11
9.43052098925972
 21
266.5816320387821
 31
0.0
  0
LINE
  5
1A8
330
1F
100
AcDbEntity
  8
仕上
  6
Continuous
 62
     6
370
     9
100
AcDbLine
 10
4.181821815755841
 20
275.0804274781598
 30
0.0
 11
7.46918782120048
 21
276.4421027847966
 31
0.0
  0
LINE
  5
1A9
330
1F
100
AcDbEntity
  8
仕上
  6
Continuous
 62
     6
370
     9
100
AcDbLine
 10
-0.0276815348150006
 20
285.2431155677735
 30
0.0
 11
3.259649475568965
 21
286.6047733768801
 31
0.0
  0
LINE
  5
1AA
330
1F
100
AcDbEntity
  8
仕上
  6
Continuous
 62
     6
370
     9
100
AcDbLine
 10
-4.841882035538928
 20
292.448056128015
 30
0.0
 11
-2.325859658966605
 21
294.9640785045873
 31
0.0
  0
LINE
  5
1AB
330
1F
100
AcDbEntity
  8
仕上
  6
Continuous
 62
     6
370
     9
100
AcDbLine
 10
-12.62005918642725
 20
300.2262332789034
 30
0.0
 11
-10.10405430738527
 21
302.7422556554757
 31
0.0
  0
LINE
  5
1AC
330
1F
100
AcDbEntity
  8
仕上
  6
Continuous
 62
     6
370
     9
100
AcDbLine
 10
-19.82501724419902
 20
305.040416282097
 30
0.0
 11
-18.46334193756214
 21
308.3277647900113
 31
0.0
  0
LINE
  5
1AD
330
1F
100
AcDbEntity
  8
仕上
  6
Continuous
 62
     6
370
     9
100
AcDbLine
 10
-29.98768783628246
 20
309.2499546277285
 30
0.0
 11
-28.62603002717591
 21
312.5372856381125
 31
0.0
  0
LINE
  5
1AE
330
1F
100
AcDbEntity
  8
仕上
  6
Continuous
 62
     6
370
     9
100
AcDbLine
 10
-38.48650077319049
 20
310.9404610215735
 30
0.0
 11
-38.48650077319049
 21
314.4986538012323
 31
0.0
  0
ARC
  5
1AF
330
1F
100
AcDbEntity
  8
仕上
  6
Continuous
 62
     6
370
     9
100
AcDbCircle
 10
-43.98649947707713
 20
261.0816158373651
 30
0.0
 40
68.50000533173903
100
AcDbArc
 50
5.176574707031249
 51
90.0
  0
ELLIPSE
  5
1B0
330
1F
100
AcDbEntity
  8
仕上
  6
JWW_DASHED1
 62
     6
370
     9
100
AcDbEllipse
 10
-25.97945857692405
 20
304.5540899245243
 30
0.0
 11
2.309698929931983
 21
-0.9567086217764523
 31
0.0
210
0.0
220
0.0
230
1.0
 40
0.1686
 41
4.71238898038469
 42
6.283185307179586
  0
ELLIPSE
  5
1B1
330
1F
100
AcDbEntity
  8
仕上
  6
JWW_DASHED1
 62
     6
370
     9
100
AcDbEllipse
 10
-25.97945857692405
 20
304.5540899245243
 30
0.0
 11
-2.309698929931983
 21
0.9567086217764512
 31
0.0
210
0.0
220
0.0
230
1.0
 40
0.1686
 41
0.0
 42
1.570796326794897
  0
ARC
  5
1B2
330
1F
100
AcDbEntity
  8
仕上
  6
JWW_DASHED1
 62
     6
370
     9
100
AcDbCircle
 10
-20.53935391930533
 20
302.1562808627596
 30
0.0
 40
3.499999821416199
100
AcDbArc
 50
97.3792877197266
 51
147.2007141113282
  0
ARC
  5
1B3
330
1F
100
AcDbEntity
  8
仕上
  6
JWW_DASHED1
 62
     6
370
     9
100
AcDbCircle
 10
-31.52169631899091
 20
306.705306291561
 30
0.0
 40
3.499999821416199
100
AcDbArc
 50
347.7992858886719
 51
37.62071228027344
  0
ARC
  5
1B4
330
1F
100
AcDbEntity
  8
仕上
  6
Continuous
 62
     6
370
     9
100
AcDbCircle
 10
-43.98649947707713
 20
261.0816158373651
 30
0.0
 40
53.69944810314988
100
AcDbArc
 50
5.878662109375044
 51
16.62135314941411
  0
ARC
  5
1B5
330
1F
100
AcDbEntity
  8
仕上
  6
Continuous
 62
     6
370
     9
100
AcDbCircle
 10
5.872345707131176
 20
268.0816253225584
 30
0.0
 40
1.499999982049566
100
AcDbArc
 50
187.9918823242188
 51
270.0000762939453
  0
ARC
  5
1B6
330
1F
100
AcDbEntity
  8
仕上
  6
Continuous
 62
     6
370
     9
100
AcDbCircle
 10
-43.98649947707713
 20
261.0816158373651
 30
0.0
 40
48.84783788261266
100
AcDbArc
 50
7.991897583007842
 51
14.50813293457034
  0
ARC
  5
1B7
330
1F
100
AcDbEntity
  8
仕上
  6
Continuous
 62
     6
370
     9
100
AcDbCircle
 10
4.755845795266909
 20
273.6946230772187
 30
0.0
 40
1.499999982049566
100
AcDbArc
 50
112.5
 51
194.5079956054688
  0
ARC
  5
1B8
330
1F
100
AcDbEntity
  8
仕上
  6
Continuous
 62
     6
370
     9
100
AcDbCircle
 10
-43.98649947707713
 20
261.0816158373651
 30
0.0
 40
53.69944810314988
100
AcDbArc
 50
28.37866210937502
 51
39.12135314941408
  0
ARC
  5
1B9
330
1F
100
AcDbEntity
  8
仕上
  6
Continuous
 62
     6
370
     9
100
AcDbCircle
 10
-0.6017055143260261
 20
286.628937466245
 30
0.0
 40
1.499999982049566
100
AcDbArc
 50
210.4918823242188
 51
292.5000762939454
  0
ARC
  5
1BA
330
1F
100
AcDbEntity
  8
仕上
  6
Continuous
 62
     6
370
     9
100
AcDbCircle
 10
-43.98649947707713
 20
261.0816158373651
 30
0.0
 40
48.84783788261266
100
AcDbArc
 50
30.49189758300782
 51
37.00813293457031
  0
ARC
  5
1BB
330
1F
100
AcDbEntity
  8
仕上
  6
Continuous
 62
     6
370
     9
100
AcDbCircle
 10
-3.781234240439813
 20
291.3874083329159
 30
0.0
 40
1.499999982049566
100
AcDbArc
 50
135.0
 51
217.0079956054688
  0
ARC
  5
1BC
330
1F
100
AcDbEntity
  8
仕上
  6
Continuous
 62
     6
370
     9
100
AcDbCircle
 10
-43.98649947707713
 20
261.0816158373651
 30
0.0
 40
53.69944810314988
100
AcDbArc
 50
50.87866210937504
 51
61.62135314941411
  0
ARC
  5
1BD
330
1F
100
AcDbEntity
  8
仕上
  6
Continuous
 62
     6
370
     9
100
AcDbCircle
 10
-13.68072447905662
 20
301.2868985715328
 30
0.0
 40
1.499999982049566
100
AcDbArc
 50
232.9918823242188
 51
315.0000762939454
  0
ARC
  5
1BE
330
1F
100
AcDbEntity
  8
仕上
  6
Continuous
 62
     6
370
     9
100
AcDbCircle
 10
-43.98649947707713
 20
261.0816158373651
 30
0.0
 40
48.84783788261266
100
AcDbArc
 50
52.99189758300784
 51
59.50813293457034
  0
ARC
  5
1BF
330
1F
100
AcDbEntity
  8
仕上
  6
Continuous
 62
     6
370
     9
100
AcDbCircle
 10
-18.43919534572758
 20
304.4664098001163
 30
0.0
 40
1.499999982049566
100
AcDbArc
 50
157.5
 51
239.5079956054688
  0
ARC
  5
1C0
330
1F
100
AcDbEntity
  8
仕上
  6
Continuous
 62
     6
370
     9
100
AcDbCircle
 10
-43.98649947707713
 20
261.0816158373651
 30
0.0
 40
53.69944810314988
100
AcDbArc
 50
73.37866210937501
 51
84.12135314941408
  0
ARC
  5
1C1
330
1F
100
AcDbEntity
  8
仕上
  6
Continuous
 62
     6
370
     9
100
AcDbCircle
 10
-31.3735097347539
 20
309.8239786072395
 30
0.0
 40
1.499999982049566
100
AcDbArc
 50
255.4918823242188
 51
337.5000762939453
  0
ARC
  5
1C2
330
1F
100
AcDbEntity
  8
仕上
  6
Continuous
 62
     6
370
     9
100
AcDbCircle
 10
-43.98649947707713
 20
261.0816158373651
 30
0.0
 40
48.84783788261266
100
AcDbArc
 50
75.49189758300781
 51
82.00813293457031
  0
ARC
  5
1C3
330
1F
100
AcDbEntity
  8
仕上
  6
Continuous
 62
     6
370
     9
100
AcDbCircle
 10
-36.98650748941422
 20
310.9404610215735
 30
0.0
 40
1.499999982049566
100
AcDbArc
 50
180.0
 51
262.0079956054688
  0
ARC
  5
1C4
330
1F
100
AcDbEntity
  8
仕上
  6
Continuous
 62
     6
370
     9
100
AcDbCircle
 10
-43.98649947707713
 20
261.0816158373651
 30
0.0
 40
53.89684649139758
100
AcDbArc
 50
70.69078063964845
 51
90.00000000000001
  0
ELLIPSE
  5
1C5
330
1F
100
AcDbEntity
  8
仕上
  6
Continuous
 62
     6
370
     9
100
AcDbEllipse
 10
-24.86917028832157
 20
307.2345715885265
 30
0.0
 11
3.88029378804197
 21
-1.607270312999056
 31
0.0
210
0.0
220
0.0
230
1.0
 40
0.1002
 41
2.366436208796461
 42
7.058429369972782
  0
ARC
  5
1C6
330
1F
100
AcDbEntity
  8
仕上
  6
Continuous
 62
     6
370
     9
100
AcDbCircle
 10
22.2422826759604
 20
267.0816239675307
 30
0.0
 40
1.999999976066088
100
AcDbArc
 50
277.7744445800781
 51
5.176422119140636
  0
LINE
  5
1C7
330
1F
100
AcDbEntity
  8
仕上
  6
Continuous
 62
     6
370
     9
100
AcDbLine
 10
-93.84534466128542
 20
266.5816320387821
 30
0.0
 11
-97.40351994341398
 21
266.5816320387821
 31
0.0
  0
LINE
  5
1C8
330
1F
100
AcDbEntity
  8
仕上
  6
Continuous
 62
     6
370
     9
100
AcDbLine
 10
-92.15482076991009
 20
275.0804274781598
 30
0.0
 11
-95.44218677535474
 21
276.4421027847966
 31
0.0
  0
LINE
  5
1C9
330
1F
100
AcDbEntity
  8
仕上
  6
Continuous
 62
     6
370
     9
100
AcDbLine
 10
-87.94531741933926
 20
285.2431155677735
 30
0.0
 11
-91.23264842972321
 21
286.6047733768801
 31
0.0
  0
LINE
  5
1CA
330
1F
100
AcDbEntity
  8
仕上
  6
Continuous
 62
     6
370
     9
100
AcDbLine
 10
-83.13111691861533
 20
292.448056128015
 30
0.0
 11
-85.64713929518766
 21
294.9640785045873
 31
0.0
  0
LINE
  5
1CB
330
1F
100
AcDbEntity
  8
仕上
  6
Continuous
 62
     6
370
     9
100
AcDbLine
 10
-75.35293976772701
 20
300.2262332789034
 30
0.0
 11
-77.868944646769
 21
302.7422556554757
 31
0.0
  0
LINE
  5
1CC
330
1F
100
AcDbEntity
  8
仕上
  6
Continuous
 62
     6
370
     9
100
AcDbLine
 10
-68.14798170995525
 20
305.040416282097
 30
0.0
 11
-69.50965701659212
 21
308.3277647900113
 31
0.0
  0
LINE
  5
1CD
330
1F
100
AcDbEntity
  8
仕上
  6
Continuous
 62
     6
370
     9
100
AcDbLine
 10
-57.9853111178718
 20
309.2499546277285
 30
0.0
 11
-59.34696892697834
 21
312.5372856381125
 31
0.0
  0
LINE
  5
1CE
330
1F
100
AcDbEntity
  8
仕上
  6
Continuous
 62
     6
370
     9
100
AcDbLine
 10
-49.48649818096377
 20
310.9404610215735
 30
0.0
 11
-49.48649818096377
 21
314.4986538012323
 31
0.0
  0
ARC
  5
1CF
330
1F
100
AcDbEntity
  8
仕上
  6
Continuous
 62
     6
370
     9
100
AcDbCircle
 10
-43.98649947707713
 20
261.0816158373651
 30
0.0
 40
53.69944810314988
100
AcDbArc
 50
163.3786468505859
 51
174.1213378906249
  0
ARC
  5
1D0
330
1F
100
AcDbEntity
  8
仕上
  6
Continuous
 62
     6
370
     9
100
AcDbCircle
 10
-93.84534466128542
 20
268.0816253225584
 30
0.0
 40
1.499999982049566
100
AcDbArc
 50
269.9999237060547
 51
352.0081176757812
  0
ARC
  5
1D1
330
1F
100
AcDbEntity
  8
仕上
  6
Continuous
 62
     6
370
     9
100
AcDbCircle
 10
-43.98649947707713
 20
261.0816158373651
 30
0.0
 40
48.84783788261266
100
AcDbArc
 50
165.4918670654297
 51
172.0081024169922
  0
ARC
  5
1D2
330
1F
100
AcDbEntity
  8
仕上
  6
Continuous
 62
     6
370
     9
100
AcDbCircle
 10
-92.72884474942117
 20
273.6946230772187
 30
0.0
 40
1.499999982049566
100
AcDbArc
 50
345.4920043945312
 51
67.49999999999997
  0
ARC
  5
1D3
330
1F
100
AcDbEntity
  8
仕上
  6
Continuous
 62
     6
370
     9
100
AcDbCircle
 10
-43.98649947707713
 20
261.0816158373651
 30
0.0
 40
53.69944810314988
100
AcDbArc
 50
140.8786468505859
 51
151.621337890625
  0
ARC
  5
1D4
330
1F
100
AcDbEntity
  8
仕上
  6
Continuous
 62
     6
370
     9
100
AcDbCircle
 10
-87.37129343982824
 20
286.628937466245
 30
0.0
 40
1.499999982049566
100
AcDbArc
 50
247.4999237060547
 51
329.5081176757812
  0
ARC
  5
1D5
330
1F
100
AcDbEntity
  8
仕上
  6
Continuous
 62
     6
370
     9
100
AcDbCircle
 10
-43.98649947707713
 20
261.0816158373651
 30
0.0
 40
48.84783788261266
100
AcDbArc
 50
142.9918670654297
 51
149.5081024169922
  0
ARC
  5
1D6
330
1F
100
AcDbEntity
  8
仕上
  6
Continuous
 62
     6
370
     9
100
AcDbCircle
 10
-84.19176471371443
 20
291.3874083329159
 30
0.0
 40
1.499999982049566
100
AcDbArc
 50
322.9920043945312
 51
45.0
  0
ARC
  5
1D7
330
1F
100
AcDbEntity
  8
仕上
  6
Continuous
 62
     6
370
     9
100
AcDbCircle
 10
-43.98649947707713
 20
261.0816158373651
 30
0.0
 40
53.69944810314988
100
AcDbArc
 50
118.3786468505859
 51
129.1213378906249
  0
ARC
  5
1D8
330
1F
100
AcDbEntity
  8
仕上
  6
Continuous
 62
     6
370
     9
100
AcDbCircle
 10
-74.29227447509763
 20
301.2868985715328
 30
0.0
 40
1.499999982049566
100
AcDbArc
 50
224.9999237060547
 51
307.0081176757812
  0
ARC
  5
1D9
330
1F
100
AcDbEntity
  8
仕上
  6
Continuous
 62
     6
370
     9
100
AcDbCircle
 10
-43.98649947707713
 20
261.0816158373651
 30
0.0
 40
48.84783788261266
100
AcDbArc
 50
120.4918670654297
 51
127.0081024169922
  0
ARC
  5
1DA
330
1F
100
AcDbEntity
  8
仕上
  6
Continuous
 62
     6
370
     9
100
AcDbCircle
 10
-69.53380360842667
 20
304.4664098001163
 30
0.0
 40
1.499999982049566
100
AcDbArc
 50
300.4920043945312
 51
22.49999999999998
  0
ARC
  5
1DB
330
1F
100
AcDbEntity
  8
仕上
  6
Continuous
 62
     6
370
     9
100
AcDbCircle
 10
-43.98649947707713
 20
261.0816158373651
 30
0.0
 40
53.69944810314988
100
AcDbArc
 50
95.87864685058591
 51
106.621337890625
  0
ARC
  5
1DC
330
1F
100
AcDbEntity
  8
仕上
  6
Continuous
 62
     6
370
     9
100
AcDbCircle
 10
-56.59948921940036
 20
309.8239786072395
 30
0.0
 40
1.499999982049566
100
AcDbArc
 50
202.4999237060547
 51
284.5081176757813
  0
ARC
  5
1DD
330
1F
100
AcDbEntity
  8
仕上
  6
Continuous
 62
     6
370
     9
100
AcDbCircle
 10
-43.98649947707713
 20
261.0816158373651
 30
0.0
 40
48.84783788261266
100
AcDbArc
 50
97.99186706542969
 51
104.5081024169922
  0
ARC
  5
1DE
330
1F
100
AcDbEntity
  8
仕上
  6
Continuous
 62
     6
370
     9
100
AcDbCircle
 10
-50.98649146474003
 20
310.9404610215735
 30
0.0
 40
1.499999982049566
100
AcDbArc
 50
277.9920043945312
 51
0.0
  0
ARC
  5
1DF
330
1F
100
AcDbEntity
  8
仕上
  6
Continuous
 62
     6
370
     9
100
AcDbCircle
 10
-43.98649947707713
 20
261.0816158373651
 30
0.0
 40
53.89684649139758
100
AcDbArc
 50
90.00000000000001
 51
180.0
  0
ARC
  5
1E0
330
1F
100
AcDbEntity
  8
仕上
  6
Continuous
 62
     6
370
     9
100
AcDbCircle
 10
-43.98649947707713
 20
261.0816158373651
 30
0.0
 40
46.49999739304472
100
AcDbArc
 50
0.0
 51
180.0
  0
ARC
  5
1E1
330
1F
100
AcDbEntity
  8
仕上
  6
Continuous
 62
     6
370
     9
100
AcDbCircle
 10
-43.98649947707713
 20
261.0816158373651
 30
0.0
 40
47.70484670985159
100
AcDbArc
 50
0.0
 51
180.0
  0
ARC
  5
1E2
330
1F
100
AcDbEntity
  8
仕上
  6
Continuous
 62
     6
370
     9
100
AcDbCircle
 10
-110.2152816301146
 20
267.0816239675307
 30
0.0
 40
1.999999976066088
100
AcDbArc
 50
174.8235778808594
 51
262.2255554199218
  0
ARC
  5
1E3
330
1F
100
AcDbEntity
  8
仕上
  6
Continuous
 62
     6
370
     9
100
AcDbCircle
 10
-43.98649947707713
 20
261.0816158373651
 30
0.0
 40
68.50000533173903
100
AcDbArc
 50
90.0
 51
174.8234252929688
  0
LINE
  5
1E4
330
1F
100
AcDbEntity
  8
仕上
  6
JWW_DASHED1
 62
     6
370
     9
100
AcDbLine
 10
-91.53314623676361
 20
263.5817565429857
 30
0.0
 11
-91.04083467803318
 21
263.5817415003428
 31
0.0
  0
ELLIPSE
  5
1E5
330
1F
100
AcDbEntity
  8
仕上
  6
JWW_DASHED1
 62
     6
370
     9
100
AcDbEllipse
 10
-91.04082473224959
 20
261.0817534840221
 30
0.0
 11
-1.745329326361388E-7
 21
2.500000106782061
 31
0.0
210
0.0
220
0.0
230
1.0
 40
0.1686
 41
4.71238898038469
 42
6.283185307179586
  0
ARC
  5
1E6
330
1F
100
AcDbEntity
  8
仕上
  6
JWW_DASHED1
 62
     6
370
     9
100
AcDbCircle
 10
-90.9073763549597
 20
267.0253566431441
 30
0.0
 40
3.499999821416199
100
AcDbArc
 50
209.8792917197266
 51
259.7007181113282
  0
ELLIPSE
  5
1E7
330
1F
100
AcDbEntity
  8
仕上
  6
Continuous
 62
     6
370
     9
100
AcDbEllipse
 10
-93.94215581208994
 20
261.0817499829258
 30
0.0
 11
-2.932152955262879E-7
 21
4.199999731019647
 31
0.0
210
0.0
220
0.0
230
1.0
 40
0.1002
 41
4.71238898038469
 42
7.058429369972782
  0
ARC
  5
1E8
330
1F
100
AcDbEntity
  8
仕上
  6
Continuous
 62
     6
370
     9
100
AcDbCircle
 10
-43.98649947707713
 20
261.0816158373651
 30
0.0
 40
53.89684649139758
100
AcDbArc
 50
0.0
 51
64.30912780761719
  0
LINE
  5
1E9
330
1F
100
AcDbEntity
  8
仕上
  6
Continuous
 62
     6
370
     9
100
AcDbLine
 10
3.718382227835066
 20
53.17623649619733
 30
0.0
 11
-91.69134618692871
 21
53.17623649619735
 31
0.0
  0
LINE
  5
1EA
330
1F
100
AcDbEntity
  8
仕上
  6
Continuous
 62
     6
370
     9
100
AcDbLine
 10
-112.5896614987877
 20
-16.82375337055272
 30
0.0
 11
-112.5896614987877
 21
-15.62377274155597
 31
0.0
  0
LINE
  5
1EB
330
1F
100
AcDbEntity
  8
仕上
  6
Continuous
 62
     6
370
     9
100
AcDbLine
 10
2.513502290350146
 20
53.17623649619733
 30
0.0
 11
8.65450551979332
 21
-13.91055455336223
 31
0.0
  0
LINE
  5
1EC
330
1F
100
AcDbEntity
  8
仕上
  6
Continuous
 62
     6
370
     9
100
AcDbLine
 10
9.84965683042317
 20
-13.80304972710743
 30
0.0
 11
3.718382227835066
 21
53.17623649619733
 31
0.0
  0
LINE
  5
1ED
330
1F
100
AcDbEntity
  8
仕上
  6
Continuous
 62
     6
370
     9
100
AcDbLine
 10
11.8416106765335
 20
-15.623772741556
 30
0.0
 11
24.61666254463343
 21
-15.623772741556
 31
0.0
  0
LINE
  5
1EE
330
1F
100
AcDbEntity
  8
仕上
  6
Continuous
 62
     6
370
     9
100
AcDbLine
 10
24.61666254463343
 20
-15.623772741556
 30
0.0
 11
24.61666254463343
 21
-16.82375337055274
 31
0.0
  0
LINE
  5
1EF
330
1F
100
AcDbEntity
  8
仕上
  6
Continuous
 62
     6
370
     9
100
AcDbLine
 10
-99.81457463562714
 20
-15.62377274155597
 30
0.0
 11
-112.5896614987877
 21
-15.62377274155597
 31
0.0
  0
LINE
  5
1F0
330
1F
100
AcDbEntity
  8
仕上
  6
Continuous
 62
     6
370
     9
100
AcDbLine
 10
15.11669341569702
 20
-15.623772741556
 30
0.0
 11
15.11669341569702
 21
-16.82375337055274
 31
0.0
  0
LINE
  5
1F1
330
1F
100
AcDbEntity
  8
仕上
  6
Continuous
 62
     6
370
     9
100
AcDbLine
 10
-103.0896573747907
 20
-15.62377274155597
 30
0.0
 11
-103.0896573747907
 21
-16.82375337055272
 31
0.0
  0
LINE
  5
1F2
330
1F
100
AcDbEntity
  8
仕上
  6
Continuous
 62
     6
370
     9
100
AcDbLine
 10
-91.17826610550452
 20
25.40895070367355
 30
0.0
 11
-91.96868204242011
 21
25.48226535569307
 31
0.0
  0
LINE
  5
1F3
330
1F
100
AcDbEntity
  8
仕上
  6
Continuous
 62
     6
370
     9
100
AcDbLine
 10
-90.73006686648802
 20
30.38878282635845
 30
0.0
 11
-91.53288855239688
 21
30.4633223055
 31
0.0
  0
LINE
  5
1F4
330
1F
100
AcDbEntity
  8
仕上
  6
Continuous
 62
     6
370
     9
100
AcDbLine
 10
-91.22449458059654
 20
24.91104098103238
 30
0.0
 11
-93.40538675904729
 21
25.11348740677595
 31
0.0
  0
LINE
  5
1F5
330
1F
100
AcDbEntity
  8
仕上
  6
Continuous
 62
     6
370
     9
100
AcDbLine
 10
-90.68383839139602
 20
30.88669254899962
 30
0.0
 11
-92.87704883118849
 21
31.09029381174394
 31
0.0
  0
LINE
  5
1F6
330
1F
100
AcDbEntity
  8
仕上
  6
Continuous
 62
     6
370
     9
100
AcDbLine
 10
-92.32543918801086
 20
32.74363545120006
 30
0.0
 11
-90.48650124450444
 21
53.17623649619735
 31
0.0
  0
LINE
  5
1F7
330
1F
100
AcDbEntity
  8
仕上
  6
Continuous
 62
     6
370
     9
100
AcDbLine
 10
-91.42193671267
 20
31.65819365564475
 30
0.0
 11
-90.61911502676116
 21
31.58365417650326
 31
0.0
  0
LINE
  5
1F8
330
1F
100
AcDbEntity
  8
仕上
  6
Continuous
 62
     6
370
     9
100
AcDbLine
 10
-92.07963388214696
 20
24.28742900060887
 30
0.0
 11
-91.2892179452314
 21
24.21407935352874
 31
0.0
  0
LINE
  5
1F9
330
1F
100
AcDbEntity
  8
仕上
  6
Continuous
 62
     6
370
     9
100
AcDbLine
 10
-93.1677877949011
 20
23.38403151044991
 30
0.0
 11
-96.62746947888698
 21
-13.91055455336221
 31
0.0
  0
LINE
  5
1FA
330
1F
100
AcDbEntity
  8
仕上
  6
Continuous
 62
     6
370
     9
100
AcDbLine
 10
-28.62601252964565
 20
-12.3237385241634
 30
0.0
 11
-38.4864832756602
 21
-12.3237385241634
 31
0.0
  0
LINE
  5
1FB
330
1F
100
AcDbEntity
  8
仕上
  6
Continuous
 62
     6
370
     9
100
AcDbLine
 10
-10.10403680985494
 20
-12.32373852416341
 30
0.0
 11
-18.46334193756216
 21
-12.3237385241634
 31
0.0
  0
LINE
  5
1FC
330
1F
100
AcDbEntity
  8
仕上
  6
Continuous
 62
     6
370
     9
100
AcDbLine
 10
3.259649475568965
 20
-12.32373852416341
 30
0.0
 11
-2.325842161436338
 21
-12.32373852416341
 31
0.0
  0
LINE
  5
1FD
330
1F
100
AcDbEntity
  8
仕上
  6
Continuous
 62
     6
370
     9
100
AcDbLine
 10
-1.131530732261607
 20
39.10384774042851
 30
0.0
 11
3.259649475568965
 21
-12.32373852416341
 31
0.0
  0
LINE
  5
1FE
330
1F
100
AcDbEntity
  8
仕上
  6
Continuous
 62
     6
370
     9
100
AcDbLine
 10
-4.175191135480107
 20
40.47624903314838
 30
0.0
 11
-2.626099781640194
 21
40.47624903314838
 31
0.0
  0
LINE
  5
1FF
330
1F
100
AcDbEntity
  8
仕上
  6
Continuous
 62
     6
370
     9
100
AcDbLine
 10
-5.67199986873905
 20
38.87844455491179
 30
0.0
 11
-2.325842161436338
 21
-12.32373852416341
 31
0.0
  0
LINE
  5
200
330
1F
100
AcDbEntity
  8
仕上
  6
Continuous
 62
     6
370
     9
100
AcDbLine
 10
-13.46296771428754
 20
39.07406694383249
 30
0.0
 11
-10.10403680985494
 21
-12.32373852416341
 31
0.0
  0
LINE
  5
201
330
1F
100
AcDbEntity
  8
仕上
  6
Continuous
 62
     6
370
     9
100
AcDbLine
 10
-18.77677519809319
 20
40.47624903314838
 30
0.0
 11
-14.95977644754649
 21
40.47624903314838
 31
0.0
  0
LINE
  5
202
330
1F
100
AcDbEntity
  8
仕上
  6
Continuous
 62
     6
370
     9
100
AcDbLine
 10
-20.27584111276278
 20
38.92323823251795
 30
0.0
 11
-18.46334193756216
 21
-12.3237385241634
 31
0.0
  0
LINE
  5
203
330
1F
100
AcDbEntity
  8
仕上
  6
Continuous
 62
     6
370
     9
100
AcDbLine
 10
-30.44227367386392
 20
39.02927326622634
 30
0.0
 11
-28.62601252964565
 21
-12.3237385241634
 31
0.0
  0
LINE
  5
204
330
1F
100
AcDbEntity
  8
仕上
  6
Continuous
 62
     6
370
     9
100
AcDbLine
 10
-36.98648999188393
 20
40.47624903314839
 30
0.0
 11
-31.94133958853345
 21
40.47624903314838
 31
0.0
  0
LINE
  5
205
330
1F
100
AcDbEntity
  8
仕上
  6
Continuous
 62
     6
370
     9
100
AcDbLine
 10
-38.48648327566019
 20
38.97625574937215
 30
0.0
 11
-38.4864832756602
 21
-12.3237385241634
 31
0.0
  0
LINE
  5
206
330
1F
100
AcDbEntity
  8
仕上
  6
Continuous
 62
     6
370
     9
100
AcDbLine
 10
-59.34698642450866
 20
-12.3237385241634
 30
0.0
 11
-49.48651567849411
 21
-12.3237385241634
 31
0.0
  0
LINE
  5
207
330
1F
100
AcDbEntity
  8
仕上
  6
Continuous
 62
     6
370
     9
100
AcDbLine
 10
-77.86896214429935
 20
-12.32373852416339
 30
0.0
 11
-69.5096570165921
 21
-12.3237385241634
 31
0.0
  0
LINE
  5
208
330
1F
100
AcDbEntity
  8
仕上
  6
Continuous
 62
     6
370
     9
100
AcDbLine
 10
-83.79780781867416
 20
40.47624903314839
 30
0.0
 11
-85.34689917251407
 21
40.47624903314839
 31
0.0
  0
LINE
  5
209
330
1F
100
AcDbEntity
  8
仕上
  6
Continuous
 62
     6
370
     9
100
AcDbLine
 10
-74.51003123986672
 20
39.07406694383251
 30
0.0
 11
-77.86896214429935
 21
-12.32373852416339
 31
0.0
  0
LINE
  5
20A
330
1F
100
AcDbEntity
  8
仕上
  6
Continuous
 62
     6
370
     9
100
AcDbLine
 10
-69.19622375606104
 20
40.47624903314839
 30
0.0
 11
-73.01322250660778
 21
40.47624903314839
 31
0.0
  0
LINE
  5
20B
330
1F
100
AcDbEntity
  8
仕上
  6
Continuous
 62
     6
370
     9
100
AcDbLine
 10
-67.69715784139152
 20
38.92323823251796
 30
0.0
 11
-69.5096570165921
 21
-12.3237385241634
 31
0.0
  0
LINE
  5
20C
330
1F
100
AcDbEntity
  8
仕上
  6
Continuous
 62
     6
370
     9
100
AcDbLine
 10
-57.53072528029036
 20
39.02927326622635
 30
0.0
 11
-59.34698642450866
 21
-12.3237385241634
 31
0.0
  0
LINE
  5
20D
330
1F
100
AcDbEntity
  8
仕上
  6
Continuous
 62
     6
370
     9
100
AcDbLine
 10
-50.98650896227033
 20
40.47624903314839
 30
0.0
 11
-56.03165936562081
 21
40.47624903314839
 31
0.0
  0
LINE
  5
20E
330
1F
100
AcDbEntity
  8
仕上
  6
Continuous
 62
     6
370
     9
100
AcDbLine
 10
-49.48651567849411
 20
38.97625574937215
 30
0.0
 11
-49.48651567849411
 21
-12.3237385241634
 31
0.0
  0
LINE
  5
20F
330
1F
100
AcDbEntity
  8
仕上
  6
Continuous
 62
     6
370
     9
100
AcDbLine
 10
-91.62949241726551
 20
40.47624903314839
 30
0.0
 11
-92.83433735968978
 21
40.47624903314839
 31
0.0
  0
LINE
  5
210
330
1F
100
AcDbEntity
  8
仕上
  6
Continuous
 62
     6
370
     9
100
AcDbLine
 10
-96.48026275634763
 20
-12.32373852416339
 30
0.0
 11
-97.68594758022702
 21
-12.32373852416339
 31
0.0
  0
LINE
  5
211
330
1F
100
AcDbEntity
  8
仕上
  6
Continuous
 62
     6
370
     9
100
AcDbLine
 10
-91.2858409218806
 20
24.21372940292246
 30
0.0
 11
-91.17826610550452
 21
25.40895070367355
 31
0.0
  0
LINE
  5
212
330
1F
100
AcDbEntity
  8
仕上
  6
Continuous
 62
     6
370
     9
100
AcDbLine
 10
-90.73006686648802
 20
30.38878282635845
 30
0.0
 11
-90.62249205011193
 21
31.58400412710954
 31
0.0
  0
LINE
  5
213
330
1F
100
AcDbEntity
  8
仕上
  6
Continuous
 62
     6
370
     9
100
AcDbLine
 10
-93.67243406671349
 20
31.16406339955164
 30
0.0
 11
-91.69134618692871
 21
53.17623649619735
 31
0.0
  0
LINE
  5
214
330
1F
100
AcDbEntity
  8
仕上
  6
Continuous
 62
     6
370
     9
100
AcDbLine
 10
-97.8226207895168
 20
-13.80304972710741
 30
0.0
 11
-94.22003677544902
 21
25.18907673773634
 31
0.0
  0
LINE
  5
215
330
1F
100
AcDbEntity
  8
仕上
  6
Continuous
 62
     6
370
     9
100
AcDbLine
 10
24.61666254463343
 20
-16.82375337055274
 30
0.0
 11
-112.5896614987877
 21
-16.82375337055272
 31
0.0
  0
LINE
  5
216
330
1F
100
AcDbEntity
  8
仕上
  6
Continuous
 62
     6
370
     9
100
AcDbLine
 10
-86.84146822189267
 20
39.10384774042852
 30
0.0
 11
-91.23266592725362
 21
-12.32373852416339
 31
0.0
  0
LINE
  5
217
330
1F
100
AcDbEntity
  8
仕上
  6
Continuous
 62
     6
370
     9
100
AcDbLine
 10
-82.30099908541524
 20
38.87844455491181
 30
0.0
 11
-85.64715679271796
 21
-12.32373852416339
 31
0.0
  0
LINE
  5
218
330
1F
100
AcDbEntity
  8
仕上
  6
Continuous
 62
     6
370
     9
100
AcDbLine
 10
-85.64715679271796
 20
-12.32373852416339
 30
0.0
 11
-91.23266592725362
 21
-12.32373852416339
 31
0.0
  0
ARC
  5
219
330
1F
100
AcDbEntity
  8
仕上
  6
Continuous
 62
     6
370
     9
100
AcDbCircle
 10
11.8416106765335
 20
-13.62373503644019
 30
0.0
 40
1.999999976066088
100
AcDbArc
 50
185.1426086425782
 51
270.0000000000001
  0
ARC
  5
21A
330
1F
100
AcDbEntity
  8
仕上
  6
Continuous
 62
     6
370
     9
100
AcDbCircle
 10
11.8416106765335
 20
-13.62373503644019
 30
0.0
 40
3.200000016385523
100
AcDbArc
 50
185.1426086425782
 51
270.0000000000001
  0
ARC
  5
21B
330
1F
100
AcDbEntity
  8
仕上
  6
Continuous
 62
     6
370
     9
100
AcDbCircle
 10
-99.81457463562714
 20
-13.62373503644017
 30
0.0
 40
1.999999976066088
100
AcDbArc
 50
270.0
 51
354.8573913574219
  0
ARC
  5
21C
330
1F
100
AcDbEntity
  8
仕上
  6
Continuous
 62
     6
370
     9
100
AcDbCircle
 10
-99.81457463562714
 20
-13.62373503644017
 30
0.0
 40
3.200000016385523
100
AcDbArc
 50
270.0
 51
354.8573913574219
  0
ARC
  5
21D
330
1F
100
AcDbEntity
  8
仕上
  6
Continuous
 62
     6
370
     9
100
AcDbCircle
 10
-91.32947976248602
 20
32.65394311080586
 30
0.0
 40
0.9999999880330441
100
AcDbArc
 50
174.8580322265625
 51
264.6952056884766
  0
ARC
  5
21E
330
1F
100
AcDbEntity
  8
仕上
  6
Continuous
 62
     6
370
     9
100
AcDbCircle
 10
-91.32947976248602
 20
32.65394311080586
 30
0.0
 40
2.20000002835248
100
AcDbArc
 50
174.8580322265625
 51
264.6952056884766
  0
ARC
  5
21F
330
1F
100
AcDbEntity
  8
仕上
  6
Continuous
 62
     6
370
     9
100
AcDbCircle
 10
-92.17209083233095
 20
23.29171454050844
 30
0.0
 40
0.9999999880330441
100
AcDbArc
 50
84.69502258300784
 51
174.8560333251954
  0
ARC
  5
220
330
1F
100
AcDbEntity
  8
仕上
  6
Continuous
 62
     6
370
     9
100
AcDbCircle
 10
-92.17209083233095
 20
23.29171454050844
 30
0.0
 40
2.20000002835248
100
AcDbArc
 50
84.69502258300784
 51
174.8560333251954
  0
ELLIPSE
  5
221
330
1F
100
AcDbEntity
  8
仕上
  6
Continuous
 62
     6
370
     9
100
AcDbEllipse
 10
-26.14089079160946
 20
27.89884926748565
 30
0.0
 11
1.524685261759383E-16
 21
-2.489999994808182
 31
0.0
210
0.0
220
0.0
230
1.0
 40
0.5469
 41
0.0
 42
6.283185307179586
  0
ELLIPSE
  5
222
330
1F
100
AcDbEntity
  8
仕上
  6
Continuous
 62
     6
370
     9
100
AcDbEllipse
 10
-26.14089079160946
 20
27.89884926748565
 30
0.0
 11
1.829470608482591E-16
 21
-2.987752239676516
 31
0.0
210
0.0
220
0.0
230
1.0
 40
0.6223000000000001
 41
0.0
 42
6.283185307179586
  0
ELLIPSE
  5
223
330
1F
100
AcDbEntity
  8
仕上
  6
Continuous
 62
     6
370
     9
100
AcDbEllipse
 10
-26.14089079160946
 20
27.89884926748565
 30
0.0
 11
2.966807639653791E-16
 21
-4.845164567807466
 31
0.0
210
0.0
220
0.0
230
1.0
 40
0.7493000000000001
 41
0.7486654487980944
 42
2.392927204791699
  0
ARC
  5
224
330
1F
100
AcDbEntity
  8
仕上
  6
Continuous
 62
     6
370
     9
100
AcDbCircle
 10
-25.68326038375321
 20
34.58923995375651
 30
0.0
 40
3.730836536893513
100
AcDbArc
 50
262.9542388916016
 51
302.6626281738281
  0
ARC
  5
225
330
1F
100
AcDbEntity
  8
仕上
  6
Continuous
 62
     6
370
     9
100
AcDbCircle
 10
-25.68326038375321
 20
21.20845858121485
 30
0.0
 40
3.730836536893513
100
AcDbArc
 50
57.33737182617189
 51
97.04576110839844
  0
ARC
  5
226
330
1F
100
AcDbEntity
  8
仕上
  6
Continuous
 62
     6
370
     9
100
AcDbCircle
 10
-2.626099781640194
 20
38.97625574937214
 30
0.0
 40
1.499999982049566
100
AcDbArc
 50
4.879531860351572
 51
90.00000000000001
  0
ARC
  5
227
330
1F
100
AcDbEntity
  8
仕上
  6
Continuous
 62
     6
370
     9
100
AcDbCircle
 10
-4.175191135480107
 20
38.97625574937214
 30
0.0
 40
1.499999982049566
100
AcDbArc
 50
90.0
 51
183.73876953125
  0
ARC
  5
228
330
1F
100
AcDbEntity
  8
仕上
  6
Continuous
 62
     6
370
     9
100
AcDbCircle
 10
-14.95977644754649
 20
38.97625574937214
 30
0.0
 40
1.499999982049566
100
AcDbArc
 50
3.738769531249996
 51
90.0
  0
ARC
  5
229
330
1F
100
AcDbEntity
  8
仕上
  6
Continuous
 62
     6
370
     9
100
AcDbCircle
 10
-18.77677519809319
 20
38.97625574937214
 30
0.0
 40
1.499999982049566
100
AcDbArc
 50
90.0
 51
182.0255432128906
  0
ARC
  5
22A
330
1F
100
AcDbEntity
  8
仕上
  6
Continuous
 62
     6
370
     9
100
AcDbCircle
 10
-31.94133958853345
 20
38.97625574937214
 30
0.0
 40
1.499999982049566
100
AcDbArc
 50
2.025543212890629
 51
90.00000000000001
  0
ARC
  5
22B
330
1F
100
AcDbEntity
  8
仕上
  6
Continuous
 62
     6
370
     9
100
AcDbCircle
 10
-36.98648999188393
 20
38.97625574937215
 30
0.0
 40
1.499999982049566
100
AcDbArc
 50
90.0
 51
180.0
  0
ARC
  5
22C
330
1F
100
AcDbEntity
  8
仕上
  6
Continuous
 62
     6
370
     9
100
AcDbCircle
 10
-85.34689917251407
 20
38.97625574937216
 30
0.0
 40
1.499999982049566
100
AcDbArc
 50
90.0
 51
175.1204681396484
  0
ARC
  5
22D
330
1F
100
AcDbEntity
  8
仕上
  6
Continuous
 62
     6
370
     9
100
AcDbCircle
 10
-83.79780781867416
 20
38.97625574937216
 30
0.0
 40
1.499999982049566
100
AcDbArc
 50
356.2612304687499
 51
90.0
  0
ARC
  5
22E
330
1F
100
AcDbEntity
  8
仕上
  6
Continuous
 62
     6
370
     9
100
AcDbCircle
 10
-73.01322250660778
 20
38.97625574937216
 30
0.0
 40
1.499999982049566
100
AcDbArc
 50
90.0
 51
176.26123046875
  0
ARC
  5
22F
330
1F
100
AcDbEntity
  8
仕上
  6
Continuous
 62
     6
370
     9
100
AcDbCircle
 10
-69.19622375606104
 20
38.97625574937216
 30
0.0
 40
1.499999982049566
100
AcDbArc
 50
357.9744567871094
 51
90.00000000000001
  0
ARC
  5
230
330
1F
100
AcDbEntity
  8
仕上
  6
Continuous
 62
     6
370
     9
100
AcDbCircle
 10
-56.03165936562081
 20
38.97625574937216
 30
0.0
 40
1.499999982049566
100
AcDbArc
 50
90.0
 51
177.9744567871094
  0
ARC
  5
231
330
1F
100
AcDbEntity
  8
仕上
  6
Continuous
 62
     6
370
     9
100
AcDbCircle
 10
-50.98650896227033
 20
38.97625574937215
 30
0.0
 40
1.499999982049566
100
AcDbArc
 50
0.0
 51
90.0
  0
LINE
  5
232
330
1F
100
AcDbEntity
  8
仕上
  6
Continuous
 62
     6
370
     9
100
AcDbLine
 10
-101.4625445332766
 20
23.57881401791552
 30
0.0
 11
-100.5261816960043
 21
34.03691291183593
 31
0.0
  0
LINE
  5
233
330
1F
100
AcDbEntity
  8
仕上
  6
Continuous
 62
     6
370
     9
100
AcDbLine
 10
-102.0350287301199
 20
28.39903366906781
 30
0.0
 11
-101.9457913255139
 21
29.3950630847139
 31
0.0
  0
LINE
  5
234
330
1F
100
AcDbEntity
  8
仕上
  6
Continuous
 62
     6
370
     9
100
AcDbLine
 10
-104.8162611736754
 20
29.65206680997936
 30
0.0
 11
-101.9457913255139
 21
29.3950630847139
 31
0.0
  0
LINE
  5
235
330
1F
100
AcDbEntity
  8
仕上
  6
Continuous
 62
     6
370
     9
100
AcDbLine
 10
-104.9054285881601
 20
28.65603739433322
 30
0.0
 11
-102.0350287301199
 21
28.39903366906781
 31
0.0
  0
LINE
  5
236
330
1F
100
AcDbEntity
  8
仕上
  6
Continuous
 62
     6
370
     9
100
AcDbLine
 10
-89.26512113593256
 20
25.24769346429132
 30
0.0
 11
-88.81921407338731
 21
30.22773555733999
 31
0.0
  0
LINE
  5
237
330
1F
100
AcDbEntity
  8
仕上
  6
Continuous
 62
     6
370
     9
100
AcDbLine
 10
-89.80777204358895
 20
24.79419247358941
 30
0.0
 11
-89.27269756655892
 21
30.77033397240546
 31
0.0
  0
LINE
  5
238
330
1F
100
AcDbEntity
  8
仕上
  6
Continuous
 62
     6
370
     9
100
AcDbLine
 10
-89.80777204358895
 20
24.79419247358941
 30
0.0
 11
-89.26512113593256
 21
25.24769346429132
 31
0.0
  0
LINE
  5
239
330
1F
100
AcDbEntity
  8
仕上
  6
Continuous
 62
     6
370
     9
100
AcDbLine
 10
-89.27269756655892
 20
30.77033397240546
 30
0.0
 11
-88.81921407338731
 21
30.22773555733999
 31
0.0
  0
LINE
  5
23A
330
1F
100
AcDbEntity
  8
仕上
  6
Continuous
 62
     6
370
     9
100
AcDbLine
 10
-100.7268433736558
 20
31.79589921922313
 30
0.0
 11
-89.27269756655892
 21
30.77033397240546
 31
0.0
  0
LINE
  5
23B
330
1F
100
AcDbEntity
  8
仕上
  6
Continuous
 62
     6
370
     9
100
AcDbLine
 10
-100.7714270808982
 20
31.29784951633945
 30
0.0
 11
-88.81921407338731
 21
30.22773555733999
 31
0.0
  0
LINE
  5
23C
330
1F
100
AcDbEntity
  8
仕上
  6
Continuous
 62
     6
370
     9
100
AcDbLine
 10
-101.2172816508525
 20
26.31784241835139
 30
0.0
 11
-89.26512113593256
 21
25.24769346429132
 31
0.0
  0
LINE
  5
23D
330
1F
100
AcDbEntity
  8
仕上
  6
Continuous
 62
     6
370
     9
100
AcDbLine
 10
-101.2619003531555
 20
25.81982771052832
 30
0.0
 11
-89.80777204358895
 21
24.79419247358941
 31
0.0
  0
LINE
  5
23E
330
1F
100
AcDbEntity
  8
仕上
  6
JWW_CENTER1
 62
     6
370
     9
100
AcDbLine
 10
-105.4134518833234
 20
29.20353511788686
 30
0.0
 11
-86.83000733953642
 21
27.53962497012053
 31
0.0
  0
ELLIPSE
  5
23F
330
1F
100
AcDbEntity
  8
仕上
  6
Continuous
 62
     6
370
     9
100
AcDbEllipse
 10
-100.9943631146405
 20
28.80788096240603
 30
0.0
 11
0.4681922564524583
 21
5.229061449098372
 31
0.0
210
0.0
220
0.0
230
1.0
 40
0.7428
 41
0.0
 42
1.475408288134874
  0
ELLIPSE
  5
240
330
1F
100
AcDbEntity
  8
仕上
  6
Continuous
 62
     6
370
     9
100
AcDbEllipse
 10
-100.9943631146405
 20
28.80788096240603
 30
0.0
 11
0.4681922564524583
 21
5.229061449098372
 31
0.0
210
0.0
220
0.0
230
1.0
 40
0.7428
 41
1.666184365454919
 42
3.141592653589793
  0
LINE
  5
241
330
1F
100
AcDbEntity
  8
仕上
  6
JWW_CENTER1
 62
     6
370
     9
100
AcDbLine
 10
-27.98656528428707
 20
299.708866302552
 30
0.0
 11
-20.90302258937051
 21
316.8100250632414
 31
0.0
  0
LINE
  5
242
330
1F
100
AcDbEntity
  8
仕上
  6
Continuous
 62
     6
370
     9
100
AcDbLine
 10
-27.71227399907052
 20
314.0897890103637
 30
0.0
 11
-18.01159069989174
 21
310.0715511636652
 31
0.0
  0
LINE
  5
243
330
1F
100
AcDbEntity
  8
仕上
  6
Continuous
 62
     6
370
     9
100
AcDbLine
 10
-22.94120491057286
 20
313.195962669287
 30
0.0
 11
-22.01724782229387
 21
312.8132566862392
 31
0.0
  0
LINE
  5
244
330
1F
100
AcDbEntity
  8
仕上
  6
Continuous
 62
     6
370
     9
100
AcDbLine
 10
-20.91439598407517
 20
315.4758471254945
 30
0.0
 11
-22.01724782229387
 21
312.8132566862392
 31
0.0
  0
LINE
  5
245
330
1F
100
AcDbEntity
  8
仕上
  6
Continuous
 62
     6
370
     9
100
AcDbLine
 10
-21.83830057976324
 20
315.8584918671861
 30
0.0
 11
-22.94120491057286
 21
313.195962669287
 31
0.0
  0
LINE
  5
246
330
1F
100
AcDbEntity
  8
仕上
  6
Continuous
 62
     6
370
     9
100
AcDbLine
 10
-30.03454622246583
 20
302.604200141291
 30
0.0
 11
-24.49122363351943
 21
300.3080867257165
 31
0.0
  0
LINE
  5
247
330
1F
100
AcDbEntity
  8
仕上
  6
Continuous
 62
     6
370
     9
100
AcDbLine
 10
-30.03454622246583
 20
302.604200141291
 30
0.0
 11
-29.76391192108504
 21
301.9508948519231
 31
0.0
  0
LINE
  5
248
330
1F
100
AcDbEntity
  8
仕上
  6
Continuous
 62
     6
370
     9
100
AcDbLine
 10
-24.49122363351943
 20
300.3080867257165
 30
0.0
 11
-25.1444939278267
 21
300.0374699218661
 31
0.0
  0
LINE
  5
249
330
1F
100
AcDbEntity
  8
仕上
  6
Continuous
 62
     6
370
     9
100
AcDbLine
 10
-23.45717208449905
 20
302.8044681245103
 30
0.0
 11
-24.49122363351943
 21
300.3080867257165
 31
0.0
  0
LINE
  5
24A
330
1F
100
AcDbEntity
  8
仕上
  6
Continuous
 62
     6
370
     9
100
AcDbLine
 10
-28.52715148336634
 20
304.9365859372083
 30
0.0
 11
-29.76391192108504
 21
301.9508948519231
 31
0.0
  0
LINE
  5
24B
330
1F
100
AcDbEntity
  8
仕上
  6
Continuous
 62
     6
370
     9
100
AcDbLine
 10
-29.00047717591504
 20
305.1005727913197
 30
0.0
 11
-30.03454622246583
 21
302.604200141291
 31
0.0
  0
LINE
  5
24C
330
1F
100
AcDbEntity
  8
仕上
  6
Continuous
 62
     6
370
     9
100
AcDbLine
 10
-29.76391192108504
 20
301.9508948519231
 30
0.0
 11
-25.1444939278267
 21
300.0374699218661
 31
0.0
  0
LINE
  5
24D
330
1F
100
AcDbEntity
  8
仕上
  6
JWW_DASHED1
 62
     6
370
     9
100
AcDbLine
 10
-27.30834351175073
 20
307.8788831473125
 30
0.0
 11
-28.52716898089668
 21
304.9365946859734
 31
0.0
  0
LINE
  5
24E
330
1F
100
AcDbEntity
  8
仕上
  6
JWW_DASHED1
 62
     6
370
     9
100
AcDbLine
 10
-27.75363816073501
 20
308.1105766949775
 30
0.0
 11
-29.00047717591504
 21
305.1005727913197
 31
0.0
  0
LINE
  5
24F
330
1F
100
AcDbEntity
  8
仕上
  6
JWW_DASHED1
 62
     6
370
     9
100
AcDbLine
 10
-22.68897801108336
 20
305.9654757147858
 30
0.0
 11
-23.90778598269897
 21
303.0231872534467
 31
0.0
  0
LINE
  5
250
330
1F
100
AcDbEntity
  8
仕上
  6
Continuous
 62
     6
370
     9
100
AcDbLine
 10
-25.17159760228448
 20
313.0373563057475
 30
0.0
 11
-27.30836100928107
 21
307.8788918960777
 31
0.0
  0
LINE
  5
251
330
1F
100
AcDbEntity
  8
仕上
  6
Continuous
 62
     6
370
     9
100
AcDbLine
 10
-25.63354990012856
 20
313.2287530410972
 30
0.0
 11
-27.75362066320467
 21
308.1105679462123
 31
0.0
  0
LINE
  5
252
330
1F
100
AcDbEntity
  8
仕上
  6
Continuous
 62
     6
370
     9
100
AcDbLine
 10
-20.55224959914749
 20
311.1240101145769
 30
0.0
 11
-22.68896051355303
 21
305.9654669660206
 31
0.0
  0
LINE
  5
253
330
1F
100
AcDbEntity
  8
仕上
  6
Continuous
 62
     6
370
     9
100
AcDbLine
 10
-20.09031479883375
 20
310.9326221279924
 30
0.0
 11
-22.21038556190986
 21
305.814463279403
 31
0.0
  0
LINE
  5
254
330
1F
100
AcDbEntity
  8
仕上
  6
Continuous
 62
     6
370
     9
100
AcDbLine
 10
-23.90776848516863
 20
303.0231785046816
 30
0.0
 11
-25.1444939278267
 21
300.0374699218661
 31
0.0
  0
LINE
  5
255
330
1F
100
AcDbEntity
  8
仕上
  6
JWW_DASHED1
 62
     6
370
     9
100
AcDbLine
 10
-22.21035056684927
 20
305.8144457818727
 30
0.0
 11
-22.21874938140037
 21
305.7941486467074
 31
0.0
  0
LINE
  5
256
330
1F
100
AcDbEntity
  8
仕上
  6
JWW_DASHED1
 62
     6
370
     9
100
AcDbLine
 10
-22.21874938140037
 20
305.7941486467074
 30
0.0
 11
-23.45717208449905
 21
302.8044681245103
 31
0.0
  0
ELLIPSE
  5
257
330
1F
100
AcDbEntity
  8
仕上
  6
Continuous
 62
     6
370
     9
100
AcDbEllipse
 10
-22.86192360071598
 20
312.0806613382493
 30
0.0
 11
4.850333877753077
 21
-2.009116448036203
 31
0.0
210
0.0
220
0.0
230
1.0
 40
0.7428
 41
0.0
 42
1.475408288134874
  0
ELLIPSE
  5
258
330
1F
100
AcDbEntity
  8
仕上
  6
Continuous
 62
     6
370
     9
100
AcDbEllipse
 10
-22.86192360071598
 20
312.0806613382493
 30
0.0
 11
4.850333877753077
 21
-2.009116448036203
 31
0.0
210
0.0
220
0.0
230
1.0
 40
0.7428
 41
1.666184365454919
 42
3.141592653589793
  0
LINE
  5
259
330
1F
100
AcDbEntity
  8
仕上
  6
JWW_CENTER1
 62
     2
370
     9
100
AcDbLine
 10
19.51350782828905
 20
269.1954481122845
 30
0.0
 11
19.51350782828905
 21
261.0816158373651
 31
0.0
  0
LINE
  5
25A
330
1F
100
AcDbEntity
  8
仕上
  6
JWW_CENTER1
 62
     2
370
     9
100
AcDbLine
 10
-107.4865067824433
 20
269.1954481122845
 30
0.0
 11
-107.4865067824433
 21
261.0816158373651
 31
0.0
  0
LINE
  5
25B
330
1F
100
AcDbEntity
  8
仕上
  6
Continuous
 62
     6
370
     9
100
AcDbLine
 10
-103.0695282423609
 20
261.5816847715564
 30
0.0
 11
-100.1875723052351
 21
261.5817119803089
 31
0.0
  0
LINE
  5
25C
330
1F
100
AcDbEntity
  8
仕上
  6
Continuous
 62
     6
370
     9
100
AcDbLine
 10
-87.6875523476287
 20
264.0815785998572
 30
0.0
 11
-87.18753926800461
 21
263.5815961480097
 31
0.0
  0
LINE
  5
25D
330
1F
100
AcDbEntity
  8
仕上
  6
Continuous
 62
     6
370
     9
100
AcDbLine
 10
-90.38962242333884
 20
264.0815936707359
 30
0.0
 11
-87.6875523476287
 21
264.0815785998572
 31
0.0
  0
LINE
  5
25E
330
1F
100
AcDbEntity
  8
仕上
  6
JWW_DASHED1
 62
     6
370
     9
100
AcDbLine
 10
-93.60398774794149
 20
263.5816469933774
 30
0.0
 11
-90.41925004178981
 21
263.5815805240701
 31
0.0
  0
LINE
  5
25F
330
1F
100
AcDbEntity
  8
仕上
  6
Continuous
 62
     6
370
     9
100
AcDbLine
 10
-99.1875426603751
 20
263.5816405998091
 30
0.0
 11
-93.6039863611528
 21
263.5816665069951
 31
0.0
  0
LINE
  5
260
330
1F
100
AcDbEntity
  8
仕上
  6
Continuous
 62
     6
370
     9
100
AcDbLine
 10
-99.18749804662158
 20
264.0816537187964
 30
0.0
 11
-93.64761988579355
 21
264.0815987156392
 31
0.0
  0
LINE
  5
261
330
1F
100
AcDbEntity
  8
仕上
  6
Continuous
 62
     6
370
     9
100
AcDbLine
 10
-90.41924865500104
 20
263.5816000376878
 30
0.0
 11
-87.18753926800461
 21
263.5815961480097
 31
0.0
  0
LINE
  5
262
330
1F
100
AcDbEntity
  8
仕上
  6
JWW_DASHED1
 62
     6
370
     9
100
AcDbLine
 10
-93.64761711221607
 20
264.0816377428746
 30
0.0
 11
-93.62565091728857
 21
264.0816456288993
 31
0.0
  0
LINE
  5
263
330
1F
100
AcDbEntity
  8
仕上
  6
JWW_DASHED1
 62
     6
370
     9
100
AcDbLine
 10
-93.62565091728857
 20
264.0816456288993
 30
0.0
 11
-90.38962242333884
 21
264.0815936707359
 31
0.0
  0
ELLIPSE
  5
264
330
1F
100
AcDbEntity
  8
仕上
  6
Continuous
 62
     6
370
     9
100
AcDbEllipse
 10
-99.18749899658349
 20
261.0816854891384
 30
0.0
 11
3.878179947056352E-5
 21
5.249979773860542
 31
0.0
210
0.0
220
0.0
230
1.0
 40
0.7428
 41
0.0
 42
1.475408288134874
  0
LINE
  5
265
330
1F
100
AcDbEntity
  8
仕上
  6
Continuous
 62
     6
370
     9
100
AcDbLine
 10
-100.1875678472298
 20
261.0816158373651
 30
0.0
 11
-100.1875723052351
 21
261.5817119803089
 31
0.0
  0
LINE
  5
266
330
1F
100
AcDbEntity
  8
仕上
  6
Continuous
 62
     6
370
     9
100
AcDbLine
 10
-99.18750373180274
 20
261.0816158373651
 30
0.0
 11
-99.18746563684326
 21
266.3316619596878
 31
0.0
  0
LINE
  5
267
330
1F
100
AcDbEntity
  8
仕上
  6
Continuous
 62
     6
370
     9
100
AcDbLine
 10
-87.68754937521209
 20
261.0816158373651
 30
0.0
 11
-87.6875523476287
 21
264.0815785998572
 31
0.0
  0
LINE
  5
268
330
1F
100
AcDbEntity
  8
仕上
  6
Continuous
 62
     6
370
     9
100
AcDbLine
 10
-87.18753879182044
 20
261.0816158373651
 30
0.0
 11
-87.18753926800461
 21
263.5815961480097
 31
0.0
  0
LINE
  5
269
330
1F
100
AcDbEntity
  8
建具
  6
Continuous
 62
     4
370
     9
100
AcDbLine
 10
-100.9864892259988
 20
-103.8237487752417
 30
0.0
 11
13.01349027184448
 21
-103.8237487752417
 31
0.0
  0
LINE
  5
26A
330
1F
100
AcDbEntity
  8
建具
  6
Continuous
 62
     7
370
     9
100
AcDbLine
 10
-90.42222009018133
 20
-80.21713615803237
 30
0.0
 11
-107.9191353403924
 21
-83.30225298262062
 31
0.0
  0
LINE
  5
26B
330
1F
100
AcDbEntity
  8
建具
  6
Continuous
 62
     7
370
     9
100
AcDbLine
 10
-89.55400324051914
 20
-85.14120100046269
 30
0.0
 11
-107.0509184907302
 21
-88.22635494102433
 31
0.0
  0
LINE
  5
26C
330
1F
100
AcDbEntity
  8
建具
  6
Continuous
 62
     7
370
     9
100
AcDbLine
 10
20.07776341383047
 20
-80.21713615803237
 30
0.0
 11
2.580848163619379
 21
-83.30225298262062
 31
0.0
  0
LINE
  5
26D
330
1F
100
AcDbEntity
  8
建具
  6
Continuous
 62
     7
370
     9
100
AcDbLine
 10
20.94598026349266
 20
-85.14120100046269
 30
0.0
 11
3.449065013281569
 21
-88.22635494102433
 31
0.0
  0
LINE
  5
26E
330
1F
100
AcDbEntity
  8
建具
  6
Continuous
 62
     4
370
     9
100
AcDbLine
 10
-100.9864892259988
 20
-28.82355966052018
 30
0.0
 11
-100.9864892259988
 21
-82.07986475814921
 31
0.0
  0
LINE
  5
26F
330
1F
100
AcDbEntity
  8
建具
  6
Continuous
 62
     4
370
     9
100
AcDbLine
 10
-100.9864892259988
 20
-87.15704086046844
 30
0.0
 11
-100.9864892259988
 21
-103.8237487752417
 31
0.0
  0
LINE
  5
270
330
1F
100
AcDbEntity
  8
建具
  6
Continuous
 62
     4
370
     9
100
AcDbLine
 10
-97.48649323216735
 20
-28.82355966052018
 30
0.0
 11
-97.48649323216736
 21
-81.46273331685526
 31
0.0
  0
LINE
  5
271
330
1F
100
AcDbEntity
  8
建具
  6
Continuous
 62
     4
370
     9
100
AcDbLine
 10
-97.48649323216736
 20
-86.5399019946796
 30
0.0
 11
-97.48649323216736
 21
-103.8237487752417
 31
0.0
  0
LINE
  5
272
330
1F
100
AcDbEntity
  8
建具
  6
Continuous
 62
     4
370
     9
100
AcDbLine
 10
9.51349427801303
 20
-28.8235596605202
 30
0.0
 11
9.513494278013015
 21
-82.07986475814921
 31
0.0
  0
LINE
  5
273
330
1F
100
AcDbEntity
  8
建具
  6
Continuous
 62
     4
370
     9
100
AcDbLine
 10
9.513494278013013
 20
-87.15704086046844
 30
0.0
 11
9.513494278013008
 21
-103.8237487752417
 31
0.0
  0
LINE
  5
274
330
1F
100
AcDbEntity
  8
建具
  6
Continuous
 62
     4
370
     9
100
AcDbLine
 10
13.01349027184451
 20
-28.8235596605202
 30
0.0
 11
13.01349027184449
 21
-81.46273331685526
 31
0.0
  0
LINE
  5
275
330
1F
100
AcDbEntity
  8
建具
  6
Continuous
 62
     4
370
     9
100
AcDbLine
 10
13.01349027184449
 20
-86.53990199467958
 30
0.0
 11
13.01349027184448
 21
-103.8237487752417
 31
0.0
  0
TEXT
  5
276
330
1F
100
AcDbEntity
  8
寸法
  6
Continuous
 62
     7
370
     0
100
AcDbText
 10
-221.320411937641
 20
-62.37302467883439
 30
0.0
 40
6.858000000000001
  1
酸　洗
 41
1.111111111111111
  7
ＭＳ ゴシック
100
AcDbText
  0
TEXT
  5
277
330
1F
100
AcDbEntity
  8
寸法
  6
Continuous
 62
     7
370
     0
100
AcDbText
 10
123.8382277604604
 20
126.3071538810078
 30
0.0
 40
6.858000000000001
  1
研　磨
 41
1.111111111111111
  7
ＭＳ ゴシック
100
AcDbText
  0
TEXT
  5
278
330
1F
100
AcDbEntity
  8
F-4ﾚｲﾔ
  6
Continuous
 62
     6
370
     0
100
AcDbText
 10
-35.9707025110345
 20
-331.9497524363367
 30
0.0
 40
9.144
  1
ステンレス製ルーフドレン　たて引き用　打込型　差し込み式
 41
0.6991071428571429
  7
ＭＳ ゴシック
100
AcDbText
  0
TEXT
  5
279
330
1F
100
AcDbEntity
  8
F-5ﾚｲﾔ
  6
Continuous
 62
     2
370
   211
100
AcDbText
 10
-38.8195007652745
 20
-275.3280829408534
 30
0.0
 40
9.144
  1
※ご注文の際はＣ寸法をご指示ください。
 41
1.118421052631579
  7
ＭＳ ゴシック
100
AcDbText
  0
TEXT
  5
27A
330
1F
100
AcDbEntity
  8
F-4ﾚｲﾔ
  6
Continuous
 62
     6
370
     0
100
AcDbText
 10
-34.80665806437497
 20
-346.5003080195806
 30
0.0
 40
9.144
  1
塗膜・モルタル防水用　　　　ＥＢＭＢ－１－７５　Ｃ＝指示
 41
0.6991071428571429
  7
ＭＳ ゴシック
100
AcDbText
  0
TEXT
  5
27B
330
1F
100
AcDbEntity
  8
その他
  6
Continuous
 62
     2
370
   211
100
AcDbText
 10
99.81319466091426
 20
-59.82371601892238
 30
0.0
 40
9.144
  1
Ｃ
 50
90.0
  7
ＭＳ ゴシック
100
AcDbText
  0
TEXT
  5
27C
330
1F
100
AcDbEntity
  8
寸法
  6
Continuous
 62
     7
370
     0
100
AcDbText
 10
-227.5987261879696
 20
-164.3046634421991
 30
0.0
 40
6.858000000000001
  1
硬質ポリ塩化ビニル
 41
1.148148148148148
  7
ＭＳ ゴシック
100
AcDbText
  0
TEXT
  5
27D
330
1F
100
AcDbEntity
  8
寸法
  6
Continuous
 62
     7
370
     0
100
AcDbText
 10
64.97349538553532
 20
80.63509716480495
 30
0.0
 40
6.858000000000001
  1
ナット：ＳＵＳ３０４
 41
1.15
  7
ＭＳ ゴシック
100
AcDbText
  0
LINE
  5
27E
330
1F
100
AcDbEntity
  8
寸法
  6
Continuous
 62
     7
370
     9
100
AcDbLine
 10
170.2449131257735
 20
75.60584910348767
 30
0.0
 11
63.69556688333889
 21
75.60584910348767
 31
0.0
  0
TEXT
  5
27F
330
1F
100
AcDbEntity
  8
寸法
  6
Continuous
 62
     7
370
     0
100
AcDbText
 10
107.2202400045562
 20
65.14237856532252
 30
0.0
 40
6.858000000000001
  1
Ｍ６
 41
1.083333333333333
  7
ＭＳ ゴシック
100
AcDbText
  0
TEXT
  5
280
330
1F
100
AcDbEntity
  8
寸法
  6
Continuous
 62
     7
370
     9
100
AcDbText
 10
-264.4460692630212
 20
120.1740782655721
 30
0.0
 40
6.858000000000001
  1
丸小ねじ：ＳＵＳ３０４
 41
1.151515151515151
  7
ＭＳ ゴシック
100
AcDbText
  0
ENDSEC
  0
SECTION
  2
OBJECTS
  0
DICTIONARY
  5
C
330
0
100
AcDbDictionary
281
     1
  3
ACAD_DETAILVIEWSTYLE
350
2C6
  3
ACAD_GROUP
350
D
  3
ACAD_LAYOUT
350
1A
  3
ACAD_MATERIAL
350
43
  3
ACAD_MLEADERSTYLE
350
6B
  3
ACAD_MLINESTYLE
350
17
  3
ACAD_PLOTSETTINGS
350
19
  3
ACAD_PLOTSTYLENAME
350
E
  3
ACAD_SCALELIST
350
47
  3
ACAD_SECTIONVIEWSTYLE
350
2C7
  3
ACAD_TABLESTYLE
350
69
  3
ACAD_VISUALSTYLE
350
2A
  3
ACDB_RECOMPOSE_DATA
350
2C3
  3
AcDbVariableDictionary
350
283
  0
DICTIONARY
  5
281
330
8
100
AcDbDictionary
280
     1
281
     1
  3
ACAD_XREC_ROUNDTRIP
360
282
  0
DICTIONARY
  5
2C6
102
{ACAD_REACTORS
330
C
102
}
330
C
100
AcDbDictionary
281
     1
  0
DICTIONARY
  5
D
102
{ACAD_REACTORS
330
C
102
}
330
C
100
AcDbDictionary
281
     1
  0
DICTIONARY
  5
1A
102
{ACAD_REACTORS
330
C
102
}
330
C
100
AcDbDictionary
281
     1
  3
Layout1
350
1E
  3
Layout2
350
26
  3
Model
350
22
  0
DICTIONARY
  5
43
102
{ACAD_REACTORS
330
C
102
}
330
C
100
AcDbDictionary
281
     1
  3
ByBlock
350
45
  3
ByLayer
350
44
  3
Global
350
46
  0
DICTIONARY
  5
6B
102
{ACAD_REACTORS
330
C
102
}
330
C
100
AcDbDictionary
281
     1
  3
Standard
350
6C
  0
DICTIONARY
  5
17
102
{ACAD_REACTORS
330
C
102
}
330
C
100
AcDbDictionary
281
     1
  3
Standard
350
18
  0
DICTIONARY
  5
19
102
{ACAD_REACTORS
330
C
102
}
330
C
100
AcDbDictionary
281
     1
  0
ACDBDICTIONARYWDFLT
  5
E
102
{ACAD_REACTORS
330
C
102
}
330
C
100
AcDbDictionary
281
     1
  3
Normal
350
F
100
AcDbDictionaryWithDefault
340
F
  0
DICTIONARY
  5
47
102
{ACAD_REACTORS
330
C
102
}
330
C
100
AcDbDictionary
281
     1
  3
A0
350
48
  3
A1
350
49
  3
A2
350
4A
  3
A3
350
4B
  3
A4
350
4C
  3
A5
350
4D
  3
A6
350
4E
  3
A7
350
4F
  3
A8
350
50
  3
A9
350
51
  3
B0
350
52
  3
B1
350
53
  3
B2
350
54
  3
B3
350
55
  3
B4
350
56
  3
B5
350
57
  3
B6
350
58
  3
B7
350
59
  3
B8
350
5A
  3
B9
350
5B
  3
C0
350
5C
  3
C1
350
5D
  3
C2
350
5E
  3
C3
350
5F
  3
C4
350
60
  3
C5
350
61
  3
C6
350
62
  3
C7
350
63
  3
C8
350
64
  3
C9
350
65
  3
D0
350
66
  3
D1
350
67
  3
D2
350
68
  0
DICTIONARY
  5
2C7
102
{ACAD_REACTORS
330
C
102
}
330
C
100
AcDbDictionary
281
     1
  0
DICTIONARY
  5
69
102
{ACAD_REACTORS
330
C
102
}
330
C
100
AcDbDictionary
281
     1
  3
Standard
350
6A
  0
DICTIONARY
  5
2A
102
{ACAD_REACTORS
330
C
102
}
330
C
100
AcDbDictionary
281
     1
  3
2dWireframe
350
2F
  3
Basic
350
32
  3
Brighten
350
36
  3
ColorChange
350
3A
  3
Conceptual
350
34
  3
Dim
350
35
  3
EdgeColorOff
350
3D
  3
Facepattern
350
39
  3
Flat
350
2B
  3
FlatWithEdges
350
2C
  3
Gouraud
350
2D
  3
GouraudWithEdges
350
2E
  3
Hidden
350
31
  3
JitterOff
350
3B
  3
Linepattern
350
38
  3
OverhangOff
350
3C
  3
Realistic
350
33
  3
Shaded
350
42
  3
Shaded with edges
350
41
  3
Shades of Gray
350
3E
  3
Sketchy
350
3F
  3
Thicken
350
37
  3
Wireframe
350
30
  3
X-Ray
350
40
  0
XRECORD
  5
2C3
102
{ACAD_REACTORS
330
C
102
}
330
C
100
AcDbXrecord
280
     1
 90
        1
330
6A
  0
DICTIONARY
  5
283
102
{ACAD_REACTORS
330
C
102
}
330
C
100
AcDbDictionary
281
     1
  3
CANNOSCALE
350
284
  3
CENTEREXE
350
2C8
  3
CENTERLTYPEFILE
350
2C9
  3
CMLEADERSTYLE
350
2C5
  3
CTABLESTYLE
350
2C4
  3
MSLTSCALE
350
285
  3
XCLIPFRAME
350
286
  0
XRECORD
  5
282
102
{ACAD_REACTORS
330
281
102
}
330
281
100
AcDbXrecord
280
     1
102
VTR_0.000_0.000_1.000_1.000_VISUALSTYLE
340
2F
102
VTR_0.000_0.000_1.000_1.000_GRIDDISPLAY
 70
     3
102
VTR_0.000_0.000_1.000_1.000_GRIDMAJOR
 70
     5
102
VTR_0.000_0.000_1.000_1.000_DEFAULTLIGHTING
280
     1
102
VTR_0.000_0.000_1.000_1.000_DEFAULTLIGHTINGTYPE
 70
     1
102
VTR_0.000_0.000_1.000_1.000_BRIGHTNESS
141
0.0
102
VTR_0.000_0.000_1.000_1.000_CONTRAST
142
0.0
  0
LAYOUT
  5
1E
102
{ACAD_REACTORS
330
1A
102
}
330
1A
100
AcDbPlotSettings
  1

  2
none_device
  4

  6

 40
0.0
 41
0.0
 42
0.0
 43
0.0
 44
0.0
 45
0.0
 46
0.0
 47
0.0
 48
0.0
 49
0.0
140
0.0
141
0.0
142
1.0
143
1.0
 70
   688
 72
     1
 73
     0
 74
     5
  7

 75
    16
 76
     0
 77
     5
 78
   300
147
1.0
148
0.0
149
0.0
100
AcDbLayout
  1
Layout1
 70
     1
 71
     1
 10
0.0
 20
0.0
 11
420.0
 21
297.0
 12
0.0
 22
0.0
 32
0.0
 14
1.000000000000000E+20
 24
1.000000000000000E+20
 34
1.000000000000000E+20
 15
-1.000000000000000E+20
 25
-1.000000000000000E+20
 35
-1.000000000000000E+20
146
0.0
 13
0.0
 23
0.0
 33
0.0
 16
1.0
 26
0.0
 36
0.0
 17
0.0
 27
1.0
 37
0.0
 76
     0
330
1B
  0
LAYOUT
  5
26
102
{ACAD_REACTORS
330
1A
102
}
330
1A
100
AcDbPlotSettings
  1

  2
none_device
  4

  6

 40
0.0
 41
0.0
 42
0.0
 43
0.0
 44
0.0
 45
0.0
 46
0.0
 47
0.0
 48
0.0
 49
0.0
140
0.0
141
0.0
142
1.0
143
1.0
 70
   688
 72
     1
 73
     0
 74
     5
  7

 75
    16
 76
     0
 77
     5
 78
   300
147
1.0
148
0.0
149
0.0
100
AcDbLayout
  1
Layout2
 70
     1
 71
     2
 10
0.0
 20
0.0
 11
0.0
 21
0.0
 12
0.0
 22
0.0
 32
0.0
 14
0.0
 24
0.0
 34
0.0
 15
0.0
 25
0.0
 35
0.0
146
0.0
 13
0.0
 23
0.0
 33
0.0
 16
1.0
 26
0.0
 36
0.0
 17
0.0
 27
1.0
 37
0.0
 76
     0
330
23
  0
LAYOUT
  5
22
102
{ACAD_REACTORS
330
1A
102
}
330
1A
100
AcDbPlotSettings
  1

  2
none_device
  4
Letter_(8.50_x_11.00_Inches)
  6

 40
6.35
 41
6.35
 42
6.35000508
 43
6.35000508
 44
215.9
 45
279.4
 46
0.0
 47
0.0
 48
0.0
 49
0.0
140
0.0
141
0.0
142
1.0
143
1.0
 70
  1712
 72
     1
 73
     0
 74
     0
  7

 75
     0
 76
     0
 77
     5
 78
   300
147
1.0
148
0.0
149
0.0
100
AcDbLayout
  1
Model
 70
     1
 71
     0
 10
-630.0
 20
-445.5
 11
630.0
 21
445.5
 12
0.0
 22
0.0
 32
0.0
 14
-630.0
 24
-445.5
 34
0.0
 15
630.0
 25
445.5
 35
0.0
146
0.0
 13
0.0
 23
0.0
 33
0.0
 16
1.0
 26
0.0
 36
0.0
 17
0.0
 27
1.0
 37
0.0
 76
     0
330
1F
331
29
  0
MATERIAL
  5
45
102
{ACAD_REACTORS
330
43
102
}
102
{ACAD_XDICTIONARY
360
2B9
102
}
330
43
100
AcDbMaterial
  1
ByBlock
  0
MATERIAL
  5
44
102
{ACAD_REACTORS
330
43
102
}
102
{ACAD_XDICTIONARY
360
2B7
102
}
330
43
100
AcDbMaterial
  1
ByLayer
  0
MATERIAL
  5
46
102
{ACAD_REACTORS
330
43
102
}
102
{ACAD_XDICTIONARY
360
2BB
102
}
330
43
100
AcDbMaterial
  1
Global
  0
MLEADERSTYLE
  5
6C
102
{ACAD_REACTORS
330
6B
102
}
102
{ACAD_XDICTIONARY
360
2C1
102
}
330
6B
100
AcDbMLeaderStyle
170
     2
171
     1
172
     0
 90
        2
 40
0.0
 41
0.0
173
     1
 91
-1056964608
340
14
 92
       -2
290
     1
 42
2.0
291
     1
 43
8.0
  3
Standard
341
0
 44
4.0
300

342
11
174
     1
178
     6
175
     1
176
     0
 93
-1056964608
 45
4.0
292
     0
297
     0
 46
4.0
343
0
 94
-1056964608
 47
1.0
 49
1.0
140
1.0
293
     1
141
0.0
294
     1
177
     0
142
1.0
295
     0
296
     0
143
3.75
1001
ACAD_MLEADERVER
1070
     2
  0
MLINESTYLE
  5
18
102
{ACAD_REACTORS
330
17
102
}
330
17
100
AcDbMlineStyle
  2
Standard
 70
     0
  3

 62
   256
 51
90.0
 52
90.0
 71
     2
 49
0.5
 62
   256
  6
BYLAYER
 49
-0.5
 62
   256
  6
BYLAYER
  0
ACDBPLACEHOLDER
  5
F
102
{ACAD_REACTORS
330
E
102
}
330
E
  0
SCALE
  5
48
102
{ACAD_REACTORS
330
47
102
}
330
47
100
AcDbScale
 70
     0
300
1:1
140
1.0
141
1.0
290
     1
  0
SCALE
  5
49
102
{ACAD_REACTORS
330
47
102
}
330
47
100
AcDbScale
 70
     0
300
1:2
140
1.0
141
2.0
290
     0
  0
SCALE
  5
4A
102
{ACAD_REACTORS
330
47
102
}
330
47
100
AcDbScale
 70
     0
300
1:4
140
1.0
141
4.0
290
     0
  0
SCALE
  5
4B
102
{ACAD_REACTORS
330
47
102
}
330
47
100
AcDbScale
 70
     0
300
1:5
140
1.0
141
5.0
290
     0
  0
SCALE
  5
4C
102
{ACAD_REACTORS
330
47
102
}
330
47
100
AcDbScale
 70
     0
300
1:8
140
1.0
141
8.0
290
     0
  0
SCALE
  5
4D
102
{ACAD_REACTORS
330
47
102
}
330
47
100
AcDbScale
 70
     0
300
1:10
140
1.0
141
10.0
290
     0
  0
SCALE
  5
4E
102
{ACAD_REACTORS
330
47
102
}
330
47
100
AcDbScale
 70
     0
300
1:16
140
1.0
141
16.0
290
     0
  0
SCALE
  5
4F
102
{ACAD_REACTORS
330
47
102
}
330
47
100
AcDbScale
 70
     0
300
1:20
140
1.0
141
20.0
290
     0
  0
SCALE
  5
50
102
{ACAD_REACTORS
330
47
102
}
330
47
100
AcDbScale
 70
     0
300
1:30
140
1.0
141
30.0
290
     0
  0
SCALE
  5
51
102
{ACAD_REACTORS
330
47
102
}
330
47
100
AcDbScale
 70
     0
300
1:40
140
1.0
141
40.0
290
     0
  0
SCALE
  5
52
102
{ACAD_REACTORS
330
47
102
}
330
47
100
AcDbScale
 70
     0
300
1:50
140
1.0
141
50.0
290
     0
  0
SCALE
  5
53
102
{ACAD_REACTORS
330
47
102
}
330
47
100
AcDbScale
 70
     0
300
1:100
140
1.0
141
100.0
290
     0
  0
SCALE
  5
54
102
{ACAD_REACTORS
330
47
102
}
330
47
100
AcDbScale
 70
     0
300
2:1
140
2.0
141
1.0
290
     0
  0
SCALE
  5
55
102
{ACAD_REACTORS
330
47
102
}
330
47
100
AcDbScale
 70
     0
300
4:1
140
4.0
141
1.0
290
     0
  0
SCALE
  5
56
102
{ACAD_REACTORS
330
47
102
}
330
47
100
AcDbScale
 70
     0
300
8:1
140
8.0
141
1.0
290
     0
  0
SCALE
  5
57
102
{ACAD_REACTORS
330
47
102
}
330
47
100
AcDbScale
 70
     0
300
10:1
140
10.0
141
1.0
290
     0
  0
SCALE
  5
58
102
{ACAD_REACTORS
330
47
102
}
330
47
100
AcDbScale
 70
     0
300
100:1
140
100.0
141
1.0
290
     0
  0
SCALE
  5
59
102
{ACAD_REACTORS
330
47
102
}
330
47
100
AcDbScale
 70
     0
300
1/128" = 1'-0"
140
0.0078125
141
12.0
290
     0
  0
SCALE
  5
5A
102
{ACAD_REACTORS
330
47
102
}
330
47
100
AcDbScale
 70
     0
300
1/64" = 1'-0"
140
0.015625
141
12.0
290
     0
  0
SCALE
  5
5B
102
{ACAD_REACTORS
330
47
102
}
330
47
100
AcDbScale
 70
     0
300
1/32" = 1'-0"
140
0.03125
141
12.0
290
     0
  0
SCALE
  5
5C
102
{ACAD_REACTORS
330
47
102
}
330
47
100
AcDbScale
 70
     0
300
1/16" = 1'-0"
140
0.0625
141
12.0
290
     0
  0
SCALE
  5
5D
102
{ACAD_REACTORS
330
47
102
}
330
47
100
AcDbScale
 70
     0
300
3/32" = 1'-0"
140
0.09375
141
12.0
290
     0
  0
SCALE
  5
5E
102
{ACAD_REACTORS
330
47
102
}
330
47
100
AcDbScale
 70
     0
300
1/8" = 1'-0"
140
0.125
141
12.0
290
     0
  0
SCALE
  5
5F
102
{ACAD_REACTORS
330
47
102
}
330
47
100
AcDbScale
 70
     0
300
3/16" = 1'-0"
140
0.1875
141
12.0
290
     0
  0
SCALE
  5
60
102
{ACAD_REACTORS
330
47
102
}
330
47
100
AcDbScale
 70
     0
300
1/4" = 1'-0"
140
0.25
141
12.0
290
     0
  0
SCALE
  5
61
102
{ACAD_REACTORS
330
47
102
}
330
47
100
AcDbScale
 70
     0
300
3/8" = 1'-0"
140
0.375
141
12.0
290
     0
  0
SCALE
  5
62
102
{ACAD_REACTORS
330
47
102
}
330
47
100
AcDbScale
 70
     0
300
1/2" = 1'-0"
140
0.5
141
12.0
290
     0
  0
SCALE
  5
63
102
{ACAD_REACTORS
330
47
102
}
330
47
100
AcDbScale
 70
     0
300
3/4" = 1'-0"
140
0.75
141
12.0
290
     0
  0
SCALE
  5
64
102
{ACAD_REACTORS
330
47
102
}
330
47
100
AcDbScale
 70
     0
300
1" = 1'-0"
140
1.0
141
12.0
290
     0
  0
SCALE
  5
65
102
{ACAD_REACTORS
330
47
102
}
330
47
100
AcDbScale
 70
     0
300
1-1/2" = 1'-0"
140
1.5
141
12.0
290
     0
  0
SCALE
  5
66
102
{ACAD_REACTORS
330
47
102
}
330
47
100
AcDbScale
 70
     0
300
3" = 1'-0"
140
3.0
141
12.0
290
     0
  0
SCALE
  5
67
102
{ACAD_REACTORS
330
47
102
}
330
47
100
AcDbScale
 70
     0
300
6" = 1'-0"
140
6.0
141
12.0
290
     0
  0
SCALE
  5
68
102
{ACAD_REACTORS
330
47
102
}
330
47
100
AcDbScale
 70
     0
300
1'-0" = 1'-0"
140
12.0
141
12.0
290
     0
  0
TABLESTYLE
  5
6A
102
{ACAD_REACTORS
330
69
102
}
102
{ACAD_XDICTIONARY
360
2BD
102
}
330
69
100
AcDbTableStyle
  3
Standard
 70
     0
 71
     0
 40
0.06
 41
0.06
280
     0
281
     0
  7
Standard
140
4.5
170
     2
 62
     0
 63
   257
283
     0
274
    -2
284
     1
 64
     0
275
    -2
285
     1
 65
     0
276
    -2
286
     1
 66
     0
277
    -2
287
     1
 67
     0
278
    -2
288
     1
 68
     0
279
    -2
289
     1
 69
     0
  7
Standard
140
6.0
170
     5
 62
     0
 63
   257
283
     0
274
    -2
284
     1
 64
     0
275
    -2
285
     1
 65
     0
276
    -2
286
     1
 66
     0
277
    -2
287
     1
 67
     0
278
    -2
288
     1
 68
     0
279
    -2
289
     1
 69
     0
  7
Standard
140
4.5
170
     5
 62
     0
 63
   257
283
     0
274
    -2
284
     1
 64
     0
275
    -2
285
     1
 65
     0
276
    -2
286
     1
 66
     0
277
    -2
287
     1
 67
     0
278
    -2
288
     1
 68
     0
279
    -2
289
     1
 69
     0
  0
VISUALSTYLE
  5
2F
102
{ACAD_REACTORS
330
2A
102
}
102
{ACAD_XDICTIONARY
360
28F
102
}
330
2A
100
AcDbVisualStyle
  2
2dWireframe
 70
     4
 71
     0
 72
     2
 73
     0
 90
        0
 40
0.6
 41
30.0
 62
     5
 63
     7
421
 16777215
 74
     1
 91
        4
 64
     7
 65
   257
 75
     1
175
     1
 42
1.0
 92
        0
 66
   257
 43
1.0
 76
     1
 77
     6
 78
     2
 67
     7
 79
     5
170
     0
171
     0
290
     0
174
     0
 93
        1
 44
0.0
173
     0
291
     0
 45
0.0
1001
ACAD
1000
AcDbSavedByObjectVersion
1070
     0
  0
VISUALSTYLE
  5
32
102
{ACAD_REACTORS
330
2A
102
}
102
{ACAD_XDICTIONARY
360
295
102
}
330
2A
100
AcDbVisualStyle
  2
Basic
 70
     7
 71
     1
 72
     0
 73
     1
 90
        0
 40
0.6
 41
30.0
 62
     5
 63
     7
421
 16777215
 74
     0
 91
        4
 64
     7
 65
   257
 75
     1
175
     1
 42
1.0
 92
        8
 66
     7
 43
1.0
 76
     1
 77
     6
 78
     2
 67
     7
 79
     5
170
     0
171
     0
290
     0
174
     0
 93
        1
 44
0.0
173
     0
291
     1
 45
0.0
1001
ACAD
1000
AcDbSavedByObjectVersion
1070
     0
  0
VISUALSTYLE
  5
36
102
{ACAD_REACTORS
330
2A
102
}
102
{ACAD_XDICTIONARY
360
29D
102
}
330
2A
100
AcDbVisualStyle
  2
Brighten
 70
    12
 71
     2
 72
     2
 73
     0
 90
        0
 40
0.6
 41
30.0
 62
     5
 63
     7
421
 16777215
 74
     1
 91
        4
 64
     7
 65
   257
 75
     1
175
     1
 42
1.0
 92
        8
 66
     7
 43
1.0
 76
     1
 77
     6
 78
     2
 67
     7
 79
     5
170
     0
171
     0
290
     0
174
     0
 93
        1
 44
50.0
173
     0
291
     1
 45
0.0
1001
ACAD
1000
AcDbSavedByObjectVersion
1070
     0
  0
VISUALSTYLE
  5
3A
102
{ACAD_REACTORS
330
2A
102
}
102
{ACAD_XDICTIONARY
360
2A5
102
}
330
2A
100
AcDbVisualStyle
  2
ColorChange
 70
    16
 71
     2
 72
     2
 73
     3
 90
        0
 40
0.6
 41
30.0
 62
     5
 63
     8
421
  8421504
 74
     1
 91
        4
 64
     7
 65
   257
 75
     1
175
     1
 42
1.0
 92
        8
 66
     8
424
  8421504
 43
1.0
 76
     1
 77
     6
 78
     2
 67
     7
 79
     5
170
     0
171
     0
290
     0
174
     0
 93
        1
 44
0.0
173
     0
291
     1
 45
0.0
1001
ACAD
1000
AcDbSavedByObjectVersion
1070
     0
  0
VISUALSTYLE
  5
34
102
{ACAD_REACTORS
330
2A
102
}
102
{ACAD_XDICTIONARY
360
299
102
}
330
2A
100
AcDbVisualStyle
  2
Conceptual
 70
     9
 71
     3
 72
     2
 73
     0
 90
        0
 40
0.6
 41
30.0
 62
     5
 63
     7
421
 16777215
 74
     2
 91
        2
 64
     7
 65
   257
 75
     1
175
     1
 42
179.0
 92
        8
 66
     7
 43
1.0
 76
     1
 77
     6
 78
     2
 67
     7
 79
     3
170
     0
171
     0
290
     0
174
     0
 93
        1
 44
0.0
173
     0
291
     0
 45
0.0
1001
ACAD
1000
AcDbSavedByObjectVersion
1070
     0
  0
VISUALSTYLE
  5
35
102
{ACAD_REACTORS
330
2A
102
}
102
{ACAD_XDICTIONARY
360
29B
102
}
330
2A
100
AcDbVisualStyle
  2
Dim
 70
    11
 71
     2
 72
     2
 73
     0
 90
        0
 40
0.6
 41
30.0
 62
     5
 63
     7
421
 16777215
 74
     1
 91
        4
 64
     7
 65
   257
 75
     1
175
     1
 42
1.0
 92
        8
 66
     7
 43
1.0
 76
     1
 77
     6
 78
     2
 67
     7
 79
     5
170
     0
171
     0
290
     0
174
     0
 93
        1
 44
-50.0
173
     0
291
     1
 45
0.0
1001
ACAD
1000
AcDbSavedByObjectVersion
1070
     0
  0
VISUALSTYLE
  5
3D
102
{ACAD_REACTORS
330
2A
102
}
102
{ACAD_XDICTIONARY
360
2AB
102
}
330
2A
100
AcDbVisualStyle
  2
EdgeColorOff
 70
    22
 71
     2
 72
     2
 73
     0
 90
        0
 40
0.6
 41
30.0
 62
     5
 63
     7
421
 16777215
 74
     1
 91
        4
 64
     7
 65
   257
 75
     1
175
     1
 42
1.0
 92
        8
 66
     7
 43
1.0
 76
     1
 77
     6
 78
     2
 67
     7
 79
     5
170
     0
171
     0
290
     0
174
     0
 93
        1
 44
0.0
173
     0
291
     1
 45
0.0
1001
ACAD
1000
AcDbSavedByObjectVersion
1070
     0
  0
VISUALSTYLE
  5
39
102
{ACAD_REACTORS
330
2A
102
}
102
{ACAD_XDICTIONARY
360
2A3
102
}
330
2A
100
AcDbVisualStyle
  2
Facepattern
 70
    15
 71
     2
 72
     2
 73
     0
 90
        0
 40
0.6
 41
30.0
 62
     5
 63
     7
421
 16777215
 74
     1
 91
        4
 64
     7
 65
   257
 75
     1
175
     1
 42
1.0
 92
        8
 66
     7
 43
1.0
 76
     1
 77
     6
 78
     2
 67
     7
 79
     5
170
     0
171
     0
290
     0
174
     0
 93
        1
 44
0.0
173
     0
291
     1
 45
0.0
1001
ACAD
1000
AcDbSavedByObjectVersion
1070
     0
  0
VISUALSTYLE
  5
2B
102
{ACAD_REACTORS
330
2A
102
}
102
{ACAD_XDICTIONARY
360
287
102
}
330
2A
100
AcDbVisualStyle
  2
Flat
 70
     0
 71
     2
 72
     1
 73
     1
 90
        2
 40
0.6
 41
30.0
 62
     5
 63
     7
421
 16777215
 74
     0
 91
        0
 64
     7
 65
   257
 75
     1
175
     1
 42
1.0
 92
        8
 66
     7
 43
1.0
 76
     1
 77
     6
 78
     2
 67
     7
 79
     5
170
     0
171
     0
290
     0
174
     0
 93
       13
 44
0.0
173
     0
291
     1
 45
0.0
1001
ACAD
1000
AcDbSavedByObjectVersion
1070
     0
  0
VISUALSTYLE
  5
2C
102
{ACAD_REACTORS
330
2A
102
}
102
{ACAD_XDICTIONARY
360
289
102
}
330
2A
100
AcDbVisualStyle
  2
FlatWithEdges
 70
     1
 71
     2
 72
     1
 73
     1
 90
        2
 40
0.6
 41
30.0
 62
     5
 63
     7
421
 16777215
 74
     1
 91
        0
 64
     7
 65
   257
 75
     1
175
     1
 42
1.0
 92
        0
 66
   257
 43
1.0
 76
     1
 77
     6
 78
     2
 67
     7
 79
     5
170
     0
171
     0
290
     0
174
     0
 93
       13
 44
0.0
173
     0
291
     1
 45
0.0
1001
ACAD
1000
AcDbSavedByObjectVersion
1070
     0
  0
VISUALSTYLE
  5
2D
102
{ACAD_REACTORS
330
2A
102
}
102
{ACAD_XDICTIONARY
360
28B
102
}
330
2A
100
AcDbVisualStyle
  2
Gouraud
 70
     2
 71
     2
 72
     2
 73
     1
 90
        2
 40
0.6
 41
30.0
 62
     5
 63
     7
421
 16777215
 74
     0
 91
        0
 64
     7
 65
   257
 75
     1
175
     1
 42
1.0
 92
        0
 66
     7
 43
1.0
 76
     1
 77
     6
 78
     2
 67
     7
 79
     5
170
     0
171
     0
290
     0
174
     0
 93
       13
 44
0.0
173
     0
291
     1
 45
0.0
1001
ACAD
1000
AcDbSavedByObjectVersion
1070
     0
  0
VISUALSTYLE
  5
2E
102
{ACAD_REACTORS
330
2A
102
}
102
{ACAD_XDICTIONARY
360
28D
102
}
330
2A
100
AcDbVisualStyle
  2
GouraudWithEdges
 70
     3
 71
     2
 72
     2
 73
     1
 90
        2
 40
0.6
 41
30.0
 62
     5
 63
     7
421
 16777215
 74
     1
 91
        0
 64
     7
 65
   257
 75
     1
175
     1
 42
1.0
 92
        0
 66
   257
 43
1.0
 76
     1
 77
     6
 78
     2
 67
     7
 79
     5
170
     0
171
     0
290
     0
174
     0
 93
       13
 44
0.0
173
     0
291
     1
 45
0.0
1001
ACAD
1000
AcDbSavedByObjectVersion
1070
     0
  0
VISUALSTYLE
  5
31
102
{ACAD_REACTORS
330
2A
102
}
102
{ACAD_XDICTIONARY
360
293
102
}
330
2A
100
AcDbVisualStyle
  2
Hidden
 70
     6
 71
     1
 72
     2
 73
     2
 90
        0
 40
0.6
 41
30.0
 62
     5
 63
     7
421
 16777215
 74
     2
 91
        2
 64
     7
 65
   257
 75
     2
175
     1
 42
40.0
 92
        0
 66
   257
 43
1.0
 76
     1
 77
     6
 78
     2
 67
     7
 79
     3
170
     0
171
     0
290
     0
174
     0
 93
        1
 44
0.0
173
     0
291
     0
 45
0.0
1001
ACAD
1000
AcDbSavedByObjectVersion
1070
     0
  0
VISUALSTYLE
  5
3B
102
{ACAD_REACTORS
330
2A
102
}
102
{ACAD_XDICTIONARY
360
2A7
102
}
330
2A
100
AcDbVisualStyle
  2
JitterOff
 70
    20
 71
     2
 72
     2
 73
     0
 90
        0
 40
0.6
 41
30.0
 62
     5
 63
     7
421
 16777215
 74
     1
 91
        4
 64
     7
 65
   257
 75
     1
175
     1
 42
1.0
 92
       10
 66
     7
 43
1.0
 76
     1
 77
     6
 78
     2
 67
     7
 79
     5
170
     0
171
     0
290
     0
174
     0
 93
        1
 44
0.0
173
     0
291
     1
 45
0.0
1001
ACAD
1000
AcDbSavedByObjectVersion
1070
     0
  0
VISUALSTYLE
  5
38
102
{ACAD_REACTORS
330
2A
102
}
102
{ACAD_XDICTIONARY
360
2A1
102
}
330
2A
100
AcDbVisualStyle
  2
Linepattern
 70
    14
 71
     2
 72
     2
 73
     0
 90
        0
 40
0.6
 41
30.0
 62
     5
 63
     7
421
 16777215
 74
     1
 91
        4
 64
     7
 65
   257
 75
     7
175
     7
 42
1.0
 92
        8
 66
     7
 43
1.0
 76
     1
 77
     6
 78
     2
 67
     7
 79
     5
170
     0
171
     0
290
     0
174
     0
 93
        1
 44
0.0
173
     0
291
     1
 45
0.0
1001
ACAD
1000
AcDbSavedByObjectVersion
1070
     0
  0
VISUALSTYLE
  5
3C
102
{ACAD_REACTORS
330
2A
102
}
102
{ACAD_XDICTIONARY
360
2A9
102
}
330
2A
100
AcDbVisualStyle
  2
OverhangOff
 70
    21
 71
     2
 72
     2
 73
     0
 90
        0
 40
0.6
 41
30.0
 62
     5
 63
     7
421
 16777215
 74
     1
 91
        4
 64
     7
 65
   257
 75
     1
175
     1
 42
1.0
 92
        9
 66
     7
 43
1.0
 76
     1
 77
     6
 78
     2
 67
     7
 79
     5
170
     0
171
     0
290
     0
174
     0
 93
        1
 44
0.0
173
     0
291
     1
 45
0.0
1001
ACAD
1000
AcDbSavedByObjectVersion
1070
     0
  0
VISUALSTYLE
  5
33
102
{ACAD_REACTORS
330
2A
102
}
102
{ACAD_XDICTIONARY
360
297
102
}
330
2A
100
AcDbVisualStyle
  2
Realistic
 70
     8
 71
     2
 72
     3
 73
     0
 90
        2
 40
0.6
 41
30.0
 62
     5
 63
     7
421
 16777215
 74
     0
 91
        0
 64
     7
 65
   257
 75
     1
175
     1
 42
1.0
 92
        8
 66
   257
 43
1.0
 76
     1
 77
     6
 78
     2
 67
     7
 79
     3
170
     0
171
     0
290
     0
174
     0
 93
       13
 44
0.0
173
     0
291
     0
 45
0.0
1001
ACAD
1000
AcDbSavedByObjectVersion
1070
     0
  0
VISUALSTYLE
  5
42
102
{ACAD_REACTORS
330
2A
102
}
102
{ACAD_XDICTIONARY
360
2B5
102
}
330
2A
100
AcDbVisualStyle
  2
Shaded
 70
    27
 71
     2
 72
     2
 73
     1
 90
        2
 40
0.6
 41
30.0
 62
     5
 63
     7
421
 16777215
 74
     0
 91
        4
 64
     7
 65
   257
 75
     1
175
     1
 42
1.0
 92
        8
 66
   257
 43
1.0
 76
     1
 77
     6
 78
     2
 67
     8
425
  7895160
 79
     3
170
     0
171
     0
290
     0
174
     0
 93
        5
 44
0.0
173
     0
291
     0
 45
0.0
1001
ACAD
1000
AcDbSavedByObjectVersion
1070
     0
  0
VISUALSTYLE
  5
41
102
{ACAD_REACTORS
330
2A
102
}
102
{ACAD_XDICTIONARY
360
2B3
102
}
330
2A
100
AcDbVisualStyle
  2
Shaded with edges
 70
    26
 71
     2
 72
     2
 73
     1
 90
        2
 40
0.6
 41
30.0
 62
     5
 63
     7
421
 16777215
 74
     1
 91
       10
 64
     7
 65
   257
 75
     2
175
     1
 42
1.0
 92
        8
 66
   257
 43
1.0
 76
     1
 77
     6
 78
     2
 67
     7
 79
     3
170
     0
171
     0
290
     0
174
     0
 93
        5
 44
0.0
173
     0
291
     0
 45
0.0
1001
ACAD
1000
AcDbSavedByObjectVersion
1070
     0
  0
VISUALSTYLE
  5
3E
102
{ACAD_REACTORS
330
2A
102
}
102
{ACAD_XDICTIONARY
360
2AD
102
}
330
2A
100
AcDbVisualStyle
  2
Shades of Gray
 70
    23
 71
     2
 72
     2
 73
     3
 90
        0
 40
0.6
 41
30.0
 62
     5
 63
     7
421
 16777215
 74
     2
 91
        2
 64
     7
 65
     7
 75
     1
175
     1
 42
40.0
 92
        8
 66
     7
 43
1.0
 76
     1
 77
     6
 78
     2
 67
     7
 79
     3
170
     0
171
     0
290
     0
174
     0
 93
        1
 44
0.0
173
     0
291
     0
 45
0.0
1001
ACAD
1000
AcDbSavedByObjectVersion
1070
     0
  0
VISUALSTYLE
  5
3F
102
{ACAD_REACTORS
330
2A
102
}
102
{ACAD_XDICTIONARY
360
2AF
102
}
330
2A
100
AcDbVisualStyle
  2
Sketchy
 70
    24
 71
     1
 72
     2
 73
     2
 90
        0
 40
0.6
 41
30.0
 62
     5
 63
     7
421
 16777215
 74
     2
 91
        2
 64
     7
 65
     7
 75
     1
175
     1
 42
40.0
 92
       11
 66
     7
 43
1.0
 76
     1
 77
     6
 78
     2
 67
     7
 79
     6
170
     0
171
     0
290
     0
174
     0
 93
        1
 44
0.0
173
     0
291
     0
 45
0.0
1001
ACAD
1000
AcDbSavedByObjectVersion
1070
     0
  0
VISUALSTYLE
  5
37
102
{ACAD_REACTORS
330
2A
102
}
102
{ACAD_XDICTIONARY
360
29F
102
}
330
2A
100
AcDbVisualStyle
  2
Thicken
 70
    13
 71
     2
 72
     2
 73
     0
 90
        0
 40
0.6
 41
30.0
 62
     5
 63
     7
421
 16777215
 74
     1
 91
        4
 64
     7
 65
   257
 75
     1
175
     1
 42
1.0
 92
       12
 66
     7
 43
1.0
 76
     1
 77
     6
 78
     2
 67
     7
 79
     5
170
     0
171
     0
290
     0
174
     0
 93
        1
 44
0.0
173
     0
291
     1
 45
0.0
1001
ACAD
1000
AcDbSavedByObjectVersion
1070
     0
  0
VISUALSTYLE
  5
30
102
{ACAD_REACTORS
330
2A
102
}
102
{ACAD_XDICTIONARY
360
291
102
}
330
2A
100
AcDbVisualStyle
  2
Wireframe
 70
     5
 71
     0
 72
     2
 73
     0
 90
        0
 40
0.6
 41
30.0
 62
     5
 63
     7
421
 16777215
 74
     1
 91
        4
 64
     7
 65
   257
 75
     1
175
     1
 42
1.0
 92
        0
 66
   257
 43
1.0
 76
     1
 77
     6
 78
     2
 67
     7
 79
     3
170
     0
171
     0
290
     0
174
     0
 93
        1
 44
0.0
173
     0
291
     0
 45
0.0
1001
ACAD
1000
AcDbSavedByObjectVersion
1070
     0
  0
VISUALSTYLE
  5
40
102
{ACAD_REACTORS
330
2A
102
}
102
{ACAD_XDICTIONARY
360
2B1
102
}
330
2A
100
AcDbVisualStyle
  2
X-Ray
 70
    25
 71
     2
 72
     2
 73
     1
 90
        1
 40
0.5
 41
30.0
 62
     5
 63
     7
421
 16777215
 74
     1
 91
        0
 64
     7
 65
   257
 75
     1
175
     1
 42
1.0
 92
        8
 66
     7
 43
1.0
 76
     1
 77
     6
 78
     2
 67
     7
 79
     3
170
     0
171
     0
290
     0
174
     0
 93
       13
 44
0.0
173
     0
291
     0
 45
0.0
1001
ACAD
1000
AcDbSavedByObjectVersion
1070
     0
  0
DICTIONARYVAR
  5
284
102
{ACAD_REACTORS
330
283
102
}
330
283
100
DictionaryVariables
280
     0
  1
1:1
  0
DICTIONARYVAR
  5
2C8
102
{ACAD_REACTORS
330
283
102
}
330
283
100
DictionaryVariables
280
     0
  1
3.500000
  0
DICTIONARYVAR
  5
2C9
102
{ACAD_REACTORS
330
283
102
}
330
283
100
DictionaryVariables
280
     0
  1
acadiso.lin
  0
DICTIONARYVAR
  5
2C5
102
{ACAD_REACTORS
330
283
102
}
330
283
100
DictionaryVariables
280
     0
  1
Standard
  0
DICTIONARYVAR
  5
2C4
102
{ACAD_REACTORS
330
283
102
}
330
283
100
DictionaryVariables
280
     0
  1
Standard
  0
DICTIONARYVAR
  5
285
102
{ACAD_REACTORS
330
283
102
}
330
283
100
DictionaryVariables
280
     0
  1
1
  0
DICTIONARYVAR
  5
286
102
{ACAD_REACTORS
330
283
102
}
330
283
100
DictionaryVariables
280
     0
  1
2
  0
DICTIONARY
  5
2B9
330
45
100
AcDbDictionary
280
     1
281
     1
  3
ACAD_XREC_ROUNDTRIP
360
2BA
  0
DICTIONARY
  5
2B7
330
44
100
AcDbDictionary
280
     1
281
     1
  3
ACAD_XREC_ROUNDTRIP
360
2B8
  0
DICTIONARY
  5
2BB
330
46
100
AcDbDictionary
280
     1
281
     1
  3
ACAD_XREC_ROUNDTRIP
360
2BC
  0
DICTIONARY
  5
2C1
330
6C
100
AcDbDictionary
280
     1
281
     1
  3
ACAD_XREC_ROUNDTRIP
360
2C2
  0
DICTIONARY
  5
2BD
330
6A
100
AcDbDictionary
280
     1
281
     1
  3
ACAD_ROUNDTRIP_2008_TABLESTYLE_CELLSTYLEMAP
360
2BF
  3
ACAD_XREC_ROUNDTRIP
360
2BE
  0
DICTIONARY
  5
28F
330
2F
100
AcDbDictionary
280
     1
281
     1
  3
ACAD_XREC_ROUNDTRIP
360
290
  0
DICTIONARY
  5
295
330
32
100
AcDbDictionary
280
     1
281
     1
  3
ACAD_XREC_ROUNDTRIP
360
296
  0
DICTIONARY
  5
29D
330
36
100
AcDbDictionary
280
     1
281
     1
  3
ACAD_XREC_ROUNDTRIP
360
29E
  0
DICTIONARY
  5
2A5
330
3A
100
AcDbDictionary
280
     1
281
     1
  3
ACAD_XREC_ROUNDTRIP
360
2A6
  0
DICTIONARY
  5
299
330
34
100
AcDbDictionary
280
     1
281
     1
  3
ACAD_XREC_ROUNDTRIP
360
29A
  0
DICTIONARY
  5
29B
330
35
100
AcDbDictionary
280
     1
281
     1
  3
ACAD_XREC_ROUNDTRIP
360
29C
  0
DICTIONARY
  5
2AB
330
3D
100
AcDbDictionary
280
     1
281
     1
  3
ACAD_XREC_ROUNDTRIP
360
2AC
  0
DICTIONARY
  5
2A3
330
39
100
AcDbDictionary
280
     1
281
     1
  3
ACAD_XREC_ROUNDTRIP
360
2A4
  0
DICTIONARY
  5
287
330
2B
100
AcDbDictionary
280
     1
281
     1
  3
ACAD_XREC_ROUNDTRIP
360
288
  0
DICTIONARY
  5
289
330
2C
100
AcDbDictionary
280
     1
281
     1
  3
ACAD_XREC_ROUNDTRIP
360
28A
  0
DICTIONARY
  5
28B
330
2D
100
AcDbDictionary
280
     1
281
     1
  3
ACAD_XREC_ROUNDTRIP
360
28C
  0
DICTIONARY
  5
28D
330
2E
100
AcDbDictionary
280
     1
281
     1
  3
ACAD_XREC_ROUNDTRIP
360
28E
  0
DICTIONARY
  5
293
330
31
100
AcDbDictionary
280
     1
281
     1
  3
ACAD_XREC_ROUNDTRIP
360
294
  0
DICTIONARY
  5
2A7
330
3B
100
AcDbDictionary
280
     1
281
     1
  3
ACAD_XREC_ROUNDTRIP
360
2A8
  0
DICTIONARY
  5
2A1
330
38
100
AcDbDictionary
280
     1
281
     1
  3
ACAD_XREC_ROUNDTRIP
360
2A2
  0
DICTIONARY
  5
2A9
330
3C
100
AcDbDictionary
280
     1
281
     1
  3
ACAD_XREC_ROUNDTRIP
360
2AA
  0
DICTIONARY
  5
297
330
33
100
AcDbDictionary
280
     1
281
     1
  3
ACAD_XREC_ROUNDTRIP
360
298
  0
DICTIONARY
  5
2B5
330
42
100
AcDbDictionary
280
     1
281
     1
  3
ACAD_XREC_ROUNDTRIP
360
2B6
  0
DICTIONARY
  5
2B3
330
41
100
AcDbDictionary
280
     1
281
     1
  3
ACAD_XREC_ROUNDTRIP
360
2B4
  0
DICTIONARY
  5
2AD
330
3E
100
AcDbDictionary
280
     1
281
     1
  3
ACAD_XREC_ROUNDTRIP
360
2AE
  0
DICTIONARY
  5
2AF
330
3F
100
AcDbDictionary
280
     1
281
     1
  3
ACAD_XREC_ROUNDTRIP
360
2B0
  0
DICTIONARY
  5
29F
330
37
100
AcDbDictionary
280
     1
281
     1
  3
ACAD_XREC_ROUNDTRIP
360
2A0
  0
DICTIONARY
  5
291
330
30
100
AcDbDictionary
280
     1
281
     1
  3
ACAD_XREC_ROUNDTRIP
360
292
  0
DICTIONARY
  5
2B1
330
40
100
AcDbDictionary
280
     1
281
     1
  3
ACAD_XREC_ROUNDTRIP
360
2B2
  0
XRECORD
  5
2BA
102
{ACAD_REACTORS
330
2B9
102
}
330
2B9
100
AcDbXrecord
280
     1
102
MATERIAL
148
0.0
149
0.0
149
0.0
 93
        0
 94
      127
282
     0
 72
     1
 77
     1
171
     1
175
     1
179
     1
273
     0
  0
XRECORD
  5
2B8
102
{ACAD_REACTORS
330
2B7
102
}
330
2B7
100
AcDbXrecord
280
     1
102
MATERIAL
148
0.0
149
0.0
149
0.0
 93
        0
 94
      127
282
     0
 72
     1
 77
     1
171
     1
175
     1
179
     1
273
     0
  0
XRECORD
  5
2BC
102
{ACAD_REACTORS
330
2BB
102
}
330
2BB
100
AcDbXrecord
280
     1
102
MATERIAL
148
0.0
149
0.0
149
0.0
 93
        0
 94
      127
282
     0
 72
     1
 77
     1
171
     1
175
     1
179
     1
273
     0
  0
XRECORD
  5
2C2
102
{ACAD_REACTORS
330
2C1
102
}
330
2C1
100
AcDbXrecord
280
     1
102
ACAD_ROUNDTRIP_2010_MLEADER_STYLE
  0
CELLSTYLEMAP
  5
2BF
102
{ACAD_REACTORS
330
2BD
102
}
330
2BD
100
AcDbCellStyleMap
 90
        3
300
CELLSTYLE
  1
TABLEFORMAT_BEGIN
 90
        5
170
     1
 91
        0
 92
    32768
 62
   257
 93
        1
300
CONTENTFORMAT
  1
CONTENTFORMAT_BEGIN
 90
        0
 91
        0
 92
        4
 93
        0
300

 40
0.0
140
1.0
 94
        5
 62
     0
340
11
144
6.0
309
CONTENTFORMAT_END
171
     1
301
MARGIN
  1
CELLMARGIN_BEGIN
 40
1.5
 40
1.5
 40
1.5
 40
1.5
 40
1.5
 40
1.5
309
CELLMARGIN_END
 94
        6
 95
        1
302
GRIDFORMAT
  1
GRIDFORMAT_BEGIN
 90
        0
 91
        1
 62
     0
 92
       -2
340
14
 93
        0
 40
0.045
309
GRIDFORMAT_END
 95
        2
302
GRIDFORMAT
  1
GRIDFORMAT_BEGIN
 90
        0
 91
        1
 62
     0
 92
       -2
340
14
 93
        0
 40
0.045
309
GRIDFORMAT_END
 95
        4
302
GRIDFORMAT
  1
GRIDFORMAT_BEGIN
 90
        0
 91
        1
 62
     0
 92
       -2
340
14
 93
        0
 40
0.045
309
GRIDFORMAT_END
 95
        8
302
GRIDFORMAT
  1
GRIDFORMAT_BEGIN
 90
        0
 91
        1
 62
     0
 92
       -2
340
14
 93
        0
 40
0.045
309
GRIDFORMAT_END
 95
       16
302
GRIDFORMAT
  1
GRIDFORMAT_BEGIN
 90
        0
 91
        1
 62
     0
 92
       -2
340
14
 93
        0
 40
0.045
309
GRIDFORMAT_END
 95
       32
302
GRIDFORMAT
  1
GRIDFORMAT_BEGIN
 90
        0
 91
        1
 62
     0
 92
       -2
340
14
 93
        0
 40
0.045
309
GRIDFORMAT_END
309
TABLEFORMAT_END
  1
CELLSTYLE_BEGIN
 90
        1
 91
        1
300
_TITLE
309
CELLSTYLE_END
300
CELLSTYLE
  1
TABLEFORMAT_BEGIN
 90
        5
170
     1
 91
        0
 92
        0
 62
   257
 93
        1
300
CONTENTFORMAT
  1
CONTENTFORMAT_BEGIN
 90
        0
 91
        0
 92
        4
 93
        0
300

 40
0.0
140
1.0
 94
        5
 62
     0
340
11
144
4.5
309
CONTENTFORMAT_END
171
     1
301
MARGIN
  1
CELLMARGIN_BEGIN
 40
1.5
 40
1.5
 40
1.5
 40
1.5
 40
1.5
 40
1.5
309
CELLMARGIN_END
 94
        6
 95
        1
302
GRIDFORMAT
  1
GRIDFORMAT_BEGIN
 90
        0
 91
        1
 62
     0
 92
       -2
340
14
 93
        0
 40
0.045
309
GRIDFORMAT_END
 95
        2
302
GRIDFORMAT
  1
GRIDFORMAT_BEGIN
 90
        0
 91
        1
 62
     0
 92
       -2
340
14
 93
        0
 40
0.045
309
GRIDFORMAT_END
 95
        4
302
GRIDFORMAT
  1
GRIDFORMAT_BEGIN
 90
        0
 91
        1
 62
     0
 92
       -2
340
14
 93
        0
 40
0.045
309
GRIDFORMAT_END
 95
        8
302
GRIDFORMAT
  1
GRIDFORMAT_BEGIN
 90
        0
 91
        1
 62
     0
 92
       -2
340
14
 93
        0
 40
0.045
309
GRIDFORMAT_END
 95
       16
302
GRIDFORMAT
  1
GRIDFORMAT_BEGIN
 90
        0
 91
        1
 62
     0
 92
       -2
340
14
 93
        0
 40
0.045
309
GRIDFORMAT_END
 95
       32
302
GRIDFORMAT
  1
GRIDFORMAT_BEGIN
 90
        0
 91
        1
 62
     0
 92
       -2
340
14
 93
        0
 40
0.045
309
GRIDFORMAT_END
309
TABLEFORMAT_END
  1
CELLSTYLE_BEGIN
 90
        2
 91
        1
300
_HEADER
309
CELLSTYLE_END
300
CELLSTYLE
  1
TABLEFORMAT_BEGIN
 90
        5
170
     1
 91
        0
 92
        0
 62
   257
 93
        1
300
CONTENTFORMAT
  1
CONTENTFORMAT_BEGIN
 90
        0
 91
        0
 92
        4
 93
        0
300

 40
0.0
140
1.0
 94
        2
 62
     0
340
11
144
4.5
309
CONTENTFORMAT_END
171
     1
301
MARGIN
  1
CELLMARGIN_BEGIN
 40
1.5
 40
1.5
 40
1.5
 40
1.5
 40
1.5
 40
1.5
309
CELLMARGIN_END
 94
        6
 95
        1
302
GRIDFORMAT
  1
GRIDFORMAT_BEGIN
 90
        0
 91
        1
 62
     0
 92
       -2
340
14
 93
        0
 40
0.045
309
GRIDFORMAT_END
 95
        2
302
GRIDFORMAT
  1
GRIDFORMAT_BEGIN
 90
        0
 91
        1
 62
     0
 92
       -2
340
14
 93
        0
 40
0.045
309
GRIDFORMAT_END
 95
        4
302
GRIDFORMAT
  1
GRIDFORMAT_BEGIN
 90
        0
 91
        1
 62
     0
 92
       -2
340
14
 93
        0
 40
0.045
309
GRIDFORMAT_END
 95
        8
302
GRIDFORMAT
  1
GRIDFORMAT_BEGIN
 90
        0
 91
        1
 62
     0
 92
       -2
340
14
 93
        0
 40
0.045
309
GRIDFORMAT_END
 95
       16
302
GRIDFORMAT
  1
GRIDFORMAT_BEGIN
 90
        0
 91
        1
 62
     0
 92
       -2
340
14
 93
        0
 40
0.045
309
GRIDFORMAT_END
 95
       32
302
GRIDFORMAT
  1
GRIDFORMAT_BEGIN
 90
        0
 91
        1
 62
     0
 92
       -2
340
14
 93
        0
 40
0.045
309
GRIDFORMAT_END
309
TABLEFORMAT_END
  1
CELLSTYLE_BEGIN
 90
        3
 91
        2
300
_DATA
309
CELLSTYLE_END
  0
XRECORD
  5
2BE
102
{ACAD_REACTORS
330
2BD
102
}
330
2BD
100
AcDbXrecord
280
     1
102
ACAD_ROUNDTRIP_PRE2007_TABLESTYLE
 90
        4
 91
        0
  1

 92
        4
 93
        0
  2

 94
        4
 95
        0
  3

  0
XRECORD
  5
290
102
{ACAD_REACTORS
330
28F
102
}
330
28F
100
AcDbXrecord
280
     1
102
RTVSPropertyOp0
 70
     1
102
RTVSPropertyOp1
 70
     1
102
RTVSPropertyOp2
 70
     1
102
RTVSPropertyOp3
 70
     1
102
RTVSPropertyOp4
 70
     1
102
RTVSPropertyOp5
 70
     1
102
RTVSPropertyOp6
 70
     1
102
RTVSPropertyOp7
 70
     1
102
RTVSPropertyOp8
 70
     1
102
RTVSPropertyOp9
 70
     1
102
RTVSPropertyOp10
 70
     1
102
RTVSPropertyOp11
 70
     1
102
RTVSPropertyOp12
 70
     1
102
RTVSPropertyOp13
 70
     1
102
RTVSPropertyOp14
 70
     1
102
RTVSPropertyOp15
 70
     1
102
RTVSPropertyOp16
 70
     1
102
RTVSPropertyOp17
 70
     1
102
RTVSPropertyOp18
 70
     1
102
RTVSPropertyOp19
 70
     1
102
RTVSPropertyOp20
 70
     1
102
RTVSPropertyOp21
 70
     1
102
RTVSPropertyOp22
 70
     1
102
RTVSPropertyOp23
 70
     1
102
RTVSPropertyOp24
 70
     1
102
RTVSPropertyOp25
 70
     1
102
RTVSPropertyOp26
 70
     1
102
RTVSPropertyOp27
 70
     1
102
RTVSPropertyOp28
 70
     1
102
RTVSPropertyOp29
 70
     1
102
RTVSPropertyOp30
 70
     1
102
RTVSPropertyOp31
 70
     1
102
RTVSPropertyOp32
 70
     1
102
RTVSPropertyOp33
 70
     1
102
RTVSPropertyOp34
 70
     1
102
RTVSPropertyOp35
 70
     1
102
RTVSPropertyOp36
 70
     1
102
RTVSPropertyOp37
 70
     1
102
RTVSPropertyOp38
 70
     1
102
RTVSPropertyOp39
 70
     1
102
RTVSPropertyOp40
 70
     1
102
RTVSPropertyOp41
 70
     1
102
RTVSPropertyOp42
 70
     1
102
RTVSPropertyOp43
 70
     1
102
RTVSPropertyOp44
 70
     1
102
RTVSPropertyOp45
 70
     1
102
RTVSPropertyOp46
 70
     1
102
RTVSPropertyOp47
 70
     1
102
RTVSPropertyOp48
 70
     1
102
RTVSPropertyOp49
 70
     1
102
RTVSPropertyOp50
 70
     1
102
RTVSPropertyOp51
 70
     0
102
RTVSPropertyOp52
 70
     0
102
RTVSPropertyOp53
 70
     1
102
RTVSPropertyOp54
 70
     1
102
RTVSPropertyOp55
 70
     1
102
RTVSPropertyOp56
 70
     1
102
RTVSPropertyOp57
 70
     1
102
RTVSPost2010Prop28
280
     1
102
RTVSPost2010PropOp28
 70
     1
102
RTVSPost2010Prop29
280
     1
102
RTVSPost2010PropOp29
 70
     1
102
RTVSPost2010Prop30
280
     0
102
RTVSPost2010PropOp30
 70
     1
102
RTVSPost2010Prop31
280
     0
102
RTVSPost2010PropOp31
 70
     1
102
RTVSPost2010Prop32
280
     0
102
RTVSPost2010PropOp32
 70
     1
102
RTVSPost2010Prop33
280
     0
102
RTVSPost2010PropOp33
 70
     1
102
RTVSPost2010Prop34
280
     0
102
RTVSPost2010PropOp34
 70
     1
102
RTVSPost2010Prop35
280
     0
102
RTVSPost2010PropOp35
 70
     1
102
RTVSPost2010Prop36
280
     0
102
RTVSPost2010PropOp36
 70
     1
102
RTVSPost2010Prop37
 90
       50
102
RTVSPost2010PropOp37
 70
     1
102
RTVSPost2010Prop38
140
0.0
102
RTVSPost2010PropOp38
 70
     1
102
RTVSPost2010Prop39
140
1.0
102
RTVSPost2010PropOp39
 70
     1
102
RTVSPost2010Prop40
 90
        0
102
RTVSPost2010PropOp40
 70
     1
102
RTVSPost2010Prop41ColorIndex
 90
       18
102
RTVSPost2010Prop41ColorRGB
 90
        0
102
RTVSPost2010PropOp41
 70
     1
102
RTVSPost2010Prop42
 90
       50
102
RTVSPost2010PropOp42
 70
     1
102
RTVSPost2010Prop43
 90
        3
102
RTVSPost2010PropOp43
 70
     1
102
RTVSPost2010Prop44ColorIndex
 90
        5
102
RTVSPost2010Prop44ColorRGB
 90
      255
102
RTVSPost2010PropOp44
 70
     1
102
RTVSPost2010Prop45
280
     0
102
RTVSPost2010PropOp45
 70
     1
102
RTVSPost2010Prop46
 90
       50
102
RTVSPost2010PropOp46
 70
     1
102
RTVSPost2010Prop47
 90
       50
102
RTVSPost2010PropOp47
 70
     1
102
RTVSPost2010Prop48
 90
       50
102
RTVSPost2010PropOp48
 70
     1
102
RTVSPost2010Prop49
280
     0
102
RTVSPost2010PropOp49
 70
     1
102
RTVSPost2010Prop50
 90
       50
102
RTVSPost2010PropOp50
 70
     1
102
RTVSPost2010Prop51ColorIndex
 90
      256
102
RTVSPost2010Prop51ColorRGB
 90
-16777216
102
RTVSPost2010PropOp51
 70
     0
102
RTVSPost2010Prop52
140
1.0
102
RTVSPost2010PropOp52
 70
     0
102
RTVSPost2010Prop53
 90
        2
102
RTVSPost2010PropOp53
 70
     1
102
RTVSPost2010Prop54
  1
strokes_ogs.tif
102
RTVSPost2010PropOp54
 70
     1
102
RTVSPost2010Prop55
280
     0
102
RTVSPost2010PropOp55
 70
     1
102
RTVSPost2010Prop56
140
1.0
102
RTVSPost2010PropOp56
 70
     1
102
RTVSPost2010Prop57
140
1.0
102
RTVSPost2010PropOp57
 70
     1
  0
XRECORD
  5
296
102
{ACAD_REACTORS
330
295
102
}
330
295
100
AcDbXrecord
280
     1
102
RTVSPropertyOp0
 70
     1
102
RTVSPropertyOp1
 70
     1
102
RTVSPropertyOp2
 70
     1
102
RTVSPropertyOp3
 70
     1
102
RTVSPropertyOp4
 70
     1
102
RTVSPropertyOp5
 70
     1
102
RTVSPropertyOp6
 70
     1
102
RTVSPropertyOp7
 70
     1
102
RTVSPropertyOp8
 70
     1
102
RTVSPropertyOp9
 70
     1
102
RTVSPropertyOp10
 70
     1
102
RTVSPropertyOp11
 70
     1
102
RTVSPropertyOp12
 70
     1
102
RTVSPropertyOp13
 70
     1
102
RTVSPropertyOp14
 70
     1
102
RTVSPropertyOp15
 70
     1
102
RTVSPropertyOp16
 70
     1
102
RTVSPropertyOp17
 70
     1
102
RTVSPropertyOp18
 70
     1
102
RTVSPropertyOp19
 70
     1
102
RTVSPropertyOp20
 70
     1
102
RTVSPropertyOp21
 70
     1
102
RTVSPropertyOp22
 70
     1
102
RTVSPropertyOp23
 70
     1
102
RTVSPropertyOp24
 70
     1
102
RTVSPropertyOp25
 70
     1
102
RTVSPropertyOp26
 70
     1
102
RTVSPropertyOp27
 70
     1
102
RTVSPropertyOp28
 70
     1
102
RTVSPropertyOp29
 70
     1
102
RTVSPropertyOp30
 70
     1
102
RTVSPropertyOp31
 70
     1
102
RTVSPropertyOp32
 70
     1
102
RTVSPropertyOp33
 70
     1
102
RTVSPropertyOp34
 70
     1
102
RTVSPropertyOp35
 70
     1
102
RTVSPropertyOp36
 70
     1
102
RTVSPropertyOp37
 70
     1
102
RTVSPropertyOp38
 70
     1
102
RTVSPropertyOp39
 70
     1
102
RTVSPropertyOp40
 70
     1
102
RTVSPropertyOp41
 70
     1
102
RTVSPropertyOp42
 70
     1
102
RTVSPropertyOp43
 70
     1
102
RTVSPropertyOp44
 70
     1
102
RTVSPropertyOp45
 70
     1
102
RTVSPropertyOp46
 70
     1
102
RTVSPropertyOp47
 70
     1
102
RTVSPropertyOp48
 70
     1
102
RTVSPropertyOp49
 70
     1
102
RTVSPropertyOp50
 70
     1
102
RTVSPropertyOp51
 70
     0
102
RTVSPropertyOp52
 70
     0
102
RTVSPropertyOp53
 70
     1
102
RTVSPropertyOp54
 70
     1
102
RTVSPropertyOp55
 70
     1
102
RTVSPropertyOp56
 70
     1
102
RTVSPropertyOp57
 70
     1
102
RTVSPost2010Prop28
280
     0
102
RTVSPost2010PropOp28
 70
     1
102
RTVSPost2010Prop29
280
     1
102
RTVSPost2010PropOp29
 70
     1
102
RTVSPost2010Prop30
280
     1
102
RTVSPost2010PropOp30
 70
     1
102
RTVSPost2010Prop31
280
     0
102
RTVSPost2010PropOp31
 70
     1
102
RTVSPost2010Prop32
280
     0
102
RTVSPost2010PropOp32
 70
     1
102
RTVSPost2010Prop33
280
     0
102
RTVSPost2010PropOp33
 70
     1
102
RTVSPost2010Prop34
280
     0
102
RTVSPost2010PropOp34
 70
     1
102
RTVSPost2010Prop35
280
     0
102
RTVSPost2010PropOp35
 70
     1
102
RTVSPost2010Prop36
280
     0
102
RTVSPost2010PropOp36
 70
     1
102
RTVSPost2010Prop37
 90
       50
102
RTVSPost2010PropOp37
 70
     1
102
RTVSPost2010Prop38
140
0.0
102
RTVSPost2010PropOp38
 70
     1
102
RTVSPost2010Prop39
140
1.0
102
RTVSPost2010PropOp39
 70
     1
102
RTVSPost2010Prop40
 90
        0
102
RTVSPost2010PropOp40
 70
     1
102
RTVSPost2010Prop41ColorIndex
 90
       18
102
RTVSPost2010Prop41ColorRGB
 90
        0
102
RTVSPost2010PropOp41
 70
     1
102
RTVSPost2010Prop42
 90
       50
102
RTVSPost2010PropOp42
 70
     1
102
RTVSPost2010Prop43
 90
        3
102
RTVSPost2010PropOp43
 70
     1
102
RTVSPost2010Prop44ColorIndex
 90
        5
102
RTVSPost2010Prop44ColorRGB
 90
      255
102
RTVSPost2010PropOp44
 70
     1
102
RTVSPost2010Prop45
280
     0
102
RTVSPost2010PropOp45
 70
     1
102
RTVSPost2010Prop46
 90
       50
102
RTVSPost2010PropOp46
 70
     1
102
RTVSPost2010Prop47
 90
       50
102
RTVSPost2010PropOp47
 70
     1
102
RTVSPost2010Prop48
 90
       50
102
RTVSPost2010PropOp48
 70
     1
102
RTVSPost2010Prop49
280
     0
102
RTVSPost2010PropOp49
 70
     1
102
RTVSPost2010Prop50
 90
       50
102
RTVSPost2010PropOp50
 70
     1
102
RTVSPost2010Prop51ColorIndex
 90
      256
102
RTVSPost2010Prop51ColorRGB
 90
-16777216
102
RTVSPost2010PropOp51
 70
     0
102
RTVSPost2010Prop52
140
1.0
102
RTVSPost2010PropOp52
 70
     0
102
RTVSPost2010Prop53
 90
        2
102
RTVSPost2010PropOp53
 70
     1
102
RTVSPost2010Prop54
  1
strokes_ogs.tif
102
RTVSPost2010PropOp54
 70
     1
102
RTVSPost2010Prop55
280
     0
102
RTVSPost2010PropOp55
 70
     1
102
RTVSPost2010Prop56
140
1.0
102
RTVSPost2010PropOp56
 70
     1
102
RTVSPost2010Prop57
140
1.0
102
RTVSPost2010PropOp57
 70
     1
  0
XRECORD
  5
29E
102
{ACAD_REACTORS
330
29D
102
}
330
29D
100
AcDbXrecord
280
     1
102
RTVSPropertyOp0
 70
     1
102
RTVSPropertyOp1
 70
     1
102
RTVSPropertyOp2
 70
     1
102
RTVSPropertyOp3
 70
     1
102
RTVSPropertyOp4
 70
     1
102
RTVSPropertyOp5
 70
     1
102
RTVSPropertyOp6
 70
     1
102
RTVSPropertyOp7
 70
     1
102
RTVSPropertyOp8
 70
     1
102
RTVSPropertyOp9
 70
     1
102
RTVSPropertyOp10
 70
     1
102
RTVSPropertyOp11
 70
     1
102
RTVSPropertyOp12
 70
     1
102
RTVSPropertyOp13
 70
     1
102
RTVSPropertyOp14
 70
     1
102
RTVSPropertyOp15
 70
     1
102
RTVSPropertyOp16
 70
     1
102
RTVSPropertyOp17
 70
     1
102
RTVSPropertyOp18
 70
     1
102
RTVSPropertyOp19
 70
     1
102
RTVSPropertyOp20
 70
     1
102
RTVSPropertyOp21
 70
     1
102
RTVSPropertyOp22
 70
     1
102
RTVSPropertyOp23
 70
     1
102
RTVSPropertyOp24
 70
     1
102
RTVSPropertyOp25
 70
     1
102
RTVSPropertyOp26
 70
     1
102
RTVSPropertyOp27
 70
     1
102
RTVSPropertyOp28
 70
     1
102
RTVSPropertyOp29
 70
     1
102
RTVSPropertyOp30
 70
     1
102
RTVSPropertyOp31
 70
     1
102
RTVSPropertyOp32
 70
     1
102
RTVSPropertyOp33
 70
     1
102
RTVSPropertyOp34
 70
     1
102
RTVSPropertyOp35
 70
     1
102
RTVSPropertyOp36
 70
     1
102
RTVSPropertyOp37
 70
     1
102
RTVSPropertyOp38
 70
     1
102
RTVSPropertyOp39
 70
     1
102
RTVSPropertyOp40
 70
     1
102
RTVSPropertyOp41
 70
     1
102
RTVSPropertyOp42
 70
     1
102
RTVSPropertyOp43
 70
     1
102
RTVSPropertyOp44
 70
     1
102
RTVSPropertyOp45
 70
     1
102
RTVSPropertyOp46
 70
     1
102
RTVSPropertyOp47
 70
     1
102
RTVSPropertyOp48
 70
     1
102
RTVSPropertyOp49
 70
     1
102
RTVSPropertyOp50
 70
     1
102
RTVSPropertyOp51
 70
     0
102
RTVSPropertyOp52
 70
     0
102
RTVSPropertyOp53
 70
     1
102
RTVSPropertyOp54
 70
     1
102
RTVSPropertyOp55
 70
     1
102
RTVSPropertyOp56
 70
     1
102
RTVSPropertyOp57
 70
     1
102
RTVSPost2010Prop28
280
     0
102
RTVSPost2010PropOp28
 70
     1
102
RTVSPost2010Prop29
280
     1
102
RTVSPost2010PropOp29
 70
     1
102
RTVSPost2010Prop30
280
     1
102
RTVSPost2010PropOp30
 70
     1
102
RTVSPost2010Prop31
280
     0
102
RTVSPost2010PropOp31
 70
     1
102
RTVSPost2010Prop32
280
     0
102
RTVSPost2010PropOp32
 70
     1
102
RTVSPost2010Prop33
280
     0
102
RTVSPost2010PropOp33
 70
     1
102
RTVSPost2010Prop34
280
     0
102
RTVSPost2010PropOp34
 70
     1
102
RTVSPost2010Prop35
280
     0
102
RTVSPost2010PropOp35
 70
     1
102
RTVSPost2010Prop36
280
     0
102
RTVSPost2010PropOp36
 70
     1
102
RTVSPost2010Prop37
 90
       50
102
RTVSPost2010PropOp37
 70
     1
102
RTVSPost2010Prop38
140
0.0
102
RTVSPost2010PropOp38
 70
     1
102
RTVSPost2010Prop39
140
1.0
102
RTVSPost2010PropOp39
 70
     1
102
RTVSPost2010Prop40
 90
        0
102
RTVSPost2010PropOp40
 70
     1
102
RTVSPost2010Prop41ColorIndex
 90
       18
102
RTVSPost2010Prop41ColorRGB
 90
        0
102
RTVSPost2010PropOp41
 70
     1
102
RTVSPost2010Prop42
 90
       50
102
RTVSPost2010PropOp42
 70
     1
102
RTVSPost2010Prop43
 90
        3
102
RTVSPost2010PropOp43
 70
     1
102
RTVSPost2010Prop44ColorIndex
 90
        5
102
RTVSPost2010Prop44ColorRGB
 90
      255
102
RTVSPost2010PropOp44
 70
     1
102
RTVSPost2010Prop45
280
     0
102
RTVSPost2010PropOp45
 70
     1
102
RTVSPost2010Prop46
 90
       50
102
RTVSPost2010PropOp46
 70
     1
102
RTVSPost2010Prop47
 90
       50
102
RTVSPost2010PropOp47
 70
     1
102
RTVSPost2010Prop48
 90
       50
102
RTVSPost2010PropOp48
 70
     1
102
RTVSPost2010Prop49
280
     0
102
RTVSPost2010PropOp49
 70
     1
102
RTVSPost2010Prop50
 90
       50
102
RTVSPost2010PropOp50
 70
     1
102
RTVSPost2010Prop51ColorIndex
 90
      256
102
RTVSPost2010Prop51ColorRGB
 90
-16777216
102
RTVSPost2010PropOp51
 70
     0
102
RTVSPost2010Prop52
140
1.0
102
RTVSPost2010PropOp52
 70
     0
102
RTVSPost2010Prop53
 90
        2
102
RTVSPost2010PropOp53
 70
     1
102
RTVSPost2010Prop54
  1
strokes_ogs.tif
102
RTVSPost2010PropOp54
 70
     1
102
RTVSPost2010Prop55
280
     0
102
RTVSPost2010PropOp55
 70
     1
102
RTVSPost2010Prop56
140
1.0
102
RTVSPost2010PropOp56
 70
     1
102
RTVSPost2010Prop57
140
1.0
102
RTVSPost2010PropOp57
 70
     1
  0
XRECORD
  5
2A6
102
{ACAD_REACTORS
330
2A5
102
}
330
2A5
100
AcDbXrecord
280
     1
102
RTVSPropertyOp0
 70
     1
102
RTVSPropertyOp1
 70
     1
102
RTVSPropertyOp2
 70
     1
102
RTVSPropertyOp3
 70
     1
102
RTVSPropertyOp4
 70
     1
102
RTVSPropertyOp5
 70
     1
102
RTVSPropertyOp6
 70
     1
102
RTVSPropertyOp7
 70
     1
102
RTVSPropertyOp8
 70
     1
102
RTVSPropertyOp9
 70
     1
102
RTVSPropertyOp10
 70
     1
102
RTVSPropertyOp11
 70
     1
102
RTVSPropertyOp12
 70
     1
102
RTVSPropertyOp13
 70
     1
102
RTVSPropertyOp14
 70
     1
102
RTVSPropertyOp15
 70
     1
102
RTVSPropertyOp16
 70
     1
102
RTVSPropertyOp17
 70
     1
102
RTVSPropertyOp18
 70
     1
102
RTVSPropertyOp19
 70
     1
102
RTVSPropertyOp20
 70
     1
102
RTVSPropertyOp21
 70
     1
102
RTVSPropertyOp22
 70
     1
102
RTVSPropertyOp23
 70
     1
102
RTVSPropertyOp24
 70
     1
102
RTVSPropertyOp25
 70
     1
102
RTVSPropertyOp26
 70
     1
102
RTVSPropertyOp27
 70
     1
102
RTVSPropertyOp28
 70
     1
102
RTVSPropertyOp29
 70
     1
102
RTVSPropertyOp30
 70
     1
102
RTVSPropertyOp31
 70
     1
102
RTVSPropertyOp32
 70
     1
102
RTVSPropertyOp33
 70
     1
102
RTVSPropertyOp34
 70
     1
102
RTVSPropertyOp35
 70
     1
102
RTVSPropertyOp36
 70
     1
102
RTVSPropertyOp37
 70
     1
102
RTVSPropertyOp38
 70
     1
102
RTVSPropertyOp39
 70
     1
102
RTVSPropertyOp40
 70
     1
102
RTVSPropertyOp41
 70
     1
102
RTVSPropertyOp42
 70
     1
102
RTVSPropertyOp43
 70
     1
102
RTVSPropertyOp44
 70
     1
102
RTVSPropertyOp45
 70
     1
102
RTVSPropertyOp46
 70
     1
102
RTVSPropertyOp47
 70
     1
102
RTVSPropertyOp48
 70
     1
102
RTVSPropertyOp49
 70
     1
102
RTVSPropertyOp50
 70
     1
102
RTVSPropertyOp51
 70
     0
102
RTVSPropertyOp52
 70
     0
102
RTVSPropertyOp53
 70
     1
102
RTVSPropertyOp54
 70
     1
102
RTVSPropertyOp55
 70
     1
102
RTVSPropertyOp56
 70
     1
102
RTVSPropertyOp57
 70
     1
102
RTVSPost2010Prop28
280
     0
102
RTVSPost2010PropOp28
 70
     1
102
RTVSPost2010Prop29
280
     1
102
RTVSPost2010PropOp29
 70
     1
102
RTVSPost2010Prop30
280
     1
102
RTVSPost2010PropOp30
 70
     1
102
RTVSPost2010Prop31
280
     0
102
RTVSPost2010PropOp31
 70
     1
102
RTVSPost2010Prop32
280
     0
102
RTVSPost2010PropOp32
 70
     1
102
RTVSPost2010Prop33
280
     0
102
RTVSPost2010PropOp33
 70
     1
102
RTVSPost2010Prop34
280
     0
102
RTVSPost2010PropOp34
 70
     1
102
RTVSPost2010Prop35
280
     0
102
RTVSPost2010PropOp35
 70
     1
102
RTVSPost2010Prop36
280
     0
102
RTVSPost2010PropOp36
 70
     1
102
RTVSPost2010Prop37
 90
       50
102
RTVSPost2010PropOp37
 70
     1
102
RTVSPost2010Prop38
140
0.0
102
RTVSPost2010PropOp38
 70
     1
102
RTVSPost2010Prop39
140
1.0
102
RTVSPost2010PropOp39
 70
     1
102
RTVSPost2010Prop40
 90
        0
102
RTVSPost2010PropOp40
 70
     1
102
RTVSPost2010Prop41ColorIndex
 90
       18
102
RTVSPost2010Prop41ColorRGB
 90
        0
102
RTVSPost2010PropOp41
 70
     1
102
RTVSPost2010Prop42
 90
       50
102
RTVSPost2010PropOp42
 70
     1
102
RTVSPost2010Prop43
 90
        3
102
RTVSPost2010PropOp43
 70
     1
102
RTVSPost2010Prop44ColorIndex
 90
        5
102
RTVSPost2010Prop44ColorRGB
 90
      255
102
RTVSPost2010PropOp44
 70
     1
102
RTVSPost2010Prop45
280
     0
102
RTVSPost2010PropOp45
 70
     1
102
RTVSPost2010Prop46
 90
       50
102
RTVSPost2010PropOp46
 70
     1
102
RTVSPost2010Prop47
 90
       50
102
RTVSPost2010PropOp47
 70
     1
102
RTVSPost2010Prop48
 90
       50
102
RTVSPost2010PropOp48
 70
     1
102
RTVSPost2010Prop49
280
     0
102
RTVSPost2010PropOp49
 70
     1
102
RTVSPost2010Prop50
 90
       50
102
RTVSPost2010PropOp50
 70
     1
102
RTVSPost2010Prop51ColorIndex
 90
      256
102
RTVSPost2010Prop51ColorRGB
 90
-16777216
102
RTVSPost2010PropOp51
 70
     0
102
RTVSPost2010Prop52
140
1.0
102
RTVSPost2010PropOp52
 70
     0
102
RTVSPost2010Prop53
 90
        2
102
RTVSPost2010PropOp53
 70
     1
102
RTVSPost2010Prop54
  1
strokes_ogs.tif
102
RTVSPost2010PropOp54
 70
     1
102
RTVSPost2010Prop55
280
     0
102
RTVSPost2010PropOp55
 70
     1
102
RTVSPost2010Prop56
140
1.0
102
RTVSPost2010PropOp56
 70
     1
102
RTVSPost2010Prop57
140
1.0
102
RTVSPost2010PropOp57
 70
     1
  0
XRECORD
  5
29A
102
{ACAD_REACTORS
330
299
102
}
330
299
100
AcDbXrecord
280
     1
102
RTVSPropertyOp0
 70
     1
102
RTVSPropertyOp1
 70
     1
102
RTVSPropertyOp2
 70
     1
102
RTVSPropertyOp3
 70
     1
102
RTVSPropertyOp4
 70
     1
102
RTVSPropertyOp5
 70
     1
102
RTVSPropertyOp6
 70
     1
102
RTVSPropertyOp7
 70
     1
102
RTVSPropertyOp8
 70
     1
102
RTVSPropertyOp9
 70
     1
102
RTVSPropertyOp10
 70
     1
102
RTVSPropertyOp11
 70
     1
102
RTVSPropertyOp12
 70
     1
102
RTVSPropertyOp13
 70
     1
102
RTVSPropertyOp14
 70
     1
102
RTVSPropertyOp15
 70
     1
102
RTVSPropertyOp16
 70
     1
102
RTVSPropertyOp17
 70
     1
102
RTVSPropertyOp18
 70
     1
102
RTVSPropertyOp19
 70
     1
102
RTVSPropertyOp20
 70
     1
102
RTVSPropertyOp21
 70
     1
102
RTVSPropertyOp22
 70
     1
102
RTVSPropertyOp23
 70
     1
102
RTVSPropertyOp24
 70
     1
102
RTVSPropertyOp25
 70
     1
102
RTVSPropertyOp26
 70
     1
102
RTVSPropertyOp27
 70
     1
102
RTVSPropertyOp28
 70
     1
102
RTVSPropertyOp29
 70
     1
102
RTVSPropertyOp30
 70
     1
102
RTVSPropertyOp31
 70
     1
102
RTVSPropertyOp32
 70
     1
102
RTVSPropertyOp33
 70
     1
102
RTVSPropertyOp34
 70
     1
102
RTVSPropertyOp35
 70
     1
102
RTVSPropertyOp36
 70
     1
102
RTVSPropertyOp37
 70
     1
102
RTVSPropertyOp38
 70
     1
102
RTVSPropertyOp39
 70
     1
102
RTVSPropertyOp40
 70
     1
102
RTVSPropertyOp41
 70
     1
102
RTVSPropertyOp42
 70
     1
102
RTVSPropertyOp43
 70
     1
102
RTVSPropertyOp44
 70
     1
102
RTVSPropertyOp45
 70
     1
102
RTVSPropertyOp46
 70
     1
102
RTVSPropertyOp47
 70
     1
102
RTVSPropertyOp48
 70
     1
102
RTVSPropertyOp49
 70
     1
102
RTVSPropertyOp50
 70
     1
102
RTVSPropertyOp51
 70
     0
102
RTVSPropertyOp52
 70
     0
102
RTVSPropertyOp53
 70
     1
102
RTVSPropertyOp54
 70
     1
102
RTVSPropertyOp55
 70
     1
102
RTVSPropertyOp56
 70
     1
102
RTVSPropertyOp57
 70
     1
102
RTVSPost2010Prop28
280
     0
102
RTVSPost2010PropOp28
 70
     1
102
RTVSPost2010Prop29
280
     1
102
RTVSPost2010PropOp29
 70
     1
102
RTVSPost2010Prop30
280
     1
102
RTVSPost2010PropOp30
 70
     1
102
RTVSPost2010Prop31
280
     0
102
RTVSPost2010PropOp31
 70
     1
102
RTVSPost2010Prop32
280
     0
102
RTVSPost2010PropOp32
 70
     1
102
RTVSPost2010Prop33
280
     0
102
RTVSPost2010PropOp33
 70
     1
102
RTVSPost2010Prop34
280
     0
102
RTVSPost2010PropOp34
 70
     1
102
RTVSPost2010Prop35
280
     0
102
RTVSPost2010PropOp35
 70
     1
102
RTVSPost2010Prop36
280
     0
102
RTVSPost2010PropOp36
 70
     1
102
RTVSPost2010Prop37
 90
       50
102
RTVSPost2010PropOp37
 70
     1
102
RTVSPost2010Prop38
140
0.0
102
RTVSPost2010PropOp38
 70
     1
102
RTVSPost2010Prop39
140
1.0
102
RTVSPost2010PropOp39
 70
     1
102
RTVSPost2010Prop40
 90
        0
102
RTVSPost2010PropOp40
 70
     1
102
RTVSPost2010Prop41ColorIndex
 90
       18
102
RTVSPost2010Prop41ColorRGB
 90
        0
102
RTVSPost2010PropOp41
 70
     1
102
RTVSPost2010Prop42
 90
       50
102
RTVSPost2010PropOp42
 70
     1
102
RTVSPost2010Prop43
 90
        3
102
RTVSPost2010PropOp43
 70
     1
102
RTVSPost2010Prop44ColorIndex
 90
        5
102
RTVSPost2010Prop44ColorRGB
 90
      255
102
RTVSPost2010PropOp44
 70
     1
102
RTVSPost2010Prop45
280
     0
102
RTVSPost2010PropOp45
 70
     1
102
RTVSPost2010Prop46
 90
       50
102
RTVSPost2010PropOp46
 70
     1
102
RTVSPost2010Prop47
 90
       50
102
RTVSPost2010PropOp47
 70
     1
102
RTVSPost2010Prop48
 90
       50
102
RTVSPost2010PropOp48
 70
     1
102
RTVSPost2010Prop49
280
     0
102
RTVSPost2010PropOp49
 70
     1
102
RTVSPost2010Prop50
 90
       50
102
RTVSPost2010PropOp50
 70
     1
102
RTVSPost2010Prop51ColorIndex
 90
      256
102
RTVSPost2010Prop51ColorRGB
 90
-16777216
102
RTVSPost2010PropOp51
 70
     0
102
RTVSPost2010Prop52
140
1.0
102
RTVSPost2010PropOp52
 70
     0
102
RTVSPost2010Prop53
 90
        2
102
RTVSPost2010PropOp53
 70
     1
102
RTVSPost2010Prop54
  1
strokes_ogs.tif
102
RTVSPost2010PropOp54
 70
     1
102
RTVSPost2010Prop55
280
     0
102
RTVSPost2010PropOp55
 70
     1
102
RTVSPost2010Prop56
140
1.0
102
RTVSPost2010PropOp56
 70
     1
102
RTVSPost2010Prop57
140
1.0
102
RTVSPost2010PropOp57
 70
     1
  0
XRECORD
  5
29C
102
{ACAD_REACTORS
330
29B
102
}
330
29B
100
AcDbXrecord
280
     1
102
RTVSPropertyOp0
 70
     1
102
RTVSPropertyOp1
 70
     1
102
RTVSPropertyOp2
 70
     1
102
RTVSPropertyOp3
 70
     1
102
RTVSPropertyOp4
 70
     1
102
RTVSPropertyOp5
 70
     1
102
RTVSPropertyOp6
 70
     1
102
RTVSPropertyOp7
 70
     1
102
RTVSPropertyOp8
 70
     1
102
RTVSPropertyOp9
 70
     1
102
RTVSPropertyOp10
 70
     1
102
RTVSPropertyOp11
 70
     1
102
RTVSPropertyOp12
 70
     1
102
RTVSPropertyOp13
 70
     1
102
RTVSPropertyOp14
 70
     1
102
RTVSPropertyOp15
 70
     1
102
RTVSPropertyOp16
 70
     1
102
RTVSPropertyOp17
 70
     1
102
RTVSPropertyOp18
 70
     1
102
RTVSPropertyOp19
 70
     1
102
RTVSPropertyOp20
 70
     1
102
RTVSPropertyOp21
 70
     1
102
RTVSPropertyOp22
 70
     1
102
RTVSPropertyOp23
 70
     1
102
RTVSPropertyOp24
 70
     1
102
RTVSPropertyOp25
 70
     1
102
RTVSPropertyOp26
 70
     1
102
RTVSPropertyOp27
 70
     1
102
RTVSPropertyOp28
 70
     1
102
RTVSPropertyOp29
 70
     1
102
RTVSPropertyOp30
 70
     1
102
RTVSPropertyOp31
 70
     1
102
RTVSPropertyOp32
 70
     1
102
RTVSPropertyOp33
 70
     1
102
RTVSPropertyOp34
 70
     1
102
RTVSPropertyOp35
 70
     1
102
RTVSPropertyOp36
 70
     1
102
RTVSPropertyOp37
 70
     1
102
RTVSPropertyOp38
 70
     1
102
RTVSPropertyOp39
 70
     1
102
RTVSPropertyOp40
 70
     1
102
RTVSPropertyOp41
 70
     1
102
RTVSPropertyOp42
 70
     1
102
RTVSPropertyOp43
 70
     1
102
RTVSPropertyOp44
 70
     1
102
RTVSPropertyOp45
 70
     1
102
RTVSPropertyOp46
 70
     1
102
RTVSPropertyOp47
 70
     1
102
RTVSPropertyOp48
 70
     1
102
RTVSPropertyOp49
 70
     1
102
RTVSPropertyOp50
 70
     1
102
RTVSPropertyOp51
 70
     0
102
RTVSPropertyOp52
 70
     0
102
RTVSPropertyOp53
 70
     1
102
RTVSPropertyOp54
 70
     1
102
RTVSPropertyOp55
 70
     1
102
RTVSPropertyOp56
 70
     1
102
RTVSPropertyOp57
 70
     1
102
RTVSPost2010Prop28
280
     0
102
RTVSPost2010PropOp28
 70
     1
102
RTVSPost2010Prop29
280
     1
102
RTVSPost2010PropOp29
 70
     1
102
RTVSPost2010Prop30
280
     1
102
RTVSPost2010PropOp30
 70
     1
102
RTVSPost2010Prop31
280
     0
102
RTVSPost2010PropOp31
 70
     1
102
RTVSPost2010Prop32
280
     0
102
RTVSPost2010PropOp32
 70
     1
102
RTVSPost2010Prop33
280
     0
102
RTVSPost2010PropOp33
 70
     1
102
RTVSPost2010Prop34
280
     0
102
RTVSPost2010PropOp34
 70
     1
102
RTVSPost2010Prop35
280
     0
102
RTVSPost2010PropOp35
 70
     1
102
RTVSPost2010Prop36
280
     0
102
RTVSPost2010PropOp36
 70
     1
102
RTVSPost2010Prop37
 90
       50
102
RTVSPost2010PropOp37
 70
     1
102
RTVSPost2010Prop38
140
0.0
102
RTVSPost2010PropOp38
 70
     1
102
RTVSPost2010Prop39
140
1.0
102
RTVSPost2010PropOp39
 70
     1
102
RTVSPost2010Prop40
 90
        0
102
RTVSPost2010PropOp40
 70
     1
102
RTVSPost2010Prop41ColorIndex
 90
       18
102
RTVSPost2010Prop41ColorRGB
 90
        0
102
RTVSPost2010PropOp41
 70
     1
102
RTVSPost2010Prop42
 90
       50
102
RTVSPost2010PropOp42
 70
     1
102
RTVSPost2010Prop43
 90
        3
102
RTVSPost2010PropOp43
 70
     1
102
RTVSPost2010Prop44ColorIndex
 90
        5
102
RTVSPost2010Prop44ColorRGB
 90
      255
102
RTVSPost2010PropOp44
 70
     1
102
RTVSPost2010Prop45
280
     0
102
RTVSPost2010PropOp45
 70
     1
102
RTVSPost2010Prop46
 90
       50
102
RTVSPost2010PropOp46
 70
     1
102
RTVSPost2010Prop47
 90
       50
102
RTVSPost2010PropOp47
 70
     1
102
RTVSPost2010Prop48
 90
       50
102
RTVSPost2010PropOp48
 70
     1
102
RTVSPost2010Prop49
280
     0
102
RTVSPost2010PropOp49
 70
     1
102
RTVSPost2010Prop50
 90
       50
102
RTVSPost2010PropOp50
 70
     1
102
RTVSPost2010Prop51ColorIndex
 90
      256
102
RTVSPost2010Prop51ColorRGB
 90
-16777216
102
RTVSPost2010PropOp51
 70
     0
102
RTVSPost2010Prop52
140
1.0
102
RTVSPost2010PropOp52
 70
     0
102
RTVSPost2010Prop53
 90
        2
102
RTVSPost2010PropOp53
 70
     1
102
RTVSPost2010Prop54
  1
strokes_ogs.tif
102
RTVSPost2010PropOp54
 70
     1
102
RTVSPost2010Prop55
280
     0
102
RTVSPost2010PropOp55
 70
     1
102
RTVSPost2010Prop56
140
1.0
102
RTVSPost2010PropOp56
 70
     1
102
RTVSPost2010Prop57
140
1.0
102
RTVSPost2010PropOp57
 70
     1
  0
XRECORD
  5
2AC
102
{ACAD_REACTORS
330
2AB
102
}
330
2AB
100
AcDbXrecord
280
     1
102
RTVSPropertyOp0
 70
     0
102
RTVSPropertyOp1
 70
     0
102
RTVSPropertyOp2
 70
     0
102
RTVSPropertyOp3
 70
     0
102
RTVSPropertyOp4
 70
     0
102
RTVSPropertyOp5
 70
     0
102
RTVSPropertyOp6
 70
     0
102
RTVSPropertyOp7
 70
     0
102
RTVSPropertyOp8
 70
     0
102
RTVSPropertyOp9
 70
     0
102
RTVSPropertyOp10
 70
     0
102
RTVSPropertyOp11
 70
     0
102
RTVSPropertyOp12
 70
     0
102
RTVSPropertyOp13
 70
     0
102
RTVSPropertyOp14
 70
     2
102
RTVSPropertyOp15
 70
     0
102
RTVSPropertyOp16
 70
     0
102
RTVSPropertyOp17
 70
     0
102
RTVSPropertyOp18
 70
     0
102
RTVSPropertyOp19
 70
     0
102
RTVSPropertyOp20
 70
     0
102
RTVSPropertyOp21
 70
     0
102
RTVSPropertyOp22
 70
     0
102
RTVSPropertyOp23
 70
     0
102
RTVSPropertyOp24
 70
     0
102
RTVSPropertyOp25
 70
     0
102
RTVSPropertyOp26
 70
     0
102
RTVSPropertyOp27
 70
     0
102
RTVSPropertyOp28
 70
     0
102
RTVSPropertyOp29
 70
     0
102
RTVSPropertyOp30
 70
     0
102
RTVSPropertyOp31
 70
     0
102
RTVSPropertyOp32
 70
     0
102
RTVSPropertyOp33
 70
     0
102
RTVSPropertyOp34
 70
     0
102
RTVSPropertyOp35
 70
     0
102
RTVSPropertyOp36
 70
     0
102
RTVSPropertyOp37
 70
     0
102
RTVSPropertyOp38
 70
     0
102
RTVSPropertyOp39
 70
     0
102
RTVSPropertyOp40
 70
     0
102
RTVSPropertyOp41
 70
     0
102
RTVSPropertyOp42
 70
     0
102
RTVSPropertyOp43
 70
     0
102
RTVSPropertyOp44
 70
     0
102
RTVSPropertyOp45
 70
     0
102
RTVSPropertyOp46
 70
     0
102
RTVSPropertyOp47
 70
     0
102
RTVSPropertyOp48
 70
     0
102
RTVSPropertyOp49
 70
     0
102
RTVSPropertyOp50
 70
     0
102
RTVSPropertyOp51
 70
     0
102
RTVSPropertyOp52
 70
     0
102
RTVSPropertyOp53
 70
     0
102
RTVSPropertyOp54
 70
     0
102
RTVSPropertyOp55
 70
     0
102
RTVSPropertyOp56
 70
     0
102
RTVSPropertyOp57
 70
     0
102
RTVSPost2010Prop28
280
     0
102
RTVSPost2010PropOp28
 70
     0
102
RTVSPost2010Prop29
280
     1
102
RTVSPost2010PropOp29
 70
     0
102
RTVSPost2010Prop30
280
     1
102
RTVSPost2010PropOp30
 70
     0
102
RTVSPost2010Prop31
280
     0
102
RTVSPost2010PropOp31
 70
     0
102
RTVSPost2010Prop32
280
     0
102
RTVSPost2010PropOp32
 70
     0
102
RTVSPost2010Prop33
280
     0
102
RTVSPost2010PropOp33
 70
     0
102
RTVSPost2010Prop34
280
     0
102
RTVSPost2010PropOp34
 70
     0
102
RTVSPost2010Prop35
280
     0
102
RTVSPost2010PropOp35
 70
     0
102
RTVSPost2010Prop36
280
     0
102
RTVSPost2010PropOp36
 70
     0
102
RTVSPost2010Prop37
 90
       50
102
RTVSPost2010PropOp37
 70
     0
102
RTVSPost2010Prop38
140
0.0
102
RTVSPost2010PropOp38
 70
     0
102
RTVSPost2010Prop39
140
1.0
102
RTVSPost2010PropOp39
 70
     0
102
RTVSPost2010Prop40
 90
        0
102
RTVSPost2010PropOp40
 70
     0
102
RTVSPost2010Prop41ColorIndex
 90
       18
102
RTVSPost2010Prop41ColorRGB
 90
        0
102
RTVSPost2010PropOp41
 70
     0
102
RTVSPost2010Prop42
 90
       50
102
RTVSPost2010PropOp42
 70
     0
102
RTVSPost2010Prop43
 90
        3
102
RTVSPost2010PropOp43
 70
     0
102
RTVSPost2010Prop44ColorIndex
 90
        5
102
RTVSPost2010Prop44ColorRGB
 90
      255
102
RTVSPost2010PropOp44
 70
     0
102
RTVSPost2010Prop45
280
     0
102
RTVSPost2010PropOp45
 70
     0
102
RTVSPost2010Prop46
 90
       50
102
RTVSPost2010PropOp46
 70
     0
102
RTVSPost2010Prop47
 90
       50
102
RTVSPost2010PropOp47
 70
     0
102
RTVSPost2010Prop48
 90
       50
102
RTVSPost2010PropOp48
 70
     0
102
RTVSPost2010Prop49
280
     0
102
RTVSPost2010PropOp49
 70
     0
102
RTVSPost2010Prop50
 90
       50
102
RTVSPost2010PropOp50
 70
     0
102
RTVSPost2010Prop51ColorIndex
 90
      256
102
RTVSPost2010Prop51ColorRGB
 90
-16777216
102
RTVSPost2010PropOp51
 70
     0
102
RTVSPost2010Prop52
140
1.0
102
RTVSPost2010PropOp52
 70
     0
102
RTVSPost2010Prop53
 90
        2
102
RTVSPost2010PropOp53
 70
     0
102
RTVSPost2010Prop54
  1
strokes_ogs.tif
102
RTVSPost2010PropOp54
 70
     0
102
RTVSPost2010Prop55
280
     0
102
RTVSPost2010PropOp55
 70
     0
102
RTVSPost2010Prop56
140
1.0
102
RTVSPost2010PropOp56
 70
     0
102
RTVSPost2010Prop57
140
1.0
102
RTVSPost2010PropOp57
 70
     0
  0
XRECORD
  5
2A4
102
{ACAD_REACTORS
330
2A3
102
}
330
2A3
100
AcDbXrecord
280
     1
102
RTVSPropertyOp0
 70
     1
102
RTVSPropertyOp1
 70
     1
102
RTVSPropertyOp2
 70
     1
102
RTVSPropertyOp3
 70
     1
102
RTVSPropertyOp4
 70
     1
102
RTVSPropertyOp5
 70
     1
102
RTVSPropertyOp6
 70
     1
102
RTVSPropertyOp7
 70
     1
102
RTVSPropertyOp8
 70
     1
102
RTVSPropertyOp9
 70
     1
102
RTVSPropertyOp10
 70
     1
102
RTVSPropertyOp11
 70
     1
102
RTVSPropertyOp12
 70
     1
102
RTVSPropertyOp13
 70
     1
102
RTVSPropertyOp14
 70
     1
102
RTVSPropertyOp15
 70
     1
102
RTVSPropertyOp16
 70
     1
102
RTVSPropertyOp17
 70
     1
102
RTVSPropertyOp18
 70
     1
102
RTVSPropertyOp19
 70
     1
102
RTVSPropertyOp20
 70
     1
102
RTVSPropertyOp21
 70
     1
102
RTVSPropertyOp22
 70
     1
102
RTVSPropertyOp23
 70
     1
102
RTVSPropertyOp24
 70
     1
102
RTVSPropertyOp25
 70
     1
102
RTVSPropertyOp26
 70
     1
102
RTVSPropertyOp27
 70
     1
102
RTVSPropertyOp28
 70
     1
102
RTVSPropertyOp29
 70
     1
102
RTVSPropertyOp30
 70
     1
102
RTVSPropertyOp31
 70
     1
102
RTVSPropertyOp32
 70
     1
102
RTVSPropertyOp33
 70
     1
102
RTVSPropertyOp34
 70
     1
102
RTVSPropertyOp35
 70
     1
102
RTVSPropertyOp36
 70
     1
102
RTVSPropertyOp37
 70
     1
102
RTVSPropertyOp38
 70
     1
102
RTVSPropertyOp39
 70
     1
102
RTVSPropertyOp40
 70
     1
102
RTVSPropertyOp41
 70
     1
102
RTVSPropertyOp42
 70
     1
102
RTVSPropertyOp43
 70
     1
102
RTVSPropertyOp44
 70
     1
102
RTVSPropertyOp45
 70
     1
102
RTVSPropertyOp46
 70
     1
102
RTVSPropertyOp47
 70
     1
102
RTVSPropertyOp48
 70
     1
102
RTVSPropertyOp49
 70
     1
102
RTVSPropertyOp50
 70
     1
102
RTVSPropertyOp51
 70
     0
102
RTVSPropertyOp52
 70
     0
102
RTVSPropertyOp53
 70
     1
102
RTVSPropertyOp54
 70
     1
102
RTVSPropertyOp55
 70
     1
102
RTVSPropertyOp56
 70
     1
102
RTVSPropertyOp57
 70
     1
102
RTVSPost2010Prop28
280
     0
102
RTVSPost2010PropOp28
 70
     1
102
RTVSPost2010Prop29
280
     1
102
RTVSPost2010PropOp29
 70
     1
102
RTVSPost2010Prop30
280
     1
102
RTVSPost2010PropOp30
 70
     1
102
RTVSPost2010Prop31
280
     0
102
RTVSPost2010PropOp31
 70
     1
102
RTVSPost2010Prop32
280
     0
102
RTVSPost2010PropOp32
 70
     1
102
RTVSPost2010Prop33
280
     0
102
RTVSPost2010PropOp33
 70
     1
102
RTVSPost2010Prop34
280
     0
102
RTVSPost2010PropOp34
 70
     1
102
RTVSPost2010Prop35
280
     0
102
RTVSPost2010PropOp35
 70
     1
102
RTVSPost2010Prop36
280
     0
102
RTVSPost2010PropOp36
 70
     1
102
RTVSPost2010Prop37
 90
       50
102
RTVSPost2010PropOp37
 70
     1
102
RTVSPost2010Prop38
140
0.0
102
RTVSPost2010PropOp38
 70
     1
102
RTVSPost2010Prop39
140
1.0
102
RTVSPost2010PropOp39
 70
     1
102
RTVSPost2010Prop40
 90
        0
102
RTVSPost2010PropOp40
 70
     1
102
RTVSPost2010Prop41ColorIndex
 90
       18
102
RTVSPost2010Prop41ColorRGB
 90
        0
102
RTVSPost2010PropOp41
 70
     1
102
RTVSPost2010Prop42
 90
       50
102
RTVSPost2010PropOp42
 70
     1
102
RTVSPost2010Prop43
 90
        3
102
RTVSPost2010PropOp43
 70
     1
102
RTVSPost2010Prop44ColorIndex
 90
        5
102
RTVSPost2010Prop44ColorRGB
 90
      255
102
RTVSPost2010PropOp44
 70
     1
102
RTVSPost2010Prop45
280
     0
102
RTVSPost2010PropOp45
 70
     1
102
RTVSPost2010Prop46
 90
       50
102
RTVSPost2010PropOp46
 70
     1
102
RTVSPost2010Prop47
 90
       50
102
RTVSPost2010PropOp47
 70
     1
102
RTVSPost2010Prop48
 90
       50
102
RTVSPost2010PropOp48
 70
     1
102
RTVSPost2010Prop49
280
     0
102
RTVSPost2010PropOp49
 70
     1
102
RTVSPost2010Prop50
 90
       50
102
RTVSPost2010PropOp50
 70
     1
102
RTVSPost2010Prop51ColorIndex
 90
      256
102
RTVSPost2010Prop51ColorRGB
 90
-16777216
102
RTVSPost2010PropOp51
 70
     0
102
RTVSPost2010Prop52
140
1.0
102
RTVSPost2010PropOp52
 70
     0
102
RTVSPost2010Prop53
 90
        2
102
RTVSPost2010PropOp53
 70
     1
102
RTVSPost2010Prop54
  1
strokes_ogs.tif
102
RTVSPost2010PropOp54
 70
     1
102
RTVSPost2010Prop55
280
     0
102
RTVSPost2010PropOp55
 70
     1
102
RTVSPost2010Prop56
140
1.0
102
RTVSPost2010PropOp56
 70
     1
102
RTVSPost2010Prop57
140
1.0
102
RTVSPost2010PropOp57
 70
     1
  0
XRECORD
  5
288
102
{ACAD_REACTORS
330
287
102
}
330
287
100
AcDbXrecord
280
     1
102
RTVSPropertyOp0
 70
     1
102
RTVSPropertyOp1
 70
     1
102
RTVSPropertyOp2
 70
     1
102
RTVSPropertyOp3
 70
     1
102
RTVSPropertyOp4
 70
     1
102
RTVSPropertyOp5
 70
     1
102
RTVSPropertyOp6
 70
     1
102
RTVSPropertyOp7
 70
     1
102
RTVSPropertyOp8
 70
     1
102
RTVSPropertyOp9
 70
     1
102
RTVSPropertyOp10
 70
     1
102
RTVSPropertyOp11
 70
     1
102
RTVSPropertyOp12
 70
     1
102
RTVSPropertyOp13
 70
     1
102
RTVSPropertyOp14
 70
     1
102
RTVSPropertyOp15
 70
     1
102
RTVSPropertyOp16
 70
     1
102
RTVSPropertyOp17
 70
     1
102
RTVSPropertyOp18
 70
     1
102
RTVSPropertyOp19
 70
     1
102
RTVSPropertyOp20
 70
     1
102
RTVSPropertyOp21
 70
     1
102
RTVSPropertyOp22
 70
     1
102
RTVSPropertyOp23
 70
     1
102
RTVSPropertyOp24
 70
     1
102
RTVSPropertyOp25
 70
     1
102
RTVSPropertyOp26
 70
     1
102
RTVSPropertyOp27
 70
     1
102
RTVSPropertyOp28
 70
     1
102
RTVSPropertyOp29
 70
     1
102
RTVSPropertyOp30
 70
     1
102
RTVSPropertyOp31
 70
     1
102
RTVSPropertyOp32
 70
     1
102
RTVSPropertyOp33
 70
     1
102
RTVSPropertyOp34
 70
     1
102
RTVSPropertyOp35
 70
     1
102
RTVSPropertyOp36
 70
     1
102
RTVSPropertyOp37
 70
     1
102
RTVSPropertyOp38
 70
     1
102
RTVSPropertyOp39
 70
     1
102
RTVSPropertyOp40
 70
     1
102
RTVSPropertyOp41
 70
     1
102
RTVSPropertyOp42
 70
     1
102
RTVSPropertyOp43
 70
     1
102
RTVSPropertyOp44
 70
     1
102
RTVSPropertyOp45
 70
     1
102
RTVSPropertyOp46
 70
     1
102
RTVSPropertyOp47
 70
     1
102
RTVSPropertyOp48
 70
     1
102
RTVSPropertyOp49
 70
     1
102
RTVSPropertyOp50
 70
     1
102
RTVSPropertyOp51
 70
     0
102
RTVSPropertyOp52
 70
     0
102
RTVSPropertyOp53
 70
     1
102
RTVSPropertyOp54
 70
     1
102
RTVSPropertyOp55
 70
     1
102
RTVSPropertyOp56
 70
     1
102
RTVSPropertyOp57
 70
     1
102
RTVSPost2010Prop28
280
     0
102
RTVSPost2010PropOp28
 70
     1
102
RTVSPost2010Prop29
280
     1
102
RTVSPost2010PropOp29
 70
     1
102
RTVSPost2010Prop30
280
     1
102
RTVSPost2010PropOp30
 70
     1
102
RTVSPost2010Prop31
280
     0
102
RTVSPost2010PropOp31
 70
     1
102
RTVSPost2010Prop32
280
     0
102
RTVSPost2010PropOp32
 70
     1
102
RTVSPost2010Prop33
280
     0
102
RTVSPost2010PropOp33
 70
     1
102
RTVSPost2010Prop34
280
     0
102
RTVSPost2010PropOp34
 70
     1
102
RTVSPost2010Prop35
280
     0
102
RTVSPost2010PropOp35
 70
     1
102
RTVSPost2010Prop36
280
     0
102
RTVSPost2010PropOp36
 70
     1
102
RTVSPost2010Prop37
 90
       50
102
RTVSPost2010PropOp37
 70
     1
102
RTVSPost2010Prop38
140
0.0
102
RTVSPost2010PropOp38
 70
     1
102
RTVSPost2010Prop39
140
1.0
102
RTVSPost2010PropOp39
 70
     1
102
RTVSPost2010Prop40
 90
        0
102
RTVSPost2010PropOp40
 70
     1
102
RTVSPost2010Prop41ColorIndex
 90
       18
102
RTVSPost2010Prop41ColorRGB
 90
        0
102
RTVSPost2010PropOp41
 70
     1
102
RTVSPost2010Prop42
 90
       50
102
RTVSPost2010PropOp42
 70
     1
102
RTVSPost2010Prop43
 90
        3
102
RTVSPost2010PropOp43
 70
     1
102
RTVSPost2010Prop44ColorIndex
 90
        5
102
RTVSPost2010Prop44ColorRGB
 90
      255
102
RTVSPost2010PropOp44
 70
     1
102
RTVSPost2010Prop45
280
     0
102
RTVSPost2010PropOp45
 70
     1
102
RTVSPost2010Prop46
 90
       50
102
RTVSPost2010PropOp46
 70
     1
102
RTVSPost2010Prop47
 90
       50
102
RTVSPost2010PropOp47
 70
     1
102
RTVSPost2010Prop48
 90
       50
102
RTVSPost2010PropOp48
 70
     1
102
RTVSPost2010Prop49
280
     0
102
RTVSPost2010PropOp49
 70
     1
102
RTVSPost2010Prop50
 90
       50
102
RTVSPost2010PropOp50
 70
     1
102
RTVSPost2010Prop51ColorIndex
 90
      256
102
RTVSPost2010Prop51ColorRGB
 90
-16777216
102
RTVSPost2010PropOp51
 70
     0
102
RTVSPost2010Prop52
140
1.0
102
RTVSPost2010PropOp52
 70
     0
102
RTVSPost2010Prop53
 90
        2
102
RTVSPost2010PropOp53
 70
     1
102
RTVSPost2010Prop54
  1
strokes_ogs.tif
102
RTVSPost2010PropOp54
 70
     1
102
RTVSPost2010Prop55
280
     0
102
RTVSPost2010PropOp55
 70
     1
102
RTVSPost2010Prop56
140
1.0
102
RTVSPost2010PropOp56
 70
     1
102
RTVSPost2010Prop57
140
1.0
102
RTVSPost2010PropOp57
 70
     1
  0
XRECORD
  5
28A
102
{ACAD_REACTORS
330
289
102
}
330
289
100
AcDbXrecord
280
     1
102
RTVSPropertyOp0
 70
     1
102
RTVSPropertyOp1
 70
     1
102
RTVSPropertyOp2
 70
     1
102
RTVSPropertyOp3
 70
     1
102
RTVSPropertyOp4
 70
     1
102
RTVSPropertyOp5
 70
     1
102
RTVSPropertyOp6
 70
     1
102
RTVSPropertyOp7
 70
     1
102
RTVSPropertyOp8
 70
     1
102
RTVSPropertyOp9
 70
     1
102
RTVSPropertyOp10
 70
     1
102
RTVSPropertyOp11
 70
     1
102
RTVSPropertyOp12
 70
     1
102
RTVSPropertyOp13
 70
     1
102
RTVSPropertyOp14
 70
     1
102
RTVSPropertyOp15
 70
     1
102
RTVSPropertyOp16
 70
     1
102
RTVSPropertyOp17
 70
     1
102
RTVSPropertyOp18
 70
     1
102
RTVSPropertyOp19
 70
     1
102
RTVSPropertyOp20
 70
     1
102
RTVSPropertyOp21
 70
     1
102
RTVSPropertyOp22
 70
     1
102
RTVSPropertyOp23
 70
     1
102
RTVSPropertyOp24
 70
     1
102
RTVSPropertyOp25
 70
     1
102
RTVSPropertyOp26
 70
     1
102
RTVSPropertyOp27
 70
     1
102
RTVSPropertyOp28
 70
     1
102
RTVSPropertyOp29
 70
     1
102
RTVSPropertyOp30
 70
     1
102
RTVSPropertyOp31
 70
     1
102
RTVSPropertyOp32
 70
     1
102
RTVSPropertyOp33
 70
     1
102
RTVSPropertyOp34
 70
     1
102
RTVSPropertyOp35
 70
     1
102
RTVSPropertyOp36
 70
     1
102
RTVSPropertyOp37
 70
     1
102
RTVSPropertyOp38
 70
     1
102
RTVSPropertyOp39
 70
     1
102
RTVSPropertyOp40
 70
     1
102
RTVSPropertyOp41
 70
     1
102
RTVSPropertyOp42
 70
     1
102
RTVSPropertyOp43
 70
     1
102
RTVSPropertyOp44
 70
     1
102
RTVSPropertyOp45
 70
     1
102
RTVSPropertyOp46
 70
     1
102
RTVSPropertyOp47
 70
     1
102
RTVSPropertyOp48
 70
     1
102
RTVSPropertyOp49
 70
     1
102
RTVSPropertyOp50
 70
     1
102
RTVSPropertyOp51
 70
     0
102
RTVSPropertyOp52
 70
     0
102
RTVSPropertyOp53
 70
     1
102
RTVSPropertyOp54
 70
     1
102
RTVSPropertyOp55
 70
     1
102
RTVSPropertyOp56
 70
     1
102
RTVSPropertyOp57
 70
     1
102
RTVSPost2010Prop28
280
     0
102
RTVSPost2010PropOp28
 70
     1
102
RTVSPost2010Prop29
280
     1
102
RTVSPost2010PropOp29
 70
     1
102
RTVSPost2010Prop30
280
     1
102
RTVSPost2010PropOp30
 70
     1
102
RTVSPost2010Prop31
280
     0
102
RTVSPost2010PropOp31
 70
     1
102
RTVSPost2010Prop32
280
     0
102
RTVSPost2010PropOp32
 70
     1
102
RTVSPost2010Prop33
280
     0
102
RTVSPost2010PropOp33
 70
     1
102
RTVSPost2010Prop34
280
     0
102
RTVSPost2010PropOp34
 70
     1
102
RTVSPost2010Prop35
280
     0
102
RTVSPost2010PropOp35
 70
     1
102
RTVSPost2010Prop36
280
     0
102
RTVSPost2010PropOp36
 70
     1
102
RTVSPost2010Prop37
 90
       50
102
RTVSPost2010PropOp37
 70
     1
102
RTVSPost2010Prop38
140
0.0
102
RTVSPost2010PropOp38
 70
     1
102
RTVSPost2010Prop39
140
1.0
102
RTVSPost2010PropOp39
 70
     1
102
RTVSPost2010Prop40
 90
        0
102
RTVSPost2010PropOp40
 70
     1
102
RTVSPost2010Prop41ColorIndex
 90
       18
102
RTVSPost2010Prop41ColorRGB
 90
        0
102
RTVSPost2010PropOp41
 70
     1
102
RTVSPost2010Prop42
 90
       50
102
RTVSPost2010PropOp42
 70
     1
102
RTVSPost2010Prop43
 90
        3
102
RTVSPost2010PropOp43
 70
     1
102
RTVSPost2010Prop44ColorIndex
 90
        5
102
RTVSPost2010Prop44ColorRGB
 90
      255
102
RTVSPost2010PropOp44
 70
     1
102
RTVSPost2010Prop45
280
     0
102
RTVSPost2010PropOp45
 70
     1
102
RTVSPost2010Prop46
 90
       50
102
RTVSPost2010PropOp46
 70
     1
102
RTVSPost2010Prop47
 90
       50
102
RTVSPost2010PropOp47
 70
     1
102
RTVSPost2010Prop48
 90
       50
102
RTVSPost2010PropOp48
 70
     1
102
RTVSPost2010Prop49
280
     0
102
RTVSPost2010PropOp49
 70
     1
102
RTVSPost2010Prop50
 90
       50
102
RTVSPost2010PropOp50
 70
     1
102
RTVSPost2010Prop51ColorIndex
 90
      256
102
RTVSPost2010Prop51ColorRGB
 90
-16777216
102
RTVSPost2010PropOp51
 70
     0
102
RTVSPost2010Prop52
140
1.0
102
RTVSPost2010PropOp52
 70
     0
102
RTVSPost2010Prop53
 90
        2
102
RTVSPost2010PropOp53
 70
     1
102
RTVSPost2010Prop54
  1
strokes_ogs.tif
102
RTVSPost2010PropOp54
 70
     1
102
RTVSPost2010Prop55
280
     0
102
RTVSPost2010PropOp55
 70
     1
102
RTVSPost2010Prop56
140
1.0
102
RTVSPost2010PropOp56
 70
     1
102
RTVSPost2010Prop57
140
1.0
102
RTVSPost2010PropOp57
 70
     1
  0
XRECORD
  5
28C
102
{ACAD_REACTORS
330
28B
102
}
330
28B
100
AcDbXrecord
280
     1
102
RTVSPropertyOp0
 70
     1
102
RTVSPropertyOp1
 70
     1
102
RTVSPropertyOp2
 70
     1
102
RTVSPropertyOp3
 70
     1
102
RTVSPropertyOp4
 70
     1
102
RTVSPropertyOp5
 70
     1
102
RTVSPropertyOp6
 70
     1
102
RTVSPropertyOp7
 70
     1
102
RTVSPropertyOp8
 70
     1
102
RTVSPropertyOp9
 70
     1
102
RTVSPropertyOp10
 70
     1
102
RTVSPropertyOp11
 70
     1
102
RTVSPropertyOp12
 70
     1
102
RTVSPropertyOp13
 70
     1
102
RTVSPropertyOp14
 70
     1
102
RTVSPropertyOp15
 70
     1
102
RTVSPropertyOp16
 70
     1
102
RTVSPropertyOp17
 70
     1
102
RTVSPropertyOp18
 70
     1
102
RTVSPropertyOp19
 70
     1
102
RTVSPropertyOp20
 70
     1
102
RTVSPropertyOp21
 70
     1
102
RTVSPropertyOp22
 70
     1
102
RTVSPropertyOp23
 70
     1
102
RTVSPropertyOp24
 70
     1
102
RTVSPropertyOp25
 70
     1
102
RTVSPropertyOp26
 70
     1
102
RTVSPropertyOp27
 70
     1
102
RTVSPropertyOp28
 70
     1
102
RTVSPropertyOp29
 70
     1
102
RTVSPropertyOp30
 70
     1
102
RTVSPropertyOp31
 70
     1
102
RTVSPropertyOp32
 70
     1
102
RTVSPropertyOp33
 70
     1
102
RTVSPropertyOp34
 70
     1
102
RTVSPropertyOp35
 70
     1
102
RTVSPropertyOp36
 70
     1
102
RTVSPropertyOp37
 70
     1
102
RTVSPropertyOp38
 70
     1
102
RTVSPropertyOp39
 70
     1
102
RTVSPropertyOp40
 70
     1
102
RTVSPropertyOp41
 70
     1
102
RTVSPropertyOp42
 70
     1
102
RTVSPropertyOp43
 70
     1
102
RTVSPropertyOp44
 70
     1
102
RTVSPropertyOp45
 70
     1
102
RTVSPropertyOp46
 70
     1
102
RTVSPropertyOp47
 70
     1
102
RTVSPropertyOp48
 70
     1
102
RTVSPropertyOp49
 70
     1
102
RTVSPropertyOp50
 70
     1
102
RTVSPropertyOp51
 70
     0
102
RTVSPropertyOp52
 70
     0
102
RTVSPropertyOp53
 70
     1
102
RTVSPropertyOp54
 70
     1
102
RTVSPropertyOp55
 70
     1
102
RTVSPropertyOp56
 70
     1
102
RTVSPropertyOp57
 70
     1
102
RTVSPost2010Prop28
280
     0
102
RTVSPost2010PropOp28
 70
     1
102
RTVSPost2010Prop29
280
     1
102
RTVSPost2010PropOp29
 70
     1
102
RTVSPost2010Prop30
280
     1
102
RTVSPost2010PropOp30
 70
     1
102
RTVSPost2010Prop31
280
     0
102
RTVSPost2010PropOp31
 70
     1
102
RTVSPost2010Prop32
280
     0
102
RTVSPost2010PropOp32
 70
     1
102
RTVSPost2010Prop33
280
     0
102
RTVSPost2010PropOp33
 70
     1
102
RTVSPost2010Prop34
280
     0
102
RTVSPost2010PropOp34
 70
     1
102
RTVSPost2010Prop35
280
     0
102
RTVSPost2010PropOp35
 70
     1
102
RTVSPost2010Prop36
280
     0
102
RTVSPost2010PropOp36
 70
     1
102
RTVSPost2010Prop37
 90
       50
102
RTVSPost2010PropOp37
 70
     1
102
RTVSPost2010Prop38
140
0.0
102
RTVSPost2010PropOp38
 70
     1
102
RTVSPost2010Prop39
140
1.0
102
RTVSPost2010PropOp39
 70
     1
102
RTVSPost2010Prop40
 90
        0
102
RTVSPost2010PropOp40
 70
     1
102
RTVSPost2010Prop41ColorIndex
 90
       18
102
RTVSPost2010Prop41ColorRGB
 90
        0
102
RTVSPost2010PropOp41
 70
     1
102
RTVSPost2010Prop42
 90
       50
102
RTVSPost2010PropOp42
 70
     1
102
RTVSPost2010Prop43
 90
        3
102
RTVSPost2010PropOp43
 70
     1
102
RTVSPost2010Prop44ColorIndex
 90
        5
102
RTVSPost2010Prop44ColorRGB
 90
      255
102
RTVSPost2010PropOp44
 70
     1
102
RTVSPost2010Prop45
280
     0
102
RTVSPost2010PropOp45
 70
     1
102
RTVSPost2010Prop46
 90
       50
102
RTVSPost2010PropOp46
 70
     1
102
RTVSPost2010Prop47
 90
       50
102
RTVSPost2010PropOp47
 70
     1
102
RTVSPost2010Prop48
 90
       50
102
RTVSPost2010PropOp48
 70
     1
102
RTVSPost2010Prop49
280
     0
102
RTVSPost2010PropOp49
 70
     1
102
RTVSPost2010Prop50
 90
       50
102
RTVSPost2010PropOp50
 70
     1
102
RTVSPost2010Prop51ColorIndex
 90
      256
102
RTVSPost2010Prop51ColorRGB
 90
-16777216
102
RTVSPost2010PropOp51
 70
     0
102
RTVSPost2010Prop52
140
1.0
102
RTVSPost2010PropOp52
 70
     0
102
RTVSPost2010Prop53
 90
        2
102
RTVSPost2010PropOp53
 70
     1
102
RTVSPost2010Prop54
  1
strokes_ogs.tif
102
RTVSPost2010PropOp54
 70
     1
102
RTVSPost2010Prop55
280
     0
102
RTVSPost2010PropOp55
 70
     1
102
RTVSPost2010Prop56
140
1.0
102
RTVSPost2010PropOp56
 70
     1
102
RTVSPost2010Prop57
140
1.0
102
RTVSPost2010PropOp57
 70
     1
  0
XRECORD
  5
28E
102
{ACAD_REACTORS
330
28D
102
}
330
28D
100
AcDbXrecord
280
     1
102
RTVSPropertyOp0
 70
     1
102
RTVSPropertyOp1
 70
     1
102
RTVSPropertyOp2
 70
     1
102
RTVSPropertyOp3
 70
     1
102
RTVSPropertyOp4
 70
     1
102
RTVSPropertyOp5
 70
     1
102
RTVSPropertyOp6
 70
     1
102
RTVSPropertyOp7
 70
     1
102
RTVSPropertyOp8
 70
     1
102
RTVSPropertyOp9
 70
     1
102
RTVSPropertyOp10
 70
     1
102
RTVSPropertyOp11
 70
     1
102
RTVSPropertyOp12
 70
     1
102
RTVSPropertyOp13
 70
     1
102
RTVSPropertyOp14
 70
     1
102
RTVSPropertyOp15
 70
     1
102
RTVSPropertyOp16
 70
     1
102
RTVSPropertyOp17
 70
     1
102
RTVSPropertyOp18
 70
     1
102
RTVSPropertyOp19
 70
     1
102
RTVSPropertyOp20
 70
     1
102
RTVSPropertyOp21
 70
     1
102
RTVSPropertyOp22
 70
     1
102
RTVSPropertyOp23
 70
     1
102
RTVSPropertyOp24
 70
     1
102
RTVSPropertyOp25
 70
     1
102
RTVSPropertyOp26
 70
     1
102
RTVSPropertyOp27
 70
     1
102
RTVSPropertyOp28
 70
     1
102
RTVSPropertyOp29
 70
     1
102
RTVSPropertyOp30
 70
     1
102
RTVSPropertyOp31
 70
     1
102
RTVSPropertyOp32
 70
     1
102
RTVSPropertyOp33
 70
     1
102
RTVSPropertyOp34
 70
     1
102
RTVSPropertyOp35
 70
     1
102
RTVSPropertyOp36
 70
     1
102
RTVSPropertyOp37
 70
     1
102
RTVSPropertyOp38
 70
     1
102
RTVSPropertyOp39
 70
     1
102
RTVSPropertyOp40
 70
     1
102
RTVSPropertyOp41
 70
     1
102
RTVSPropertyOp42
 70
     1
102
RTVSPropertyOp43
 70
     1
102
RTVSPropertyOp44
 70
     1
102
RTVSPropertyOp45
 70
     1
102
RTVSPropertyOp46
 70
     1
102
RTVSPropertyOp47
 70
     1
102
RTVSPropertyOp48
 70
     1
102
RTVSPropertyOp49
 70
     1
102
RTVSPropertyOp50
 70
     1
102
RTVSPropertyOp51
 70
     0
102
RTVSPropertyOp52
 70
     0
102
RTVSPropertyOp53
 70
     1
102
RTVSPropertyOp54
 70
     1
102
RTVSPropertyOp55
 70
     1
102
RTVSPropertyOp56
 70
     1
102
RTVSPropertyOp57
 70
     1
102
RTVSPost2010Prop28
280
     0
102
RTVSPost2010PropOp28
 70
     1
102
RTVSPost2010Prop29
280
     1
102
RTVSPost2010PropOp29
 70
     1
102
RTVSPost2010Prop30
280
     1
102
RTVSPost2010PropOp30
 70
     1
102
RTVSPost2010Prop31
280
     0
102
RTVSPost2010PropOp31
 70
     1
102
RTVSPost2010Prop32
280
     0
102
RTVSPost2010PropOp32
 70
     1
102
RTVSPost2010Prop33
280
     0
102
RTVSPost2010PropOp33
 70
     1
102
RTVSPost2010Prop34
280
     0
102
RTVSPost2010PropOp34
 70
     1
102
RTVSPost2010Prop35
280
     0
102
RTVSPost2010PropOp35
 70
     1
102
RTVSPost2010Prop36
280
     0
102
RTVSPost2010PropOp36
 70
     1
102
RTVSPost2010Prop37
 90
       50
102
RTVSPost2010PropOp37
 70
     1
102
RTVSPost2010Prop38
140
0.0
102
RTVSPost2010PropOp38
 70
     1
102
RTVSPost2010Prop39
140
1.0
102
RTVSPost2010PropOp39
 70
     1
102
RTVSPost2010Prop40
 90
        0
102
RTVSPost2010PropOp40
 70
     1
102
RTVSPost2010Prop41ColorIndex
 90
       18
102
RTVSPost2010Prop41ColorRGB
 90
        0
102
RTVSPost2010PropOp41
 70
     1
102
RTVSPost2010Prop42
 90
       50
102
RTVSPost2010PropOp42
 70
     1
102
RTVSPost2010Prop43
 90
        3
102
RTVSPost2010PropOp43
 70
     1
102
RTVSPost2010Prop44ColorIndex
 90
        5
102
RTVSPost2010Prop44ColorRGB
 90
      255
102
RTVSPost2010PropOp44
 70
     1
102
RTVSPost2010Prop45
280
     0
102
RTVSPost2010PropOp45
 70
     1
102
RTVSPost2010Prop46
 90
       50
102
RTVSPost2010PropOp46
 70
     1
102
RTVSPost2010Prop47
 90
       50
102
RTVSPost2010PropOp47
 70
     1
102
RTVSPost2010Prop48
 90
       50
102
RTVSPost2010PropOp48
 70
     1
102
RTVSPost2010Prop49
280
     0
102
RTVSPost2010PropOp49
 70
     1
102
RTVSPost2010Prop50
 90
       50
102
RTVSPost2010PropOp50
 70
     1
102
RTVSPost2010Prop51ColorIndex
 90
      256
102
RTVSPost2010Prop51ColorRGB
 90
-16777216
102
RTVSPost2010PropOp51
 70
     0
102
RTVSPost2010Prop52
140
1.0
102
RTVSPost2010PropOp52
 70
     0
102
RTVSPost2010Prop53
 90
        2
102
RTVSPost2010PropOp53
 70
     1
102
RTVSPost2010Prop54
  1
strokes_ogs.tif
102
RTVSPost2010PropOp54
 70
     1
102
RTVSPost2010Prop55
280
     0
102
RTVSPost2010PropOp55
 70
     1
102
RTVSPost2010Prop56
140
1.0
102
RTVSPost2010PropOp56
 70
     1
102
RTVSPost2010Prop57
140
1.0
102
RTVSPost2010PropOp57
 70
     1
  0
XRECORD
  5
294
102
{ACAD_REACTORS
330
293
102
}
330
293
100
AcDbXrecord
280
     1
102
RTVSPropertyOp0
 70
     1
102
RTVSPropertyOp1
 70
     1
102
RTVSPropertyOp2
 70
     1
102
RTVSPropertyOp3
 70
     1
102
RTVSPropertyOp4
 70
     1
102
RTVSPropertyOp5
 70
     1
102
RTVSPropertyOp6
 70
     1
102
RTVSPropertyOp7
 70
     1
102
RTVSPropertyOp8
 70
     1
102
RTVSPropertyOp9
 70
     1
102
RTVSPropertyOp10
 70
     1
102
RTVSPropertyOp11
 70
     1
102
RTVSPropertyOp12
 70
     1
102
RTVSPropertyOp13
 70
     1
102
RTVSPropertyOp14
 70
     1
102
RTVSPropertyOp15
 70
     1
102
RTVSPropertyOp16
 70
     1
102
RTVSPropertyOp17
 70
     1
102
RTVSPropertyOp18
 70
     1
102
RTVSPropertyOp19
 70
     1
102
RTVSPropertyOp20
 70
     1
102
RTVSPropertyOp21
 70
     1
102
RTVSPropertyOp22
 70
     1
102
RTVSPropertyOp23
 70
     1
102
RTVSPropertyOp24
 70
     1
102
RTVSPropertyOp25
 70
     1
102
RTVSPropertyOp26
 70
     1
102
RTVSPropertyOp27
 70
     1
102
RTVSPropertyOp28
 70
     1
102
RTVSPropertyOp29
 70
     1
102
RTVSPropertyOp30
 70
     1
102
RTVSPropertyOp31
 70
     1
102
RTVSPropertyOp32
 70
     1
102
RTVSPropertyOp33
 70
     1
102
RTVSPropertyOp34
 70
     1
102
RTVSPropertyOp35
 70
     1
102
RTVSPropertyOp36
 70
     1
102
RTVSPropertyOp37
 70
     1
102
RTVSPropertyOp38
 70
     1
102
RTVSPropertyOp39
 70
     1
102
RTVSPropertyOp40
 70
     1
102
RTVSPropertyOp41
 70
     1
102
RTVSPropertyOp42
 70
     1
102
RTVSPropertyOp43
 70
     1
102
RTVSPropertyOp44
 70
     1
102
RTVSPropertyOp45
 70
     1
102
RTVSPropertyOp46
 70
     1
102
RTVSPropertyOp47
 70
     1
102
RTVSPropertyOp48
 70
     1
102
RTVSPropertyOp49
 70
     1
102
RTVSPropertyOp50
 70
     1
102
RTVSPropertyOp51
 70
     0
102
RTVSPropertyOp52
 70
     0
102
RTVSPropertyOp53
 70
     1
102
RTVSPropertyOp54
 70
     1
102
RTVSPropertyOp55
 70
     1
102
RTVSPropertyOp56
 70
     1
102
RTVSPropertyOp57
 70
     1
102
RTVSPost2010Prop28
280
     0
102
RTVSPost2010PropOp28
 70
     1
102
RTVSPost2010Prop29
280
     1
102
RTVSPost2010PropOp29
 70
     1
102
RTVSPost2010Prop30
280
     1
102
RTVSPost2010PropOp30
 70
     1
102
RTVSPost2010Prop31
280
     0
102
RTVSPost2010PropOp31
 70
     1
102
RTVSPost2010Prop32
280
     0
102
RTVSPost2010PropOp32
 70
     1
102
RTVSPost2010Prop33
280
     0
102
RTVSPost2010PropOp33
 70
     1
102
RTVSPost2010Prop34
280
     0
102
RTVSPost2010PropOp34
 70
     1
102
RTVSPost2010Prop35
280
     0
102
RTVSPost2010PropOp35
 70
     1
102
RTVSPost2010Prop36
280
     0
102
RTVSPost2010PropOp36
 70
     1
102
RTVSPost2010Prop37
 90
       50
102
RTVSPost2010PropOp37
 70
     1
102
RTVSPost2010Prop38
140
0.0
102
RTVSPost2010PropOp38
 70
     1
102
RTVSPost2010Prop39
140
1.0
102
RTVSPost2010PropOp39
 70
     1
102
RTVSPost2010Prop40
 90
        0
102
RTVSPost2010PropOp40
 70
     1
102
RTVSPost2010Prop41ColorIndex
 90
       18
102
RTVSPost2010Prop41ColorRGB
 90
        0
102
RTVSPost2010PropOp41
 70
     1
102
RTVSPost2010Prop42
 90
       50
102
RTVSPost2010PropOp42
 70
     1
102
RTVSPost2010Prop43
 90
        3
102
RTVSPost2010PropOp43
 70
     1
102
RTVSPost2010Prop44ColorIndex
 90
        5
102
RTVSPost2010Prop44ColorRGB
 90
      255
102
RTVSPost2010PropOp44
 70
     1
102
RTVSPost2010Prop45
280
     0
102
RTVSPost2010PropOp45
 70
     1
102
RTVSPost2010Prop46
 90
       50
102
RTVSPost2010PropOp46
 70
     1
102
RTVSPost2010Prop47
 90
       50
102
RTVSPost2010PropOp47
 70
     1
102
RTVSPost2010Prop48
 90
       50
102
RTVSPost2010PropOp48
 70
     1
102
RTVSPost2010Prop49
280
     0
102
RTVSPost2010PropOp49
 70
     1
102
RTVSPost2010Prop50
 90
       50
102
RTVSPost2010PropOp50
 70
     1
102
RTVSPost2010Prop51ColorIndex
 90
      256
102
RTVSPost2010Prop51ColorRGB
 90
-16777216
102
RTVSPost2010PropOp51
 70
     0
102
RTVSPost2010Prop52
140
1.0
102
RTVSPost2010PropOp52
 70
     0
102
RTVSPost2010Prop53
 90
        2
102
RTVSPost2010PropOp53
 70
     1
102
RTVSPost2010Prop54
  1
strokes_ogs.tif
102
RTVSPost2010PropOp54
 70
     1
102
RTVSPost2010Prop55
280
     0
102
RTVSPost2010PropOp55
 70
     1
102
RTVSPost2010Prop56
140
1.0
102
RTVSPost2010PropOp56
 70
     1
102
RTVSPost2010Prop57
140
1.0
102
RTVSPost2010PropOp57
 70
     1
  0
XRECORD
  5
2A8
102
{ACAD_REACTORS
330
2A7
102
}
330
2A7
100
AcDbXrecord
280
     1
102
RTVSPropertyOp0
 70
     0
102
RTVSPropertyOp1
 70
     0
102
RTVSPropertyOp2
 70
     0
102
RTVSPropertyOp3
 70
     0
102
RTVSPropertyOp4
 70
     0
102
RTVSPropertyOp5
 70
     0
102
RTVSPropertyOp6
 70
     0
102
RTVSPropertyOp7
 70
     0
102
RTVSPropertyOp8
 70
     0
102
RTVSPropertyOp9
 70
     0
102
RTVSPropertyOp10
 70
     0
102
RTVSPropertyOp11
 70
     0
102
RTVSPropertyOp12
 70
     0
102
RTVSPropertyOp13
 70
     0
102
RTVSPropertyOp14
 70
     2
102
RTVSPropertyOp15
 70
     0
102
RTVSPropertyOp16
 70
     0
102
RTVSPropertyOp17
 70
     0
102
RTVSPropertyOp18
 70
     0
102
RTVSPropertyOp19
 70
     0
102
RTVSPropertyOp20
 70
     0
102
RTVSPropertyOp21
 70
     0
102
RTVSPropertyOp22
 70
     0
102
RTVSPropertyOp23
 70
     0
102
RTVSPropertyOp24
 70
     0
102
RTVSPropertyOp25
 70
     0
102
RTVSPropertyOp26
 70
     0
102
RTVSPropertyOp27
 70
     0
102
RTVSPropertyOp28
 70
     0
102
RTVSPropertyOp29
 70
     0
102
RTVSPropertyOp30
 70
     0
102
RTVSPropertyOp31
 70
     0
102
RTVSPropertyOp32
 70
     0
102
RTVSPropertyOp33
 70
     0
102
RTVSPropertyOp34
 70
     0
102
RTVSPropertyOp35
 70
     0
102
RTVSPropertyOp36
 70
     0
102
RTVSPropertyOp37
 70
     0
102
RTVSPropertyOp38
 70
     0
102
RTVSPropertyOp39
 70
     0
102
RTVSPropertyOp40
 70
     0
102
RTVSPropertyOp41
 70
     0
102
RTVSPropertyOp42
 70
     0
102
RTVSPropertyOp43
 70
     0
102
RTVSPropertyOp44
 70
     0
102
RTVSPropertyOp45
 70
     0
102
RTVSPropertyOp46
 70
     0
102
RTVSPropertyOp47
 70
     0
102
RTVSPropertyOp48
 70
     0
102
RTVSPropertyOp49
 70
     0
102
RTVSPropertyOp50
 70
     0
102
RTVSPropertyOp51
 70
     0
102
RTVSPropertyOp52
 70
     0
102
RTVSPropertyOp53
 70
     0
102
RTVSPropertyOp54
 70
     0
102
RTVSPropertyOp55
 70
     0
102
RTVSPropertyOp56
 70
     0
102
RTVSPropertyOp57
 70
     0
102
RTVSPost2010Prop28
280
     0
102
RTVSPost2010PropOp28
 70
     0
102
RTVSPost2010Prop29
280
     1
102
RTVSPost2010PropOp29
 70
     0
102
RTVSPost2010Prop30
280
     1
102
RTVSPost2010PropOp30
 70
     0
102
RTVSPost2010Prop31
280
     0
102
RTVSPost2010PropOp31
 70
     0
102
RTVSPost2010Prop32
280
     0
102
RTVSPost2010PropOp32
 70
     0
102
RTVSPost2010Prop33
280
     0
102
RTVSPost2010PropOp33
 70
     0
102
RTVSPost2010Prop34
280
     0
102
RTVSPost2010PropOp34
 70
     0
102
RTVSPost2010Prop35
280
     0
102
RTVSPost2010PropOp35
 70
     0
102
RTVSPost2010Prop36
280
     0
102
RTVSPost2010PropOp36
 70
     0
102
RTVSPost2010Prop37
 90
       50
102
RTVSPost2010PropOp37
 70
     0
102
RTVSPost2010Prop38
140
0.0
102
RTVSPost2010PropOp38
 70
     0
102
RTVSPost2010Prop39
140
1.0
102
RTVSPost2010PropOp39
 70
     0
102
RTVSPost2010Prop40
 90
        0
102
RTVSPost2010PropOp40
 70
     0
102
RTVSPost2010Prop41ColorIndex
 90
       18
102
RTVSPost2010Prop41ColorRGB
 90
        0
102
RTVSPost2010PropOp41
 70
     0
102
RTVSPost2010Prop42
 90
       50
102
RTVSPost2010PropOp42
 70
     0
102
RTVSPost2010Prop43
 90
        3
102
RTVSPost2010PropOp43
 70
     0
102
RTVSPost2010Prop44ColorIndex
 90
        5
102
RTVSPost2010Prop44ColorRGB
 90
      255
102
RTVSPost2010PropOp44
 70
     0
102
RTVSPost2010Prop45
280
     0
102
RTVSPost2010PropOp45
 70
     0
102
RTVSPost2010Prop46
 90
       50
102
RTVSPost2010PropOp46
 70
     0
102
RTVSPost2010Prop47
 90
       50
102
RTVSPost2010PropOp47
 70
     0
102
RTVSPost2010Prop48
 90
       50
102
RTVSPost2010PropOp48
 70
     0
102
RTVSPost2010Prop49
280
     0
102
RTVSPost2010PropOp49
 70
     0
102
RTVSPost2010Prop50
 90
       50
102
RTVSPost2010PropOp50
 70
     0
102
RTVSPost2010Prop51ColorIndex
 90
      256
102
RTVSPost2010Prop51ColorRGB
 90
-16777216
102
RTVSPost2010PropOp51
 70
     0
102
RTVSPost2010Prop52
140
1.0
102
RTVSPost2010PropOp52
 70
     0
102
RTVSPost2010Prop53
 90
        2
102
RTVSPost2010PropOp53
 70
     0
102
RTVSPost2010Prop54
  1
strokes_ogs.tif
102
RTVSPost2010PropOp54
 70
     0
102
RTVSPost2010Prop55
280
     0
102
RTVSPost2010PropOp55
 70
     0
102
RTVSPost2010Prop56
140
1.0
102
RTVSPost2010PropOp56
 70
     0
102
RTVSPost2010Prop57
140
1.0
102
RTVSPost2010PropOp57
 70
     0
  0
XRECORD
  5
2A2
102
{ACAD_REACTORS
330
2A1
102
}
330
2A1
100
AcDbXrecord
280
     1
102
RTVSPropertyOp0
 70
     1
102
RTVSPropertyOp1
 70
     1
102
RTVSPropertyOp2
 70
     1
102
RTVSPropertyOp3
 70
     1
102
RTVSPropertyOp4
 70
     1
102
RTVSPropertyOp5
 70
     1
102
RTVSPropertyOp6
 70
     1
102
RTVSPropertyOp7
 70
     1
102
RTVSPropertyOp8
 70
     1
102
RTVSPropertyOp9
 70
     1
102
RTVSPropertyOp10
 70
     1
102
RTVSPropertyOp11
 70
     1
102
RTVSPropertyOp12
 70
     1
102
RTVSPropertyOp13
 70
     1
102
RTVSPropertyOp14
 70
     1
102
RTVSPropertyOp15
 70
     1
102
RTVSPropertyOp16
 70
     1
102
RTVSPropertyOp17
 70
     1
102
RTVSPropertyOp18
 70
     1
102
RTVSPropertyOp19
 70
     1
102
RTVSPropertyOp20
 70
     1
102
RTVSPropertyOp21
 70
     1
102
RTVSPropertyOp22
 70
     1
102
RTVSPropertyOp23
 70
     1
102
RTVSPropertyOp24
 70
     1
102
RTVSPropertyOp25
 70
     1
102
RTVSPropertyOp26
 70
     1
102
RTVSPropertyOp27
 70
     1
102
RTVSPropertyOp28
 70
     1
102
RTVSPropertyOp29
 70
     1
102
RTVSPropertyOp30
 70
     1
102
RTVSPropertyOp31
 70
     1
102
RTVSPropertyOp32
 70
     1
102
RTVSPropertyOp33
 70
     1
102
RTVSPropertyOp34
 70
     1
102
RTVSPropertyOp35
 70
     1
102
RTVSPropertyOp36
 70
     1
102
RTVSPropertyOp37
 70
     1
102
RTVSPropertyOp38
 70
     1
102
RTVSPropertyOp39
 70
     1
102
RTVSPropertyOp40
 70
     1
102
RTVSPropertyOp41
 70
     1
102
RTVSPropertyOp42
 70
     1
102
RTVSPropertyOp43
 70
     1
102
RTVSPropertyOp44
 70
     1
102
RTVSPropertyOp45
 70
     1
102
RTVSPropertyOp46
 70
     1
102
RTVSPropertyOp47
 70
     1
102
RTVSPropertyOp48
 70
     1
102
RTVSPropertyOp49
 70
     1
102
RTVSPropertyOp50
 70
     1
102
RTVSPropertyOp51
 70
     0
102
RTVSPropertyOp52
 70
     0
102
RTVSPropertyOp53
 70
     1
102
RTVSPropertyOp54
 70
     1
102
RTVSPropertyOp55
 70
     1
102
RTVSPropertyOp56
 70
     1
102
RTVSPropertyOp57
 70
     1
102
RTVSPost2010Prop28
280
     0
102
RTVSPost2010PropOp28
 70
     1
102
RTVSPost2010Prop29
280
     1
102
RTVSPost2010PropOp29
 70
     1
102
RTVSPost2010Prop30
280
     1
102
RTVSPost2010PropOp30
 70
     1
102
RTVSPost2010Prop31
280
     0
102
RTVSPost2010PropOp31
 70
     1
102
RTVSPost2010Prop32
280
     0
102
RTVSPost2010PropOp32
 70
     1
102
RTVSPost2010Prop33
280
     0
102
RTVSPost2010PropOp33
 70
     1
102
RTVSPost2010Prop34
280
     0
102
RTVSPost2010PropOp34
 70
     1
102
RTVSPost2010Prop35
280
     0
102
RTVSPost2010PropOp35
 70
     1
102
RTVSPost2010Prop36
280
     0
102
RTVSPost2010PropOp36
 70
     1
102
RTVSPost2010Prop37
 90
       50
102
RTVSPost2010PropOp37
 70
     1
102
RTVSPost2010Prop38
140
0.0
102
RTVSPost2010PropOp38
 70
     1
102
RTVSPost2010Prop39
140
1.0
102
RTVSPost2010PropOp39
 70
     1
102
RTVSPost2010Prop40
 90
        0
102
RTVSPost2010PropOp40
 70
     1
102
RTVSPost2010Prop41ColorIndex
 90
       18
102
RTVSPost2010Prop41ColorRGB
 90
        0
102
RTVSPost2010PropOp41
 70
     1
102
RTVSPost2010Prop42
 90
       50
102
RTVSPost2010PropOp42
 70
     1
102
RTVSPost2010Prop43
 90
        3
102
RTVSPost2010PropOp43
 70
     1
102
RTVSPost2010Prop44ColorIndex
 90
        5
102
RTVSPost2010Prop44ColorRGB
 90
      255
102
RTVSPost2010PropOp44
 70
     1
102
RTVSPost2010Prop45
280
     0
102
RTVSPost2010PropOp45
 70
     1
102
RTVSPost2010Prop46
 90
       50
102
RTVSPost2010PropOp46
 70
     1
102
RTVSPost2010Prop47
 90
       50
102
RTVSPost2010PropOp47
 70
     1
102
RTVSPost2010Prop48
 90
       50
102
RTVSPost2010PropOp48
 70
     1
102
RTVSPost2010Prop49
280
     0
102
RTVSPost2010PropOp49
 70
     1
102
RTVSPost2010Prop50
 90
       50
102
RTVSPost2010PropOp50
 70
     1
102
RTVSPost2010Prop51ColorIndex
 90
      256
102
RTVSPost2010Prop51ColorRGB
 90
-16777216
102
RTVSPost2010PropOp51
 70
     0
102
RTVSPost2010Prop52
140
1.0
102
RTVSPost2010PropOp52
 70
     0
102
RTVSPost2010Prop53
 90
        2
102
RTVSPost2010PropOp53
 70
     1
102
RTVSPost2010Prop54
  1
strokes_ogs.tif
102
RTVSPost2010PropOp54
 70
     1
102
RTVSPost2010Prop55
280
     0
102
RTVSPost2010PropOp55
 70
     1
102
RTVSPost2010Prop56
140
1.0
102
RTVSPost2010PropOp56
 70
     1
102
RTVSPost2010Prop57
140
1.0
102
RTVSPost2010PropOp57
 70
     1
  0
XRECORD
  5
2AA
102
{ACAD_REACTORS
330
2A9
102
}
330
2A9
100
AcDbXrecord
280
     1
102
RTVSPropertyOp0
 70
     0
102
RTVSPropertyOp1
 70
     0
102
RTVSPropertyOp2
 70
     0
102
RTVSPropertyOp3
 70
     0
102
RTVSPropertyOp4
 70
     0
102
RTVSPropertyOp5
 70
     0
102
RTVSPropertyOp6
 70
     0
102
RTVSPropertyOp7
 70
     0
102
RTVSPropertyOp8
 70
     0
102
RTVSPropertyOp9
 70
     0
102
RTVSPropertyOp10
 70
     0
102
RTVSPropertyOp11
 70
     0
102
RTVSPropertyOp12
 70
     0
102
RTVSPropertyOp13
 70
     0
102
RTVSPropertyOp14
 70
     2
102
RTVSPropertyOp15
 70
     0
102
RTVSPropertyOp16
 70
     0
102
RTVSPropertyOp17
 70
     0
102
RTVSPropertyOp18
 70
     0
102
RTVSPropertyOp19
 70
     0
102
RTVSPropertyOp20
 70
     0
102
RTVSPropertyOp21
 70
     0
102
RTVSPropertyOp22
 70
     0
102
RTVSPropertyOp23
 70
     0
102
RTVSPropertyOp24
 70
     0
102
RTVSPropertyOp25
 70
     0
102
RTVSPropertyOp26
 70
     0
102
RTVSPropertyOp27
 70
     0
102
RTVSPropertyOp28
 70
     0
102
RTVSPropertyOp29
 70
     0
102
RTVSPropertyOp30
 70
     0
102
RTVSPropertyOp31
 70
     0
102
RTVSPropertyOp32
 70
     0
102
RTVSPropertyOp33
 70
     0
102
RTVSPropertyOp34
 70
     0
102
RTVSPropertyOp35
 70
     0
102
RTVSPropertyOp36
 70
     0
102
RTVSPropertyOp37
 70
     0
102
RTVSPropertyOp38
 70
     0
102
RTVSPropertyOp39
 70
     0
102
RTVSPropertyOp40
 70
     0
102
RTVSPropertyOp41
 70
     0
102
RTVSPropertyOp42
 70
     0
102
RTVSPropertyOp43
 70
     0
102
RTVSPropertyOp44
 70
     0
102
RTVSPropertyOp45
 70
     0
102
RTVSPropertyOp46
 70
     0
102
RTVSPropertyOp47
 70
     0
102
RTVSPropertyOp48
 70
     0
102
RTVSPropertyOp49
 70
     0
102
RTVSPropertyOp50
 70
     0
102
RTVSPropertyOp51
 70
     0
102
RTVSPropertyOp52
 70
     0
102
RTVSPropertyOp53
 70
     0
102
RTVSPropertyOp54
 70
     0
102
RTVSPropertyOp55
 70
     0
102
RTVSPropertyOp56
 70
     0
102
RTVSPropertyOp57
 70
     0
102
RTVSPost2010Prop28
280
     0
102
RTVSPost2010PropOp28
 70
     0
102
RTVSPost2010Prop29
280
     1
102
RTVSPost2010PropOp29
 70
     0
102
RTVSPost2010Prop30
280
     1
102
RTVSPost2010PropOp30
 70
     0
102
RTVSPost2010Prop31
280
     0
102
RTVSPost2010PropOp31
 70
     0
102
RTVSPost2010Prop32
280
     0
102
RTVSPost2010PropOp32
 70
     0
102
RTVSPost2010Prop33
280
     0
102
RTVSPost2010PropOp33
 70
     0
102
RTVSPost2010Prop34
280
     0
102
RTVSPost2010PropOp34
 70
     0
102
RTVSPost2010Prop35
280
     0
102
RTVSPost2010PropOp35
 70
     0
102
RTVSPost2010Prop36
280
     0
102
RTVSPost2010PropOp36
 70
     0
102
RTVSPost2010Prop37
 90
       50
102
RTVSPost2010PropOp37
 70
     0
102
RTVSPost2010Prop38
140
0.0
102
RTVSPost2010PropOp38
 70
     0
102
RTVSPost2010Prop39
140
1.0
102
RTVSPost2010PropOp39
 70
     0
102
RTVSPost2010Prop40
 90
        0
102
RTVSPost2010PropOp40
 70
     0
102
RTVSPost2010Prop41ColorIndex
 90
       18
102
RTVSPost2010Prop41ColorRGB
 90
        0
102
RTVSPost2010PropOp41
 70
     0
102
RTVSPost2010Prop42
 90
       50
102
RTVSPost2010PropOp42
 70
     0
102
RTVSPost2010Prop43
 90
        3
102
RTVSPost2010PropOp43
 70
     0
102
RTVSPost2010Prop44ColorIndex
 90
        5
102
RTVSPost2010Prop44ColorRGB
 90
      255
102
RTVSPost2010PropOp44
 70
     0
102
RTVSPost2010Prop45
280
     0
102
RTVSPost2010PropOp45
 70
     0
102
RTVSPost2010Prop46
 90
       50
102
RTVSPost2010PropOp46
 70
     0
102
RTVSPost2010Prop47
 90
       50
102
RTVSPost2010PropOp47
 70
     0
102
RTVSPost2010Prop48
 90
       50
102
RTVSPost2010PropOp48
 70
     0
102
RTVSPost2010Prop49
280
     0
102
RTVSPost2010PropOp49
 70
     0
102
RTVSPost2010Prop50
 90
       50
102
RTVSPost2010PropOp50
 70
     0
102
RTVSPost2010Prop51ColorIndex
 90
      256
102
RTVSPost2010Prop51ColorRGB
 90
-16777216
102
RTVSPost2010PropOp51
 70
     0
102
RTVSPost2010Prop52
140
1.0
102
RTVSPost2010PropOp52
 70
     0
102
RTVSPost2010Prop53
 90
        2
102
RTVSPost2010PropOp53
 70
     0
102
RTVSPost2010Prop54
  1
strokes_ogs.tif
102
RTVSPost2010PropOp54
 70
     0
102
RTVSPost2010Prop55
280
     0
102
RTVSPost2010PropOp55
 70
     0
102
RTVSPost2010Prop56
140
1.0
102
RTVSPost2010PropOp56
 70
     0
102
RTVSPost2010Prop57
140
1.0
102
RTVSPost2010PropOp57
 70
     0
  0
XRECORD
  5
298
102
{ACAD_REACTORS
330
297
102
}
330
297
100
AcDbXrecord
280
     1
102
RTVSPropertyOp0
 70
     1
102
RTVSPropertyOp1
 70
     1
102
RTVSPropertyOp2
 70
     1
102
RTVSPropertyOp3
 70
     1
102
RTVSPropertyOp4
 70
     1
102
RTVSPropertyOp5
 70
     1
102
RTVSPropertyOp6
 70
     1
102
RTVSPropertyOp7
 70
     1
102
RTVSPropertyOp8
 70
     1
102
RTVSPropertyOp9
 70
     1
102
RTVSPropertyOp10
 70
     1
102
RTVSPropertyOp11
 70
     1
102
RTVSPropertyOp12
 70
     1
102
RTVSPropertyOp13
 70
     1
102
RTVSPropertyOp14
 70
     1
102
RTVSPropertyOp15
 70
     1
102
RTVSPropertyOp16
 70
     1
102
RTVSPropertyOp17
 70
     1
102
RTVSPropertyOp18
 70
     1
102
RTVSPropertyOp19
 70
     1
102
RTVSPropertyOp20
 70
     1
102
RTVSPropertyOp21
 70
     1
102
RTVSPropertyOp22
 70
     1
102
RTVSPropertyOp23
 70
     1
102
RTVSPropertyOp24
 70
     1
102
RTVSPropertyOp25
 70
     1
102
RTVSPropertyOp26
 70
     1
102
RTVSPropertyOp27
 70
     1
102
RTVSPropertyOp28
 70
     1
102
RTVSPropertyOp29
 70
     1
102
RTVSPropertyOp30
 70
     1
102
RTVSPropertyOp31
 70
     1
102
RTVSPropertyOp32
 70
     1
102
RTVSPropertyOp33
 70
     1
102
RTVSPropertyOp34
 70
     1
102
RTVSPropertyOp35
 70
     1
102
RTVSPropertyOp36
 70
     1
102
RTVSPropertyOp37
 70
     1
102
RTVSPropertyOp38
 70
     1
102
RTVSPropertyOp39
 70
     1
102
RTVSPropertyOp40
 70
     1
102
RTVSPropertyOp41
 70
     1
102
RTVSPropertyOp42
 70
     1
102
RTVSPropertyOp43
 70
     1
102
RTVSPropertyOp44
 70
     1
102
RTVSPropertyOp45
 70
     1
102
RTVSPropertyOp46
 70
     1
102
RTVSPropertyOp47
 70
     1
102
RTVSPropertyOp48
 70
     1
102
RTVSPropertyOp49
 70
     1
102
RTVSPropertyOp50
 70
     1
102
RTVSPropertyOp51
 70
     0
102
RTVSPropertyOp52
 70
     0
102
RTVSPropertyOp53
 70
     1
102
RTVSPropertyOp54
 70
     1
102
RTVSPropertyOp55
 70
     1
102
RTVSPropertyOp56
 70
     1
102
RTVSPropertyOp57
 70
     1
102
RTVSPost2010Prop28
280
     0
102
RTVSPost2010PropOp28
 70
     1
102
RTVSPost2010Prop29
280
     1
102
RTVSPost2010PropOp29
 70
     1
102
RTVSPost2010Prop30
280
     1
102
RTVSPost2010PropOp30
 70
     1
102
RTVSPost2010Prop31
280
     0
102
RTVSPost2010PropOp31
 70
     1
102
RTVSPost2010Prop32
280
     0
102
RTVSPost2010PropOp32
 70
     1
102
RTVSPost2010Prop33
280
     0
102
RTVSPost2010PropOp33
 70
     1
102
RTVSPost2010Prop34
280
     0
102
RTVSPost2010PropOp34
 70
     1
102
RTVSPost2010Prop35
280
     0
102
RTVSPost2010PropOp35
 70
     1
102
RTVSPost2010Prop36
280
     0
102
RTVSPost2010PropOp36
 70
     1
102
RTVSPost2010Prop37
 90
       50
102
RTVSPost2010PropOp37
 70
     1
102
RTVSPost2010Prop38
140
0.0
102
RTVSPost2010PropOp38
 70
     1
102
RTVSPost2010Prop39
140
1.0
102
RTVSPost2010PropOp39
 70
     1
102
RTVSPost2010Prop40
 90
        0
102
RTVSPost2010PropOp40
 70
     1
102
RTVSPost2010Prop41ColorIndex
 90
       18
102
RTVSPost2010Prop41ColorRGB
 90
        0
102
RTVSPost2010PropOp41
 70
     1
102
RTVSPost2010Prop42
 90
       50
102
RTVSPost2010PropOp42
 70
     1
102
RTVSPost2010Prop43
 90
        3
102
RTVSPost2010PropOp43
 70
     1
102
RTVSPost2010Prop44ColorIndex
 90
        5
102
RTVSPost2010Prop44ColorRGB
 90
      255
102
RTVSPost2010PropOp44
 70
     1
102
RTVSPost2010Prop45
280
     0
102
RTVSPost2010PropOp45
 70
     1
102
RTVSPost2010Prop46
 90
       50
102
RTVSPost2010PropOp46
 70
     1
102
RTVSPost2010Prop47
 90
       50
102
RTVSPost2010PropOp47
 70
     1
102
RTVSPost2010Prop48
 90
       50
102
RTVSPost2010PropOp48
 70
     1
102
RTVSPost2010Prop49
280
     0
102
RTVSPost2010PropOp49
 70
     1
102
RTVSPost2010Prop50
 90
       50
102
RTVSPost2010PropOp50
 70
     1
102
RTVSPost2010Prop51ColorIndex
 90
      256
102
RTVSPost2010Prop51ColorRGB
 90
-16777216
102
RTVSPost2010PropOp51
 70
     0
102
RTVSPost2010Prop52
140
1.0
102
RTVSPost2010PropOp52
 70
     0
102
RTVSPost2010Prop53
 90
        2
102
RTVSPost2010PropOp53
 70
     1
102
RTVSPost2010Prop54
  1
strokes_ogs.tif
102
RTVSPost2010PropOp54
 70
     1
102
RTVSPost2010Prop55
280
     0
102
RTVSPost2010PropOp55
 70
     1
102
RTVSPost2010Prop56
140
1.0
102
RTVSPost2010PropOp56
 70
     1
102
RTVSPost2010Prop57
140
1.0
102
RTVSPost2010PropOp57
 70
     1
  0
XRECORD
  5
2B6
102
{ACAD_REACTORS
330
2B5
102
}
330
2B5
100
AcDbXrecord
280
     1
102
RTVSPropertyOp0
 70
     1
102
RTVSPropertyOp1
 70
     1
102
RTVSPropertyOp2
 70
     1
102
RTVSPropertyOp3
 70
     1
102
RTVSPropertyOp4
 70
     1
102
RTVSPropertyOp5
 70
     1
102
RTVSPropertyOp6
 70
     1
102
RTVSPropertyOp7
 70
     1
102
RTVSPropertyOp8
 70
     1
102
RTVSPropertyOp9
 70
     1
102
RTVSPropertyOp10
 70
     1
102
RTVSPropertyOp11
 70
     1
102
RTVSPropertyOp12
 70
     1
102
RTVSPropertyOp13
 70
     1
102
RTVSPropertyOp14
 70
     1
102
RTVSPropertyOp15
 70
     1
102
RTVSPropertyOp16
 70
     1
102
RTVSPropertyOp17
 70
     1
102
RTVSPropertyOp18
 70
     1
102
RTVSPropertyOp19
 70
     1
102
RTVSPropertyOp20
 70
     1
102
RTVSPropertyOp21
 70
     1
102
RTVSPropertyOp22
 70
     1
102
RTVSPropertyOp23
 70
     1
102
RTVSPropertyOp24
 70
     1
102
RTVSPropertyOp25
 70
     1
102
RTVSPropertyOp26
 70
     1
102
RTVSPropertyOp27
 70
     1
102
RTVSPropertyOp28
 70
     1
102
RTVSPropertyOp29
 70
     1
102
RTVSPropertyOp30
 70
     1
102
RTVSPropertyOp31
 70
     1
102
RTVSPropertyOp32
 70
     1
102
RTVSPropertyOp33
 70
     1
102
RTVSPropertyOp34
 70
     1
102
RTVSPropertyOp35
 70
     1
102
RTVSPropertyOp36
 70
     1
102
RTVSPropertyOp37
 70
     1
102
RTVSPropertyOp38
 70
     1
102
RTVSPropertyOp39
 70
     1
102
RTVSPropertyOp40
 70
     1
102
RTVSPropertyOp41
 70
     1
102
RTVSPropertyOp42
 70
     1
102
RTVSPropertyOp43
 70
     1
102
RTVSPropertyOp44
 70
     1
102
RTVSPropertyOp45
 70
     1
102
RTVSPropertyOp46
 70
     1
102
RTVSPropertyOp47
 70
     1
102
RTVSPropertyOp48
 70
     1
102
RTVSPropertyOp49
 70
     1
102
RTVSPropertyOp50
 70
     1
102
RTVSPropertyOp51
 70
     0
102
RTVSPropertyOp52
 70
     0
102
RTVSPropertyOp53
 70
     1
102
RTVSPropertyOp54
 70
     1
102
RTVSPropertyOp55
 70
     1
102
RTVSPropertyOp56
 70
     1
102
RTVSPropertyOp57
 70
     1
102
RTVSPost2010Prop28
280
     0
102
RTVSPost2010PropOp28
 70
     1
102
RTVSPost2010Prop29
280
     1
102
RTVSPost2010PropOp29
 70
     1
102
RTVSPost2010Prop30
280
     1
102
RTVSPost2010PropOp30
 70
     1
102
RTVSPost2010Prop31
280
     0
102
RTVSPost2010PropOp31
 70
     1
102
RTVSPost2010Prop32
280
     0
102
RTVSPost2010PropOp32
 70
     1
102
RTVSPost2010Prop33
280
     0
102
RTVSPost2010PropOp33
 70
     1
102
RTVSPost2010Prop34
280
     0
102
RTVSPost2010PropOp34
 70
     1
102
RTVSPost2010Prop35
280
     0
102
RTVSPost2010PropOp35
 70
     1
102
RTVSPost2010Prop36
280
     0
102
RTVSPost2010PropOp36
 70
     1
102
RTVSPost2010Prop37
 90
       50
102
RTVSPost2010PropOp37
 70
     1
102
RTVSPost2010Prop38
140
0.0
102
RTVSPost2010PropOp38
 70
     1
102
RTVSPost2010Prop39
140
1.0
102
RTVSPost2010PropOp39
 70
     1
102
RTVSPost2010Prop40
 90
        0
102
RTVSPost2010PropOp40
 70
     1
102
RTVSPost2010Prop41ColorIndex
 90
       18
102
RTVSPost2010Prop41ColorRGB
 90
        0
102
RTVSPost2010PropOp41
 70
     1
102
RTVSPost2010Prop42
 90
       50
102
RTVSPost2010PropOp42
 70
     1
102
RTVSPost2010Prop43
 90
        3
102
RTVSPost2010PropOp43
 70
     1
102
RTVSPost2010Prop44ColorIndex
 90
        5
102
RTVSPost2010Prop44ColorRGB
 90
      255
102
RTVSPost2010PropOp44
 70
     1
102
RTVSPost2010Prop45
280
     0
102
RTVSPost2010PropOp45
 70
     1
102
RTVSPost2010Prop46
 90
       50
102
RTVSPost2010PropOp46
 70
     1
102
RTVSPost2010Prop47
 90
       50
102
RTVSPost2010PropOp47
 70
     1
102
RTVSPost2010Prop48
 90
       50
102
RTVSPost2010PropOp48
 70
     1
102
RTVSPost2010Prop49
280
     0
102
RTVSPost2010PropOp49
 70
     1
102
RTVSPost2010Prop50
 90
       50
102
RTVSPost2010PropOp50
 70
     1
102
RTVSPost2010Prop51ColorIndex
 90
      256
102
RTVSPost2010Prop51ColorRGB
 90
-16777216
102
RTVSPost2010PropOp51
 70
     0
102
RTVSPost2010Prop52
140
1.0
102
RTVSPost2010PropOp52
 70
     0
102
RTVSPost2010Prop53
 90
        2
102
RTVSPost2010PropOp53
 70
     1
102
RTVSPost2010Prop54
  1
strokes_ogs.tif
102
RTVSPost2010PropOp54
 70
     1
102
RTVSPost2010Prop55
280
     0
102
RTVSPost2010PropOp55
 70
     1
102
RTVSPost2010Prop56
140
1.0
102
RTVSPost2010PropOp56
 70
     1
102
RTVSPost2010Prop57
140
1.0
102
RTVSPost2010PropOp57
 70
     1
  0
XRECORD
  5
2B4
102
{ACAD_REACTORS
330
2B3
102
}
330
2B3
100
AcDbXrecord
280
     1
102
RTVSPropertyOp0
 70
     1
102
RTVSPropertyOp1
 70
     1
102
RTVSPropertyOp2
 70
     1
102
RTVSPropertyOp3
 70
     1
102
RTVSPropertyOp4
 70
     1
102
RTVSPropertyOp5
 70
     1
102
RTVSPropertyOp6
 70
     1
102
RTVSPropertyOp7
 70
     1
102
RTVSPropertyOp8
 70
     1
102
RTVSPropertyOp9
 70
     1
102
RTVSPropertyOp10
 70
     1
102
RTVSPropertyOp11
 70
     1
102
RTVSPropertyOp12
 70
     1
102
RTVSPropertyOp13
 70
     1
102
RTVSPropertyOp14
 70
     1
102
RTVSPropertyOp15
 70
     1
102
RTVSPropertyOp16
 70
     1
102
RTVSPropertyOp17
 70
     1
102
RTVSPropertyOp18
 70
     1
102
RTVSPropertyOp19
 70
     1
102
RTVSPropertyOp20
 70
     1
102
RTVSPropertyOp21
 70
     1
102
RTVSPropertyOp22
 70
     1
102
RTVSPropertyOp23
 70
     1
102
RTVSPropertyOp24
 70
     1
102
RTVSPropertyOp25
 70
     1
102
RTVSPropertyOp26
 70
     1
102
RTVSPropertyOp27
 70
     1
102
RTVSPropertyOp28
 70
     1
102
RTVSPropertyOp29
 70
     1
102
RTVSPropertyOp30
 70
     1
102
RTVSPropertyOp31
 70
     1
102
RTVSPropertyOp32
 70
     1
102
RTVSPropertyOp33
 70
     1
102
RTVSPropertyOp34
 70
     1
102
RTVSPropertyOp35
 70
     1
102
RTVSPropertyOp36
 70
     1
102
RTVSPropertyOp37
 70
     1
102
RTVSPropertyOp38
 70
     1
102
RTVSPropertyOp39
 70
     1
102
RTVSPropertyOp40
 70
     1
102
RTVSPropertyOp41
 70
     1
102
RTVSPropertyOp42
 70
     1
102
RTVSPropertyOp43
 70
     1
102
RTVSPropertyOp44
 70
     1
102
RTVSPropertyOp45
 70
     1
102
RTVSPropertyOp46
 70
     1
102
RTVSPropertyOp47
 70
     1
102
RTVSPropertyOp48
 70
     1
102
RTVSPropertyOp49
 70
     1
102
RTVSPropertyOp50
 70
     1
102
RTVSPropertyOp51
 70
     0
102
RTVSPropertyOp52
 70
     0
102
RTVSPropertyOp53
 70
     1
102
RTVSPropertyOp54
 70
     1
102
RTVSPropertyOp55
 70
     1
102
RTVSPropertyOp56
 70
     1
102
RTVSPropertyOp57
 70
     1
102
RTVSPost2010Prop28
280
     0
102
RTVSPost2010PropOp28
 70
     1
102
RTVSPost2010Prop29
280
     1
102
RTVSPost2010PropOp29
 70
     1
102
RTVSPost2010Prop30
280
     1
102
RTVSPost2010PropOp30
 70
     1
102
RTVSPost2010Prop31
280
     0
102
RTVSPost2010PropOp31
 70
     1
102
RTVSPost2010Prop32
280
     0
102
RTVSPost2010PropOp32
 70
     1
102
RTVSPost2010Prop33
280
     0
102
RTVSPost2010PropOp33
 70
     1
102
RTVSPost2010Prop34
280
     0
102
RTVSPost2010PropOp34
 70
     1
102
RTVSPost2010Prop35
280
     0
102
RTVSPost2010PropOp35
 70
     1
102
RTVSPost2010Prop36
280
     0
102
RTVSPost2010PropOp36
 70
     1
102
RTVSPost2010Prop37
 90
       50
102
RTVSPost2010PropOp37
 70
     1
102
RTVSPost2010Prop38
140
0.0
102
RTVSPost2010PropOp38
 70
     1
102
RTVSPost2010Prop39
140
1.0
102
RTVSPost2010PropOp39
 70
     1
102
RTVSPost2010Prop40
 90
        0
102
RTVSPost2010PropOp40
 70
     1
102
RTVSPost2010Prop41ColorIndex
 90
       18
102
RTVSPost2010Prop41ColorRGB
 90
        0
102
RTVSPost2010PropOp41
 70
     1
102
RTVSPost2010Prop42
 90
       50
102
RTVSPost2010PropOp42
 70
     1
102
RTVSPost2010Prop43
 90
        3
102
RTVSPost2010PropOp43
 70
     1
102
RTVSPost2010Prop44ColorIndex
 90
        5
102
RTVSPost2010Prop44ColorRGB
 90
      255
102
RTVSPost2010PropOp44
 70
     1
102
RTVSPost2010Prop45
280
     0
102
RTVSPost2010PropOp45
 70
     1
102
RTVSPost2010Prop46
 90
       50
102
RTVSPost2010PropOp46
 70
     1
102
RTVSPost2010Prop47
 90
       50
102
RTVSPost2010PropOp47
 70
     1
102
RTVSPost2010Prop48
 90
       50
102
RTVSPost2010PropOp48
 70
     1
102
RTVSPost2010Prop49
280
     0
102
RTVSPost2010PropOp49
 70
     1
102
RTVSPost2010Prop50
 90
       50
102
RTVSPost2010PropOp50
 70
     1
102
RTVSPost2010Prop51ColorIndex
 90
      256
102
RTVSPost2010Prop51ColorRGB
 90
-16777216
102
RTVSPost2010PropOp51
 70
     0
102
RTVSPost2010Prop52
140
1.0
102
RTVSPost2010PropOp52
 70
     0
102
RTVSPost2010Prop53
 90
        2
102
RTVSPost2010PropOp53
 70
     1
102
RTVSPost2010Prop54
  1
strokes_ogs.tif
102
RTVSPost2010PropOp54
 70
     1
102
RTVSPost2010Prop55
280
     0
102
RTVSPost2010PropOp55
 70
     1
102
RTVSPost2010Prop56
140
1.0
102
RTVSPost2010PropOp56
 70
     1
102
RTVSPost2010Prop57
140
1.0
102
RTVSPost2010PropOp57
 70
     1
  0
XRECORD
  5
2AE
102
{ACAD_REACTORS
330
2AD
102
}
330
2AD
100
AcDbXrecord
280
     1
102
RTVSPropertyOp0
 70
     1
102
RTVSPropertyOp1
 70
     1
102
RTVSPropertyOp2
 70
     1
102
RTVSPropertyOp3
 70
     1
102
RTVSPropertyOp4
 70
     1
102
RTVSPropertyOp5
 70
     1
102
RTVSPropertyOp6
 70
     1
102
RTVSPropertyOp7
 70
     1
102
RTVSPropertyOp8
 70
     1
102
RTVSPropertyOp9
 70
     1
102
RTVSPropertyOp10
 70
     1
102
RTVSPropertyOp11
 70
     1
102
RTVSPropertyOp12
 70
     1
102
RTVSPropertyOp13
 70
     1
102
RTVSPropertyOp14
 70
     1
102
RTVSPropertyOp15
 70
     1
102
RTVSPropertyOp16
 70
     1
102
RTVSPropertyOp17
 70
     1
102
RTVSPropertyOp18
 70
     1
102
RTVSPropertyOp19
 70
     1
102
RTVSPropertyOp20
 70
     1
102
RTVSPropertyOp21
 70
     1
102
RTVSPropertyOp22
 70
     1
102
RTVSPropertyOp23
 70
     1
102
RTVSPropertyOp24
 70
     1
102
RTVSPropertyOp25
 70
     1
102
RTVSPropertyOp26
 70
     1
102
RTVSPropertyOp27
 70
     1
102
RTVSPropertyOp28
 70
     1
102
RTVSPropertyOp29
 70
     1
102
RTVSPropertyOp30
 70
     1
102
RTVSPropertyOp31
 70
     1
102
RTVSPropertyOp32
 70
     1
102
RTVSPropertyOp33
 70
     1
102
RTVSPropertyOp34
 70
     1
102
RTVSPropertyOp35
 70
     1
102
RTVSPropertyOp36
 70
     1
102
RTVSPropertyOp37
 70
     1
102
RTVSPropertyOp38
 70
     1
102
RTVSPropertyOp39
 70
     1
102
RTVSPropertyOp40
 70
     1
102
RTVSPropertyOp41
 70
     1
102
RTVSPropertyOp42
 70
     1
102
RTVSPropertyOp43
 70
     1
102
RTVSPropertyOp44
 70
     1
102
RTVSPropertyOp45
 70
     1
102
RTVSPropertyOp46
 70
     1
102
RTVSPropertyOp47
 70
     1
102
RTVSPropertyOp48
 70
     1
102
RTVSPropertyOp49
 70
     1
102
RTVSPropertyOp50
 70
     1
102
RTVSPropertyOp51
 70
     0
102
RTVSPropertyOp52
 70
     0
102
RTVSPropertyOp53
 70
     1
102
RTVSPropertyOp54
 70
     1
102
RTVSPropertyOp55
 70
     1
102
RTVSPropertyOp56
 70
     1
102
RTVSPropertyOp57
 70
     1
102
RTVSPost2010Prop28
280
     0
102
RTVSPost2010PropOp28
 70
     1
102
RTVSPost2010Prop29
280
     1
102
RTVSPost2010PropOp29
 70
     1
102
RTVSPost2010Prop30
280
     1
102
RTVSPost2010PropOp30
 70
     1
102
RTVSPost2010Prop31
280
     0
102
RTVSPost2010PropOp31
 70
     1
102
RTVSPost2010Prop32
280
     0
102
RTVSPost2010PropOp32
 70
     1
102
RTVSPost2010Prop33
280
     0
102
RTVSPost2010PropOp33
 70
     1
102
RTVSPost2010Prop34
280
     0
102
RTVSPost2010PropOp34
 70
     1
102
RTVSPost2010Prop35
280
     0
102
RTVSPost2010PropOp35
 70
     1
102
RTVSPost2010Prop36
280
     0
102
RTVSPost2010PropOp36
 70
     1
102
RTVSPost2010Prop37
 90
       50
102
RTVSPost2010PropOp37
 70
     1
102
RTVSPost2010Prop38
140
0.0
102
RTVSPost2010PropOp38
 70
     1
102
RTVSPost2010Prop39
140
1.0
102
RTVSPost2010PropOp39
 70
     1
102
RTVSPost2010Prop40
 90
        0
102
RTVSPost2010PropOp40
 70
     1
102
RTVSPost2010Prop41ColorIndex
 90
       18
102
RTVSPost2010Prop41ColorRGB
 90
        0
102
RTVSPost2010PropOp41
 70
     1
102
RTVSPost2010Prop42
 90
       50
102
RTVSPost2010PropOp42
 70
     1
102
RTVSPost2010Prop43
 90
        3
102
RTVSPost2010PropOp43
 70
     1
102
RTVSPost2010Prop44ColorIndex
 90
        5
102
RTVSPost2010Prop44ColorRGB
 90
      255
102
RTVSPost2010PropOp44
 70
     1
102
RTVSPost2010Prop45
280
     0
102
RTVSPost2010PropOp45
 70
     1
102
RTVSPost2010Prop46
 90
       50
102
RTVSPost2010PropOp46
 70
     1
102
RTVSPost2010Prop47
 90
       50
102
RTVSPost2010PropOp47
 70
     1
102
RTVSPost2010Prop48
 90
       50
102
RTVSPost2010PropOp48
 70
     1
102
RTVSPost2010Prop49
280
     0
102
RTVSPost2010PropOp49
 70
     1
102
RTVSPost2010Prop50
 90
       50
102
RTVSPost2010PropOp50
 70
     1
102
RTVSPost2010Prop51ColorIndex
 90
      256
102
RTVSPost2010Prop51ColorRGB
 90
-16777216
102
RTVSPost2010PropOp51
 70
     0
102
RTVSPost2010Prop52
140
1.0
102
RTVSPost2010PropOp52
 70
     0
102
RTVSPost2010Prop53
 90
        2
102
RTVSPost2010PropOp53
 70
     1
102
RTVSPost2010Prop54
  1
strokes_ogs.tif
102
RTVSPost2010PropOp54
 70
     1
102
RTVSPost2010Prop55
280
     0
102
RTVSPost2010PropOp55
 70
     1
102
RTVSPost2010Prop56
140
1.0
102
RTVSPost2010PropOp56
 70
     1
102
RTVSPost2010Prop57
140
1.0
102
RTVSPost2010PropOp57
 70
     1
  0
XRECORD
  5
2B0
102
{ACAD_REACTORS
330
2AF
102
}
330
2AF
100
AcDbXrecord
280
     1
102
RTVSPropertyOp0
 70
     1
102
RTVSPropertyOp1
 70
     1
102
RTVSPropertyOp2
 70
     1
102
RTVSPropertyOp3
 70
     1
102
RTVSPropertyOp4
 70
     1
102
RTVSPropertyOp5
 70
     1
102
RTVSPropertyOp6
 70
     1
102
RTVSPropertyOp7
 70
     1
102
RTVSPropertyOp8
 70
     1
102
RTVSPropertyOp9
 70
     1
102
RTVSPropertyOp10
 70
     1
102
RTVSPropertyOp11
 70
     1
102
RTVSPropertyOp12
 70
     1
102
RTVSPropertyOp13
 70
     1
102
RTVSPropertyOp14
 70
     1
102
RTVSPropertyOp15
 70
     1
102
RTVSPropertyOp16
 70
     1
102
RTVSPropertyOp17
 70
     1
102
RTVSPropertyOp18
 70
     1
102
RTVSPropertyOp19
 70
     1
102
RTVSPropertyOp20
 70
     1
102
RTVSPropertyOp21
 70
     1
102
RTVSPropertyOp22
 70
     1
102
RTVSPropertyOp23
 70
     1
102
RTVSPropertyOp24
 70
     1
102
RTVSPropertyOp25
 70
     1
102
RTVSPropertyOp26
 70
     1
102
RTVSPropertyOp27
 70
     1
102
RTVSPropertyOp28
 70
     1
102
RTVSPropertyOp29
 70
     1
102
RTVSPropertyOp30
 70
     1
102
RTVSPropertyOp31
 70
     1
102
RTVSPropertyOp32
 70
     1
102
RTVSPropertyOp33
 70
     1
102
RTVSPropertyOp34
 70
     1
102
RTVSPropertyOp35
 70
     1
102
RTVSPropertyOp36
 70
     1
102
RTVSPropertyOp37
 70
     1
102
RTVSPropertyOp38
 70
     1
102
RTVSPropertyOp39
 70
     1
102
RTVSPropertyOp40
 70
     1
102
RTVSPropertyOp41
 70
     1
102
RTVSPropertyOp42
 70
     1
102
RTVSPropertyOp43
 70
     1
102
RTVSPropertyOp44
 70
     1
102
RTVSPropertyOp45
 70
     1
102
RTVSPropertyOp46
 70
     1
102
RTVSPropertyOp47
 70
     1
102
RTVSPropertyOp48
 70
     1
102
RTVSPropertyOp49
 70
     1
102
RTVSPropertyOp50
 70
     1
102
RTVSPropertyOp51
 70
     0
102
RTVSPropertyOp52
 70
     0
102
RTVSPropertyOp53
 70
     1
102
RTVSPropertyOp54
 70
     1
102
RTVSPropertyOp55
 70
     1
102
RTVSPropertyOp56
 70
     1
102
RTVSPropertyOp57
 70
     1
102
RTVSPost2010Prop28
280
     0
102
RTVSPost2010PropOp28
 70
     1
102
RTVSPost2010Prop29
280
     1
102
RTVSPost2010PropOp29
 70
     1
102
RTVSPost2010Prop30
280
     1
102
RTVSPost2010PropOp30
 70
     1
102
RTVSPost2010Prop31
280
     0
102
RTVSPost2010PropOp31
 70
     1
102
RTVSPost2010Prop32
280
     0
102
RTVSPost2010PropOp32
 70
     1
102
RTVSPost2010Prop33
280
     0
102
RTVSPost2010PropOp33
 70
     1
102
RTVSPost2010Prop34
280
     0
102
RTVSPost2010PropOp34
 70
     1
102
RTVSPost2010Prop35
280
     0
102
RTVSPost2010PropOp35
 70
     1
102
RTVSPost2010Prop36
280
     0
102
RTVSPost2010PropOp36
 70
     1
102
RTVSPost2010Prop37
 90
       50
102
RTVSPost2010PropOp37
 70
     1
102
RTVSPost2010Prop38
140
0.0
102
RTVSPost2010PropOp38
 70
     1
102
RTVSPost2010Prop39
140
1.0
102
RTVSPost2010PropOp39
 70
     1
102
RTVSPost2010Prop40
 90
        0
102
RTVSPost2010PropOp40
 70
     1
102
RTVSPost2010Prop41ColorIndex
 90
       18
102
RTVSPost2010Prop41ColorRGB
 90
        0
102
RTVSPost2010PropOp41
 70
     1
102
RTVSPost2010Prop42
 90
       50
102
RTVSPost2010PropOp42
 70
     1
102
RTVSPost2010Prop43
 90
        3
102
RTVSPost2010PropOp43
 70
     1
102
RTVSPost2010Prop44ColorIndex
 90
        5
102
RTVSPost2010Prop44ColorRGB
 90
      255
102
RTVSPost2010PropOp44
 70
     1
102
RTVSPost2010Prop45
280
     0
102
RTVSPost2010PropOp45
 70
     1
102
RTVSPost2010Prop46
 90
       50
102
RTVSPost2010PropOp46
 70
     1
102
RTVSPost2010Prop47
 90
       50
102
RTVSPost2010PropOp47
 70
     1
102
RTVSPost2010Prop48
 90
       50
102
RTVSPost2010PropOp48
 70
     1
102
RTVSPost2010Prop49
280
     0
102
RTVSPost2010PropOp49
 70
     1
102
RTVSPost2010Prop50
 90
       50
102
RTVSPost2010PropOp50
 70
     1
102
RTVSPost2010Prop51ColorIndex
 90
      256
102
RTVSPost2010Prop51ColorRGB
 90
-16777216
102
RTVSPost2010PropOp51
 70
     0
102
RTVSPost2010Prop52
140
1.0
102
RTVSPost2010PropOp52
 70
     0
102
RTVSPost2010Prop53
 90
        2
102
RTVSPost2010PropOp53
 70
     1
102
RTVSPost2010Prop54
  1
strokes_ogs.tif
102
RTVSPost2010PropOp54
 70
     1
102
RTVSPost2010Prop55
280
     0
102
RTVSPost2010PropOp55
 70
     1
102
RTVSPost2010Prop56
140
1.0
102
RTVSPost2010PropOp56
 70
     1
102
RTVSPost2010Prop57
140
1.0
102
RTVSPost2010PropOp57
 70
     1
  0
XRECORD
  5
2A0
102
{ACAD_REACTORS
330
29F
102
}
330
29F
100
AcDbXrecord
280
     1
102
RTVSPropertyOp0
 70
     1
102
RTVSPropertyOp1
 70
     1
102
RTVSPropertyOp2
 70
     1
102
RTVSPropertyOp3
 70
     1
102
RTVSPropertyOp4
 70
     1
102
RTVSPropertyOp5
 70
     1
102
RTVSPropertyOp6
 70
     1
102
RTVSPropertyOp7
 70
     1
102
RTVSPropertyOp8
 70
     1
102
RTVSPropertyOp9
 70
     1
102
RTVSPropertyOp10
 70
     1
102
RTVSPropertyOp11
 70
     1
102
RTVSPropertyOp12
 70
     1
102
RTVSPropertyOp13
 70
     1
102
RTVSPropertyOp14
 70
     1
102
RTVSPropertyOp15
 70
     1
102
RTVSPropertyOp16
 70
     1
102
RTVSPropertyOp17
 70
     1
102
RTVSPropertyOp18
 70
     1
102
RTVSPropertyOp19
 70
     1
102
RTVSPropertyOp20
 70
     1
102
RTVSPropertyOp21
 70
     1
102
RTVSPropertyOp22
 70
     1
102
RTVSPropertyOp23
 70
     1
102
RTVSPropertyOp24
 70
     1
102
RTVSPropertyOp25
 70
     1
102
RTVSPropertyOp26
 70
     1
102
RTVSPropertyOp27
 70
     1
102
RTVSPropertyOp28
 70
     1
102
RTVSPropertyOp29
 70
     1
102
RTVSPropertyOp30
 70
     1
102
RTVSPropertyOp31
 70
     1
102
RTVSPropertyOp32
 70
     1
102
RTVSPropertyOp33
 70
     1
102
RTVSPropertyOp34
 70
     1
102
RTVSPropertyOp35
 70
     1
102
RTVSPropertyOp36
 70
     1
102
RTVSPropertyOp37
 70
     1
102
RTVSPropertyOp38
 70
     1
102
RTVSPropertyOp39
 70
     1
102
RTVSPropertyOp40
 70
     1
102
RTVSPropertyOp41
 70
     1
102
RTVSPropertyOp42
 70
     1
102
RTVSPropertyOp43
 70
     1
102
RTVSPropertyOp44
 70
     1
102
RTVSPropertyOp45
 70
     1
102
RTVSPropertyOp46
 70
     1
102
RTVSPropertyOp47
 70
     1
102
RTVSPropertyOp48
 70
     1
102
RTVSPropertyOp49
 70
     1
102
RTVSPropertyOp50
 70
     1
102
RTVSPropertyOp51
 70
     0
102
RTVSPropertyOp52
 70
     0
102
RTVSPropertyOp53
 70
     1
102
RTVSPropertyOp54
 70
     1
102
RTVSPropertyOp55
 70
     1
102
RTVSPropertyOp56
 70
     1
102
RTVSPropertyOp57
 70
     1
102
RTVSPost2010Prop28
280
     0
102
RTVSPost2010PropOp28
 70
     1
102
RTVSPost2010Prop29
280
     1
102
RTVSPost2010PropOp29
 70
     1
102
RTVSPost2010Prop30
280
     1
102
RTVSPost2010PropOp30
 70
     1
102
RTVSPost2010Prop31
280
     0
102
RTVSPost2010PropOp31
 70
     1
102
RTVSPost2010Prop32
280
     0
102
RTVSPost2010PropOp32
 70
     1
102
RTVSPost2010Prop33
280
     0
102
RTVSPost2010PropOp33
 70
     1
102
RTVSPost2010Prop34
280
     0
102
RTVSPost2010PropOp34
 70
     1
102
RTVSPost2010Prop35
280
     0
102
RTVSPost2010PropOp35
 70
     1
102
RTVSPost2010Prop36
280
     0
102
RTVSPost2010PropOp36
 70
     1
102
RTVSPost2010Prop37
 90
       50
102
RTVSPost2010PropOp37
 70
     1
102
RTVSPost2010Prop38
140
0.0
102
RTVSPost2010PropOp38
 70
     1
102
RTVSPost2010Prop39
140
1.0
102
RTVSPost2010PropOp39
 70
     1
102
RTVSPost2010Prop40
 90
        0
102
RTVSPost2010PropOp40
 70
     1
102
RTVSPost2010Prop41ColorIndex
 90
       18
102
RTVSPost2010Prop41ColorRGB
 90
        0
102
RTVSPost2010PropOp41
 70
     1
102
RTVSPost2010Prop42
 90
       50
102
RTVSPost2010PropOp42
 70
     1
102
RTVSPost2010Prop43
 90
        3
102
RTVSPost2010PropOp43
 70
     1
102
RTVSPost2010Prop44ColorIndex
 90
        5
102
RTVSPost2010Prop44ColorRGB
 90
      255
102
RTVSPost2010PropOp44
 70
     1
102
RTVSPost2010Prop45
280
     0
102
RTVSPost2010PropOp45
 70
     1
102
RTVSPost2010Prop46
 90
       50
102
RTVSPost2010PropOp46
 70
     1
102
RTVSPost2010Prop47
 90
       50
102
RTVSPost2010PropOp47
 70
     1
102
RTVSPost2010Prop48
 90
       50
102
RTVSPost2010PropOp48
 70
     1
102
RTVSPost2010Prop49
280
     0
102
RTVSPost2010PropOp49
 70
     1
102
RTVSPost2010Prop50
 90
       50
102
RTVSPost2010PropOp50
 70
     1
102
RTVSPost2010Prop51ColorIndex
 90
      256
102
RTVSPost2010Prop51ColorRGB
 90
-16777216
102
RTVSPost2010PropOp51
 70
     0
102
RTVSPost2010Prop52
140
1.0
102
RTVSPost2010PropOp52
 70
     0
102
RTVSPost2010Prop53
 90
        2
102
RTVSPost2010PropOp53
 70
     1
102
RTVSPost2010Prop54
  1
strokes_ogs.tif
102
RTVSPost2010PropOp54
 70
     1
102
RTVSPost2010Prop55
280
     0
102
RTVSPost2010PropOp55
 70
     1
102
RTVSPost2010Prop56
140
1.0
102
RTVSPost2010PropOp56
 70
     1
102
RTVSPost2010Prop57
140
1.0
102
RTVSPost2010PropOp57
 70
     1
  0
XRECORD
  5
292
102
{ACAD_REACTORS
330
291
102
}
330
291
100
AcDbXrecord
280
     1
102
RTVSPropertyOp0
 70
     1
102
RTVSPropertyOp1
 70
     1
102
RTVSPropertyOp2
 70
     1
102
RTVSPropertyOp3
 70
     1
102
RTVSPropertyOp4
 70
     1
102
RTVSPropertyOp5
 70
     1
102
RTVSPropertyOp6
 70
     1
102
RTVSPropertyOp7
 70
     1
102
RTVSPropertyOp8
 70
     1
102
RTVSPropertyOp9
 70
     1
102
RTVSPropertyOp10
 70
     1
102
RTVSPropertyOp11
 70
     1
102
RTVSPropertyOp12
 70
     1
102
RTVSPropertyOp13
 70
     1
102
RTVSPropertyOp14
 70
     1
102
RTVSPropertyOp15
 70
     1
102
RTVSPropertyOp16
 70
     1
102
RTVSPropertyOp17
 70
     1
102
RTVSPropertyOp18
 70
     1
102
RTVSPropertyOp19
 70
     1
102
RTVSPropertyOp20
 70
     1
102
RTVSPropertyOp21
 70
     1
102
RTVSPropertyOp22
 70
     1
102
RTVSPropertyOp23
 70
     1
102
RTVSPropertyOp24
 70
     1
102
RTVSPropertyOp25
 70
     1
102
RTVSPropertyOp26
 70
     1
102
RTVSPropertyOp27
 70
     1
102
RTVSPropertyOp28
 70
     1
102
RTVSPropertyOp29
 70
     1
102
RTVSPropertyOp30
 70
     1
102
RTVSPropertyOp31
 70
     1
102
RTVSPropertyOp32
 70
     1
102
RTVSPropertyOp33
 70
     1
102
RTVSPropertyOp34
 70
     1
102
RTVSPropertyOp35
 70
     1
102
RTVSPropertyOp36
 70
     1
102
RTVSPropertyOp37
 70
     1
102
RTVSPropertyOp38
 70
     1
102
RTVSPropertyOp39
 70
     1
102
RTVSPropertyOp40
 70
     1
102
RTVSPropertyOp41
 70
     1
102
RTVSPropertyOp42
 70
     1
102
RTVSPropertyOp43
 70
     1
102
RTVSPropertyOp44
 70
     1
102
RTVSPropertyOp45
 70
     1
102
RTVSPropertyOp46
 70
     1
102
RTVSPropertyOp47
 70
     1
102
RTVSPropertyOp48
 70
     1
102
RTVSPropertyOp49
 70
     1
102
RTVSPropertyOp50
 70
     1
102
RTVSPropertyOp51
 70
     0
102
RTVSPropertyOp52
 70
     0
102
RTVSPropertyOp53
 70
     1
102
RTVSPropertyOp54
 70
     1
102
RTVSPropertyOp55
 70
     1
102
RTVSPropertyOp56
 70
     1
102
RTVSPropertyOp57
 70
     1
102
RTVSPost2010Prop28
280
     0
102
RTVSPost2010PropOp28
 70
     1
102
RTVSPost2010Prop29
280
     1
102
RTVSPost2010PropOp29
 70
     1
102
RTVSPost2010Prop30
280
     1
102
RTVSPost2010PropOp30
 70
     1
102
RTVSPost2010Prop31
280
     0
102
RTVSPost2010PropOp31
 70
     1
102
RTVSPost2010Prop32
280
     0
102
RTVSPost2010PropOp32
 70
     1
102
RTVSPost2010Prop33
280
     0
102
RTVSPost2010PropOp33
 70
     1
102
RTVSPost2010Prop34
280
     0
102
RTVSPost2010PropOp34
 70
     1
102
RTVSPost2010Prop35
280
     0
102
RTVSPost2010PropOp35
 70
     1
102
RTVSPost2010Prop36
280
     0
102
RTVSPost2010PropOp36
 70
     1
102
RTVSPost2010Prop37
 90
       50
102
RTVSPost2010PropOp37
 70
     1
102
RTVSPost2010Prop38
140
0.0
102
RTVSPost2010PropOp38
 70
     1
102
RTVSPost2010Prop39
140
1.0
102
RTVSPost2010PropOp39
 70
     1
102
RTVSPost2010Prop40
 90
        0
102
RTVSPost2010PropOp40
 70
     1
102
RTVSPost2010Prop41ColorIndex
 90
       18
102
RTVSPost2010Prop41ColorRGB
 90
        0
102
RTVSPost2010PropOp41
 70
     1
102
RTVSPost2010Prop42
 90
       50
102
RTVSPost2010PropOp42
 70
     1
102
RTVSPost2010Prop43
 90
        3
102
RTVSPost2010PropOp43
 70
     1
102
RTVSPost2010Prop44ColorIndex
 90
        5
102
RTVSPost2010Prop44ColorRGB
 90
      255
102
RTVSPost2010PropOp44
 70
     1
102
RTVSPost2010Prop45
280
     0
102
RTVSPost2010PropOp45
 70
     1
102
RTVSPost2010Prop46
 90
       50
102
RTVSPost2010PropOp46
 70
     1
102
RTVSPost2010Prop47
 90
       50
102
RTVSPost2010PropOp47
 70
     1
102
RTVSPost2010Prop48
 90
       50
102
RTVSPost2010PropOp48
 70
     1
102
RTVSPost2010Prop49
280
     0
102
RTVSPost2010PropOp49
 70
     1
102
RTVSPost2010Prop50
 90
       50
102
RTVSPost2010PropOp50
 70
     1
102
RTVSPost2010Prop51ColorIndex
 90
      256
102
RTVSPost2010Prop51ColorRGB
 90
-16777216
102
RTVSPost2010PropOp51
 70
     0
102
RTVSPost2010Prop52
140
1.0
102
RTVSPost2010PropOp52
 70
     0
102
RTVSPost2010Prop53
 90
        2
102
RTVSPost2010PropOp53
 70
     1
102
RTVSPost2010Prop54
  1
strokes_ogs.tif
102
RTVSPost2010PropOp54
 70
     1
102
RTVSPost2010Prop55
280
     0
102
RTVSPost2010PropOp55
 70
     1
102
RTVSPost2010Prop56
140
1.0
102
RTVSPost2010PropOp56
 70
     1
102
RTVSPost2010Prop57
140
1.0
102
RTVSPost2010PropOp57
 70
     1
  0
XRECORD
  5
2B2
102
{ACAD_REACTORS
330
2B1
102
}
330
2B1
100
AcDbXrecord
280
     1
102
RTVSPropertyOp0
 70
     1
102
RTVSPropertyOp1
 70
     1
102
RTVSPropertyOp2
 70
     1
102
RTVSPropertyOp3
 70
     1
102
RTVSPropertyOp4
 70
     1
102
RTVSPropertyOp5
 70
     1
102
RTVSPropertyOp6
 70
     1
102
RTVSPropertyOp7
 70
     1
102
RTVSPropertyOp8
 70
     1
102
RTVSPropertyOp9
 70
     1
102
RTVSPropertyOp10
 70
     1
102
RTVSPropertyOp11
 70
     1
102
RTVSPropertyOp12
 70
     1
102
RTVSPropertyOp13
 70
     1
102
RTVSPropertyOp14
 70
     1
102
RTVSPropertyOp15
 70
     1
102
RTVSPropertyOp16
 70
     1
102
RTVSPropertyOp17
 70
     1
102
RTVSPropertyOp18
 70
     1
102
RTVSPropertyOp19
 70
     1
102
RTVSPropertyOp20
 70
     1
102
RTVSPropertyOp21
 70
     1
102
RTVSPropertyOp22
 70
     1
102
RTVSPropertyOp23
 70
     1
102
RTVSPropertyOp24
 70
     1
102
RTVSPropertyOp25
 70
     1
102
RTVSPropertyOp26
 70
     1
102
RTVSPropertyOp27
 70
     1
102
RTVSPropertyOp28
 70
     1
102
RTVSPropertyOp29
 70
     1
102
RTVSPropertyOp30
 70
     1
102
RTVSPropertyOp31
 70
     1
102
RTVSPropertyOp32
 70
     1
102
RTVSPropertyOp33
 70
     1
102
RTVSPropertyOp34
 70
     1
102
RTVSPropertyOp35
 70
     1
102
RTVSPropertyOp36
 70
     1
102
RTVSPropertyOp37
 70
     1
102
RTVSPropertyOp38
 70
     1
102
RTVSPropertyOp39
 70
     1
102
RTVSPropertyOp40
 70
     1
102
RTVSPropertyOp41
 70
     1
102
RTVSPropertyOp42
 70
     1
102
RTVSPropertyOp43
 70
     1
102
RTVSPropertyOp44
 70
     1
102
RTVSPropertyOp45
 70
     1
102
RTVSPropertyOp46
 70
     1
102
RTVSPropertyOp47
 70
     1
102
RTVSPropertyOp48
 70
     1
102
RTVSPropertyOp49
 70
     1
102
RTVSPropertyOp50
 70
     1
102
RTVSPropertyOp51
 70
     0
102
RTVSPropertyOp52
 70
     0
102
RTVSPropertyOp53
 70
     1
102
RTVSPropertyOp54
 70
     1
102
RTVSPropertyOp55
 70
     1
102
RTVSPropertyOp56
 70
     1
102
RTVSPropertyOp57
 70
     1
102
RTVSPost2010Prop28
280
     0
102
RTVSPost2010PropOp28
 70
     1
102
RTVSPost2010Prop29
280
     1
102
RTVSPost2010PropOp29
 70
     1
102
RTVSPost2010Prop30
280
     1
102
RTVSPost2010PropOp30
 70
     1
102
RTVSPost2010Prop31
280
     0
102
RTVSPost2010PropOp31
 70
     1
102
RTVSPost2010Prop32
280
     0
102
RTVSPost2010PropOp32
 70
     1
102
RTVSPost2010Prop33
280
     0
102
RTVSPost2010PropOp33
 70
     1
102
RTVSPost2010Prop34
280
     0
102
RTVSPost2010PropOp34
 70
     1
102
RTVSPost2010Prop35
280
     0
102
RTVSPost2010PropOp35
 70
     1
102
RTVSPost2010Prop36
280
     0
102
RTVSPost2010PropOp36
 70
     1
102
RTVSPost2010Prop37
 90
       50
102
RTVSPost2010PropOp37
 70
     1
102
RTVSPost2010Prop38
140
0.0
102
RTVSPost2010PropOp38
 70
     1
102
RTVSPost2010Prop39
140
1.0
102
RTVSPost2010PropOp39
 70
     1
102
RTVSPost2010Prop40
 90
        0
102
RTVSPost2010PropOp40
 70
     1
102
RTVSPost2010Prop41ColorIndex
 90
       18
102
RTVSPost2010Prop41ColorRGB
 90
        0
102
RTVSPost2010PropOp41
 70
     1
102
RTVSPost2010Prop42
 90
       50
102
RTVSPost2010PropOp42
 70
     1
102
RTVSPost2010Prop43
 90
        3
102
RTVSPost2010PropOp43
 70
     1
102
RTVSPost2010Prop44ColorIndex
 90
        5
102
RTVSPost2010Prop44ColorRGB
 90
      255
102
RTVSPost2010PropOp44
 70
     1
102
RTVSPost2010Prop45
280
     0
102
RTVSPost2010PropOp45
 70
     1
102
RTVSPost2010Prop46
 90
       50
102
RTVSPost2010PropOp46
 70
     1
102
RTVSPost2010Prop47
 90
       50
102
RTVSPost2010PropOp47
 70
     1
102
RTVSPost2010Prop48
 90
       50
102
RTVSPost2010PropOp48
 70
     1
102
RTVSPost2010Prop49
280
     0
102
RTVSPost2010PropOp49
 70
     1
102
RTVSPost2010Prop50
 90
       50
102
RTVSPost2010PropOp50
 70
     1
102
RTVSPost2010Prop51ColorIndex
 90
      256
102
RTVSPost2010Prop51ColorRGB
 90
-16777216
102
RTVSPost2010PropOp51
 70
     0
102
RTVSPost2010Prop52
140
1.0
102
RTVSPost2010PropOp52
 70
     0
102
RTVSPost2010Prop53
 90
        2
102
RTVSPost2010PropOp53
 70
     1
102
RTVSPost2010Prop54
  1
strokes_ogs.tif
102
RTVSPost2010PropOp54
 70
     1
102
RTVSPost2010Prop55
280
     0
102
RTVSPost2010PropOp55
 70
     1
102
RTVSPost2010Prop56
140
1.0
102
RTVSPost2010PropOp56
 70
     1
102
RTVSPost2010Prop57
140
1.0
102
RTVSPost2010PropOp57
 70
     1
  0
ENDSEC
  0
EOF
