  0
SECTION
  2
HEADER
  9
$ACADVER
  1
AC1021
  9
$ACADMAINTVER
 70
    25
  9
$DWGCODEPAGE
  3
ANSI_932
  9
$INSBASE
 10
0.0
 20
0.0
 30
0.0
  9
$EXTMIN
 10
-1050.0
 20
-742.5
 30
0.0
  9
$EXTMAX
 10
1050.0
 20
742.5
 30
0.0
  9
$LIMMIN
 10
-1050.0
 20
-742.5
  9
$LIMMAX
 10
1050.0
 20
742.5
  9
$ORTHOMODE
 70
     0
  9
$REGENMODE
 70
     1
  9
$FILLMODE
 70
     1
  9
$QTEXTMODE
 70
     0
  9
$MIRRTEXT
 70
     1
  9
$LTSCALE
 40
5.0
  9
$ATTMODE
 70
     1
  9
$TEXTSIZE
 40
2.5
  9
$TRACEWID
 40
1.0
  9
$TEXTSTYLE
  7
Standard
  9
$CLAYER
  8
0
  9
$CELTYPE
  6
ByLayer
  9
$CECOLOR
 62
   256
  9
$CELTSCALE
 40
1.0
  9
$DISPSILH
 70
     0
  9
$DIMSCALE
 40
1.0
  9
$DIMASZ
 40
2.5
  9
$DIMEXO
 40
0.625
  9
$DIMDLI
 40
3.75
  9
$DIMRND
 40
0.0
  9
$DIMDLE
 40
0.0
  9
$DIMEXE
 40
1.25
  9
$DIMTP
 40
0.0
  9
$DIMTM
 40
0.0
  9
$DIMTXT
 40
2.5
  9
$DIMCEN
 40
2.5
  9
$DIMTSZ
 40
0.0
  9
$DIMTOL
 70
     0
  9
$DIMLIM
 70
     0
  9
$DIMTIH
 70
     0
  9
$DIMTOH
 70
     0
  9
$DIMSE1
 70
     0
  9
$DIMSE2
 70
     0
  9
$DIMTAD
 70
     1
  9
$DIMZIN
 70
     8
  9
$DIMBLK
  1

  9
$DIMASO
 70
     1
  9
$DIMSHO
 70
     1
  9
$DIMPOST
  1

  9
$DIMAPOST
  1

  9
$DIMALT
 70
     0
  9
$DIMALTD
 70
     3
  9
$DIMALTF
 40
0.03937007874016
  9
$DIMLFAC
 40
1.0
  9
$DIMTOFL
 70
     1
  9
$DIMTVP
 40
0.0
  9
$DIMTIX
 70
     0
  9
$DIMSOXD
 70
     0
  9
$DIMSAH
 70
     0
  9
$DIMBLK1
  1

  9
$DIMBLK2
  1

  9
$DIMSTYLE
  2
ISO-25
  9
$DIMCLRD
 70
     0
  9
$DIMCLRE
 70
     0
  9
$DIMCLRT
 70
     0
  9
$DIMTFAC
 40
1.0
  9
$DIMGAP
 40
0.625
  9
$DIMJUST
 70
     0
  9
$DIMSD1
 70
     0
  9
$DIMSD2
 70
     0
  9
$DIMTOLJ
 70
     0
  9
$DIMTZIN
 70
     8
  9
$DIMALTZ
 70
     0
  9
$DIMALTTZ
 70
     0
  9
$DIMUPT
 70
     0
  9
$DIMDEC
 70
     2
  9
$DIMTDEC
 70
     2
  9
$DIMALTU
 70
     2
  9
$DIMALTTD
 70
     3
  9
$DIMTXSTY
  7
Standard
  9
$DIMAUNIT
 70
     0
  9
$DIMADEC
 70
     0
  9
$DIMALTRND
 40
0.0
  9
$DIMAZIN
 70
     0
  9
$DIMDSEP
 70
    44
  9
$DIMATFIT
 70
     3
  9
$DIMFRAC
 70
     0
  9
$DIMLDRBLK
  1

  9
$DIMLUNIT
 70
     2
  9
$DIMLWD
 70
    -2
  9
$DIMLWE
 70
    -2
  9
$DIMTMOVE
 70
     0
  9
$DIMFXL
 40
1.0
  9
$DIMFXLON
 70
     0
  9
$DIMJOGANG
 40
0.7853981633974483
  9
$DIMTFILL
 70
     0
  9
$DIMTFILLCLR
 70
     0
  9
$DIMARCSYM
 70
     0
  9
$DIMLTYPE
  6

  9
$DIMLTEX1
  6

  9
$DIMLTEX2
  6

  9
$LUNITS
 70
     2
  9
$LUPREC
 70
     4
  9
$SKETCHINC
 40
1.0
  9
$FILLETRAD
 40
10.0
  9
$AUNITS
 70
     0
  9
$AUPREC
 70
     0
  9
$MENU
  1
.
  9
$ELEVATION
 40
0.0
  9
$PELEVATION
 40
0.0
  9
$THICKNESS
 40
0.0
  9
$LIMCHECK
 70
     0
  9
$CHAMFERA
 40
10.0
  9
$CHAMFERB
 40
10.0
  9
$CHAMFERC
 40
20.0
  9
$CHAMFERD
 40
0.0
  9
$SKPOLY
 70
     0
  9
$TDCREATE
 40
2457774.65432338
  9
$TDUCREATE
 40
2457774.27932338
  9
$TDUPDATE
 40
2457774.654323391
  9
$TDUUPDATE
 40
2457774.279323391
  9
$TDINDWG
 40
0.0000000116
  9
$TDUSRTIMER
 40
0.0000000116
  9
$USRTIMER
 70
     1
  9
$ANGBASE
 50
0.0
  9
$ANGDIR
 70
     0
  9
$PDMODE
 70
     0
  9
$PDSIZE
 40
0.0
  9
$PLINEWID
 40
0.0
  9
$SPLFRAME
 70
     0
  9
$SPLINETYPE
 70
     6
  9
$SPLINESEGS
 70
     8
  9
$HANDSEED
  5
ED
  9
$SURFTAB1
 70
     6
  9
$SURFTAB2
 70
     6
  9
$SURFTYPE
 70
     6
  9
$SURFU
 70
     6
  9
$SURFV
 70
     6
  9
$UCSBASE
  2

  9
$UCSNAME
  2

  9
$UCSORG
 10
0.0
 20
0.0
 30
0.0
  9
$UCSXDIR
 10
1.0
 20
0.0
 30
0.0
  9
$UCSYDIR
 10
0.0
 20
1.0
 30
0.0
  9
$UCSORTHOREF
  2

  9
$UCSORTHOVIEW
 70
     0
  9
$UCSORGTOP
 10
0.0
 20
0.0
 30
0.0
  9
$UCSORGBOTTOM
 10
0.0
 20
0.0
 30
0.0
  9
$UCSORGLEFT
 10
0.0
 20
0.0
 30
0.0
  9
$UCSORGRIGHT
 10
0.0
 20
0.0
 30
0.0
  9
$UCSORGFRONT
 10
0.0
 20
0.0
 30
0.0
  9
$UCSORGBACK
 10
0.0
 20
0.0
 30
0.0
  9
$PUCSBASE
  2

  9
$PUCSNAME
  2

  9
$PUCSORG
 10
0.0
 20
0.0
 30
0.0
  9
$PUCSXDIR
 10
1.0
 20
0.0
 30
0.0
  9
$PUCSYDIR
 10
0.0
 20
1.0
 30
0.0
  9
$PUCSORTHOREF
  2

  9
$PUCSORTHOVIEW
 70
     0
  9
$PUCSORGTOP
 10
0.0
 20
0.0
 30
0.0
  9
$PUCSORGBOTTOM
 10
0.0
 20
0.0
 30
0.0
  9
$PUCSORGLEFT
 10
0.0
 20
0.0
 30
0.0
  9
$PUCSORGRIGHT
 10
0.0
 20
0.0
 30
0.0
  9
$PUCSORGFRONT
 10
0.0
 20
0.0
 30
0.0
  9
$PUCSORGBACK
 10
0.0
 20
0.0
 30
0.0
  9
$USERI1
 70
     0
  9
$USERI2
 70
     0
  9
$USERI3
 70
     0
  9
$USERI4
 70
     0
  9
$USERI5
 70
     0
  9
$USERR1
 40
0.0
  9
$USERR2
 40
0.0
  9
$USERR3
 40
0.0
  9
$USERR4
 40
0.0
  9
$USERR5
 40
0.0
  9
$WORLDVIEW
 70
     1
  9
$SHADEDGE
 70
     3
  9
$SHADEDIF
 70
    70
  9
$TILEMODE
 70
     1
  9
$MAXACTVP
 70
    64
  9
$PINSBASE
 10
0.0
 20
0.0
 30
0.0
  9
$PLIMCHECK
 70
     0
  9
$PEXTMIN
 10
1.000000000000000E+20
 20
1.000000000000000E+20
 30
1.000000000000000E+20
  9
$PEXTMAX
 10
-1.000000000000000E+20
 20
-1.000000000000000E+20
 30
-1.000000000000000E+20
  9
$PLIMMIN
 10
0.0
 20
0.0
  9
$PLIMMAX
 10
420.0
 20
297.0
  9
$UNITMODE
 70
     0
  9
$VISRETAIN
 70
     1
  9
$PLINEGEN
 70
     0
  9
$PSLTSCALE
 70
     1
  9
$TREEDEPTH
 70
  3020
  9
$CMLSTYLE
  2
Standard
  9
$CMLJUST
 70
     0
  9
$CMLSCALE
 40
20.0
  9
$PROXYGRAPHICS
 70
     1
  9
$MEASUREMENT
 70
     1
  9
$CELWEIGHT
370
    -1
  9
$ENDCAPS
280
     0
  9
$JOINSTYLE
280
     0
  9
$LWDISPLAY
290
     0
  9
$INSUNITS
 70
     4
  9
$HYPERLINKBASE
  1

  9
$STYLESHEET
  1

  9
$XEDIT
290
     1
  9
$CEPSNTYPE
380
     0
  9
$PSTYLEMODE
290
     1
  9
$FINGERPRINTGUID
  2
{CFA43E7E-C725-4A76-9278-770297EAA832}
  9
$VERSIONGUID
  2
{FAEB1C32-E019-11D5-929B-00C0DF256EC4}
  9
$EXTNAMES
290
     1
  9
$PSVPSCALE
 40
0.0
  9
$OLESTARTUP
290
     0
  9
$SORTENTS
280
   127
  9
$INDEXCTL
280
     0
  9
$HIDETEXT
280
     1
  9
$XCLIPFRAME
290
     0
  9
$HALOGAP
280
     0
  9
$OBSCOLOR
 70
   257
  9
$OBSLTYPE
280
     0
  9
$INTERSECTIONDISPLAY
280
     0
  9
$INTERSECTIONCOLOR
 70
   257
  9
$DIMASSOC
280
     2
  9
$PROJECTNAME
  1

  9
$CAMERADISPLAY
290
     0
  9
$LENSLENGTH
 40
50.0
  9
$CAMERAHEIGHT
 40
0.0
  9
$STEPSPERSEC
 40
2.0
  9
$STEPSIZE
 40
6.0
  9
$3DDWFPREC
 40
2.0
  9
$PSOLWIDTH
 40
5.0
  9
$PSOLHEIGHT
 40
80.0
  9
$LOFTANG1
 40
1.570796326794897
  9
$LOFTANG2
 40
1.570796326794897
  9
$LOFTMAG1
 40
0.0
  9
$LOFTMAG2
 40
0.0
  9
$LOFTPARAM
 70
     7
  9
$LOFTNORMALS
280
     1
  9
$LATITUDE
 40
37.795
  9
$LONGITUDE
 40
-122.394
  9
$NORTHDIRECTION
 40
0.0
  9
$TIMEZONE
 70
 -8000
  9
$LIGHTGLYPHDISPLAY
280
     1
  9
$TILEMODELIGHTSYNCH
280
     1
  9
$SOLIDHIST
280
     1
  9
$SHOWHIST
280
     1
  9
$DWFFRAME
280
     2
  9
$DGNFRAME
280
     2
  9
$REALWORLDSCALE
290
     1
  9
$INTERFERECOLOR
 62
   256
  9
$CSHADOW
280
     0
  9
$SHADOWPLANELOCATION
 40
0.0
  0
ENDSEC
  0
SECTION
  2
CLASSES
  0
CLASS
  1
ACDBDICTIONARYWDFLT
  2
AcDbDictionaryWithDefault
  3
ObjectDBX Classes
 90
        0
 91
        4
280
     0
281
     0
  0
CLASS
  1
VISUALSTYLE
  2
AcDbVisualStyle
  3
ObjectDBX Classes
 90
     4095
 91
        4
280
     0
281
     0
  0
ENDSEC
  0
SECTION
  2
TABLES
  0
TABLE
  2
VPORT
  5
8
330
0
100
AcDbSymbolTable
 70
     1
  0
VPORT
  5
29
330
8
100
AcDbSymbolTableRecord
100
AcDbViewportTableRecord
  2
*Active
 70
     0
 10
0.0
 20
0.0
 11
1.0
 21
1.0
 12
0.0
 22
0.0
 13
0.0
 23
0.0
 14
10.0
 24
10.0
 15
10.0
 25
10.0
 16
0.0
 26
0.0
 36
1.0
 17
0.0
 27
0.0
 37
0.0
 40
1633.5
 41
1.414141414141414
 42
50.0
 43
0.0
 44
0.0
 50
0.0
 51
0.0
 71
     0
 72
 10000
 73
     1
 74
     3
 75
     0
 76
     0
 77
     0
 78
     0
281
     0
 65
     1
110
0.0
120
0.0
130
0.0
111
1.0
121
0.0
131
0.0
112
0.0
122
1.0
132
0.0
 79
     0
146
0.0
 60
     3
 61
     5
292
     1
282
     1
141
0.0
142
0.0
 63
   256
  0
ENDTAB
  0
TABLE
  2
LTYPE
  5
5
330
0
100
AcDbSymbolTable
 70
     3
  0
LTYPE
  5
14
330
5
100
AcDbSymbolTableRecord
100
AcDbLinetypeTableRecord
  2
ByBlock
 70
     0
  3

 72
    65
 73
     0
 40
0.0
  0
LTYPE
  5
15
330
5
100
AcDbSymbolTableRecord
100
AcDbLinetypeTableRecord
  2
ByLayer
 70
     0
  3

 72
    65
 73
     0
 40
0.0
  0
LTYPE
  5
16
330
5
100
AcDbSymbolTableRecord
100
AcDbLinetypeTableRecord
  2
Continuous
 70
     0
  3
Solid line
 72
    65
 73
     0
 40
0.0
  0
LTYPE
  5
3C
330
5
100
AcDbSymbolTableRecord
100
AcDbLinetypeTableRecord
  2
JWW_CENTER1
 70
     0
  3
-----  --  ----------  --  -----
 72
    65
 73
     4
 40
6.773333333333333
 49
4.233333333333333
 74
     0
 49
-0.8466666666666667
 74
     0
 49
0.8466666666666667
 74
     0
 49
-0.8466666666666667
 74
     0
  0
LTYPE
  5
3D
330
5
100
AcDbSymbolTableRecord
100
AcDbLinetypeTableRecord
  2
JWW_DASHED1
 70
     0
  3
-  --  --  --  --  --  --  --  -
 72
    65
 73
     2
 40
1.693333333333333
 49
0.8466666666666667
 74
     0
 49
-0.8466666666666667
 74
     0
  0
ENDTAB
  0
TABLE
  2
LAYER
  5
2
330
0
100
AcDbSymbolTable
 70
     9
  0
LAYER
  5
10
330
2
100
AcDbSymbolTableRecord
100
AcDbLayerTableRecord
  2
0
 70
     0
 62
     7
  6
Continuous
370
    -3
390
F
347
0
  0
LAYER
  5
3E
330
2
100
AcDbSymbolTableRecord
100
AcDbLayerTableRecord
  2
仕上
 70
     0
 62
     7
  6
Continuous
370
    -3
390
F
347
0
  0
LAYER
  5
3F
330
2
100
AcDbSymbolTableRecord
100
AcDbLayerTableRecord
  2
建具
 70
     0
 62
     7
  6
Continuous
370
    -3
390
F
347
0
  0
LAYER
  5
40
330
2
100
AcDbSymbolTableRecord
100
AcDbLayerTableRecord
  2
躯体
 70
     0
 62
     7
  6
Continuous
370
    -3
390
F
347
0
  0
LAYER
  5
41
330
2
100
AcDbSymbolTableRecord
100
AcDbLayerTableRecord
  2
ハッチ
 70
     0
 62
     7
  6
Continuous
370
    -3
390
F
347
0
  0
LAYER
  5
42
330
2
100
AcDbSymbolTableRecord
100
AcDbLayerTableRecord
  2
その他
 70
     0
 62
     7
  6
Continuous
370
    -3
390
F
347
0
  0
LAYER
  5
43
330
2
100
AcDbSymbolTableRecord
100
AcDbLayerTableRecord
  2
0-E
 70
     0
 62
     7
  6
Continuous
370
    -3
390
F
347
0
  0
LAYER
  5
44
330
2
100
AcDbSymbolTableRecord
100
AcDbLayerTableRecord
  2
寸法
 70
     0
 62
     7
  6
Continuous
370
    -3
390
F
347
0
  0
LAYER
  5
45
330
2
100
AcDbSymbolTableRecord
100
AcDbLayerTableRecord
  2
F-5ﾚｲﾔ
 70
     0
 62
     7
  6
Continuous
370
    -3
390
F
347
0
  0
ENDTAB
  0
TABLE
  2
STYLE
  5
3
330
0
100
AcDbSymbolTable
 70
     2
  0
STYLE
  5
11
330
3
100
AcDbSymbolTableRecord
100
AcDbTextStyleTableRecord
  2
Standard
 70
     0
 40
0.0
 41
1.0
 50
0.0
 71
     0
 42
2.5
  3
txt
  4

1001
ACAD
1000

1071
        0
  0
STYLE
  5
3B
330
3
100
AcDbSymbolTableRecord
100
AcDbTextStyleTableRecord
  2
ＭＳ ゴシック
 70
     0
 40
1.0
 41
1.0
 50
0.0
 71
     0
 42
10.0
  3

  4

1001
ACAD
1000
MS Gothic
1071
    32817
  0
ENDTAB
  0
TABLE
  2
VIEW
  5
6
330
0
100
AcDbSymbolTable
 70
     0
  0
ENDTAB
  0
TABLE
  2
UCS
  5
7
330
0
100
AcDbSymbolTable
 70
     0
  0
ENDTAB
  0
TABLE
  2
APPID
  5
9
330
0
100
AcDbSymbolTable
 70
     1
  0
APPID
  5
12
330
9
100
AcDbSymbolTableRecord
100
AcDbRegAppTableRecord
  2
ACAD
 70
     0
  0
ENDTAB
  0
TABLE
  2
DIMSTYLE
  5
A
330
0
100
AcDbSymbolTable
 70
     1
100
AcDbDimStyleTable
  0
DIMSTYLE
105
27
330
A
100
AcDbSymbolTableRecord
100
AcDbDimStyleTableRecord
  2
ISO-25
 70
     0
 41
2.5
 42
0.625
 43
3.75
 44
1.25
 73
     0
 74
     0
 77
     1
 78
     8
140
2.5
141
2.5
143
0.03937007874016
147
0.625
171
     3
172
     1
271
     2
272
     2
274
     3
278
    44
283
     0
284
     8
340
11
  0
ENDTAB
  0
TABLE
  2
BLOCK_RECORD
  5
1
330
0
100
AcDbSymbolTable
 70
     1
  0
BLOCK_RECORD
  5
1F
330
1
100
AcDbSymbolTableRecord
100
AcDbBlockTableRecord
  2
*Model_Space
340
22
 70
     0
280
     1
281
     0
  0
BLOCK_RECORD
  5
1B
330
1
100
AcDbSymbolTableRecord
100
AcDbBlockTableRecord
  2
*Paper_Space
340
1E
 70
     0
280
     1
281
     0
  0
BLOCK_RECORD
  5
23
330
1
100
AcDbSymbolTableRecord
100
AcDbBlockTableRecord
  2
*Paper_Space0
340
26
 70
     0
280
     1
281
     0
  0
ENDTAB
  0
ENDSEC
  0
SECTION
  2
BLOCKS
  0
BLOCK
  5
20
330
1F
100
AcDbEntity
  8
0
100
AcDbBlockBegin
  2
*Model_Space
 70
     0
 10
0.0
 20
0.0
 30
0.0
  3
*Model_Space
  1

  0
ENDBLK
  5
21
330
1F
100
AcDbEntity
  8
0
100
AcDbBlockEnd
  0
BLOCK
  5
1C
330
1B
100
AcDbEntity
 67
     1
  8
0
100
AcDbBlockBegin
  2
*Paper_Space
 70
     0
 10
0.0
 20
0.0
 30
0.0
  3
*Paper_Space
  1

  0
ENDBLK
  5
1D
330
1B
100
AcDbEntity
 67
     1
  8
0
100
AcDbBlockEnd
  0
BLOCK
  5
24
330
23
100
AcDbEntity
  8
0
100
AcDbBlockBegin
  2
*Paper_Space0
 70
     0
 10
0.0
 20
0.0
 30
0.0
  3
*Paper_Space0
  1

  0
ENDBLK
  5
25
330
23
100
AcDbEntity
  8
0
100
AcDbBlockEnd
  0
ENDSEC
  0
SECTION
  2
ENTITIES
  0
LINE
  5
46
330
1F
100
AcDbEntity
  8
仕上
  6
Continuous
 62
     3
370
     9
100
AcDbLine
 10
-282.7600015176308
 20
48.07202725797097
 30
0.0
 11
-282.7600015176308
 21
162.3720282477302
 31
0.0
  0
LINE
  5
47
330
1F
100
AcDbEntity
  8
建具
  6
JWW_CENTER1
 62
     2
370
     9
100
AcDbLine
 10
-584.4023833403717
 20
10.22196176889778
 30
0.0
 11
-621.1956952069256
 21
10.22196176889778
 31
0.0
  0
LINE
  5
48
330
1F
100
AcDbEntity
  8
建具
  6
JWW_CENTER1
 62
     2
370
     9
100
AcDbLine
 10
-584.4023833403717
 20
200.2220937368033
 30
0.0
 11
-621.1956952069256
 21
200.2220937368033
 31
0.0
  0
LINE
  5
49
330
1F
100
AcDbEntity
  8
躯体
  6
JWW_DASHED1
 62
     2
370
     9
100
AcDbLine
 10
423.7400776631125
 20
105.2220277528505
 30
0.0
 11
423.7400776631125
 21
162.3720282477302
 31
0.0
  0
LINE
  5
4A
330
1F
100
AcDbEntity
  8
躯体
  6
JWW_DASHED1
 62
     2
370
     9
100
AcDbLine
 10
417.7400331239443
 20
105.2220277528505
 30
0.0
 11
417.7400331239443
 21
162.3720282477302
 31
0.0
  0
LINE
  5
4B
330
1F
100
AcDbEntity
  8
躯体
  6
Continuous
 62
     2
370
     9
100
AcDbLine
 10
423.7400776631125
 20
105.2220277528505
 30
0.0
 11
423.7400776631125
 21
-16.77792935758021
 31
0.0
  0
LINE
  5
4C
330
1F
100
AcDbEntity
  8
仕上
  6
Continuous
 62
     3
370
     9
100
AcDbLine
 10
873.7400776631125
 20
158.3719779349663
 30
0.0
 11
-282.7600015176308
 21
158.3719779349663
 31
0.0
  0
LINE
  5
4D
330
1F
100
AcDbEntity
  8
建具
  6
Continuous
 62
     2
370
     9
100
AcDbLine
 10
462.7400578679266
 20
207.1394595584354
 30
0.0
 11
461.6575086438979
 21
208.2220706424198
 31
0.0
  0
LINE
  5
4E
330
1F
100
AcDbEntity
  8
建具
  6
Continuous
 62
     2
370
     9
100
AcDbLine
 10
461.6575086438979
 20
192.2219312513198
 30
0.0
 11
462.7400578679266
 21
193.3045423353042
 31
0.0
  0
LINE
  5
4F
330
1F
100
AcDbEntity
  8
建具
  6
Continuous
 62
     2
370
     9
100
AcDbLine
 10
461.6575086438979
 20
208.2220706424198
 30
0.0
 11
461.6575086438979
 21
192.2219312513198
 31
0.0
  0
LINE
  5
50
330
1F
100
AcDbEntity
  8
建具
  6
Continuous
 62
     2
370
     9
100
AcDbLine
 10
462.7400578679266
 20
193.3045423353042
 30
0.0
 11
462.7400578679266
 21
207.1394595584354
 31
0.0
  0
LINE
  5
51
330
1F
100
AcDbEntity
  8
建具
  6
Continuous
 62
     2
370
     9
100
AcDbLine
 10
407.740000131968
 20
210.9095764160156
 30
0.0
 11
407.740000131968
 21
189.5344873376796
 31
0.0
  0
LINE
  5
52
330
1F
100
AcDbEntity
  8
建具
  6
Continuous
 62
     2
370
     9
100
AcDbLine
 10
408.75338992557
 20
186.3720208245356
 30
0.0
 11
417.7400331239443
 21
186.3720208245356
 31
0.0
  0
LINE
  5
53
330
1F
100
AcDbEntity
  8
建具
  6
Continuous
 62
     2
370
     9
100
AcDbLine
 10
408.75338992557
 20
214.0721047891154
 30
0.0
 11
417.7400331239443
 21
214.0721047891154
 31
0.0
  0
LINE
  5
54
330
1F
100
AcDbEntity
  8
建具
  6
Continuous
 62
     2
370
     9
100
AcDbLine
 10
408.7535136454815
 20
193.3045423353042
 30
0.0
 11
462.7400578679266
 21
193.3045423353042
 31
0.0
  0
LINE
  5
55
330
1F
100
AcDbEntity
  8
建具
  6
Continuous
 62
     2
370
     9
100
AcDbLine
 10
408.7535136454815
 20
207.1394595584354
 30
0.0
 11
462.7400578679266
 21
207.1394595584354
 31
0.0
  0
LINE
  5
56
330
1F
100
AcDbEntity
  8
建具
  6
Continuous
 62
     2
370
     9
100
AcDbLine
 10
417.7400331239443
 20
192.2219312513198
 30
0.0
 11
461.6575086438979
 21
192.2219312513198
 31
0.0
  0
LINE
  5
57
330
1F
100
AcDbEntity
  8
建具
  6
Continuous
 62
     2
370
     9
100
AcDbLine
 10
417.7400331239443
 20
208.2220706424198
 30
0.0
 11
461.6575086438979
 21
208.2220706424198
 31
0.0
  0
LINE
  5
58
330
1F
100
AcDbEntity
  8
躯体
  6
Continuous
 62
     2
370
     9
100
AcDbLine
 10
417.7400331239443
 20
227.2219848632812
 30
0.0
 11
417.7400331239443
 21
162.3720282477302
 31
0.0
  0
LINE
  5
59
330
1F
100
AcDbEntity
  8
躯体
  6
Continuous
 62
     2
370
     9
100
AcDbLine
 10
417.7400331239443
 20
105.2220277528505
 30
0.0
 11
417.7400331239443
 21
-16.77792935758021
 31
0.0
  0
LINE
  5
5A
330
1F
100
AcDbEntity
  8
建具
  6
Continuous
 62
     2
370
     9
100
AcDbLine
 10
417.7400331239443
 20
186.3720208245356
 30
0.0
 11
417.7400331239443
 21
214.0721047891154
 31
0.0
  0
LINE
  5
5B
330
1F
100
AcDbEntity
  8
建具
  6
Continuous
 62
     2
370
     9
100
AcDbLine
 10
-590.4673808329813
 20
17.11810962573907
 30
0.0
 11
-602.4619025153082
 21
24.04308422191733
 31
0.0
  0
LINE
  5
5C
330
1F
100
AcDbEntity
  8
建具
  6
Continuous
 62
     2
370
     9
100
AcDbLine
 10
-602.4619025153082
 20
24.04308422191733
 30
0.0
 11
-614.4563004777237
 21
17.11810962573907
 31
0.0
  0
LINE
  5
5D
330
1F
100
AcDbEntity
  8
建具
  6
Continuous
 62
     2
370
     9
100
AcDbLine
 10
-614.4563004777237
 20
17.11810962573907
 30
0.0
 11
-614.4563004777237
 21
3.268036713471361
 31
0.0
  0
LINE
  5
5E
330
1F
100
AcDbEntity
  8
建具
  6
Continuous
 62
     2
370
     9
100
AcDbLine
 10
-614.4563004777237
 20
3.268036713471361
 30
0.0
 11
-602.4619025153082
 21
-3.656937882706899
 31
0.0
  0
LINE
  5
5F
330
1F
100
AcDbEntity
  8
建具
  6
Continuous
 62
     2
370
     9
100
AcDbLine
 10
-602.4619025153082
 20
-3.656937882706899
 30
0.0
 11
-590.4673808329813
 21
3.268036713471361
 31
0.0
  0
LINE
  5
60
330
1F
100
AcDbEntity
  8
建具
  6
Continuous
 62
     2
370
     9
100
AcDbLine
 10
-590.4673808329813
 20
3.268036713471361
 30
0.0
 11
-590.4673808329813
 21
17.11810962573907
 31
0.0
  0
LINE
  5
61
330
1F
100
AcDbEntity
  8
建具
  6
Continuous
 62
     2
370
     9
100
AcDbLine
 10
-590.4673808329813
 20
207.1181178737332
 30
0.0
 11
-602.4619025153082
 21
214.043339909734
 31
0.0
  0
LINE
  5
62
330
1F
100
AcDbEntity
  8
建具
  6
Continuous
 62
     2
370
     9
100
AcDbLine
 10
-602.4619025153082
 20
214.043339909734
 30
0.0
 11
-614.4563004777237
 21
207.1181178737332
 31
0.0
  0
LINE
  5
63
330
1F
100
AcDbEntity
  8
建具
  6
Continuous
 62
     2
370
     9
100
AcDbLine
 10
-614.4563004777237
 20
207.1181178737332
 30
0.0
 11
-614.4563004777237
 21
193.2680449614654
 31
0.0
  0
LINE
  5
64
330
1F
100
AcDbEntity
  8
建具
  6
Continuous
 62
     2
370
     9
100
AcDbLine
 10
-614.4563004777237
 20
193.2680449614654
 30
0.0
 11
-602.4619025153082
 21
186.3431940851986
 31
0.0
  0
LINE
  5
65
330
1F
100
AcDbEntity
  8
建具
  6
Continuous
 62
     2
370
     9
100
AcDbLine
 10
-602.4619025153082
 20
186.3431940851986
 30
0.0
 11
-590.4673808329813
 21
193.2680449614654
 31
0.0
  0
LINE
  5
66
330
1F
100
AcDbEntity
  8
建具
  6
Continuous
 62
     2
370
     9
100
AcDbLine
 10
-590.4673808329813
 20
193.2680449614654
 30
0.0
 11
-590.4673808329813
 21
207.1181178737332
 31
0.0
  0
LINE
  5
67
330
1F
100
AcDbEntity
  8
躯体
  6
Continuous
 62
     2
370
     9
100
AcDbLine
 10
423.7400776631125
 20
-16.77792935758021
 30
0.0
 11
417.7400331239443
 21
-16.77792935758021
 31
0.0
  0
LINE
  5
68
330
1F
100
AcDbEntity
  8
躯体
  6
Continuous
 62
     2
370
     9
100
AcDbLine
 10
417.7400331239443
 20
227.2219848632812
 30
0.0
 11
423.7400776631125
 21
227.2219848632812
 31
0.0
  0
LINE
  5
69
330
1F
100
AcDbEntity
  8
躯体
  6
Continuous
 62
     2
370
     9
100
AcDbLine
 10
423.7400776631125
 20
209.2219131057327
 30
0.0
 11
417.7400331239443
 21
209.2219131057327
 31
0.0
  0
LINE
  5
6A
330
1F
100
AcDbEntity
  8
躯体
  6
Continuous
 62
     2
370
     9
100
AcDbLine
 10
423.7400776631125
 20
191.2220887880068
 30
0.0
 11
417.7400331239443
 21
191.2220887880068
 31
0.0
  0
LINE
  5
6B
330
1F
100
AcDbEntity
  8
建具
  6
JWW_CENTER1
 62
     2
370
     9
100
AcDbLine
 10
469.78664913693
 20
200.2220318768477
 30
0.0
 11
399.6088801203547
 21
200.2220318768477
 31
0.0
  0
LINE
  5
6C
330
1F
100
AcDbEntity
  8
建具
  6
Continuous
 62
     2
370
     9
100
AcDbLine
 10
462.7400578679266
 20
17.13951317039701
 30
0.0
 11
461.6575086438979
 21
18.22200053447006
 31
0.0
  0
LINE
  5
6D
330
1F
100
AcDbEntity
  8
建具
  6
Continuous
 62
     2
370
     9
100
AcDbLine
 10
461.6575086438979
 20
2.221923003325657
 30
0.0
 11
462.7400578679266
 21
3.304534087310032
 31
0.0
  0
LINE
  5
6E
330
1F
100
AcDbEntity
  8
建具
  6
Continuous
 62
     2
370
     9
100
AcDbLine
 10
461.6575086438979
 20
18.22200053447006
 30
0.0
 11
461.6575086438979
 21
2.221923003325657
 31
0.0
  0
LINE
  5
6F
330
1F
100
AcDbEntity
  8
建具
  6
Continuous
 62
     2
370
     9
100
AcDbLine
 10
462.7400578679266
 20
3.304534087310032
 30
0.0
 11
462.7400578679266
 21
17.13951317039701
 31
0.0
  0
LINE
  5
70
330
1F
100
AcDbEntity
  8
建具
  6
Continuous
 62
     2
370
     9
100
AcDbLine
 10
407.740000131968
 20
20.90950630806589
 30
0.0
 11
407.740000131968
 21
-0.4655827702701743
 31
0.0
  0
LINE
  5
71
330
1F
100
AcDbEntity
  8
建具
  6
Continuous
 62
     2
370
     9
100
AcDbLine
 10
408.75338992557
 20
-3.628049283414185
 30
0.0
 11
417.7400331239443
 21
-3.628049283414185
 31
0.0
  0
LINE
  5
72
330
1F
100
AcDbEntity
  8
建具
  6
Continuous
 62
     2
370
     9
100
AcDbLine
 10
408.75338992557
 20
24.07203468116563
 30
0.0
 11
417.7400331239443
 21
24.07203468116563
 31
0.0
  0
LINE
  5
73
330
1F
100
AcDbEntity
  8
建具
  6
Continuous
 62
     2
370
     9
100
AcDbLine
 10
417.7400331239443
 20
-3.628049283414185
 30
0.0
 11
417.7400331239443
 21
24.07203468116563
 31
0.0
  0
LINE
  5
74
330
1F
100
AcDbEntity
  8
建具
  6
Continuous
 62
     2
370
     9
100
AcDbLine
 10
423.7400776631125
 20
2.221923003325657
 30
0.0
 11
461.6575086438979
 21
2.221923003325657
 31
0.0
  0
LINE
  5
75
330
1F
100
AcDbEntity
  8
建具
  6
Continuous
 62
     2
370
     9
100
AcDbLine
 10
423.7400776631125
 20
3.304534087310032
 30
0.0
 11
462.7400578679266
 21
3.304534087310032
 31
0.0
  0
LINE
  5
76
330
1F
100
AcDbEntity
  8
建具
  6
Continuous
 62
     2
370
     9
100
AcDbLine
 10
423.7400776631125
 20
17.13951317039701
 30
0.0
 11
462.7400578679266
 21
17.13951317039701
 31
0.0
  0
LINE
  5
77
330
1F
100
AcDbEntity
  8
建具
  6
Continuous
 62
     2
370
     9
100
AcDbLine
 10
423.7400776631125
 20
18.22200053447006
 30
0.0
 11
461.6575086438979
 21
18.22200053447006
 31
0.0
  0
LINE
  5
78
330
1F
100
AcDbEntity
  8
建具
  6
Continuous
 62
     2
370
     9
100
AcDbLine
 10
408.7535136454815
 20
3.304534087310032
 30
0.0
 11
417.7400331239443
 21
3.304534087310032
 31
0.0
  0
LINE
  5
79
330
1F
100
AcDbEntity
  8
建具
  6
Continuous
 62
     2
370
     9
100
AcDbLine
 10
408.7535136454815
 20
17.13951317039701
 30
0.0
 11
417.7400331239443
 21
17.13951317039701
 31
0.0
  0
LINE
  5
7A
330
1F
100
AcDbEntity
  8
仕上
  6
Continuous
 62
     3
370
     9
100
AcDbLine
 10
873.7400776631125
 20
48.07202725797097
 30
0.0
 11
423.7400776631125
 21
48.07202725797097
 31
0.0
  0
LINE
  5
7B
330
1F
100
AcDbEntity
  8
仕上
  6
Continuous
 62
     3
370
     9
100
AcDbLine
 10
873.7400776631125
 20
48.07202725797097
 30
0.0
 11
873.7400776631125
 21
162.3720282477302
 31
0.0
  0
LINE
  5
7C
330
1F
100
AcDbEntity
  8
建具
  6
JWW_CENTER1
 62
     2
370
     9
100
AcDbLine
 10
469.78664913693
 20
10.22202362885352
 30
0.0
 11
402.7474068306589
 21
10.22202362885352
 31
0.0
  0
LINE
  5
7D
330
1F
100
AcDbEntity
  8
躯体
  6
Continuous
 62
     2
370
     9
100
AcDbLine
 10
423.7400776631125
 20
227.2219848632812
 30
0.0
 11
423.7400776631125
 21
208.2220706424198
 31
0.0
  0
LINE
  5
7E
330
1F
100
AcDbEntity
  8
躯体
  6
Continuous
 62
     2
370
     9
100
AcDbLine
 10
423.7400776631125
 20
192.2219312513198
 30
0.0
 11
423.7400776631125
 21
162.3720282477302
 31
0.0
  0
LINE
  5
7F
330
1F
100
AcDbEntity
  8
仕上
  6
JWW_DASHED1
 62
     3
370
     9
100
AcDbLine
 10
873.7400776631125
 20
52.07201571077917
 30
0.0
 11
-282.7600015176308
 21
52.07201571077917
 31
0.0
  0
LINE
  5
80
330
1F
100
AcDbEntity
  8
躯体
  6
JWW_DASHED1
 62
     2
370
     9
100
AcDbLine
 10
423.7400776631125
 20
47.47198568808074
 30
0.0
 11
417.7400331239443
 21
47.47198568808074
 31
0.0
  0
LINE
  5
81
330
1F
100
AcDbEntity
  8
躯体
  6
Continuous
 62
     2
370
     9
100
AcDbLine
 10
423.7400776631125
 20
162.972131677576
 30
0.0
 11
417.7400331239443
 21
162.972131677576
 31
0.0
  0
LINE
  5
82
330
1F
100
AcDbEntity
  8
躯体
  6
JWW_DASHED1
 62
     2
370
     9
100
AcDbLine
 10
423.7400776631125
 20
19.22196671769427
 30
0.0
 11
417.7400331239443
 21
19.22196671769427
 31
0.0
  0
LINE
  5
83
330
1F
100
AcDbEntity
  8
建具
  6
JWW_DASHED1
 62
     2
370
     9
100
AcDbLine
 10
423.7400776631125
 20
3.304534087310032
 30
0.0
 11
417.7400331239443
 21
3.304534087310032
 31
0.0
  0
LINE
  5
84
330
1F
100
AcDbEntity
  8
建具
  6
JWW_DASHED1
 62
     2
370
     9
100
AcDbLine
 10
423.7400776631125
 20
17.13951317039701
 30
0.0
 11
417.7400331239443
 21
17.13951317039701
 31
0.0
  0
LINE
  5
85
330
1F
100
AcDbEntity
  8
躯体
  6
JWW_DASHED1
 62
     2
370
     9
100
AcDbLine
 10
423.7400776631125
 20
1.222080540012769
 30
0.0
 11
417.7400331239443
 21
1.222080540012769
 31
0.0
  0
LINE
  5
86
330
1F
100
AcDbEntity
  8
建具
  6
JWW_DASHED1
 62
     2
370
     9
100
AcDbLine
 10
423.7400776631125
 20
2.221923003325657
 30
0.0
 11
417.7400331239443
 21
2.221923003325657
 31
0.0
  0
LINE
  5
87
330
1F
100
AcDbEntity
  8
建具
  6
JWW_DASHED1
 62
     2
370
     9
100
AcDbLine
 10
423.7400776631125
 20
18.22200053447006
 30
0.0
 11
417.7400331239443
 21
18.22200053447006
 31
0.0
  0
LINE
  5
88
330
1F
100
AcDbEntity
  8
仕上
  6
Continuous
 62
     3
370
     9
100
AcDbLine
 10
417.7400331239443
 20
48.07202725797097
 30
0.0
 11
-284.6917023529878
 21
48.07202725797097
 31
0.0
  0
LINE
  5
89
330
1F
100
AcDbEntity
  8
仕上
  6
Continuous
 62
     3
370
     9
100
AcDbLine
 10
873.7400776631125
 20
162.3720282477302
 30
0.0
 11
-284.6917023529878
 21
162.3720282477302
 31
0.0
  0
LINE
  5
8A
330
1F
100
AcDbEntity
  8
仕上
  6
JWW_CENTER1
 62
     3
370
     9
100
AcDbLine
 10
889.4520115207981
 20
105.2220277528505
 30
0.0
 11
-327.1148269240921
 21
105.2220277528505
 31
0.0
  0
LINE
  5
8B
330
1F
100
AcDbEntity
  8
ハッチ
  6
Continuous
 62
     6
370
     9
100
AcDbLine
 10
423.7400776631125
 20
-194.7779722471495
 30
0.0
 11
423.7400776631125
 21
-16.77792935758021
 31
0.0
  0
LINE
  5
8C
330
1F
100
AcDbEntity
  8
その他
  6
Continuous
 62
     7
370
     9
100
AcDbLine
 10
423.7400776631125
 20
-169.7780134871199
 30
0.0
 11
408.7400281751479
 21
-178.4380361196157
 31
0.0
  0
LINE
  5
8D
330
1F
100
AcDbEntity
  8
その他
  6
Continuous
 62
     7
370
     9
100
AcDbLine
 10
423.7400776631125
 20
-169.7780134871199
 30
0.0
 11
408.7400281751479
 21
-161.1179908546242
 31
0.0
  0
LINE
  5
8E
330
1F
100
AcDbEntity
  8
その他
  6
Continuous
 62
     7
370
     9
100
AcDbLine
 10
408.7400281751479
 20
-178.4380361196157
 30
0.0
 11
408.7400281751479
 21
-161.1179908546242
 31
0.0
  0
LINE
  5
8F
330
1F
100
AcDbEntity
  8
その他
  6
Continuous
 62
     7
370
     9
100
AcDbLine
 10
-306.2599800728462
 20
-66.77790873759491
 30
0.0
 11
423.7400776631125
 21
-66.77790873759491
 31
0.0
  0
LINE
  5
90
330
1F
100
AcDbEntity
  8
その他
  6
Continuous
 62
     7
370
     9
100
AcDbLine
 10
-306.2599800728462
 20
92.72204837283581
 30
0.0
 11
-306.2599800728462
 21
-68.2778889424091
 31
0.0
  0
LINE
  5
91
330
1F
100
AcDbEntity
  8
その他
  6
Continuous
 62
     7
370
     9
100
AcDbLine
 10
-306.2599800728462
 20
-66.77790873759491
 30
0.0
 11
-293.8668946962099
 21
-65.14635240709453
 31
0.0
  0
LINE
  5
92
330
1F
100
AcDbEntity
  8
その他
  6
Continuous
 62
     7
370
     9
100
AcDbLine
 10
-306.2599800728462
 20
-66.77790873759491
 30
0.0
 11
-293.8668946962099
 21
-68.40946506809544
 31
0.0
  0
LINE
  5
93
330
1F
100
AcDbEntity
  8
その他
  6
Continuous
 62
     7
370
     9
100
AcDbLine
 10
423.7400776631125
 20
-66.77790873759491
 30
0.0
 11
411.3470541464318
 21
-65.14635240709453
 31
0.0
  0
LINE
  5
94
330
1F
100
AcDbEntity
  8
その他
  6
Continuous
 62
     7
370
     9
100
AcDbLine
 10
423.7400776631125
 20
-66.77790873759491
 30
0.0
 11
411.3470541464318
 21
-68.40946506809544
 31
0.0
  0
LINE
  5
95
330
1F
100
AcDbEntity
  8
その他
  6
Continuous
 62
     7
370
     9
100
AcDbLine
 10
423.7400776631125
 20
-66.77790873759491
 30
0.0
 11
873.7400776631125
 21
-66.77790873759491
 31
0.0
  0
LINE
  5
96
330
1F
100
AcDbEntity
  8
その他
  6
Continuous
 62
     7
370
     9
100
AcDbLine
 10
873.7400776631125
 20
35.57204787795612
 30
0.0
 11
873.7400776631125
 21
-68.2778889424091
 31
0.0
  0
LINE
  5
97
330
1F
100
AcDbEntity
  8
その他
  6
Continuous
 62
     7
370
     9
100
AcDbLine
 10
423.7400776631125
 20
-66.77790873759491
 30
0.0
 11
436.1331011797932
 21
-65.14635240709453
 31
0.0
  0
LINE
  5
98
330
1F
100
AcDbEntity
  8
その他
  6
Continuous
 62
     7
370
     9
100
AcDbLine
 10
423.7400776631125
 20
-66.77790873759491
 30
0.0
 11
436.1331011797932
 21
-68.40946506809544
 31
0.0
  0
LINE
  5
99
330
1F
100
AcDbEntity
  8
その他
  6
Continuous
 62
     7
370
     9
100
AcDbLine
 10
873.7400776631125
 20
-66.77790873759491
 30
0.0
 11
861.3470541464318
 21
-65.14635240709453
 31
0.0
  0
LINE
  5
9A
330
1F
100
AcDbEntity
  8
その他
  6
Continuous
 62
     7
370
     9
100
AcDbLine
 10
873.7400776631125
 20
-66.77790873759491
 30
0.0
 11
861.3470541464318
 21
-68.40946506809544
 31
0.0
  0
LINE
  5
9B
330
1F
100
AcDbEntity
  8
その他
  6
Continuous
 62
     7
370
     9
100
AcDbLine
 10
-306.2599800728462
 20
277.2219642432961
 30
0.0
 11
873.7400776631125
 21
277.2219642432961
 31
0.0
  0
LINE
  5
9C
330
1F
100
AcDbEntity
  8
その他
  6
Continuous
 62
     7
370
     9
100
AcDbLine
 10
-306.2599800728462
 20
117.7220071328654
 30
0.0
 11
-306.2599800728462
 21
278.7219444481103
 31
0.0
  0
LINE
  5
9D
330
1F
100
AcDbEntity
  8
その他
  6
Continuous
 62
     7
370
     9
100
AcDbLine
 10
873.7400776631125
 20
174.8720076277449
 30
0.0
 11
873.7400776631125
 21
278.7219444481103
 31
0.0
  0
LINE
  5
9E
330
1F
100
AcDbEntity
  8
その他
  6
Continuous
 62
     7
370
     9
100
AcDbLine
 10
-306.2599800728462
 20
277.2219642432961
 30
0.0
 11
-293.8668946962099
 21
278.8535205737965
 31
0.0
  0
LINE
  5
9F
330
1F
100
AcDbEntity
  8
その他
  6
Continuous
 62
     7
370
     9
100
AcDbLine
 10
-306.2599800728462
 20
277.2219642432961
 30
0.0
 11
-293.8668946962099
 21
275.5904079127957
 31
0.0
  0
LINE
  5
A0
330
1F
100
AcDbEntity
  8
その他
  6
Continuous
 62
     7
370
     9
100
AcDbLine
 10
873.7400776631125
 20
277.2219642432961
 30
0.0
 11
861.3470541464318
 21
278.8535205737965
 31
0.0
  0
LINE
  5
A1
330
1F
100
AcDbEntity
  8
その他
  6
Continuous
 62
     7
370
     9
100
AcDbLine
 10
873.7400776631125
 20
277.2219642432961
 30
0.0
 11
861.3470541464318
 21
275.5904079127957
 31
0.0
  0
LINE
  5
A2
330
1F
100
AcDbEntity
  8
ハッチ
  6
Continuous
 62
     6
370
     9
100
AcDbLine
 10
423.7400776631125
 20
227.2219848632812
 30
0.0
 11
423.7400776631125
 21
262.2219766152872
 31
0.0
  0
LINE
  5
A3
330
1F
100
AcDbEntity
  8
ハッチ
  6
Continuous
 62
     6
370
     9
100
AcDbLine
 10
423.7400776631125
 20
292.221951871305
 30
0.0
 11
423.7400776631125
 21
405.2220277528505
 31
0.0
  0
LINE
  5
A4
330
1F
100
AcDbEntity
  8
仕上
  6
JWW_CENTER1
 62
     3
370
     9
100
AcDbLine
 10
-464.7083797970333
 20
105.2220277528505
 30
0.0
 11
-740.1152121054158
 21
105.2220277528505
 31
0.0
  0
LINE
  5
A5
330
1F
100
AcDbEntity
  8
仕上
  6
JWW_CENTER1
 62
     3
370
     9
100
AcDbLine
 10
-602.4117959512246
 20
-32.48138840134075
 30
0.0
 11
-602.4117959512246
 21
242.9254439070418
 31
0.0
  0
LINE
  5
A6
330
1F
100
AcDbEntity
  8
その他
  6
Continuous
 62
     7
370
     9
100
AcDbLine
 10
-356.259959452861
 20
48.07202725797097
 30
0.0
 11
-356.259959452861
 21
162.3720282477302
 31
0.0
  0
LINE
  5
A7
330
1F
100
AcDbEntity
  8
その他
  6
Continuous
 62
     7
370
     9
100
AcDbLine
 10
-297.1916817330025
 20
48.07202725797097
 30
0.0
 11
-357.7599396576753
 21
48.07202725797097
 31
0.0
  0
LINE
  5
A8
330
1F
100
AcDbEntity
  8
その他
  6
Continuous
 62
     7
370
     9
100
AcDbLine
 10
-297.1916817330025
 20
162.3720282477302
 30
0.0
 11
-357.7599396576753
 21
162.3720282477302
 31
0.0
  0
LINE
  5
A9
330
1F
100
AcDbEntity
  8
その他
  6
Continuous
 62
     7
370
     9
100
AcDbLine
 10
-356.259959452861
 20
48.07202725797097
 30
0.0
 11
-357.8915157833615
 21
60.46511263460729
 31
0.0
  0
LINE
  5
AA
330
1F
100
AcDbEntity
  8
その他
  6
Continuous
 62
     7
370
     9
100
AcDbLine
 10
-356.259959452861
 20
48.07202725797097
 30
0.0
 11
-354.6284031223605
 21
60.46511263460729
 31
0.0
  0
LINE
  5
AB
330
1F
100
AcDbEntity
  8
その他
  6
Continuous
 62
     7
370
     9
100
AcDbLine
 10
-356.259959452861
 20
162.3720282477302
 30
0.0
 11
-357.8915157833615
 21
149.9789428710938
 31
0.0
  0
LINE
  5
AC
330
1F
100
AcDbEntity
  8
その他
  6
Continuous
 62
     7
370
     9
100
AcDbLine
 10
-356.259959452861
 20
162.3720282477302
 30
0.0
 11
-354.6284031223605
 21
149.9789428710938
 31
0.0
  0
LINE
  5
AD
330
1F
100
AcDbEntity
  8
その他
  6
Continuous
 62
     7
370
     9
100
AcDbLine
 10
-207.7600015176309
 20
162.3720282477302
 30
0.0
 11
-209.391619708087
 21
174.7651136243665
 31
0.0
  0
LINE
  5
AE
330
1F
100
AcDbEntity
  8
その他
  6
Continuous
 62
     7
370
     9
100
AcDbLine
 10
-207.7600015176309
 20
158.3719779349663
 30
0.0
 11
-209.391619708087
 21
145.9788925583298
 31
0.0
  0
LINE
  5
AF
330
1F
100
AcDbEntity
  8
その他
  6
Continuous
 62
     7
370
     9
100
AcDbLine
 10
-207.7600015176309
 20
158.3719779349663
 30
0.0
 11
-206.1283833271747
 21
145.9788925583298
 31
0.0
  0
LINE
  5
B0
330
1F
100
AcDbEntity
  8
その他
  6
Continuous
 62
     7
370
     9
100
AcDbLine
 10
-207.7600015176309
 20
162.3720282477302
 30
0.0
 11
-206.1283833271747
 21
174.7651136243665
 31
0.0
  0
LINE
  5
B1
330
1F
100
AcDbEntity
  8
その他
  6
Continuous
 62
     7
370
     9
100
AcDbLine
 10
-207.7600015176309
 20
195.275400522593
 30
0.0
 11
-207.7600015176309
 21
136.0541431323902
 31
0.0
  0
LINE
  5
B2
330
1F
100
AcDbEntity
  8
その他
  6
Continuous
 62
     7
370
     9
100
AcDbLine
 10
-774.4117943016258
 20
10.22196176889778
 30
0.0
 11
-774.4117943016258
 21
200.2220937368033
 31
0.0
  0
LINE
  5
B3
330
1F
100
AcDbEntity
  8
その他
  6
Continuous
 62
     7
370
     9
100
AcDbLine
 10
-633.6956745869404
 20
10.22196176889778
 30
0.0
 11
-775.9118054364178
 21
10.22196176889778
 31
0.0
  0
LINE
  5
B4
330
1F
100
AcDbEntity
  8
その他
  6
Continuous
 62
     7
370
     9
100
AcDbLine
 10
-633.6956745869404
 20
200.2220937368033
 30
0.0
 11
-775.9118054364178
 21
200.2220937368033
 31
0.0
  0
LINE
  5
B5
330
1F
100
AcDbEntity
  8
その他
  6
Continuous
 62
     7
370
     9
100
AcDbLine
 10
-774.4117943016258
 20
10.22196176889778
 30
0.0
 11
-776.0433815621041
 21
22.61504714553425
 31
0.0
  0
LINE
  5
B6
330
1F
100
AcDbEntity
  8
その他
  6
Continuous
 62
     7
370
     9
100
AcDbLine
 10
-774.4117943016258
 20
10.22196176889778
 30
0.0
 11
-772.7802070411476
 21
22.61504714553425
 31
0.0
  0
LINE
  5
B7
330
1F
100
AcDbEntity
  8
その他
  6
Continuous
 62
     7
370
     9
100
AcDbLine
 10
-774.4117943016258
 20
200.2220937368033
 30
0.0
 11
-776.0433815621041
 21
187.8290083601668
 31
0.0
  0
LINE
  5
B8
330
1F
100
AcDbEntity
  8
その他
  6
Continuous
 62
     7
370
     9
100
AcDbLine
 10
-774.4117943016258
 20
200.2220937368033
 30
0.0
 11
-772.7802070411476
 21
187.8290083601668
 31
0.0
  0
LINE
  5
B9
330
1F
100
AcDbEntity
  8
その他
  6
Continuous
 62
     7
370
     9
100
AcDbLine
 10
-814.411787084631
 20
-16.7779912175358
 30
0.0
 11
-814.411787084631
 21
227.222046723237
 31
0.0
  0
LINE
  5
BA
330
1F
100
AcDbEntity
  8
その他
  6
Continuous
 62
     7
370
     9
100
AcDbLine
 10
-614.9117753312394
 20
-16.7779912175358
 30
0.0
 11
-815.9117827544342
 21
-16.7779912175358
 31
0.0
  0
LINE
  5
BB
330
1F
100
AcDbEntity
  8
その他
  6
Continuous
 62
     7
370
     9
100
AcDbLine
 10
-614.9117753312394
 20
227.222046723237
 30
0.0
 11
-815.9117827544342
 21
227.222046723237
 31
0.0
  0
LINE
  5
BC
330
1F
100
AcDbEntity
  8
その他
  6
Continuous
 62
     7
370
     9
100
AcDbLine
 10
-814.411787084631
 20
-16.7779912175358
 30
0.0
 11
-816.0433588801203
 21
-4.384905840899478
 31
0.0
  0
LINE
  5
BD
330
1F
100
AcDbEntity
  8
その他
  6
Continuous
 62
     7
370
     9
100
AcDbLine
 10
-814.411787084631
 20
-16.7779912175358
 30
0.0
 11
-812.7802152891417
 21
-4.384905840899478
 31
0.0
  0
LINE
  5
BE
330
1F
100
AcDbEntity
  8
その他
  6
Continuous
 62
     7
370
     9
100
AcDbLine
 10
-814.411787084631
 20
227.222046723237
 30
0.0
 11
-816.0433588801203
 21
214.8289613466005
 31
0.0
  0
LINE
  5
BF
330
1F
100
AcDbEntity
  8
その他
  6
Continuous
 62
     7
370
     9
100
AcDbLine
 10
-814.411787084631
 20
227.222046723237
 30
0.0
 11
-812.7802152891417
 21
214.8289613466005
 31
0.0
  0
LINE
  5
C0
330
1F
100
AcDbEntity
  8
0-E
  6
Continuous
 62
     7
370
     9
100
AcDbLine
 10
67.48995394320104
 20
162.3720282477302
 30
0.0
 11
59.88043707770274
 21
172.2889214593012
 31
0.0
  0
LINE
  5
C1
330
1F
100
AcDbEntity
  8
0-E
  6
Continuous
 62
     7
370
     9
100
AcDbLine
 10
67.48995394320104
 20
162.3720282477302
 30
0.0
 11
62.70644729201862
 21
173.9205396497572
 31
0.0
  0
LINE
  5
C2
330
1F
100
AcDbEntity
  8
0-E
  6
Continuous
 62
     7
370
     9
100
AcDbLine
 10
407.740000131968
 20
200.2220318768477
 30
0.0
 11
400.1304832664698
 21
210.1389250884185
 31
0.0
  0
LINE
  5
C3
330
1F
100
AcDbEntity
  8
0-E
  6
Continuous
 62
     7
370
     9
100
AcDbLine
 10
407.740000131968
 20
200.2220318768477
 30
0.0
 11
402.9564934807854
 21
211.7705432788746
 31
0.0
  0
LINE
  5
C4
330
1F
100
AcDbEntity
  8
0-E
  6
Continuous
 62
     7
370
     9
100
AcDbLine
 10
417.7400331239443
 20
-16.77792935758021
 30
0.0
 11
412.956526472762
 21
-28.32644075960729
 31
0.0
  0
LINE
  5
C5
330
1F
100
AcDbEntity
  8
0-E
  6
Continuous
 62
     7
370
     9
100
AcDbLine
 10
417.7400331239443
 20
-16.77792935758021
 30
0.0
 11
410.1305162584461
 21
-26.69482256915117
 31
0.0
  0
LINE
  5
C6
330
1F
100
AcDbEntity
  8
0-E
  6
Continuous
 62
     7
370
     9
100
AcDbLine
 10
67.48995394320104
 20
162.3720282477302
 30
0.0
 11
-42.12001078837616
 21
352.2220261032517
 31
0.0
  0
LINE
  5
C7
330
1F
100
AcDbEntity
  8
0-E
  6
Continuous
 62
     7
370
     9
100
AcDbLine
 10
407.740000131968
 20
200.2220318768477
 30
0.0
 11
319.9827451963682
 21
352.2220261032517
 31
0.0
  0
LINE
  5
C8
330
1F
100
AcDbEntity
  8
0-E
  6
Continuous
 62
     7
370
     9
100
AcDbLine
 10
-266.6910119958825
 20
352.2220261032517
 30
0.0
 11
-42.12001078837616
 21
352.2220261032517
 31
0.0
  0
LINE
  5
C9
330
1F
100
AcDbEntity
  8
0-E
  6
Continuous
 62
     7
370
     9
100
AcDbLine
 10
39.3352611644849
 20
352.2220261032517
 30
0.0
 11
319.9827451963682
 21
352.2220261032517
 31
0.0
  0
LINE
  5
CA
330
1F
100
AcDbEntity
  8
0-E
  6
Continuous
 62
     7
370
     9
100
AcDbLine
 10
417.7400331239443
 20
-16.77792935758021
 30
0.0
 11
345.5712395745354
 21
-141.777908737595
 31
0.0
  0
LINE
  5
CB
330
1F
100
AcDbEntity
  8
0-E
  6
Continuous
 62
     7
370
     9
100
AcDbLine
 10
82.73855673300261
 20
-141.777908737595
 30
0.0
 11
345.5712395745354
 21
-141.777908737595
 31
0.0
  0
CIRCLE
  5
CC
330
1F
100
AcDbEntity
  8
仕上
  6
Continuous
 62
     3
370
     9
100
AcDbCircle
 10
-602.4117959512246
 20
105.2220277528505
 30
0.0
 40
57.15000049487965
  0
CIRCLE
  5
CD
330
1F
100
AcDbEntity
  8
躯体
  6
Continuous
 62
     2
370
     9
100
AcDbCircle
 10
-602.4117959512246
 20
105.2220277528505
 30
0.0
 40
121.999995772903
  0
ARC
  5
CE
330
1F
100
AcDbEntity
  8
建具
  6
Continuous
 62
     2
370
     9
100
AcDbCircle
 10
414.1288963524073
 20
189.8383434398755
 30
0.0
 40
6.396085507160909
100
AcDbArc
 50
147.1840972900391
 51
212.8149871826172
  0
ARC
  5
CF
330
1F
100
AcDbEntity
  8
建具
  6
Continuous
 62
     2
370
     9
100
AcDbCircle
 10
414.1288963524073
 20
210.6057821737754
 30
0.0
 40
6.396104355116149
100
AcDbArc
 50
147.1850128173828
 51
212.8159027099609
  0
ARC
  5
D0
330
1F
100
AcDbEntity
  8
建具
  6
Continuous
 62
     2
370
     9
100
AcDbCircle
 10
431.8538768871412
 20
200.2220318768477
 30
0.0
 40
24.1138980195329
100
AcDbArc
 50
163.3294372558594
 51
196.6705627441406
  0
CIRCLE
  5
D1
330
1F
100
AcDbEntity
  8
建具
  6
Continuous
 62
     2
370
     9
100
AcDbCircle
 10
-602.461778795397
 20
10.19313502956081
 30
0.0
 40
11.99461833850758
  0
CIRCLE
  5
D2
330
1F
100
AcDbEntity
  8
建具
  6
Continuous
 62
     2
370
     9
100
AcDbCircle
 10
-602.461778795397
 20
200.1932669974663
 30
0.0
 40
11.99461833850758
  0
ARC
  5
D3
330
1F
100
AcDbEntity
  8
建具
  6
Continuous
 62
     2
370
     9
100
AcDbCircle
 10
414.1288963524073
 20
-0.1617885280299447
 30
0.0
 40
6.396085507160909
100
AcDbArc
 50
147.1840972900391
 51
212.8149871826172
  0
ARC
  5
D4
330
1F
100
AcDbEntity
  8
建具
  6
Continuous
 62
     2
370
     9
100
AcDbCircle
 10
414.1288963524073
 20
20.60583578573699
 30
0.0
 40
6.396104355116149
100
AcDbArc
 50
147.1850128173828
 51
212.8159027099609
  0
ARC
  5
D5
330
1F
100
AcDbEntity
  8
建具
  6
Continuous
 62
     2
370
     9
100
AcDbCircle
 10
431.8538768871412
 20
10.22202362885352
 30
0.0
 40
24.1138980195329
100
AcDbArc
 50
163.3294372558594
 51
196.6705627441406
  0
ARC
  5
D6
330
1F
100
AcDbEntity
  8
仕上
  6
Continuous
 62
     3
370
     9
100
AcDbCircle
 10
-602.4117959512246
 20
105.2220277528505
 30
0.0
 40
53.15000044332969
100
AcDbArc
 50
0.0
 51
180.0
  0
ARC
  5
D7
330
1F
100
AcDbEntity
  8
仕上
  6
JWW_DASHED1
 62
     3
370
     9
100
AcDbCircle
 10
-602.4117959512246
 20
105.2220277528505
 30
0.0
 40
53.15000044332969
100
AcDbArc
 50
180.0
 51
0.0
  0
ARC
  5
D8
330
1F
100
AcDbEntity
  8
仕上
  6
Continuous
 62
     3
370
     9
100
AcDbCircle
 10
-219.7599668760557
 20
105.2220277528505
 30
0.0
 40
86.49999773180163
100
AcDbArc
 50
138.6472015380859
 51
221.352798461914
  0
ARC
  5
D9
330
1F
100
AcDbEntity
  8
仕上
  6
Continuous
 62
     3
370
     9
100
AcDbCircle
 10
-219.7599668760557
 20
105.2220277528505
 30
0.0
 40
84.49999577290302
100
AcDbArc
 50
138.2074127197266
 51
180.0000000000001
  0
ARC
  5
DA
330
1F
100
AcDbEntity
  8
仕上
  6
JWW_DASHED1
 62
     3
370
     9
100
AcDbCircle
 10
-219.7599668760557
 20
105.2220277528505
 30
0.0
 40
84.49999577290302
100
AcDbArc
 50
180.0
 51
221.7925872802734
  0
TEXT
  5
DB
330
1F
100
AcDbEntity
  8
その他
  6
Continuous
 62
     2
370
     9
100
AcDbText
 10
418.7174932566693
 20
-150.4029847424067
 30
0.0
 40
15.24
  1
Ｇ Ｌ
 50
90.00000250447816
 41
1.075
  7
ＭＳ ゴシック
100
AcDbText
  0
TEXT
  5
DC
330
1F
100
AcDbEntity
  8
その他
  6
Continuous
 62
     2
370
     9
100
AcDbText
 10
42.49011065508874
 20
-58.95789224160676
 30
0.0
 40
15.24
  1
730
 41
1.083333333333333
  7
ＭＳ ゴシック
100
AcDbText
  0
TEXT
  5
DD
330
1F
100
AcDbEntity
  8
その他
  6
Continuous
 62
     2
370
     9
100
AcDbText
 10
632.4900776631124
 20
-58.95789224160676
 30
0.0
 40
15.24
  1
450
 41
1.083333333333333
  7
ＭＳ ゴシック
100
AcDbText
  0
TEXT
  5
DE
330
1F
100
AcDbEntity
  8
その他
  6
Continuous
 62
     2
370
     9
100
AcDbText
 10
261.8650487951331
 20
285.0419807392843
 30
0.0
 40
15.24
  1
1180
 41
1.09375
  7
ＭＳ ゴシック
100
AcDbText
  0
TEXT
  5
DF
330
1F
100
AcDbEntity
  8
その他
  6
Continuous
 62
     2
370
     9
100
AcDbText
 10
-364.0799742550328
 20
66.47202762958452
 30
0.0
 40
15.24
  1
φ114.3
 50
90.00000250447816
 41
1.107142857142857
  7
ＭＳ ゴシック
100
AcDbText
  0
TEXT
  5
E0
330
1F
100
AcDbEntity
  8
その他
  6
Continuous
 62
     2
370
     9
100
AcDbText
 10
-215.580017795062
 20
177.9841674396826
 30
0.0
 40
15.24
  1
4
 50
90.00000250447816
 41
1.000000000000001
  7
ＭＳ ゴシック
100
AcDbText
  0
TEXT
  5
E1
330
1F
100
AcDbEntity
  8
その他
  6
Continuous
 62
     2
370
     9
100
AcDbText
 10
-822.231786913567
 20
77.7220585595623
 30
0.0
 40
15.24
  1
φ244
 50
90.00000250447816
 41
1.1
  7
ＭＳ ゴシック
100
AcDbText
  0
TEXT
  5
E2
330
1F
100
AcDbEntity
  8
その他
  6
Continuous
 62
     2
370
     9
100
AcDbText
 10
-782.2317791573262
 20
88.97202762958449
 30
0.0
 40
15.24
  1
190
 50
90.00000250447816
 41
1.083333333333333
  7
ＭＳ ゴシック
100
AcDbText
  0
TEXT
  5
E3
330
1F
100
AcDbEntity
  8
0-E
  6
Continuous
 62
     2
370
     9
100
AcDbText
 10
-255.9375969139305
 20
361.4653164590372
 30
0.0
 40
15.24
  1
本体：ＳＵＳ３０４
 41
1.111111111111111
  7
ＭＳ ゴシック
100
AcDbText
  0
TEXT
  5
E4
330
1F
100
AcDbEntity
  8
0-E
  6
Continuous
 62
     2
370
     9
100
AcDbText
 10
-235.1899348078547
 20
329.6042225770693
 30
0.0
 40
15.24
  1
ヘアライン仕上
 41
1.107142857142857
  7
ＭＳ ゴシック
100
AcDbText
  0
TEXT
  5
E5
330
1F
100
AcDbEntity
  8
0-E
  6
Continuous
 62
     2
370
     9
100
AcDbText
 10
44.2658790382179
 20
361.4653164590372
 30
0.0
 40
15.24
  1
六角ボルト：Ｍ１６×４５
 41
1.114583333333333
  7
ＭＳ ゴシック
100
AcDbText
  0
TEXT
  5
E6
330
1F
100
AcDbEntity
  8
0-E
  6
Continuous
 62
     2
370
     9
100
AcDbText
 10
113.2944385425466
 20
329.6042225770693
 30
0.0
 40
15.24
  1
ＳＵＳ３０４
 41
1.104166666666667
  7
ＭＳ ゴシック
100
AcDbText
  0
TEXT
  5
E7
330
1F
100
AcDbEntity
  8
その他
  6
Continuous
 62
     2
370
     9
100
AcDbText
 10
91.83385900548998
 20
-128.9907233820734
 30
0.0
 40
15.24
  1
フランジ：ＳＵＳ３０４
 41
1.113636363636364
  7
ＭＳ ゴシック
100
AcDbText
  0
TEXT
  5
E8
330
1F
100
AcDbEntity
  8
その他
  6
Continuous
 62
     2
370
     9
100
AcDbText
 10
86.20879714553432
 20
-166.2810181323902
 30
0.0
 40
15.24
  1
上面のみ ヘアライン仕上
 41
1.114130434782609
  7
ＭＳ ゴシック
100
AcDbText
  0
TEXT
  5
E9
330
1F
100
AcDbEntity
  8
寸法
  6
Continuous
 62
     2
370
     9
100
AcDbText
 10
590.3882978723403
 20
-370.5363829787235
 30
0.0
 40
15.24
  1
質量：１８．０　kg／本
 41
0.8977272727272733
  7
ＭＳ ゴシック
100
AcDbText
  0
TEXT
  5
EA
330
1F
100
AcDbEntity
  8
F-5ﾚｲﾔ
  6
Continuous
 62
     6
370
     9
100
AcDbText
 10
-389.4422145534202
 20
-693.6799452797142
 30
0.0
 40
15.24
  1
規格対応型ステンレス製　固定式・化粧プレート付車止め　ＥＤ１１７３－Ｆ
 41
0.7985714285714285
  7
ＭＳ ゴシック
100
AcDbText
  0
ENDSEC
  0
SECTION
  2
OBJECTS
  0
DICTIONARY
  5
C
330
0
100
AcDbDictionary
281
     1
  3
ACAD_GROUP
350
D
  3
ACAD_LAYOUT
350
1A
  3
ACAD_MLEADERSTYLE
350
EC
  3
ACAD_MLINESTYLE
350
17
  3
ACAD_PLOTSETTINGS
350
19
  3
ACAD_PLOTSTYLENAME
350
E
  3
ACAD_TABLESTYLE
350
EB
  3
ACAD_VISUALSTYLE
350
2A
  0
DICTIONARY
  5
D
102
{ACAD_REACTORS
330
C
102
}
330
C
100
AcDbDictionary
281
     1
  0
DICTIONARY
  5
1A
102
{ACAD_REACTORS
330
C
102
}
330
C
100
AcDbDictionary
281
     1
  3
Layout1
350
1E
  3
Layout2
350
26
  3
Model
350
22
  0
DICTIONARY
  5
EC
102
{ACAD_REACTORS
330
C
102
}
330
C
100
AcDbDictionary
281
     1
  0
DICTIONARY
  5
17
102
{ACAD_REACTORS
330
C
102
}
330
C
100
AcDbDictionary
281
     1
  3
Standard
350
18
  0
DICTIONARY
  5
19
102
{ACAD_REACTORS
330
C
102
}
330
C
100
AcDbDictionary
281
     1
  0
ACDBDICTIONARYWDFLT
  5
E
102
{ACAD_REACTORS
330
C
102
}
330
C
100
AcDbDictionary
281
     1
  3
Normal
350
F
100
AcDbDictionaryWithDefault
340
F
  0
DICTIONARY
  5
EB
102
{ACAD_REACTORS
330
C
102
}
330
C
100
AcDbDictionary
281
     1
  0
DICTIONARY
  5
2A
102
{ACAD_REACTORS
330
C
102
}
330
C
100
AcDbDictionary
281
     1
  3
2dWireframe
350
2F
  3
3D Hidden
350
31
  3
3dWireframe
350
30
  3
Basic
350
32
  3
Brighten
350
36
  3
ColorChange
350
3A
  3
Conceptual
350
34
  3
Dim
350
35
  3
Facepattern
350
39
  3
Flat
350
2B
  3
FlatWithEdges
350
2C
  3
Gouraud
350
2D
  3
GouraudWithEdges
350
2E
  3
Linepattern
350
38
  3
Realistic
350
33
  3
Thicken
350
37
  0
LAYOUT
  5
1E
102
{ACAD_REACTORS
330
1A
102
}
330
1A
100
AcDbPlotSettings
  1

  2
none_device
  4

  6

 40
0.0
 41
0.0
 42
0.0
 43
0.0
 44
0.0
 45
0.0
 46
0.0
 47
0.0
 48
0.0
 49
0.0
140
0.0
141
0.0
142
1.0
143
1.0
 70
   688
 72
     0
 73
     0
 74
     5
  7

 75
    16
 76
     0
 77
     5
 78
   300
147
1.0
148
0.0
149
0.0
100
AcDbLayout
  1
Layout1
 70
     1
 71
     1
 10
0.0
 20
0.0
 11
420.0
 21
297.0
 12
0.0
 22
0.0
 32
0.0
 14
1.000000000000000E+20
 24
1.000000000000000E+20
 34
1.000000000000000E+20
 15
-1.000000000000000E+20
 25
-1.000000000000000E+20
 35
-1.000000000000000E+20
146
0.0
 13
0.0
 23
0.0
 33
0.0
 16
1.0
 26
0.0
 36
0.0
 17
0.0
 27
1.0
 37
0.0
 76
     0
330
1B
  0
LAYOUT
  5
26
102
{ACAD_REACTORS
330
1A
102
}
330
1A
100
AcDbPlotSettings
  1

  2
none_device
  4

  6

 40
0.0
 41
0.0
 42
0.0
 43
0.0
 44
0.0
 45
0.0
 46
0.0
 47
0.0
 48
0.0
 49
0.0
140
0.0
141
0.0
142
1.0
143
1.0
 70
   688
 72
     0
 73
     0
 74
     5
  7

 75
    16
 76
     0
 77
     5
 78
   300
147
1.0
148
0.0
149
0.0
100
AcDbLayout
  1
Layout2
 70
     1
 71
     2
 10
0.0
 20
0.0
 11
0.0
 21
0.0
 12
0.0
 22
0.0
 32
0.0
 14
0.0
 24
0.0
 34
0.0
 15
0.0
 25
0.0
 35
0.0
146
0.0
 13
0.0
 23
0.0
 33
0.0
 16
1.0
 26
0.0
 36
0.0
 17
0.0
 27
1.0
 37
0.0
 76
     0
330
23
  0
LAYOUT
  5
22
102
{ACAD_REACTORS
330
1A
102
}
330
1A
100
AcDbPlotSettings
  1

  2
none_device
  4

  6

 40
0.0
 41
0.0
 42
0.0
 43
0.0
 44
0.0
 45
0.0
 46
0.0
 47
0.0
 48
0.0
 49
0.0
140
0.0
141
0.0
142
1.0
143
1.0
 70
  1712
 72
     0
 73
     0
 74
     0
  7

 75
     0
 76
     0
 77
     5
 78
   300
147
1.0
148
0.0
149
0.0
100
AcDbLayout
  1
Model
 70
     1
 71
     0
 10
-1050.0
 20
-742.5
 11
1050.0
 21
742.5
 12
0.0
 22
0.0
 32
0.0
 14
-1050.0
 24
-742.5
 34
0.0
 15
1050.0
 25
742.5
 35
0.0
146
0.0
 13
0.0
 23
0.0
 33
0.0
 16
1.0
 26
0.0
 36
0.0
 17
0.0
 27
1.0
 37
0.0
 76
     0
330
1F
331
29
  0
MLINESTYLE
  5
18
102
{ACAD_REACTORS
330
17
102
}
330
17
100
AcDbMlineStyle
  2
Standard
 70
     0
  3

 62
   256
 51
90.0
 52
90.0
 71
     2
 49
0.5
 62
   256
  6
BYLAYER
 49
-0.5
 62
   256
  6
BYLAYER
  0
ACDBPLACEHOLDER
  5
F
102
{ACAD_REACTORS
330
E
102
}
330
E
  0
VISUALSTYLE
  5
2F
102
{ACAD_REACTORS
330
2A
102
}
330
2A
100
AcDbVisualStyle
  2
2dWireframe
 70
     4
 71
     0
 72
     2
 73
     0
 90
        0
 40
-0.6
 41
-30.0
 62
     5
 63
     7
421
 16777215
 74
     1
 91
        4
 64
     7
 65
   257
 75
     1
175
     1
 42
1.0
 92
        0
 66
   257
 43
1.0
 76
     1
 77
     6
 78
     2
 67
     7
 79
     5
170
     0
171
     0
290
     0
174
     0
 93
        1
 44
0.0
173
     0
291
     0
 45
0.0
  0
VISUALSTYLE
  5
31
102
{ACAD_REACTORS
330
2A
102
}
330
2A
100
AcDbVisualStyle
  2
3D Hidden
 70
     6
 71
     1
 72
     2
 73
     2
 90
        0
 40
-0.6
 41
-30.0
 62
     5
 63
     7
421
 16777215
 74
     2
 91
        2
 64
     7
 65
   257
 75
     2
175
     1
 42
40.0
 92
        0
 66
   257
 43
1.0
 76
     1
 77
     6
 78
     2
 67
     7
 79
     3
170
     0
171
     0
290
     0
174
     0
 93
        1
 44
0.0
173
     0
291
     0
 45
0.0
  0
VISUALSTYLE
  5
30
102
{ACAD_REACTORS
330
2A
102
}
330
2A
100
AcDbVisualStyle
  2
3dWireframe
 70
     5
 71
     0
 72
     2
 73
     0
 90
        0
 40
-0.6
 41
-30.0
 62
     5
 63
     7
421
 16777215
 74
     1
 91
        4
 64
     7
 65
   257
 75
     1
175
     1
 42
1.0
 92
        0
 66
   257
 43
1.0
 76
     1
 77
     6
 78
     2
 67
     7
 79
     5
170
     0
171
     0
290
     0
174
     0
 93
        1
 44
0.0
173
     0
291
     0
 45
0.0
  0
VISUALSTYLE
  5
32
102
{ACAD_REACTORS
330
2A
102
}
330
2A
100
AcDbVisualStyle
  2
Basic
 70
     7
 71
     1
 72
     0
 73
     1
 90
        0
 40
-0.6
 41
-30.0
 62
     5
 63
     7
421
 16777215
 74
     0
 91
        4
 64
     7
 65
   257
 75
     1
175
     1
 42
1.0
 92
        8
 66
     7
 43
1.0
 76
     1
 77
     6
 78
     2
 67
     7
 79
     5
170
     0
171
     0
290
     0
174
     0
 93
        1
 44
0.0
173
     0
291
     1
 45
0.0
  0
VISUALSTYLE
  5
36
102
{ACAD_REACTORS
330
2A
102
}
330
2A
100
AcDbVisualStyle
  2
Brighten
 70
    12
 71
     2
 72
     2
 73
     0
 90
        0
 40
-0.6
 41
-30.0
 62
     5
 63
     7
421
 16777215
 74
     1
 91
        4
 64
     7
 65
   257
 75
     1
175
     1
 42
1.0
 92
        8
 66
     7
 43
1.0
 76
     1
 77
     6
 78
     2
 67
     7
 79
     5
170
     0
171
     0
290
     0
174
     0
 93
        1
 44
50.0
173
     0
291
     1
 45
0.0
  0
VISUALSTYLE
  5
3A
102
{ACAD_REACTORS
330
2A
102
}
330
2A
100
AcDbVisualStyle
  2
ColorChange
 70
    16
 71
     2
 72
     2
 73
     3
 90
        0
 40
-0.6
 41
-30.0
 62
     5
 63
     8
421
  8421504
 74
     1
 91
        4
 64
     7
 65
   257
 75
     1
175
     1
 42
1.0
 92
        8
 66
     8
424
  8421504
 43
1.0
 76
     1
 77
     6
 78
     2
 67
     7
 79
     5
170
     0
171
     0
290
     0
174
     0
 93
        1
 44
0.0
173
     0
291
     1
 45
0.0
  0
VISUALSTYLE
  5
34
102
{ACAD_REACTORS
330
2A
102
}
330
2A
100
AcDbVisualStyle
  2
Conceptual
 70
     9
 71
     3
 72
     2
 73
     0
 90
        0
 40
-0.6
 41
-30.0
 62
     5
 63
     7
421
 16777215
 74
     2
 91
        2
 64
     7
 65
   257
 75
     1
175
     1
 42
40.0
 92
        8
 66
     7
 43
1.0
 76
     1
 77
     6
 78
     2
 67
     7
 79
     3
170
     0
171
     0
290
     0
174
     0
 93
        1
 44
0.0
173
     0
291
     0
 45
0.0
  0
VISUALSTYLE
  5
35
102
{ACAD_REACTORS
330
2A
102
}
330
2A
100
AcDbVisualStyle
  2
Dim
 70
    11
 71
     2
 72
     2
 73
     0
 90
        0
 40
-0.6
 41
-30.0
 62
     5
 63
     7
421
 16777215
 74
     1
 91
        4
 64
     7
 65
   257
 75
     1
175
     1
 42
1.0
 92
        8
 66
     7
 43
1.0
 76
     1
 77
     6
 78
     2
 67
     7
 79
     5
170
     0
171
     0
290
     0
174
     0
 93
        1
 44
-50.0
173
     0
291
     1
 45
0.0
  0
VISUALSTYLE
  5
39
102
{ACAD_REACTORS
330
2A
102
}
330
2A
100
AcDbVisualStyle
  2
Facepattern
 70
    15
 71
     2
 72
     2
 73
     0
 90
        0
 40
-0.6
 41
-30.0
 62
     5
 63
     7
421
 16777215
 74
     1
 91
        4
 64
     7
 65
   257
 75
     1
175
     1
 42
1.0
 92
        8
 66
     7
 43
1.0
 76
     1
 77
     6
 78
     2
 67
     7
 79
     5
170
     0
171
     0
290
     0
174
     0
 93
        1
 44
0.0
173
     0
291
     1
 45
0.0
  0
VISUALSTYLE
  5
2B
102
{ACAD_REACTORS
330
2A
102
}
330
2A
100
AcDbVisualStyle
  2
Flat
 70
     0
 71
     2
 72
     1
 73
     1
 90
        2
 40
-0.6
 41
30.0
 62
     5
 63
     7
421
 16777215
 74
     0
 91
        4
 64
     7
 65
   257
 75
     1
175
     1
 42
1.0
 92
        8
 66
     7
 43
1.0
 76
     1
 77
     6
 78
     2
 67
     7
 79
     5
170
     0
171
     0
290
     0
174
     0
 93
       13
 44
0.0
173
     0
291
     1
 45
0.0
  0
VISUALSTYLE
  5
2C
102
{ACAD_REACTORS
330
2A
102
}
330
2A
100
AcDbVisualStyle
  2
FlatWithEdges
 70
     1
 71
     2
 72
     1
 73
     1
 90
        2
 40
-0.6
 41
30.0
 62
     5
 63
     7
421
 16777215
 74
     1
 91
        4
 64
     7
 65
   257
 75
     1
175
     1
 42
1.0
 92
        0
 66
   257
 43
1.0
 76
     1
 77
     6
 78
     2
 67
     7
 79
     5
170
     0
171
     0
290
     0
174
     0
 93
       13
 44
0.0
173
     0
291
     1
 45
0.0
  0
VISUALSTYLE
  5
2D
102
{ACAD_REACTORS
330
2A
102
}
330
2A
100
AcDbVisualStyle
  2
Gouraud
 70
     2
 71
     2
 72
     2
 73
     1
 90
        2
 40
-0.6
 41
30.0
 62
     5
 63
     7
421
 16777215
 74
     0
 91
        4
 64
     7
 65
   257
 75
     1
175
     1
 42
1.0
 92
        0
 66
     7
 43
1.0
 76
     1
 77
     6
 78
     2
 67
     7
 79
     5
170
     0
171
     0
290
     0
174
     0
 93
       13
 44
0.0
173
     0
291
     1
 45
0.0
  0
VISUALSTYLE
  5
2E
102
{ACAD_REACTORS
330
2A
102
}
330
2A
100
AcDbVisualStyle
  2
GouraudWithEdges
 70
     3
 71
     2
 72
     2
 73
     1
 90
        2
 40
-0.6
 41
30.0
 62
     5
 63
     7
421
 16777215
 74
     1
 91
        4
 64
     7
 65
   257
 75
     1
175
     1
 42
1.0
 92
        0
 66
   257
 43
1.0
 76
     1
 77
     6
 78
     2
 67
     7
 79
     5
170
     0
171
     0
290
     0
174
     0
 93
       13
 44
0.0
173
     0
291
     1
 45
0.0
  0
VISUALSTYLE
  5
38
102
{ACAD_REACTORS
330
2A
102
}
330
2A
100
AcDbVisualStyle
  2
Linepattern
 70
    14
 71
     2
 72
     2
 73
     0
 90
        0
 40
-0.6
 41
-30.0
 62
     5
 63
     7
421
 16777215
 74
     1
 91
        4
 64
     7
 65
   257
 75
     7
175
     7
 42
1.0
 92
        8
 66
     7
 43
1.0
 76
     1
 77
     6
 78
     2
 67
     7
 79
     5
170
     0
171
     0
290
     0
174
     0
 93
        1
 44
0.0
173
     0
291
     1
 45
0.0
  0
VISUALSTYLE
  5
33
102
{ACAD_REACTORS
330
2A
102
}
330
2A
100
AcDbVisualStyle
  2
Realistic
 70
     8
 71
     2
 72
     2
 73
     0
 90
        0
 40
-0.6
 41
-30.0
 62
     5
 63
     7
421
 16777215
 74
     1
 91
        0
 64
     7
 65
   257
 75
     1
175
     1
 42
1.0
 92
        8
 66
     8
424
  7895160
 43
1.0
 76
     1
 77
     6
 78
     2
 67
     7
 79
     5
170
     0
171
     0
290
     0
174
     0
 93
       13
 44
0.0
173
     0
291
     0
 45
0.0
  0
VISUALSTYLE
  5
37
102
{ACAD_REACTORS
330
2A
102
}
330
2A
100
AcDbVisualStyle
  2
Thicken
 70
    13
 71
     2
 72
     2
 73
     0
 90
        0
 40
-0.6
 41
-30.0
 62
     5
 63
     7
421
 16777215
 74
     1
 91
        4
 64
     7
 65
   257
 75
     1
175
     1
 42
1.0
 92
       12
 66
     7
 43
1.0
 76
     1
 77
     6
 78
     2
 67
     7
 79
     5
170
     0
171
     0
290
     0
174
     0
 93
        1
 44
0.0
173
     0
291
     1
 45
0.0
  0
ENDSEC
  0
EOF
