  0
SECTION
  2
HEADER
  9
$ACADVER
  1
AC1018
  9
$ACADMAINTVER
 70
     0
  9
$DWGCODEPAGE
  3
ANSI_932
  9
$INSBASE
 10
0.0
 20
0.0
 30
0.0
  9
$EXTMIN
 10
-630.0
 20
-445.5
 30
0.0
  9
$EXTMAX
 10
630.0
 20
445.5
 30
0.0
  9
$LIMMIN
 10
-630.0
 20
-445.5
  9
$LIMMAX
 10
630.0
 20
445.5
  9
$ORTHOMODE
 70
     0
  9
$REGENMODE
 70
     1
  9
$FILLMODE
 70
     1
  9
$QTEXTMODE
 70
     0
  9
$MIRRTEXT
 70
     1
  9
$LTSCALE
 40
3.0
  9
$ATTMODE
 70
     1
  9
$TEXTSIZE
 40
2.5
  9
$TRACEWID
 40
1.0
  9
$TEXTSTYLE
  7
Standard
  9
$CLAYER
  8
0
  9
$CELTYPE
  6
ByLayer
  9
$CECOLOR
 62
   256
  9
$CELTSCALE
 40
1.0
  9
$DISPSILH
 70
     0
  9
$DIMSCALE
 40
1.0
  9
$DIMASZ
 40
2.5
  9
$DIMEXO
 40
0.625
  9
$DIMDLI
 40
3.75
  9
$DIMRND
 40
0.0
  9
$DIMDLE
 40
0.0
  9
$DIMEXE
 40
1.25
  9
$DIMTP
 40
0.0
  9
$DIMTM
 40
0.0
  9
$DIMTXT
 40
2.5
  9
$DIMCEN
 40
2.5
  9
$DIMTSZ
 40
0.0
  9
$DIMTOL
 70
     0
  9
$DIMLIM
 70
     0
  9
$DIMTIH
 70
     0
  9
$DIMTOH
 70
     0
  9
$DIMSE1
 70
     0
  9
$DIMSE2
 70
     0
  9
$DIMTAD
 70
     1
  9
$DIMZIN
 70
     8
  9
$DIMBLK
  1

  9
$DIMASO
 70
     1
  9
$DIMSHO
 70
     1
  9
$DIMPOST
  1

  9
$DIMAPOST
  1

  9
$DIMALT
 70
     0
  9
$DIMALTD
 70
     3
  9
$DIMALTF
 40
0.03937007874016
  9
$DIMLFAC
 40
1.0
  9
$DIMTOFL
 70
     1
  9
$DIMTVP
 40
0.0
  9
$DIMTIX
 70
     0
  9
$DIMSOXD
 70
     0
  9
$DIMSAH
 70
     0
  9
$DIMBLK1
  1

  9
$DIMBLK2
  1

  9
$DIMSTYLE
  2
ISO-25
  9
$DIMCLRD
 70
     0
  9
$DIMCLRE
 70
     0
  9
$DIMCLRT
 70
     0
  9
$DIMTFAC
 40
1.0
  9
$DIMGAP
 40
0.625
  9
$DIMJUST
 70
     0
  9
$DIMSD1
 70
     0
  9
$DIMSD2
 70
     0
  9
$DIMTOLJ
 70
     0
  9
$DIMTZIN
 70
     8
  9
$DIMALTZ
 70
     0
  9
$DIMALTTZ
 70
     0
  9
$DIMUPT
 70
     0
  9
$DIMDEC
 70
     2
  9
$DIMTDEC
 70
     2
  9
$DIMALTU
 70
     2
  9
$DIMALTTD
 70
     3
  9
$DIMTXSTY
  7
Standard
  9
$DIMAUNIT
 70
     0
  9
$DIMADEC
 70
     0
  9
$DIMALTRND
 40
0.0
  9
$DIMAZIN
 70
     0
  9
$DIMDSEP
 70
    44
  9
$DIMATFIT
 70
     3
  9
$DIMFRAC
 70
     0
  9
$DIMLDRBLK
  1

  9
$DIMLUNIT
 70
     2
  9
$DIMLWD
 70
    -2
  9
$DIMLWE
 70
    -2
  9
$DIMTMOVE
 70
     0
  9
$LUNITS
 70
     2
  9
$LUPREC
 70
     4
  9
$SKETCHINC
 40
1.0
  9
$FILLETRAD
 40
10.0
  9
$AUNITS
 70
     0
  9
$AUPREC
 70
     0
  9
$MENU
  1
.
  9
$ELEVATION
 40
0.0
  9
$PELEVATION
 40
0.0
  9
$THICKNESS
 40
0.0
  9
$LIMCHECK
 70
     0
  9
$CHAMFERA
 40
0.0
  9
$CHAMFERB
 40
0.0
  9
$CHAMFERC
 40
0.0
  9
$CHAMFERD
 40
0.0
  9
$SKPOLY
 70
     0
  9
$TDCREATE
 40
2461029.416514757
  9
$TDUCREATE
 40
2461029.041514757
  9
$TDUPDATE
 40
2461029.416519247
  9
$TDUUPDATE
 40
2461029.041519247
  9
$TDINDWG
 40
0.0000000116
  9
$TDUSRTIMER
 40
0.0000000116
  9
$USRTIMER
 70
     1
  9
$ANGBASE
 50
0.0
  9
$ANGDIR
 70
     0
  9
$PDMODE
 70
     0
  9
$PDSIZE
 40
0.0
  9
$PLINEWID
 40
0.0
  9
$SPLFRAME
 70
     0
  9
$SPLINETYPE
 70
     6
  9
$SPLINESEGS
 70
     8
  9
$HANDSEED
  5
344
  9
$SURFTAB1
 70
     6
  9
$SURFTAB2
 70
     6
  9
$SURFTYPE
 70
     6
  9
$SURFU
 70
     6
  9
$SURFV
 70
     6
  9
$UCSBASE
  2

  9
$UCSNAME
  2

  9
$UCSORG
 10
0.0
 20
0.0
 30
0.0
  9
$UCSXDIR
 10
1.0
 20
0.0
 30
0.0
  9
$UCSYDIR
 10
0.0
 20
1.0
 30
0.0
  9
$UCSORTHOREF
  2

  9
$UCSORTHOVIEW
 70
     0
  9
$UCSORGTOP
 10
0.0
 20
0.0
 30
0.0
  9
$UCSORGBOTTOM
 10
0.0
 20
0.0
 30
0.0
  9
$UCSORGLEFT
 10
0.0
 20
0.0
 30
0.0
  9
$UCSORGRIGHT
 10
0.0
 20
0.0
 30
0.0
  9
$UCSORGFRONT
 10
0.0
 20
0.0
 30
0.0
  9
$UCSORGBACK
 10
0.0
 20
0.0
 30
0.0
  9
$PUCSBASE
  2

  9
$PUCSNAME
  2

  9
$PUCSORG
 10
0.0
 20
0.0
 30
0.0
  9
$PUCSXDIR
 10
1.0
 20
0.0
 30
0.0
  9
$PUCSYDIR
 10
0.0
 20
1.0
 30
0.0
  9
$PUCSORTHOREF
  2

  9
$PUCSORTHOVIEW
 70
     0
  9
$PUCSORGTOP
 10
0.0
 20
0.0
 30
0.0
  9
$PUCSORGBOTTOM
 10
0.0
 20
0.0
 30
0.0
  9
$PUCSORGLEFT
 10
0.0
 20
0.0
 30
0.0
  9
$PUCSORGRIGHT
 10
0.0
 20
0.0
 30
0.0
  9
$PUCSORGFRONT
 10
0.0
 20
0.0
 30
0.0
  9
$PUCSORGBACK
 10
0.0
 20
0.0
 30
0.0
  9
$USERI1
 70
     0
  9
$USERI2
 70
     0
  9
$USERI3
 70
     0
  9
$USERI4
 70
     0
  9
$USERI5
 70
     0
  9
$USERR1
 40
0.0
  9
$USERR2
 40
0.0
  9
$USERR3
 40
0.0
  9
$USERR4
 40
0.0
  9
$USERR5
 40
0.0
  9
$WORLDVIEW
 70
     1
  9
$SHADEDGE
 70
     3
  9
$SHADEDIF
 70
    70
  9
$TILEMODE
 70
     1
  9
$MAXACTVP
 70
    64
  9
$PINSBASE
 10
0.0
 20
0.0
 30
0.0
  9
$PLIMCHECK
 70
     0
  9
$PEXTMIN
 10
1.000000000000000E+20
 20
1.000000000000000E+20
 30
1.000000000000000E+20
  9
$PEXTMAX
 10
-1.000000000000000E+20
 20
-1.000000000000000E+20
 30
-1.000000000000000E+20
  9
$PLIMMIN
 10
0.0
 20
0.0
  9
$PLIMMAX
 10
420.0
 20
297.0
  9
$UNITMODE
 70
     0
  9
$VISRETAIN
 70
     1
  9
$PLINEGEN
 70
     0
  9
$PSLTSCALE
 70
     1
  9
$TREEDEPTH
 70
  3020
  9
$CMLSTYLE
  2
Standard
  9
$CMLJUST
 70
     0
  9
$CMLSCALE
 40
20.0
  9
$PROXYGRAPHICS
 70
     1
  9
$MEASUREMENT
 70
     1
  9
$CELWEIGHT
370
    -1
  9
$ENDCAPS
280
     0
  9
$JOINSTYLE
280
     0
  9
$LWDISPLAY
290
     0
  9
$INSUNITS
 70
     4
  9
$HYPERLINKBASE
  1

  9
$STYLESHEET
  1

  9
$XEDIT
290
     1
  9
$CEPSNTYPE
380
     0
  9
$PSTYLEMODE
290
     1
  9
$FINGERPRINTGUID
  2
{2347572D-1702-4B2E-BBED-B76A6BEAD8B1}
  9
$VERSIONGUID
  2
{FAEB1C32-E019-11D5-929B-00C0DF256EC4}
  9
$EXTNAMES
290
     1
  9
$PSVPSCALE
 40
0.0
  9
$OLESTARTUP
290
     0
  9
$SORTENTS
280
   127
  9
$INDEXCTL
280
     0
  9
$HIDETEXT
280
     1
  9
$XCLIPFRAME
290
     0
  9
$HALOGAP
280
     0
  9
$OBSCOLOR
 70
   257
  9
$OBSLTYPE
280
     0
  9
$INTERSECTIONDISPLAY
280
     0
  9
$INTERSECTIONCOLOR
 70
   257
  9
$DIMASSOC
280
     2
  9
$PROJECTNAME
  1

  0
ENDSEC
  0
SECTION
  2
CLASSES
  0
CLASS
  1
ACDBDICTIONARYWDFLT
  2
AcDbDictionaryWithDefault
  3
ObjectDBX Classes
 90
        0
 91
        4
280
     0
281
     0
  0
CLASS
  1
VISUALSTYLE
  2
AcDbVisualStyle
  3
ObjectDBX Classes
 90
     4095
 91
        4
280
     0
281
     0
  0
CLASS
  1
MATERIAL
  2
AcDbMaterial
  3
ObjectDBX Classes
 90
     1153
 91
        4
280
     0
281
     0
  0
CLASS
  1
SCALE
  2
AcDbScale
  3
ObjectDBX Classes
 90
     1153
 91
        4
280
     0
281
     0
  0
CLASS
  1
TABLESTYLE
  2
AcDbTableStyle
  3
ObjectDBX Classes
 90
     4095
 91
        4
280
     0
281
     0
  0
CLASS
  1
MLEADERSTYLE
  2
AcDbMLeaderStyle
  3
ACDB_MLEADERSTYLE_CLASS
 90
     4095
 91
        4
280
     0
281
     0
  0
CLASS
  1
SUN
  2
AcDbSun
  3
SCENEOE
 90
     1153
 91
        4
280
     0
281
     0
  0
CLASS
  1
DICTIONARYVAR
  2
AcDbDictionaryVar
  3
ObjectDBX Classes
 90
        0
 91
        4
280
     0
281
     0
  0
CLASS
  1
CELLSTYLEMAP
  2
AcDbCellStyleMap
  3
ObjectDBX Classes
 90
     1152
 91
        4
280
     0
281
     0
  0
ENDSEC
  0
SECTION
  2
TABLES
  0
TABLE
  2
VPORT
  5
8
102
{ACAD_XDICTIONARY
360
2FB
102
}
330
0
100
AcDbSymbolTable
 70
     1
  0
VPORT
  5
29
330
8
100
AcDbSymbolTableRecord
100
AcDbViewportTableRecord
  2
*Active
 70
     0
 10
0.0
 20
0.0
 11
1.0
 21
1.0
 12
0.0
 22
0.0
 13
0.0
 23
0.0
 14
10.0
 24
10.0
 15
10.0
 25
10.0
 16
0.0
 26
0.0
 36
1.0
 17
0.0
 27
0.0
 37
0.0
 40
980.1
 41
1.414141414141414
 42
50.0
 43
0.0
 44
0.0
 50
0.0
 51
0.0
 71
     0
 72
 10000
 73
     1
 74
     3
 75
     0
 76
     0
 77
     0
 78
     0
281
     0
 65
     1
110
0.0
120
0.0
130
0.0
111
1.0
121
0.0
131
0.0
112
0.0
122
1.0
132
0.0
 79
     0
146
0.0
  0
ENDTAB
  0
TABLE
  2
LTYPE
  5
5
330
0
100
AcDbSymbolTable
 70
     5
  0
LTYPE
  5
14
330
5
100
AcDbSymbolTableRecord
100
AcDbLinetypeTableRecord
  2
ByBlock
 70
     0
  3

 72
    65
 73
     0
 40
0.0
  0
LTYPE
  5
15
330
5
100
AcDbSymbolTableRecord
100
AcDbLinetypeTableRecord
  2
ByLayer
 70
     0
  3

 72
    65
 73
     0
 40
0.0
  0
LTYPE
  5
16
330
5
100
AcDbSymbolTableRecord
100
AcDbLinetypeTableRecord
  2
Continuous
 70
     0
  3
Solid line
 72
    65
 73
     0
 40
0.0
  0
LTYPE
  5
6F
330
5
100
AcDbSymbolTableRecord
100
AcDbLinetypeTableRecord
  2
JWW_CENTER1
 70
     0
  3
-----  --  ----------  --  -----
 72
    65
 73
     4
 40
6.773333333333333
 49
4.233333333333333
 74
     0
 49
-0.8466666666666667
 74
     0
 49
0.8466666666666667
 74
     0
 49
-0.8466666666666667
 74
     0
  0
LTYPE
  5
70
330
5
100
AcDbSymbolTableRecord
100
AcDbLinetypeTableRecord
  2
JWW_DASHED1
 70
     0
  3
-  --  --  --  --  --  --  --  -
 72
    65
 73
     2
 40
1.693333333333333
 49
0.8466666666666667
 74
     0
 49
-0.8466666666666667
 74
     0
  0
LTYPE
  5
71
330
5
100
AcDbSymbolTableRecord
100
AcDbLinetypeTableRecord
  2
JWW_HOJO
 70
     0
  3
  -   -   -   -   -   -   -   - 
 72
    65
 73
     2
 40
1.693333333333333
 49
-1.27
 74
     0
 49
0.4233333333333333
 74
     0
  0
LTYPE
  5
72
330
5
100
AcDbSymbolTableRecord
100
AcDbLinetypeTableRecord
  2
JWW_PHANTOM1
 70
     0
  3
----  -  -  --------  -  -  ----
 72
    65
 73
     6
 40
6.773333333333333
 49
3.386666666666667
 74
     0
 49
-0.8466666666666667
 74
     0
 49
0.4233333333333333
 74
     0
 49
-0.8466666666666667
 74
     0
 49
0.4233333333333333
 74
     0
 49
-0.8466666666666667
 74
     0
  0
ENDTAB
  0
TABLE
  2
LAYER
  5
2
330
0
100
AcDbSymbolTable
 70
    11
  0
LAYER
  5
10
330
2
100
AcDbSymbolTableRecord
100
AcDbLayerTableRecord
  2
0
 70
     0
 62
     7
  6
Continuous
370
    -3
390
F
  0
LAYER
  5
73
330
2
100
AcDbSymbolTableRecord
100
AcDbLayerTableRecord
  2
0-A
 70
     0
 62
     7
  6
Continuous
370
    -3
390
F
  0
LAYER
  5
74
330
2
100
AcDbSymbolTableRecord
100
AcDbLayerTableRecord
  2
0-0_通り芯
 70
     0
 62
     7
  6
Continuous
370
    -3
390
F
  0
LAYER
  5
75
330
2
100
AcDbSymbolTableRecord
100
AcDbLayerTableRecord
  2
0-2_本体（蓋）
 70
     0
 62
     7
  6
Continuous
370
    -3
390
F
  0
LAYER
  5
76
330
2
100
AcDbSymbolTableRecord
100
AcDbLayerTableRecord
  2
0-6
 70
     0
 62
     7
  6
Continuous
370
    -3
390
F
  0
LAYER
  5
77
330
2
100
AcDbSymbolTableRecord
100
AcDbLayerTableRecord
  2
0-3_受枠
 70
     0
 62
     7
  6
Continuous
370
    -3
390
F
  0
LAYER
  5
78
330
2
100
AcDbSymbolTableRecord
100
AcDbLayerTableRecord
  2
0-4_寸法
 70
     0
 62
     7
  6
Continuous
370
    -3
390
F
  0
LAYER
  5
79
330
2
100
AcDbSymbolTableRecord
100
AcDbLayerTableRecord
  2
0-5_文字
 70
     0
 62
     7
  6
Continuous
370
    -3
390
F
  0
LAYER
  5
7A
330
2
100
AcDbSymbolTableRecord
100
AcDbLayerTableRecord
  2
F-4ﾚｲﾔ
 70
     0
 62
     7
  6
Continuous
370
    -3
390
F
  0
LAYER
  5
7B
330
2
100
AcDbSymbolTableRecord
100
AcDbLayerTableRecord
  2
F-5ﾚｲﾔ
 70
     0
 62
     7
  6
Continuous
370
    -3
390
F
  0
LAYER
  5
7C
330
2
100
AcDbSymbolTableRecord
100
AcDbLayerTableRecord
  2
F-0ﾚｲﾔ
 70
     0
 62
     7
  6
Continuous
370
    -3
390
F
  0
ENDTAB
  0
TABLE
  2
STYLE
  5
3
330
0
100
AcDbSymbolTable
 70
     2
  0
STYLE
  5
11
330
3
100
AcDbSymbolTableRecord
100
AcDbTextStyleTableRecord
  2
Standard
 70
     0
 40
0.0
 41
1.0
 50
0.0
 71
     0
 42
2.5
  3
txt
  4

  0
STYLE
  5
6E
330
3
100
AcDbSymbolTableRecord
100
AcDbTextStyleTableRecord
  2
ＭＳ ゴシック
 70
     0
 40
1.0
 41
1.0
 50
0.0
 71
     0
 42
2.5
  3

  4

1001
ACAD
1000
MS Gothic
1071
    32817
  0
ENDTAB
  0
TABLE
  2
VIEW
  5
6
330
0
100
AcDbSymbolTable
 70
     0
  0
ENDTAB
  0
TABLE
  2
UCS
  5
7
330
0
100
AcDbSymbolTable
 70
     0
  0
ENDTAB
  0
TABLE
  2
APPID
  5
9
330
0
100
AcDbSymbolTable
 70
     2
  0
APPID
  5
12
330
9
100
AcDbSymbolTableRecord
100
AcDbRegAppTableRecord
  2
ACAD
 70
     0
  0
APPID
  5
33A
330
9
100
AcDbSymbolTableRecord
100
AcDbRegAppTableRecord
  2
ACAD_MLEADERVER
 70
     0
  0
ENDTAB
  0
TABLE
  2
DIMSTYLE
  5
A
330
0
100
AcDbSymbolTable
 70
     1
100
AcDbDimStyleTable
  0
DIMSTYLE
105
27
330
A
100
AcDbSymbolTableRecord
100
AcDbDimStyleTableRecord
  2
ISO-25
 70
     0
 41
2.5
 42
0.625
 43
3.75
 44
1.25
 73
     0
 74
     0
 77
     1
 78
     8
140
2.5
141
2.5
143
0.03937007874016
147
0.625
171
     3
172
     1
178
     0
271
     2
272
     2
274
     3
278
    44
283
     0
284
     8
340
11
  0
ENDTAB
  0
TABLE
  2
BLOCK_RECORD
  5
1
330
0
100
AcDbSymbolTable
 70
     1
  0
BLOCK_RECORD
  5
1F
330
1
100
AcDbSymbolTableRecord
100
AcDbBlockTableRecord
  2
*Model_Space
340
22
  0
BLOCK_RECORD
  5
1B
330
1
100
AcDbSymbolTableRecord
100
AcDbBlockTableRecord
  2
*Paper_Space
340
1E
  0
BLOCK_RECORD
  5
23
330
1
100
AcDbSymbolTableRecord
100
AcDbBlockTableRecord
  2
*Paper_Space0
340
26
  0
ENDTAB
  0
ENDSEC
  0
SECTION
  2
BLOCKS
  0
BLOCK
  5
20
330
1F
100
AcDbEntity
  8
0
100
AcDbBlockBegin
  2
*Model_Space
 70
     0
 10
0.0
 20
0.0
 30
0.0
  3
*Model_Space
  1

  0
ENDBLK
  5
21
330
1F
100
AcDbEntity
  8
0
100
AcDbBlockEnd
  0
BLOCK
  5
1C
330
1B
100
AcDbEntity
 67
     1
  8
0
100
AcDbBlockBegin
  2
*Paper_Space
 70
     0
 10
0.0
 20
0.0
 30
0.0
  3
*Paper_Space
  1

  0
ENDBLK
  5
1D
330
1B
100
AcDbEntity
 67
     1
  8
0
100
AcDbBlockEnd
  0
BLOCK
  5
24
330
23
100
AcDbEntity
  8
0
100
AcDbBlockBegin
  2
*Paper_Space0
 70
     0
 10
0.0
 20
0.0
 30
0.0
  3
*Paper_Space0
  1

  0
ENDBLK
  5
25
330
23
100
AcDbEntity
  8
0
100
AcDbBlockEnd
  0
ENDSEC
  0
SECTION
  2
ENTITIES
  0
LINE
  5
7D
330
1F
100
AcDbEntity
  8
0-A
  6
Continuous
 62
     4
370
     9
100
AcDbLine
 10
55.22240292846384
 20
241.750533423512
 30
0.0
 11
55.22240292846384
 21
242.9004186232171
 31
0.0
  0
LINE
  5
7E
330
1F
100
AcDbEntity
  8
0-A
  6
Continuous
 62
     4
370
     9
100
AcDbLine
 10
56.42266351794563
 20
242.9004186232171
 30
0.0
 11
55.22240292846384
 21
242.9004186232171
 31
0.0
  0
LINE
  5
7F
330
1F
100
AcDbEntity
  8
0-A
  6
Continuous
 62
     4
370
     9
100
AcDbLine
 10
56.42266351794563
 20
241.750533423512
 30
0.0
 11
56.42266351794563
 21
242.9004186232171
 31
0.0
  0
LINE
  5
80
330
1F
100
AcDbEntity
  8
0-A
  6
Continuous
 62
     4
370
     9
100
AcDbLine
 10
60.78640759824246
 20
240.7505320684844
 30
0.0
 11
57.42268237050357
 21
240.7505320684844
 31
0.0
  0
LINE
  5
81
330
1F
100
AcDbEntity
  8
0-A
  6
Continuous
 62
     4
370
     9
100
AcDbLine
 10
54.22259404626975
 20
240.7505320684844
 30
0.0
 11
50.85872883828828
 21
240.7505320684844
 31
0.0
  0
LINE
  5
82
330
1F
100
AcDbEntity
  8
0-A
  6
Continuous
 62
     4
370
     9
100
AcDbLine
 10
-125.577495609426
 20
241.750533423512
 30
0.0
 11
-125.577495609426
 21
242.9004186232172
 31
0.0
  0
LINE
  5
83
330
1F
100
AcDbEntity
  8
0-A
  6
Continuous
 62
     4
370
     9
100
AcDbLine
 10
-126.7777561989078
 20
242.9004186232172
 30
0.0
 11
-125.577495609426
 21
242.9004186232172
 31
0.0
  0
LINE
  5
84
330
1F
100
AcDbEntity
  8
0-A
  6
Continuous
 62
     4
370
     9
100
AcDbLine
 10
-126.7777561989078
 20
241.750533423512
 30
0.0
 11
-126.7777561989078
 21
242.9004186232172
 31
0.0
  0
LINE
  5
85
330
1F
100
AcDbEntity
  8
0-A
  6
Continuous
 62
     4
370
     9
100
AcDbLine
 10
-131.1415002792046
 20
240.7505320684845
 30
0.0
 11
-127.7777750514657
 21
240.7505320684845
 31
0.0
  0
LINE
  5
86
330
1F
100
AcDbEntity
  8
0-A
  6
Continuous
 62
     4
370
     9
100
AcDbLine
 10
-124.5776867272318
 20
240.7505320684845
 30
0.0
 11
-121.2138215192504
 21
240.7505320684845
 31
0.0
  0
LINE
  5
87
330
1F
100
AcDbEntity
  8
0-A
  6
JWW_CENTER1
 62
     4
370
     9
100
AcDbLine
 10
55.82256821826541
 20
240.1504367688041
 30
0.0
 11
55.82256821826541
 21
245.9825036030072
 31
0.0
  0
LINE
  5
88
330
1F
100
AcDbEntity
  8
0-A
  6
JWW_CENTER1
 62
     4
370
     9
100
AcDbLine
 10
-126.1776608992275
 20
240.1504367688042
 30
0.0
 11
-126.1776608992275
 21
246.6803401070266
 31
0.0
  0
LINE
  5
89
330
1F
100
AcDbEntity
  8
0-0_通り芯
  6
JWW_CENTER1
 62
     3
370
     9
100
AcDbLine
 10
-168.5650431414376
 20
240.1504367688042
 30
0.0
 11
95.1801131062058
 21
240.1504367688041
 31
0.0
  0
LINE
  5
8A
330
1F
100
AcDbEntity
  8
0-0_通り芯
  6
Continuous
 62
     3
370
     9
100
AcDbLine
 10
60.77653899114483
 20
262.4007862480965
 30
0.0
 11
63.73509140691162
 21
262.9225101094962
 31
0.0
  0
LINE
  5
8B
330
1F
100
AcDbEntity
  8
0-0_通り芯
  6
Continuous
 62
     3
370
     9
100
AcDbLine
 10
60.77653899114483
 20
262.4007862480965
 30
0.0
 11
60.51239627351093
 21
259.8156136317197
 31
0.0
  0
LINE
  5
8C
330
1F
100
AcDbEntity
  8
0-0_通り芯
  6
Continuous
 62
     3
370
     9
100
AcDbLine
 10
60.51239627351093
 20
259.8156136317197
 30
0.0
 11
65.25139238894135
 21
260.6512606844993
 31
0.0
  0
LINE
  5
8D
330
1F
100
AcDbEntity
  8
0-0_通り芯
  6
Continuous
 62
     3
370
     9
100
AcDbLine
 10
65.25139238894135
 20
260.6512606844993
 30
0.0
 11
63.73509140691162
 21
262.9225101094962
 31
0.0
  0
LINE
  5
8E
330
1F
100
AcDbEntity
  8
0-0_通り芯
  6
Continuous
 62
     3
370
     9
100
AcDbLine
 10
52.62975886664259
 20
284.7839069874184
 30
0.0
 11
55.23136166398512
 21
286.2858774921202
 31
0.0
  0
LINE
  5
8F
330
1F
100
AcDbEntity
  8
0-0_通り芯
  6
Continuous
 62
     3
370
     9
100
AcDbLine
 10
54.93320374741898
 20
289.0005318328274
 30
0.0
 11
55.23136166398512
 21
286.2858774921202
 31
0.0
  0
LINE
  5
90
330
1F
100
AcDbEntity
  8
0-0_通り芯
  6
Continuous
 62
     3
370
     9
100
AcDbLine
 10
52.62975886664259
 20
284.7839069874184
 30
0.0
 11
50.76578195725551
 21
286.594411444163
 31
0.0
  0
LINE
  5
91
330
1F
100
AcDbEntity
  8
0-0_通り芯
  6
Continuous
 62
     3
370
     9
100
AcDbLine
 10
50.76578195725551
 20
286.594411444163
 30
0.0
 11
54.93320374741898
 21
289.0005318328274
 31
0.0
  0
LINE
  5
92
330
1F
100
AcDbEntity
  8
0-0_通り芯
  6
Continuous
 62
     3
370
     9
100
AcDbLine
 10
47.37986986107727
 20
293.8771285266544
 30
0.0
 11
49.98140266829858
 21
295.3791690214774
 31
0.0
  0
LINE
  5
93
330
1F
100
AcDbEntity
  8
0-0_通り芯
  6
Continuous
 62
     3
370
     9
100
AcDbLine
 10
47.37986986107727
 20
293.8771285266544
 30
0.0
 11
48.01566012259996
 21
291.3575891464887
 31
0.0
  0
LINE
  5
94
330
1F
100
AcDbEntity
  8
0-0_通り芯
  6
Continuous
 62
     3
370
     9
100
AcDbLine
 10
48.01566012259996
 20
291.3575891464887
 30
0.0
 11
52.18322189300595
 21
293.7637095351531
 31
0.0
  0
LINE
  5
95
330
1F
100
AcDbEntity
  8
0-0_通り芯
  6
Continuous
 62
     3
370
     9
100
AcDbLine
 10
52.18322189300595
 20
293.7637095351531
 30
0.0
 11
49.98140266829858
 21
295.3791690214774
 31
0.0
  0
LINE
  5
96
330
1F
100
AcDbEntity
  8
0-0_通り芯
  6
Continuous
 62
     3
370
     9
100
AcDbLine
 10
32.06869095407318
 20
312.1240430698946
 30
0.0
 11
33.99978838974828
 21
314.4252482667906
 31
0.0
  0
LINE
  5
97
330
1F
100
AcDbEntity
  8
0-0_通り芯
  6
Continuous
 62
     3
370
     9
100
AcDbLine
 10
32.79112898571531
 20
316.8742376047265
 30
0.0
 11
33.99978838974828
 21
314.4252482667906
 31
0.0
  0
LINE
  5
98
330
1F
100
AcDbEntity
  8
0-0_通り芯
  6
Continuous
 62
     3
370
     9
100
AcDbLine
 10
32.06869095407318
 20
312.1240430698946
 30
0.0
 11
29.69791557664495
 21
313.1878229229201
 31
0.0
  0
LINE
  5
99
330
1F
100
AcDbEntity
  8
0-0_通り芯
  6
Continuous
 62
     3
370
     9
100
AcDbLine
 10
29.69791557664495
 20
313.1878229229201
 30
0.0
 11
32.79112898571531
 21
316.8742376047265
 31
0.0
  0
LINE
  5
9A
330
1F
100
AcDbEntity
  8
0-0_通り芯
  6
Continuous
 62
     3
370
     9
100
AcDbLine
 10
24.02535622879263
 20
318.8732254580235
 30
0.0
 11
25.95645366446775
 21
321.1746056302228
 31
0.0
  0
LINE
  5
9B
330
1F
100
AcDbEntity
  8
0-0_通り芯
  6
Continuous
 62
     3
370
     9
100
AcDbLine
 10
24.02535622879263
 20
318.8732254580235
 30
0.0
 11
25.48461526199577
 21
316.723128932927
 31
0.0
  0
LINE
  5
9C
330
1F
100
AcDbEntity
  8
0-0_通り芯
  6
Continuous
 62
     3
370
     9
100
AcDbLine
 10
25.48461526199577
 20
316.723128932927
 30
0.0
 11
28.57786366612674
 21
320.4096136048548
 31
0.0
  0
LINE
  5
9D
330
1F
100
AcDbEntity
  8
0-0_通り芯
  6
Continuous
 62
     3
370
     9
100
AcDbLine
 10
28.57786366612674
 20
320.4096136048548
 30
0.0
 11
25.95645366446775
 21
321.1746056302228
 31
0.0
  0
LINE
  5
9E
330
1F
100
AcDbEntity
  8
0-0_通り芯
  6
Continuous
 62
     3
370
     9
100
AcDbLine
 10
3.396870331919951
 20
330.7830944421722
 30
0.0
 11
4.424465292254121
 21
333.6060409979984
 31
0.0
  0
LINE
  5
9F
330
1F
100
AcDbEntity
  8
0-0_通り芯
  6
Continuous
 62
     3
370
     9
100
AcDbLine
 10
2.451093823338224
 20
335.4938845387351
 30
0.0
 11
4.424465292254121
 21
333.6060409979984
 31
0.0
  0
LINE
  5
A0
330
1F
100
AcDbEntity
  8
0-0_通り芯
  6
Continuous
 62
     3
370
     9
100
AcDbLine
 10
3.396870331919951
 20
330.7830944421722
 30
0.0
 11
0.8053461120387553
 21
330.9717878090883
 31
0.0
  0
LINE
  5
A1
330
1F
100
AcDbEntity
  8
0-0_通り芯
  6
Continuous
 62
     3
370
     9
100
AcDbLine
 10
0.8053461120387553
 20
330.9717878090883
 30
0.0
 11
2.451093823338224
 21
335.4938845387351
 31
0.0
  0
LINE
  5
A2
330
1F
100
AcDbEntity
  8
0-0_通り芯
  6
Continuous
 62
     3
370
     9
100
AcDbLine
 10
-6.469847032417084
 20
334.3742525689444
 30
0.0
 11
-5.44225207208285
 21
337.1971991247706
 31
0.0
  0
LINE
  5
A3
330
1F
100
AcDbEntity
  8
0-0_通り芯
  6
Continuous
 62
     3
370
     9
100
AcDbLine
 10
-6.469847032417084
 20
334.3742525689444
 30
0.0
 11
-4.36314438250151
 21
332.8529822883052
 31
0.0
  0
LINE
  5
A4
330
1F
100
AcDbEntity
  8
0-0_通り芯
  6
Continuous
 62
     3
370
     9
100
AcDbLine
 10
-4.36314438250151
 20
332.8529822883052
 30
0.0
 11
-2.717256690959518
 21
337.3749390377095
 31
0.0
  0
LINE
  5
A5
330
1F
100
AcDbEntity
  8
0-0_通り芯
  6
Continuous
 62
     3
370
     9
100
AcDbLine
 10
-2.717256690959518
 20
337.3749390377095
 30
0.0
 11
-5.44225207208285
 21
337.1971991247706
 31
0.0
  0
LINE
  5
A6
330
1F
100
AcDbEntity
  8
0-0_通り芯
  6
Continuous
 62
     3
370
     9
100
AcDbLine
 10
-29.92752610343842
 20
338.5104937600867
 30
0.0
 11
-29.92752610343842
 21
341.5146097447935
 31
0.0
  0
LINE
  5
A7
330
1F
100
AcDbEntity
  8
0-0_通り芯
  6
Continuous
 62
     3
370
     9
100
AcDbLine
 10
-32.4275732348332
 20
342.6135946288126
 30
0.0
 11
-29.92752610343842
 21
341.5146097447935
 31
0.0
  0
LINE
  5
A8
330
1F
100
AcDbEntity
  8
0-0_通り芯
  6
Continuous
 62
     3
370
     9
100
AcDbLine
 10
-29.92752610343842
 20
338.5104937600867
 30
0.0
 11
-32.42750324471194
 21
337.8014413391355
 31
0.0
  0
LINE
  5
A9
330
1F
100
AcDbEntity
  8
0-0_通り芯
  6
Continuous
 62
     3
370
     9
100
AcDbLine
 10
-32.42750324471194
 20
337.8014413391355
 30
0.0
 11
-32.4275732348332
 21
342.6135946288126
 31
0.0
  0
LINE
  5
AA
330
1F
100
AcDbEntity
  8
0-0_通り芯
  6
Continuous
 62
     3
370
     9
100
AcDbLine
 10
-40.427584075054
 20
338.510563750208
 30
0.0
 11
-40.427584075054
 21
341.5146797349148
 31
0.0
  0
LINE
  5
AB
330
1F
100
AcDbEntity
  8
0-0_通り芯
  6
Continuous
 62
     3
370
     9
100
AcDbLine
 10
-40.427584075054
 20
338.510563750208
 30
0.0
 11
-37.92760693378048
 21
337.8014938317264
 31
0.0
  0
LINE
  5
AC
330
1F
100
AcDbEntity
  8
0-0_通り芯
  6
Continuous
 62
     3
370
     9
100
AcDbLine
 10
-37.92760693378048
 20
337.8014938317264
 30
0.0
 11
-37.92753694365922
 21
342.6136296238732
 31
0.0
  0
LINE
  5
AD
330
1F
100
AcDbEntity
  8
0-0_通り芯
  6
Continuous
 62
     3
370
     9
100
AcDbLine
 10
-37.92753694365922
 20
342.6136296238732
 30
0.0
 11
-40.427584075054
 21
341.5146797349148
 31
0.0
  0
LINE
  5
AE
330
1F
100
AcDbEntity
  8
0-0_通り芯
  6
Continuous
 62
     3
370
     9
100
AcDbLine
 10
-63.88533313619661
 20
334.374392549187
 30
0.0
 11
-64.91278811628831
 21
337.1972691148919
 31
0.0
  0
LINE
  5
AF
330
1F
100
AcDbEntity
  8
0-0_通り芯
  6
Continuous
 62
     3
370
     9
100
AcDbLine
 10
-67.63785348753288
 20
337.3749390377095
 30
0.0
 11
-64.91278811628831
 21
337.1972691148919
 31
0.0
  0
LINE
  5
B0
330
1F
100
AcDbEntity
  8
0-0_通り芯
  6
Continuous
 62
     3
370
     9
100
AcDbLine
 10
-63.88533313619661
 20
334.374392549187
 30
0.0
 11
-65.99200079105154
 21
332.8529822883052
 31
0.0
  0
LINE
  5
B1
330
1F
100
AcDbEntity
  8
0-0_通り芯
  6
Continuous
 62
     3
370
     9
100
AcDbLine
 10
-65.99200079105154
 20
332.8529822883052
 30
0.0
 11
-67.63785348753288
 21
337.3749390377095
 31
0.0
  0
LINE
  5
B2
330
1F
100
AcDbEntity
  8
0-0_通り芯
  6
Continuous
 62
     3
370
     9
100
AcDbLine
 10
-73.75205050053361
 20
330.783024452051
 30
0.0
 11
-74.77954047568593
 21
333.6060060029378
 31
0.0
  0
LINE
  5
B3
330
1F
100
AcDbEntity
  8
0-0_通り芯
  6
Continuous
 62
     3
370
     9
100
AcDbLine
 10
-73.75205050053361
 20
330.783024452051
 30
0.0
 11
-71.16031631028869
 21
330.9718577992095
 31
0.0
  0
LINE
  5
B4
330
1F
100
AcDbEntity
  8
0-0_通り芯
  6
Continuous
 62
     3
370
     9
100
AcDbLine
 10
-71.16031631028869
 20
330.9718577992095
 30
0.0
 11
-72.80616900677003
 21
335.4937445584925
 31
0.0
  0
LINE
  5
B5
330
1F
100
AcDbEntity
  8
0-0_通り芯
  6
Continuous
 62
     3
370
     9
100
AcDbLine
 10
-72.80616900677003
 20
335.4937445584925
 30
0.0
 11
-74.77954047568593
 21
333.6060060029378
 31
0.0
  0
LINE
  5
B6
330
1F
100
AcDbEntity
  8
0-0_通り芯
  6
Continuous
 62
     3
370
     9
100
AcDbLine
 10
-94.38044890975476
 20
318.8732954481447
 30
0.0
 11
-96.31140636518734
 21
321.1745706351621
 31
0.0
  0
LINE
  5
B7
330
1F
100
AcDbEntity
  8
0-0_通り芯
  6
Continuous
 62
     3
370
     9
100
AcDbLine
 10
-98.9329913421495
 20
320.4095436147335
 30
0.0
 11
-96.31140636518734
 21
321.1745706351621
 31
0.0
  0
LINE
  5
B8
330
1F
100
AcDbEntity
  8
0-0_通り芯
  6
Continuous
 62
     3
370
     9
100
AcDbLine
 10
-94.38044890975476
 20
318.8732954481447
 30
0.0
 11
-95.83977793307915
 21
316.7231989230482
 31
0.0
  0
LINE
  5
B9
330
1F
100
AcDbEntity
  8
0-0_通り芯
  6
Continuous
 62
     3
370
     9
100
AcDbLine
 10
-95.83977793307915
 20
316.7231989230482
 30
0.0
 11
-98.9329913421495
 21
320.4095436147335
 31
0.0
  0
LINE
  5
BA
330
1F
100
AcDbEntity
  8
0-0_通り芯
  6
Continuous
 62
     3
370
     9
100
AcDbLine
 10
-102.4239236152778
 20
312.124008074834
 30
0.0
 11
-104.354916065771
 21
314.4253182569119
 31
0.0
  0
LINE
  5
BB
330
1F
100
AcDbEntity
  8
0-0_通り芯
  6
Continuous
 62
     3
370
     9
100
AcDbLine
 10
-102.4239236152778
 20
312.124008074834
 30
0.0
 11
-100.0530082576071
 21
313.1877879278594
 31
0.0
  0
LINE
  5
BC
330
1F
100
AcDbEntity
  8
0-0_通り芯
  6
Continuous
 62
     3
370
     9
100
AcDbLine
 10
-100.0530082576071
 20
313.1877879278594
 30
0.0
 11
-103.1462216666774
 21
316.8740976244841
 31
0.0
  0
LINE
  5
BD
330
1F
100
AcDbEntity
  8
0-0_通り芯
  6
Continuous
 62
     3
370
     9
100
AcDbLine
 10
-103.1462216666774
 20
316.8740976244841
 30
0.0
 11
-104.354916065771
 21
314.4253182569119
 31
0.0
  0
LINE
  5
BE
330
1F
100
AcDbEntity
  8
0-0_通り芯
  6
Continuous
 62
     3
370
     9
100
AcDbLine
 10
-117.7348575568575
 20
293.8771285266544
 30
0.0
 11
-120.3364778517304
 21
295.379256509129
 31
0.0
  0
LINE
  5
BF
330
1F
100
AcDbEntity
  8
0-0_通り芯
  6
Continuous
 62
     3
370
     9
100
AcDbLine
 10
-122.5382795789075
 20
293.7637445302138
 30
0.0
 11
-120.3364778517304
 21
295.379256509129
 31
0.0
  0
LINE
  5
C0
330
1F
100
AcDbEntity
  8
0-0_通り芯
  6
Continuous
 62
     3
370
     9
100
AcDbLine
 10
-117.7348575568575
 20
293.8771285266544
 30
0.0
 11
-118.3708227936833
 21
291.3575891464887
 31
0.0
  0
LINE
  5
C1
330
1F
100
AcDbEntity
  8
0-0_通り芯
  6
Continuous
 62
     3
370
     9
100
AcDbLine
 10
-118.3708227936833
 20
291.3575891464887
 30
0.0
 11
-122.5382795789075
 21
293.7637445302138
 31
0.0
  0
LINE
  5
C2
330
1F
100
AcDbEntity
  8
0-0_通り芯
  6
Continuous
 62
     3
370
     9
100
AcDbLine
 10
-122.9848165525441
 20
284.7839244849488
 30
0.0
 11
-125.5865243350685
 21
286.2860349698931
 31
0.0
  0
LINE
  5
C3
330
1F
100
AcDbEntity
  8
0-0_通り芯
  6
Continuous
 62
     3
370
     9
100
AcDbLine
 10
-122.9848165525441
 20
284.7839244849488
 30
0.0
 11
-121.1207696530357
 21
286.5944464392238
 31
0.0
  0
LINE
  5
C4
330
1F
100
AcDbEntity
  8
0-0_通り芯
  6
Continuous
 62
     3
370
     9
100
AcDbLine
 10
-121.1207696530357
 20
286.5944464392238
 30
0.0
 11
-125.2882614333205
 21
289.0005318328274
 31
0.0
  0
LINE
  5
C5
330
1F
100
AcDbEntity
  8
0-0_通り芯
  6
Continuous
 62
     3
370
     9
100
AcDbLine
 10
-125.2882614333205
 20
289.0005318328274
 30
0.0
 11
-125.5865243350685
 21
286.2860349698931
 31
0.0
  0
LINE
  5
C6
330
1F
100
AcDbEntity
  8
0-0_通り芯
  6
Continuous
 62
     3
370
     9
100
AcDbLine
 10
-131.1316666671676
 20
262.4007512530359
 30
0.0
 11
-134.0901490928131
 21
262.9225101094963
 31
0.0
  0
LINE
  5
C7
330
1F
100
AcDbEntity
  8
0-0_通り芯
  6
Continuous
 62
     3
370
     9
100
AcDbLine
 10
-135.6065900550854
 20
260.6513481721508
 30
0.0
 11
-134.0901490928131
 21
262.9225101094963
 31
0.0
  0
LINE
  5
C8
330
1F
100
AcDbEntity
  8
0-0_通り芯
  6
Continuous
 62
     3
370
     9
100
AcDbLine
 10
-131.1316666671676
 20
262.4007512530359
 30
0.0
 11
-130.867488954473
 21
259.8157011193713
 31
0.0
  0
LINE
  5
C9
330
1F
100
AcDbEntity
  8
0-0_通り芯
  6
Continuous
 62
     3
370
     9
100
AcDbLine
 10
-130.867488954473
 20
259.8157011193713
 30
0.0
 11
-135.6065900550854
 21
260.6513481721508
 31
0.0
  0
LINE
  5
CA
330
1F
100
AcDbEntity
  8
0-0_通り芯
  6
Continuous
 62
     3
370
     9
100
AcDbLine
 10
-132.9549443210422
 20
252.0603407480136
 30
0.0
 11
-135.9134267466877
 21
252.582047111883
 31
0.0
  0
LINE
  5
CB
330
1F
100
AcDbEntity
  8
0-0_通り芯
  6
Continuous
 62
     3
370
     9
100
AcDbLine
 10
-132.9549443210422
 20
252.0603407480136
 30
0.0
 11
-131.822504159061
 21
254.3991656350867
 31
0.0
  0
LINE
  5
CC
330
1F
100
AcDbEntity
  8
0-0_通り芯
  6
Continuous
 62
     3
370
     9
100
AcDbLine
 10
-131.822504159061
 20
254.3991656350867
 30
0.0
 11
-136.5616052596733
 21
255.2348126878664
 31
0.0
  0
LINE
  5
CD
330
1F
100
AcDbEntity
  8
0-0_通り芯
  6
Continuous
 62
     3
370
     9
100
AcDbLine
 10
-136.5616052596733
 20
255.2348126878664
 30
0.0
 11
-135.9134267466877
 21
252.582047111883
 31
0.0
  0
LINE
  5
CE
330
1F
100
AcDbEntity
  8
0-0_通り芯
  6
Continuous
 62
     3
370
     9
100
AcDbLine
 10
62.59985164008007
 20
252.0603407480135
 30
0.0
 11
65.55833406572557
 21
252.582047111883
 31
0.0
  0
LINE
  5
CF
330
1F
100
AcDbEntity
  8
0-0_通り芯
  6
Continuous
 62
     3
370
     9
100
AcDbLine
 10
62.59985164008007
 20
252.0603407480135
 30
0.0
 11
61.46741147809886
 21
254.3991656350867
 31
0.0
  0
LINE
  5
D0
330
1F
100
AcDbEntity
  8
0-0_通り芯
  6
Continuous
 62
     3
370
     9
100
AcDbLine
 10
61.46741147809886
 20
254.3991656350867
 30
0.0
 11
66.2065125787112
 21
255.2348126878663
 31
0.0
  0
LINE
  5
D1
330
1F
100
AcDbEntity
  8
0-0_通り芯
  6
Continuous
 62
     3
370
     9
100
AcDbLine
 10
66.2065125787112
 20
255.2348126878663
 30
0.0
 11
65.55833406572557
 21
252.582047111883
 31
0.0
  0
LINE
  5
D2
330
1F
100
AcDbEntity
  8
0-A
  6
Continuous
 62
     4
370
     9
100
AcDbLine
 10
-36.22656702668587
 20
327.2822585668857
 30
0.0
 11
-34.12854315180655
 21
327.2822585668857
 31
0.0
  0
LINE
  5
D3
330
1F
100
AcDbEntity
  8
0-A
  6
Continuous
 62
     4
370
     9
100
AcDbLine
 10
-32.17756852169374
 20
311.5329065057355
 30
0.0
 11
-32.17756852169374
 21
312.5883575343311
 31
0.0
  0
LINE
  5
D4
330
1F
100
AcDbEntity
  8
0-A
  6
Continuous
 62
     4
370
     9
100
AcDbLine
 10
-32.67750795785143
 20
311.3649302147123
 30
0.0
 11
-32.67750795785143
 21
312.6073598522531
 31
0.0
  0
LINE
  5
D5
330
1F
100
AcDbEntity
  8
0-A
  6
Continuous
 62
     4
370
     9
100
AcDbLine
 10
-37.67753223051975
 20
311.3648602245912
 30
0.0
 11
-37.67753223051975
 21
312.6073598522531
 31
0.0
  0
LINE
  5
D6
330
1F
100
AcDbEntity
  8
0-A
  6
Continuous
 62
     4
370
     9
100
AcDbLine
 10
-38.1775416567987
 20
311.5328015205537
 30
0.0
 11
-38.1775416567987
 21
312.5883575343311
 31
0.0
  0
LINE
  5
D7
330
1F
100
AcDbEntity
  8
0-A
  6
Continuous
 62
     4
370
     9
100
AcDbLine
 10
-32.67750795785143
 20
318.8262970817188
 30
0.0
 11
-32.67750795785143
 21
323.0033600110859
 31
0.0
  0
LINE
  5
D8
330
1F
100
AcDbEntity
  8
0-A
  6
Continuous
 62
     4
370
     9
100
AcDbLine
 10
-32.17756852169374
 20
318.994273372742
 30
0.0
 11
-32.17756852169374
 21
323.0345931026981
 31
0.0
  0
LINE
  5
D9
330
1F
100
AcDbEntity
  8
0-A
  6
Continuous
 62
     4
370
     9
100
AcDbLine
 10
-38.1775416567987
 20
318.9942033826208
 30
0.0
 11
-38.1775416567987
 21
323.0345931026981
 31
0.0
  0
LINE
  5
DA
330
1F
100
AcDbEntity
  8
0-A
  6
Continuous
 62
     4
370
     9
100
AcDbLine
 10
-37.67753223051975
 20
318.8262270915977
 30
0.0
 11
-37.67753223051975
 21
323.0033600110859
 31
0.0
  0
LINE
  5
DB
330
1F
100
AcDbEntity
  8
0-2_本体（蓋）
  6
Continuous
 62
     6
370
     5
100
AcDbLine
 10
59.29463815371422
 20
250.1504153240195
 30
0.0
 11
48.62541405901407
 21
250.1504153240195
 31
0.0
  0
LINE
  5
DC
330
1F
100
AcDbEntity
  8
0-2_本体（蓋）
  6
Continuous
 62
     6
370
     5
100
AcDbLine
 10
60.19009176511024
 20
251.1504166790471
 30
0.0
 11
48.60336717081723
 21
251.1504166790471
 31
0.0
  0
LINE
  5
DD
330
1F
100
AcDbEntity
  8
0-2_本体（蓋）
  6
Continuous
 62
     6
370
     5
100
AcDbLine
 10
48.60336717081723
 20
251.1504166790471
 30
0.0
 11
48.62541405901407
 21
250.1504153240195
 31
0.0
  0
LINE
  5
DE
330
1F
100
AcDbEntity
  8
0-2_本体（蓋）
  6
Continuous
 62
     6
370
     5
100
AcDbLine
 10
60.19009176511024
 20
251.1504166790471
 30
0.0
 11
59.29463815371422
 21
250.1504153240195
 31
0.0
  0
LINE
  5
DF
330
1F
100
AcDbEntity
  8
0-2_本体（蓋）
  6
Continuous
 62
     6
370
     5
100
AcDbLine
 10
58.63071186344517
 20
245.1504260464118
 30
0.0
 11
55.32241881174394
 21
245.1504260464118
 31
0.0
  0
LINE
  5
E0
330
1F
100
AcDbEntity
  8
0-2_本体（蓋）
  6
Continuous
 62
     6
370
     5
100
AcDbLine
 10
59.35986894672822
 20
245.4660464982322
 30
0.0
 11
60.41434011362615
 21
244.4601659730188
 31
0.0
  0
LINE
  5
E1
330
1F
100
AcDbEntity
  8
0-2_本体（蓋）
  6
Continuous
 62
     6
370
     5
100
AcDbLine
 10
32.16863684723199
 20
266.995655206323
 30
0.0
 11
31.56350225882102
 21
265.7982117192219
 31
0.0
  0
LINE
  5
E2
330
1F
100
AcDbEntity
  8
0-2_本体（蓋）
  6
Continuous
 62
     6
370
     5
100
AcDbLine
 10
36.56856582022003
 20
250.5748704143987
 30
0.0
 11
35.44578429497265
 21
251.3093117518368
 31
0.0
  0
LINE
  5
E3
330
1F
100
AcDbEntity
  8
0-2_本体（蓋）
  6
Continuous
 62
     6
370
     5
100
AcDbLine
 10
41.42714005782261
 20
272.4011147539181
 30
0.0
 11
42.74729372502213
 21
272.8300667095882
 31
0.0
  0
LINE
  5
E4
330
1F
100
AcDbEntity
  8
0-2_本体（蓋）
  6
Continuous
 62
     6
370
     5
100
AcDbLine
 10
35.9408244226422
 20
283.1686574714578
 30
0.0
 11
37.06381591825334
 21
283.9845498125119
 31
0.0
  0
LINE
  5
E5
330
1F
100
AcDbEntity
  8
0-2_本体（蓋）
  6
Continuous
 62
     6
370
     5
100
AcDbLine
 10
27.71180590565984
 20
294.4949488245436
 30
0.0
 11
28.83479740127098
 21
295.3108761606583
 31
0.0
  0
LINE
  5
E6
330
1F
100
AcDbEntity
  8
0-2_本体（蓋）
  6
Continuous
 62
     6
370
     5
100
AcDbLine
 10
19.1666420109476
 20
303.0401302167861
 30
0.0
 11
19.98258684459261
 21
304.163104214867
 31
0.0
  0
LINE
  5
E7
330
1F
100
AcDbEntity
  8
0-2_本体（蓋）
  6
Continuous
 62
     6
370
     5
100
AcDbLine
 10
7.840420647983075
 20
311.2691837288291
 30
0.0
 11
8.656365481628082
 21
312.3921927219706
 31
0.0
  0
LINE
  5
E8
330
1F
100
AcDbEntity
  8
0-2_本体（蓋）
  6
Continuous
 62
     6
370
     5
100
AcDbLine
 10
-2.927069576965668
 20
316.7555168615398
 30
0.0
 11
-2.498100123765262
 21
318.0756705287394
 31
0.0
  0
LINE
  5
E9
330
1F
100
AcDbEntity
  8
0-2_本体（蓋）
  6
Continuous
 62
     6
370
     5
100
AcDbLine
 10
-16.24181527009882
 20
321.0818337244931
 30
0.0
 11
-15.81286331442869
 21
322.4020223867533
 31
0.0
  0
LINE
  5
EA
330
1F
100
AcDbEntity
  8
0-2_本体（蓋）
  6
Continuous
 62
     6
370
     5
100
AcDbLine
 10
-28.17772057935617
 20
322.9723193923073
 30
0.0
 11
-28.17770308182583
 21
324.3603984721893
 31
0.0
  0
LINE
  5
EB
330
1F
100
AcDbEntity
  8
0-2_本体（蓋）
  6
Continuous
 62
     6
370
     5
100
AcDbLine
 10
45.79515353551623
 20
259.0994397159303
 30
0.0
 11
47.07366308056628
 21
259.5148485831366
 31
0.0
  0
LINE
  5
EC
330
1F
100
AcDbEntity
  8
0-2_本体（蓋）
  6
Continuous
 62
     6
370
     5
100
AcDbLine
 10
47.5418270016721
 20
248.1504301114946
 30
0.0
 11
48.83993378067492
 21
248.1504476090249
 31
0.0
  0
LINE
  5
ED
330
1F
100
AcDbEntity
  8
0-2_本体（蓋）
  6
Continuous
 62
     6
370
     5
100
AcDbLine
 10
-129.6497833272673
 20
250.1504153240195
 30
0.0
 11
-118.9805592325671
 21
250.1504153240195
 31
0.0
  0
LINE
  5
EE
330
1F
100
AcDbEntity
  8
0-2_本体（蓋）
  6
Continuous
 62
     6
370
     5
100
AcDbLine
 10
-130.5452719337239
 20
251.1504166790472
 30
0.0
 11
-118.9585123443703
 21
251.1504166790472
 31
0.0
  0
LINE
  5
EF
330
1F
100
AcDbEntity
  8
0-2_本体（蓋）
  6
Continuous
 62
     6
370
     5
100
AcDbLine
 10
-118.9585123443703
 20
251.1504166790472
 30
0.0
 11
-118.9805592325671
 21
250.1504153240195
 31
0.0
  0
LINE
  5
F0
330
1F
100
AcDbEntity
  8
0-2_本体（蓋）
  6
Continuous
 62
     6
370
     5
100
AcDbLine
 10
-130.5452719337239
 20
251.1504166790472
 30
0.0
 11
-129.6497833272673
 21
250.1504153240195
 31
0.0
  0
LINE
  5
F1
330
1F
100
AcDbEntity
  8
0-2_本体（蓋）
  6
Continuous
 62
     6
370
     5
100
AcDbLine
 10
-128.9858920320589
 20
245.1504260464119
 30
0.0
 11
-125.677563985297
 21
245.1504260464119
 31
0.0
  0
LINE
  5
F2
330
1F
100
AcDbEntity
  8
0-2_本体（蓋）
  6
Continuous
 62
     6
370
     5
100
AcDbLine
 10
-129.7150141202813
 20
245.4660464982323
 30
0.0
 11
-130.7694677896489
 21
244.4601659730188
 31
0.0
  0
LINE
  5
F3
330
1F
100
AcDbEntity
  8
0-2_本体（蓋）
  6
Continuous
 62
     6
370
     5
100
AcDbLine
 10
-111.7822852313757
 20
272.4011147539183
 30
0.0
 11
-113.1024738936358
 21
272.8300667095883
 31
0.0
  0
LINE
  5
F4
330
1F
100
AcDbEntity
  8
0-2_本体（蓋）
  6
Continuous
 62
     6
370
     5
100
AcDbLine
 10
-106.2959695961952
 20
283.1686574714579
 30
0.0
 11
-107.4189610918064
 21
283.984549812512
 31
0.0
  0
LINE
  5
F5
330
1F
100
AcDbEntity
  8
0-2_本体（蓋）
  6
Continuous
 62
     6
370
     5
100
AcDbLine
 10
-98.0669860742735
 20
294.4949488245437
 30
0.0
 11
-99.18997756988463
 21
295.3108761606584
 31
0.0
  0
LINE
  5
F6
330
1F
100
AcDbEntity
  8
0-2_本体（蓋）
  6
Continuous
 62
     6
370
     5
100
AcDbLine
 10
-89.52182217956127
 20
303.0401302167861
 30
0.0
 11
-90.33773201814566
 21
304.163104214867
 31
0.0
  0
LINE
  5
F7
330
1F
100
AcDbEntity
  8
0-2_本体（蓋）
  6
Continuous
 62
     6
370
     5
100
AcDbLine
 10
-78.19560081659674
 20
311.2691837288291
 30
0.0
 11
-79.01154565024177
 21
312.3921927219706
 31
0.0
  0
LINE
  5
F8
330
1F
100
AcDbEntity
  8
0-2_本体（蓋）
  6
Continuous
 62
     6
370
     5
100
AcDbLine
 10
-67.4280755965874
 20
316.7555168615398
 30
0.0
 11
-67.85704504978781
 21
318.0756705287394
 31
0.0
  0
LINE
  5
F9
330
1F
100
AcDbEntity
  8
0-2_本体（蓋）
  6
Continuous
 62
     6
370
     5
100
AcDbLine
 10
-54.11332990345426
 20
321.0818337244931
 30
0.0
 11
-54.54228185912436
 21
322.4020223867533
 31
0.0
  0
LINE
  5
FA
330
1F
100
AcDbEntity
  8
0-2_本体（蓋）
  6
Continuous
 62
     6
370
     5
100
AcDbLine
 10
-42.17742459419691
 20
322.9723193923073
 30
0.0
 11
-42.17744209172722
 21
324.3603984721893
 31
0.0
  0
LINE
  5
FB
330
1F
100
AcDbEntity
  8
0-2_本体（蓋）
  6
Continuous
 62
     6
370
     5
100
AcDbLine
 10
-116.1503337041299
 20
259.0994397159303
 30
0.0
 11
-117.4288082541194
 21
259.5148485831367
 31
0.0
  0
LINE
  5
FC
330
1F
100
AcDbEntity
  8
0-2_本体（蓋）
  6
Continuous
 62
     6
370
     5
100
AcDbLine
 10
-117.8970071702858
 20
248.1504301114947
 30
0.0
 11
-119.195078954228
 21
248.150447609025
 31
0.0
  0
LINE
  5
FD
330
1F
100
AcDbEntity
  8
0-2_本体（蓋）
  6
Continuous
 62
     6
370
     5
100
AcDbLine
 10
-62.02280852182568
 20
307.496663700343
 30
0.0
 11
-60.82536503472463
 21
306.891529111932
 31
0.0
  0
LINE
  5
FE
330
1F
100
AcDbEntity
  8
0-2_本体（蓋）
  6
Continuous
 62
     6
370
     5
100
AcDbLine
 10
-45.60202372990137
 20
311.896592673331
 30
0.0
 11
-46.33646506733954
 21
310.7737761530231
 31
0.0
  0
LINE
  5
FF
330
1F
100
AcDbEntity
  8
0-2_本体（蓋）
  6
Continuous
 62
     6
370
     5
100
AcDbLine
 10
-33.67763179559123
 20
318.1789059575974
 30
0.0
 11
-33.67763179559123
 21
318.7310230291542
 31
0.0
  0
LINE
  5
100
330
1F
100
AcDbEntity
  8
0-2_本体（蓋）
  6
Continuous
 62
     6
370
     5
100
AcDbLine
 10
-36.67751337796182
 20
318.1789059575974
 30
0.0
 11
-36.67751337796182
 21
318.7310055316239
 31
0.0
  0
LINE
  5
101
330
1F
100
AcDbEntity
  8
0-2_本体（蓋）
  6
Continuous
 62
     6
370
     5
100
AcDbLine
 10
59.69071224992262
 20
244.1504246913842
 30
0.0
 11
58.82255478581787
 21
244.1504246913842
 31
0.0
  0
LINE
  5
102
330
1F
100
AcDbEntity
  8
0-2_本体（蓋）
  6
Continuous
 62
     6
370
     5
100
AcDbLine
 10
-130.0458924185363
 20
244.1504246913842
 30
0.0
 11
-129.17764746678
 21
244.1504246913842
 31
0.0
  0
ARC
  5
103
330
1F
100
AcDbEntity
  8
0-A
  6
Continuous
 62
     4
370
     9
100
AcDbCircle
 10
54.22259404626975
 20
241.750533423512
 30
0.0
 40
0.9999999880330441
100
AcDbArc
 50
270.0
 51
0.0
  0
ARC
  5
104
330
1F
100
AcDbEntity
  8
0-A
  6
Continuous
 62
     4
370
     9
100
AcDbCircle
 10
57.42268237050357
 20
241.750533423512
 30
0.0
 40
0.9999999880330441
100
AcDbArc
 50
180.0
 51
270.0
  0
ARC
  5
105
330
1F
100
AcDbEntity
  8
0-A
  6
Continuous
 62
     4
370
     9
100
AcDbCircle
 10
55.82256821826541
 20
240.1504367688041
 30
0.0
 40
5.000000213564133
100
AcDbArc
 50
0.0
 51
180.0
  0
ARC
  5
106
330
1F
100
AcDbEntity
  8
0-A
  6
Continuous
 62
     4
370
     9
100
AcDbCircle
 10
-124.5776867272318
 20
241.750533423512
 30
0.0
 40
0.9999999880330441
100
AcDbArc
 50
180.0
 51
270.0
  0
ARC
  5
107
330
1F
100
AcDbEntity
  8
0-A
  6
Continuous
 62
     4
370
     9
100
AcDbCircle
 10
-127.7777750514657
 20
241.750533423512
 30
0.0
 40
0.9999999880330441
100
AcDbArc
 50
270.0
 51
0.0
  0
ARC
  5
108
330
1F
100
AcDbEntity
  8
0-A
  6
Continuous
 62
     4
370
     9
100
AcDbCircle
 10
-126.1776608992275
 20
240.1504367688042
 30
0.0
 40
5.000000213564133
100
AcDbArc
 50
0.0
 51
180.0
  0
ARC
  5
109
330
1F
100
AcDbEntity
  8
0-0_通り芯
  6
Continuous
 62
     3
370
     9
100
AcDbCircle
 10
-35.17755508924622
 20
240.1504717638648
 30
0.0
 40
98.50000223874123
100
AcDbArc
 50
13.05526733398437
 51
26.94471740722656
  0
ARC
  5
10A
330
1F
100
AcDbEntity
  8
0-0_通り芯
  6
Continuous
 62
     3
370
     9
100
AcDbCircle
 10
-35.17755508924622
 20
240.1504717638648
 30
0.0
 40
101.4999975550589
100
AcDbArc
 50
12.96488952636719
 51
27.0350799560547
  0
ARC
  5
10B
330
1F
100
AcDbEntity
  8
0-0_通り芯
  6
Continuous
 62
     3
370
     9
100
AcDbCircle
 10
-35.17755508924622
 20
240.1504717638648
 30
0.0
 40
102.5000689002078
100
AcDbArc
 50
11.53738403320313
 51
28.46260070800782
  0
ARC
  5
10C
330
1F
100
AcDbEntity
  8
0-0_通り芯
  6
Continuous
 62
     3
370
     9
100
AcDbCircle
 10
-35.17755508924622
 20
240.1504717638648
 30
0.0
 40
98.50000223874123
100
AcDbArc
 50
33.05526733398436
 51
46.94471740722655
  0
ARC
  5
10D
330
1F
100
AcDbEntity
  8
0-0_通り芯
  6
Continuous
 62
     3
370
     9
100
AcDbCircle
 10
-35.17755508924622
 20
240.1504717638648
 30
0.0
 40
101.4999975550589
100
AcDbArc
 50
32.96488952636717
 51
47.03507995605468
  0
ARC
  5
10E
330
1F
100
AcDbEntity
  8
0-0_通り芯
  6
Continuous
 62
     3
370
     9
100
AcDbCircle
 10
-35.17755508924622
 20
240.1504717638648
 30
0.0
 40
102.5000689002078
100
AcDbArc
 50
31.53738403320314
 51
48.46260070800783
  0
ARC
  5
10F
330
1F
100
AcDbEntity
  8
0-0_通り芯
  6
Continuous
 62
     3
370
     9
100
AcDbCircle
 10
-35.17755508924622
 20
240.1504717638648
 30
0.0
 40
97.6896916098576
100
AcDbArc
 50
28.38688659667968
 51
31.61311340332031
  0
ARC
  5
110
330
1F
100
AcDbEntity
  8
0-0_通り芯
  6
Continuous
 62
     3
370
     9
100
AcDbCircle
 10
-35.17755508924622
 20
240.1504717638648
 30
0.0
 40
98.50000223874123
100
AcDbArc
 50
53.05526733398439
 51
66.94471740722658
  0
ARC
  5
111
330
1F
100
AcDbEntity
  8
0-0_通り芯
  6
Continuous
 62
     3
370
     9
100
AcDbCircle
 10
-35.17755508924622
 20
240.1504717638648
 30
0.0
 40
101.4999975550589
100
AcDbArc
 50
52.96488952636718
 51
67.03507995605467
  0
ARC
  5
112
330
1F
100
AcDbEntity
  8
0-0_通り芯
  6
Continuous
 62
     3
370
     9
100
AcDbCircle
 10
-35.17755508924622
 20
240.1504717638648
 30
0.0
 40
102.5000689002078
100
AcDbArc
 50
51.53738403320312
 51
68.46260070800781
  0
ARC
  5
113
330
1F
100
AcDbEntity
  8
0-0_通り芯
  6
Continuous
 62
     3
370
     9
100
AcDbCircle
 10
-35.17755508924622
 20
240.1504717638648
 30
0.0
 40
97.6896916098576
100
AcDbArc
 50
48.38688659667972
 51
51.61311340332034
  0
ARC
  5
114
330
1F
100
AcDbEntity
  8
0-0_通り芯
  6
Continuous
 62
     3
370
     9
100
AcDbCircle
 10
-35.17755508924622
 20
240.1504717638648
 30
0.0
 40
98.50000223874123
100
AcDbArc
 50
73.0552673339844
 51
86.94471740722658
  0
ARC
  5
115
330
1F
100
AcDbEntity
  8
0-0_通り芯
  6
Continuous
 62
     3
370
     9
100
AcDbCircle
 10
-35.17755508924622
 20
240.1504717638648
 30
0.0
 40
101.4999975550589
100
AcDbArc
 50
72.96488952636722
 51
87.0350799560547
  0
ARC
  5
116
330
1F
100
AcDbEntity
  8
0-0_通り芯
  6
Continuous
 62
     3
370
     9
100
AcDbCircle
 10
-35.17755508924622
 20
240.1504717638648
 30
0.0
 40
102.5000689002078
100
AcDbArc
 50
71.53738403320312
 51
88.46260070800781
  0
ARC
  5
117
330
1F
100
AcDbEntity
  8
0-0_通り芯
  6
Continuous
 62
     3
370
     9
100
AcDbCircle
 10
-35.17755508924622
 20
240.1504717638648
 30
0.0
 40
97.6896916098576
100
AcDbArc
 50
68.38688659667969
 51
71.61311340332033
  0
ARC
  5
118
330
1F
100
AcDbEntity
  8
0-0_通り芯
  6
Continuous
 62
     3
370
     9
100
AcDbCircle
 10
-35.17755508924622
 20
240.1504717638648
 30
0.0
 40
98.50000223874123
100
AcDbArc
 50
93.05526733398438
 51
106.9447174072266
  0
ARC
  5
119
330
1F
100
AcDbEntity
  8
0-0_通り芯
  6
Continuous
 62
     3
370
     9
100
AcDbCircle
 10
-35.17755508924622
 20
240.1504717638648
 30
0.0
 40
101.4999975550589
100
AcDbArc
 50
92.9648895263672
 51
107.0350799560547
  0
ARC
  5
11A
330
1F
100
AcDbEntity
  8
0-0_通り芯
  6
Continuous
 62
     3
370
     9
100
AcDbCircle
 10
-35.17755508924622
 20
240.1504717638648
 30
0.0
 40
102.5000689002078
100
AcDbArc
 50
91.53738403320307
 51
108.4626007080078
  0
ARC
  5
11B
330
1F
100
AcDbEntity
  8
0-0_通り芯
  6
Continuous
 62
     3
370
     9
100
AcDbCircle
 10
-35.17755508924622
 20
240.1504717638648
 30
0.0
 40
97.6896916098576
100
AcDbArc
 50
88.38688659667969
 51
91.61311340332033
  0
ARC
  5
11C
330
1F
100
AcDbEntity
  8
0-0_通り芯
  6
Continuous
 62
     3
370
     9
100
AcDbCircle
 10
-35.17755508924622
 20
240.1504717638648
 30
0.0
 40
98.50000223874123
100
AcDbArc
 50
113.0552673339844
 51
126.9447174072266
  0
ARC
  5
11D
330
1F
100
AcDbEntity
  8
0-0_通り芯
  6
Continuous
 62
     3
370
     9
100
AcDbCircle
 10
-35.17755508924622
 20
240.1504717638648
 30
0.0
 40
101.4999975550589
100
AcDbArc
 50
112.9648895263672
 51
127.0350799560547
  0
ARC
  5
11E
330
1F
100
AcDbEntity
  8
0-0_通り芯
  6
Continuous
 62
     3
370
     9
100
AcDbCircle
 10
-35.17755508924622
 20
240.1504717638648
 30
0.0
 40
102.5000689002078
100
AcDbArc
 50
111.5373840332031
 51
128.4626007080078
  0
ARC
  5
11F
330
1F
100
AcDbEntity
  8
0-0_通り芯
  6
Continuous
 62
     3
370
     9
100
AcDbCircle
 10
-35.17755508924622
 20
240.1504717638648
 30
0.0
 40
97.6896916098576
100
AcDbArc
 50
108.3868865966797
 51
111.6131134033203
  0
ARC
  5
120
330
1F
100
AcDbEntity
  8
0-0_通り芯
  6
Continuous
 62
     3
370
     9
100
AcDbCircle
 10
-35.17755508924622
 20
240.1504717638648
 30
0.0
 40
98.50000223874123
100
AcDbArc
 50
133.0552673339844
 51
146.9447174072266
  0
ARC
  5
121
330
1F
100
AcDbEntity
  8
0-0_通り芯
  6
Continuous
 62
     3
370
     9
100
AcDbCircle
 10
-35.17755508924622
 20
240.1504717638648
 30
0.0
 40
101.4999975550589
100
AcDbArc
 50
132.9648895263672
 51
147.0350799560547
  0
ARC
  5
122
330
1F
100
AcDbEntity
  8
0-0_通り芯
  6
Continuous
 62
     3
370
     9
100
AcDbCircle
 10
-35.17755508924622
 20
240.1504717638648
 30
0.0
 40
102.5000689002078
100
AcDbArc
 50
131.5373840332032
 51
148.4626007080078
  0
ARC
  5
123
330
1F
100
AcDbEntity
  8
0-0_通り芯
  6
Continuous
 62
     3
370
     9
100
AcDbCircle
 10
-35.17755508924622
 20
240.1504717638648
 30
0.0
 40
97.6896916098576
100
AcDbArc
 50
128.3868865966797
 51
131.6131134033203
  0
ARC
  5
124
330
1F
100
AcDbEntity
  8
0-0_通り芯
  6
Continuous
 62
     3
370
     9
100
AcDbCircle
 10
-35.17755508924622
 20
240.1504717638648
 30
0.0
 40
98.50000223874123
100
AcDbArc
 50
153.0552673339844
 51
166.9447174072266
  0
ARC
  5
125
330
1F
100
AcDbEntity
  8
0-0_通り芯
  6
Continuous
 62
     3
370
     9
100
AcDbCircle
 10
-35.17755508924622
 20
240.1504717638648
 30
0.0
 40
101.4999975550589
100
AcDbArc
 50
152.9648895263672
 51
167.0350799560547
  0
ARC
  5
126
330
1F
100
AcDbEntity
  8
0-0_通り芯
  6
Continuous
 62
     3
370
     9
100
AcDbCircle
 10
-35.17755508924622
 20
240.1504717638648
 30
0.0
 40
102.5000689002078
100
AcDbArc
 50
151.5373840332032
 51
168.4626007080078
  0
ARC
  5
127
330
1F
100
AcDbEntity
  8
0-0_通り芯
  6
Continuous
 62
     3
370
     9
100
AcDbCircle
 10
-35.17755508924622
 20
240.1504717638648
 30
0.0
 40
97.6896916098576
100
AcDbArc
 50
148.3868865966797
 51
151.6131134033203
  0
ARC
  5
128
330
1F
100
AcDbEntity
  8
0-0_通り芯
  6
Continuous
 62
     3
370
     9
100
AcDbCircle
 10
-35.17755508924622
 20
240.1504717638648
 30
0.0
 40
97.6896916098576
100
AcDbArc
 50
168.3868865966797
 51
171.6131134033203
  0
ARC
  5
129
330
1F
100
AcDbEntity
  8
0-0_通り芯
  6
Continuous
 62
     3
370
     9
100
AcDbCircle
 10
-35.17755508924622
 20
240.1504367688042
 30
0.0
 40
96.90372879440719
100
AcDbArc
 50
0.0
 51
6.113143920898438
  0
ARC
  5
12A
330
1F
100
AcDbEntity
  8
0-0_通り芯
  6
Continuous
 62
     3
370
     9
100
AcDbCircle
 10
57.28949116974643
 20
252.1504880241959
 30
0.0
 40
2.999999964099133
100
AcDbArc
 50
343.8415069580078
 51
7.394378662109379
  0
ARC
  5
12B
330
1F
100
AcDbEntity
  8
0-0_通り芯
  6
Continuous
 62
     3
370
     9
100
AcDbCircle
 10
58.19218875869278
 20
250.1504503190801
 30
0.0
 40
2.999999964099133
100
AcDbArc
 50
319.7901153564453
 51
6.113220214843751
  0
ARC
  5
12C
330
1F
100
AcDbEntity
  8
0-0_通り芯
  6
Continuous
 62
     3
370
     9
100
AcDbCircle
 10
-35.17755508924622
 20
240.1504367688042
 30
0.0
 40
96.90372879440719
100
AcDbArc
 50
173.8868560791016
 51
180.0
  0
ARC
  5
12D
330
1F
100
AcDbEntity
  8
0-0_通り芯
  6
Continuous
 62
     3
370
     9
100
AcDbCircle
 10
-127.6446188457692
 20
252.150488024196
 30
0.0
 40
2.999999964099133
100
AcDbArc
 50
172.6056213378907
 51
196.1584930419922
  0
ARC
  5
12E
330
1F
100
AcDbEntity
  8
0-0_通り芯
  6
Continuous
 62
     3
370
     9
100
AcDbCircle
 10
-128.5473164347156
 20
250.1504503190802
 30
0.0
 40
2.999999964099133
100
AcDbArc
 50
173.8867797851563
 51
220.2098846435547
  0
ARC
  5
12F
330
1F
100
AcDbEntity
  8
0-0_通り芯
  6
Continuous
 62
     3
370
     9
100
AcDbCircle
 10
-35.17755508924622
 20
240.1504367688042
 30
0.0
 40
96.242462128746
100
AcDbArc
 50
7.394287109375004
 51
85.07809448242189
  0
ARC
  5
130
330
1F
100
AcDbEntity
  8
0-0_通り芯
  6
Continuous
 62
     3
370
     9
100
AcDbCircle
 10
-27.1775442490254
 20
333.0490946080748
 30
0.0
 40
2.999999964099133
100
AcDbArc
 50
85.0780487060547
 51
108.6310272216797
  0
ARC
  5
131
330
1F
100
AcDbEntity
  8
0-0_通り芯
  6
Continuous
 62
     3
370
     9
100
AcDbCircle
 10
-29.17758195414126
 20
333.86227483193
 30
0.0
 40
2.999999964099133
100
AcDbArc
 50
86.33636474609375
 51
132.6608276367188
  0
ARC
  5
132
330
1F
100
AcDbEntity
  8
0-0_通り芯
  6
Continuous
 62
     3
370
     9
100
AcDbCircle
 10
-43.17756592946702
 20
333.0490946080748
 30
0.0
 40
2.999999964099133
100
AcDbArc
 50
71.36897277832033
 51
94.92195129394533
  0
ARC
  5
133
330
1F
100
AcDbEntity
  8
0-0_通り芯
  6
Continuous
 62
     3
370
     9
100
AcDbCircle
 10
-41.17752822435119
 20
333.86227483193
 30
0.0
 40
2.999999964099133
100
AcDbArc
 50
47.33917236328126
 51
93.66363525390628
  0
ARC
  5
134
330
1F
100
AcDbEntity
  8
0-0_通り芯
  6
Continuous
 62
     3
370
     9
100
AcDbCircle
 10
-35.17755508924622
 20
240.1504717638648
 30
0.0
 40
96.90368505058139
100
AcDbArc
 50
86.3365936279297
 51
93.66343688964845
  0
ARC
  5
135
330
1F
100
AcDbEntity
  8
0-0_通り芯
  6
Continuous
 62
     3
370
     9
100
AcDbCircle
 10
-35.17755508924622
 20
240.1504367688042
 30
0.0
 40
96.242462128746
100
AcDbArc
 50
94.92190551757808
 51
172.605712890625
  0
ARC
  5
136
330
1F
100
AcDbEntity
  8
0-0_通り芯
  6
Continuous
 62
     3
370
     9
100
AcDbCircle
 10
-35.17755508924622
 20
240.1504717638648
 30
0.0
 40
98.50000223874123
100
AcDbArc
 50
173.0552673339844
 51
180.000015258789
  0
ARC
  5
137
330
1F
100
AcDbEntity
  8
0-0_通り芯
  6
Continuous
 62
     3
370
     9
100
AcDbCircle
 10
-35.17755508924622
 20
240.1504717638648
 30
0.0
 40
101.4999975550589
100
AcDbArc
 50
172.9648895263672
 51
180.0000152587891
  0
ARC
  5
138
330
1F
100
AcDbEntity
  8
0-0_通り芯
  6
Continuous
 62
     3
370
     9
100
AcDbCircle
 10
-35.17755508924622
 20
240.1504717638648
 30
0.0
 40
102.5000689002078
100
AcDbArc
 50
171.5373840332031
 51
180.000015258789
  0
ARC
  5
139
330
1F
100
AcDbEntity
  8
0-0_通り芯
  6
Continuous
 62
     3
370
     9
100
AcDbCircle
 10
-35.17755508924622
 20
240.1504717638648
 30
0.0
 40
97.6896916098576
100
AcDbArc
 50
8.386886596679693
 51
11.61311340332032
  0
ARC
  5
13A
330
1F
100
AcDbEntity
  8
0-0_通り芯
  6
Continuous
 62
     3
370
     9
100
AcDbCircle
 10
-35.17755508924622
 20
240.1504717638648
 30
0.0
 40
98.50000223874123
100
AcDbArc
 50
359.999984741211
 51
6.944732666015616
  0
ARC
  5
13B
330
1F
100
AcDbEntity
  8
0-0_通り芯
  6
Continuous
 62
     3
370
     9
100
AcDbCircle
 10
-35.17755508924622
 20
240.1504717638648
 30
0.0
 40
101.4999975550589
100
AcDbArc
 50
359.999984741211
 51
7.035110473632804
  0
ARC
  5
13C
330
1F
100
AcDbEntity
  8
0-0_通り芯
  6
Continuous
 62
     3
370
     9
100
AcDbCircle
 10
-35.17755508924622
 20
240.1504717638648
 30
0.0
 40
102.5000689002078
100
AcDbArc
 50
359.999984741211
 51
8.462615966796866
  0
ARC
  5
13D
330
1F
100
AcDbEntity
  8
0-A
  6
Continuous
 62
     4
370
     9
100
AcDbCircle
 10
-35.1775550892462
 20
321.9050925258097
 30
0.0
 40
5.478573524813854
100
AcDbArc
 50
16.60847473144531
 51
163.3915252685547
  0
ELLIPSE
  5
13E
330
1F
100
AcDbEntity
  8
0-A
  6
Continuous
 62
     4
370
     9
100
AcDbEllipse
 10
-35.1775550892462
 20
323.4710165038126
 30
0.0
 11
-5.25001148827748
 21
6.429409764605847E-16
 31
0.0
210
0.0
220
0.0
230
1.0
 40
0.1013
 41
0.0
 42
3.141592653589792
  0
ELLIPSE
  5
13F
330
1F
100
AcDbEntity
  8
0-A
  6
Continuous
 62
     4
370
     9
100
AcDbEllipse
 10
-35.1775550892462
 20
311.5328715106749
 30
0.0
 11
-2.99983674479555
 21
-3.035838428295490E-5
 31
0.0
210
0.0
220
0.0
230
1.0
 40
0.1013
 41
0.0
 42
3.141592653589792
  0
ELLIPSE
  5
140
330
1F
100
AcDbEntity
  8
0-A
  6
Continuous
 62
     4
370
     9
100
AcDbEllipse
 10
-35.1775550892462
 20
318.9942033826208
 30
0.0
 11
-2.99983674479555
 21
-3.035838428295490E-5
 31
0.0
210
0.0
220
0.0
230
1.0
 40
0.1013
 41
0.0
 42
3.141592653589792
  0
ARC
  5
141
330
1F
100
AcDbEntity
  8
0-0_通り芯
  6
JWW_DASHED1
 62
     3
370
     9
100
AcDbCircle
 10
-35.17755508924622
 20
240.1504367688042
 30
0.0
 40
65.50007563116007
100
AcDbArc
 50
0.0
 51
180.0
  0
ARC
  5
142
330
1F
100
AcDbEntity
  8
0-2_本体（蓋）
  6
Continuous
 62
     6
370
     5
100
AcDbCircle
 10
59.69071224992262
 20
245.1504260464118
 30
0.0
 40
0.9999999880330441
100
AcDbArc
 50
270.0
 51
3.016998291015629
  0
ARC
  5
143
330
1F
100
AcDbEntity
  8
0-2_本体（蓋）
  6
Continuous
 62
     6
370
     5
100
AcDbCircle
 10
-35.17757258677656
 20
240.1504192712738
 30
0.0
 40
95.99999885117225
100
AcDbArc
 50
3.016967773437512
 51
176.9830322265625
  0
ARC
  5
144
330
1F
100
AcDbEntity
  8
0-2_本体（蓋）
  6
Continuous
 62
     6
370
     5
100
AcDbCircle
 10
58.63071186344517
 20
246.1504274014394
 30
0.0
 40
0.9999999880330441
100
AcDbArc
 50
270.0
 51
3.659759521484371
  0
ARC
  5
145
330
1F
100
AcDbEntity
  8
0-2_本体（蓋）
  6
Continuous
 62
     6
370
     5
100
AcDbCircle
 10
-35.17757258677656
 20
240.1504192712738
 30
0.0
 40
94.99999749614464
100
AcDbArc
 50
3.659667968750006
 51
6.042327880859381
  0
ARC
  5
146
330
1F
100
AcDbEntity
  8
0-2_本体（蓋）
  6
Continuous
 62
     6
370
     5
100
AcDbCircle
 10
-35.17806251762536
 20
240.1504192712738
 30
0.0
 40
71.4999918992915
100
AcDbArc
 50
8.97877502441407
 51
21.02101135253907
  0
ARC
  5
147
330
1F
100
AcDbEntity
  8
0-2_本体（蓋）
  6
Continuous
 62
     6
370
     5
100
AcDbCircle
 10
41.11813367246122
 20
273.3521755166549
 30
0.0
 40
0.9999999880330441
100
AcDbArc
 50
203.5166320800781
 51
287.9993438720703
  0
ARC
  5
148
330
1F
100
AcDbEntity
  8
0-2_本体（蓋）
  6
Continuous
 62
     6
370
     5
100
AcDbCircle
 10
36.52860146098077
 20
282.3596241622872
 30
0.0
 40
0.9999999880330441
100
AcDbArc
 50
125.9990692138672
 51
210.4821624755859
  0
ARC
  5
149
330
1F
100
AcDbEntity
  8
0-2_本体（蓋）
  6
Continuous
 62
     6
370
     5
100
AcDbCircle
 10
-35.17757258677656
 20
240.1504192712738
 30
0.0
 40
82.20693192058548
100
AcDbArc
 50
23.51733398437499
 51
30.48281860351562
  0
ARC
  5
14A
330
1F
100
AcDbEntity
  8
0-2_本体（蓋）
  6
Continuous
 62
     6
370
     5
100
AcDbCircle
 10
27.12402886732126
 20
295.3039821337143
 30
0.0
 40
0.9999999880330441
100
AcDbArc
 50
221.5166320800782
 51
305.9993438720703
  0
ARC
  5
14B
330
1F
100
AcDbEntity
  8
0-2_本体（蓋）
  6
Continuous
 62
     6
370
     5
100
AcDbCircle
 10
19.97565782258788
 20
302.4523356809173
 30
0.0
 40
0.9999999880330441
100
AcDbArc
 50
143.9990692138672
 51
228.482162475586
  0
ARC
  5
14C
330
1F
100
AcDbEntity
  8
0-2_本体（蓋）
  6
Continuous
 62
     6
370
     5
100
AcDbCircle
 10
-35.17757258677656
 20
240.1505592515163
 30
0.0
 40
82.20693192058548
100
AcDbArc
 50
41.51733398437501
 51
48.48281860351563
  0
ARC
  5
14D
330
1F
100
AcDbEntity
  8
0-2_本体（蓋）
  6
Continuous
 62
     6
370
     5
100
AcDbCircle
 10
7.031404836342739
 20
311.856978264698
 30
0.0
 40
0.9999999880330441
100
AcDbArc
 50
239.5166320800781
 51
323.9993438720703
  0
ARC
  5
14E
330
1F
100
AcDbEntity
  8
0-2_本体（蓋）
  6
Continuous
 62
     6
370
     5
100
AcDbCircle
 10
-1.976008814228868
 20
316.4464929786482
 30
0.0
 40
0.9999999880330441
100
AcDbArc
 50
161.9990692138672
 51
246.4821624755859
  0
ARC
  5
14F
330
1F
100
AcDbEntity
  8
0-2_本体（蓋）
  6
Continuous
 62
     6
370
     5
100
AcDbCircle
 10
-35.17757258677656
 20
240.1506992317589
 30
0.0
 40
82.20693192058548
100
AcDbArc
 50
59.51733398437501
 51
66.48281860351562
  0
ARC
  5
150
330
1F
100
AcDbEntity
  8
0-2_本体（蓋）
  6
Continuous
 62
     6
370
     5
100
AcDbCircle
 10
-17.19287603283562
 20
321.3908576073848
 30
0.0
 40
0.9999999880330441
100
AcDbArc
 50
257.5166320800781
 51
341.9993438720703
  0
ARC
  5
151
330
1F
100
AcDbEntity
  8
0-2_本体（蓋）
  6
Continuous
 62
     6
370
     5
100
AcDbCircle
 10
-27.17770172679827
 20
322.9723018947769
 30
0.0
 40
0.9999999880330441
100
AcDbArc
 50
179.9990692138672
 51
264.4821624755859
  0
ARC
  5
152
330
1F
100
AcDbEntity
  8
0-2_本体（蓋）
  6
Continuous
 62
     6
370
     5
100
AcDbCircle
 10
-35.17757258677656
 20
240.1508392120014
 30
0.0
 40
82.20693192058548
100
AcDbArc
 50
77.51733398437501
 51
84.48281860351564
  0
ARC
  5
153
330
1F
100
AcDbEntity
  8
0-2_本体（蓋）
  6
Continuous
 62
     6
370
     5
100
AcDbCircle
 10
46.06300572957694
 20
258.1359732042001
 30
0.0
 40
0.9999999880330441
100
AcDbArc
 50
108.0003204345703
 51
192.4830322265625
  0
ARC
  5
154
330
1F
100
AcDbEntity
  8
0-2_本体（蓋）
  6
Continuous
 62
     6
370
     5
100
AcDbCircle
 10
47.5418270016721
 20
249.1504314665222
 30
0.0
 40
0.9999999880330441
100
AcDbArc
 50
186.2087707519532
 51
270.0010070800781
  0
ARC
  5
155
330
1F
100
AcDbEntity
  8
0-2_本体（蓋）
  6
Continuous
 62
     6
370
     5
100
AcDbCircle
 10
-35.17703016333677
 20
240.1512766502593
 30
0.0
 40
82.20693192058548
100
AcDbArc
 50
6.208908081054684
 51
12.482666015625
  0
ARC
  5
156
330
1F
100
AcDbEntity
  8
0-2_本体（蓋）
  6
Continuous
 62
     6
370
     5
100
AcDbCircle
 10
-35.17757258677656
 20
240.1504192712738
 30
0.0
 40
84.39750898206556
100
AcDbArc
 50
0.0
 51
6.804779052734374
  0
ARC
  5
157
330
1F
100
AcDbEntity
  8
0-2_本体（蓋）
  6
Continuous
 62
     6
370
     5
100
AcDbCircle
 10
55.32241881174394
 20
240.1504192712738
 30
0.0
 40
5.000005681542356
100
AcDbArc
 50
90.0
 51
180.0
  0
ARC
  5
158
330
1F
100
AcDbEntity
  8
0-2_本体（蓋）
  6
Continuous
 62
     6
370
     5
100
AcDbCircle
 10
-35.17757258677656
 20
240.1504192712738
 30
0.0
 40
72.49999762870169
100
AcDbArc
 50
0.0
 51
8.267013549804688
  0
ARC
  5
159
330
1F
100
AcDbEntity
  8
0-2_本体（蓋）
  6
Continuous
 62
     6
370
     5
100
AcDbCircle
 10
-130.0458924185363
 20
245.1504260464119
 30
0.0
 40
0.9999999880330441
100
AcDbArc
 50
176.9830017089844
 51
270.0
  0
ARC
  5
15A
330
1F
100
AcDbEntity
  8
0-2_本体（蓋）
  6
Continuous
 62
     6
370
     5
100
AcDbCircle
 10
-128.9858920320589
 20
246.1504274014395
 30
0.0
 40
0.9999999880330441
100
AcDbArc
 50
176.3402404785156
 51
270.0
  0
ARC
  5
15B
330
1F
100
AcDbEntity
  8
0-2_本体（蓋）
  6
Continuous
 62
     6
370
     5
100
AcDbCircle
 10
-35.17757258677656
 20
240.1504192712738
 30
0.0
 40
94.99999749614464
100
AcDbArc
 50
173.9576721191407
 51
176.34033203125
  0
ARC
  5
15C
330
1F
100
AcDbEntity
  8
0-2_本体（蓋）
  6
Continuous
 62
     6
370
     5
100
AcDbCircle
 10
-111.4732788460143
 20
273.352175516655
 30
0.0
 40
0.9999999880330441
100
AcDbArc
 50
252.0006561279297
 51
336.4833679199219
  0
ARC
  5
15D
330
1F
100
AcDbEntity
  8
0-2_本体（蓋）
  6
Continuous
 62
     6
370
     5
100
AcDbCircle
 10
-106.8837466345338
 20
282.3596241622872
 30
0.0
 40
0.9999999880330441
100
AcDbArc
 50
329.5178375244141
 51
54.00093078613283
  0
ARC
  5
15E
330
1F
100
AcDbEntity
  8
0-2_本体（蓋）
  6
Continuous
 62
     6
370
     5
100
AcDbCircle
 10
-35.17757258677656
 20
240.1504192712738
 30
0.0
 40
82.20693192058548
100
AcDbArc
 50
149.5171813964844
 51
156.482666015625
  0
ARC
  5
15F
330
1F
100
AcDbEntity
  8
0-2_本体（蓋）
  6
Continuous
 62
     6
370
     5
100
AcDbCircle
 10
-97.47920903593496
 20
295.3039821337143
 30
0.0
 40
0.9999999880330441
100
AcDbArc
 50
234.0006561279297
 51
318.4833679199218
  0
ARC
  5
160
330
1F
100
AcDbEntity
  8
0-2_本体（蓋）
  6
Continuous
 62
     6
370
     5
100
AcDbCircle
 10
-90.3308379912016
 20
302.4523356809173
 30
0.0
 40
0.9999999880330441
100
AcDbArc
 50
311.5178375244141
 51
36.00093078613283
  0
ARC
  5
161
330
1F
100
AcDbEntity
  8
0-2_本体（蓋）
  6
Continuous
 62
     6
370
     5
100
AcDbCircle
 10
-35.17757258677656
 20
240.1505592515163
 30
0.0
 40
82.20693192058548
100
AcDbArc
 50
131.5171813964844
 51
138.482666015625
  0
ARC
  5
162
330
1F
100
AcDbEntity
  8
0-2_本体（蓋）
  6
Continuous
 62
     6
370
     5
100
AcDbCircle
 10
-77.38658500495643
 20
311.856978264698
 30
0.0
 40
0.9999999880330441
100
AcDbArc
 50
216.0006561279297
 51
300.4833679199218
  0
ARC
  5
163
330
1F
100
AcDbEntity
  8
0-2_本体（蓋）
  6
Continuous
 62
     6
370
     5
100
AcDbCircle
 10
-68.37913635932418
 20
316.4464929786482
 30
0.0
 40
0.9999999880330441
100
AcDbArc
 50
293.5178375244141
 51
18.00093078613283
  0
ARC
  5
164
330
1F
100
AcDbEntity
  8
0-2_本体（蓋）
  6
Continuous
 62
     6
370
     5
100
AcDbCircle
 10
-35.17757258677656
 20
240.1506992317589
 30
0.0
 40
82.20693192058548
100
AcDbArc
 50
113.5171813964844
 51
120.482666015625
  0
ARC
  5
165
330
1F
100
AcDbEntity
  8
0-2_本体（蓋）
  6
Continuous
 62
     6
370
     5
100
AcDbCircle
 10
-53.16226914071746
 20
321.3908576073848
 30
0.0
 40
0.9999999880330441
100
AcDbArc
 50
198.0006561279297
 51
282.4833679199219
  0
ARC
  5
166
330
1F
100
AcDbEntity
  8
0-2_本体（蓋）
  6
Continuous
 62
     6
370
     5
100
AcDbCircle
 10
-43.17744344675481
 20
322.9723018947769
 30
0.0
 40
0.9999999880330441
100
AcDbArc
 50
275.5178375244141
 51
0.0009307861328285
  0
ARC
  5
167
330
1F
100
AcDbEntity
  8
0-2_本体（蓋）
  6
Continuous
 62
     6
370
     5
100
AcDbCircle
 10
-35.17757258677656
 20
240.1508392120014
 30
0.0
 40
82.20693192058548
100
AcDbArc
 50
95.51718139648439
 51
102.482666015625
  0
ARC
  5
168
330
1F
100
AcDbEntity
  8
0-2_本体（蓋）
  6
Continuous
 62
     6
370
     5
100
AcDbCircle
 10
-116.41815090313
 20
258.1359732042002
 30
0.0
 40
0.9999999880330441
100
AcDbArc
 50
347.5169677734374
 51
71.99967956542969
  0
ARC
  5
169
330
1F
100
AcDbEntity
  8
0-2_本体（蓋）
  6
Continuous
 62
     6
370
     5
100
AcDbCircle
 10
-117.8969546776949
 20
249.1504314665223
 30
0.0
 40
0.9999999880330441
100
AcDbArc
 50
269.9989929199219
 51
353.7912292480469
  0
ARC
  5
16A
330
1F
100
AcDbEntity
  8
0-2_本体（蓋）
  6
Continuous
 62
     6
370
     5
100
AcDbCircle
 10
-35.17811501021631
 20
240.1512766502593
 30
0.0
 40
82.20693192058548
100
AcDbArc
 50
167.517333984375
 51
173.7910919189453
  0
ARC
  5
16B
330
1F
100
AcDbEntity
  8
0-2_本体（蓋）
  6
Continuous
 62
     6
370
     5
100
AcDbCircle
 10
-35.17757258677656
 20
240.1504192712738
 30
0.0
 40
84.39750898206556
100
AcDbArc
 50
173.1952209472657
 51
180.0
  0
ARC
  5
16C
330
1F
100
AcDbEntity
  8
0-2_本体（蓋）
  6
Continuous
 62
     6
370
     5
100
AcDbCircle
 10
-125.677563985297
 20
240.1504192712738
 30
0.0
 40
5.000005681542356
100
AcDbArc
 50
0.0
 51
90.0
  0
ARC
  5
16D
330
1F
100
AcDbEntity
  8
0-2_本体（蓋）
  6
Continuous
 62
     6
370
     5
100
AcDbCircle
 10
-35.17757258677656
 20
240.1504192712738
 30
0.0
 40
78.02848668632359
100
AcDbArc
 50
0.0
 51
88.89852905273439
  0
ARC
  5
16E
330
1F
100
AcDbEntity
  8
0-2_本体（蓋）
  6
Continuous
 62
     6
370
     5
100
AcDbCircle
 10
-35.17757258677656
 20
240.1504192712738
 30
0.0
 40
78.02848668632359
100
AcDbArc
 50
91.10147094726568
 51
180.0
  0
ARC
  5
16F
330
1F
100
AcDbEntity
  8
0-2_本体（蓋）
  6
Continuous
 62
     6
370
     5
100
AcDbCircle
 10
-35.1775550892462
 20
318.193323922577
 30
0.0
 40
1.499999982049566
100
AcDbArc
 50
180.0
 51
359.4492645263672
  0
ARC
  5
170
330
1F
100
AcDbEntity
  8
0-2_本体（蓋）
  6
Continuous
 62
     6
370
     5
100
AcDbCircle
 10
-35.17757258677656
 20
240.149929340425
 30
0.0
 40
71.4999918992915
100
AcDbArc
 50
98.97877502441406
 51
111.021011352539
  0
ARC
  5
171
330
1F
100
AcDbEntity
  8
0-2_本体（蓋）
  6
Continuous
 62
     6
370
     5
100
AcDbCircle
 10
-35.17757258677656
 20
240.1504192712738
 30
0.0
 40
72.49999762870169
100
AcDbArc
 50
21.73329162597656
 51
98.26669311523439
  0
ARC
  5
172
330
1F
100
AcDbEntity
  8
0-2_本体（蓋）
  6
Continuous
 62
     6
370
     5
100
AcDbCircle
 10
-35.17757258677656
 20
240.1504192712738
 30
0.0
 40
72.49999762870169
100
AcDbArc
 50
111.7332916259766
 51
180.0
  0
ARC
  5
173
330
1F
100
AcDbEntity
  8
0-2_本体（蓋）
  6
Continuous
 62
     6
370
     5
100
AcDbCircle
 10
-35.17757258677656
 20
240.1504192712738
 30
0.0
 40
84.49998326835484
100
AcDbArc
 50
7.479843139648445
 51
86.73126220703126
  0
ARC
  5
174
330
1F
100
AcDbEntity
  8
0-2_本体（蓋）
  6
Continuous
 62
     6
370
     5
100
AcDbCircle
 10
-35.17757258677656
 20
240.1504192712738
 30
0.0
 40
84.49998326835484
100
AcDbArc
 50
93.26870727539062
 51
172.5201568603516
  0
ARC
  5
175
330
1F
100
AcDbEntity
  8
0-2_本体（蓋）
  6
Continuous
 62
     6
370
     5
100
AcDbCircle
 10
-35.1775550892462
 20
319.0008699416708
 30
0.0
 40
1.499999982049566
100
AcDbArc
 50
190.4199523925782
 51
349.5813598632812
  0
ARC
  5
176
330
1F
100
AcDbEntity
  8
0-0_通り芯
  6
JWW_DASHED1
 62
     3
370
     9
100
AcDbCircle
 10
-35.17755508924622
 20
240.1504367688042
 30
0.0
 40
64.6546868283776
100
AcDbArc
 50
0.0
 51
180.0
  0
LINE
  5
177
330
1F
100
AcDbEntity
  8
0-6
  6
JWW_DASHED1
 62
     2
370
     9
100
AcDbLine
 10
-22.67752940263603
 20
328.1718155105655
 30
0.0
 11
-22.67752940263603
 21
323.7207237589367
 31
0.0
  0
LINE
  5
178
330
1F
100
AcDbEntity
  8
0-6
  6
Continuous
 62
     2
370
     9
100
AcDbLine
 10
-22.67752940263603
 20
323.7207237589367
 30
0.0
 11
-22.67752940263603
 21
321.4018635539528
 31
0.0
  0
LINE
  5
179
330
1F
100
AcDbEntity
  8
0-6
  6
JWW_DASHED1
 62
     2
370
     9
100
AcDbLine
 10
-22.67752940263603
 20
321.4018635539528
 30
0.0
 11
-22.67752940263603
 21
314.6084999017788
 31
0.0
  0
LINE
  5
17A
330
1F
100
AcDbEntity
  8
0-6
  6
JWW_DASHED1
 62
     2
370
     9
100
AcDbLine
 10
-47.67758077585637
 20
328.1718155105655
 30
0.0
 11
-47.67758077585637
 21
323.7207237589367
 31
0.0
  0
LINE
  5
17B
330
1F
100
AcDbEntity
  8
0-6
  6
JWW_DASHED1
 62
     2
370
     9
100
AcDbLine
 10
-47.67758077585637
 20
321.4018635539528
 30
0.0
 11
-47.67758077585638
 21
314.6084999017788
 31
0.0
  0
LINE
  5
17C
330
1F
100
AcDbEntity
  8
0-6
  6
Continuous
 62
     2
370
     9
100
AcDbLine
 10
-47.67758077585637
 20
323.7207237589367
 30
0.0
 11
-47.67758077585637
 21
321.4018635539528
 31
0.0
  0
ARC
  5
17D
330
1F
100
AcDbEntity
  8
0-6
  6
JWW_DASHED1
 62
     2
370
     9
100
AcDbCircle
 10
-44.67755921324326
 20
328.1718155105655
 30
0.0
 40
2.999999964099133
100
AcDbArc
 50
95.95938110351561
 51
180.0
  0
ARC
  5
17E
330
1F
100
AcDbEntity
  8
0-6
  6
JWW_DASHED1
 62
     2
370
     9
100
AcDbCircle
 10
-25.67755096524917
 20
328.1718155105655
 30
0.0
 40
2.999999964099133
100
AcDbArc
 50
0.0
 51
84.04061889648439
  0
ARC
  5
17F
330
1F
100
AcDbEntity
  8
0-6
  6
JWW_DASHED1
 62
     2
370
     9
100
AcDbCircle
 10
-35.17755508924622
 20
237.1663554563079
 30
0.0
 40
94.49999681863085
100
AcDbArc
 50
84.04051208496094
 51
95.95948791503906
  0
ARC
  5
180
330
1F
100
AcDbEntity
  8
0-6
  6
Continuous
 62
     2
370
     9
100
AcDbCircle
 10
-35.17755508924622
 20
240.1504192712738
 30
0.0
 40
59.60050769938465
100
AcDbArc
 50
0.0
 51
180.0
  0
ARC
  5
181
330
1F
100
AcDbEntity
  8
0-6
  6
JWW_DASHED1
 62
     2
370
     9
100
AcDbCircle
 10
-35.17755508924622
 20
240.1504192712738
 30
0.0
 40
75.50002356569739
100
AcDbArc
 50
0.0
 51
180.0
  0
ARC
  5
182
330
1F
100
AcDbEntity
  8
0-6
  6
JWW_DASHED1
 62
     2
370
     9
100
AcDbCircle
 10
-35.17755508924622
 20
240.1504192712738
 30
0.0
 40
74.95046113356659
100
AcDbArc
 50
0.0
 51
180.0
  0
LINE
  5
183
330
1F
100
AcDbEntity
  8
0-A
  6
Continuous
 62
     4
370
     9
100
AcDbLine
 10
55.32227883150137
 20
-76.44664762679392
 30
0.0
 11
56.32243766430179
 21
-76.44664762679392
 31
0.0
  0
LINE
  5
184
330
1F
100
AcDbEntity
  8
0-A
  6
Continuous
 62
     4
370
     9
100
AcDbLine
 10
55.32227883150137
 20
-73.56459441356391
 30
0.0
 11
55.32227883150137
 21
-76.44664762679392
 31
0.0
  0
LINE
  5
185
330
1F
100
AcDbEntity
  8
0-A
  6
Continuous
 62
     4
370
     9
100
AcDbLine
 10
53.32245109674931
 20
-89.44668273968304
 30
0.0
 11
58.32240537929636
 21
-89.44668273968304
 31
0.0
  0
LINE
  5
186
330
1F
100
AcDbEntity
  8
0-A
  6
Continuous
 62
     4
370
     9
100
AcDbLine
 10
52.8224416704703
 20
-88.94667331340409
 30
0.0
 11
58.82241480557531
 21
-88.94667331340409
 31
0.0
  0
LINE
  5
187
330
1F
100
AcDbEntity
  8
0-A
  6
Continuous
 62
     4
370
     9
100
AcDbLine
 10
52.8224416704703
 20
-88.94667331340409
 30
0.0
 11
53.32245109674931
 21
-89.44668273968304
 31
0.0
  0
LINE
  5
188
330
1F
100
AcDbEntity
  8
0-A
  6
Continuous
 62
     4
370
     9
100
AcDbLine
 10
58.82241480557531
 20
-88.94667331340409
 30
0.0
 11
58.32240537929636
 21
-89.44668273968304
 31
0.0
  0
LINE
  5
189
330
1F
100
AcDbEntity
  8
0-A
  6
Continuous
 62
     4
370
     9
100
AcDbLine
 10
58.32240537929636
 20
-77.44659648923059
 30
0.0
 11
58.32240537929636
 21
-89.44668273968304
 31
0.0
  0
LINE
  5
18A
330
1F
100
AcDbEntity
  8
0-A
  6
Continuous
 62
     4
370
     9
100
AcDbLine
 10
53.32245109674931
 20
-77.44659648923059
 30
0.0
 11
53.32245109674931
 21
-89.44668273968304
 31
0.0
  0
LINE
  5
18B
330
1F
100
AcDbEntity
  8
0-A
  6
Continuous
 62
     4
370
     9
100
AcDbLine
 10
52.8224416704703
 20
-77.44659648923059
 30
0.0
 11
52.8224416704703
 21
-88.94667331340409
 31
0.0
  0
LINE
  5
18C
330
1F
100
AcDbEntity
  8
0-A
  6
Continuous
 62
     4
370
     9
100
AcDbLine
 10
58.82241480557531
 20
-77.44659648923059
 30
0.0
 11
58.82241480557531
 21
-88.94667331340409
 31
0.0
  0
LINE
  5
18D
330
1F
100
AcDbEntity
  8
0-A
  6
Continuous
 62
     4
370
     9
100
AcDbLine
 10
56.32243766430179
 20
-73.56466440368521
 30
0.0
 11
56.32243766430179
 21
-76.44664762679392
 31
0.0
  0
LINE
  5
18E
330
1F
100
AcDbEntity
  8
0-A
  6
Continuous
 62
     4
370
     9
100
AcDbLine
 10
50.572399252215
 20
-77.44659648923059
 30
0.0
 11
61.07238723370939
 21
-77.44659648923059
 31
0.0
  0
LINE
  5
18F
330
1F
100
AcDbEntity
  8
0-A
  6
JWW_CENTER1
 62
     4
370
     9
100
AcDbLine
 10
55.82242823802284
 20
-72.33500796327436
 30
0.0
 11
55.82242823802282
 21
-94.33577267015478
 31
0.0
  0
LINE
  5
190
330
1F
100
AcDbEntity
  8
0-3_受枠
  6
Continuous
 62
     7
370
     9
100
AcDbLine
 10
-122.7909439166549
 20
-140.7963350042522
 30
0.0
 11
-109.0039398803222
 21
-138.3655081027833
 31
0.0
  0
LINE
  5
191
330
1F
100
AcDbEntity
  8
0-3_受枠
  6
Continuous
 62
     7
370
     9
100
AcDbLine
 10
-122.0963619532741
 20
-144.7355889991093
 30
0.0
 11
-108.3093229218808
 21
-142.3045521272765
 31
0.0
  0
LINE
  5
192
330
1F
100
AcDbEntity
  8
0-3_受枠
  6
Continuous
 62
     7
370
     9
100
AcDbLine
 10
37.70905484614597
 20
-140.7963350042522
 30
0.0
 11
51.4961288725999
 21
-138.3655081027833
 31
0.0
  0
LINE
  5
193
330
1F
100
AcDbEntity
  8
0-3_受枠
  6
Continuous
 62
     7
370
     9
100
AcDbLine
 10
38.4037767897693
 20
-144.7355889991093
 30
0.0
 11
52.1907108359807
 21
-142.3045521272765
 31
0.0
  0
LINE
  5
194
330
1F
100
AcDbEntity
  8
0-3_受枠
  6
Continuous
 62
     4
370
     9
100
AcDbLine
 10
-117.6775706426066
 20
-143.9564589692468
 30
0.0
 11
-117.6775706426066
 21
-151.8856398067529
 31
0.0
  0
LINE
  5
195
330
1F
100
AcDbEntity
  8
0-3_受枠
  6
Continuous
 62
     4
370
     9
100
AcDbLine
 10
-117.6775706426066
 20
-151.8856398067529
 30
0.0
 11
47.32240797152301
 21
-151.8856398067529
 31
0.0
  0
LINE
  5
196
330
1F
100
AcDbEntity
  8
0-3_受枠
  6
Continuous
 62
     4
370
     9
100
AcDbLine
 10
41.82251425281827
 20
-111.995610076269
 30
0.0
 11
41.82251425281826
 21
-140.0710973677597
 31
0.0
  0
LINE
  5
197
330
1F
100
AcDbEntity
  8
0-3_受枠
  6
Continuous
 62
     4
370
     9
100
AcDbLine
 10
47.32240797152303
 20
-111.995610076269
 30
0.0
 11
47.32240797152301
 21
-139.101314247586
 31
0.0
  0
LINE
  5
198
330
1F
100
AcDbEntity
  8
0-3_受枠
  6
Continuous
 62
     4
370
     9
100
AcDbLine
 10
41.82251425281826
 20
-144.1328340748211
 30
0.0
 11
41.82251425281826
 21
-151.8856398067529
 31
0.0
  0
LINE
  5
199
330
1F
100
AcDbEntity
  8
0-3_受枠
  6
Continuous
 62
     4
370
     9
100
AcDbLine
 10
47.32240797152301
 20
-143.1629109744049
 30
0.0
 11
47.32240797152301
 21
-151.8856398067529
 31
0.0
  0
LINE
  5
19A
330
1F
100
AcDbEntity
  8
0-3_受枠
  6
Continuous
 62
     4
370
     9
100
AcDbLine
 10
-112.1776069337805
 20
-111.995610076269
 30
0.0
 11
-112.1776069337805
 21
-138.9249391420117
 31
0.0
  0
LINE
  5
19B
330
1F
100
AcDbEntity
  8
0-3_受枠
  6
Continuous
 62
     4
370
     9
100
AcDbLine
 10
-112.1776069337805
 20
-142.9867458391943
 30
0.0
 11
-112.1776069337805
 21
-151.8856398067529
 31
0.0
  0
LINE
  5
19C
330
1F
100
AcDbEntity
  8
0-0_通り芯
  6
Continuous
 62
     3
370
     9
100
AcDbLine
 10
66.66473790259812
 20
-73.60931810104884
 30
0.0
 11
66.32248620963838
 21
-71.8856013946661
 31
0.0
  0
LINE
  5
19D
330
1F
100
AcDbEntity
  8
0-0_通り芯
  6
Continuous
 62
     3
370
     9
100
AcDbLine
 10
-105.6775543822753
 20
-108.8855990380963
 30
0.0
 11
35.3224617013131
 21
-108.8855990380964
 31
0.0
  0
LINE
  5
19E
330
1F
100
AcDbEntity
  8
0-0_通り芯
  6
Continuous
 62
     3
370
     9
100
AcDbLine
 10
35.3224617013131
 20
-97.88560163032311
 30
0.0
 11
35.3224617013131
 21
-108.8855990380964
 31
0.0
  0
LINE
  5
19F
330
1F
100
AcDbEntity
  8
0-0_通り芯
  6
Continuous
 62
     3
370
     9
100
AcDbLine
 10
-105.6775543822753
 20
-97.88560163032307
 30
0.0
 11
35.3224617013131
 21
-97.88560163032311
 31
0.0
  0
LINE
  5
1A0
330
1F
100
AcDbEntity
  8
0-0_通り芯
  6
Continuous
 62
     3
370
     9
100
AcDbLine
 10
34.03744307498589
 20
-131.8855427160796
 30
0.0
 11
32.51074855994908
 21
-130.358918191164
 31
0.0
  0
LINE
  5
1A1
330
1F
100
AcDbEntity
  8
0-0_通り芯
  6
Continuous
 62
     3
370
     9
100
AcDbLine
 10
32.51074855994908
 20
-130.358918191164
 30
0.0
 11
31.83968327731156
 21
-108.8855990380964
 31
0.0
  0
LINE
  5
1A2
330
1F
100
AcDbEntity
  8
0-0_通り芯
  6
Continuous
 62
     3
370
     9
100
AcDbLine
 10
34.03744307498589
 20
-131.8855427160796
 30
0.0
 11
33.31864452964923
 21
-108.8855990380964
 31
0.0
  0
LINE
  5
1A3
330
1F
100
AcDbEntity
  8
0-0_通り芯
  6
Continuous
 62
     3
370
     9
100
AcDbLine
 10
32.51074855994908
 20
-130.358918191164
 30
0.0
 11
-102.865876235972
 21
-130.358918191164
 31
0.0
  0
LINE
  5
1A4
330
1F
100
AcDbEntity
  8
0-0_通り芯
  6
Continuous
 62
     3
370
     9
100
AcDbLine
 10
83.93179074820318
 20
-72.76159775235195
 30
0.0
 11
84.82234505111103
 21
-79.88554224476567
 31
0.0
  0
LINE
  5
1A5
330
1F
100
AcDbEntity
  8
0-0_通り芯
  6
Continuous
 62
     3
370
     9
100
AcDbLine
 10
83.82236119361374
 20
-80.88556109732357
 30
0.0
 11
84.82248503135355
 21
-79.8856122348869
 31
0.0
  0
LINE
  5
1A6
330
1F
100
AcDbEntity
  8
0-0_通り芯
  6
Continuous
 62
     3
370
     9
100
AcDbLine
 10
83.82236119361374
 20
-80.88556109732357
 30
0.0
 11
78.82240691106665
 21
-80.88556109732357
 31
0.0
  0
LINE
  5
1A7
330
1F
100
AcDbEntity
  8
0-3_受枠
  6
Continuous
 62
     4
370
     9
100
AcDbLine
 10
41.82251425281827
 20
-111.995610076269
 30
0.0
 11
47.32240797152303
 21
-111.995610076269
 31
0.0
  0
LINE
  5
1A8
330
1F
100
AcDbEntity
  8
0-0_通り芯
  6
Continuous
 62
     3
370
     9
100
AcDbLine
 10
58.32240537929636
 20
-92.38549794125456
 30
0.0
 11
53.32252108687053
 21
-92.38549794125456
 31
0.0
  0
LINE
  5
1A9
330
1F
100
AcDbEntity
  8
0-0_通り芯
  6
Continuous
 62
     3
370
     9
100
AcDbLine
 10
58.82241480557531
 20
-91.88555850509688
 30
0.0
 11
52.8224416704703
 21
-91.88555850509688
 31
0.0
  0
LINE
  5
1AA
330
1F
100
AcDbEntity
  8
0-0_通り芯
  6
Continuous
 62
     3
370
     9
100
AcDbLine
 10
58.32240537929636
 20
-92.38549794125456
 30
0.0
 11
55.82242823802282
 21
-93.8289042119924
 31
0.0
  0
LINE
  5
1AB
330
1F
100
AcDbEntity
  8
0-0_通り芯
  6
Continuous
 62
     3
370
     9
100
AcDbLine
 10
53.32252108687053
 20
-92.38549794125456
 30
0.0
 11
55.82242823802282
 21
-93.8289042119924
 31
0.0
  0
LINE
  5
1AC
330
1F
100
AcDbEntity
  8
0-3_受枠
  6
Continuous
 62
     4
370
     9
100
AcDbLine
 10
-116.2632102721915
 20
-111.8855156155276
 30
0.0
 11
-117.6775706426066
 21
-111.8855156155276
 31
0.0
  0
LINE
  5
1AD
330
1F
100
AcDbEntity
  8
0-3_受枠
  6
Continuous
 62
     4
370
     9
100
AcDbLine
 10
-117.6775706426066
 20
-111.8855156155276
 30
0.0
 11
-117.6775706426066
 21
-139.8947922523066
 31
0.0
  0
LINE
  5
1AE
330
1F
100
AcDbEntity
  8
0-0_通り芯
  6
Continuous
 62
     3
370
     9
100
AcDbLine
 10
61.88791212662681
 20
-83.56835243532733
 30
0.0
 11
63.32249964208592
 21
-71.8856013946661
 31
0.0
  0
LINE
  5
1AF
330
1F
100
AcDbEntity
  8
0-0_通り芯
  6
Continuous
 62
     3
370
     9
100
AcDbLine
 10
41.32250482653932
 20
-111.8855156155276
 30
0.0
 11
41.82244426269703
 21
-111.8855156155276
 31
0.0
  0
LINE
  5
1B0
330
1F
100
AcDbEntity
  8
0-0_通り芯
  6
Continuous
 62
     3
370
     9
100
AcDbLine
 10
42.69193153910571
 20
-100.4009765982737
 30
0.0
 11
41.82244426269703
 21
-111.8855156155276
 31
0.0
  0
LINE
  5
1B1
330
1F
100
AcDbEntity
  8
0-0_通り芯
  6
Continuous
 62
     3
370
     9
100
AcDbLine
 10
-132.8671767089826
 20
-78.48475995787497
 30
0.0
 11
-153.1772950417755
 21
-71.88560139466605
 31
0.0
  0
LINE
  5
1B2
330
1F
100
AcDbEntity
  8
0-0_通り芯
  6
Continuous
 62
     3
370
     9
100
AcDbLine
 10
-137.0197430959087
 20
-73.60931810104879
 30
0.0
 11
-136.6775089004794
 21
-71.88560139466605
 31
0.0
  0
LINE
  5
1B3
330
1F
100
AcDbEntity
  8
0-0_通り芯
  6
Continuous
 62
     3
370
     9
100
AcDbLine
 10
-105.6775193872147
 20
-97.88560163032307
 30
0.0
 11
-105.6775193872147
 21
-108.8855990380963
 31
0.0
  0
LINE
  5
1B4
330
1F
100
AcDbEntity
  8
0-0_通り芯
  6
Continuous
 62
     3
370
     9
100
AcDbLine
 10
-104.3924657658269
 20
-131.8855427160796
 30
0.0
 11
-102.8657712507901
 21
-130.358918191164
 31
0.0
  0
LINE
  5
1B5
330
1F
100
AcDbEntity
  8
0-0_通り芯
  6
Continuous
 62
     3
370
     9
100
AcDbLine
 10
-102.8657712507901
 20
-130.358918191164
 30
0.0
 11
-102.1947059681525
 21
-108.8855990380963
 31
0.0
  0
LINE
  5
1B6
330
1F
100
AcDbEntity
  8
0-0_通り芯
  6
Continuous
 62
     3
370
     9
100
AcDbLine
 10
-104.3924657658269
 20
-131.8855427160796
 30
0.0
 11
-103.6737022155509
 21
-108.8855990380963
 31
0.0
  0
LINE
  5
1B7
330
1F
100
AcDbEntity
  8
0-0_通り芯
  6
Continuous
 62
     3
370
     9
100
AcDbLine
 10
-154.2868834291654
 20
-72.76159775235189
 30
0.0
 11
-155.1774027370126
 21
-79.88554224476562
 31
0.0
  0
LINE
  5
1B8
330
1F
100
AcDbEntity
  8
0-0_通り芯
  6
Continuous
 62
     3
370
     9
100
AcDbLine
 10
-154.1774538745759
 20
-80.88556109732352
 30
0.0
 11
-155.1775077221945
 21
-79.88561223488686
 31
0.0
  0
LINE
  5
1B9
330
1F
100
AcDbEntity
  8
0-0_通り芯
  6
Continuous
 62
     3
370
     9
100
AcDbLine
 10
-154.1774538745759
 20
-80.88556109732352
 30
0.0
 11
-149.1774995920289
 21
-80.88556109732352
 31
0.0
  0
LINE
  5
1BA
330
1F
100
AcDbEntity
  8
0-0_通り芯
  6
Continuous
 62
     3
370
     9
100
AcDbLine
 10
-138.3444636185205
 20
-80.91096751134077
 30
0.0
 11
-140.6577071162733
 21
-80.15934359913341
 31
0.0
  0
LINE
  5
1BB
330
1F
100
AcDbEntity
  8
0-0_通り芯
  6
Continuous
 62
     3
370
     9
100
AcDbLine
 10
-132.2429698125284
 20
-83.56835243532728
 30
0.0
 11
-133.6775223329269
 21
-71.88560139466605
 31
0.0
  0
LINE
  5
1BC
330
1F
100
AcDbEntity
  8
0-0_通り芯
  6
Continuous
 62
     3
370
     9
100
AcDbLine
 10
-135.6775250429821
 20
-88.41887780898494
 30
0.0
 11
-136.2938755483249
 21
-83.39848641103012
 31
0.0
  0
LINE
  5
1BD
330
1F
100
AcDbEntity
  8
0-0_通り芯
  6
Continuous
 62
     3
370
     9
100
AcDbLine
 10
-112.1775369436593
 20
-111.8855156155276
 30
0.0
 11
-111.4275228042408
 21
-126.8855184434113
 31
0.0
  0
LINE
  5
1BE
330
1F
100
AcDbEntity
  8
0-0_通り芯
  6
JWW_DASHED1
 62
     3
370
     9
100
AcDbLine
 10
-111.6775275173803
 20
-111.8855156155276
 30
0.0
 11
-110.9275133779619
 21
-126.8855184434113
 31
0.0
  0
LINE
  5
1BF
330
1F
100
AcDbEntity
  8
0-0_通り芯
  6
JWW_DASHED1
 62
     3
370
     9
100
AcDbLine
 10
-113.3085423081546
 20
-96.94675414374606
 30
0.0
 11
-112.1775369436593
 21
-111.8855156155276
 31
0.0
  0
LINE
  5
1C0
330
1F
100
AcDbEntity
  8
0-0_通り芯
  6
JWW_DASHED1
 62
     3
370
     9
100
AcDbLine
 10
-114.6996309632509
 20
-95.5636093674128
 30
0.0
 11
-129.2180317667469
 21
-94.54840265854158
 31
0.0
  0
LINE
  5
1C1
330
1F
100
AcDbEntity
  8
0-0_通り芯
  6
Continuous
 62
     3
370
     9
100
AcDbLine
 10
-112.1775369436593
 20
-111.8855156155276
 30
0.0
 11
-117.6775006524853
 21
-111.8855156155276
 31
0.0
  0
LINE
  5
1C2
330
1F
100
AcDbEntity
  8
0-0_通り芯
  6
JWW_DASHED1
 62
     3
370
     9
100
AcDbLine
 10
-111.6775275173803
 20
-111.8855156155276
 30
0.0
 11
-112.1775369436593
 21
-111.8855156155276
 31
0.0
  0
LINE
  5
1C3
330
1F
100
AcDbEntity
  8
0-0_通り芯
  6
Continuous
 62
     3
370
     9
100
AcDbLine
 10
-111.4275228042408
 20
-126.8855184434113
 30
0.0
 11
-110.9275133779619
 21
-126.8855184434113
 31
0.0
  0
LINE
  5
1C4
330
1F
100
AcDbEntity
  8
0-0_通り芯
  6
JWW_HOJO
 62
     3
370
     9
100
AcDbLine
 10
29.47993134398171
 20
-97.88560163032311
 30
0.0
 11
29.32248856620815
 21
-98.88555049275973
 31
0.0
  0
LINE
  5
1C5
330
1F
100
AcDbEntity
  8
0-0_通り芯
  6
JWW_HOJO
 62
     3
370
     9
100
AcDbLine
 10
-99.83498902988336
 20
-97.88560163032307
 30
0.0
 11
-99.67754625210978
 21
-98.88555049275968
 31
0.0
  0
LINE
  5
1C6
330
1F
100
AcDbEntity
  8
0-0_通り芯
  6
JWW_HOJO
 62
     3
370
     9
100
AcDbLine
 10
-99.67754625210978
 20
-98.88555049275968
 30
0.0
 11
29.32248856620815
 21
-98.88555049275973
 31
0.0
  0
LINE
  5
1C7
330
1F
100
AcDbEntity
  8
0-0_通り芯
  6
Continuous
 62
     3
370
     9
100
AcDbLine
 10
40.41753255865205
 20
-129.9854509041226
 30
0.0
 11
41.32250482653932
 21
-111.8855156155276
 31
0.0
  0
LINE
  5
1C8
330
1F
100
AcDbEntity
  8
0-0_通り芯
  6
Continuous
 62
     3
370
     9
100
AcDbLine
 10
-108.7750371887425
 20
-131.8855427160796
 30
0.0
 11
38.41997950284092
 21
-131.8855427160796
 31
0.0
  0
LINE
  5
1C9
330
1F
100
AcDbEntity
  8
0-0_通り芯
  6
Continuous
 62
     3
370
     9
100
AcDbLine
 10
-110.772555249493
 20
-129.9854509041226
 30
0.0
 11
-110.9275133779619
 21
-126.8855184434113
 31
0.0
  0
LINE
  5
1CA
330
1F
100
AcDbEntity
  8
0-0_通り芯
  6
Continuous
 62
     3
370
     9
100
AcDbLine
 10
-100.5537175850987
 20
-93.32091591188978
 30
0.0
 11
-99.83498902988336
 21
-97.88560163032307
 31
0.0
  0
LINE
  5
1CB
330
1F
100
AcDbEntity
  8
0-0_通り芯
  6
Continuous
 62
     3
370
     9
100
AcDbLine
 10
-101.4718130007222
 20
-92.47886476301493
 30
0.0
 11
-120.1650895422959
 21
-91.17172925836961
 31
0.0
  0
LINE
  5
1CC
330
1F
100
AcDbEntity
  8
0-0_通り芯
  6
JWW_DASHED1
 62
     3
370
     9
100
AcDbLine
 10
61.35227772862669
 20
-87.93104666380523
 30
0.0
 11
61.88791212662681
 21
-83.56845742050925
 31
0.0
  0
LINE
  5
1CD
330
1F
100
AcDbEntity
  8
0-0_通り芯
  6
JWW_DASHED1
 62
     3
370
     9
100
AcDbLine
 10
58.58388847232243
 20
-90.5581258652863
 30
0.0
 11
46.82246853536536
 21
-91.38064977032977
 31
0.0
  0
LINE
  5
1CE
330
1F
100
AcDbEntity
  8
0-0_通り芯
  6
Continuous
 62
     3
370
     9
100
AcDbLine
 10
44.54673974260776
 20
-98.55680689320317
 30
0.0
 11
58.49052165056201
 21
-97.58177451393496
 31
0.0
  0
LINE
  5
1CF
330
1F
100
AcDbEntity
  8
0-0_通り芯
  6
JWW_DASHED1
 62
     3
370
     9
100
AcDbLine
 10
42.92083423068537
 20
-97.37761333022054
 30
0.0
 11
42.69193153910571
 21
-100.4009765982737
 31
0.0
  0
LINE
  5
1D0
330
1F
100
AcDbEntity
  8
0-0_通り芯
  6
JWW_DASHED1
 62
     3
370
     9
100
AcDbLine
 10
44.7756774292481
 20
-95.53351361527123
 30
0.0
 11
58.8630090759059
 21
-94.54840265854162
 31
0.0
  0
LINE
  5
1D1
330
1F
100
AcDbEntity
  8
0-0_通り芯
  6
JWW_DASHED1
 62
     3
370
     9
100
AcDbLine
 10
-114.3253587898149
 20
-101.8856070504334
 30
0.0
 11
-120.0350129019348
 21
-101.8856070504334
 31
0.0
  0
LINE
  5
1D2
330
1F
100
AcDbEntity
  8
0-0_通り芯
  6
Continuous
 62
     3
370
     9
100
AcDbLine
 10
-118.5425085611333
 20
-103.2363464006235
 30
0.0
 11
-117.6775006524853
 21
-111.8855156155276
 31
0.0
  0
LINE
  5
1D3
330
1F
100
AcDbEntity
  8
0-0_通り芯
  6
Continuous
 62
     3
370
     9
100
AcDbLine
 10
-133.8675455121468
 20
-100.6059776634432
 30
0.0
 11
-135.6775250429821
 21
-88.41887780898494
 31
0.0
  0
LINE
  5
1D4
330
1F
100
AcDbEntity
  8
0-0_通り芯
  6
Continuous
 62
     3
370
     9
100
AcDbLine
 10
60.39915225731277
 20
-84.885566517434
 30
0.0
 11
58.32240537929636
 21
-84.885566517434
 31
0.0
  0
LINE
  5
1D5
330
1F
100
AcDbEntity
  8
0-0_通り芯
  6
Continuous
 62
     3
370
     9
100
AcDbLine
 10
67.98944092767954
 20
-80.91096751134083
 30
0.0
 11
70.30268442543235
 21
-80.15934359913345
 31
0.0
  0
LINE
  5
1D6
330
1F
100
AcDbEntity
  8
0-0_通り芯
  6
Continuous
 62
     3
370
     9
100
AcDbLine
 10
64.95008491691851
 20
-91.45186471871143
 30
0.0
 11
65.93887035501427
 21
-83.39862639127269
 31
0.0
  0
LINE
  5
1D7
330
1F
100
AcDbEntity
  8
0-0_通り芯
  6
Continuous
 62
     3
370
     9
100
AcDbLine
 10
70.53435172680179
 20
-75.87811787180178
 30
0.0
 11
82.82223735587394
 21
-71.8856013946661
 31
0.0
  0
LINE
  5
1D8
330
1F
100
AcDbEntity
  8
0-0_通り芯
  6
JWW_DASHED1
 62
     3
370
     9
100
AcDbLine
 10
62.5120840280204
 20
-78.48475995787501
 30
0.0
 11
70.53435172680179
 21
-75.87811787180178
 31
0.0
  0
LINE
  5
1D9
330
1F
100
AcDbEntity
  8
0-0_通り芯
  6
Continuous
 62
     3
370
     9
100
AcDbLine
 10
49.9300999094152
 20
-84.885566517434
 30
0.0
 11
53.32252108687053
 21
-84.885566517434
 31
0.0
  0
LINE
  5
1DA
330
1F
100
AcDbEntity
  8
0-0_通り芯
  6
Continuous
 62
     3
370
     9
100
AcDbLine
 10
48.4964922556537
 20
-85.94416710148622
 30
0.0
 11
46.82246853536536
 21
-91.38064977032977
 31
0.0
  0
LINE
  5
1DB
330
1F
100
AcDbEntity
  8
0-0_通り芯
  6
Continuous
 62
     3
370
     9
100
AcDbLine
 10
-121.4883227748308
 20
-90.13489560202912
 30
0.0
 11
-122.8427016113264
 21
-85.92603966007992
 31
0.0
  0
LINE
  5
1DC
330
1F
100
AcDbEntity
  8
0-0_通り芯
  6
Continuous
 62
     3
370
     9
100
AcDbLine
 10
-139.6774254779106
 20
-119.8854564656271
 30
0.0
 11
-139.6774254779106
 21
-125.8854995908534
 31
0.0
  0
LINE
  5
1DD
330
1F
100
AcDbEntity
  8
0-0_通り芯
  6
Continuous
 62
     3
370
     9
100
AcDbLine
 10
-125.5024661994357
 20
-95.68553215864713
 30
0.0
 11
-131.8524249358996
 21
-95.68553215864713
 31
0.0
  0
LINE
  5
1DE
330
1F
100
AcDbEntity
  8
0-0_通り芯
  6
Continuous
 62
     3
370
     9
100
AcDbLine
 10
-125.5024661994357
 20
-95.68553215864713
 30
0.0
 11
-126.3175711516256
 21
-94.88554507264932
 31
0.0
  0
LINE
  5
1DF
330
1F
100
AcDbEntity
  8
0-0_通り芯
  6
Continuous
 62
     3
370
     9
100
AcDbLine
 10
-131.0374949590128
 20
-94.88554507264932
 30
0.0
 11
-131.8524249358996
 21
-95.68553215864713
 31
0.0
  0
LINE
  5
1E0
330
1F
100
AcDbEntity
  8
0-0_通り芯
  6
Continuous
 62
     3
370
     9
100
AcDbLine
 10
-126.3175711516256
 20
-94.88554507264932
 30
0.0
 11
-131.0374949590128
 21
-94.88554507264932
 31
0.0
  0
LINE
  5
1E1
330
1F
100
AcDbEntity
  8
0-0_通り芯
  6
Continuous
 62
     3
370
     9
100
AcDbLine
 10
-133.6773823526844
 20
-119.8854564656271
 30
0.0
 11
-139.6774254779106
 21
-119.8854564656271
 31
0.0
  0
LINE
  5
1E2
330
1F
100
AcDbEntity
  8
0-0_通り芯
  6
Continuous
 62
     3
370
     9
100
AcDbLine
 10
-125.6773365174029
 20
-117.8854887506325
 30
0.0
 11
-125.6773365174029
 21
-104.885593617986
 31
0.0
  0
LINE
  5
1E3
330
1F
100
AcDbEntity
  8
0-0_通り芯
  6
Continuous
 62
     3
370
     9
100
AcDbLine
 10
-133.6773823526844
 20
-125.8854995908534
 30
0.0
 11
-139.6774254779106
 21
-125.8854995908534
 31
0.0
  0
LINE
  5
1E4
330
1F
100
AcDbEntity
  8
0-0_通り芯
  6
Continuous
 62
     3
370
     9
100
AcDbLine
 10
-131.6773796426292
 20
-117.8854887506325
 30
0.0
 11
-131.6773796426292
 21
-104.885593617986
 31
0.0
  0
LINE
  5
1E5
330
1F
100
AcDbEntity
  8
0-0_通り芯
  6
Continuous
 62
     3
370
     9
100
AcDbLine
 10
-131.0374949590128
 20
-104.885593617986
 30
0.0
 11
-131.0374949590128
 21
-93.88552622009142
 31
0.0
  0
LINE
  5
1E6
330
1F
100
AcDbEntity
  8
0-0_通り芯
  6
Continuous
 62
     3
370
     9
100
AcDbLine
 10
-126.3175711516256
 20
-104.885593617986
 30
0.0
 11
-126.3175711516256
 21
-93.88552622009142
 31
0.0
  0
LINE
  5
1E7
330
1F
100
AcDbEntity
  8
0-0_通り芯
  6
Continuous
 62
     3
370
     9
100
AcDbLine
 10
-125.5024661994357
 20
-104.885593617986
 30
0.0
 11
-125.5024661994357
 21
-95.68553215864713
 31
0.0
  0
LINE
  5
1E8
330
1F
100
AcDbEntity
  8
0-0_通り芯
  6
Continuous
 62
     3
370
     9
100
AcDbLine
 10
-131.8524249358996
 20
-104.885593617986
 30
0.0
 11
-131.8524249358996
 21
-95.68553215864713
 31
0.0
  0
LINE
  5
1E9
330
1F
100
AcDbEntity
  8
0-0_通り芯
  6
Continuous
 62
     3
370
     9
100
AcDbLine
 10
-125.5024661994357
 20
-104.885593617986
 30
0.0
 11
-131.8524249358996
 21
-104.885593617986
 31
0.0
  0
LINE
  5
1EA
330
1F
100
AcDbEntity
  8
0-0_通り芯
  6
JWW_CENTER1
 62
     3
370
     9
100
AcDbLine
 10
-133.6775223329269
 20
-122.8855130233008
 30
0.0
 11
-140.8389815303358
 21
-122.8855130233008
 31
0.0
  0
LINE
  5
1EB
330
1F
100
AcDbEntity
  8
0-0_通り芯
  6
Continuous
 62
     3
370
     9
100
AcDbLine
 10
-126.3175711516256
 20
-93.88552622009142
 30
0.0
 11
-131.0374949590128
 21
-93.88552622009142
 31
0.0
  0
LINE
  5
1EC
330
1F
100
AcDbEntity
  8
0-0_通り芯
  6
Continuous
 62
     3
370
     9
100
AcDbLine
 10
-131.0374599639522
 20
-93.88552622009142
 30
0.0
 11
-128.6774980602586
 21
-92.52302852952974
 31
0.0
  0
LINE
  5
1ED
330
1F
100
AcDbEntity
  8
0-0_通り芯
  6
Continuous
 62
     3
370
     9
100
AcDbLine
 10
-126.3175711516256
 20
-93.88552622009142
 30
0.0
 11
-128.6774980602586
 21
-92.52302852952974
 31
0.0
  0
LINE
  5
1EE
330
1F
100
AcDbEntity
  8
0-0_通り芯
  6
JWW_CENTER1
 62
     3
370
     9
100
AcDbLine
 10
-128.6774980602586
 20
-117.8854887506325
 30
0.0
 11
-128.6774980602586
 21
-92.158659958252
 31
0.0
  0
LINE
  5
1EF
330
1F
100
AcDbEntity
  8
0-0_通り芯
  6
Continuous
 62
     3
370
     9
100
AcDbLine
 10
-132.3838599266241
 20
-101.8856070504334
 30
0.0
 11
-131.0374949590128
 21
-101.8856070504334
 31
0.0
  0
LINE
  5
1F0
330
1F
100
AcDbEntity
  8
0-0_通り芯
  6
Continuous
 62
     3
370
     9
100
AcDbLine
 10
-126.3175711516256
 20
-101.8856070504334
 30
0.0
 11
-120.0350129019348
 21
-101.8856070504334
 31
0.0
  0
LINE
  5
1F1
330
1F
100
AcDbEntity
  8
0-0_通り芯
  6
Continuous
 62
     3
370
     9
100
AcDbLine
 10
-130.7541749481537
 20
-84.88556651743394
 30
0.0
 11
-124.2705700751445
 21
-84.88556651743394
 31
0.0
  0
LINE
  5
1F2
330
1F
100
AcDbEntity
  8
0-0_通り芯
  6
JWW_DASHED1
 62
     3
370
     9
100
AcDbLine
 10
-128.938946158224
 20
-90.55812586528626
 30
0.0
 11
-120.1650895422959
 21
-91.17165926824836
 31
0.0
  0
LINE
  5
1F3
330
1F
100
AcDbEntity
  8
0-0_通り芯
  6
JWW_DASHED1
 62
     3
370
     9
100
AcDbLine
 10
-131.7073004194677
 20
-87.93104666380519
 30
0.0
 11
-132.2429698125284
 21
-83.56845742050919
 31
0.0
  0
LINE
  5
1F4
330
1F
100
AcDbEntity
  8
0-A
  6
JWW_PHANTOM1
 62
     4
370
     9
100
AcDbLine
 10
-106.3473948377909
 20
-21.55990460412556
 30
0.0
 11
-107.1351686476289
 21
-20.61475800663521
 31
0.0
  0
LINE
  5
1F5
330
1F
100
AcDbEntity
  8
0-A
  6
JWW_PHANTOM1
 62
     4
370
     9
100
AcDbLine
 10
-106.7326904553252
 20
-25.8024957845219
 30
0.0
 11
-107.6778020577549
 21
-26.59016460917802
 31
0.0
  0
LINE
  5
1F6
330
1F
100
AcDbEntity
  8
0-A
  6
JWW_PHANTOM1
 62
     4
370
     9
100
AcDbLine
 10
-106.7326904553252
 20
-25.8024957845219
 30
0.0
 11
-106.3473948377909
 21
-21.55990460412556
 31
0.0
  0
LINE
  5
1F7
330
1F
100
AcDbEntity
  8
0-A
  6
JWW_PHANTOM1
 62
     4
370
     9
100
AcDbLine
 10
-107.6778020577549
 20
-26.59016460917802
 30
0.0
 11
-107.1351686476289
 21
-20.61475800663521
 31
0.0
  0
LINE
  5
1F8
330
1F
100
AcDbEntity
  8
0-A
  6
JWW_PHANTOM1
 62
     4
370
     9
100
AcDbLine
 10
-118.2195741416413
 20
-19.60816008267891
 30
0.0
 11
-107.1351686476289
 21
-20.61475800663521
 31
0.0
  0
LINE
  5
1F9
330
1F
100
AcDbEntity
  8
0-A
  6
JWW_PHANTOM1
 62
     4
370
     9
100
AcDbLine
 10
-118.2982430379371
 20
-20.47463778387338
 30
0.0
 11
-106.3473948377909
 21
-21.55990460412556
 31
0.0
  0
LINE
  5
1FA
330
1F
100
AcDbEntity
  8
0-A
  6
JWW_PHANTOM1
 62
     4
370
     9
100
AcDbLine
 10
-118.6835386554715
 20
-24.71715897414849
 30
0.0
 11
-106.7326904553252
 21
-25.8024957845219
 31
0.0
  0
LINE
  5
1FB
330
1F
100
AcDbEntity
  8
0-A
  6
JWW_PHANTOM1
 62
     4
370
     9
100
AcDbLine
 10
-118.7622075517674
 20
-25.58356668522173
 30
0.0
 11
-107.6778020577549
 21
-26.59016460917802
 31
0.0
  0
LINE
  5
1FC
330
1F
100
AcDbEntity
  8
0-A
  6
JWW_PHANTOM1
 62
     4
370
     9
100
AcDbLine
 10
-120.1208557856597
 20
-17.60952217998829
 30
0.0
 11
-118.0386496781851
 21
-17.61638121187172
 31
0.0
  0
LINE
  5
1FD
330
1F
100
AcDbEntity
  8
0-A
  6
JWW_PHANTOM1
 62
     4
370
     9
100
AcDbLine
 10
-122.6304915636671
 20
-25.05769590913735
 30
0.0
 11
-122.1192837179866
 21
-19.42863542164786
 31
0.0
  0
LINE
  5
1FE
330
1F
100
AcDbEntity
  8
0-A
  6
JWW_PHANTOM1
 62
     4
370
     9
100
AcDbLine
 10
-118.9430620251023
 20
-27.57534555602892
 30
0.0
 11
-118.0386496781851
 21
-17.61638121187172
 31
0.0
  0
LINE
  5
1FF
330
1F
100
AcDbEntity
  8
0-A
  6
JWW_PHANTOM1
 62
     4
370
     9
100
AcDbLine
 10
-120.9924427657062
 20
-27.20698754783938
 30
0.0
 11
-118.9430620251023
 21
-27.57534555602892
 31
0.0
  0
LINE
  5
200
330
1F
100
AcDbEntity
  8
0-A
  6
JWW_PHANTOM1
 62
     4
370
     9
100
AcDbLine
 10
-124.1926360751219
 20
-22.07804147181076
 30
0.0
 11
-103.5561538068953
 21
-23.95209695865923
 31
0.0
  0
LINE
  5
201
330
1F
100
AcDbEntity
  8
0-0_通り芯
  6
JWW_CENTER1
 62
     3
370
     9
100
AcDbLine
 10
-35.17755508924625
 20
-10.92252601459854
 30
0.0
 11
-35.17755508924628
 21
-158.1491257484004
 31
0.0
  0
LINE
  5
202
330
1F
100
AcDbEntity
  8
0-0_通り芯
  6
Continuous
 62
     3
370
     9
100
AcDbLine
 10
-153.2945284948854
 20
-71.88560139466605
 30
0.0
 11
-119.0150993574088
 21
-71.88560139466605
 31
0.0
  0
LINE
  5
203
330
1F
100
AcDbEntity
  8
0-0_通り芯
  6
Continuous
 62
     3
370
     9
100
AcDbLine
 10
82.93947080898386
 20
-71.8856013946661
 30
0.0
 11
48.65991918879502
 21
-71.8856013946661
 31
0.0
  0
LINE
  5
204
330
1F
100
AcDbEntity
  8
0-0_通り芯
  6
Continuous
 62
     3
370
     9
100
AcDbLine
 10
58.82241480557531
 20
-88.94667331340409
 30
0.0
 11
58.82241480557531
 21
-91.88555850509688
 31
0.0
  0
LINE
  5
205
330
1F
100
AcDbEntity
  8
0-0_通り芯
  6
Continuous
 62
     3
370
     9
100
AcDbLine
 10
58.32240537929636
 20
-89.44668273968304
 30
0.0
 11
58.32240537929636
 21
-92.38549794125456
 31
0.0
  0
LINE
  5
206
330
1F
100
AcDbEntity
  8
0-0_通り芯
  6
Continuous
 62
     3
370
     9
100
AcDbLine
 10
53.32252108687053
 20
-89.44675272980427
 30
0.0
 11
53.32252108687053
 21
-92.38549794125456
 31
0.0
  0
LINE
  5
207
330
1F
100
AcDbEntity
  8
0-0_通り芯
  6
Continuous
 62
     3
370
     9
100
AcDbLine
 10
52.8224416704703
 20
-88.94667331340409
 30
0.0
 11
52.8224416704703
 21
-91.88555850509688
 31
0.0
  0
LINE
  5
208
330
1F
100
AcDbEntity
  8
0-0_通り芯
  6
Continuous
 62
     3
370
     9
100
AcDbLine
 10
30.19869489425774
 20
-93.32091591188983
 30
0.0
 11
29.47993134398171
 21
-97.88560163032311
 31
0.0
  0
LINE
  5
209
330
1F
100
AcDbEntity
  8
0-0_通り芯
  6
Continuous
 62
     3
370
     9
100
AcDbLine
 10
31.11668532469933
 20
-92.47886476301497
 30
0.0
 11
46.82246853536536
 21
-91.38064977032977
 31
0.0
  0
LINE
  5
20A
330
1F
100
AcDbEntity
  8
0-2_本体（蓋）
  6
Continuous
 62
     6
370
     5
100
AcDbLine
 10
60.82238252056987
 20
-78.885593382329
 30
0.0
 11
59.82243365813321
 21
-77.84120079289247
 31
0.0
  0
LINE
  5
20B
330
1F
100
AcDbEntity
  8
0-2_本体（蓋）
  6
Continuous
 62
     6
370
     5
100
AcDbLine
 10
51.32241339163345
 20
-78.47265166689706
 30
0.0
 11
50.32239453907555
 21
-77.42818908733929
 31
0.0
  0
LINE
  5
20C
330
1F
100
AcDbEntity
  8
0-2_本体（蓋）
  6
Continuous
 62
     6
370
     5
100
AcDbLine
 10
51.32241339163345
 20
-78.47265166689706
 30
0.0
 11
49.8223851127966
 21
-84.88563650755523
 31
0.0
  0
LINE
  5
20D
330
1F
100
AcDbEntity
  8
0-2_本体（蓋）
  6
JWW_DASHED1
 62
     6
370
     5
100
AcDbLine
 10
-108.798623859607
 20
-25.8856440485784
 30
0.0
 11
-114.3271085428464
 21
-25.8856440485784
 31
0.0
  0
LINE
  5
20E
330
1F
100
AcDbEntity
  8
0-2_本体（蓋）
  6
JWW_DASHED1
 62
     6
370
     5
100
AcDbLine
 10
-108.1871376676918
 20
-19.8856709134734
 30
0.0
 11
-113.7156223509311
 21
-19.8856709134734
 31
0.0
  0
LINE
  5
20F
330
1F
100
AcDbEntity
  8
0-2_本体（蓋）
  6
JWW_CENTER1
 62
     6
370
     5
100
AcDbLine
 10
-107.3836335781006
 20
-22.88565748102592
 30
0.0
 11
-115.1419860271422
 21
-22.88565748102592
 31
0.0
  0
LINE
  5
210
330
1F
100
AcDbEntity
  8
0-2_本体（蓋）
  6
JWW_DASHED1
 62
     6
370
     5
100
AcDbLine
 10
-108.2584750987857
 20
-20.58564211619119
 30
0.0
 11
-113.7869772795553
 21
-20.58564211619119
 31
0.0
  0
LINE
  5
211
330
1F
100
AcDbEntity
  8
0-2_本体（蓋）
  6
JWW_DASHED1
 62
     6
370
     5
100
AcDbLine
 10
-108.7272864285131
 20
-25.1856728458606
 30
0.0
 11
-114.2557711117524
 21
-25.1856728458606
 31
0.0
  0
LINE
  5
212
330
1F
100
AcDbEntity
  8
0-2_本体（蓋）
  6
Continuous
 62
     6
370
     5
100
AcDbLine
 10
-112.5135945108875
 20
-22.88565748102592
 30
0.0
 11
-111.6982795883338
 21
-14.88564664080507
 31
0.0
  0
LINE
  5
213
330
1F
100
AcDbEntity
  8
0-2_本体（蓋）
  6
Continuous
 62
     6
370
     5
100
AcDbLine
 10
-112.5135945108875
 20
-22.88565748102592
 30
0.0
 11
-114.1742326204849
 21
-24.38568575986277
 31
0.0
  0
LINE
  5
214
330
1F
100
AcDbEntity
  8
0-2_本体（蓋）
  6
Continuous
 62
     6
370
     5
100
AcDbLine
 10
-130.3168416754628
 20
-84.05002444983624
 30
0.0
 11
-131.1775626891837
 21
-78.88559338232896
 31
0.0
  0
LINE
  5
215
330
1F
100
AcDbEntity
  8
0-2_本体（蓋）
  6
Continuous
 62
     6
370
     5
100
AcDbLine
 10
42.94249617321527
 20
-15.78424980765779
 30
0.0
 11
49.13228251717639
 21
-76.52013725411652
 31
0.0
  0
LINE
  5
216
330
1F
100
AcDbEntity
  8
0-2_本体（蓋）
  6
Continuous
 62
     6
370
     5
100
AcDbLine
 10
-112.3027842656534
 20
-14.88564664080507
 30
0.0
 11
41.9476565896306
 21
-14.88564664080509
 31
0.0
  0
LINE
  5
217
330
1F
100
AcDbEntity
  8
0-2_本体（蓋）
  6
Continuous
 62
     6
370
     5
100
AcDbLine
 10
-106.6775732348332
 20
-14.88564664080507
 30
0.0
 11
-108.2498138212798
 21
-44.88565229657245
 31
0.0
  0
LINE
  5
218
330
1F
100
AcDbEntity
  8
0-2_本体（蓋）
  6
JWW_DASHED1
 62
     6
370
     5
100
AcDbLine
 10
47.02935933380888
 20
-55.88557971422452
 30
0.0
 11
41.3989340389549
 21
-54.88563085178784
 31
0.0
  0
LINE
  5
219
330
1F
100
AcDbEntity
  8
0-2_本体（蓋）
  6
Continuous
 62
     6
370
     5
100
AcDbLine
 10
-117.3845045073621
 20
-55.88557971422448
 30
0.0
 11
-111.7541142075687
 21
-54.88563085178779
 31
0.0
  0
LINE
  5
21A
330
1F
100
AcDbEntity
  8
0-2_本体（蓋）
  6
Continuous
 62
     6
370
     5
100
AcDbLine
 10
59.96171399943995
 20
-84.05002444983629
 30
0.0
 11
60.82238252056987
 21
-78.885593382329
 31
0.0
  0
LINE
  5
21B
330
1F
100
AcDbEntity
  8
0-2_本体（蓋）
  6
Continuous
 62
     6
370
     5
100
AcDbLine
 10
44.18160127999612
 20
-82.18982700699719
 30
0.0
 11
37.32242941630768
 21
-14.88564664080509
 31
0.0
  0
LINE
  5
21C
330
1F
100
AcDbEntity
  8
0-2_本体（蓋）
  6
Continuous
 62
     6
370
     5
100
AcDbLine
 10
-121.4050520280622
 20
-78.46075334628287
 30
0.0
 11
-131.1775626891837
 21
-78.88559338232896
 31
0.0
  0
LINE
  5
21D
330
1F
100
AcDbEntity
  8
0-2_本体（蓋）
  6
Continuous
 62
     6
370
     5
100
AcDbLine
 10
-113.2976413467684
 20
-15.78424980765777
 30
0.0
 11
-120.1568307079872
 21
-83.08836018372855
 31
0.0
  0
LINE
  5
21E
330
1F
100
AcDbEntity
  8
0-2_本体（蓋）
  6
Continuous
 62
     6
370
     5
100
AcDbLine
 10
59.82243365813321
 20
-77.84120079289247
 30
0.0
 11
58.82241480557531
 21
-77.79773692759025
 31
0.0
  0
LINE
  5
21F
330
1F
100
AcDbEntity
  8
0-2_本体（蓋）
  6
Continuous
 62
     6
370
     5
100
AcDbLine
 10
52.81852222367977
 20
-77.53667377529175
 30
0.0
 11
50.08365823545886
 21
-77.41776055927161
 31
0.0
  0
LINE
  5
220
330
1F
100
AcDbEntity
  8
0-2_本体（蓋）
  6
Continuous
 62
     6
370
     5
100
AcDbLine
 10
49.92415074910814
 20
-84.88563650755523
 30
0.0
 11
-120.2794534004341
 21
-84.88563650755519
 31
0.0
  0
LINE
  5
221
330
1F
100
AcDbEntity
  8
0-2_本体（蓋）
  6
JWW_PHANTOM1
 62
     6
370
     5
100
AcDbLine
 10
36.32248055387107
 20
-14.88564664080509
 30
0.0
 11
37.89466864772663
 21
-44.88565229657249
 31
0.0
  0
LINE
  5
222
330
1F
100
AcDbEntity
  8
0-2_本体（蓋）
  6
JWW_PHANTOM1
 62
     6
370
     5
100
AcDbLine
 10
40.37987787341433
 20
-44.88565229657249
 30
0.0
 11
37.89466864772663
 21
-44.88565229657249
 31
0.0
  0
LINE
  5
223
330
1F
100
AcDbEntity
  8
0-2_本体（蓋）
  6
Continuous
 62
     6
370
     5
100
AcDbLine
 10
-109.8316955469298
 20
-44.88565229657245
 30
0.0
 11
-108.2498138212798
 21
-44.88565229657245
 31
0.0
  0
LINE
  5
224
330
1F
100
AcDbEntity
  8
0-2_本体（蓋）
  6
Continuous
 62
     6
370
     5
100
AcDbLine
 10
-114.5367464535493
 20
-82.18982700699715
 30
0.0
 11
-110.8265526280448
 21
-45.78425546342513
 31
0.0
  0
LINE
  5
225
330
1F
100
AcDbEntity
  8
0-2_本体（蓋）
  6
JWW_DASHED1
 62
     6
370
     5
100
AcDbLine
 10
-110.8265526280448
 20
-45.78425546342513
 30
0.0
 11
-107.6775745898608
 21
-14.88564664080507
 31
0.0
  0
ELLIPSE
  5
226
330
1F
100
AcDbEntity
  8
0-A
  6
Continuous
 62
     4
370
     9
100
AcDbEllipse
 10
55.82242823802282
 20
-77.44659648923059
 30
0.0
 11
5.249979774003783
 21
0.0
 31
0.0
210
0.0
220
0.0
230
1.0
 40
0.7428
 41
0.0
 42
1.475408021818765
  0
ELLIPSE
  5
227
330
1F
100
AcDbEntity
  8
0-A
  6
Continuous
 62
     4
370
     9
100
AcDbEllipse
 10
55.82242823802282
 20
-77.44659648923059
 30
0.0
 11
5.249979774003783
 21
0.0
 31
0.0
210
0.0
220
0.0
230
1.0
 40
0.7428
 41
1.666184365454919
 42
3.141592653589793
  0
ARC
  5
228
330
1F
100
AcDbEntity
  8
0-0_通り芯
  6
Continuous
 62
     3
370
     9
100
AcDbCircle
 10
69.60733257071769
 20
-73.02511055889451
 30
0.0
 40
2.999999964099133
100
AcDbArc
 50
191.230697631836
 51
287.9998474121094
  0
ARC
  5
229
330
1F
100
AcDbEntity
  8
0-0_通り芯
  6
Continuous
 62
     3
370
     9
100
AcDbCircle
 10
68.91653007388493
 20
-83.76425478473308
 30
0.0
 40
2.999999964099133
100
AcDbArc
 50
107.9998474121094
 51
172.9995727539063
  0
ARC
  5
22A
330
1F
100
AcDbEntity
  8
0-0_通り芯
  6
Continuous
 62
     3
370
     9
100
AcDbCircle
 10
60.39915225731277
 20
-83.38560822871838
 30
0.0
 40
1.499999982049566
100
AcDbArc
 50
270.0
 51
352.9987792968749
  0
ARC
  5
22B
330
1F
100
AcDbEntity
  8
0-0_通り芯
  6
Continuous
 62
     3
370
     9
100
AcDbCircle
 10
82.93947080898386
 20
-72.88562024722407
 30
0.0
 40
0.9999999880330441
100
AcDbArc
 50
7.124267578125002
 51
90.00000000000001
  0
ARC
  5
22C
330
1F
100
AcDbEntity
  8
0-0_通り芯
  6
Continuous
 62
     3
370
     9
100
AcDbCircle
 10
73.70189464464988
 20
-90.62104698429872
 30
0.0
 40
10.99999959496458
100
AcDbArc
 50
62.25656127929688
 51
107.999755859375
  0
ARC
  5
22D
330
1F
100
AcDbEntity
  8
0-0_通り芯
  6
JWW_DASHED1
 62
     3
370
     9
100
AcDbCircle
 10
58.37461800975603
 20
-87.56548826046608
 30
0.0
 40
2.999999964099133
100
AcDbArc
 50
274.0003356933594
 51
353.0001068115234
  0
ARC
  5
22E
330
1F
100
AcDbEntity
  8
0-0_通り芯
  6
JWW_DASHED1
 62
     3
370
     9
100
AcDbCircle
 10
58.37465300481666
 20
-87.56548826046608
 30
0.0
 40
6.999999642832398
100
AcDbArc
 50
273.9999237060547
 51
352.9998779296875
  0
ARC
  5
22F
330
1F
100
AcDbEntity
  8
0-0_通り芯
  6
Continuous
 62
     3
370
     9
100
AcDbCircle
 10
58.00227056465468
 20
-90.59879012573818
 30
0.0
 40
6.999999642832398
100
AcDbArc
 50
274.0003204345703
 51
353.0003356933594
  0
ARC
  5
230
330
1F
100
AcDbEntity
  8
0-0_通り芯
  6
JWW_DASHED1
 62
     3
370
     9
100
AcDbCircle
 10
44.91516774091854
 20
-97.52865201189884
 30
0.0
 40
1.999999976066088
100
AcDbArc
 50
94.00025939941408
 51
175.6695556640624
  0
ARC
  5
231
330
1F
100
AcDbEntity
  8
0-0_通り芯
  6
Continuous
 62
     3
370
     9
100
AcDbCircle
 10
44.68630004439949
 20
-100.5519452898309
 30
0.0
 40
1.999999976066088
100
AcDbArc
 50
94.00025939941408
 51
175.6709594726563
  0
ARC
  5
232
330
1F
100
AcDbEntity
  8
0-0_通り芯
  6
Continuous
 62
     3
370
     9
100
AcDbCircle
 10
-139.9623552615586
 20
-73.02511055889445
 30
0.0
 40
2.999999964099133
100
AcDbArc
 50
252.0001525878906
 51
348.7693023681641
  0
ARC
  5
233
330
1F
100
AcDbEntity
  8
0-0_通り芯
  6
Continuous
 62
     3
370
     9
100
AcDbCircle
 10
-139.2715877597865
 20
-83.76425478473303
 30
0.0
 40
2.999999964099133
100
AcDbArc
 50
7.000427246093758
 51
72.00015258789064
  0
ARC
  5
234
330
1F
100
AcDbEntity
  8
0-0_通り芯
  6
Continuous
 62
     3
370
     9
100
AcDbCircle
 10
-130.7541749481537
 20
-83.38560822871834
 30
0.0
 40
1.499999982049566
100
AcDbArc
 50
187.001220703125
 51
270.0
  0
ARC
  5
235
330
1F
100
AcDbEntity
  8
0-0_通り芯
  6
Continuous
 62
     3
370
     9
100
AcDbCircle
 10
-153.2945284948854
 20
-72.88562024722401
 30
0.0
 40
0.9999999880330441
100
AcDbArc
 50
90.0
 51
172.875732421875
  0
ARC
  5
236
330
1F
100
AcDbEntity
  8
0-0_通り芯
  6
Continuous
 62
     3
370
     9
100
AcDbCircle
 10
-144.0569173354908
 20
-90.62104698429867
 30
0.0
 40
10.99999959496458
100
AcDbArc
 50
72.00024414062501
 51
117.7434387207031
  0
ARC
  5
237
330
1F
100
AcDbEntity
  8
0-0_通り芯
  6
JWW_DASHED1
 62
     3
370
     9
100
AcDbCircle
 10
-128.729640700597
 20
-87.56548826046604
 30
0.0
 40
2.999999964099133
100
AcDbArc
 50
186.9998931884766
 51
265.9996643066406
  0
ARC
  5
238
330
1F
100
AcDbEntity
  8
0-0_通り芯
  6
JWW_DASHED1
 62
     3
370
     9
100
AcDbCircle
 10
-128.7297456857789
 20
-87.56548826046604
 30
0.0
 40
6.999999642832398
100
AcDbArc
 50
187.0001220703125
 51
266.0000762939453
  0
ARC
  5
239
330
1F
100
AcDbEntity
  8
0-0_通り芯
  6
Continuous
 62
     3
370
     9
100
AcDbCircle
 10
-120.0350129019348
 20
-103.3855653391491
 30
0.0
 40
1.499999982049566
100
AcDbArc
 50
5.709838867187504
 51
90.0
  0
ARC
  5
23A
330
1F
100
AcDbEntity
  8
0-0_通り芯
  6
JWW_DASHED1
 62
     3
370
     9
100
AcDbCircle
 10
-114.3253587898149
 20
-103.3855653391491
 30
0.0
 40
1.499999982049566
100
AcDbArc
 50
4.328598022460952
 51
90.00000000000001
  0
ARC
  5
23B
330
1F
100
AcDbEntity
  8
0-0_通り芯
  6
JWW_DASHED1
 62
     3
370
     9
100
AcDbCircle
 10
-114.804266194534
 20
-97.05999815994419
 30
0.0
 40
1.499999982049566
100
AcDbArc
 50
4.328598022460952
 51
86.00067138671878
  0
ARC
  5
23C
330
1F
100
AcDbEntity
  8
0-0_通り芯
  6
Continuous
 62
     3
370
     9
100
AcDbCircle
 10
-120.060419315952
 20
-89.67534046583827
 30
0.0
 40
1.499999982049566
100
AcDbArc
 50
197.8379669189453
 51
265.9997406005859
  0
ARC
  5
23D
330
1F
100
AcDbEntity
  8
0-0_通り芯
  6
Continuous
 62
     3
370
     9
100
AcDbCircle
 10
38.41997950284092
 20
-129.8855050109638
 30
0.0
 40
1.999999976066088
100
AcDbArc
 50
270.0
 51
357.1373138427735
  0
ARC
  5
23E
330
1F
100
AcDbEntity
  8
0-0_通り芯
  6
Continuous
 62
     3
370
     9
100
AcDbCircle
 10
-108.7750371887425
 20
-129.8855050109638
 30
0.0
 40
1.999999976066088
100
AcDbArc
 50
182.8627166748047
 51
270.0
  0
ARC
  5
23F
330
1F
100
AcDbEntity
  8
0-0_通り芯
  6
Continuous
 62
     3
370
     9
100
AcDbCircle
 10
31.18646547559523
 20
-93.47643396132875
 30
0.0
 40
0.9999999880330441
100
AcDbArc
 50
93.99885559082027
 51
171.0524597167968
  0
ARC
  5
240
330
1F
100
AcDbEntity
  8
0-0_通り芯
  6
Continuous
 62
     3
370
     9
100
AcDbCircle
 10
-101.5415581565575
 20
-93.4764339613287
 30
0.0
 40
0.9999999880330441
100
AcDbArc
 50
8.947311401367179
 51
85.99974060058594
  0
ARC
  5
241
330
1F
100
AcDbEntity
  8
0-0_通り芯
  6
Continuous
 62
     3
370
     9
100
AcDbCircle
 10
-132.3838599266241
 20
-100.3856487617178
 30
0.0
 40
1.499999982049566
100
AcDbArc
 50
188.4468688964844
 51
270.0
  0
ARC
  5
242
330
1F
100
AcDbEntity
  8
0-0_通り芯
  6
Continuous
 62
     3
370
     9
100
AcDbCircle
 10
49.9300999094152
 20
-86.3855248061496
 30
0.0
 40
1.499999982049566
100
AcDbArc
 50
90.0
 51
162.8860015869141
  0
ARC
  5
243
330
1F
100
AcDbEntity
  8
0-0_通り芯
  6
Continuous
 62
     3
370
     9
100
AcDbCircle
 10
-124.2705700751445
 20
-86.38552480614956
 30
0.0
 40
1.499999982049566
100
AcDbArc
 50
17.8382568359375
 51
90.0
  0
ARC
  5
244
330
1F
100
AcDbEntity
  8
0-0_通り芯
  6
Continuous
 62
     3
370
     9
100
AcDbCircle
 10
-133.6773823526844
 20
-117.8854887506325
 30
0.0
 40
1.999999976066088
100
AcDbArc
 50
270.0
 51
0.0
  0
ARC
  5
245
330
1F
100
AcDbEntity
  8
0-0_通り芯
  6
Continuous
 62
     3
370
     9
100
AcDbCircle
 10
-133.6773823526844
 20
-117.8854887506325
 30
0.0
 40
7.999999904264353
100
AcDbArc
 50
270.0
 51
0.0
  0
ARC
  5
246
330
1F
100
AcDbEntity
  8
0-0_通り芯
  6
JWW_CENTER1
 62
     3
370
     9
100
AcDbCircle
 10
-133.6775223329269
 20
-117.8854887506325
 30
0.0
 40
5.000000213564133
100
AcDbArc
 50
270.0
 51
0.0
  0
ARC
  5
247
330
1F
100
AcDbEntity
  8
0-A
  6
JWW_PHANTOM1
 62
     4
370
     9
100
AcDbCircle
 10
-120.1275048471794
 20
-19.60948989498285
 30
0.0
 40
1.999999976066088
100
AcDbArc
 50
89.81100463867188
 51
174.8109893798828
  0
ARC
  5
248
330
1F
100
AcDbEntity
  8
0-A
  6
JWW_PHANTOM1
 62
     4
370
     9
100
AcDbCircle
 10
-120.6386776977993
 20
-25.23858537753289
 30
0.0
 40
1.999999976066088
100
AcDbArc
 50
174.8109893798828
 51
259.8109741210938
  0
ARC
  5
249
330
1F
100
AcDbEntity
  8
0-2_本体（蓋）
  6
Continuous
 62
     6
370
     5
100
AcDbCircle
 10
47.16612003075026
 20
-81.88564994000275
 30
0.0
 40
2.999999964099133
100
AcDbArc
 50
185.8186645507812
 51
270.0
  0
ARC
  5
24A
330
1F
100
AcDbEntity
  8
0-2_本体（蓋）
  6
Continuous
 62
     6
370
     5
100
AcDbCircle
 10
-117.5213001993641
 20
-81.88564994000271
 30
0.0
 40
2.999999964099133
100
AcDbArc
 50
270.0
 51
354.1813354492188
  0
ARC
  5
24B
330
1F
100
AcDbEntity
  8
0-2_本体（蓋）
  6
Continuous
 62
     6
370
     5
100
AcDbCircle
 10
-122.1465273726869
 20
-82.88566879256061
 30
0.0
 40
1.999999976066088
100
AcDbArc
 50
270.0
 51
354.1803283691406
  0
ARC
  5
24C
330
1F
100
AcDbEntity
  8
0-2_本体（蓋）
  6
Continuous
 62
     6
370
     5
100
AcDbCircle
 10
-121.4919272660757
 20
-76.46267536456233
 30
0.0
 40
1.999999976066088
100
AcDbArc
 50
272.4890747070312
 51
354.1802673339844
  0
ARC
  5
24D
330
1F
100
AcDbEntity
  8
0-2_本体（蓋）
  6
Continuous
 62
     6
370
     5
100
AcDbCircle
 10
-129.3304533990202
 20
-83.88568764511857
 30
0.0
 40
0.9999999880330441
100
AcDbArc
 50
189.4608459472656
 51
270.0
  0
ARC
  5
24E
330
1F
100
AcDbEntity
  8
0-2_本体（蓋）
  6
Continuous
 62
     6
370
     5
100
AcDbCircle
 10
58.9752732304064
 20
-83.88568764511862
 30
0.0
 40
0.9999999880330441
100
AcDbArc
 50
270.0
 51
350.5393218994141
  0
ARC
  5
24F
330
1F
100
AcDbEntity
  8
0-2_本体（蓋）
  6
Continuous
 62
     6
370
     5
100
AcDbCircle
 10
50.12712210076115
 20
-76.4187215684113
 30
0.0
 40
0.9999999880330441
100
AcDbArc
 50
185.8187255859375
 51
267.5108795166016
  0
ARC
  5
250
330
1F
100
AcDbEntity
  8
0-2_本体（蓋）
  6
Continuous
 62
     6
370
     5
100
AcDbCircle
 10
41.9476565896306
 20
-15.88566549336305
 30
0.0
 40
0.9999999880330441
100
AcDbArc
 50
5.818725585937498
 51
90.0
  0
ARC
  5
251
330
1F
100
AcDbEntity
  8
0-2_本体（蓋）
  6
Continuous
 62
     6
370
     5
100
AcDbCircle
 10
-112.3027842656534
 20
-15.88566549336302
 30
0.0
 40
0.9999999880330441
100
AcDbArc
 50
90.0
 51
174.1813659667969
  0
ARC
  5
252
330
1F
100
AcDbEntity
  8
0-2_本体（蓋）
  6
Continuous
 62
     6
370
     5
100
AcDbCircle
 10
-109.8316955469298
 20
-45.88567114913039
 30
0.0
 40
0.9999999880330441
100
AcDbArc
 50
90.0
 51
174.1813659667969
  0
ARC
  5
253
330
1F
100
AcDbEntity
  8
0-2_本体（蓋）
  6
JWW_PHANTOM1
 62
     6
370
     5
100
AcDbCircle
 10
39.47658536843726
 20
-45.88567114913043
 30
0.0
 40
0.9999999880330441
100
AcDbArc
 50
5.818634033203121
 51
90.00000000000001
  0
LINE
  5
254
330
1F
100
AcDbEntity
  8
0-6
  6
Continuous
 62
     2
370
     9
100
AcDbLine
 10
-110.677543659883
 20
-48.12661485162191
 30
0.0
 11
-95.32755523064047
 21
-83.1265747899364
 31
0.0
  0
LINE
  5
255
330
1F
100
AcDbEntity
  8
0-6
  6
Continuous
 62
     2
370
     9
100
AcDbLine
 10
-110.1280512178735
 20
-47.88563886412497
 30
0.0
 11
-94.7780627886309
 21
-82.88566879256064
 31
0.0
  0
LINE
  5
256
330
1F
100
AcDbEntity
  8
0-6
  6
Continuous
 62
     2
370
     9
100
AcDbLine
 10
-110.1280512178735
 20
-47.88563886412497
 30
0.0
 11
-110.677543659883
 21
-48.12661485162191
 31
0.0
  0
LINE
  5
257
330
1F
100
AcDbEntity
  8
0-6
  6
Continuous
 62
     2
370
     9
100
AcDbLine
 10
-94.7780627886309
 20
-82.88566879256064
 30
0.0
 11
-95.32755523064047
 21
-83.1265747899364
 31
0.0
  0
LINE
  5
258
330
1F
100
AcDbEntity
  8
0-6
  6
JWW_PHANTOM1
 62
     2
370
     9
100
AcDbLine
 10
-100.4139823080038
 20
-73.02280088489292
 30
0.0
 11
-99.86448986599427
 21
-72.78182489739592
 31
0.0
  0
LINE
  5
259
330
1F
100
AcDbEntity
  8
0-6
  6
JWW_PHANTOM1
 62
     2
370
     9
100
AcDbLine
 10
-98.63591827246296
 20
-77.0769786588583
 30
0.0
 11
-100.4139823080038
 21
-73.02280088489292
 31
0.0
  0
LINE
  5
25A
330
1F
100
AcDbEntity
  8
0-6
  6
Continuous
 62
     2
370
     9
100
AcDbLine
 10
40.32248597398143
 20
-48.12661485162195
 30
0.0
 11
24.97246254967824
 21
-83.12657478993641
 31
0.0
  0
LINE
  5
25B
330
1F
100
AcDbEntity
  8
0-6
  6
JWW_PHANTOM1
 62
     2
370
     9
100
AcDbLine
 10
30.05885463198097
 20
-73.02280088489297
 30
0.0
 11
29.50943218009269
 21
-72.78182489739596
 31
0.0
  0
LINE
  5
25C
330
1F
100
AcDbEntity
  8
0-6
  6
JWW_PHANTOM1
 62
     2
370
     9
100
AcDbLine
 10
28.28082559150072
 20
-77.07697865885834
 30
0.0
 11
30.05885463198097
 21
-73.02280088489297
 31
0.0
  0
LINE
  5
25D
330
1F
100
AcDbEntity
  8
0-6
  6
JWW_PHANTOM1
 62
     2
370
     9
100
AcDbLine
 10
28.56442556284485
 20
-77.85575873811447
 30
0.0
 11
56.33839541194894
 21
-91.58880039095592
 31
0.0
  0
LINE
  5
25E
330
1F
100
AcDbEntity
  8
0-6
  6
JWW_PHANTOM1
 62
     2
370
     9
100
AcDbLine
 10
28.29846310205816
 20
-78.3937028101162
 30
0.0
 11
56.07250294128356
 21
-92.12660448271512
 31
0.0
  0
LINE
  5
25F
330
1F
100
AcDbEntity
  8
0-6
  6
JWW_PHANTOM1
 62
     2
370
     9
100
AcDbLine
 10
56.07250294128356
 20
-92.12660448271512
 30
0.0
 11
56.33839541194894
 21
-91.58880039095592
 31
0.0
  0
LINE
  5
260
330
1F
100
AcDbEntity
  8
0-6
  6
Continuous
 62
     2
370
     9
100
AcDbLine
 10
39.77292354185061
 20
-47.88563886412501
 30
0.0
 11
40.32248597398143
 21
-48.12661485162195
 31
0.0
  0
LINE
  5
261
330
1F
100
AcDbEntity
  8
0-6
  6
Continuous
 62
     2
370
     9
100
AcDbLine
 10
39.77292354185061
 20
-47.88563886412501
 30
0.0
 11
-110.1280512178735
 21
-47.88563886412497
 31
0.0
  0
LINE
  5
262
330
1F
100
AcDbEntity
  8
0-6
  6
Continuous
 62
     2
370
     9
100
AcDbLine
 10
39.77292354185061
 20
-47.88563886412501
 30
0.0
 11
24.42297010766866
 21
-82.88566879256065
 31
0.0
  0
LINE
  5
263
330
1F
100
AcDbEntity
  8
0-6
  6
Continuous
 62
     2
370
     9
100
AcDbLine
 10
24.42297010766866
 20
-82.88566879256065
 30
0.0
 11
-94.7780627886309
 21
-82.88566879256064
 31
0.0
  0
LINE
  5
264
330
1F
100
AcDbEntity
  8
0-6
  6
Continuous
 62
     2
370
     9
100
AcDbLine
 10
24.42297010766866
 20
-82.88566879256065
 30
0.0
 11
24.97246254967824
 21
-83.12657478993641
 31
0.0
  0
LINE
  5
265
330
1F
100
AcDbEntity
  8
0-6
  6
Continuous
 62
     2
370
     9
100
AcDbLine
 10
24.97246254967824
 20
-83.12657478993641
 30
0.0
 11
-95.32755523064047
 21
-83.1265747899364
 31
0.0
  0
ARC
  5
266
330
1F
100
AcDbEntity
  8
0-6
  6
JWW_PHANTOM1
 62
     2
370
     9
100
AcDbCircle
 10
-99.18541071447251
 20
-77.31795464635528
 30
0.0
 40
0.6000000201597175
100
AcDbArc
 50
296.3094940185547
 51
23.67950439453126
  0
ARC
  5
267
330
1F
100
AcDbEntity
  8
0-6
  6
JWW_PHANTOM1
 62
     2
370
     9
100
AcDbCircle
 10
-99.18541071447251
 20
-77.31795464635528
 30
0.0
 40
1.200000040319435
100
AcDbArc
 50
296.3094940185547
 51
23.67950439453126
  0
ARC
  5
268
330
1F
100
AcDbEntity
  8
0-6
  6
JWW_PHANTOM1
 62
     2
370
     9
100
AcDbCircle
 10
28.83031803351024
 20
-77.31795464635532
 30
0.0
 40
0.6000000201597175
100
AcDbArc
 50
156.3204956054688
 51
243.6905059814453
  0
ARC
  5
269
330
1F
100
AcDbEntity
  8
0-6
  6
JWW_PHANTOM1
 62
     2
370
     9
100
AcDbCircle
 10
28.83031803351024
 20
-77.31795464635532
 30
0.0
 40
1.200000040319435
100
AcDbArc
 50
156.3204956054688
 51
243.6905059814453
  0
LINE
  5
26A
330
1F
100
AcDbEntity
  8
0-6
  6
JWW_PHANTOM1
 62
     2
370
     9
100
AcDbLine
 10
-98.91948324874647
 20
-77.85575873811443
 30
0.0
 11
-126.6934880929112
 21
-91.58880039095588
 31
0.0
  0
LINE
  5
26B
330
1F
100
AcDbEntity
  8
0-6
  6
JWW_PHANTOM1
 62
     2
370
     9
100
AcDbLine
 10
-98.65352078795978
 20
-78.39370281011615
 30
0.0
 11
-126.4275606271852
 21
-92.12660448271508
 31
0.0
  0
LINE
  5
26C
330
1F
100
AcDbEntity
  8
0-6
  6
JWW_PHANTOM1
 62
     2
370
     9
100
AcDbLine
 10
-126.4275606271852
 20
-92.12660448271508
 30
0.0
 11
-126.6934880929112
 21
-91.58880039095588
 31
0.0
  0
LINE
  5
26D
330
1F
100
AcDbEntity
  8
0-0_通り芯
  6
JWW_CENTER1
 62
     3
370
     9
100
AcDbLine
 10
-35.17755508924619
 20
368.7814661703109
 30
0.0
 11
-35.17755508924621
 21
233.5548752207387
 31
0.0
  0
ARC
  5
26E
330
1F
100
AcDbEntity
  8
0-0_通り芯
  6
Continuous
 62
     3
370
     9
100
AcDbCircle
 10
-35.17755508924622
 20
240.1504367688042
 30
0.0
 40
118.9999950217464
100
AcDbArc
 50
0.0001525878906262
 51
179.0134465476458
  0
ARC
  5
26F
330
1F
100
AcDbEntity
  8
0-0_通り芯
  6
Continuous
 62
     3
370
     9
100
AcDbCircle
 10
-35.17755508924622
 20
240.1504367688042
 30
0.0
 40
118.9999950217464
100
AcDbArc
 50
179.0134465476458
 51
179.2457289117388
  0
ARC
  5
270
330
1F
100
AcDbEntity
  8
0-0_通り芯
  6
Continuous
 62
     3
370
     9
100
AcDbCircle
 10
-35.17755508924622
 20
240.1504367688042
 30
0.0
 40
119.9999876280089
100
AcDbArc
 50
0.0001525878906262
 51
180.0
  0
ARC
  5
271
330
1F
100
AcDbEntity
  8
0-0_通り芯
  6
Continuous
 62
     3
370
     9
100
AcDbCircle
 10
-35.17755508924622
 20
240.1504367688042
 30
0.0
 40
118.9999950217464
100
AcDbArc
 50
179.2457289117388
 51
180.0
  0
LINE
  5
272
330
1F
100
AcDbEntity
  8
0-4_寸法
  6
Continuous
 62
     7
370
     9
100
AcDbLine
 10
-95.32755523064047
 20
2.735989296863391
 30
0.0
 11
24.97246254967823
 21
2.735989296863391
 31
0.0
  0
LINE
  5
273
330
1F
100
AcDbEntity
  8
0-4_寸法
  6
Continuous
 62
     7
370
     9
100
AcDbLine
 10
-95.32755523064047
 20
2.735989296863391
 30
0.0
 11
-87.8917187703369
 21
3.714935738513778
 31
0.0
  0
LINE
  5
274
330
1F
100
AcDbEntity
  8
0-4_寸法
  6
Continuous
 62
     7
370
     9
100
AcDbLine
 10
-95.32755523064047
 20
2.735989296863391
 30
0.0
 11
-87.8917187703369
 21
1.757042855213004
 31
0.0
  0
LINE
  5
275
330
1F
100
AcDbEntity
  8
0-4_寸法
  6
Continuous
 62
     7
370
     9
100
AcDbLine
 10
24.97246254967823
 20
2.735989296863391
 30
0.0
 11
17.53662608937466
 21
3.714935738513778
 31
0.0
  0
LINE
  5
276
330
1F
100
AcDbEntity
  8
0-4_寸法
  6
Continuous
 62
     7
370
     9
100
AcDbLine
 10
24.97246254967823
 20
2.735989296863391
 30
0.0
 11
17.53662608937466
 21
1.757042855213004
 31
0.0
  0
LINE
  5
277
330
1F
100
AcDbEntity
  8
0-4_寸法
  6
Continuous
 62
     7
370
     9
100
AcDbLine
 10
-95.32755523064047
 20
3.635989296863391
 30
0.0
 11
-95.32755523064047
 21
-76.53411624795599
 31
0.0
  0
LINE
  5
278
330
1F
100
AcDbEntity
  8
0-4_寸法
  6
Continuous
 62
     7
370
     9
100
AcDbLine
 10
24.97246254967823
 20
3.635989296863391
 30
0.0
 11
24.97246254967823
 21
-76.53411624795599
 31
0.0
  0
LINE
  5
279
330
1F
100
AcDbEntity
  8
0-4_寸法
  6
Continuous
 62
     7
370
     9
100
AcDbLine
 10
-107.6775745898608
 20
31.53913334324364
 30
0.0
 11
37.32242941630767
 21
31.53913334324364
 31
0.0
  0
LINE
  5
27A
330
1F
100
AcDbEntity
  8
0-4_寸法
  6
Continuous
 62
     7
370
     9
100
AcDbLine
 10
-107.6775745898608
 20
31.53913334324364
 30
0.0
 11
-100.2417381295573
 21
32.51807978489403
 31
0.0
  0
LINE
  5
27B
330
1F
100
AcDbEntity
  8
0-4_寸法
  6
Continuous
 62
     7
370
     9
100
AcDbLine
 10
-107.6775745898608
 20
31.53913334324364
 30
0.0
 11
-100.2417381295573
 21
30.56018690159326
 31
0.0
  0
LINE
  5
27C
330
1F
100
AcDbEntity
  8
0-4_寸法
  6
Continuous
 62
     7
370
     9
100
AcDbLine
 10
37.32242941630767
 20
31.53913334324364
 30
0.0
 11
29.88659295600409
 21
32.51807978489403
 31
0.0
  0
LINE
  5
27D
330
1F
100
AcDbEntity
  8
0-4_寸法
  6
Continuous
 62
     7
370
     9
100
AcDbLine
 10
37.32242941630767
 20
31.53913334324364
 30
0.0
 11
29.88659295600409
 21
30.56018690159326
 31
0.0
  0
LINE
  5
27E
330
1F
100
AcDbEntity
  8
0-4_寸法
  6
Continuous
 62
     7
370
     9
100
AcDbLine
 10
-107.6775745898608
 20
32.43913334324364
 30
0.0
 11
-107.6775745898608
 21
-10.40378326148358
 31
0.0
  0
LINE
  5
27F
330
1F
100
AcDbEntity
  8
0-4_寸法
  6
Continuous
 62
     7
370
     9
100
AcDbLine
 10
37.32242941630767
 20
32.43913334324364
 30
0.0
 11
37.32242941630767
 21
-10.40378326148358
 31
0.0
  0
LINE
  5
280
330
1F
100
AcDbEntity
  8
0-4_寸法
  6
Continuous
 62
     7
370
     9
100
AcDbLine
 10
-102.8657712507901
 20
-189.3518656161736
 30
0.0
 11
32.51074855994909
 21
-189.3518656161736
 31
0.0
  0
LINE
  5
281
330
1F
100
AcDbEntity
  8
0-4_寸法
  6
Continuous
 62
     7
370
     9
100
AcDbLine
 10
-102.8657712507901
 20
-189.3518656161736
 30
0.0
 11
-95.4299347904865
 21
-188.3729191745232
 31
0.0
  0
LINE
  5
282
330
1F
100
AcDbEntity
  8
0-4_寸法
  6
Continuous
 62
     7
370
     9
100
AcDbLine
 10
-102.8657712507901
 20
-189.3518656161736
 30
0.0
 11
-95.4299347904865
 21
-190.330812057824
 31
0.0
  0
LINE
  5
283
330
1F
100
AcDbEntity
  8
0-4_寸法
  6
Continuous
 62
     7
370
     9
100
AcDbLine
 10
32.51074855994909
 20
-189.3518656161736
 30
0.0
 11
25.07491209964551
 21
-188.3729191745232
 31
0.0
  0
LINE
  5
284
330
1F
100
AcDbEntity
  8
0-4_寸法
  6
Continuous
 62
     7
370
     9
100
AcDbLine
 10
32.51074855994909
 20
-189.3518656161736
 30
0.0
 11
25.07491209964551
 21
-190.330812057824
 31
0.0
  0
LINE
  5
285
330
1F
100
AcDbEntity
  8
0-4_寸法
  6
Continuous
 62
     7
370
     9
100
AcDbLine
 10
-102.8657712507901
 20
-190.2518656161736
 30
0.0
 11
-102.8657712507901
 21
-136.8797383677717
 31
0.0
  0
LINE
  5
286
330
1F
100
AcDbEntity
  8
0-4_寸法
  6
Continuous
 62
     7
370
     9
100
AcDbLine
 10
32.51074855994909
 20
-190.2518656161736
 30
0.0
 11
32.51074855994909
 21
-136.8797383677717
 31
0.0
  0
LINE
  5
287
330
1F
100
AcDbEntity
  8
0-4_寸法
  6
Continuous
 62
     7
370
     9
100
AcDbLine
 10
-117.6775706426066
 20
-222.6720677865319
 30
0.0
 11
47.32240797152301
 21
-222.6720677865319
 31
0.0
  0
LINE
  5
288
330
1F
100
AcDbEntity
  8
0-4_寸法
  6
Continuous
 62
     7
370
     9
100
AcDbLine
 10
-117.6775706426066
 20
-222.6720677865319
 30
0.0
 11
-110.241734182303
 21
-221.6931213448815
 31
0.0
  0
LINE
  5
289
330
1F
100
AcDbEntity
  8
0-4_寸法
  6
Continuous
 62
     7
370
     9
100
AcDbLine
 10
-117.6775706426066
 20
-222.6720677865319
 30
0.0
 11
-110.241734182303
 21
-223.6510142281823
 31
0.0
  0
LINE
  5
28A
330
1F
100
AcDbEntity
  8
0-4_寸法
  6
Continuous
 62
     7
370
     9
100
AcDbLine
 10
47.32240797152301
 20
-222.6720677865319
 30
0.0
 11
39.88657151121943
 21
-221.6931213448815
 31
0.0
  0
LINE
  5
28B
330
1F
100
AcDbEntity
  8
0-4_寸法
  6
Continuous
 62
     7
370
     9
100
AcDbLine
 10
47.32240797152301
 20
-222.6720677865319
 30
0.0
 11
39.88657151121943
 21
-223.6510142281823
 31
0.0
  0
LINE
  5
28C
330
1F
100
AcDbEntity
  8
0-4_寸法
  6
Continuous
 62
     7
370
     9
100
AcDbLine
 10
-117.6775706426066
 20
-223.5720677865319
 30
0.0
 11
-117.6775706426066
 21
-157.1688717110153
 31
0.0
  0
LINE
  5
28D
330
1F
100
AcDbEntity
  8
0-4_寸法
  6
Continuous
 62
     7
370
     9
100
AcDbLine
 10
47.32240797152301
 20
-223.5720677865319
 30
0.0
 11
47.32240797152301
 21
-157.1688717110153
 31
0.0
  0
TEXT
  5
28E
330
1F
100
AcDbEntity
  8
0-4_寸法
  6
Continuous
 62
     2
370
   211
100
AcDbText
 10
-51.67757258677658
 20
35.03113334324364
 30
0.0
 40
9.144
  1
φ145
 41
1.1
  7
ＭＳ ゴシック
100
AcDbText
  0
TEXT
  5
28F
330
1F
100
AcDbEntity
  8
0-4_寸法
  6
Continuous
 62
     2
370
   211
100
AcDbText
 10
-51.67754634048111
 20
6.227989296863392
 30
0.0
 40
9.144
  1
φ120
 41
1.1
  7
ＭＳ ゴシック
100
AcDbText
  0
TEXT
  5
290
330
1F
100
AcDbEntity
  8
0-4_寸法
  6
Continuous
 62
     2
370
   211
100
AcDbText
 10
-51.67758133554178
 20
-219.1800677865319
 30
0.0
 40
9.144
  1
φ165
 41
1.1
  7
ＭＳ ゴシック
100
AcDbText
  0
TEXT
  5
291
330
1F
100
AcDbEntity
  8
0-4_寸法
  6
Continuous
 62
     2
370
   211
100
AcDbText
 10
-44.9275113454205
 20
-185.8598656161736
 30
0.0
 40
9.144
  1
Rc5
 41
1.083333333333333
  7
ＭＳ ゴシック
100
AcDbText
  0
LINE
  5
292
330
1F
100
AcDbEntity
  8
0-4_寸法
  6
Continuous
 62
     7
370
     9
100
AcDbLine
 10
139.3548387096774
 20
-151.8856398067529
 30
0.0
 11
139.3548387096774
 21
-71.8856013946661
 31
0.0
  0
LINE
  5
293
330
1F
100
AcDbEntity
  8
0-4_寸法
  6
Continuous
 62
     7
370
     9
100
AcDbLine
 10
139.3548387096774
 20
-151.8856398067529
 30
0.0
 11
138.375892268027
 21
-144.4498033464493
 31
0.0
  0
LINE
  5
294
330
1F
100
AcDbEntity
  8
0-4_寸法
  6
Continuous
 62
     7
370
     9
100
AcDbLine
 10
139.3548387096774
 20
-151.8856398067529
 30
0.0
 11
140.3337851513278
 21
-144.4498033464493
 31
0.0
  0
LINE
  5
295
330
1F
100
AcDbEntity
  8
0-4_寸法
  6
Continuous
 62
     7
370
     9
100
AcDbLine
 10
139.3548387096774
 20
-71.8856013946661
 30
0.0
 11
138.375892268027
 21
-79.32143785496967
 31
0.0
  0
LINE
  5
296
330
1F
100
AcDbEntity
  8
0-4_寸法
  6
Continuous
 62
     7
370
     9
100
AcDbLine
 10
139.3548387096774
 20
-71.8856013946661
 30
0.0
 11
140.3337851513278
 21
-79.32143785496967
 31
0.0
  0
LINE
  5
297
330
1F
100
AcDbEntity
  8
0-4_寸法
  6
Continuous
 62
     7
370
     9
100
AcDbLine
 10
139.3548387096774
 20
-71.8856013946661
 30
0.0
 11
139.3548387096774
 21
-14.8856466408051
 31
0.0
  0
LINE
  5
298
330
1F
100
AcDbEntity
  8
0-4_寸法
  6
Continuous
 62
     7
370
     9
100
AcDbLine
 10
139.3548387096774
 20
-71.8856013946661
 30
0.0
 11
138.375892268027
 21
-64.44976493436252
 31
0.0
  0
LINE
  5
299
330
1F
100
AcDbEntity
  8
0-4_寸法
  6
Continuous
 62
     7
370
     9
100
AcDbLine
 10
139.3548387096774
 20
-71.8856013946661
 30
0.0
 11
140.3337851513278
 21
-64.44976493436252
 31
0.0
  0
LINE
  5
29A
330
1F
100
AcDbEntity
  8
0-4_寸法
  6
Continuous
 62
     7
370
     9
100
AcDbLine
 10
139.3548387096774
 20
-14.8856466408051
 30
0.0
 11
138.375892268027
 21
-22.32148310110868
 31
0.0
  0
LINE
  5
29B
330
1F
100
AcDbEntity
  8
0-4_寸法
  6
Continuous
 62
     7
370
     9
100
AcDbLine
 10
139.3548387096774
 20
-14.8856466408051
 30
0.0
 11
140.3337851513278
 21
-22.32148310110868
 31
0.0
  0
TEXT
  5
29C
330
1F
100
AcDbEntity
  8
0-4_寸法
  6
Continuous
 62
     2
370
   211
100
AcDbText
 10
135.8628387096774
 20
-49.76062401773559
 30
0.0
 40
9.144
  1
57
 50
90.0
 41
1.0625
  7
ＭＳ ゴシック
100
AcDbText
  0
LINE
  5
29D
330
1F
100
AcDbEntity
  8
0-4_寸法
  6
Continuous
 62
     7
370
     9
100
AcDbLine
 10
105.562640660165
 20
-111.995610076269
 30
0.0
 11
105.562640660165
 21
-71.8856013946661
 31
0.0
  0
LINE
  5
29E
330
1F
100
AcDbEntity
  8
0-4_寸法
  6
Continuous
 62
     7
370
     9
100
AcDbLine
 10
105.562640660165
 20
-111.995610076269
 30
0.0
 11
104.5836942185147
 21
-104.5597736159655
 31
0.0
  0
LINE
  5
29F
330
1F
100
AcDbEntity
  8
0-4_寸法
  6
Continuous
 62
     7
370
     9
100
AcDbLine
 10
105.562640660165
 20
-111.995610076269
 30
0.0
 11
106.5415871018154
 21
-104.5597736159655
 31
0.0
  0
LINE
  5
2A0
330
1F
100
AcDbEntity
  8
0-4_寸法
  6
Continuous
 62
     7
370
     9
100
AcDbLine
 10
105.562640660165
 20
-71.8856013946661
 30
0.0
 11
104.5836942185147
 21
-79.32143785496967
 31
0.0
  0
LINE
  5
2A1
330
1F
100
AcDbEntity
  8
0-4_寸法
  6
Continuous
 62
     7
370
     9
100
AcDbLine
 10
105.562640660165
 20
-71.8856013946661
 30
0.0
 11
106.5415871018154
 21
-79.32143785496967
 31
0.0
  0
LINE
  5
2A2
330
1F
100
AcDbEntity
  8
0-4_寸法
  6
Continuous
 62
     7
370
     9
100
AcDbLine
 10
140.2548387096774
 20
-71.8856013946661
 30
0.0
 11
85.73881373569199
 21
-71.8856013946661
 31
0.0
  0
LINE
  5
2A3
330
1F
100
AcDbEntity
  8
0-4_寸法
  6
Continuous
 62
     7
370
     9
100
AcDbLine
 10
-193.0645161290323
 20
-84.88556651743394
 30
0.0
 11
-193.0645161290323
 21
-14.88564664080507
 31
0.0
  0
LINE
  5
2A4
330
1F
100
AcDbEntity
  8
0-4_寸法
  6
Continuous
 62
     7
370
     9
100
AcDbLine
 10
-193.0645161290323
 20
-84.88556651743394
 30
0.0
 11
-194.0434625706827
 21
-77.44973005713038
 31
0.0
  0
LINE
  5
2A5
330
1F
100
AcDbEntity
  8
0-4_寸法
  6
Continuous
 62
     7
370
     9
100
AcDbLine
 10
-193.0645161290323
 20
-84.88556651743394
 30
0.0
 11
-192.0855696873818
 21
-77.44973005713038
 31
0.0
  0
LINE
  5
2A6
330
1F
100
AcDbEntity
  8
0-4_寸法
  6
Continuous
 62
     7
370
     9
100
AcDbLine
 10
-193.0645161290323
 20
-14.88564664080507
 30
0.0
 11
-194.0434625706827
 21
-22.32148310110865
 31
0.0
  0
LINE
  5
2A7
330
1F
100
AcDbEntity
  8
0-4_寸法
  6
Continuous
 62
     7
370
     9
100
AcDbLine
 10
-193.0645161290323
 20
-14.88564664080507
 30
0.0
 11
-192.0855696873818
 21
-22.32148310110865
 31
0.0
  0
LINE
  5
2A8
330
1F
100
AcDbEntity
  8
0-4_寸法
  6
Continuous
 62
     7
370
     9
100
AcDbLine
 10
-193.9645161290323
 20
-84.88556651743394
 30
0.0
 11
-141.6571642910728
 21
-84.88556651743394
 31
0.0
  0
TEXT
  5
2A9
330
1F
100
AcDbEntity
  8
0-4_寸法
  6
Continuous
 62
     2
370
   211
100
AcDbText
 10
-196.5565161290323
 20
-56.26060657911951
 30
0.0
 40
9.144
  1
70
 50
90.0
 41
1.0625
  7
ＭＳ ゴシック
100
AcDbText
  0
LINE
  5
2AA
330
1F
100
AcDbEntity
  8
0-4_寸法
  6
Continuous
 62
     7
370
     9
100
AcDbLine
 10
-193.9645161290323
 20
-14.88564664080507
 30
0.0
 11
-120.5072840790843
 21
-14.88564664080507
 31
0.0
  0
LINE
  5
2AB
330
1F
100
AcDbEntity
  8
0-4_寸法
  6
Continuous
 62
     7
370
     9
100
AcDbLine
 10
140.2548387096774
 20
-14.8856466408051
 30
0.0
 11
54.35353798126951
 21
-14.8856466408051
 31
0.0
  0
LINE
  5
2AC
330
1F
100
AcDbEntity
  8
0-4_寸法
  6
Continuous
 62
     7
370
     9
100
AcDbLine
 10
106.4626406601651
 20
-111.995610076269
 30
0.0
 11
55.63456964471533
 21
-111.995610076269
 31
0.0
  0
LINE
  5
2AD
330
1F
100
AcDbEntity
  8
0-4_寸法
  6
Continuous
 62
     7
370
     9
100
AcDbLine
 10
140.2548387096774
 20
-151.8856398067529
 30
0.0
 11
56.27508547643824
 21
-151.8856398067529
 31
0.0
  0
TEXT
  5
2AE
330
1F
100
AcDbEntity
  8
0-4_寸法
  6
Continuous
 62
     2
370
   211
100
AcDbText
 10
102.0706406601651
 20
-98.31560573546757
 30
0.0
 40
9.144
  1
40
 50
90.0
 41
1.0625
  7
ＭＳ ゴシック
100
AcDbText
  0
LINE
  5
2AF
330
1F
100
AcDbEntity
  8
0-5_文字
  6
Continuous
 62
     7
370
     9
100
AcDbLine
 10
-122.3748831841344
 20
-22.24311659143688
 30
0.0
 11
-124.4358878060173
 21
-17.68765174703544
 31
0.0
  0
LINE
  5
2B0
330
1F
100
AcDbEntity
  8
0-5_文字
  6
Continuous
 62
     7
370
     9
100
AcDbLine
 10
-122.3748831841344
 20
-22.24311659143688
 30
0.0
 11
-123.1866197154861
 21
-17.30944819929001
 31
0.0
  0
LINE
  5
2B1
330
1F
100
AcDbEntity
  8
0-5_文字
  6
Continuous
 62
     7
370
     9
100
AcDbLine
 10
27.09662899595867
 20
-78.49498895461193
 30
0.0
 11
65.93999302781825
 21
-199.4965230970314
 31
0.0
  0
LINE
  5
2B2
330
1F
100
AcDbEntity
  8
0-5_文字
  6
Continuous
 62
     7
370
     9
100
AcDbLine
 10
27.09662899595867
 20
-78.49498895461193
 30
0.0
 11
29.23321583400687
 21
-83.01549740869972
 31
0.0
  0
LINE
  5
2B3
330
1F
100
AcDbEntity
  8
0-5_文字
  6
Continuous
 62
     7
370
     9
100
AcDbLine
 10
27.09662899595867
 20
-78.49498895461193
 30
0.0
 11
27.99041972147387
 21
-83.41445418357564
 31
0.0
  0
LINE
  5
2B4
330
1F
100
AcDbEntity
  8
0-5_文字
  6
Continuous
 62
     7
370
     9
100
AcDbLine
 10
65.93999302781825
 20
-199.4965230970314
 30
0.0
 11
174.1045579394915
 21
-199.4965230970314
 31
0.0
  0
LINE
  5
2B5
330
1F
100
AcDbEntity
  8
0-5_文字
  6
Continuous
 62
     7
370
     9
100
AcDbLine
 10
-117.6775706426066
 20
-151.8856398067529
 30
0.0
 11
-120.5476963853448
 21
-158.8147363005875
 31
0.0
  0
LINE
  5
2B6
330
1F
100
AcDbEntity
  8
0-5_文字
  6
Continuous
 62
     7
370
     9
100
AcDbLine
 10
-117.6775706426066
 20
-151.8856398067529
 30
0.0
 11
-122.243281360172
 21
-157.8357898589371
 31
0.0
  0
LINE
  5
2B7
330
1F
100
AcDbEntity
  8
0-5_文字
  6
Continuous
 62
     7
370
     9
100
AcDbLine
 10
-139.6774254779106
 20
-122.8855130233008
 30
0.0
 11
-144.243136195476
 21
-128.8356630754851
 31
0.0
  0
LINE
  5
2B8
330
1F
100
AcDbEntity
  8
0-5_文字
  6
Continuous
 62
     7
370
     9
100
AcDbLine
 10
-139.6774254779106
 20
-122.8855130233008
 30
0.0
 11
-142.5475512206488
 21
-129.8146095171355
 31
0.0
  0
LINE
  5
2B9
330
1F
100
AcDbEntity
  8
0-5_文字
  6
Continuous
 62
     7
370
     9
100
AcDbLine
 10
-155.1775077221945
 20
-79.88561223488686
 30
0.0
 11
-159.7432184397599
 21
-85.83576228707112
 31
0.0
  0
LINE
  5
2BA
330
1F
100
AcDbEntity
  8
0-5_文字
  6
Continuous
 62
     7
370
     9
100
AcDbLine
 10
-155.1775077221945
 20
-79.88561223488686
 30
0.0
 11
-158.0476334649327
 21
-86.81470872872151
 31
0.0
  0
LINE
  5
2BB
330
1F
100
AcDbEntity
  8
0-5_文字
  6
Continuous
 62
     7
370
     9
100
AcDbLine
 10
38.82244085399563
 20
-14.51621391974751
 30
0.0
 11
39.78417190542905
 21
-9.609578271494346
 31
0.0
  0
LINE
  5
2BC
330
1F
100
AcDbEntity
  8
0-5_文字
  6
Continuous
 62
     7
370
     9
100
AcDbLine
 10
38.82244085399563
 20
-14.51621391974751
 30
0.0
 11
41.02133246766618
 21
-10.02568213928661
 31
0.0
  0
LINE
  5
2BD
330
1F
100
AcDbEntity
  8
0-5_文字
  6
Continuous
 62
     7
370
     9
100
AcDbLine
 10
56.32245581821343
 20
-73.56463954263604
 30
0.0
 11
58.38019187888281
 21
-69.00769733270833
 31
0.0
  0
LINE
  5
2BE
330
1F
100
AcDbEntity
  8
0-5_文字
  6
Continuous
 62
     7
370
     9
100
AcDbLine
 10
56.32245581821343
 20
-73.56463954263604
 30
0.0
 11
57.1306527915394
 21
-68.63039009086461
 31
0.0
  0
LINE
  5
2BF
330
1F
100
AcDbEntity
  8
0-5_文字
  6
Continuous
 62
     7
370
     9
100
AcDbLine
 10
-175.1139598797624
 20
-114.4165602944607
 30
0.0
 11
-155.1775077221945
 21
-79.88561223488686
 31
0.0
  0
LINE
  5
2C0
330
1F
100
AcDbEntity
  8
0-5_文字
  6
Continuous
 62
     7
370
     9
100
AcDbLine
 10
-158.5990597809064
 20
-155.6587449983276
 30
0.0
 11
-139.6774254779106
 21
-122.8855130233008
 31
0.0
  0
LINE
  5
2C1
330
1F
100
AcDbEntity
  8
0-5_文字
  6
Continuous
 62
     7
370
     9
100
AcDbLine
 10
-141.3276338837429
 20
-192.848750942618
 30
0.0
 11
-247.6117368974725
 21
-192.848750942618
 31
0.0
  0
LINE
  5
2C2
330
1F
100
AcDbEntity
  8
0-5_文字
  6
Continuous
 62
     7
370
     9
100
AcDbLine
 10
-141.3276338837429
 20
-192.848750942618
 30
0.0
 11
-117.6775706426066
 21
-151.8856398067529
 31
0.0
  0
TEXT
  5
2C3
330
1F
100
AcDbEntity
  8
0-5_文字
  6
Continuous
 62
     7
370
     9
100
AcDbText
 10
68.20324859083276
 20
-196.3536318879619
 30
0.0
 40
6.858000000000001
  1
ロート：ＳＵＳ３０４
 41
1.15
  7
ＭＳ ゴシック
100
AcDbText
  0
LINE
  5
2C4
330
1F
100
AcDbEntity
  8
0-5_文字
  6
Continuous
 62
     7
370
     9
100
AcDbLine
 10
-122.3748831841344
 20
-22.24311659143688
 30
0.0
 11
-161.0933717527088
 21
119.392739938935
 31
0.0
  0
LINE
  5
2C5
330
1F
100
AcDbEntity
  8
0-5_文字
  6
Continuous
 62
     7
370
     9
100
AcDbLine
 10
38.82244085399563
 20
-14.51621391974751
 30
0.0
 11
85.38054357191123
 21
157.1947183807258
 31
0.0
  0
LINE
  5
2C6
330
1F
100
AcDbEntity
  8
0-5_文字
  6
Continuous
 62
     7
370
     9
100
AcDbLine
 10
85.38054357191123
 20
157.1947183807258
 30
0.0
 11
215.4564601672018
 21
157.1947183807258
 31
0.0
  0
LINE
  5
2C7
330
1F
100
AcDbEntity
  8
0-5_文字
  6
Continuous
 62
     7
370
     9
100
AcDbLine
 10
56.32245581821343
 20
-73.56463954263604
 30
0.0
 11
97.31495870963957
 21
87.82891218405912
 31
0.0
  0
LINE
  5
2C8
330
1F
100
AcDbEntity
  8
0-0_通り芯
  6
Continuous
 62
     3
370
     9
100
AcDbLine
 10
28.89434011346273
 20
-92.53443691929512
 30
0.0
 11
-99.8448462960873
 21
-92.53443691929508
 31
0.0
  0
LINE
  5
2C9
330
1F
100
AcDbEntity
  8
0-5_文字
  6
Continuous
 62
     7
370
     9
100
AcDbLine
 10
-175.1139598797624
 20
-114.4165602944607
 30
0.0
 11
-276.6576669647275
 21
-114.4165602944607
 31
0.0
  0
LINE
  5
2CA
330
1F
100
AcDbEntity
  8
0-5_文字
  6
Continuous
 62
     7
370
     9
100
AcDbLine
 10
-158.5990597809064
 20
-155.6587449983276
 30
0.0
 11
-265.0628098169095
 21
-155.6587449983276
 31
0.0
  0
TEXT
  5
2CB
330
1F
100
AcDbEntity
  8
F-4ﾚｲﾔ
  6
Continuous
 62
     6
370
     5
100
AcDbText
 10
-39.52621584687209
 20
-330.8870417003052
 30
0.0
 40
9.144
  1
鋳鉄製高耐食性ルーフドレン　たて引き用　打込型　ねじ込み式
 41
0.7491379310344827
  7
ＭＳ ゴシック
100
AcDbText
  0
TEXT
  5
2CC
330
1F
100
AcDbEntity
  8
F-5ﾚｲﾔ
  6
Continuous
 62
     2
370
     9
100
AcDbText
 10
-46.89024781673103
 20
-272.4444453125
 30
0.0
 40
9.144
  1
※ご注文の際はＣ寸法をご指示ください。
 41
1.118421052631579
  7
ＭＳ ゴシック
100
AcDbText
  0
TEXT
  5
2CD
330
1F
100
AcDbEntity
  8
F-4ﾚｲﾔ
  6
Continuous
 62
     6
370
     5
100
AcDbText
 10
-39.45870446471775
 20
-344.682171559158
 30
0.0
 40
9.144
  1
塗膜・モルタル防水用　　ＥＭＪ－２Ｒ－１２５　Ｃ＝指示
 41
0.7981481481481483
  7
ＭＳ ゴシック
100
AcDbText
  0
TEXT
  5
2CE
330
1F
100
AcDbEntity
  8
0-4_寸法
  6
Continuous
 62
     2
370
   211
100
AcDbText
 10
135.8628387096774
 20
-117.8856206007095
 30
0.0
 40
9.144
  1
Ｃ
 50
90.0
  7
ＭＳ ゴシック
100
AcDbText
  0
TEXT
  5
2CF
330
1F
100
AcDbEntity
  8
0-5_文字
  6
Continuous
 62
     7
370
     9
100
AcDbText
 10
-267.135813422245
 20
-110.6146911510648
 30
0.0
 40
6.858000000000001
  1
本体：ＦＣ１５０
 41
1.145833333333333
  7
ＭＳ ゴシック
100
AcDbText
  0
TEXT
  5
2D0
330
1F
100
AcDbEntity
  8
0-5_文字
  6
Continuous
 62
     7
370
     9
100
AcDbText
 10
-277.635813422245
 20
-125.9886767248243
 30
0.0
 40
6.858000000000001
  1
ナイロンコーティング
 41
1.15
  7
ＭＳ ゴシック
100
AcDbText
  0
TEXT
  5
2D1
330
1F
100
AcDbEntity
  8
0-5_文字
  6
Continuous
 62
     7
370
     9
100
AcDbText
 10
-263.5809347989079
 20
-150.9647940254712
 30
0.0
 40
6.858000000000001
  1
アンカー：ＳＷＲＭ８
 41
1.15
  7
ＭＳ ゴシック
100
AcDbText
  0
TEXT
  5
2D2
330
1F
100
AcDbEntity
  8
0-5_文字
  6
Continuous
 62
     7
370
     9
100
AcDbText
 10
-263.5809347989079
 20
-166.4974234685753
 30
0.0
 40
6.858000000000001
  1
ナイロンコーティング
 41
1.15
  7
ＭＳ ゴシック
100
AcDbText
  0
TEXT
  5
2D3
330
1F
100
AcDbEntity
  8
0-5_文字
  6
Continuous
 62
     7
370
     9
100
AcDbText
 10
-243.7049735760041
 20
-204.6104989635958
 30
0.0
 40
6.858000000000001
  1
硬質ポリ塩化ビニル
 41
1.148148148148148
  7
ＭＳ ゴシック
100
AcDbText
  0
TEXT
  5
2D4
330
1F
100
AcDbEntity
  8
0-5_文字
  6
Continuous
 62
     7
370
     9
100
AcDbText
 10
-219.9696853906077
 20
-188.8958989336924
 30
0.0
 40
6.858000000000001
  1
スペーサー
 41
1.133333333333333
  7
ＭＳ ゴシック
100
AcDbText
  0
TEXT
  5
2D5
330
1F
100
AcDbEntity
  8
0-5_文字
  6
Continuous
 62
     7
370
     9
100
AcDbText
 10
-276.1465100478099
 20
122.7078876665504
 30
0.0
 40
6.858000000000001
  1
丸小ねじ：Ｃ２７００Ｗ
 41
1.151515151515151
  7
ＭＳ ゴシック
100
AcDbText
  0
LINE
  5
2D6
330
1F
100
AcDbEntity
  8
0-5_文字
  6
Continuous
 62
     7
370
     9
100
AcDbLine
 10
-161.0933717527088
 20
119.392739938935
 30
0.0
 11
-277.3283017657296
 21
119.392739938935
 31
0.0
  0
TEXT
  5
2D7
330
1F
100
AcDbEntity
  8
0-5_文字
  6
Continuous
 62
     7
370
     9
100
AcDbText
 10
96.7667061599586
 20
91.93364434290784
 30
0.0
 40
6.858000000000001
  1
丸小ねじ：Ｃ２７００Ｗ
 41
1.151515151515151
  7
ＭＳ ゴシック
100
AcDbText
  0
TEXT
  5
2D8
330
1F
100
AcDbEntity
  8
0-5_文字
  6
Continuous
 62
     7
370
     9
100
AcDbText
 10
88.16850186955654
 20
160.4821609113829
 30
0.0
 40
6.858000000000001
  1
ストレーナー：ＦＣ１５０
 41
1.152777777777777
  7
ＭＳ ゴシック
100
AcDbText
  0
TEXT
  5
2D9
330
1F
100
AcDbEntity
  8
0-5_文字
  6
Continuous
 62
     7
370
     9
100
AcDbText
 10
98.66850186955654
 20
146.655840689834
 30
0.0
 40
6.858000000000001
  1
ナイロンコーティング
 41
1.15
  7
ＭＳ ゴシック
100
AcDbText
  0
LINE
  5
2DA
330
1F
100
AcDbEntity
  8
0-5_文字
  6
Continuous
 62
     7
370
     9
100
AcDbLine
 10
97.31495870963957
 20
87.82891218405912
 30
0.0
 11
211.0322491894071
 21
87.82891218405912
 31
0.0
  0
TEXT
  5
2DB
330
1F
100
AcDbEntity
  8
0-5_文字
  6
Continuous
 62
     7
370
     9
100
AcDbText
 10
-244.7108391106193
 20
108.7883852623842
 30
0.0
 40
6.858000000000001
  1
Ｍ６×１２
 50
359.9999583021696
 41
1.133333333333333
  7
ＭＳ ゴシック
100
AcDbText
  0
TEXT
  5
2DC
330
1F
100
AcDbEntity
  8
0-5_文字
  6
Continuous
 62
     7
370
     9
100
AcDbText
 10
128.6736039495233
 20
77.07035010474273
 30
0.0
 40
6.858000000000001
  1
Ｍ６×１２
 41
1.133333333333333
  7
ＭＳ ゴシック
100
AcDbText
  0
LINE
  5
2DD
330
1F
100
AcDbEntity
  8
0-4_寸法
  6
Continuous
 62
     7
370
     9
100
AcDbLine
 10
-110.677543659883
 20
60.25627150138237
 30
0.0
 11
40.32248597398143
 21
60.25627150138237
 31
0.0
  0
LINE
  5
2DE
330
1F
100
AcDbEntity
  8
0-4_寸法
  6
Continuous
 62
     7
370
     9
100
AcDbLine
 10
-110.677543659883
 20
60.25627150138237
 30
0.0
 11
-103.2417071995794
 21
61.23521794303276
 31
0.0
  0
LINE
  5
2DF
330
1F
100
AcDbEntity
  8
0-4_寸法
  6
Continuous
 62
     7
370
     9
100
AcDbLine
 10
-110.677543659883
 20
60.25627150138237
 30
0.0
 11
-103.2417071995794
 21
59.27732505973199
 31
0.0
  0
LINE
  5
2E0
330
1F
100
AcDbEntity
  8
0-4_寸法
  6
Continuous
 62
     7
370
     9
100
AcDbLine
 10
40.32248597398143
 20
60.25627150138237
 30
0.0
 11
32.88664951367785
 21
61.23521794303276
 31
0.0
  0
LINE
  5
2E1
330
1F
100
AcDbEntity
  8
0-4_寸法
  6
Continuous
 62
     7
370
     9
100
AcDbLine
 10
40.32248597398143
 20
60.25627150138237
 30
0.0
 11
32.88664951367785
 21
59.27732505973199
 31
0.0
  0
LINE
  5
2E2
330
1F
100
AcDbEntity
  8
0-4_寸法
  6
Continuous
 62
     7
370
     9
100
AcDbLine
 10
-110.677543659883
 20
61.15627150138236
 30
0.0
 11
-110.677543659883
 21
-35.57120558941578
 31
0.0
  0
LINE
  5
2E3
330
1F
100
AcDbEntity
  8
0-4_寸法
  6
Continuous
 62
     7
370
     9
100
AcDbLine
 10
40.32248597398143
 20
61.15627150138236
 30
0.0
 11
40.32248597398143
 21
-35.57120558941578
 31
0.0
  0
TEXT
  5
2E4
330
1F
100
AcDbEntity
  8
0-4_寸法
  6
Continuous
 62
     2
370
   211
100
AcDbText
 10
-51.67752884295078
 20
63.74827150138238
 30
0.0
 40
9.144
  1
φ151
 41
1.1
  7
ＭＳ ゴシック
100
AcDbText
  0
LINE
  5
2E5
330
1F
100
AcDbEntity
  8
0-4_寸法
  6
Continuous
 62
     7
370
     9
100
AcDbLine
 10
-133.6775223329269
 20
87.69892978042157
 30
0.0
 11
63.32249964208592
 21
87.69892978042157
 31
0.0
  0
LINE
  5
2E6
330
1F
100
AcDbEntity
  8
0-4_寸法
  6
Continuous
 62
     7
370
     9
100
AcDbLine
 10
-133.6775223329269
 20
87.69892978042157
 30
0.0
 11
-126.2416858726233
 21
88.67787622207196
 31
0.0
  0
LINE
  5
2E7
330
1F
100
AcDbEntity
  8
0-4_寸法
  6
Continuous
 62
     7
370
     9
100
AcDbLine
 10
-133.6775223329269
 20
87.69892978042157
 30
0.0
 11
-126.2416858726233
 21
86.71998333877119
 31
0.0
  0
LINE
  5
2E8
330
1F
100
AcDbEntity
  8
0-4_寸法
  6
Continuous
 62
     7
370
     9
100
AcDbLine
 10
63.32249964208592
 20
87.69892978042157
 30
0.0
 11
55.88666318178235
 21
88.67787622207196
 31
0.0
  0
LINE
  5
2E9
330
1F
100
AcDbEntity
  8
0-4_寸法
  6
Continuous
 62
     7
370
     9
100
AcDbLine
 10
63.32249964208592
 20
87.69892978042157
 30
0.0
 11
55.88666318178235
 21
86.71998333877119
 31
0.0
  0
LINE
  5
2EA
330
1F
100
AcDbEntity
  8
0-4_寸法
  6
Continuous
 62
     7
370
     9
100
AcDbLine
 10
-133.6775223329269
 20
88.59892978042157
 30
0.0
 11
-133.6775223329269
 21
-67.15883752044002
 31
0.0
  0
LINE
  5
2EB
330
1F
100
AcDbEntity
  8
0-4_寸法
  6
Continuous
 62
     7
370
     9
100
AcDbLine
 10
63.32249964208592
 20
88.59892978042157
 30
0.0
 11
63.32249964208592
 21
-67.15883752044002
 31
0.0
  0
TEXT
  5
2EC
330
1F
100
AcDbEntity
  8
0-4_寸法
  6
Continuous
 62
     2
370
   211
100
AcDbText
 10
-51.67751134542048
 20
91.19092978042158
 30
0.0
 40
9.144
  1
φ197
 41
1.1
  7
ＭＳ ゴシック
100
AcDbText
  0
LINE
  5
2ED
330
1F
100
AcDbEntity
  8
0-4_寸法
  6
Continuous
 62
     7
370
     9
100
AcDbLine
 10
-155.1774027370126
 20
112.7651480289937
 30
0.0
 11
84.82234505111103
 21
112.7651480289937
 31
0.0
  0
LINE
  5
2EE
330
1F
100
AcDbEntity
  8
0-4_寸法
  6
Continuous
 62
     7
370
     9
100
AcDbLine
 10
-155.1774027370126
 20
112.7651480289937
 30
0.0
 11
-147.741566276709
 21
113.7440944706441
 31
0.0
  0
LINE
  5
2EF
330
1F
100
AcDbEntity
  8
0-4_寸法
  6
Continuous
 62
     7
370
     9
100
AcDbLine
 10
-155.1774027370126
 20
112.7651480289937
 30
0.0
 11
-147.741566276709
 21
111.7862015873433
 31
0.0
  0
LINE
  5
2F0
330
1F
100
AcDbEntity
  8
0-4_寸法
  6
Continuous
 62
     7
370
     9
100
AcDbLine
 10
84.82234505111103
 20
112.7651480289937
 30
0.0
 11
77.38650859080747
 21
113.7440944706441
 31
0.0
  0
LINE
  5
2F1
330
1F
100
AcDbEntity
  8
0-4_寸法
  6
Continuous
 62
     7
370
     9
100
AcDbLine
 10
84.82234505111103
 20
112.7651480289937
 30
0.0
 11
77.38650859080747
 21
111.7862015873433
 31
0.0
  0
LINE
  5
2F2
330
1F
100
AcDbEntity
  8
0-4_寸法
  6
Continuous
 62
     7
370
     9
100
AcDbLine
 10
-155.1774027370126
 20
113.6651480289937
 30
0.0
 11
-155.1774027370126
 21
-71.2159952430504
 31
0.0
  0
LINE
  5
2F3
330
1F
100
AcDbEntity
  8
0-4_寸法
  6
Continuous
 62
     7
370
     9
100
AcDbLine
 10
84.82234505111103
 20
113.6651480289937
 30
0.0
 11
84.82234505111103
 21
-71.2159952430504
 31
0.0
  0
TEXT
  5
2F4
330
1F
100
AcDbEntity
  8
0-4_寸法
  6
Continuous
 62
     2
370
   211
100
AcDbText
 10
-51.67752884295079
 20
116.2571480289937
 30
0.0
 40
9.144
  1
φ240
 41
1.1
  7
ＭＳ ゴシック
100
AcDbText
  0
TEXT
  5
2F5
330
1F
100
AcDbEntity
  8
F-0ﾚｲﾔ
  6
Continuous
 62
     9
370
     5
100
AcDbText
 10
0.0
 20
-2998.731
 30
0.0
 40
6.858000000000001
  1
Printer_Orientation = 0
 41
0.0
  7
ＭＳ ゴシック
100
AcDbText
  0
TEXT
  5
2F6
330
1F
100
AcDbEntity
  8
F-0ﾚｲﾔ
  6
Continuous
 62
     9
370
     5
100
AcDbText
 10
0.0
 20
-2998.731
 30
0.0
 40
6.858000000000001
  1
Printer_PaperSize = 0
 41
0.0
  7
ＭＳ ゴシック
100
AcDbText
  0
TEXT
  5
2F7
330
1F
100
AcDbEntity
  8
F-0ﾚｲﾔ
  6
Continuous
 62
     9
370
     5
100
AcDbText
 10
0.0
 20
-2998.731
 30
0.0
 40
6.858000000000001
  1
Printer_D2dBMP = 0
 41
0.0
  7
ＭＳ ゴシック
100
AcDbText
  0
TEXT
  5
2F8
330
1F
100
AcDbEntity
  8
F-0ﾚｲﾔ
  6
Continuous
 62
     9
370
     5
100
AcDbText
 10
0.0
 20
-2998.731
 30
0.0
 40
6.858000000000001
  1
Printer_BmpZENTAI = 0
 41
0.0
  7
ＭＳ ゴシック
100
AcDbText
  0
TEXT
  5
2F9
330
1F
100
AcDbEntity
  8
F-0ﾚｲﾔ
  6
Continuous
 62
     9
370
     5
100
AcDbText
 10
0.0
 20
-2998.731
 30
0.0
 40
6.858000000000001
  1
View_Direct2d = 0
 41
0.0
  7
ＭＳ ゴシック
100
AcDbText
  0
TEXT
  5
2FA
330
1F
100
AcDbEntity
  8
F-0ﾚｲﾔ
  6
Continuous
 62
     9
370
     5
100
AcDbText
 10
0.0
 20
-2998.731
 30
0.0
 40
6.858000000000001
  1
Draw_BmpTOUKA = 1
 41
0.0
  7
ＭＳ ゴシック
100
AcDbText
  0
ENDSEC
  0
SECTION
  2
OBJECTS
  0
DICTIONARY
  5
C
330
0
100
AcDbDictionary
281
     1
  3
ACAD_DETAILVIEWSTYLE
350
340
  3
ACAD_GROUP
350
D
  3
ACAD_LAYOUT
350
1A
  3
ACAD_MATERIAL
350
43
  3
ACAD_MLEADERSTYLE
350
6B
  3
ACAD_MLINESTYLE
350
17
  3
ACAD_PLOTSETTINGS
350
19
  3
ACAD_PLOTSTYLENAME
350
E
  3
ACAD_SCALELIST
350
47
  3
ACAD_SECTIONVIEWSTYLE
350
341
  3
ACAD_TABLESTYLE
350
69
  3
ACAD_VISUALSTYLE
350
2A
  3
ACDB_RECOMPOSE_DATA
350
33D
  3
AcDbVariableDictionary
350
2FD
  0
DICTIONARY
  5
2FB
330
8
100
AcDbDictionary
280
     1
281
     1
  3
ACAD_XREC_ROUNDTRIP
360
2FC
  0
DICTIONARY
  5
340
102
{ACAD_REACTORS
330
C
102
}
330
C
100
AcDbDictionary
281
     1
  0
DICTIONARY
  5
D
102
{ACAD_REACTORS
330
C
102
}
330
C
100
AcDbDictionary
281
     1
  0
DICTIONARY
  5
1A
102
{ACAD_REACTORS
330
C
102
}
330
C
100
AcDbDictionary
281
     1
  3
Layout1
350
1E
  3
Layout2
350
26
  3
Model
350
22
  0
DICTIONARY
  5
43
102
{ACAD_REACTORS
330
C
102
}
330
C
100
AcDbDictionary
281
     1
  3
ByBlock
350
45
  3
ByLayer
350
44
  3
Global
350
46
  0
DICTIONARY
  5
6B
102
{ACAD_REACTORS
330
C
102
}
330
C
100
AcDbDictionary
281
     1
  3
Standard
350
6C
  0
DICTIONARY
  5
17
102
{ACAD_REACTORS
330
C
102
}
330
C
100
AcDbDictionary
281
     1
  3
Standard
350
18
  0
DICTIONARY
  5
19
102
{ACAD_REACTORS
330
C
102
}
330
C
100
AcDbDictionary
281
     1
  0
ACDBDICTIONARYWDFLT
  5
E
102
{ACAD_REACTORS
330
C
102
}
330
C
100
AcDbDictionary
281
     1
  3
Normal
350
F
100
AcDbDictionaryWithDefault
340
F
  0
DICTIONARY
  5
47
102
{ACAD_REACTORS
330
C
102
}
330
C
100
AcDbDictionary
281
     1
  3
A0
350
48
  3
A1
350
49
  3
A2
350
4A
  3
A3
350
4B
  3
A4
350
4C
  3
A5
350
4D
  3
A6
350
4E
  3
A7
350
4F
  3
A8
350
50
  3
A9
350
51
  3
B0
350
52
  3
B1
350
53
  3
B2
350
54
  3
B3
350
55
  3
B4
350
56
  3
B5
350
57
  3
B6
350
58
  3
B7
350
59
  3
B8
350
5A
  3
B9
350
5B
  3
C0
350
5C
  3
C1
350
5D
  3
C2
350
5E
  3
C3
350
5F
  3
C4
350
60
  3
C5
350
61
  3
C6
350
62
  3
C7
350
63
  3
C8
350
64
  3
C9
350
65
  3
D0
350
66
  3
D1
350
67
  3
D2
350
68
  0
DICTIONARY
  5
341
102
{ACAD_REACTORS
330
C
102
}
330
C
100
AcDbDictionary
281
     1
  0
DICTIONARY
  5
69
102
{ACAD_REACTORS
330
C
102
}
330
C
100
AcDbDictionary
281
     1
  3
Standard
350
6A
  0
DICTIONARY
  5
2A
102
{ACAD_REACTORS
330
C
102
}
330
C
100
AcDbDictionary
281
     1
  3
2dWireframe
350
2F
  3
Basic
350
32
  3
Brighten
350
36
  3
ColorChange
350
3A
  3
Conceptual
350
34
  3
Dim
350
35
  3
EdgeColorOff
350
3D
  3
Facepattern
350
39
  3
Flat
350
2B
  3
FlatWithEdges
350
2C
  3
Gouraud
350
2D
  3
GouraudWithEdges
350
2E
  3
Hidden
350
31
  3
JitterOff
350
3B
  3
Linepattern
350
38
  3
OverhangOff
350
3C
  3
Realistic
350
33
  3
Shaded
350
42
  3
Shaded with edges
350
41
  3
Shades of Gray
350
3E
  3
Sketchy
350
3F
  3
Thicken
350
37
  3
Wireframe
350
30
  3
X-Ray
350
40
  0
XRECORD
  5
33D
102
{ACAD_REACTORS
330
C
102
}
330
C
100
AcDbXrecord
280
     1
 90
        1
330
6A
  0
DICTIONARY
  5
2FD
102
{ACAD_REACTORS
330
C
102
}
330
C
100
AcDbDictionary
281
     1
  3
CANNOSCALE
350
2FE
  3
CENTEREXE
350
342
  3
CENTERLTYPEFILE
350
343
  3
CMLEADERSTYLE
350
33F
  3
CTABLESTYLE
350
33E
  3
MSLTSCALE
350
2FF
  3
XCLIPFRAME
350
300
  0
XRECORD
  5
2FC
102
{ACAD_REACTORS
330
2FB
102
}
330
2FB
100
AcDbXrecord
280
     1
102
VTR_0.000_0.000_1.000_1.000_VISUALSTYLE
340
2F
102
VTR_0.000_0.000_1.000_1.000_GRIDDISPLAY
 70
     3
102
VTR_0.000_0.000_1.000_1.000_GRIDMAJOR
 70
     5
102
VTR_0.000_0.000_1.000_1.000_DEFAULTLIGHTING
280
     1
102
VTR_0.000_0.000_1.000_1.000_DEFAULTLIGHTINGTYPE
 70
     1
102
VTR_0.000_0.000_1.000_1.000_BRIGHTNESS
141
0.0
102
VTR_0.000_0.000_1.000_1.000_CONTRAST
142
0.0
  0
LAYOUT
  5
1E
102
{ACAD_REACTORS
330
1A
102
}
330
1A
100
AcDbPlotSettings
  1

  2
none_device
  4

  6

 40
0.0
 41
0.0
 42
0.0
 43
0.0
 44
0.0
 45
0.0
 46
0.0
 47
0.0
 48
0.0
 49
0.0
140
0.0
141
0.0
142
1.0
143
1.0
 70
   688
 72
     1
 73
     0
 74
     5
  7

 75
    16
 76
     0
 77
     5
 78
   300
147
1.0
148
0.0
149
0.0
100
AcDbLayout
  1
Layout1
 70
     1
 71
     1
 10
0.0
 20
0.0
 11
420.0
 21
297.0
 12
0.0
 22
0.0
 32
0.0
 14
1.000000000000000E+20
 24
1.000000000000000E+20
 34
1.000000000000000E+20
 15
-1.000000000000000E+20
 25
-1.000000000000000E+20
 35
-1.000000000000000E+20
146
0.0
 13
0.0
 23
0.0
 33
0.0
 16
1.0
 26
0.0
 36
0.0
 17
0.0
 27
1.0
 37
0.0
 76
     0
330
1B
  0
LAYOUT
  5
26
102
{ACAD_REACTORS
330
1A
102
}
330
1A
100
AcDbPlotSettings
  1

  2
none_device
  4

  6

 40
0.0
 41
0.0
 42
0.0
 43
0.0
 44
0.0
 45
0.0
 46
0.0
 47
0.0
 48
0.0
 49
0.0
140
0.0
141
0.0
142
1.0
143
1.0
 70
   688
 72
     1
 73
     0
 74
     5
  7

 75
    16
 76
     0
 77
     5
 78
   300
147
1.0
148
0.0
149
0.0
100
AcDbLayout
  1
Layout2
 70
     1
 71
     2
 10
0.0
 20
0.0
 11
0.0
 21
0.0
 12
0.0
 22
0.0
 32
0.0
 14
0.0
 24
0.0
 34
0.0
 15
0.0
 25
0.0
 35
0.0
146
0.0
 13
0.0
 23
0.0
 33
0.0
 16
1.0
 26
0.0
 36
0.0
 17
0.0
 27
1.0
 37
0.0
 76
     0
330
23
  0
LAYOUT
  5
22
102
{ACAD_REACTORS
330
1A
102
}
330
1A
100
AcDbPlotSettings
  1

  2
none_device
  4
Letter_(8.50_x_11.00_Inches)
  6

 40
6.35
 41
6.35
 42
6.35000508
 43
6.35000508
 44
215.9
 45
279.4
 46
0.0
 47
0.0
 48
0.0
 49
0.0
140
0.0
141
0.0
142
1.0
143
1.0
 70
  1712
 72
     1
 73
     0
 74
     0
  7

 75
     0
 76
     0
 77
     5
 78
   300
147
1.0
148
0.0
149
0.0
100
AcDbLayout
  1
Model
 70
     1
 71
     0
 10
-630.0
 20
-445.5
 11
630.0
 21
445.5
 12
0.0
 22
0.0
 32
0.0
 14
-630.0
 24
-445.5
 34
0.0
 15
630.0
 25
445.5
 35
0.0
146
0.0
 13
0.0
 23
0.0
 33
0.0
 16
1.0
 26
0.0
 36
0.0
 17
0.0
 27
1.0
 37
0.0
 76
     0
330
1F
331
29
  0
MATERIAL
  5
45
102
{ACAD_REACTORS
330
43
102
}
102
{ACAD_XDICTIONARY
360
333
102
}
330
43
100
AcDbMaterial
  1
ByBlock
  0
MATERIAL
  5
44
102
{ACAD_REACTORS
330
43
102
}
102
{ACAD_XDICTIONARY
360
331
102
}
330
43
100
AcDbMaterial
  1
ByLayer
  0
MATERIAL
  5
46
102
{ACAD_REACTORS
330
43
102
}
102
{ACAD_XDICTIONARY
360
335
102
}
330
43
100
AcDbMaterial
  1
Global
  0
MLEADERSTYLE
  5
6C
102
{ACAD_REACTORS
330
6B
102
}
102
{ACAD_XDICTIONARY
360
33B
102
}
330
6B
100
AcDbMLeaderStyle
170
     2
171
     1
172
     0
 90
        2
 40
0.0
 41
0.0
173
     1
 91
-1056964608
340
14
 92
       -2
290
     1
 42
2.0
291
     1
 43
8.0
  3
Standard
341
0
 44
4.0
300

342
11
174
     1
178
     6
175
     1
176
     0
 93
-1056964608
 45
4.0
292
     0
297
     0
 46
4.0
343
0
 94
-1056964608
 47
1.0
 49
1.0
140
1.0
293
     1
141
0.0
294
     1
177
     0
142
1.0
295
     0
296
     0
143
3.75
1001
ACAD_MLEADERVER
1070
     2
  0
MLINESTYLE
  5
18
102
{ACAD_REACTORS
330
17
102
}
330
17
100
AcDbMlineStyle
  2
Standard
 70
     0
  3

 62
   256
 51
90.0
 52
90.0
 71
     2
 49
0.5
 62
   256
  6
BYLAYER
 49
-0.5
 62
   256
  6
BYLAYER
  0
ACDBPLACEHOLDER
  5
F
102
{ACAD_REACTORS
330
E
102
}
330
E
  0
SCALE
  5
48
102
{ACAD_REACTORS
330
47
102
}
330
47
100
AcDbScale
 70
     0
300
1:1
140
1.0
141
1.0
290
     1
  0
SCALE
  5
49
102
{ACAD_REACTORS
330
47
102
}
330
47
100
AcDbScale
 70
     0
300
1:2
140
1.0
141
2.0
290
     0
  0
SCALE
  5
4A
102
{ACAD_REACTORS
330
47
102
}
330
47
100
AcDbScale
 70
     0
300
1:4
140
1.0
141
4.0
290
     0
  0
SCALE
  5
4B
102
{ACAD_REACTORS
330
47
102
}
330
47
100
AcDbScale
 70
     0
300
1:5
140
1.0
141
5.0
290
     0
  0
SCALE
  5
4C
102
{ACAD_REACTORS
330
47
102
}
330
47
100
AcDbScale
 70
     0
300
1:8
140
1.0
141
8.0
290
     0
  0
SCALE
  5
4D
102
{ACAD_REACTORS
330
47
102
}
330
47
100
AcDbScale
 70
     0
300
1:10
140
1.0
141
10.0
290
     0
  0
SCALE
  5
4E
102
{ACAD_REACTORS
330
47
102
}
330
47
100
AcDbScale
 70
     0
300
1:16
140
1.0
141
16.0
290
     0
  0
SCALE
  5
4F
102
{ACAD_REACTORS
330
47
102
}
330
47
100
AcDbScale
 70
     0
300
1:20
140
1.0
141
20.0
290
     0
  0
SCALE
  5
50
102
{ACAD_REACTORS
330
47
102
}
330
47
100
AcDbScale
 70
     0
300
1:30
140
1.0
141
30.0
290
     0
  0
SCALE
  5
51
102
{ACAD_REACTORS
330
47
102
}
330
47
100
AcDbScale
 70
     0
300
1:40
140
1.0
141
40.0
290
     0
  0
SCALE
  5
52
102
{ACAD_REACTORS
330
47
102
}
330
47
100
AcDbScale
 70
     0
300
1:50
140
1.0
141
50.0
290
     0
  0
SCALE
  5
53
102
{ACAD_REACTORS
330
47
102
}
330
47
100
AcDbScale
 70
     0
300
1:100
140
1.0
141
100.0
290
     0
  0
SCALE
  5
54
102
{ACAD_REACTORS
330
47
102
}
330
47
100
AcDbScale
 70
     0
300
2:1
140
2.0
141
1.0
290
     0
  0
SCALE
  5
55
102
{ACAD_REACTORS
330
47
102
}
330
47
100
AcDbScale
 70
     0
300
4:1
140
4.0
141
1.0
290
     0
  0
SCALE
  5
56
102
{ACAD_REACTORS
330
47
102
}
330
47
100
AcDbScale
 70
     0
300
8:1
140
8.0
141
1.0
290
     0
  0
SCALE
  5
57
102
{ACAD_REACTORS
330
47
102
}
330
47
100
AcDbScale
 70
     0
300
10:1
140
10.0
141
1.0
290
     0
  0
SCALE
  5
58
102
{ACAD_REACTORS
330
47
102
}
330
47
100
AcDbScale
 70
     0
300
100:1
140
100.0
141
1.0
290
     0
  0
SCALE
  5
59
102
{ACAD_REACTORS
330
47
102
}
330
47
100
AcDbScale
 70
     0
300
1/128" = 1'-0"
140
0.0078125
141
12.0
290
     0
  0
SCALE
  5
5A
102
{ACAD_REACTORS
330
47
102
}
330
47
100
AcDbScale
 70
     0
300
1/64" = 1'-0"
140
0.015625
141
12.0
290
     0
  0
SCALE
  5
5B
102
{ACAD_REACTORS
330
47
102
}
330
47
100
AcDbScale
 70
     0
300
1/32" = 1'-0"
140
0.03125
141
12.0
290
     0
  0
SCALE
  5
5C
102
{ACAD_REACTORS
330
47
102
}
330
47
100
AcDbScale
 70
     0
300
1/16" = 1'-0"
140
0.0625
141
12.0
290
     0
  0
SCALE
  5
5D
102
{ACAD_REACTORS
330
47
102
}
330
47
100
AcDbScale
 70
     0
300
3/32" = 1'-0"
140
0.09375
141
12.0
290
     0
  0
SCALE
  5
5E
102
{ACAD_REACTORS
330
47
102
}
330
47
100
AcDbScale
 70
     0
300
1/8" = 1'-0"
140
0.125
141
12.0
290
     0
  0
SCALE
  5
5F
102
{ACAD_REACTORS
330
47
102
}
330
47
100
AcDbScale
 70
     0
300
3/16" = 1'-0"
140
0.1875
141
12.0
290
     0
  0
SCALE
  5
60
102
{ACAD_REACTORS
330
47
102
}
330
47
100
AcDbScale
 70
     0
300
1/4" = 1'-0"
140
0.25
141
12.0
290
     0
  0
SCALE
  5
61
102
{ACAD_REACTORS
330
47
102
}
330
47
100
AcDbScale
 70
     0
300
3/8" = 1'-0"
140
0.375
141
12.0
290
     0
  0
SCALE
  5
62
102
{ACAD_REACTORS
330
47
102
}
330
47
100
AcDbScale
 70
     0
300
1/2" = 1'-0"
140
0.5
141
12.0
290
     0
  0
SCALE
  5
63
102
{ACAD_REACTORS
330
47
102
}
330
47
100
AcDbScale
 70
     0
300
3/4" = 1'-0"
140
0.75
141
12.0
290
     0
  0
SCALE
  5
64
102
{ACAD_REACTORS
330
47
102
}
330
47
100
AcDbScale
 70
     0
300
1" = 1'-0"
140
1.0
141
12.0
290
     0
  0
SCALE
  5
65
102
{ACAD_REACTORS
330
47
102
}
330
47
100
AcDbScale
 70
     0
300
1-1/2" = 1'-0"
140
1.5
141
12.0
290
     0
  0
SCALE
  5
66
102
{ACAD_REACTORS
330
47
102
}
330
47
100
AcDbScale
 70
     0
300
3" = 1'-0"
140
3.0
141
12.0
290
     0
  0
SCALE
  5
67
102
{ACAD_REACTORS
330
47
102
}
330
47
100
AcDbScale
 70
     0
300
6" = 1'-0"
140
6.0
141
12.0
290
     0
  0
SCALE
  5
68
102
{ACAD_REACTORS
330
47
102
}
330
47
100
AcDbScale
 70
     0
300
1'-0" = 1'-0"
140
12.0
141
12.0
290
     0
  0
TABLESTYLE
  5
6A
102
{ACAD_REACTORS
330
69
102
}
102
{ACAD_XDICTIONARY
360
337
102
}
330
69
100
AcDbTableStyle
  3
Standard
 70
     0
 71
     0
 40
0.06
 41
0.06
280
     0
281
     0
  7
Standard
140
4.5
170
     2
 62
     0
 63
   257
283
     0
274
    -2
284
     1
 64
     0
275
    -2
285
     1
 65
     0
276
    -2
286
     1
 66
     0
277
    -2
287
     1
 67
     0
278
    -2
288
     1
 68
     0
279
    -2
289
     1
 69
     0
  7
Standard
140
6.0
170
     5
 62
     0
 63
   257
283
     0
274
    -2
284
     1
 64
     0
275
    -2
285
     1
 65
     0
276
    -2
286
     1
 66
     0
277
    -2
287
     1
 67
     0
278
    -2
288
     1
 68
     0
279
    -2
289
     1
 69
     0
  7
Standard
140
4.5
170
     5
 62
     0
 63
   257
283
     0
274
    -2
284
     1
 64
     0
275
    -2
285
     1
 65
     0
276
    -2
286
     1
 66
     0
277
    -2
287
     1
 67
     0
278
    -2
288
     1
 68
     0
279
    -2
289
     1
 69
     0
  0
VISUALSTYLE
  5
2F
102
{ACAD_REACTORS
330
2A
102
}
102
{ACAD_XDICTIONARY
360
309
102
}
330
2A
100
AcDbVisualStyle
  2
2dWireframe
 70
     4
 71
     0
 72
     2
 73
     0
 90
        0
 40
0.6
 41
30.0
 62
     5
 63
     7
421
 16777215
 74
     1
 91
        4
 64
     7
 65
   257
 75
     1
175
     1
 42
1.0
 92
        0
 66
   257
 43
1.0
 76
     1
 77
     6
 78
     2
 67
     7
 79
     5
170
     0
171
     0
290
     0
174
     0
 93
        1
 44
0.0
173
     0
291
     0
 45
0.0
1001
ACAD
1000
AcDbSavedByObjectVersion
1070
     0
  0
VISUALSTYLE
  5
32
102
{ACAD_REACTORS
330
2A
102
}
102
{ACAD_XDICTIONARY
360
30F
102
}
330
2A
100
AcDbVisualStyle
  2
Basic
 70
     7
 71
     1
 72
     0
 73
     1
 90
        0
 40
0.6
 41
30.0
 62
     5
 63
     7
421
 16777215
 74
     0
 91
        4
 64
     7
 65
   257
 75
     1
175
     1
 42
1.0
 92
        8
 66
     7
 43
1.0
 76
     1
 77
     6
 78
     2
 67
     7
 79
     5
170
     0
171
     0
290
     0
174
     0
 93
        1
 44
0.0
173
     0
291
     1
 45
0.0
1001
ACAD
1000
AcDbSavedByObjectVersion
1070
     0
  0
VISUALSTYLE
  5
36
102
{ACAD_REACTORS
330
2A
102
}
102
{ACAD_XDICTIONARY
360
317
102
}
330
2A
100
AcDbVisualStyle
  2
Brighten
 70
    12
 71
     2
 72
     2
 73
     0
 90
        0
 40
0.6
 41
30.0
 62
     5
 63
     7
421
 16777215
 74
     1
 91
        4
 64
     7
 65
   257
 75
     1
175
     1
 42
1.0
 92
        8
 66
     7
 43
1.0
 76
     1
 77
     6
 78
     2
 67
     7
 79
     5
170
     0
171
     0
290
     0
174
     0
 93
        1
 44
50.0
173
     0
291
     1
 45
0.0
1001
ACAD
1000
AcDbSavedByObjectVersion
1070
     0
  0
VISUALSTYLE
  5
3A
102
{ACAD_REACTORS
330
2A
102
}
102
{ACAD_XDICTIONARY
360
31F
102
}
330
2A
100
AcDbVisualStyle
  2
ColorChange
 70
    16
 71
     2
 72
     2
 73
     3
 90
        0
 40
0.6
 41
30.0
 62
     5
 63
     8
421
  8421504
 74
     1
 91
        4
 64
     7
 65
   257
 75
     1
175
     1
 42
1.0
 92
        8
 66
     8
424
  8421504
 43
1.0
 76
     1
 77
     6
 78
     2
 67
     7
 79
     5
170
     0
171
     0
290
     0
174
     0
 93
        1
 44
0.0
173
     0
291
     1
 45
0.0
1001
ACAD
1000
AcDbSavedByObjectVersion
1070
     0
  0
VISUALSTYLE
  5
34
102
{ACAD_REACTORS
330
2A
102
}
102
{ACAD_XDICTIONARY
360
313
102
}
330
2A
100
AcDbVisualStyle
  2
Conceptual
 70
     9
 71
     3
 72
     2
 73
     0
 90
        0
 40
0.6
 41
30.0
 62
     5
 63
     7
421
 16777215
 74
     2
 91
        2
 64
     7
 65
   257
 75
     1
175
     1
 42
179.0
 92
        8
 66
     7
 43
1.0
 76
     1
 77
     6
 78
     2
 67
     7
 79
     3
170
     0
171
     0
290
     0
174
     0
 93
        1
 44
0.0
173
     0
291
     0
 45
0.0
1001
ACAD
1000
AcDbSavedByObjectVersion
1070
     0
  0
VISUALSTYLE
  5
35
102
{ACAD_REACTORS
330
2A
102
}
102
{ACAD_XDICTIONARY
360
315
102
}
330
2A
100
AcDbVisualStyle
  2
Dim
 70
    11
 71
     2
 72
     2
 73
     0
 90
        0
 40
0.6
 41
30.0
 62
     5
 63
     7
421
 16777215
 74
     1
 91
        4
 64
     7
 65
   257
 75
     1
175
     1
 42
1.0
 92
        8
 66
     7
 43
1.0
 76
     1
 77
     6
 78
     2
 67
     7
 79
     5
170
     0
171
     0
290
     0
174
     0
 93
        1
 44
-50.0
173
     0
291
     1
 45
0.0
1001
ACAD
1000
AcDbSavedByObjectVersion
1070
     0
  0
VISUALSTYLE
  5
3D
102
{ACAD_REACTORS
330
2A
102
}
102
{ACAD_XDICTIONARY
360
325
102
}
330
2A
100
AcDbVisualStyle
  2
EdgeColorOff
 70
    22
 71
     2
 72
     2
 73
     0
 90
        0
 40
0.6
 41
30.0
 62
     5
 63
     7
421
 16777215
 74
     1
 91
        4
 64
     7
 65
   257
 75
     1
175
     1
 42
1.0
 92
        8
 66
     7
 43
1.0
 76
     1
 77
     6
 78
     2
 67
     7
 79
     5
170
     0
171
     0
290
     0
174
     0
 93
        1
 44
0.0
173
     0
291
     1
 45
0.0
1001
ACAD
1000
AcDbSavedByObjectVersion
1070
     0
  0
VISUALSTYLE
  5
39
102
{ACAD_REACTORS
330
2A
102
}
102
{ACAD_XDICTIONARY
360
31D
102
}
330
2A
100
AcDbVisualStyle
  2
Facepattern
 70
    15
 71
     2
 72
     2
 73
     0
 90
        0
 40
0.6
 41
30.0
 62
     5
 63
     7
421
 16777215
 74
     1
 91
        4
 64
     7
 65
   257
 75
     1
175
     1
 42
1.0
 92
        8
 66
     7
 43
1.0
 76
     1
 77
     6
 78
     2
 67
     7
 79
     5
170
     0
171
     0
290
     0
174
     0
 93
        1
 44
0.0
173
     0
291
     1
 45
0.0
1001
ACAD
1000
AcDbSavedByObjectVersion
1070
     0
  0
VISUALSTYLE
  5
2B
102
{ACAD_REACTORS
330
2A
102
}
102
{ACAD_XDICTIONARY
360
301
102
}
330
2A
100
AcDbVisualStyle
  2
Flat
 70
     0
 71
     2
 72
     1
 73
     1
 90
        2
 40
0.6
 41
30.0
 62
     5
 63
     7
421
 16777215
 74
     0
 91
        0
 64
     7
 65
   257
 75
     1
175
     1
 42
1.0
 92
        8
 66
     7
 43
1.0
 76
     1
 77
     6
 78
     2
 67
     7
 79
     5
170
     0
171
     0
290
     0
174
     0
 93
       13
 44
0.0
173
     0
291
     1
 45
0.0
1001
ACAD
1000
AcDbSavedByObjectVersion
1070
     0
  0
VISUALSTYLE
  5
2C
102
{ACAD_REACTORS
330
2A
102
}
102
{ACAD_XDICTIONARY
360
303
102
}
330
2A
100
AcDbVisualStyle
  2
FlatWithEdges
 70
     1
 71
     2
 72
     1
 73
     1
 90
        2
 40
0.6
 41
30.0
 62
     5
 63
     7
421
 16777215
 74
     1
 91
        0
 64
     7
 65
   257
 75
     1
175
     1
 42
1.0
 92
        0
 66
   257
 43
1.0
 76
     1
 77
     6
 78
     2
 67
     7
 79
     5
170
     0
171
     0
290
     0
174
     0
 93
       13
 44
0.0
173
     0
291
     1
 45
0.0
1001
ACAD
1000
AcDbSavedByObjectVersion
1070
     0
  0
VISUALSTYLE
  5
2D
102
{ACAD_REACTORS
330
2A
102
}
102
{ACAD_XDICTIONARY
360
305
102
}
330
2A
100
AcDbVisualStyle
  2
Gouraud
 70
     2
 71
     2
 72
     2
 73
     1
 90
        2
 40
0.6
 41
30.0
 62
     5
 63
     7
421
 16777215
 74
     0
 91
        0
 64
     7
 65
   257
 75
     1
175
     1
 42
1.0
 92
        0
 66
     7
 43
1.0
 76
     1
 77
     6
 78
     2
 67
     7
 79
     5
170
     0
171
     0
290
     0
174
     0
 93
       13
 44
0.0
173
     0
291
     1
 45
0.0
1001
ACAD
1000
AcDbSavedByObjectVersion
1070
     0
  0
VISUALSTYLE
  5
2E
102
{ACAD_REACTORS
330
2A
102
}
102
{ACAD_XDICTIONARY
360
307
102
}
330
2A
100
AcDbVisualStyle
  2
GouraudWithEdges
 70
     3
 71
     2
 72
     2
 73
     1
 90
        2
 40
0.6
 41
30.0
 62
     5
 63
     7
421
 16777215
 74
     1
 91
        0
 64
     7
 65
   257
 75
     1
175
     1
 42
1.0
 92
        0
 66
   257
 43
1.0
 76
     1
 77
     6
 78
     2
 67
     7
 79
     5
170
     0
171
     0
290
     0
174
     0
 93
       13
 44
0.0
173
     0
291
     1
 45
0.0
1001
ACAD
1000
AcDbSavedByObjectVersion
1070
     0
  0
VISUALSTYLE
  5
31
102
{ACAD_REACTORS
330
2A
102
}
102
{ACAD_XDICTIONARY
360
30D
102
}
330
2A
100
AcDbVisualStyle
  2
Hidden
 70
     6
 71
     1
 72
     2
 73
     2
 90
        0
 40
0.6
 41
30.0
 62
     5
 63
     7
421
 16777215
 74
     2
 91
        2
 64
     7
 65
   257
 75
     2
175
     1
 42
40.0
 92
        0
 66
   257
 43
1.0
 76
     1
 77
     6
 78
     2
 67
     7
 79
     3
170
     0
171
     0
290
     0
174
     0
 93
        1
 44
0.0
173
     0
291
     0
 45
0.0
1001
ACAD
1000
AcDbSavedByObjectVersion
1070
     0
  0
VISUALSTYLE
  5
3B
102
{ACAD_REACTORS
330
2A
102
}
102
{ACAD_XDICTIONARY
360
321
102
}
330
2A
100
AcDbVisualStyle
  2
JitterOff
 70
    20
 71
     2
 72
     2
 73
     0
 90
        0
 40
0.6
 41
30.0
 62
     5
 63
     7
421
 16777215
 74
     1
 91
        4
 64
     7
 65
   257
 75
     1
175
     1
 42
1.0
 92
       10
 66
     7
 43
1.0
 76
     1
 77
     6
 78
     2
 67
     7
 79
     5
170
     0
171
     0
290
     0
174
     0
 93
        1
 44
0.0
173
     0
291
     1
 45
0.0
1001
ACAD
1000
AcDbSavedByObjectVersion
1070
     0
  0
VISUALSTYLE
  5
38
102
{ACAD_REACTORS
330
2A
102
}
102
{ACAD_XDICTIONARY
360
31B
102
}
330
2A
100
AcDbVisualStyle
  2
Linepattern
 70
    14
 71
     2
 72
     2
 73
     0
 90
        0
 40
0.6
 41
30.0
 62
     5
 63
     7
421
 16777215
 74
     1
 91
        4
 64
     7
 65
   257
 75
     7
175
     7
 42
1.0
 92
        8
 66
     7
 43
1.0
 76
     1
 77
     6
 78
     2
 67
     7
 79
     5
170
     0
171
     0
290
     0
174
     0
 93
        1
 44
0.0
173
     0
291
     1
 45
0.0
1001
ACAD
1000
AcDbSavedByObjectVersion
1070
     0
  0
VISUALSTYLE
  5
3C
102
{ACAD_REACTORS
330
2A
102
}
102
{ACAD_XDICTIONARY
360
323
102
}
330
2A
100
AcDbVisualStyle
  2
OverhangOff
 70
    21
 71
     2
 72
     2
 73
     0
 90
        0
 40
0.6
 41
30.0
 62
     5
 63
     7
421
 16777215
 74
     1
 91
        4
 64
     7
 65
   257
 75
     1
175
     1
 42
1.0
 92
        9
 66
     7
 43
1.0
 76
     1
 77
     6
 78
     2
 67
     7
 79
     5
170
     0
171
     0
290
     0
174
     0
 93
        1
 44
0.0
173
     0
291
     1
 45
0.0
1001
ACAD
1000
AcDbSavedByObjectVersion
1070
     0
  0
VISUALSTYLE
  5
33
102
{ACAD_REACTORS
330
2A
102
}
102
{ACAD_XDICTIONARY
360
311
102
}
330
2A
100
AcDbVisualStyle
  2
Realistic
 70
     8
 71
     2
 72
     3
 73
     0
 90
        2
 40
0.6
 41
30.0
 62
     5
 63
     7
421
 16777215
 74
     0
 91
        0
 64
     7
 65
   257
 75
     1
175
     1
 42
1.0
 92
        8
 66
   257
 43
1.0
 76
     1
 77
     6
 78
     2
 67
     7
 79
     3
170
     0
171
     0
290
     0
174
     0
 93
       13
 44
0.0
173
     0
291
     0
 45
0.0
1001
ACAD
1000
AcDbSavedByObjectVersion
1070
     0
  0
VISUALSTYLE
  5
42
102
{ACAD_REACTORS
330
2A
102
}
102
{ACAD_XDICTIONARY
360
32F
102
}
330
2A
100
AcDbVisualStyle
  2
Shaded
 70
    27
 71
     2
 72
     2
 73
     1
 90
        2
 40
0.6
 41
30.0
 62
     5
 63
     7
421
 16777215
 74
     0
 91
        4
 64
     7
 65
   257
 75
     1
175
     1
 42
1.0
 92
        8
 66
   257
 43
1.0
 76
     1
 77
     6
 78
     2
 67
     8
425
  7895160
 79
     3
170
     0
171
     0
290
     0
174
     0
 93
        5
 44
0.0
173
     0
291
     0
 45
0.0
1001
ACAD
1000
AcDbSavedByObjectVersion
1070
     0
  0
VISUALSTYLE
  5
41
102
{ACAD_REACTORS
330
2A
102
}
102
{ACAD_XDICTIONARY
360
32D
102
}
330
2A
100
AcDbVisualStyle
  2
Shaded with edges
 70
    26
 71
     2
 72
     2
 73
     1
 90
        2
 40
0.6
 41
30.0
 62
     5
 63
     7
421
 16777215
 74
     1
 91
       10
 64
     7
 65
   257
 75
     2
175
     1
 42
1.0
 92
        8
 66
   257
 43
1.0
 76
     1
 77
     6
 78
     2
 67
     7
 79
     3
170
     0
171
     0
290
     0
174
     0
 93
        5
 44
0.0
173
     0
291
     0
 45
0.0
1001
ACAD
1000
AcDbSavedByObjectVersion
1070
     0
  0
VISUALSTYLE
  5
3E
102
{ACAD_REACTORS
330
2A
102
}
102
{ACAD_XDICTIONARY
360
327
102
}
330
2A
100
AcDbVisualStyle
  2
Shades of Gray
 70
    23
 71
     2
 72
     2
 73
     3
 90
        0
 40
0.6
 41
30.0
 62
     5
 63
     7
421
 16777215
 74
     2
 91
        2
 64
     7
 65
     7
 75
     1
175
     1
 42
40.0
 92
        8
 66
     7
 43
1.0
 76
     1
 77
     6
 78
     2
 67
     7
 79
     3
170
     0
171
     0
290
     0
174
     0
 93
        1
 44
0.0
173
     0
291
     0
 45
0.0
1001
ACAD
1000
AcDbSavedByObjectVersion
1070
     0
  0
VISUALSTYLE
  5
3F
102
{ACAD_REACTORS
330
2A
102
}
102
{ACAD_XDICTIONARY
360
329
102
}
330
2A
100
AcDbVisualStyle
  2
Sketchy
 70
    24
 71
     1
 72
     2
 73
     2
 90
        0
 40
0.6
 41
30.0
 62
     5
 63
     7
421
 16777215
 74
     2
 91
        2
 64
     7
 65
     7
 75
     1
175
     1
 42
40.0
 92
       11
 66
     7
 43
1.0
 76
     1
 77
     6
 78
     2
 67
     7
 79
     6
170
     0
171
     0
290
     0
174
     0
 93
        1
 44
0.0
173
     0
291
     0
 45
0.0
1001
ACAD
1000
AcDbSavedByObjectVersion
1070
     0
  0
VISUALSTYLE
  5
37
102
{ACAD_REACTORS
330
2A
102
}
102
{ACAD_XDICTIONARY
360
319
102
}
330
2A
100
AcDbVisualStyle
  2
Thicken
 70
    13
 71
     2
 72
     2
 73
     0
 90
        0
 40
0.6
 41
30.0
 62
     5
 63
     7
421
 16777215
 74
     1
 91
        4
 64
     7
 65
   257
 75
     1
175
     1
 42
1.0
 92
       12
 66
     7
 43
1.0
 76
     1
 77
     6
 78
     2
 67
     7
 79
     5
170
     0
171
     0
290
     0
174
     0
 93
        1
 44
0.0
173
     0
291
     1
 45
0.0
1001
ACAD
1000
AcDbSavedByObjectVersion
1070
     0
  0
VISUALSTYLE
  5
30
102
{ACAD_REACTORS
330
2A
102
}
102
{ACAD_XDICTIONARY
360
30B
102
}
330
2A
100
AcDbVisualStyle
  2
Wireframe
 70
     5
 71
     0
 72
     2
 73
     0
 90
        0
 40
0.6
 41
30.0
 62
     5
 63
     7
421
 16777215
 74
     1
 91
        4
 64
     7
 65
   257
 75
     1
175
     1
 42
1.0
 92
        0
 66
   257
 43
1.0
 76
     1
 77
     6
 78
     2
 67
     7
 79
     3
170
     0
171
     0
290
     0
174
     0
 93
        1
 44
0.0
173
     0
291
     0
 45
0.0
1001
ACAD
1000
AcDbSavedByObjectVersion
1070
     0
  0
VISUALSTYLE
  5
40
102
{ACAD_REACTORS
330
2A
102
}
102
{ACAD_XDICTIONARY
360
32B
102
}
330
2A
100
AcDbVisualStyle
  2
X-Ray
 70
    25
 71
     2
 72
     2
 73
     1
 90
        1
 40
0.5
 41
30.0
 62
     5
 63
     7
421
 16777215
 74
     1
 91
        0
 64
     7
 65
   257
 75
     1
175
     1
 42
1.0
 92
        8
 66
     7
 43
1.0
 76
     1
 77
     6
 78
     2
 67
     7
 79
     3
170
     0
171
     0
290
     0
174
     0
 93
       13
 44
0.0
173
     0
291
     0
 45
0.0
1001
ACAD
1000
AcDbSavedByObjectVersion
1070
     0
  0
DICTIONARYVAR
  5
2FE
102
{ACAD_REACTORS
330
2FD
102
}
330
2FD
100
DictionaryVariables
280
     0
  1
1:1
  0
DICTIONARYVAR
  5
342
102
{ACAD_REACTORS
330
2FD
102
}
330
2FD
100
DictionaryVariables
280
     0
  1
3.500000
  0
DICTIONARYVAR
  5
343
102
{ACAD_REACTORS
330
2FD
102
}
330
2FD
100
DictionaryVariables
280
     0
  1
acadiso.lin
  0
DICTIONARYVAR
  5
33F
102
{ACAD_REACTORS
330
2FD
102
}
330
2FD
100
DictionaryVariables
280
     0
  1
Standard
  0
DICTIONARYVAR
  5
33E
102
{ACAD_REACTORS
330
2FD
102
}
330
2FD
100
DictionaryVariables
280
     0
  1
Standard
  0
DICTIONARYVAR
  5
2FF
102
{ACAD_REACTORS
330
2FD
102
}
330
2FD
100
DictionaryVariables
280
     0
  1
1
  0
DICTIONARYVAR
  5
300
102
{ACAD_REACTORS
330
2FD
102
}
330
2FD
100
DictionaryVariables
280
     0
  1
2
  0
DICTIONARY
  5
333
330
45
100
AcDbDictionary
280
     1
281
     1
  3
ACAD_XREC_ROUNDTRIP
360
334
  0
DICTIONARY
  5
331
330
44
100
AcDbDictionary
280
     1
281
     1
  3
ACAD_XREC_ROUNDTRIP
360
332
  0
DICTIONARY
  5
335
330
46
100
AcDbDictionary
280
     1
281
     1
  3
ACAD_XREC_ROUNDTRIP
360
336
  0
DICTIONARY
  5
33B
330
6C
100
AcDbDictionary
280
     1
281
     1
  3
ACAD_XREC_ROUNDTRIP
360
33C
  0
DICTIONARY
  5
337
330
6A
100
AcDbDictionary
280
     1
281
     1
  3
ACAD_ROUNDTRIP_2008_TABLESTYLE_CELLSTYLEMAP
360
339
  3
ACAD_XREC_ROUNDTRIP
360
338
  0
DICTIONARY
  5
309
330
2F
100
AcDbDictionary
280
     1
281
     1
  3
ACAD_XREC_ROUNDTRIP
360
30A
  0
DICTIONARY
  5
30F
330
32
100
AcDbDictionary
280
     1
281
     1
  3
ACAD_XREC_ROUNDTRIP
360
310
  0
DICTIONARY
  5
317
330
36
100
AcDbDictionary
280
     1
281
     1
  3
ACAD_XREC_ROUNDTRIP
360
318
  0
DICTIONARY
  5
31F
330
3A
100
AcDbDictionary
280
     1
281
     1
  3
ACAD_XREC_ROUNDTRIP
360
320
  0
DICTIONARY
  5
313
330
34
100
AcDbDictionary
280
     1
281
     1
  3
ACAD_XREC_ROUNDTRIP
360
314
  0
DICTIONARY
  5
315
330
35
100
AcDbDictionary
280
     1
281
     1
  3
ACAD_XREC_ROUNDTRIP
360
316
  0
DICTIONARY
  5
325
330
3D
100
AcDbDictionary
280
     1
281
     1
  3
ACAD_XREC_ROUNDTRIP
360
326
  0
DICTIONARY
  5
31D
330
39
100
AcDbDictionary
280
     1
281
     1
  3
ACAD_XREC_ROUNDTRIP
360
31E
  0
DICTIONARY
  5
301
330
2B
100
AcDbDictionary
280
     1
281
     1
  3
ACAD_XREC_ROUNDTRIP
360
302
  0
DICTIONARY
  5
303
330
2C
100
AcDbDictionary
280
     1
281
     1
  3
ACAD_XREC_ROUNDTRIP
360
304
  0
DICTIONARY
  5
305
330
2D
100
AcDbDictionary
280
     1
281
     1
  3
ACAD_XREC_ROUNDTRIP
360
306
  0
DICTIONARY
  5
307
330
2E
100
AcDbDictionary
280
     1
281
     1
  3
ACAD_XREC_ROUNDTRIP
360
308
  0
DICTIONARY
  5
30D
330
31
100
AcDbDictionary
280
     1
281
     1
  3
ACAD_XREC_ROUNDTRIP
360
30E
  0
DICTIONARY
  5
321
330
3B
100
AcDbDictionary
280
     1
281
     1
  3
ACAD_XREC_ROUNDTRIP
360
322
  0
DICTIONARY
  5
31B
330
38
100
AcDbDictionary
280
     1
281
     1
  3
ACAD_XREC_ROUNDTRIP
360
31C
  0
DICTIONARY
  5
323
330
3C
100
AcDbDictionary
280
     1
281
     1
  3
ACAD_XREC_ROUNDTRIP
360
324
  0
DICTIONARY
  5
311
330
33
100
AcDbDictionary
280
     1
281
     1
  3
ACAD_XREC_ROUNDTRIP
360
312
  0
DICTIONARY
  5
32F
330
42
100
AcDbDictionary
280
     1
281
     1
  3
ACAD_XREC_ROUNDTRIP
360
330
  0
DICTIONARY
  5
32D
330
41
100
AcDbDictionary
280
     1
281
     1
  3
ACAD_XREC_ROUNDTRIP
360
32E
  0
DICTIONARY
  5
327
330
3E
100
AcDbDictionary
280
     1
281
     1
  3
ACAD_XREC_ROUNDTRIP
360
328
  0
DICTIONARY
  5
329
330
3F
100
AcDbDictionary
280
     1
281
     1
  3
ACAD_XREC_ROUNDTRIP
360
32A
  0
DICTIONARY
  5
319
330
37
100
AcDbDictionary
280
     1
281
     1
  3
ACAD_XREC_ROUNDTRIP
360
31A
  0
DICTIONARY
  5
30B
330
30
100
AcDbDictionary
280
     1
281
     1
  3
ACAD_XREC_ROUNDTRIP
360
30C
  0
DICTIONARY
  5
32B
330
40
100
AcDbDictionary
280
     1
281
     1
  3
ACAD_XREC_ROUNDTRIP
360
32C
  0
XRECORD
  5
334
102
{ACAD_REACTORS
330
333
102
}
330
333
100
AcDbXrecord
280
     1
102
MATERIAL
148
0.0
149
0.0
149
0.0
 93
        0
 94
      127
282
     0
 72
     1
 77
     1
171
     1
175
     1
179
     1
273
     0
  0
XRECORD
  5
332
102
{ACAD_REACTORS
330
331
102
}
330
331
100
AcDbXrecord
280
     1
102
MATERIAL
148
0.0
149
0.0
149
0.0
 93
        0
 94
      127
282
     0
 72
     1
 77
     1
171
     1
175
     1
179
     1
273
     0
  0
XRECORD
  5
336
102
{ACAD_REACTORS
330
335
102
}
330
335
100
AcDbXrecord
280
     1
102
MATERIAL
148
0.0
149
0.0
149
0.0
 93
        0
 94
      127
282
     0
 72
     1
 77
     1
171
     1
175
     1
179
     1
273
     0
  0
XRECORD
  5
33C
102
{ACAD_REACTORS
330
33B
102
}
330
33B
100
AcDbXrecord
280
     1
102
ACAD_ROUNDTRIP_2010_MLEADER_STYLE
  0
CELLSTYLEMAP
  5
339
102
{ACAD_REACTORS
330
337
102
}
330
337
100
AcDbCellStyleMap
 90
        3
300
CELLSTYLE
  1
TABLEFORMAT_BEGIN
 90
        5
170
     1
 91
        0
 92
    32768
 62
   257
 93
        1
300
CONTENTFORMAT
  1
CONTENTFORMAT_BEGIN
 90
        0
 91
        0
 92
        4
 93
        0
300

 40
0.0
140
1.0
 94
        5
 62
     0
340
11
144
6.0
309
CONTENTFORMAT_END
171
     1
301
MARGIN
  1
CELLMARGIN_BEGIN
 40
1.5
 40
1.5
 40
1.5
 40
1.5
 40
1.5
 40
1.5
309
CELLMARGIN_END
 94
        6
 95
        1
302
GRIDFORMAT
  1
GRIDFORMAT_BEGIN
 90
        0
 91
        1
 62
     0
 92
       -2
340
14
 93
        0
 40
0.045
309
GRIDFORMAT_END
 95
        2
302
GRIDFORMAT
  1
GRIDFORMAT_BEGIN
 90
        0
 91
        1
 62
     0
 92
       -2
340
14
 93
        0
 40
0.045
309
GRIDFORMAT_END
 95
        4
302
GRIDFORMAT
  1
GRIDFORMAT_BEGIN
 90
        0
 91
        1
 62
     0
 92
       -2
340
14
 93
        0
 40
0.045
309
GRIDFORMAT_END
 95
        8
302
GRIDFORMAT
  1
GRIDFORMAT_BEGIN
 90
        0
 91
        1
 62
     0
 92
       -2
340
14
 93
        0
 40
0.045
309
GRIDFORMAT_END
 95
       16
302
GRIDFORMAT
  1
GRIDFORMAT_BEGIN
 90
        0
 91
        1
 62
     0
 92
       -2
340
14
 93
        0
 40
0.045
309
GRIDFORMAT_END
 95
       32
302
GRIDFORMAT
  1
GRIDFORMAT_BEGIN
 90
        0
 91
        1
 62
     0
 92
       -2
340
14
 93
        0
 40
0.045
309
GRIDFORMAT_END
309
TABLEFORMAT_END
  1
CELLSTYLE_BEGIN
 90
        1
 91
        1
300
_TITLE
309
CELLSTYLE_END
300
CELLSTYLE
  1
TABLEFORMAT_BEGIN
 90
        5
170
     1
 91
        0
 92
        0
 62
   257
 93
        1
300
CONTENTFORMAT
  1
CONTENTFORMAT_BEGIN
 90
        0
 91
        0
 92
        4
 93
        0
300

 40
0.0
140
1.0
 94
        5
 62
     0
340
11
144
4.5
309
CONTENTFORMAT_END
171
     1
301
MARGIN
  1
CELLMARGIN_BEGIN
 40
1.5
 40
1.5
 40
1.5
 40
1.5
 40
1.5
 40
1.5
309
CELLMARGIN_END
 94
        6
 95
        1
302
GRIDFORMAT
  1
GRIDFORMAT_BEGIN
 90
        0
 91
        1
 62
     0
 92
       -2
340
14
 93
        0
 40
0.045
309
GRIDFORMAT_END
 95
        2
302
GRIDFORMAT
  1
GRIDFORMAT_BEGIN
 90
        0
 91
        1
 62
     0
 92
       -2
340
14
 93
        0
 40
0.045
309
GRIDFORMAT_END
 95
        4
302
GRIDFORMAT
  1
GRIDFORMAT_BEGIN
 90
        0
 91
        1
 62
     0
 92
       -2
340
14
 93
        0
 40
0.045
309
GRIDFORMAT_END
 95
        8
302
GRIDFORMAT
  1
GRIDFORMAT_BEGIN
 90
        0
 91
        1
 62
     0
 92
       -2
340
14
 93
        0
 40
0.045
309
GRIDFORMAT_END
 95
       16
302
GRIDFORMAT
  1
GRIDFORMAT_BEGIN
 90
        0
 91
        1
 62
     0
 92
       -2
340
14
 93
        0
 40
0.045
309
GRIDFORMAT_END
 95
       32
302
GRIDFORMAT
  1
GRIDFORMAT_BEGIN
 90
        0
 91
        1
 62
     0
 92
       -2
340
14
 93
        0
 40
0.045
309
GRIDFORMAT_END
309
TABLEFORMAT_END
  1
CELLSTYLE_BEGIN
 90
        2
 91
        1
300
_HEADER
309
CELLSTYLE_END
300
CELLSTYLE
  1
TABLEFORMAT_BEGIN
 90
        5
170
     1
 91
        0
 92
        0
 62
   257
 93
        1
300
CONTENTFORMAT
  1
CONTENTFORMAT_BEGIN
 90
        0
 91
        0
 92
        4
 93
        0
300

 40
0.0
140
1.0
 94
        2
 62
     0
340
11
144
4.5
309
CONTENTFORMAT_END
171
     1
301
MARGIN
  1
CELLMARGIN_BEGIN
 40
1.5
 40
1.5
 40
1.5
 40
1.5
 40
1.5
 40
1.5
309
CELLMARGIN_END
 94
        6
 95
        1
302
GRIDFORMAT
  1
GRIDFORMAT_BEGIN
 90
        0
 91
        1
 62
     0
 92
       -2
340
14
 93
        0
 40
0.045
309
GRIDFORMAT_END
 95
        2
302
GRIDFORMAT
  1
GRIDFORMAT_BEGIN
 90
        0
 91
        1
 62
     0
 92
       -2
340
14
 93
        0
 40
0.045
309
GRIDFORMAT_END
 95
        4
302
GRIDFORMAT
  1
GRIDFORMAT_BEGIN
 90
        0
 91
        1
 62
     0
 92
       -2
340
14
 93
        0
 40
0.045
309
GRIDFORMAT_END
 95
        8
302
GRIDFORMAT
  1
GRIDFORMAT_BEGIN
 90
        0
 91
        1
 62
     0
 92
       -2
340
14
 93
        0
 40
0.045
309
GRIDFORMAT_END
 95
       16
302
GRIDFORMAT
  1
GRIDFORMAT_BEGIN
 90
        0
 91
        1
 62
     0
 92
       -2
340
14
 93
        0
 40
0.045
309
GRIDFORMAT_END
 95
       32
302
GRIDFORMAT
  1
GRIDFORMAT_BEGIN
 90
        0
 91
        1
 62
     0
 92
       -2
340
14
 93
        0
 40
0.045
309
GRIDFORMAT_END
309
TABLEFORMAT_END
  1
CELLSTYLE_BEGIN
 90
        3
 91
        2
300
_DATA
309
CELLSTYLE_END
  0
XRECORD
  5
338
102
{ACAD_REACTORS
330
337
102
}
330
337
100
AcDbXrecord
280
     1
102
ACAD_ROUNDTRIP_PRE2007_TABLESTYLE
 90
        4
 91
        0
  1

 92
        4
 93
        0
  2

 94
        4
 95
        0
  3

  0
XRECORD
  5
30A
102
{ACAD_REACTORS
330
309
102
}
330
309
100
AcDbXrecord
280
     1
102
RTVSPropertyOp0
 70
     1
102
RTVSPropertyOp1
 70
     1
102
RTVSPropertyOp2
 70
     1
102
RTVSPropertyOp3
 70
     1
102
RTVSPropertyOp4
 70
     1
102
RTVSPropertyOp5
 70
     1
102
RTVSPropertyOp6
 70
     1
102
RTVSPropertyOp7
 70
     1
102
RTVSPropertyOp8
 70
     1
102
RTVSPropertyOp9
 70
     1
102
RTVSPropertyOp10
 70
     1
102
RTVSPropertyOp11
 70
     1
102
RTVSPropertyOp12
 70
     1
102
RTVSPropertyOp13
 70
     1
102
RTVSPropertyOp14
 70
     1
102
RTVSPropertyOp15
 70
     1
102
RTVSPropertyOp16
 70
     1
102
RTVSPropertyOp17
 70
     1
102
RTVSPropertyOp18
 70
     1
102
RTVSPropertyOp19
 70
     1
102
RTVSPropertyOp20
 70
     1
102
RTVSPropertyOp21
 70
     1
102
RTVSPropertyOp22
 70
     1
102
RTVSPropertyOp23
 70
     1
102
RTVSPropertyOp24
 70
     1
102
RTVSPropertyOp25
 70
     1
102
RTVSPropertyOp26
 70
     1
102
RTVSPropertyOp27
 70
     1
102
RTVSPropertyOp28
 70
     1
102
RTVSPropertyOp29
 70
     1
102
RTVSPropertyOp30
 70
     1
102
RTVSPropertyOp31
 70
     1
102
RTVSPropertyOp32
 70
     1
102
RTVSPropertyOp33
 70
     1
102
RTVSPropertyOp34
 70
     1
102
RTVSPropertyOp35
 70
     1
102
RTVSPropertyOp36
 70
     1
102
RTVSPropertyOp37
 70
     1
102
RTVSPropertyOp38
 70
     1
102
RTVSPropertyOp39
 70
     1
102
RTVSPropertyOp40
 70
     1
102
RTVSPropertyOp41
 70
     1
102
RTVSPropertyOp42
 70
     1
102
RTVSPropertyOp43
 70
     1
102
RTVSPropertyOp44
 70
     1
102
RTVSPropertyOp45
 70
     1
102
RTVSPropertyOp46
 70
     1
102
RTVSPropertyOp47
 70
     1
102
RTVSPropertyOp48
 70
     1
102
RTVSPropertyOp49
 70
     1
102
RTVSPropertyOp50
 70
     1
102
RTVSPropertyOp51
 70
     0
102
RTVSPropertyOp52
 70
     0
102
RTVSPropertyOp53
 70
     1
102
RTVSPropertyOp54
 70
     1
102
RTVSPropertyOp55
 70
     1
102
RTVSPropertyOp56
 70
     1
102
RTVSPropertyOp57
 70
     1
102
RTVSPost2010Prop28
280
     1
102
RTVSPost2010PropOp28
 70
     1
102
RTVSPost2010Prop29
280
     1
102
RTVSPost2010PropOp29
 70
     1
102
RTVSPost2010Prop30
280
     0
102
RTVSPost2010PropOp30
 70
     1
102
RTVSPost2010Prop31
280
     0
102
RTVSPost2010PropOp31
 70
     1
102
RTVSPost2010Prop32
280
     0
102
RTVSPost2010PropOp32
 70
     1
102
RTVSPost2010Prop33
280
     0
102
RTVSPost2010PropOp33
 70
     1
102
RTVSPost2010Prop34
280
     0
102
RTVSPost2010PropOp34
 70
     1
102
RTVSPost2010Prop35
280
     0
102
RTVSPost2010PropOp35
 70
     1
102
RTVSPost2010Prop36
280
     0
102
RTVSPost2010PropOp36
 70
     1
102
RTVSPost2010Prop37
 90
       50
102
RTVSPost2010PropOp37
 70
     1
102
RTVSPost2010Prop38
140
0.0
102
RTVSPost2010PropOp38
 70
     1
102
RTVSPost2010Prop39
140
1.0
102
RTVSPost2010PropOp39
 70
     1
102
RTVSPost2010Prop40
 90
        0
102
RTVSPost2010PropOp40
 70
     1
102
RTVSPost2010Prop41ColorIndex
 90
       18
102
RTVSPost2010Prop41ColorRGB
 90
        0
102
RTVSPost2010PropOp41
 70
     1
102
RTVSPost2010Prop42
 90
       50
102
RTVSPost2010PropOp42
 70
     1
102
RTVSPost2010Prop43
 90
        3
102
RTVSPost2010PropOp43
 70
     1
102
RTVSPost2010Prop44ColorIndex
 90
        5
102
RTVSPost2010Prop44ColorRGB
 90
      255
102
RTVSPost2010PropOp44
 70
     1
102
RTVSPost2010Prop45
280
     0
102
RTVSPost2010PropOp45
 70
     1
102
RTVSPost2010Prop46
 90
       50
102
RTVSPost2010PropOp46
 70
     1
102
RTVSPost2010Prop47
 90
       50
102
RTVSPost2010PropOp47
 70
     1
102
RTVSPost2010Prop48
 90
       50
102
RTVSPost2010PropOp48
 70
     1
102
RTVSPost2010Prop49
280
     0
102
RTVSPost2010PropOp49
 70
     1
102
RTVSPost2010Prop50
 90
       50
102
RTVSPost2010PropOp50
 70
     1
102
RTVSPost2010Prop51ColorIndex
 90
      256
102
RTVSPost2010Prop51ColorRGB
 90
-16777216
102
RTVSPost2010PropOp51
 70
     0
102
RTVSPost2010Prop52
140
1.0
102
RTVSPost2010PropOp52
 70
     0
102
RTVSPost2010Prop53
 90
        2
102
RTVSPost2010PropOp53
 70
     1
102
RTVSPost2010Prop54
  1
strokes_ogs.tif
102
RTVSPost2010PropOp54
 70
     1
102
RTVSPost2010Prop55
280
     0
102
RTVSPost2010PropOp55
 70
     1
102
RTVSPost2010Prop56
140
1.0
102
RTVSPost2010PropOp56
 70
     1
102
RTVSPost2010Prop57
140
1.0
102
RTVSPost2010PropOp57
 70
     1
  0
XRECORD
  5
310
102
{ACAD_REACTORS
330
30F
102
}
330
30F
100
AcDbXrecord
280
     1
102
RTVSPropertyOp0
 70
     1
102
RTVSPropertyOp1
 70
     1
102
RTVSPropertyOp2
 70
     1
102
RTVSPropertyOp3
 70
     1
102
RTVSPropertyOp4
 70
     1
102
RTVSPropertyOp5
 70
     1
102
RTVSPropertyOp6
 70
     1
102
RTVSPropertyOp7
 70
     1
102
RTVSPropertyOp8
 70
     1
102
RTVSPropertyOp9
 70
     1
102
RTVSPropertyOp10
 70
     1
102
RTVSPropertyOp11
 70
     1
102
RTVSPropertyOp12
 70
     1
102
RTVSPropertyOp13
 70
     1
102
RTVSPropertyOp14
 70
     1
102
RTVSPropertyOp15
 70
     1
102
RTVSPropertyOp16
 70
     1
102
RTVSPropertyOp17
 70
     1
102
RTVSPropertyOp18
 70
     1
102
RTVSPropertyOp19
 70
     1
102
RTVSPropertyOp20
 70
     1
102
RTVSPropertyOp21
 70
     1
102
RTVSPropertyOp22
 70
     1
102
RTVSPropertyOp23
 70
     1
102
RTVSPropertyOp24
 70
     1
102
RTVSPropertyOp25
 70
     1
102
RTVSPropertyOp26
 70
     1
102
RTVSPropertyOp27
 70
     1
102
RTVSPropertyOp28
 70
     1
102
RTVSPropertyOp29
 70
     1
102
RTVSPropertyOp30
 70
     1
102
RTVSPropertyOp31
 70
     1
102
RTVSPropertyOp32
 70
     1
102
RTVSPropertyOp33
 70
     1
102
RTVSPropertyOp34
 70
     1
102
RTVSPropertyOp35
 70
     1
102
RTVSPropertyOp36
 70
     1
102
RTVSPropertyOp37
 70
     1
102
RTVSPropertyOp38
 70
     1
102
RTVSPropertyOp39
 70
     1
102
RTVSPropertyOp40
 70
     1
102
RTVSPropertyOp41
 70
     1
102
RTVSPropertyOp42
 70
     1
102
RTVSPropertyOp43
 70
     1
102
RTVSPropertyOp44
 70
     1
102
RTVSPropertyOp45
 70
     1
102
RTVSPropertyOp46
 70
     1
102
RTVSPropertyOp47
 70
     1
102
RTVSPropertyOp48
 70
     1
102
RTVSPropertyOp49
 70
     1
102
RTVSPropertyOp50
 70
     1
102
RTVSPropertyOp51
 70
     0
102
RTVSPropertyOp52
 70
     0
102
RTVSPropertyOp53
 70
     1
102
RTVSPropertyOp54
 70
     1
102
RTVSPropertyOp55
 70
     1
102
RTVSPropertyOp56
 70
     1
102
RTVSPropertyOp57
 70
     1
102
RTVSPost2010Prop28
280
     0
102
RTVSPost2010PropOp28
 70
     1
102
RTVSPost2010Prop29
280
     1
102
RTVSPost2010PropOp29
 70
     1
102
RTVSPost2010Prop30
280
     1
102
RTVSPost2010PropOp30
 70
     1
102
RTVSPost2010Prop31
280
     0
102
RTVSPost2010PropOp31
 70
     1
102
RTVSPost2010Prop32
280
     0
102
RTVSPost2010PropOp32
 70
     1
102
RTVSPost2010Prop33
280
     0
102
RTVSPost2010PropOp33
 70
     1
102
RTVSPost2010Prop34
280
     0
102
RTVSPost2010PropOp34
 70
     1
102
RTVSPost2010Prop35
280
     0
102
RTVSPost2010PropOp35
 70
     1
102
RTVSPost2010Prop36
280
     0
102
RTVSPost2010PropOp36
 70
     1
102
RTVSPost2010Prop37
 90
       50
102
RTVSPost2010PropOp37
 70
     1
102
RTVSPost2010Prop38
140
0.0
102
RTVSPost2010PropOp38
 70
     1
102
RTVSPost2010Prop39
140
1.0
102
RTVSPost2010PropOp39
 70
     1
102
RTVSPost2010Prop40
 90
        0
102
RTVSPost2010PropOp40
 70
     1
102
RTVSPost2010Prop41ColorIndex
 90
       18
102
RTVSPost2010Prop41ColorRGB
 90
        0
102
RTVSPost2010PropOp41
 70
     1
102
RTVSPost2010Prop42
 90
       50
102
RTVSPost2010PropOp42
 70
     1
102
RTVSPost2010Prop43
 90
        3
102
RTVSPost2010PropOp43
 70
     1
102
RTVSPost2010Prop44ColorIndex
 90
        5
102
RTVSPost2010Prop44ColorRGB
 90
      255
102
RTVSPost2010PropOp44
 70
     1
102
RTVSPost2010Prop45
280
     0
102
RTVSPost2010PropOp45
 70
     1
102
RTVSPost2010Prop46
 90
       50
102
RTVSPost2010PropOp46
 70
     1
102
RTVSPost2010Prop47
 90
       50
102
RTVSPost2010PropOp47
 70
     1
102
RTVSPost2010Prop48
 90
       50
102
RTVSPost2010PropOp48
 70
     1
102
RTVSPost2010Prop49
280
     0
102
RTVSPost2010PropOp49
 70
     1
102
RTVSPost2010Prop50
 90
       50
102
RTVSPost2010PropOp50
 70
     1
102
RTVSPost2010Prop51ColorIndex
 90
      256
102
RTVSPost2010Prop51ColorRGB
 90
-16777216
102
RTVSPost2010PropOp51
 70
     0
102
RTVSPost2010Prop52
140
1.0
102
RTVSPost2010PropOp52
 70
     0
102
RTVSPost2010Prop53
 90
        2
102
RTVSPost2010PropOp53
 70
     1
102
RTVSPost2010Prop54
  1
strokes_ogs.tif
102
RTVSPost2010PropOp54
 70
     1
102
RTVSPost2010Prop55
280
     0
102
RTVSPost2010PropOp55
 70
     1
102
RTVSPost2010Prop56
140
1.0
102
RTVSPost2010PropOp56
 70
     1
102
RTVSPost2010Prop57
140
1.0
102
RTVSPost2010PropOp57
 70
     1
  0
XRECORD
  5
318
102
{ACAD_REACTORS
330
317
102
}
330
317
100
AcDbXrecord
280
     1
102
RTVSPropertyOp0
 70
     1
102
RTVSPropertyOp1
 70
     1
102
RTVSPropertyOp2
 70
     1
102
RTVSPropertyOp3
 70
     1
102
RTVSPropertyOp4
 70
     1
102
RTVSPropertyOp5
 70
     1
102
RTVSPropertyOp6
 70
     1
102
RTVSPropertyOp7
 70
     1
102
RTVSPropertyOp8
 70
     1
102
RTVSPropertyOp9
 70
     1
102
RTVSPropertyOp10
 70
     1
102
RTVSPropertyOp11
 70
     1
102
RTVSPropertyOp12
 70
     1
102
RTVSPropertyOp13
 70
     1
102
RTVSPropertyOp14
 70
     1
102
RTVSPropertyOp15
 70
     1
102
RTVSPropertyOp16
 70
     1
102
RTVSPropertyOp17
 70
     1
102
RTVSPropertyOp18
 70
     1
102
RTVSPropertyOp19
 70
     1
102
RTVSPropertyOp20
 70
     1
102
RTVSPropertyOp21
 70
     1
102
RTVSPropertyOp22
 70
     1
102
RTVSPropertyOp23
 70
     1
102
RTVSPropertyOp24
 70
     1
102
RTVSPropertyOp25
 70
     1
102
RTVSPropertyOp26
 70
     1
102
RTVSPropertyOp27
 70
     1
102
RTVSPropertyOp28
 70
     1
102
RTVSPropertyOp29
 70
     1
102
RTVSPropertyOp30
 70
     1
102
RTVSPropertyOp31
 70
     1
102
RTVSPropertyOp32
 70
     1
102
RTVSPropertyOp33
 70
     1
102
RTVSPropertyOp34
 70
     1
102
RTVSPropertyOp35
 70
     1
102
RTVSPropertyOp36
 70
     1
102
RTVSPropertyOp37
 70
     1
102
RTVSPropertyOp38
 70
     1
102
RTVSPropertyOp39
 70
     1
102
RTVSPropertyOp40
 70
     1
102
RTVSPropertyOp41
 70
     1
102
RTVSPropertyOp42
 70
     1
102
RTVSPropertyOp43
 70
     1
102
RTVSPropertyOp44
 70
     1
102
RTVSPropertyOp45
 70
     1
102
RTVSPropertyOp46
 70
     1
102
RTVSPropertyOp47
 70
     1
102
RTVSPropertyOp48
 70
     1
102
RTVSPropertyOp49
 70
     1
102
RTVSPropertyOp50
 70
     1
102
RTVSPropertyOp51
 70
     0
102
RTVSPropertyOp52
 70
     0
102
RTVSPropertyOp53
 70
     1
102
RTVSPropertyOp54
 70
     1
102
RTVSPropertyOp55
 70
     1
102
RTVSPropertyOp56
 70
     1
102
RTVSPropertyOp57
 70
     1
102
RTVSPost2010Prop28
280
     0
102
RTVSPost2010PropOp28
 70
     1
102
RTVSPost2010Prop29
280
     1
102
RTVSPost2010PropOp29
 70
     1
102
RTVSPost2010Prop30
280
     1
102
RTVSPost2010PropOp30
 70
     1
102
RTVSPost2010Prop31
280
     0
102
RTVSPost2010PropOp31
 70
     1
102
RTVSPost2010Prop32
280
     0
102
RTVSPost2010PropOp32
 70
     1
102
RTVSPost2010Prop33
280
     0
102
RTVSPost2010PropOp33
 70
     1
102
RTVSPost2010Prop34
280
     0
102
RTVSPost2010PropOp34
 70
     1
102
RTVSPost2010Prop35
280
     0
102
RTVSPost2010PropOp35
 70
     1
102
RTVSPost2010Prop36
280
     0
102
RTVSPost2010PropOp36
 70
     1
102
RTVSPost2010Prop37
 90
       50
102
RTVSPost2010PropOp37
 70
     1
102
RTVSPost2010Prop38
140
0.0
102
RTVSPost2010PropOp38
 70
     1
102
RTVSPost2010Prop39
140
1.0
102
RTVSPost2010PropOp39
 70
     1
102
RTVSPost2010Prop40
 90
        0
102
RTVSPost2010PropOp40
 70
     1
102
RTVSPost2010Prop41ColorIndex
 90
       18
102
RTVSPost2010Prop41ColorRGB
 90
        0
102
RTVSPost2010PropOp41
 70
     1
102
RTVSPost2010Prop42
 90
       50
102
RTVSPost2010PropOp42
 70
     1
102
RTVSPost2010Prop43
 90
        3
102
RTVSPost2010PropOp43
 70
     1
102
RTVSPost2010Prop44ColorIndex
 90
        5
102
RTVSPost2010Prop44ColorRGB
 90
      255
102
RTVSPost2010PropOp44
 70
     1
102
RTVSPost2010Prop45
280
     0
102
RTVSPost2010PropOp45
 70
     1
102
RTVSPost2010Prop46
 90
       50
102
RTVSPost2010PropOp46
 70
     1
102
RTVSPost2010Prop47
 90
       50
102
RTVSPost2010PropOp47
 70
     1
102
RTVSPost2010Prop48
 90
       50
102
RTVSPost2010PropOp48
 70
     1
102
RTVSPost2010Prop49
280
     0
102
RTVSPost2010PropOp49
 70
     1
102
RTVSPost2010Prop50
 90
       50
102
RTVSPost2010PropOp50
 70
     1
102
RTVSPost2010Prop51ColorIndex
 90
      256
102
RTVSPost2010Prop51ColorRGB
 90
-16777216
102
RTVSPost2010PropOp51
 70
     0
102
RTVSPost2010Prop52
140
1.0
102
RTVSPost2010PropOp52
 70
     0
102
RTVSPost2010Prop53
 90
        2
102
RTVSPost2010PropOp53
 70
     1
102
RTVSPost2010Prop54
  1
strokes_ogs.tif
102
RTVSPost2010PropOp54
 70
     1
102
RTVSPost2010Prop55
280
     0
102
RTVSPost2010PropOp55
 70
     1
102
RTVSPost2010Prop56
140
1.0
102
RTVSPost2010PropOp56
 70
     1
102
RTVSPost2010Prop57
140
1.0
102
RTVSPost2010PropOp57
 70
     1
  0
XRECORD
  5
320
102
{ACAD_REACTORS
330
31F
102
}
330
31F
100
AcDbXrecord
280
     1
102
RTVSPropertyOp0
 70
     1
102
RTVSPropertyOp1
 70
     1
102
RTVSPropertyOp2
 70
     1
102
RTVSPropertyOp3
 70
     1
102
RTVSPropertyOp4
 70
     1
102
RTVSPropertyOp5
 70
     1
102
RTVSPropertyOp6
 70
     1
102
RTVSPropertyOp7
 70
     1
102
RTVSPropertyOp8
 70
     1
102
RTVSPropertyOp9
 70
     1
102
RTVSPropertyOp10
 70
     1
102
RTVSPropertyOp11
 70
     1
102
RTVSPropertyOp12
 70
     1
102
RTVSPropertyOp13
 70
     1
102
RTVSPropertyOp14
 70
     1
102
RTVSPropertyOp15
 70
     1
102
RTVSPropertyOp16
 70
     1
102
RTVSPropertyOp17
 70
     1
102
RTVSPropertyOp18
 70
     1
102
RTVSPropertyOp19
 70
     1
102
RTVSPropertyOp20
 70
     1
102
RTVSPropertyOp21
 70
     1
102
RTVSPropertyOp22
 70
     1
102
RTVSPropertyOp23
 70
     1
102
RTVSPropertyOp24
 70
     1
102
RTVSPropertyOp25
 70
     1
102
RTVSPropertyOp26
 70
     1
102
RTVSPropertyOp27
 70
     1
102
RTVSPropertyOp28
 70
     1
102
RTVSPropertyOp29
 70
     1
102
RTVSPropertyOp30
 70
     1
102
RTVSPropertyOp31
 70
     1
102
RTVSPropertyOp32
 70
     1
102
RTVSPropertyOp33
 70
     1
102
RTVSPropertyOp34
 70
     1
102
RTVSPropertyOp35
 70
     1
102
RTVSPropertyOp36
 70
     1
102
RTVSPropertyOp37
 70
     1
102
RTVSPropertyOp38
 70
     1
102
RTVSPropertyOp39
 70
     1
102
RTVSPropertyOp40
 70
     1
102
RTVSPropertyOp41
 70
     1
102
RTVSPropertyOp42
 70
     1
102
RTVSPropertyOp43
 70
     1
102
RTVSPropertyOp44
 70
     1
102
RTVSPropertyOp45
 70
     1
102
RTVSPropertyOp46
 70
     1
102
RTVSPropertyOp47
 70
     1
102
RTVSPropertyOp48
 70
     1
102
RTVSPropertyOp49
 70
     1
102
RTVSPropertyOp50
 70
     1
102
RTVSPropertyOp51
 70
     0
102
RTVSPropertyOp52
 70
     0
102
RTVSPropertyOp53
 70
     1
102
RTVSPropertyOp54
 70
     1
102
RTVSPropertyOp55
 70
     1
102
RTVSPropertyOp56
 70
     1
102
RTVSPropertyOp57
 70
     1
102
RTVSPost2010Prop28
280
     0
102
RTVSPost2010PropOp28
 70
     1
102
RTVSPost2010Prop29
280
     1
102
RTVSPost2010PropOp29
 70
     1
102
RTVSPost2010Prop30
280
     1
102
RTVSPost2010PropOp30
 70
     1
102
RTVSPost2010Prop31
280
     0
102
RTVSPost2010PropOp31
 70
     1
102
RTVSPost2010Prop32
280
     0
102
RTVSPost2010PropOp32
 70
     1
102
RTVSPost2010Prop33
280
     0
102
RTVSPost2010PropOp33
 70
     1
102
RTVSPost2010Prop34
280
     0
102
RTVSPost2010PropOp34
 70
     1
102
RTVSPost2010Prop35
280
     0
102
RTVSPost2010PropOp35
 70
     1
102
RTVSPost2010Prop36
280
     0
102
RTVSPost2010PropOp36
 70
     1
102
RTVSPost2010Prop37
 90
       50
102
RTVSPost2010PropOp37
 70
     1
102
RTVSPost2010Prop38
140
0.0
102
RTVSPost2010PropOp38
 70
     1
102
RTVSPost2010Prop39
140
1.0
102
RTVSPost2010PropOp39
 70
     1
102
RTVSPost2010Prop40
 90
        0
102
RTVSPost2010PropOp40
 70
     1
102
RTVSPost2010Prop41ColorIndex
 90
       18
102
RTVSPost2010Prop41ColorRGB
 90
        0
102
RTVSPost2010PropOp41
 70
     1
102
RTVSPost2010Prop42
 90
       50
102
RTVSPost2010PropOp42
 70
     1
102
RTVSPost2010Prop43
 90
        3
102
RTVSPost2010PropOp43
 70
     1
102
RTVSPost2010Prop44ColorIndex
 90
        5
102
RTVSPost2010Prop44ColorRGB
 90
      255
102
RTVSPost2010PropOp44
 70
     1
102
RTVSPost2010Prop45
280
     0
102
RTVSPost2010PropOp45
 70
     1
102
RTVSPost2010Prop46
 90
       50
102
RTVSPost2010PropOp46
 70
     1
102
RTVSPost2010Prop47
 90
       50
102
RTVSPost2010PropOp47
 70
     1
102
RTVSPost2010Prop48
 90
       50
102
RTVSPost2010PropOp48
 70
     1
102
RTVSPost2010Prop49
280
     0
102
RTVSPost2010PropOp49
 70
     1
102
RTVSPost2010Prop50
 90
       50
102
RTVSPost2010PropOp50
 70
     1
102
RTVSPost2010Prop51ColorIndex
 90
      256
102
RTVSPost2010Prop51ColorRGB
 90
-16777216
102
RTVSPost2010PropOp51
 70
     0
102
RTVSPost2010Prop52
140
1.0
102
RTVSPost2010PropOp52
 70
     0
102
RTVSPost2010Prop53
 90
        2
102
RTVSPost2010PropOp53
 70
     1
102
RTVSPost2010Prop54
  1
strokes_ogs.tif
102
RTVSPost2010PropOp54
 70
     1
102
RTVSPost2010Prop55
280
     0
102
RTVSPost2010PropOp55
 70
     1
102
RTVSPost2010Prop56
140
1.0
102
RTVSPost2010PropOp56
 70
     1
102
RTVSPost2010Prop57
140
1.0
102
RTVSPost2010PropOp57
 70
     1
  0
XRECORD
  5
314
102
{ACAD_REACTORS
330
313
102
}
330
313
100
AcDbXrecord
280
     1
102
RTVSPropertyOp0
 70
     1
102
RTVSPropertyOp1
 70
     1
102
RTVSPropertyOp2
 70
     1
102
RTVSPropertyOp3
 70
     1
102
RTVSPropertyOp4
 70
     1
102
RTVSPropertyOp5
 70
     1
102
RTVSPropertyOp6
 70
     1
102
RTVSPropertyOp7
 70
     1
102
RTVSPropertyOp8
 70
     1
102
RTVSPropertyOp9
 70
     1
102
RTVSPropertyOp10
 70
     1
102
RTVSPropertyOp11
 70
     1
102
RTVSPropertyOp12
 70
     1
102
RTVSPropertyOp13
 70
     1
102
RTVSPropertyOp14
 70
     1
102
RTVSPropertyOp15
 70
     1
102
RTVSPropertyOp16
 70
     1
102
RTVSPropertyOp17
 70
     1
102
RTVSPropertyOp18
 70
     1
102
RTVSPropertyOp19
 70
     1
102
RTVSPropertyOp20
 70
     1
102
RTVSPropertyOp21
 70
     1
102
RTVSPropertyOp22
 70
     1
102
RTVSPropertyOp23
 70
     1
102
RTVSPropertyOp24
 70
     1
102
RTVSPropertyOp25
 70
     1
102
RTVSPropertyOp26
 70
     1
102
RTVSPropertyOp27
 70
     1
102
RTVSPropertyOp28
 70
     1
102
RTVSPropertyOp29
 70
     1
102
RTVSPropertyOp30
 70
     1
102
RTVSPropertyOp31
 70
     1
102
RTVSPropertyOp32
 70
     1
102
RTVSPropertyOp33
 70
     1
102
RTVSPropertyOp34
 70
     1
102
RTVSPropertyOp35
 70
     1
102
RTVSPropertyOp36
 70
     1
102
RTVSPropertyOp37
 70
     1
102
RTVSPropertyOp38
 70
     1
102
RTVSPropertyOp39
 70
     1
102
RTVSPropertyOp40
 70
     1
102
RTVSPropertyOp41
 70
     1
102
RTVSPropertyOp42
 70
     1
102
RTVSPropertyOp43
 70
     1
102
RTVSPropertyOp44
 70
     1
102
RTVSPropertyOp45
 70
     1
102
RTVSPropertyOp46
 70
     1
102
RTVSPropertyOp47
 70
     1
102
RTVSPropertyOp48
 70
     1
102
RTVSPropertyOp49
 70
     1
102
RTVSPropertyOp50
 70
     1
102
RTVSPropertyOp51
 70
     0
102
RTVSPropertyOp52
 70
     0
102
RTVSPropertyOp53
 70
     1
102
RTVSPropertyOp54
 70
     1
102
RTVSPropertyOp55
 70
     1
102
RTVSPropertyOp56
 70
     1
102
RTVSPropertyOp57
 70
     1
102
RTVSPost2010Prop28
280
     0
102
RTVSPost2010PropOp28
 70
     1
102
RTVSPost2010Prop29
280
     1
102
RTVSPost2010PropOp29
 70
     1
102
RTVSPost2010Prop30
280
     1
102
RTVSPost2010PropOp30
 70
     1
102
RTVSPost2010Prop31
280
     0
102
RTVSPost2010PropOp31
 70
     1
102
RTVSPost2010Prop32
280
     0
102
RTVSPost2010PropOp32
 70
     1
102
RTVSPost2010Prop33
280
     0
102
RTVSPost2010PropOp33
 70
     1
102
RTVSPost2010Prop34
280
     0
102
RTVSPost2010PropOp34
 70
     1
102
RTVSPost2010Prop35
280
     0
102
RTVSPost2010PropOp35
 70
     1
102
RTVSPost2010Prop36
280
     0
102
RTVSPost2010PropOp36
 70
     1
102
RTVSPost2010Prop37
 90
       50
102
RTVSPost2010PropOp37
 70
     1
102
RTVSPost2010Prop38
140
0.0
102
RTVSPost2010PropOp38
 70
     1
102
RTVSPost2010Prop39
140
1.0
102
RTVSPost2010PropOp39
 70
     1
102
RTVSPost2010Prop40
 90
        0
102
RTVSPost2010PropOp40
 70
     1
102
RTVSPost2010Prop41ColorIndex
 90
       18
102
RTVSPost2010Prop41ColorRGB
 90
        0
102
RTVSPost2010PropOp41
 70
     1
102
RTVSPost2010Prop42
 90
       50
102
RTVSPost2010PropOp42
 70
     1
102
RTVSPost2010Prop43
 90
        3
102
RTVSPost2010PropOp43
 70
     1
102
RTVSPost2010Prop44ColorIndex
 90
        5
102
RTVSPost2010Prop44ColorRGB
 90
      255
102
RTVSPost2010PropOp44
 70
     1
102
RTVSPost2010Prop45
280
     0
102
RTVSPost2010PropOp45
 70
     1
102
RTVSPost2010Prop46
 90
       50
102
RTVSPost2010PropOp46
 70
     1
102
RTVSPost2010Prop47
 90
       50
102
RTVSPost2010PropOp47
 70
     1
102
RTVSPost2010Prop48
 90
       50
102
RTVSPost2010PropOp48
 70
     1
102
RTVSPost2010Prop49
280
     0
102
RTVSPost2010PropOp49
 70
     1
102
RTVSPost2010Prop50
 90
       50
102
RTVSPost2010PropOp50
 70
     1
102
RTVSPost2010Prop51ColorIndex
 90
      256
102
RTVSPost2010Prop51ColorRGB
 90
-16777216
102
RTVSPost2010PropOp51
 70
     0
102
RTVSPost2010Prop52
140
1.0
102
RTVSPost2010PropOp52
 70
     0
102
RTVSPost2010Prop53
 90
        2
102
RTVSPost2010PropOp53
 70
     1
102
RTVSPost2010Prop54
  1
strokes_ogs.tif
102
RTVSPost2010PropOp54
 70
     1
102
RTVSPost2010Prop55
280
     0
102
RTVSPost2010PropOp55
 70
     1
102
RTVSPost2010Prop56
140
1.0
102
RTVSPost2010PropOp56
 70
     1
102
RTVSPost2010Prop57
140
1.0
102
RTVSPost2010PropOp57
 70
     1
  0
XRECORD
  5
316
102
{ACAD_REACTORS
330
315
102
}
330
315
100
AcDbXrecord
280
     1
102
RTVSPropertyOp0
 70
     1
102
RTVSPropertyOp1
 70
     1
102
RTVSPropertyOp2
 70
     1
102
RTVSPropertyOp3
 70
     1
102
RTVSPropertyOp4
 70
     1
102
RTVSPropertyOp5
 70
     1
102
RTVSPropertyOp6
 70
     1
102
RTVSPropertyOp7
 70
     1
102
RTVSPropertyOp8
 70
     1
102
RTVSPropertyOp9
 70
     1
102
RTVSPropertyOp10
 70
     1
102
RTVSPropertyOp11
 70
     1
102
RTVSPropertyOp12
 70
     1
102
RTVSPropertyOp13
 70
     1
102
RTVSPropertyOp14
 70
     1
102
RTVSPropertyOp15
 70
     1
102
RTVSPropertyOp16
 70
     1
102
RTVSPropertyOp17
 70
     1
102
RTVSPropertyOp18
 70
     1
102
RTVSPropertyOp19
 70
     1
102
RTVSPropertyOp20
 70
     1
102
RTVSPropertyOp21
 70
     1
102
RTVSPropertyOp22
 70
     1
102
RTVSPropertyOp23
 70
     1
102
RTVSPropertyOp24
 70
     1
102
RTVSPropertyOp25
 70
     1
102
RTVSPropertyOp26
 70
     1
102
RTVSPropertyOp27
 70
     1
102
RTVSPropertyOp28
 70
     1
102
RTVSPropertyOp29
 70
     1
102
RTVSPropertyOp30
 70
     1
102
RTVSPropertyOp31
 70
     1
102
RTVSPropertyOp32
 70
     1
102
RTVSPropertyOp33
 70
     1
102
RTVSPropertyOp34
 70
     1
102
RTVSPropertyOp35
 70
     1
102
RTVSPropertyOp36
 70
     1
102
RTVSPropertyOp37
 70
     1
102
RTVSPropertyOp38
 70
     1
102
RTVSPropertyOp39
 70
     1
102
RTVSPropertyOp40
 70
     1
102
RTVSPropertyOp41
 70
     1
102
RTVSPropertyOp42
 70
     1
102
RTVSPropertyOp43
 70
     1
102
RTVSPropertyOp44
 70
     1
102
RTVSPropertyOp45
 70
     1
102
RTVSPropertyOp46
 70
     1
102
RTVSPropertyOp47
 70
     1
102
RTVSPropertyOp48
 70
     1
102
RTVSPropertyOp49
 70
     1
102
RTVSPropertyOp50
 70
     1
102
RTVSPropertyOp51
 70
     0
102
RTVSPropertyOp52
 70
     0
102
RTVSPropertyOp53
 70
     1
102
RTVSPropertyOp54
 70
     1
102
RTVSPropertyOp55
 70
     1
102
RTVSPropertyOp56
 70
     1
102
RTVSPropertyOp57
 70
     1
102
RTVSPost2010Prop28
280
     0
102
RTVSPost2010PropOp28
 70
     1
102
RTVSPost2010Prop29
280
     1
102
RTVSPost2010PropOp29
 70
     1
102
RTVSPost2010Prop30
280
     1
102
RTVSPost2010PropOp30
 70
     1
102
RTVSPost2010Prop31
280
     0
102
RTVSPost2010PropOp31
 70
     1
102
RTVSPost2010Prop32
280
     0
102
RTVSPost2010PropOp32
 70
     1
102
RTVSPost2010Prop33
280
     0
102
RTVSPost2010PropOp33
 70
     1
102
RTVSPost2010Prop34
280
     0
102
RTVSPost2010PropOp34
 70
     1
102
RTVSPost2010Prop35
280
     0
102
RTVSPost2010PropOp35
 70
     1
102
RTVSPost2010Prop36
280
     0
102
RTVSPost2010PropOp36
 70
     1
102
RTVSPost2010Prop37
 90
       50
102
RTVSPost2010PropOp37
 70
     1
102
RTVSPost2010Prop38
140
0.0
102
RTVSPost2010PropOp38
 70
     1
102
RTVSPost2010Prop39
140
1.0
102
RTVSPost2010PropOp39
 70
     1
102
RTVSPost2010Prop40
 90
        0
102
RTVSPost2010PropOp40
 70
     1
102
RTVSPost2010Prop41ColorIndex
 90
       18
102
RTVSPost2010Prop41ColorRGB
 90
        0
102
RTVSPost2010PropOp41
 70
     1
102
RTVSPost2010Prop42
 90
       50
102
RTVSPost2010PropOp42
 70
     1
102
RTVSPost2010Prop43
 90
        3
102
RTVSPost2010PropOp43
 70
     1
102
RTVSPost2010Prop44ColorIndex
 90
        5
102
RTVSPost2010Prop44ColorRGB
 90
      255
102
RTVSPost2010PropOp44
 70
     1
102
RTVSPost2010Prop45
280
     0
102
RTVSPost2010PropOp45
 70
     1
102
RTVSPost2010Prop46
 90
       50
102
RTVSPost2010PropOp46
 70
     1
102
RTVSPost2010Prop47
 90
       50
102
RTVSPost2010PropOp47
 70
     1
102
RTVSPost2010Prop48
 90
       50
102
RTVSPost2010PropOp48
 70
     1
102
RTVSPost2010Prop49
280
     0
102
RTVSPost2010PropOp49
 70
     1
102
RTVSPost2010Prop50
 90
       50
102
RTVSPost2010PropOp50
 70
     1
102
RTVSPost2010Prop51ColorIndex
 90
      256
102
RTVSPost2010Prop51ColorRGB
 90
-16777216
102
RTVSPost2010PropOp51
 70
     0
102
RTVSPost2010Prop52
140
1.0
102
RTVSPost2010PropOp52
 70
     0
102
RTVSPost2010Prop53
 90
        2
102
RTVSPost2010PropOp53
 70
     1
102
RTVSPost2010Prop54
  1
strokes_ogs.tif
102
RTVSPost2010PropOp54
 70
     1
102
RTVSPost2010Prop55
280
     0
102
RTVSPost2010PropOp55
 70
     1
102
RTVSPost2010Prop56
140
1.0
102
RTVSPost2010PropOp56
 70
     1
102
RTVSPost2010Prop57
140
1.0
102
RTVSPost2010PropOp57
 70
     1
  0
XRECORD
  5
326
102
{ACAD_REACTORS
330
325
102
}
330
325
100
AcDbXrecord
280
     1
102
RTVSPropertyOp0
 70
     0
102
RTVSPropertyOp1
 70
     0
102
RTVSPropertyOp2
 70
     0
102
RTVSPropertyOp3
 70
     0
102
RTVSPropertyOp4
 70
     0
102
RTVSPropertyOp5
 70
     0
102
RTVSPropertyOp6
 70
     0
102
RTVSPropertyOp7
 70
     0
102
RTVSPropertyOp8
 70
     0
102
RTVSPropertyOp9
 70
     0
102
RTVSPropertyOp10
 70
     0
102
RTVSPropertyOp11
 70
     0
102
RTVSPropertyOp12
 70
     0
102
RTVSPropertyOp13
 70
     0
102
RTVSPropertyOp14
 70
     2
102
RTVSPropertyOp15
 70
     0
102
RTVSPropertyOp16
 70
     0
102
RTVSPropertyOp17
 70
     0
102
RTVSPropertyOp18
 70
     0
102
RTVSPropertyOp19
 70
     0
102
RTVSPropertyOp20
 70
     0
102
RTVSPropertyOp21
 70
     0
102
RTVSPropertyOp22
 70
     0
102
RTVSPropertyOp23
 70
     0
102
RTVSPropertyOp24
 70
     0
102
RTVSPropertyOp25
 70
     0
102
RTVSPropertyOp26
 70
     0
102
RTVSPropertyOp27
 70
     0
102
RTVSPropertyOp28
 70
     0
102
RTVSPropertyOp29
 70
     0
102
RTVSPropertyOp30
 70
     0
102
RTVSPropertyOp31
 70
     0
102
RTVSPropertyOp32
 70
     0
102
RTVSPropertyOp33
 70
     0
102
RTVSPropertyOp34
 70
     0
102
RTVSPropertyOp35
 70
     0
102
RTVSPropertyOp36
 70
     0
102
RTVSPropertyOp37
 70
     0
102
RTVSPropertyOp38
 70
     0
102
RTVSPropertyOp39
 70
     0
102
RTVSPropertyOp40
 70
     0
102
RTVSPropertyOp41
 70
     0
102
RTVSPropertyOp42
 70
     0
102
RTVSPropertyOp43
 70
     0
102
RTVSPropertyOp44
 70
     0
102
RTVSPropertyOp45
 70
     0
102
RTVSPropertyOp46
 70
     0
102
RTVSPropertyOp47
 70
     0
102
RTVSPropertyOp48
 70
     0
102
RTVSPropertyOp49
 70
     0
102
RTVSPropertyOp50
 70
     0
102
RTVSPropertyOp51
 70
     0
102
RTVSPropertyOp52
 70
     0
102
RTVSPropertyOp53
 70
     0
102
RTVSPropertyOp54
 70
     0
102
RTVSPropertyOp55
 70
     0
102
RTVSPropertyOp56
 70
     0
102
RTVSPropertyOp57
 70
     0
102
RTVSPost2010Prop28
280
     0
102
RTVSPost2010PropOp28
 70
     0
102
RTVSPost2010Prop29
280
     1
102
RTVSPost2010PropOp29
 70
     0
102
RTVSPost2010Prop30
280
     1
102
RTVSPost2010PropOp30
 70
     0
102
RTVSPost2010Prop31
280
     0
102
RTVSPost2010PropOp31
 70
     0
102
RTVSPost2010Prop32
280
     0
102
RTVSPost2010PropOp32
 70
     0
102
RTVSPost2010Prop33
280
     0
102
RTVSPost2010PropOp33
 70
     0
102
RTVSPost2010Prop34
280
     0
102
RTVSPost2010PropOp34
 70
     0
102
RTVSPost2010Prop35
280
     0
102
RTVSPost2010PropOp35
 70
     0
102
RTVSPost2010Prop36
280
     0
102
RTVSPost2010PropOp36
 70
     0
102
RTVSPost2010Prop37
 90
       50
102
RTVSPost2010PropOp37
 70
     0
102
RTVSPost2010Prop38
140
0.0
102
RTVSPost2010PropOp38
 70
     0
102
RTVSPost2010Prop39
140
1.0
102
RTVSPost2010PropOp39
 70
     0
102
RTVSPost2010Prop40
 90
        0
102
RTVSPost2010PropOp40
 70
     0
102
RTVSPost2010Prop41ColorIndex
 90
       18
102
RTVSPost2010Prop41ColorRGB
 90
        0
102
RTVSPost2010PropOp41
 70
     0
102
RTVSPost2010Prop42
 90
       50
102
RTVSPost2010PropOp42
 70
     0
102
RTVSPost2010Prop43
 90
        3
102
RTVSPost2010PropOp43
 70
     0
102
RTVSPost2010Prop44ColorIndex
 90
        5
102
RTVSPost2010Prop44ColorRGB
 90
      255
102
RTVSPost2010PropOp44
 70
     0
102
RTVSPost2010Prop45
280
     0
102
RTVSPost2010PropOp45
 70
     0
102
RTVSPost2010Prop46
 90
       50
102
RTVSPost2010PropOp46
 70
     0
102
RTVSPost2010Prop47
 90
       50
102
RTVSPost2010PropOp47
 70
     0
102
RTVSPost2010Prop48
 90
       50
102
RTVSPost2010PropOp48
 70
     0
102
RTVSPost2010Prop49
280
     0
102
RTVSPost2010PropOp49
 70
     0
102
RTVSPost2010Prop50
 90
       50
102
RTVSPost2010PropOp50
 70
     0
102
RTVSPost2010Prop51ColorIndex
 90
      256
102
RTVSPost2010Prop51ColorRGB
 90
-16777216
102
RTVSPost2010PropOp51
 70
     0
102
RTVSPost2010Prop52
140
1.0
102
RTVSPost2010PropOp52
 70
     0
102
RTVSPost2010Prop53
 90
        2
102
RTVSPost2010PropOp53
 70
     0
102
RTVSPost2010Prop54
  1
strokes_ogs.tif
102
RTVSPost2010PropOp54
 70
     0
102
RTVSPost2010Prop55
280
     0
102
RTVSPost2010PropOp55
 70
     0
102
RTVSPost2010Prop56
140
1.0
102
RTVSPost2010PropOp56
 70
     0
102
RTVSPost2010Prop57
140
1.0
102
RTVSPost2010PropOp57
 70
     0
  0
XRECORD
  5
31E
102
{ACAD_REACTORS
330
31D
102
}
330
31D
100
AcDbXrecord
280
     1
102
RTVSPropertyOp0
 70
     1
102
RTVSPropertyOp1
 70
     1
102
RTVSPropertyOp2
 70
     1
102
RTVSPropertyOp3
 70
     1
102
RTVSPropertyOp4
 70
     1
102
RTVSPropertyOp5
 70
     1
102
RTVSPropertyOp6
 70
     1
102
RTVSPropertyOp7
 70
     1
102
RTVSPropertyOp8
 70
     1
102
RTVSPropertyOp9
 70
     1
102
RTVSPropertyOp10
 70
     1
102
RTVSPropertyOp11
 70
     1
102
RTVSPropertyOp12
 70
     1
102
RTVSPropertyOp13
 70
     1
102
RTVSPropertyOp14
 70
     1
102
RTVSPropertyOp15
 70
     1
102
RTVSPropertyOp16
 70
     1
102
RTVSPropertyOp17
 70
     1
102
RTVSPropertyOp18
 70
     1
102
RTVSPropertyOp19
 70
     1
102
RTVSPropertyOp20
 70
     1
102
RTVSPropertyOp21
 70
     1
102
RTVSPropertyOp22
 70
     1
102
RTVSPropertyOp23
 70
     1
102
RTVSPropertyOp24
 70
     1
102
RTVSPropertyOp25
 70
     1
102
RTVSPropertyOp26
 70
     1
102
RTVSPropertyOp27
 70
     1
102
RTVSPropertyOp28
 70
     1
102
RTVSPropertyOp29
 70
     1
102
RTVSPropertyOp30
 70
     1
102
RTVSPropertyOp31
 70
     1
102
RTVSPropertyOp32
 70
     1
102
RTVSPropertyOp33
 70
     1
102
RTVSPropertyOp34
 70
     1
102
RTVSPropertyOp35
 70
     1
102
RTVSPropertyOp36
 70
     1
102
RTVSPropertyOp37
 70
     1
102
RTVSPropertyOp38
 70
     1
102
RTVSPropertyOp39
 70
     1
102
RTVSPropertyOp40
 70
     1
102
RTVSPropertyOp41
 70
     1
102
RTVSPropertyOp42
 70
     1
102
RTVSPropertyOp43
 70
     1
102
RTVSPropertyOp44
 70
     1
102
RTVSPropertyOp45
 70
     1
102
RTVSPropertyOp46
 70
     1
102
RTVSPropertyOp47
 70
     1
102
RTVSPropertyOp48
 70
     1
102
RTVSPropertyOp49
 70
     1
102
RTVSPropertyOp50
 70
     1
102
RTVSPropertyOp51
 70
     0
102
RTVSPropertyOp52
 70
     0
102
RTVSPropertyOp53
 70
     1
102
RTVSPropertyOp54
 70
     1
102
RTVSPropertyOp55
 70
     1
102
RTVSPropertyOp56
 70
     1
102
RTVSPropertyOp57
 70
     1
102
RTVSPost2010Prop28
280
     0
102
RTVSPost2010PropOp28
 70
     1
102
RTVSPost2010Prop29
280
     1
102
RTVSPost2010PropOp29
 70
     1
102
RTVSPost2010Prop30
280
     1
102
RTVSPost2010PropOp30
 70
     1
102
RTVSPost2010Prop31
280
     0
102
RTVSPost2010PropOp31
 70
     1
102
RTVSPost2010Prop32
280
     0
102
RTVSPost2010PropOp32
 70
     1
102
RTVSPost2010Prop33
280
     0
102
RTVSPost2010PropOp33
 70
     1
102
RTVSPost2010Prop34
280
     0
102
RTVSPost2010PropOp34
 70
     1
102
RTVSPost2010Prop35
280
     0
102
RTVSPost2010PropOp35
 70
     1
102
RTVSPost2010Prop36
280
     0
102
RTVSPost2010PropOp36
 70
     1
102
RTVSPost2010Prop37
 90
       50
102
RTVSPost2010PropOp37
 70
     1
102
RTVSPost2010Prop38
140
0.0
102
RTVSPost2010PropOp38
 70
     1
102
RTVSPost2010Prop39
140
1.0
102
RTVSPost2010PropOp39
 70
     1
102
RTVSPost2010Prop40
 90
        0
102
RTVSPost2010PropOp40
 70
     1
102
RTVSPost2010Prop41ColorIndex
 90
       18
102
RTVSPost2010Prop41ColorRGB
 90
        0
102
RTVSPost2010PropOp41
 70
     1
102
RTVSPost2010Prop42
 90
       50
102
RTVSPost2010PropOp42
 70
     1
102
RTVSPost2010Prop43
 90
        3
102
RTVSPost2010PropOp43
 70
     1
102
RTVSPost2010Prop44ColorIndex
 90
        5
102
RTVSPost2010Prop44ColorRGB
 90
      255
102
RTVSPost2010PropOp44
 70
     1
102
RTVSPost2010Prop45
280
     0
102
RTVSPost2010PropOp45
 70
     1
102
RTVSPost2010Prop46
 90
       50
102
RTVSPost2010PropOp46
 70
     1
102
RTVSPost2010Prop47
 90
       50
102
RTVSPost2010PropOp47
 70
     1
102
RTVSPost2010Prop48
 90
       50
102
RTVSPost2010PropOp48
 70
     1
102
RTVSPost2010Prop49
280
     0
102
RTVSPost2010PropOp49
 70
     1
102
RTVSPost2010Prop50
 90
       50
102
RTVSPost2010PropOp50
 70
     1
102
RTVSPost2010Prop51ColorIndex
 90
      256
102
RTVSPost2010Prop51ColorRGB
 90
-16777216
102
RTVSPost2010PropOp51
 70
     0
102
RTVSPost2010Prop52
140
1.0
102
RTVSPost2010PropOp52
 70
     0
102
RTVSPost2010Prop53
 90
        2
102
RTVSPost2010PropOp53
 70
     1
102
RTVSPost2010Prop54
  1
strokes_ogs.tif
102
RTVSPost2010PropOp54
 70
     1
102
RTVSPost2010Prop55
280
     0
102
RTVSPost2010PropOp55
 70
     1
102
RTVSPost2010Prop56
140
1.0
102
RTVSPost2010PropOp56
 70
     1
102
RTVSPost2010Prop57
140
1.0
102
RTVSPost2010PropOp57
 70
     1
  0
XRECORD
  5
302
102
{ACAD_REACTORS
330
301
102
}
330
301
100
AcDbXrecord
280
     1
102
RTVSPropertyOp0
 70
     1
102
RTVSPropertyOp1
 70
     1
102
RTVSPropertyOp2
 70
     1
102
RTVSPropertyOp3
 70
     1
102
RTVSPropertyOp4
 70
     1
102
RTVSPropertyOp5
 70
     1
102
RTVSPropertyOp6
 70
     1
102
RTVSPropertyOp7
 70
     1
102
RTVSPropertyOp8
 70
     1
102
RTVSPropertyOp9
 70
     1
102
RTVSPropertyOp10
 70
     1
102
RTVSPropertyOp11
 70
     1
102
RTVSPropertyOp12
 70
     1
102
RTVSPropertyOp13
 70
     1
102
RTVSPropertyOp14
 70
     1
102
RTVSPropertyOp15
 70
     1
102
RTVSPropertyOp16
 70
     1
102
RTVSPropertyOp17
 70
     1
102
RTVSPropertyOp18
 70
     1
102
RTVSPropertyOp19
 70
     1
102
RTVSPropertyOp20
 70
     1
102
RTVSPropertyOp21
 70
     1
102
RTVSPropertyOp22
 70
     1
102
RTVSPropertyOp23
 70
     1
102
RTVSPropertyOp24
 70
     1
102
RTVSPropertyOp25
 70
     1
102
RTVSPropertyOp26
 70
     1
102
RTVSPropertyOp27
 70
     1
102
RTVSPropertyOp28
 70
     1
102
RTVSPropertyOp29
 70
     1
102
RTVSPropertyOp30
 70
     1
102
RTVSPropertyOp31
 70
     1
102
RTVSPropertyOp32
 70
     1
102
RTVSPropertyOp33
 70
     1
102
RTVSPropertyOp34
 70
     1
102
RTVSPropertyOp35
 70
     1
102
RTVSPropertyOp36
 70
     1
102
RTVSPropertyOp37
 70
     1
102
RTVSPropertyOp38
 70
     1
102
RTVSPropertyOp39
 70
     1
102
RTVSPropertyOp40
 70
     1
102
RTVSPropertyOp41
 70
     1
102
RTVSPropertyOp42
 70
     1
102
RTVSPropertyOp43
 70
     1
102
RTVSPropertyOp44
 70
     1
102
RTVSPropertyOp45
 70
     1
102
RTVSPropertyOp46
 70
     1
102
RTVSPropertyOp47
 70
     1
102
RTVSPropertyOp48
 70
     1
102
RTVSPropertyOp49
 70
     1
102
RTVSPropertyOp50
 70
     1
102
RTVSPropertyOp51
 70
     0
102
RTVSPropertyOp52
 70
     0
102
RTVSPropertyOp53
 70
     1
102
RTVSPropertyOp54
 70
     1
102
RTVSPropertyOp55
 70
     1
102
RTVSPropertyOp56
 70
     1
102
RTVSPropertyOp57
 70
     1
102
RTVSPost2010Prop28
280
     0
102
RTVSPost2010PropOp28
 70
     1
102
RTVSPost2010Prop29
280
     1
102
RTVSPost2010PropOp29
 70
     1
102
RTVSPost2010Prop30
280
     1
102
RTVSPost2010PropOp30
 70
     1
102
RTVSPost2010Prop31
280
     0
102
RTVSPost2010PropOp31
 70
     1
102
RTVSPost2010Prop32
280
     0
102
RTVSPost2010PropOp32
 70
     1
102
RTVSPost2010Prop33
280
     0
102
RTVSPost2010PropOp33
 70
     1
102
RTVSPost2010Prop34
280
     0
102
RTVSPost2010PropOp34
 70
     1
102
RTVSPost2010Prop35
280
     0
102
RTVSPost2010PropOp35
 70
     1
102
RTVSPost2010Prop36
280
     0
102
RTVSPost2010PropOp36
 70
     1
102
RTVSPost2010Prop37
 90
       50
102
RTVSPost2010PropOp37
 70
     1
102
RTVSPost2010Prop38
140
0.0
102
RTVSPost2010PropOp38
 70
     1
102
RTVSPost2010Prop39
140
1.0
102
RTVSPost2010PropOp39
 70
     1
102
RTVSPost2010Prop40
 90
        0
102
RTVSPost2010PropOp40
 70
     1
102
RTVSPost2010Prop41ColorIndex
 90
       18
102
RTVSPost2010Prop41ColorRGB
 90
        0
102
RTVSPost2010PropOp41
 70
     1
102
RTVSPost2010Prop42
 90
       50
102
RTVSPost2010PropOp42
 70
     1
102
RTVSPost2010Prop43
 90
        3
102
RTVSPost2010PropOp43
 70
     1
102
RTVSPost2010Prop44ColorIndex
 90
        5
102
RTVSPost2010Prop44ColorRGB
 90
      255
102
RTVSPost2010PropOp44
 70
     1
102
RTVSPost2010Prop45
280
     0
102
RTVSPost2010PropOp45
 70
     1
102
RTVSPost2010Prop46
 90
       50
102
RTVSPost2010PropOp46
 70
     1
102
RTVSPost2010Prop47
 90
       50
102
RTVSPost2010PropOp47
 70
     1
102
RTVSPost2010Prop48
 90
       50
102
RTVSPost2010PropOp48
 70
     1
102
RTVSPost2010Prop49
280
     0
102
RTVSPost2010PropOp49
 70
     1
102
RTVSPost2010Prop50
 90
       50
102
RTVSPost2010PropOp50
 70
     1
102
RTVSPost2010Prop51ColorIndex
 90
      256
102
RTVSPost2010Prop51ColorRGB
 90
-16777216
102
RTVSPost2010PropOp51
 70
     0
102
RTVSPost2010Prop52
140
1.0
102
RTVSPost2010PropOp52
 70
     0
102
RTVSPost2010Prop53
 90
        2
102
RTVSPost2010PropOp53
 70
     1
102
RTVSPost2010Prop54
  1
strokes_ogs.tif
102
RTVSPost2010PropOp54
 70
     1
102
RTVSPost2010Prop55
280
     0
102
RTVSPost2010PropOp55
 70
     1
102
RTVSPost2010Prop56
140
1.0
102
RTVSPost2010PropOp56
 70
     1
102
RTVSPost2010Prop57
140
1.0
102
RTVSPost2010PropOp57
 70
     1
  0
XRECORD
  5
304
102
{ACAD_REACTORS
330
303
102
}
330
303
100
AcDbXrecord
280
     1
102
RTVSPropertyOp0
 70
     1
102
RTVSPropertyOp1
 70
     1
102
RTVSPropertyOp2
 70
     1
102
RTVSPropertyOp3
 70
     1
102
RTVSPropertyOp4
 70
     1
102
RTVSPropertyOp5
 70
     1
102
RTVSPropertyOp6
 70
     1
102
RTVSPropertyOp7
 70
     1
102
RTVSPropertyOp8
 70
     1
102
RTVSPropertyOp9
 70
     1
102
RTVSPropertyOp10
 70
     1
102
RTVSPropertyOp11
 70
     1
102
RTVSPropertyOp12
 70
     1
102
RTVSPropertyOp13
 70
     1
102
RTVSPropertyOp14
 70
     1
102
RTVSPropertyOp15
 70
     1
102
RTVSPropertyOp16
 70
     1
102
RTVSPropertyOp17
 70
     1
102
RTVSPropertyOp18
 70
     1
102
RTVSPropertyOp19
 70
     1
102
RTVSPropertyOp20
 70
     1
102
RTVSPropertyOp21
 70
     1
102
RTVSPropertyOp22
 70
     1
102
RTVSPropertyOp23
 70
     1
102
RTVSPropertyOp24
 70
     1
102
RTVSPropertyOp25
 70
     1
102
RTVSPropertyOp26
 70
     1
102
RTVSPropertyOp27
 70
     1
102
RTVSPropertyOp28
 70
     1
102
RTVSPropertyOp29
 70
     1
102
RTVSPropertyOp30
 70
     1
102
RTVSPropertyOp31
 70
     1
102
RTVSPropertyOp32
 70
     1
102
RTVSPropertyOp33
 70
     1
102
RTVSPropertyOp34
 70
     1
102
RTVSPropertyOp35
 70
     1
102
RTVSPropertyOp36
 70
     1
102
RTVSPropertyOp37
 70
     1
102
RTVSPropertyOp38
 70
     1
102
RTVSPropertyOp39
 70
     1
102
RTVSPropertyOp40
 70
     1
102
RTVSPropertyOp41
 70
     1
102
RTVSPropertyOp42
 70
     1
102
RTVSPropertyOp43
 70
     1
102
RTVSPropertyOp44
 70
     1
102
RTVSPropertyOp45
 70
     1
102
RTVSPropertyOp46
 70
     1
102
RTVSPropertyOp47
 70
     1
102
RTVSPropertyOp48
 70
     1
102
RTVSPropertyOp49
 70
     1
102
RTVSPropertyOp50
 70
     1
102
RTVSPropertyOp51
 70
     0
102
RTVSPropertyOp52
 70
     0
102
RTVSPropertyOp53
 70
     1
102
RTVSPropertyOp54
 70
     1
102
RTVSPropertyOp55
 70
     1
102
RTVSPropertyOp56
 70
     1
102
RTVSPropertyOp57
 70
     1
102
RTVSPost2010Prop28
280
     0
102
RTVSPost2010PropOp28
 70
     1
102
RTVSPost2010Prop29
280
     1
102
RTVSPost2010PropOp29
 70
     1
102
RTVSPost2010Prop30
280
     1
102
RTVSPost2010PropOp30
 70
     1
102
RTVSPost2010Prop31
280
     0
102
RTVSPost2010PropOp31
 70
     1
102
RTVSPost2010Prop32
280
     0
102
RTVSPost2010PropOp32
 70
     1
102
RTVSPost2010Prop33
280
     0
102
RTVSPost2010PropOp33
 70
     1
102
RTVSPost2010Prop34
280
     0
102
RTVSPost2010PropOp34
 70
     1
102
RTVSPost2010Prop35
280
     0
102
RTVSPost2010PropOp35
 70
     1
102
RTVSPost2010Prop36
280
     0
102
RTVSPost2010PropOp36
 70
     1
102
RTVSPost2010Prop37
 90
       50
102
RTVSPost2010PropOp37
 70
     1
102
RTVSPost2010Prop38
140
0.0
102
RTVSPost2010PropOp38
 70
     1
102
RTVSPost2010Prop39
140
1.0
102
RTVSPost2010PropOp39
 70
     1
102
RTVSPost2010Prop40
 90
        0
102
RTVSPost2010PropOp40
 70
     1
102
RTVSPost2010Prop41ColorIndex
 90
       18
102
RTVSPost2010Prop41ColorRGB
 90
        0
102
RTVSPost2010PropOp41
 70
     1
102
RTVSPost2010Prop42
 90
       50
102
RTVSPost2010PropOp42
 70
     1
102
RTVSPost2010Prop43
 90
        3
102
RTVSPost2010PropOp43
 70
     1
102
RTVSPost2010Prop44ColorIndex
 90
        5
102
RTVSPost2010Prop44ColorRGB
 90
      255
102
RTVSPost2010PropOp44
 70
     1
102
RTVSPost2010Prop45
280
     0
102
RTVSPost2010PropOp45
 70
     1
102
RTVSPost2010Prop46
 90
       50
102
RTVSPost2010PropOp46
 70
     1
102
RTVSPost2010Prop47
 90
       50
102
RTVSPost2010PropOp47
 70
     1
102
RTVSPost2010Prop48
 90
       50
102
RTVSPost2010PropOp48
 70
     1
102
RTVSPost2010Prop49
280
     0
102
RTVSPost2010PropOp49
 70
     1
102
RTVSPost2010Prop50
 90
       50
102
RTVSPost2010PropOp50
 70
     1
102
RTVSPost2010Prop51ColorIndex
 90
      256
102
RTVSPost2010Prop51ColorRGB
 90
-16777216
102
RTVSPost2010PropOp51
 70
     0
102
RTVSPost2010Prop52
140
1.0
102
RTVSPost2010PropOp52
 70
     0
102
RTVSPost2010Prop53
 90
        2
102
RTVSPost2010PropOp53
 70
     1
102
RTVSPost2010Prop54
  1
strokes_ogs.tif
102
RTVSPost2010PropOp54
 70
     1
102
RTVSPost2010Prop55
280
     0
102
RTVSPost2010PropOp55
 70
     1
102
RTVSPost2010Prop56
140
1.0
102
RTVSPost2010PropOp56
 70
     1
102
RTVSPost2010Prop57
140
1.0
102
RTVSPost2010PropOp57
 70
     1
  0
XRECORD
  5
306
102
{ACAD_REACTORS
330
305
102
}
330
305
100
AcDbXrecord
280
     1
102
RTVSPropertyOp0
 70
     1
102
RTVSPropertyOp1
 70
     1
102
RTVSPropertyOp2
 70
     1
102
RTVSPropertyOp3
 70
     1
102
RTVSPropertyOp4
 70
     1
102
RTVSPropertyOp5
 70
     1
102
RTVSPropertyOp6
 70
     1
102
RTVSPropertyOp7
 70
     1
102
RTVSPropertyOp8
 70
     1
102
RTVSPropertyOp9
 70
     1
102
RTVSPropertyOp10
 70
     1
102
RTVSPropertyOp11
 70
     1
102
RTVSPropertyOp12
 70
     1
102
RTVSPropertyOp13
 70
     1
102
RTVSPropertyOp14
 70
     1
102
RTVSPropertyOp15
 70
     1
102
RTVSPropertyOp16
 70
     1
102
RTVSPropertyOp17
 70
     1
102
RTVSPropertyOp18
 70
     1
102
RTVSPropertyOp19
 70
     1
102
RTVSPropertyOp20
 70
     1
102
RTVSPropertyOp21
 70
     1
102
RTVSPropertyOp22
 70
     1
102
RTVSPropertyOp23
 70
     1
102
RTVSPropertyOp24
 70
     1
102
RTVSPropertyOp25
 70
     1
102
RTVSPropertyOp26
 70
     1
102
RTVSPropertyOp27
 70
     1
102
RTVSPropertyOp28
 70
     1
102
RTVSPropertyOp29
 70
     1
102
RTVSPropertyOp30
 70
     1
102
RTVSPropertyOp31
 70
     1
102
RTVSPropertyOp32
 70
     1
102
RTVSPropertyOp33
 70
     1
102
RTVSPropertyOp34
 70
     1
102
RTVSPropertyOp35
 70
     1
102
RTVSPropertyOp36
 70
     1
102
RTVSPropertyOp37
 70
     1
102
RTVSPropertyOp38
 70
     1
102
RTVSPropertyOp39
 70
     1
102
RTVSPropertyOp40
 70
     1
102
RTVSPropertyOp41
 70
     1
102
RTVSPropertyOp42
 70
     1
102
RTVSPropertyOp43
 70
     1
102
RTVSPropertyOp44
 70
     1
102
RTVSPropertyOp45
 70
     1
102
RTVSPropertyOp46
 70
     1
102
RTVSPropertyOp47
 70
     1
102
RTVSPropertyOp48
 70
     1
102
RTVSPropertyOp49
 70
     1
102
RTVSPropertyOp50
 70
     1
102
RTVSPropertyOp51
 70
     0
102
RTVSPropertyOp52
 70
     0
102
RTVSPropertyOp53
 70
     1
102
RTVSPropertyOp54
 70
     1
102
RTVSPropertyOp55
 70
     1
102
RTVSPropertyOp56
 70
     1
102
RTVSPropertyOp57
 70
     1
102
RTVSPost2010Prop28
280
     0
102
RTVSPost2010PropOp28
 70
     1
102
RTVSPost2010Prop29
280
     1
102
RTVSPost2010PropOp29
 70
     1
102
RTVSPost2010Prop30
280
     1
102
RTVSPost2010PropOp30
 70
     1
102
RTVSPost2010Prop31
280
     0
102
RTVSPost2010PropOp31
 70
     1
102
RTVSPost2010Prop32
280
     0
102
RTVSPost2010PropOp32
 70
     1
102
RTVSPost2010Prop33
280
     0
102
RTVSPost2010PropOp33
 70
     1
102
RTVSPost2010Prop34
280
     0
102
RTVSPost2010PropOp34
 70
     1
102
RTVSPost2010Prop35
280
     0
102
RTVSPost2010PropOp35
 70
     1
102
RTVSPost2010Prop36
280
     0
102
RTVSPost2010PropOp36
 70
     1
102
RTVSPost2010Prop37
 90
       50
102
RTVSPost2010PropOp37
 70
     1
102
RTVSPost2010Prop38
140
0.0
102
RTVSPost2010PropOp38
 70
     1
102
RTVSPost2010Prop39
140
1.0
102
RTVSPost2010PropOp39
 70
     1
102
RTVSPost2010Prop40
 90
        0
102
RTVSPost2010PropOp40
 70
     1
102
RTVSPost2010Prop41ColorIndex
 90
       18
102
RTVSPost2010Prop41ColorRGB
 90
        0
102
RTVSPost2010PropOp41
 70
     1
102
RTVSPost2010Prop42
 90
       50
102
RTVSPost2010PropOp42
 70
     1
102
RTVSPost2010Prop43
 90
        3
102
RTVSPost2010PropOp43
 70
     1
102
RTVSPost2010Prop44ColorIndex
 90
        5
102
RTVSPost2010Prop44ColorRGB
 90
      255
102
RTVSPost2010PropOp44
 70
     1
102
RTVSPost2010Prop45
280
     0
102
RTVSPost2010PropOp45
 70
     1
102
RTVSPost2010Prop46
 90
       50
102
RTVSPost2010PropOp46
 70
     1
102
RTVSPost2010Prop47
 90
       50
102
RTVSPost2010PropOp47
 70
     1
102
RTVSPost2010Prop48
 90
       50
102
RTVSPost2010PropOp48
 70
     1
102
RTVSPost2010Prop49
280
     0
102
RTVSPost2010PropOp49
 70
     1
102
RTVSPost2010Prop50
 90
       50
102
RTVSPost2010PropOp50
 70
     1
102
RTVSPost2010Prop51ColorIndex
 90
      256
102
RTVSPost2010Prop51ColorRGB
 90
-16777216
102
RTVSPost2010PropOp51
 70
     0
102
RTVSPost2010Prop52
140
1.0
102
RTVSPost2010PropOp52
 70
     0
102
RTVSPost2010Prop53
 90
        2
102
RTVSPost2010PropOp53
 70
     1
102
RTVSPost2010Prop54
  1
strokes_ogs.tif
102
RTVSPost2010PropOp54
 70
     1
102
RTVSPost2010Prop55
280
     0
102
RTVSPost2010PropOp55
 70
     1
102
RTVSPost2010Prop56
140
1.0
102
RTVSPost2010PropOp56
 70
     1
102
RTVSPost2010Prop57
140
1.0
102
RTVSPost2010PropOp57
 70
     1
  0
XRECORD
  5
308
102
{ACAD_REACTORS
330
307
102
}
330
307
100
AcDbXrecord
280
     1
102
RTVSPropertyOp0
 70
     1
102
RTVSPropertyOp1
 70
     1
102
RTVSPropertyOp2
 70
     1
102
RTVSPropertyOp3
 70
     1
102
RTVSPropertyOp4
 70
     1
102
RTVSPropertyOp5
 70
     1
102
RTVSPropertyOp6
 70
     1
102
RTVSPropertyOp7
 70
     1
102
RTVSPropertyOp8
 70
     1
102
RTVSPropertyOp9
 70
     1
102
RTVSPropertyOp10
 70
     1
102
RTVSPropertyOp11
 70
     1
102
RTVSPropertyOp12
 70
     1
102
RTVSPropertyOp13
 70
     1
102
RTVSPropertyOp14
 70
     1
102
RTVSPropertyOp15
 70
     1
102
RTVSPropertyOp16
 70
     1
102
RTVSPropertyOp17
 70
     1
102
RTVSPropertyOp18
 70
     1
102
RTVSPropertyOp19
 70
     1
102
RTVSPropertyOp20
 70
     1
102
RTVSPropertyOp21
 70
     1
102
RTVSPropertyOp22
 70
     1
102
RTVSPropertyOp23
 70
     1
102
RTVSPropertyOp24
 70
     1
102
RTVSPropertyOp25
 70
     1
102
RTVSPropertyOp26
 70
     1
102
RTVSPropertyOp27
 70
     1
102
RTVSPropertyOp28
 70
     1
102
RTVSPropertyOp29
 70
     1
102
RTVSPropertyOp30
 70
     1
102
RTVSPropertyOp31
 70
     1
102
RTVSPropertyOp32
 70
     1
102
RTVSPropertyOp33
 70
     1
102
RTVSPropertyOp34
 70
     1
102
RTVSPropertyOp35
 70
     1
102
RTVSPropertyOp36
 70
     1
102
RTVSPropertyOp37
 70
     1
102
RTVSPropertyOp38
 70
     1
102
RTVSPropertyOp39
 70
     1
102
RTVSPropertyOp40
 70
     1
102
RTVSPropertyOp41
 70
     1
102
RTVSPropertyOp42
 70
     1
102
RTVSPropertyOp43
 70
     1
102
RTVSPropertyOp44
 70
     1
102
RTVSPropertyOp45
 70
     1
102
RTVSPropertyOp46
 70
     1
102
RTVSPropertyOp47
 70
     1
102
RTVSPropertyOp48
 70
     1
102
RTVSPropertyOp49
 70
     1
102
RTVSPropertyOp50
 70
     1
102
RTVSPropertyOp51
 70
     0
102
RTVSPropertyOp52
 70
     0
102
RTVSPropertyOp53
 70
     1
102
RTVSPropertyOp54
 70
     1
102
RTVSPropertyOp55
 70
     1
102
RTVSPropertyOp56
 70
     1
102
RTVSPropertyOp57
 70
     1
102
RTVSPost2010Prop28
280
     0
102
RTVSPost2010PropOp28
 70
     1
102
RTVSPost2010Prop29
280
     1
102
RTVSPost2010PropOp29
 70
     1
102
RTVSPost2010Prop30
280
     1
102
RTVSPost2010PropOp30
 70
     1
102
RTVSPost2010Prop31
280
     0
102
RTVSPost2010PropOp31
 70
     1
102
RTVSPost2010Prop32
280
     0
102
RTVSPost2010PropOp32
 70
     1
102
RTVSPost2010Prop33
280
     0
102
RTVSPost2010PropOp33
 70
     1
102
RTVSPost2010Prop34
280
     0
102
RTVSPost2010PropOp34
 70
     1
102
RTVSPost2010Prop35
280
     0
102
RTVSPost2010PropOp35
 70
     1
102
RTVSPost2010Prop36
280
     0
102
RTVSPost2010PropOp36
 70
     1
102
RTVSPost2010Prop37
 90
       50
102
RTVSPost2010PropOp37
 70
     1
102
RTVSPost2010Prop38
140
0.0
102
RTVSPost2010PropOp38
 70
     1
102
RTVSPost2010Prop39
140
1.0
102
RTVSPost2010PropOp39
 70
     1
102
RTVSPost2010Prop40
 90
        0
102
RTVSPost2010PropOp40
 70
     1
102
RTVSPost2010Prop41ColorIndex
 90
       18
102
RTVSPost2010Prop41ColorRGB
 90
        0
102
RTVSPost2010PropOp41
 70
     1
102
RTVSPost2010Prop42
 90
       50
102
RTVSPost2010PropOp42
 70
     1
102
RTVSPost2010Prop43
 90
        3
102
RTVSPost2010PropOp43
 70
     1
102
RTVSPost2010Prop44ColorIndex
 90
        5
102
RTVSPost2010Prop44ColorRGB
 90
      255
102
RTVSPost2010PropOp44
 70
     1
102
RTVSPost2010Prop45
280
     0
102
RTVSPost2010PropOp45
 70
     1
102
RTVSPost2010Prop46
 90
       50
102
RTVSPost2010PropOp46
 70
     1
102
RTVSPost2010Prop47
 90
       50
102
RTVSPost2010PropOp47
 70
     1
102
RTVSPost2010Prop48
 90
       50
102
RTVSPost2010PropOp48
 70
     1
102
RTVSPost2010Prop49
280
     0
102
RTVSPost2010PropOp49
 70
     1
102
RTVSPost2010Prop50
 90
       50
102
RTVSPost2010PropOp50
 70
     1
102
RTVSPost2010Prop51ColorIndex
 90
      256
102
RTVSPost2010Prop51ColorRGB
 90
-16777216
102
RTVSPost2010PropOp51
 70
     0
102
RTVSPost2010Prop52
140
1.0
102
RTVSPost2010PropOp52
 70
     0
102
RTVSPost2010Prop53
 90
        2
102
RTVSPost2010PropOp53
 70
     1
102
RTVSPost2010Prop54
  1
strokes_ogs.tif
102
RTVSPost2010PropOp54
 70
     1
102
RTVSPost2010Prop55
280
     0
102
RTVSPost2010PropOp55
 70
     1
102
RTVSPost2010Prop56
140
1.0
102
RTVSPost2010PropOp56
 70
     1
102
RTVSPost2010Prop57
140
1.0
102
RTVSPost2010PropOp57
 70
     1
  0
XRECORD
  5
30E
102
{ACAD_REACTORS
330
30D
102
}
330
30D
100
AcDbXrecord
280
     1
102
RTVSPropertyOp0
 70
     1
102
RTVSPropertyOp1
 70
     1
102
RTVSPropertyOp2
 70
     1
102
RTVSPropertyOp3
 70
     1
102
RTVSPropertyOp4
 70
     1
102
RTVSPropertyOp5
 70
     1
102
RTVSPropertyOp6
 70
     1
102
RTVSPropertyOp7
 70
     1
102
RTVSPropertyOp8
 70
     1
102
RTVSPropertyOp9
 70
     1
102
RTVSPropertyOp10
 70
     1
102
RTVSPropertyOp11
 70
     1
102
RTVSPropertyOp12
 70
     1
102
RTVSPropertyOp13
 70
     1
102
RTVSPropertyOp14
 70
     1
102
RTVSPropertyOp15
 70
     1
102
RTVSPropertyOp16
 70
     1
102
RTVSPropertyOp17
 70
     1
102
RTVSPropertyOp18
 70
     1
102
RTVSPropertyOp19
 70
     1
102
RTVSPropertyOp20
 70
     1
102
RTVSPropertyOp21
 70
     1
102
RTVSPropertyOp22
 70
     1
102
RTVSPropertyOp23
 70
     1
102
RTVSPropertyOp24
 70
     1
102
RTVSPropertyOp25
 70
     1
102
RTVSPropertyOp26
 70
     1
102
RTVSPropertyOp27
 70
     1
102
RTVSPropertyOp28
 70
     1
102
RTVSPropertyOp29
 70
     1
102
RTVSPropertyOp30
 70
     1
102
RTVSPropertyOp31
 70
     1
102
RTVSPropertyOp32
 70
     1
102
RTVSPropertyOp33
 70
     1
102
RTVSPropertyOp34
 70
     1
102
RTVSPropertyOp35
 70
     1
102
RTVSPropertyOp36
 70
     1
102
RTVSPropertyOp37
 70
     1
102
RTVSPropertyOp38
 70
     1
102
RTVSPropertyOp39
 70
     1
102
RTVSPropertyOp40
 70
     1
102
RTVSPropertyOp41
 70
     1
102
RTVSPropertyOp42
 70
     1
102
RTVSPropertyOp43
 70
     1
102
RTVSPropertyOp44
 70
     1
102
RTVSPropertyOp45
 70
     1
102
RTVSPropertyOp46
 70
     1
102
RTVSPropertyOp47
 70
     1
102
RTVSPropertyOp48
 70
     1
102
RTVSPropertyOp49
 70
     1
102
RTVSPropertyOp50
 70
     1
102
RTVSPropertyOp51
 70
     0
102
RTVSPropertyOp52
 70
     0
102
RTVSPropertyOp53
 70
     1
102
RTVSPropertyOp54
 70
     1
102
RTVSPropertyOp55
 70
     1
102
RTVSPropertyOp56
 70
     1
102
RTVSPropertyOp57
 70
     1
102
RTVSPost2010Prop28
280
     0
102
RTVSPost2010PropOp28
 70
     1
102
RTVSPost2010Prop29
280
     1
102
RTVSPost2010PropOp29
 70
     1
102
RTVSPost2010Prop30
280
     1
102
RTVSPost2010PropOp30
 70
     1
102
RTVSPost2010Prop31
280
     0
102
RTVSPost2010PropOp31
 70
     1
102
RTVSPost2010Prop32
280
     0
102
RTVSPost2010PropOp32
 70
     1
102
RTVSPost2010Prop33
280
     0
102
RTVSPost2010PropOp33
 70
     1
102
RTVSPost2010Prop34
280
     0
102
RTVSPost2010PropOp34
 70
     1
102
RTVSPost2010Prop35
280
     0
102
RTVSPost2010PropOp35
 70
     1
102
RTVSPost2010Prop36
280
     0
102
RTVSPost2010PropOp36
 70
     1
102
RTVSPost2010Prop37
 90
       50
102
RTVSPost2010PropOp37
 70
     1
102
RTVSPost2010Prop38
140
0.0
102
RTVSPost2010PropOp38
 70
     1
102
RTVSPost2010Prop39
140
1.0
102
RTVSPost2010PropOp39
 70
     1
102
RTVSPost2010Prop40
 90
        0
102
RTVSPost2010PropOp40
 70
     1
102
RTVSPost2010Prop41ColorIndex
 90
       18
102
RTVSPost2010Prop41ColorRGB
 90
        0
102
RTVSPost2010PropOp41
 70
     1
102
RTVSPost2010Prop42
 90
       50
102
RTVSPost2010PropOp42
 70
     1
102
RTVSPost2010Prop43
 90
        3
102
RTVSPost2010PropOp43
 70
     1
102
RTVSPost2010Prop44ColorIndex
 90
        5
102
RTVSPost2010Prop44ColorRGB
 90
      255
102
RTVSPost2010PropOp44
 70
     1
102
RTVSPost2010Prop45
280
     0
102
RTVSPost2010PropOp45
 70
     1
102
RTVSPost2010Prop46
 90
       50
102
RTVSPost2010PropOp46
 70
     1
102
RTVSPost2010Prop47
 90
       50
102
RTVSPost2010PropOp47
 70
     1
102
RTVSPost2010Prop48
 90
       50
102
RTVSPost2010PropOp48
 70
     1
102
RTVSPost2010Prop49
280
     0
102
RTVSPost2010PropOp49
 70
     1
102
RTVSPost2010Prop50
 90
       50
102
RTVSPost2010PropOp50
 70
     1
102
RTVSPost2010Prop51ColorIndex
 90
      256
102
RTVSPost2010Prop51ColorRGB
 90
-16777216
102
RTVSPost2010PropOp51
 70
     0
102
RTVSPost2010Prop52
140
1.0
102
RTVSPost2010PropOp52
 70
     0
102
RTVSPost2010Prop53
 90
        2
102
RTVSPost2010PropOp53
 70
     1
102
RTVSPost2010Prop54
  1
strokes_ogs.tif
102
RTVSPost2010PropOp54
 70
     1
102
RTVSPost2010Prop55
280
     0
102
RTVSPost2010PropOp55
 70
     1
102
RTVSPost2010Prop56
140
1.0
102
RTVSPost2010PropOp56
 70
     1
102
RTVSPost2010Prop57
140
1.0
102
RTVSPost2010PropOp57
 70
     1
  0
XRECORD
  5
322
102
{ACAD_REACTORS
330
321
102
}
330
321
100
AcDbXrecord
280
     1
102
RTVSPropertyOp0
 70
     0
102
RTVSPropertyOp1
 70
     0
102
RTVSPropertyOp2
 70
     0
102
RTVSPropertyOp3
 70
     0
102
RTVSPropertyOp4
 70
     0
102
RTVSPropertyOp5
 70
     0
102
RTVSPropertyOp6
 70
     0
102
RTVSPropertyOp7
 70
     0
102
RTVSPropertyOp8
 70
     0
102
RTVSPropertyOp9
 70
     0
102
RTVSPropertyOp10
 70
     0
102
RTVSPropertyOp11
 70
     0
102
RTVSPropertyOp12
 70
     0
102
RTVSPropertyOp13
 70
     0
102
RTVSPropertyOp14
 70
     2
102
RTVSPropertyOp15
 70
     0
102
RTVSPropertyOp16
 70
     0
102
RTVSPropertyOp17
 70
     0
102
RTVSPropertyOp18
 70
     0
102
RTVSPropertyOp19
 70
     0
102
RTVSPropertyOp20
 70
     0
102
RTVSPropertyOp21
 70
     0
102
RTVSPropertyOp22
 70
     0
102
RTVSPropertyOp23
 70
     0
102
RTVSPropertyOp24
 70
     0
102
RTVSPropertyOp25
 70
     0
102
RTVSPropertyOp26
 70
     0
102
RTVSPropertyOp27
 70
     0
102
RTVSPropertyOp28
 70
     0
102
RTVSPropertyOp29
 70
     0
102
RTVSPropertyOp30
 70
     0
102
RTVSPropertyOp31
 70
     0
102
RTVSPropertyOp32
 70
     0
102
RTVSPropertyOp33
 70
     0
102
RTVSPropertyOp34
 70
     0
102
RTVSPropertyOp35
 70
     0
102
RTVSPropertyOp36
 70
     0
102
RTVSPropertyOp37
 70
     0
102
RTVSPropertyOp38
 70
     0
102
RTVSPropertyOp39
 70
     0
102
RTVSPropertyOp40
 70
     0
102
RTVSPropertyOp41
 70
     0
102
RTVSPropertyOp42
 70
     0
102
RTVSPropertyOp43
 70
     0
102
RTVSPropertyOp44
 70
     0
102
RTVSPropertyOp45
 70
     0
102
RTVSPropertyOp46
 70
     0
102
RTVSPropertyOp47
 70
     0
102
RTVSPropertyOp48
 70
     0
102
RTVSPropertyOp49
 70
     0
102
RTVSPropertyOp50
 70
     0
102
RTVSPropertyOp51
 70
     0
102
RTVSPropertyOp52
 70
     0
102
RTVSPropertyOp53
 70
     0
102
RTVSPropertyOp54
 70
     0
102
RTVSPropertyOp55
 70
     0
102
RTVSPropertyOp56
 70
     0
102
RTVSPropertyOp57
 70
     0
102
RTVSPost2010Prop28
280
     0
102
RTVSPost2010PropOp28
 70
     0
102
RTVSPost2010Prop29
280
     1
102
RTVSPost2010PropOp29
 70
     0
102
RTVSPost2010Prop30
280
     1
102
RTVSPost2010PropOp30
 70
     0
102
RTVSPost2010Prop31
280
     0
102
RTVSPost2010PropOp31
 70
     0
102
RTVSPost2010Prop32
280
     0
102
RTVSPost2010PropOp32
 70
     0
102
RTVSPost2010Prop33
280
     0
102
RTVSPost2010PropOp33
 70
     0
102
RTVSPost2010Prop34
280
     0
102
RTVSPost2010PropOp34
 70
     0
102
RTVSPost2010Prop35
280
     0
102
RTVSPost2010PropOp35
 70
     0
102
RTVSPost2010Prop36
280
     0
102
RTVSPost2010PropOp36
 70
     0
102
RTVSPost2010Prop37
 90
       50
102
RTVSPost2010PropOp37
 70
     0
102
RTVSPost2010Prop38
140
0.0
102
RTVSPost2010PropOp38
 70
     0
102
RTVSPost2010Prop39
140
1.0
102
RTVSPost2010PropOp39
 70
     0
102
RTVSPost2010Prop40
 90
        0
102
RTVSPost2010PropOp40
 70
     0
102
RTVSPost2010Prop41ColorIndex
 90
       18
102
RTVSPost2010Prop41ColorRGB
 90
        0
102
RTVSPost2010PropOp41
 70
     0
102
RTVSPost2010Prop42
 90
       50
102
RTVSPost2010PropOp42
 70
     0
102
RTVSPost2010Prop43
 90
        3
102
RTVSPost2010PropOp43
 70
     0
102
RTVSPost2010Prop44ColorIndex
 90
        5
102
RTVSPost2010Prop44ColorRGB
 90
      255
102
RTVSPost2010PropOp44
 70
     0
102
RTVSPost2010Prop45
280
     0
102
RTVSPost2010PropOp45
 70
     0
102
RTVSPost2010Prop46
 90
       50
102
RTVSPost2010PropOp46
 70
     0
102
RTVSPost2010Prop47
 90
       50
102
RTVSPost2010PropOp47
 70
     0
102
RTVSPost2010Prop48
 90
       50
102
RTVSPost2010PropOp48
 70
     0
102
RTVSPost2010Prop49
280
     0
102
RTVSPost2010PropOp49
 70
     0
102
RTVSPost2010Prop50
 90
       50
102
RTVSPost2010PropOp50
 70
     0
102
RTVSPost2010Prop51ColorIndex
 90
      256
102
RTVSPost2010Prop51ColorRGB
 90
-16777216
102
RTVSPost2010PropOp51
 70
     0
102
RTVSPost2010Prop52
140
1.0
102
RTVSPost2010PropOp52
 70
     0
102
RTVSPost2010Prop53
 90
        2
102
RTVSPost2010PropOp53
 70
     0
102
RTVSPost2010Prop54
  1
strokes_ogs.tif
102
RTVSPost2010PropOp54
 70
     0
102
RTVSPost2010Prop55
280
     0
102
RTVSPost2010PropOp55
 70
     0
102
RTVSPost2010Prop56
140
1.0
102
RTVSPost2010PropOp56
 70
     0
102
RTVSPost2010Prop57
140
1.0
102
RTVSPost2010PropOp57
 70
     0
  0
XRECORD
  5
31C
102
{ACAD_REACTORS
330
31B
102
}
330
31B
100
AcDbXrecord
280
     1
102
RTVSPropertyOp0
 70
     1
102
RTVSPropertyOp1
 70
     1
102
RTVSPropertyOp2
 70
     1
102
RTVSPropertyOp3
 70
     1
102
RTVSPropertyOp4
 70
     1
102
RTVSPropertyOp5
 70
     1
102
RTVSPropertyOp6
 70
     1
102
RTVSPropertyOp7
 70
     1
102
RTVSPropertyOp8
 70
     1
102
RTVSPropertyOp9
 70
     1
102
RTVSPropertyOp10
 70
     1
102
RTVSPropertyOp11
 70
     1
102
RTVSPropertyOp12
 70
     1
102
RTVSPropertyOp13
 70
     1
102
RTVSPropertyOp14
 70
     1
102
RTVSPropertyOp15
 70
     1
102
RTVSPropertyOp16
 70
     1
102
RTVSPropertyOp17
 70
     1
102
RTVSPropertyOp18
 70
     1
102
RTVSPropertyOp19
 70
     1
102
RTVSPropertyOp20
 70
     1
102
RTVSPropertyOp21
 70
     1
102
RTVSPropertyOp22
 70
     1
102
RTVSPropertyOp23
 70
     1
102
RTVSPropertyOp24
 70
     1
102
RTVSPropertyOp25
 70
     1
102
RTVSPropertyOp26
 70
     1
102
RTVSPropertyOp27
 70
     1
102
RTVSPropertyOp28
 70
     1
102
RTVSPropertyOp29
 70
     1
102
RTVSPropertyOp30
 70
     1
102
RTVSPropertyOp31
 70
     1
102
RTVSPropertyOp32
 70
     1
102
RTVSPropertyOp33
 70
     1
102
RTVSPropertyOp34
 70
     1
102
RTVSPropertyOp35
 70
     1
102
RTVSPropertyOp36
 70
     1
102
RTVSPropertyOp37
 70
     1
102
RTVSPropertyOp38
 70
     1
102
RTVSPropertyOp39
 70
     1
102
RTVSPropertyOp40
 70
     1
102
RTVSPropertyOp41
 70
     1
102
RTVSPropertyOp42
 70
     1
102
RTVSPropertyOp43
 70
     1
102
RTVSPropertyOp44
 70
     1
102
RTVSPropertyOp45
 70
     1
102
RTVSPropertyOp46
 70
     1
102
RTVSPropertyOp47
 70
     1
102
RTVSPropertyOp48
 70
     1
102
RTVSPropertyOp49
 70
     1
102
RTVSPropertyOp50
 70
     1
102
RTVSPropertyOp51
 70
     0
102
RTVSPropertyOp52
 70
     0
102
RTVSPropertyOp53
 70
     1
102
RTVSPropertyOp54
 70
     1
102
RTVSPropertyOp55
 70
     1
102
RTVSPropertyOp56
 70
     1
102
RTVSPropertyOp57
 70
     1
102
RTVSPost2010Prop28
280
     0
102
RTVSPost2010PropOp28
 70
     1
102
RTVSPost2010Prop29
280
     1
102
RTVSPost2010PropOp29
 70
     1
102
RTVSPost2010Prop30
280
     1
102
RTVSPost2010PropOp30
 70
     1
102
RTVSPost2010Prop31
280
     0
102
RTVSPost2010PropOp31
 70
     1
102
RTVSPost2010Prop32
280
     0
102
RTVSPost2010PropOp32
 70
     1
102
RTVSPost2010Prop33
280
     0
102
RTVSPost2010PropOp33
 70
     1
102
RTVSPost2010Prop34
280
     0
102
RTVSPost2010PropOp34
 70
     1
102
RTVSPost2010Prop35
280
     0
102
RTVSPost2010PropOp35
 70
     1
102
RTVSPost2010Prop36
280
     0
102
RTVSPost2010PropOp36
 70
     1
102
RTVSPost2010Prop37
 90
       50
102
RTVSPost2010PropOp37
 70
     1
102
RTVSPost2010Prop38
140
0.0
102
RTVSPost2010PropOp38
 70
     1
102
RTVSPost2010Prop39
140
1.0
102
RTVSPost2010PropOp39
 70
     1
102
RTVSPost2010Prop40
 90
        0
102
RTVSPost2010PropOp40
 70
     1
102
RTVSPost2010Prop41ColorIndex
 90
       18
102
RTVSPost2010Prop41ColorRGB
 90
        0
102
RTVSPost2010PropOp41
 70
     1
102
RTVSPost2010Prop42
 90
       50
102
RTVSPost2010PropOp42
 70
     1
102
RTVSPost2010Prop43
 90
        3
102
RTVSPost2010PropOp43
 70
     1
102
RTVSPost2010Prop44ColorIndex
 90
        5
102
RTVSPost2010Prop44ColorRGB
 90
      255
102
RTVSPost2010PropOp44
 70
     1
102
RTVSPost2010Prop45
280
     0
102
RTVSPost2010PropOp45
 70
     1
102
RTVSPost2010Prop46
 90
       50
102
RTVSPost2010PropOp46
 70
     1
102
RTVSPost2010Prop47
 90
       50
102
RTVSPost2010PropOp47
 70
     1
102
RTVSPost2010Prop48
 90
       50
102
RTVSPost2010PropOp48
 70
     1
102
RTVSPost2010Prop49
280
     0
102
RTVSPost2010PropOp49
 70
     1
102
RTVSPost2010Prop50
 90
       50
102
RTVSPost2010PropOp50
 70
     1
102
RTVSPost2010Prop51ColorIndex
 90
      256
102
RTVSPost2010Prop51ColorRGB
 90
-16777216
102
RTVSPost2010PropOp51
 70
     0
102
RTVSPost2010Prop52
140
1.0
102
RTVSPost2010PropOp52
 70
     0
102
RTVSPost2010Prop53
 90
        2
102
RTVSPost2010PropOp53
 70
     1
102
RTVSPost2010Prop54
  1
strokes_ogs.tif
102
RTVSPost2010PropOp54
 70
     1
102
RTVSPost2010Prop55
280
     0
102
RTVSPost2010PropOp55
 70
     1
102
RTVSPost2010Prop56
140
1.0
102
RTVSPost2010PropOp56
 70
     1
102
RTVSPost2010Prop57
140
1.0
102
RTVSPost2010PropOp57
 70
     1
  0
XRECORD
  5
324
102
{ACAD_REACTORS
330
323
102
}
330
323
100
AcDbXrecord
280
     1
102
RTVSPropertyOp0
 70
     0
102
RTVSPropertyOp1
 70
     0
102
RTVSPropertyOp2
 70
     0
102
RTVSPropertyOp3
 70
     0
102
RTVSPropertyOp4
 70
     0
102
RTVSPropertyOp5
 70
     0
102
RTVSPropertyOp6
 70
     0
102
RTVSPropertyOp7
 70
     0
102
RTVSPropertyOp8
 70
     0
102
RTVSPropertyOp9
 70
     0
102
RTVSPropertyOp10
 70
     0
102
RTVSPropertyOp11
 70
     0
102
RTVSPropertyOp12
 70
     0
102
RTVSPropertyOp13
 70
     0
102
RTVSPropertyOp14
 70
     2
102
RTVSPropertyOp15
 70
     0
102
RTVSPropertyOp16
 70
     0
102
RTVSPropertyOp17
 70
     0
102
RTVSPropertyOp18
 70
     0
102
RTVSPropertyOp19
 70
     0
102
RTVSPropertyOp20
 70
     0
102
RTVSPropertyOp21
 70
     0
102
RTVSPropertyOp22
 70
     0
102
RTVSPropertyOp23
 70
     0
102
RTVSPropertyOp24
 70
     0
102
RTVSPropertyOp25
 70
     0
102
RTVSPropertyOp26
 70
     0
102
RTVSPropertyOp27
 70
     0
102
RTVSPropertyOp28
 70
     0
102
RTVSPropertyOp29
 70
     0
102
RTVSPropertyOp30
 70
     0
102
RTVSPropertyOp31
 70
     0
102
RTVSPropertyOp32
 70
     0
102
RTVSPropertyOp33
 70
     0
102
RTVSPropertyOp34
 70
     0
102
RTVSPropertyOp35
 70
     0
102
RTVSPropertyOp36
 70
     0
102
RTVSPropertyOp37
 70
     0
102
RTVSPropertyOp38
 70
     0
102
RTVSPropertyOp39
 70
     0
102
RTVSPropertyOp40
 70
     0
102
RTVSPropertyOp41
 70
     0
102
RTVSPropertyOp42
 70
     0
102
RTVSPropertyOp43
 70
     0
102
RTVSPropertyOp44
 70
     0
102
RTVSPropertyOp45
 70
     0
102
RTVSPropertyOp46
 70
     0
102
RTVSPropertyOp47
 70
     0
102
RTVSPropertyOp48
 70
     0
102
RTVSPropertyOp49
 70
     0
102
RTVSPropertyOp50
 70
     0
102
RTVSPropertyOp51
 70
     0
102
RTVSPropertyOp52
 70
     0
102
RTVSPropertyOp53
 70
     0
102
RTVSPropertyOp54
 70
     0
102
RTVSPropertyOp55
 70
     0
102
RTVSPropertyOp56
 70
     0
102
RTVSPropertyOp57
 70
     0
102
RTVSPost2010Prop28
280
     0
102
RTVSPost2010PropOp28
 70
     0
102
RTVSPost2010Prop29
280
     1
102
RTVSPost2010PropOp29
 70
     0
102
RTVSPost2010Prop30
280
     1
102
RTVSPost2010PropOp30
 70
     0
102
RTVSPost2010Prop31
280
     0
102
RTVSPost2010PropOp31
 70
     0
102
RTVSPost2010Prop32
280
     0
102
RTVSPost2010PropOp32
 70
     0
102
RTVSPost2010Prop33
280
     0
102
RTVSPost2010PropOp33
 70
     0
102
RTVSPost2010Prop34
280
     0
102
RTVSPost2010PropOp34
 70
     0
102
RTVSPost2010Prop35
280
     0
102
RTVSPost2010PropOp35
 70
     0
102
RTVSPost2010Prop36
280
     0
102
RTVSPost2010PropOp36
 70
     0
102
RTVSPost2010Prop37
 90
       50
102
RTVSPost2010PropOp37
 70
     0
102
RTVSPost2010Prop38
140
0.0
102
RTVSPost2010PropOp38
 70
     0
102
RTVSPost2010Prop39
140
1.0
102
RTVSPost2010PropOp39
 70
     0
102
RTVSPost2010Prop40
 90
        0
102
RTVSPost2010PropOp40
 70
     0
102
RTVSPost2010Prop41ColorIndex
 90
       18
102
RTVSPost2010Prop41ColorRGB
 90
        0
102
RTVSPost2010PropOp41
 70
     0
102
RTVSPost2010Prop42
 90
       50
102
RTVSPost2010PropOp42
 70
     0
102
RTVSPost2010Prop43
 90
        3
102
RTVSPost2010PropOp43
 70
     0
102
RTVSPost2010Prop44ColorIndex
 90
        5
102
RTVSPost2010Prop44ColorRGB
 90
      255
102
RTVSPost2010PropOp44
 70
     0
102
RTVSPost2010Prop45
280
     0
102
RTVSPost2010PropOp45
 70
     0
102
RTVSPost2010Prop46
 90
       50
102
RTVSPost2010PropOp46
 70
     0
102
RTVSPost2010Prop47
 90
       50
102
RTVSPost2010PropOp47
 70
     0
102
RTVSPost2010Prop48
 90
       50
102
RTVSPost2010PropOp48
 70
     0
102
RTVSPost2010Prop49
280
     0
102
RTVSPost2010PropOp49
 70
     0
102
RTVSPost2010Prop50
 90
       50
102
RTVSPost2010PropOp50
 70
     0
102
RTVSPost2010Prop51ColorIndex
 90
      256
102
RTVSPost2010Prop51ColorRGB
 90
-16777216
102
RTVSPost2010PropOp51
 70
     0
102
RTVSPost2010Prop52
140
1.0
102
RTVSPost2010PropOp52
 70
     0
102
RTVSPost2010Prop53
 90
        2
102
RTVSPost2010PropOp53
 70
     0
102
RTVSPost2010Prop54
  1
strokes_ogs.tif
102
RTVSPost2010PropOp54
 70
     0
102
RTVSPost2010Prop55
280
     0
102
RTVSPost2010PropOp55
 70
     0
102
RTVSPost2010Prop56
140
1.0
102
RTVSPost2010PropOp56
 70
     0
102
RTVSPost2010Prop57
140
1.0
102
RTVSPost2010PropOp57
 70
     0
  0
XRECORD
  5
312
102
{ACAD_REACTORS
330
311
102
}
330
311
100
AcDbXrecord
280
     1
102
RTVSPropertyOp0
 70
     1
102
RTVSPropertyOp1
 70
     1
102
RTVSPropertyOp2
 70
     1
102
RTVSPropertyOp3
 70
     1
102
RTVSPropertyOp4
 70
     1
102
RTVSPropertyOp5
 70
     1
102
RTVSPropertyOp6
 70
     1
102
RTVSPropertyOp7
 70
     1
102
RTVSPropertyOp8
 70
     1
102
RTVSPropertyOp9
 70
     1
102
RTVSPropertyOp10
 70
     1
102
RTVSPropertyOp11
 70
     1
102
RTVSPropertyOp12
 70
     1
102
RTVSPropertyOp13
 70
     1
102
RTVSPropertyOp14
 70
     1
102
RTVSPropertyOp15
 70
     1
102
RTVSPropertyOp16
 70
     1
102
RTVSPropertyOp17
 70
     1
102
RTVSPropertyOp18
 70
     1
102
RTVSPropertyOp19
 70
     1
102
RTVSPropertyOp20
 70
     1
102
RTVSPropertyOp21
 70
     1
102
RTVSPropertyOp22
 70
     1
102
RTVSPropertyOp23
 70
     1
102
RTVSPropertyOp24
 70
     1
102
RTVSPropertyOp25
 70
     1
102
RTVSPropertyOp26
 70
     1
102
RTVSPropertyOp27
 70
     1
102
RTVSPropertyOp28
 70
     1
102
RTVSPropertyOp29
 70
     1
102
RTVSPropertyOp30
 70
     1
102
RTVSPropertyOp31
 70
     1
102
RTVSPropertyOp32
 70
     1
102
RTVSPropertyOp33
 70
     1
102
RTVSPropertyOp34
 70
     1
102
RTVSPropertyOp35
 70
     1
102
RTVSPropertyOp36
 70
     1
102
RTVSPropertyOp37
 70
     1
102
RTVSPropertyOp38
 70
     1
102
RTVSPropertyOp39
 70
     1
102
RTVSPropertyOp40
 70
     1
102
RTVSPropertyOp41
 70
     1
102
RTVSPropertyOp42
 70
     1
102
RTVSPropertyOp43
 70
     1
102
RTVSPropertyOp44
 70
     1
102
RTVSPropertyOp45
 70
     1
102
RTVSPropertyOp46
 70
     1
102
RTVSPropertyOp47
 70
     1
102
RTVSPropertyOp48
 70
     1
102
RTVSPropertyOp49
 70
     1
102
RTVSPropertyOp50
 70
     1
102
RTVSPropertyOp51
 70
     0
102
RTVSPropertyOp52
 70
     0
102
RTVSPropertyOp53
 70
     1
102
RTVSPropertyOp54
 70
     1
102
RTVSPropertyOp55
 70
     1
102
RTVSPropertyOp56
 70
     1
102
RTVSPropertyOp57
 70
     1
102
RTVSPost2010Prop28
280
     0
102
RTVSPost2010PropOp28
 70
     1
102
RTVSPost2010Prop29
280
     1
102
RTVSPost2010PropOp29
 70
     1
102
RTVSPost2010Prop30
280
     1
102
RTVSPost2010PropOp30
 70
     1
102
RTVSPost2010Prop31
280
     0
102
RTVSPost2010PropOp31
 70
     1
102
RTVSPost2010Prop32
280
     0
102
RTVSPost2010PropOp32
 70
     1
102
RTVSPost2010Prop33
280
     0
102
RTVSPost2010PropOp33
 70
     1
102
RTVSPost2010Prop34
280
     0
102
RTVSPost2010PropOp34
 70
     1
102
RTVSPost2010Prop35
280
     0
102
RTVSPost2010PropOp35
 70
     1
102
RTVSPost2010Prop36
280
     0
102
RTVSPost2010PropOp36
 70
     1
102
RTVSPost2010Prop37
 90
       50
102
RTVSPost2010PropOp37
 70
     1
102
RTVSPost2010Prop38
140
0.0
102
RTVSPost2010PropOp38
 70
     1
102
RTVSPost2010Prop39
140
1.0
102
RTVSPost2010PropOp39
 70
     1
102
RTVSPost2010Prop40
 90
        0
102
RTVSPost2010PropOp40
 70
     1
102
RTVSPost2010Prop41ColorIndex
 90
       18
102
RTVSPost2010Prop41ColorRGB
 90
        0
102
RTVSPost2010PropOp41
 70
     1
102
RTVSPost2010Prop42
 90
       50
102
RTVSPost2010PropOp42
 70
     1
102
RTVSPost2010Prop43
 90
        3
102
RTVSPost2010PropOp43
 70
     1
102
RTVSPost2010Prop44ColorIndex
 90
        5
102
RTVSPost2010Prop44ColorRGB
 90
      255
102
RTVSPost2010PropOp44
 70
     1
102
RTVSPost2010Prop45
280
     0
102
RTVSPost2010PropOp45
 70
     1
102
RTVSPost2010Prop46
 90
       50
102
RTVSPost2010PropOp46
 70
     1
102
RTVSPost2010Prop47
 90
       50
102
RTVSPost2010PropOp47
 70
     1
102
RTVSPost2010Prop48
 90
       50
102
RTVSPost2010PropOp48
 70
     1
102
RTVSPost2010Prop49
280
     0
102
RTVSPost2010PropOp49
 70
     1
102
RTVSPost2010Prop50
 90
       50
102
RTVSPost2010PropOp50
 70
     1
102
RTVSPost2010Prop51ColorIndex
 90
      256
102
RTVSPost2010Prop51ColorRGB
 90
-16777216
102
RTVSPost2010PropOp51
 70
     0
102
RTVSPost2010Prop52
140
1.0
102
RTVSPost2010PropOp52
 70
     0
102
RTVSPost2010Prop53
 90
        2
102
RTVSPost2010PropOp53
 70
     1
102
RTVSPost2010Prop54
  1
strokes_ogs.tif
102
RTVSPost2010PropOp54
 70
     1
102
RTVSPost2010Prop55
280
     0
102
RTVSPost2010PropOp55
 70
     1
102
RTVSPost2010Prop56
140
1.0
102
RTVSPost2010PropOp56
 70
     1
102
RTVSPost2010Prop57
140
1.0
102
RTVSPost2010PropOp57
 70
     1
  0
XRECORD
  5
330
102
{ACAD_REACTORS
330
32F
102
}
330
32F
100
AcDbXrecord
280
     1
102
RTVSPropertyOp0
 70
     1
102
RTVSPropertyOp1
 70
     1
102
RTVSPropertyOp2
 70
     1
102
RTVSPropertyOp3
 70
     1
102
RTVSPropertyOp4
 70
     1
102
RTVSPropertyOp5
 70
     1
102
RTVSPropertyOp6
 70
     1
102
RTVSPropertyOp7
 70
     1
102
RTVSPropertyOp8
 70
     1
102
RTVSPropertyOp9
 70
     1
102
RTVSPropertyOp10
 70
     1
102
RTVSPropertyOp11
 70
     1
102
RTVSPropertyOp12
 70
     1
102
RTVSPropertyOp13
 70
     1
102
RTVSPropertyOp14
 70
     1
102
RTVSPropertyOp15
 70
     1
102
RTVSPropertyOp16
 70
     1
102
RTVSPropertyOp17
 70
     1
102
RTVSPropertyOp18
 70
     1
102
RTVSPropertyOp19
 70
     1
102
RTVSPropertyOp20
 70
     1
102
RTVSPropertyOp21
 70
     1
102
RTVSPropertyOp22
 70
     1
102
RTVSPropertyOp23
 70
     1
102
RTVSPropertyOp24
 70
     1
102
RTVSPropertyOp25
 70
     1
102
RTVSPropertyOp26
 70
     1
102
RTVSPropertyOp27
 70
     1
102
RTVSPropertyOp28
 70
     1
102
RTVSPropertyOp29
 70
     1
102
RTVSPropertyOp30
 70
     1
102
RTVSPropertyOp31
 70
     1
102
RTVSPropertyOp32
 70
     1
102
RTVSPropertyOp33
 70
     1
102
RTVSPropertyOp34
 70
     1
102
RTVSPropertyOp35
 70
     1
102
RTVSPropertyOp36
 70
     1
102
RTVSPropertyOp37
 70
     1
102
RTVSPropertyOp38
 70
     1
102
RTVSPropertyOp39
 70
     1
102
RTVSPropertyOp40
 70
     1
102
RTVSPropertyOp41
 70
     1
102
RTVSPropertyOp42
 70
     1
102
RTVSPropertyOp43
 70
     1
102
RTVSPropertyOp44
 70
     1
102
RTVSPropertyOp45
 70
     1
102
RTVSPropertyOp46
 70
     1
102
RTVSPropertyOp47
 70
     1
102
RTVSPropertyOp48
 70
     1
102
RTVSPropertyOp49
 70
     1
102
RTVSPropertyOp50
 70
     1
102
RTVSPropertyOp51
 70
     0
102
RTVSPropertyOp52
 70
     0
102
RTVSPropertyOp53
 70
     1
102
RTVSPropertyOp54
 70
     1
102
RTVSPropertyOp55
 70
     1
102
RTVSPropertyOp56
 70
     1
102
RTVSPropertyOp57
 70
     1
102
RTVSPost2010Prop28
280
     0
102
RTVSPost2010PropOp28
 70
     1
102
RTVSPost2010Prop29
280
     1
102
RTVSPost2010PropOp29
 70
     1
102
RTVSPost2010Prop30
280
     1
102
RTVSPost2010PropOp30
 70
     1
102
RTVSPost2010Prop31
280
     0
102
RTVSPost2010PropOp31
 70
     1
102
RTVSPost2010Prop32
280
     0
102
RTVSPost2010PropOp32
 70
     1
102
RTVSPost2010Prop33
280
     0
102
RTVSPost2010PropOp33
 70
     1
102
RTVSPost2010Prop34
280
     0
102
RTVSPost2010PropOp34
 70
     1
102
RTVSPost2010Prop35
280
     0
102
RTVSPost2010PropOp35
 70
     1
102
RTVSPost2010Prop36
280
     0
102
RTVSPost2010PropOp36
 70
     1
102
RTVSPost2010Prop37
 90
       50
102
RTVSPost2010PropOp37
 70
     1
102
RTVSPost2010Prop38
140
0.0
102
RTVSPost2010PropOp38
 70
     1
102
RTVSPost2010Prop39
140
1.0
102
RTVSPost2010PropOp39
 70
     1
102
RTVSPost2010Prop40
 90
        0
102
RTVSPost2010PropOp40
 70
     1
102
RTVSPost2010Prop41ColorIndex
 90
       18
102
RTVSPost2010Prop41ColorRGB
 90
        0
102
RTVSPost2010PropOp41
 70
     1
102
RTVSPost2010Prop42
 90
       50
102
RTVSPost2010PropOp42
 70
     1
102
RTVSPost2010Prop43
 90
        3
102
RTVSPost2010PropOp43
 70
     1
102
RTVSPost2010Prop44ColorIndex
 90
        5
102
RTVSPost2010Prop44ColorRGB
 90
      255
102
RTVSPost2010PropOp44
 70
     1
102
RTVSPost2010Prop45
280
     0
102
RTVSPost2010PropOp45
 70
     1
102
RTVSPost2010Prop46
 90
       50
102
RTVSPost2010PropOp46
 70
     1
102
RTVSPost2010Prop47
 90
       50
102
RTVSPost2010PropOp47
 70
     1
102
RTVSPost2010Prop48
 90
       50
102
RTVSPost2010PropOp48
 70
     1
102
RTVSPost2010Prop49
280
     0
102
RTVSPost2010PropOp49
 70
     1
102
RTVSPost2010Prop50
 90
       50
102
RTVSPost2010PropOp50
 70
     1
102
RTVSPost2010Prop51ColorIndex
 90
      256
102
RTVSPost2010Prop51ColorRGB
 90
-16777216
102
RTVSPost2010PropOp51
 70
     0
102
RTVSPost2010Prop52
140
1.0
102
RTVSPost2010PropOp52
 70
     0
102
RTVSPost2010Prop53
 90
        2
102
RTVSPost2010PropOp53
 70
     1
102
RTVSPost2010Prop54
  1
strokes_ogs.tif
102
RTVSPost2010PropOp54
 70
     1
102
RTVSPost2010Prop55
280
     0
102
RTVSPost2010PropOp55
 70
     1
102
RTVSPost2010Prop56
140
1.0
102
RTVSPost2010PropOp56
 70
     1
102
RTVSPost2010Prop57
140
1.0
102
RTVSPost2010PropOp57
 70
     1
  0
XRECORD
  5
32E
102
{ACAD_REACTORS
330
32D
102
}
330
32D
100
AcDbXrecord
280
     1
102
RTVSPropertyOp0
 70
     1
102
RTVSPropertyOp1
 70
     1
102
RTVSPropertyOp2
 70
     1
102
RTVSPropertyOp3
 70
     1
102
RTVSPropertyOp4
 70
     1
102
RTVSPropertyOp5
 70
     1
102
RTVSPropertyOp6
 70
     1
102
RTVSPropertyOp7
 70
     1
102
RTVSPropertyOp8
 70
     1
102
RTVSPropertyOp9
 70
     1
102
RTVSPropertyOp10
 70
     1
102
RTVSPropertyOp11
 70
     1
102
RTVSPropertyOp12
 70
     1
102
RTVSPropertyOp13
 70
     1
102
RTVSPropertyOp14
 70
     1
102
RTVSPropertyOp15
 70
     1
102
RTVSPropertyOp16
 70
     1
102
RTVSPropertyOp17
 70
     1
102
RTVSPropertyOp18
 70
     1
102
RTVSPropertyOp19
 70
     1
102
RTVSPropertyOp20
 70
     1
102
RTVSPropertyOp21
 70
     1
102
RTVSPropertyOp22
 70
     1
102
RTVSPropertyOp23
 70
     1
102
RTVSPropertyOp24
 70
     1
102
RTVSPropertyOp25
 70
     1
102
RTVSPropertyOp26
 70
     1
102
RTVSPropertyOp27
 70
     1
102
RTVSPropertyOp28
 70
     1
102
RTVSPropertyOp29
 70
     1
102
RTVSPropertyOp30
 70
     1
102
RTVSPropertyOp31
 70
     1
102
RTVSPropertyOp32
 70
     1
102
RTVSPropertyOp33
 70
     1
102
RTVSPropertyOp34
 70
     1
102
RTVSPropertyOp35
 70
     1
102
RTVSPropertyOp36
 70
     1
102
RTVSPropertyOp37
 70
     1
102
RTVSPropertyOp38
 70
     1
102
RTVSPropertyOp39
 70
     1
102
RTVSPropertyOp40
 70
     1
102
RTVSPropertyOp41
 70
     1
102
RTVSPropertyOp42
 70
     1
102
RTVSPropertyOp43
 70
     1
102
RTVSPropertyOp44
 70
     1
102
RTVSPropertyOp45
 70
     1
102
RTVSPropertyOp46
 70
     1
102
RTVSPropertyOp47
 70
     1
102
RTVSPropertyOp48
 70
     1
102
RTVSPropertyOp49
 70
     1
102
RTVSPropertyOp50
 70
     1
102
RTVSPropertyOp51
 70
     0
102
RTVSPropertyOp52
 70
     0
102
RTVSPropertyOp53
 70
     1
102
RTVSPropertyOp54
 70
     1
102
RTVSPropertyOp55
 70
     1
102
RTVSPropertyOp56
 70
     1
102
RTVSPropertyOp57
 70
     1
102
RTVSPost2010Prop28
280
     0
102
RTVSPost2010PropOp28
 70
     1
102
RTVSPost2010Prop29
280
     1
102
RTVSPost2010PropOp29
 70
     1
102
RTVSPost2010Prop30
280
     1
102
RTVSPost2010PropOp30
 70
     1
102
RTVSPost2010Prop31
280
     0
102
RTVSPost2010PropOp31
 70
     1
102
RTVSPost2010Prop32
280
     0
102
RTVSPost2010PropOp32
 70
     1
102
RTVSPost2010Prop33
280
     0
102
RTVSPost2010PropOp33
 70
     1
102
RTVSPost2010Prop34
280
     0
102
RTVSPost2010PropOp34
 70
     1
102
RTVSPost2010Prop35
280
     0
102
RTVSPost2010PropOp35
 70
     1
102
RTVSPost2010Prop36
280
     0
102
RTVSPost2010PropOp36
 70
     1
102
RTVSPost2010Prop37
 90
       50
102
RTVSPost2010PropOp37
 70
     1
102
RTVSPost2010Prop38
140
0.0
102
RTVSPost2010PropOp38
 70
     1
102
RTVSPost2010Prop39
140
1.0
102
RTVSPost2010PropOp39
 70
     1
102
RTVSPost2010Prop40
 90
        0
102
RTVSPost2010PropOp40
 70
     1
102
RTVSPost2010Prop41ColorIndex
 90
       18
102
RTVSPost2010Prop41ColorRGB
 90
        0
102
RTVSPost2010PropOp41
 70
     1
102
RTVSPost2010Prop42
 90
       50
102
RTVSPost2010PropOp42
 70
     1
102
RTVSPost2010Prop43
 90
        3
102
RTVSPost2010PropOp43
 70
     1
102
RTVSPost2010Prop44ColorIndex
 90
        5
102
RTVSPost2010Prop44ColorRGB
 90
      255
102
RTVSPost2010PropOp44
 70
     1
102
RTVSPost2010Prop45
280
     0
102
RTVSPost2010PropOp45
 70
     1
102
RTVSPost2010Prop46
 90
       50
102
RTVSPost2010PropOp46
 70
     1
102
RTVSPost2010Prop47
 90
       50
102
RTVSPost2010PropOp47
 70
     1
102
RTVSPost2010Prop48
 90
       50
102
RTVSPost2010PropOp48
 70
     1
102
RTVSPost2010Prop49
280
     0
102
RTVSPost2010PropOp49
 70
     1
102
RTVSPost2010Prop50
 90
       50
102
RTVSPost2010PropOp50
 70
     1
102
RTVSPost2010Prop51ColorIndex
 90
      256
102
RTVSPost2010Prop51ColorRGB
 90
-16777216
102
RTVSPost2010PropOp51
 70
     0
102
RTVSPost2010Prop52
140
1.0
102
RTVSPost2010PropOp52
 70
     0
102
RTVSPost2010Prop53
 90
        2
102
RTVSPost2010PropOp53
 70
     1
102
RTVSPost2010Prop54
  1
strokes_ogs.tif
102
RTVSPost2010PropOp54
 70
     1
102
RTVSPost2010Prop55
280
     0
102
RTVSPost2010PropOp55
 70
     1
102
RTVSPost2010Prop56
140
1.0
102
RTVSPost2010PropOp56
 70
     1
102
RTVSPost2010Prop57
140
1.0
102
RTVSPost2010PropOp57
 70
     1
  0
XRECORD
  5
328
102
{ACAD_REACTORS
330
327
102
}
330
327
100
AcDbXrecord
280
     1
102
RTVSPropertyOp0
 70
     1
102
RTVSPropertyOp1
 70
     1
102
RTVSPropertyOp2
 70
     1
102
RTVSPropertyOp3
 70
     1
102
RTVSPropertyOp4
 70
     1
102
RTVSPropertyOp5
 70
     1
102
RTVSPropertyOp6
 70
     1
102
RTVSPropertyOp7
 70
     1
102
RTVSPropertyOp8
 70
     1
102
RTVSPropertyOp9
 70
     1
102
RTVSPropertyOp10
 70
     1
102
RTVSPropertyOp11
 70
     1
102
RTVSPropertyOp12
 70
     1
102
RTVSPropertyOp13
 70
     1
102
RTVSPropertyOp14
 70
     1
102
RTVSPropertyOp15
 70
     1
102
RTVSPropertyOp16
 70
     1
102
RTVSPropertyOp17
 70
     1
102
RTVSPropertyOp18
 70
     1
102
RTVSPropertyOp19
 70
     1
102
RTVSPropertyOp20
 70
     1
102
RTVSPropertyOp21
 70
     1
102
RTVSPropertyOp22
 70
     1
102
RTVSPropertyOp23
 70
     1
102
RTVSPropertyOp24
 70
     1
102
RTVSPropertyOp25
 70
     1
102
RTVSPropertyOp26
 70
     1
102
RTVSPropertyOp27
 70
     1
102
RTVSPropertyOp28
 70
     1
102
RTVSPropertyOp29
 70
     1
102
RTVSPropertyOp30
 70
     1
102
RTVSPropertyOp31
 70
     1
102
RTVSPropertyOp32
 70
     1
102
RTVSPropertyOp33
 70
     1
102
RTVSPropertyOp34
 70
     1
102
RTVSPropertyOp35
 70
     1
102
RTVSPropertyOp36
 70
     1
102
RTVSPropertyOp37
 70
     1
102
RTVSPropertyOp38
 70
     1
102
RTVSPropertyOp39
 70
     1
102
RTVSPropertyOp40
 70
     1
102
RTVSPropertyOp41
 70
     1
102
RTVSPropertyOp42
 70
     1
102
RTVSPropertyOp43
 70
     1
102
RTVSPropertyOp44
 70
     1
102
RTVSPropertyOp45
 70
     1
102
RTVSPropertyOp46
 70
     1
102
RTVSPropertyOp47
 70
     1
102
RTVSPropertyOp48
 70
     1
102
RTVSPropertyOp49
 70
     1
102
RTVSPropertyOp50
 70
     1
102
RTVSPropertyOp51
 70
     0
102
RTVSPropertyOp52
 70
     0
102
RTVSPropertyOp53
 70
     1
102
RTVSPropertyOp54
 70
     1
102
RTVSPropertyOp55
 70
     1
102
RTVSPropertyOp56
 70
     1
102
RTVSPropertyOp57
 70
     1
102
RTVSPost2010Prop28
280
     0
102
RTVSPost2010PropOp28
 70
     1
102
RTVSPost2010Prop29
280
     1
102
RTVSPost2010PropOp29
 70
     1
102
RTVSPost2010Prop30
280
     1
102
RTVSPost2010PropOp30
 70
     1
102
RTVSPost2010Prop31
280
     0
102
RTVSPost2010PropOp31
 70
     1
102
RTVSPost2010Prop32
280
     0
102
RTVSPost2010PropOp32
 70
     1
102
RTVSPost2010Prop33
280
     0
102
RTVSPost2010PropOp33
 70
     1
102
RTVSPost2010Prop34
280
     0
102
RTVSPost2010PropOp34
 70
     1
102
RTVSPost2010Prop35
280
     0
102
RTVSPost2010PropOp35
 70
     1
102
RTVSPost2010Prop36
280
     0
102
RTVSPost2010PropOp36
 70
     1
102
RTVSPost2010Prop37
 90
       50
102
RTVSPost2010PropOp37
 70
     1
102
RTVSPost2010Prop38
140
0.0
102
RTVSPost2010PropOp38
 70
     1
102
RTVSPost2010Prop39
140
1.0
102
RTVSPost2010PropOp39
 70
     1
102
RTVSPost2010Prop40
 90
        0
102
RTVSPost2010PropOp40
 70
     1
102
RTVSPost2010Prop41ColorIndex
 90
       18
102
RTVSPost2010Prop41ColorRGB
 90
        0
102
RTVSPost2010PropOp41
 70
     1
102
RTVSPost2010Prop42
 90
       50
102
RTVSPost2010PropOp42
 70
     1
102
RTVSPost2010Prop43
 90
        3
102
RTVSPost2010PropOp43
 70
     1
102
RTVSPost2010Prop44ColorIndex
 90
        5
102
RTVSPost2010Prop44ColorRGB
 90
      255
102
RTVSPost2010PropOp44
 70
     1
102
RTVSPost2010Prop45
280
     0
102
RTVSPost2010PropOp45
 70
     1
102
RTVSPost2010Prop46
 90
       50
102
RTVSPost2010PropOp46
 70
     1
102
RTVSPost2010Prop47
 90
       50
102
RTVSPost2010PropOp47
 70
     1
102
RTVSPost2010Prop48
 90
       50
102
RTVSPost2010PropOp48
 70
     1
102
RTVSPost2010Prop49
280
     0
102
RTVSPost2010PropOp49
 70
     1
102
RTVSPost2010Prop50
 90
       50
102
RTVSPost2010PropOp50
 70
     1
102
RTVSPost2010Prop51ColorIndex
 90
      256
102
RTVSPost2010Prop51ColorRGB
 90
-16777216
102
RTVSPost2010PropOp51
 70
     0
102
RTVSPost2010Prop52
140
1.0
102
RTVSPost2010PropOp52
 70
     0
102
RTVSPost2010Prop53
 90
        2
102
RTVSPost2010PropOp53
 70
     1
102
RTVSPost2010Prop54
  1
strokes_ogs.tif
102
RTVSPost2010PropOp54
 70
     1
102
RTVSPost2010Prop55
280
     0
102
RTVSPost2010PropOp55
 70
     1
102
RTVSPost2010Prop56
140
1.0
102
RTVSPost2010PropOp56
 70
     1
102
RTVSPost2010Prop57
140
1.0
102
RTVSPost2010PropOp57
 70
     1
  0
XRECORD
  5
32A
102
{ACAD_REACTORS
330
329
102
}
330
329
100
AcDbXrecord
280
     1
102
RTVSPropertyOp0
 70
     1
102
RTVSPropertyOp1
 70
     1
102
RTVSPropertyOp2
 70
     1
102
RTVSPropertyOp3
 70
     1
102
RTVSPropertyOp4
 70
     1
102
RTVSPropertyOp5
 70
     1
102
RTVSPropertyOp6
 70
     1
102
RTVSPropertyOp7
 70
     1
102
RTVSPropertyOp8
 70
     1
102
RTVSPropertyOp9
 70
     1
102
RTVSPropertyOp10
 70
     1
102
RTVSPropertyOp11
 70
     1
102
RTVSPropertyOp12
 70
     1
102
RTVSPropertyOp13
 70
     1
102
RTVSPropertyOp14
 70
     1
102
RTVSPropertyOp15
 70
     1
102
RTVSPropertyOp16
 70
     1
102
RTVSPropertyOp17
 70
     1
102
RTVSPropertyOp18
 70
     1
102
RTVSPropertyOp19
 70
     1
102
RTVSPropertyOp20
 70
     1
102
RTVSPropertyOp21
 70
     1
102
RTVSPropertyOp22
 70
     1
102
RTVSPropertyOp23
 70
     1
102
RTVSPropertyOp24
 70
     1
102
RTVSPropertyOp25
 70
     1
102
RTVSPropertyOp26
 70
     1
102
RTVSPropertyOp27
 70
     1
102
RTVSPropertyOp28
 70
     1
102
RTVSPropertyOp29
 70
     1
102
RTVSPropertyOp30
 70
     1
102
RTVSPropertyOp31
 70
     1
102
RTVSPropertyOp32
 70
     1
102
RTVSPropertyOp33
 70
     1
102
RTVSPropertyOp34
 70
     1
102
RTVSPropertyOp35
 70
     1
102
RTVSPropertyOp36
 70
     1
102
RTVSPropertyOp37
 70
     1
102
RTVSPropertyOp38
 70
     1
102
RTVSPropertyOp39
 70
     1
102
RTVSPropertyOp40
 70
     1
102
RTVSPropertyOp41
 70
     1
102
RTVSPropertyOp42
 70
     1
102
RTVSPropertyOp43
 70
     1
102
RTVSPropertyOp44
 70
     1
102
RTVSPropertyOp45
 70
     1
102
RTVSPropertyOp46
 70
     1
102
RTVSPropertyOp47
 70
     1
102
RTVSPropertyOp48
 70
     1
102
RTVSPropertyOp49
 70
     1
102
RTVSPropertyOp50
 70
     1
102
RTVSPropertyOp51
 70
     0
102
RTVSPropertyOp52
 70
     0
102
RTVSPropertyOp53
 70
     1
102
RTVSPropertyOp54
 70
     1
102
RTVSPropertyOp55
 70
     1
102
RTVSPropertyOp56
 70
     1
102
RTVSPropertyOp57
 70
     1
102
RTVSPost2010Prop28
280
     0
102
RTVSPost2010PropOp28
 70
     1
102
RTVSPost2010Prop29
280
     1
102
RTVSPost2010PropOp29
 70
     1
102
RTVSPost2010Prop30
280
     1
102
RTVSPost2010PropOp30
 70
     1
102
RTVSPost2010Prop31
280
     0
102
RTVSPost2010PropOp31
 70
     1
102
RTVSPost2010Prop32
280
     0
102
RTVSPost2010PropOp32
 70
     1
102
RTVSPost2010Prop33
280
     0
102
RTVSPost2010PropOp33
 70
     1
102
RTVSPost2010Prop34
280
     0
102
RTVSPost2010PropOp34
 70
     1
102
RTVSPost2010Prop35
280
     0
102
RTVSPost2010PropOp35
 70
     1
102
RTVSPost2010Prop36
280
     0
102
RTVSPost2010PropOp36
 70
     1
102
RTVSPost2010Prop37
 90
       50
102
RTVSPost2010PropOp37
 70
     1
102
RTVSPost2010Prop38
140
0.0
102
RTVSPost2010PropOp38
 70
     1
102
RTVSPost2010Prop39
140
1.0
102
RTVSPost2010PropOp39
 70
     1
102
RTVSPost2010Prop40
 90
        0
102
RTVSPost2010PropOp40
 70
     1
102
RTVSPost2010Prop41ColorIndex
 90
       18
102
RTVSPost2010Prop41ColorRGB
 90
        0
102
RTVSPost2010PropOp41
 70
     1
102
RTVSPost2010Prop42
 90
       50
102
RTVSPost2010PropOp42
 70
     1
102
RTVSPost2010Prop43
 90
        3
102
RTVSPost2010PropOp43
 70
     1
102
RTVSPost2010Prop44ColorIndex
 90
        5
102
RTVSPost2010Prop44ColorRGB
 90
      255
102
RTVSPost2010PropOp44
 70
     1
102
RTVSPost2010Prop45
280
     0
102
RTVSPost2010PropOp45
 70
     1
102
RTVSPost2010Prop46
 90
       50
102
RTVSPost2010PropOp46
 70
     1
102
RTVSPost2010Prop47
 90
       50
102
RTVSPost2010PropOp47
 70
     1
102
RTVSPost2010Prop48
 90
       50
102
RTVSPost2010PropOp48
 70
     1
102
RTVSPost2010Prop49
280
     0
102
RTVSPost2010PropOp49
 70
     1
102
RTVSPost2010Prop50
 90
       50
102
RTVSPost2010PropOp50
 70
     1
102
RTVSPost2010Prop51ColorIndex
 90
      256
102
RTVSPost2010Prop51ColorRGB
 90
-16777216
102
RTVSPost2010PropOp51
 70
     0
102
RTVSPost2010Prop52
140
1.0
102
RTVSPost2010PropOp52
 70
     0
102
RTVSPost2010Prop53
 90
        2
102
RTVSPost2010PropOp53
 70
     1
102
RTVSPost2010Prop54
  1
strokes_ogs.tif
102
RTVSPost2010PropOp54
 70
     1
102
RTVSPost2010Prop55
280
     0
102
RTVSPost2010PropOp55
 70
     1
102
RTVSPost2010Prop56
140
1.0
102
RTVSPost2010PropOp56
 70
     1
102
RTVSPost2010Prop57
140
1.0
102
RTVSPost2010PropOp57
 70
     1
  0
XRECORD
  5
31A
102
{ACAD_REACTORS
330
319
102
}
330
319
100
AcDbXrecord
280
     1
102
RTVSPropertyOp0
 70
     1
102
RTVSPropertyOp1
 70
     1
102
RTVSPropertyOp2
 70
     1
102
RTVSPropertyOp3
 70
     1
102
RTVSPropertyOp4
 70
     1
102
RTVSPropertyOp5
 70
     1
102
RTVSPropertyOp6
 70
     1
102
RTVSPropertyOp7
 70
     1
102
RTVSPropertyOp8
 70
     1
102
RTVSPropertyOp9
 70
     1
102
RTVSPropertyOp10
 70
     1
102
RTVSPropertyOp11
 70
     1
102
RTVSPropertyOp12
 70
     1
102
RTVSPropertyOp13
 70
     1
102
RTVSPropertyOp14
 70
     1
102
RTVSPropertyOp15
 70
     1
102
RTVSPropertyOp16
 70
     1
102
RTVSPropertyOp17
 70
     1
102
RTVSPropertyOp18
 70
     1
102
RTVSPropertyOp19
 70
     1
102
RTVSPropertyOp20
 70
     1
102
RTVSPropertyOp21
 70
     1
102
RTVSPropertyOp22
 70
     1
102
RTVSPropertyOp23
 70
     1
102
RTVSPropertyOp24
 70
     1
102
RTVSPropertyOp25
 70
     1
102
RTVSPropertyOp26
 70
     1
102
RTVSPropertyOp27
 70
     1
102
RTVSPropertyOp28
 70
     1
102
RTVSPropertyOp29
 70
     1
102
RTVSPropertyOp30
 70
     1
102
RTVSPropertyOp31
 70
     1
102
RTVSPropertyOp32
 70
     1
102
RTVSPropertyOp33
 70
     1
102
RTVSPropertyOp34
 70
     1
102
RTVSPropertyOp35
 70
     1
102
RTVSPropertyOp36
 70
     1
102
RTVSPropertyOp37
 70
     1
102
RTVSPropertyOp38
 70
     1
102
RTVSPropertyOp39
 70
     1
102
RTVSPropertyOp40
 70
     1
102
RTVSPropertyOp41
 70
     1
102
RTVSPropertyOp42
 70
     1
102
RTVSPropertyOp43
 70
     1
102
RTVSPropertyOp44
 70
     1
102
RTVSPropertyOp45
 70
     1
102
RTVSPropertyOp46
 70
     1
102
RTVSPropertyOp47
 70
     1
102
RTVSPropertyOp48
 70
     1
102
RTVSPropertyOp49
 70
     1
102
RTVSPropertyOp50
 70
     1
102
RTVSPropertyOp51
 70
     0
102
RTVSPropertyOp52
 70
     0
102
RTVSPropertyOp53
 70
     1
102
RTVSPropertyOp54
 70
     1
102
RTVSPropertyOp55
 70
     1
102
RTVSPropertyOp56
 70
     1
102
RTVSPropertyOp57
 70
     1
102
RTVSPost2010Prop28
280
     0
102
RTVSPost2010PropOp28
 70
     1
102
RTVSPost2010Prop29
280
     1
102
RTVSPost2010PropOp29
 70
     1
102
RTVSPost2010Prop30
280
     1
102
RTVSPost2010PropOp30
 70
     1
102
RTVSPost2010Prop31
280
     0
102
RTVSPost2010PropOp31
 70
     1
102
RTVSPost2010Prop32
280
     0
102
RTVSPost2010PropOp32
 70
     1
102
RTVSPost2010Prop33
280
     0
102
RTVSPost2010PropOp33
 70
     1
102
RTVSPost2010Prop34
280
     0
102
RTVSPost2010PropOp34
 70
     1
102
RTVSPost2010Prop35
280
     0
102
RTVSPost2010PropOp35
 70
     1
102
RTVSPost2010Prop36
280
     0
102
RTVSPost2010PropOp36
 70
     1
102
RTVSPost2010Prop37
 90
       50
102
RTVSPost2010PropOp37
 70
     1
102
RTVSPost2010Prop38
140
0.0
102
RTVSPost2010PropOp38
 70
     1
102
RTVSPost2010Prop39
140
1.0
102
RTVSPost2010PropOp39
 70
     1
102
RTVSPost2010Prop40
 90
        0
102
RTVSPost2010PropOp40
 70
     1
102
RTVSPost2010Prop41ColorIndex
 90
       18
102
RTVSPost2010Prop41ColorRGB
 90
        0
102
RTVSPost2010PropOp41
 70
     1
102
RTVSPost2010Prop42
 90
       50
102
RTVSPost2010PropOp42
 70
     1
102
RTVSPost2010Prop43
 90
        3
102
RTVSPost2010PropOp43
 70
     1
102
RTVSPost2010Prop44ColorIndex
 90
        5
102
RTVSPost2010Prop44ColorRGB
 90
      255
102
RTVSPost2010PropOp44
 70
     1
102
RTVSPost2010Prop45
280
     0
102
RTVSPost2010PropOp45
 70
     1
102
RTVSPost2010Prop46
 90
       50
102
RTVSPost2010PropOp46
 70
     1
102
RTVSPost2010Prop47
 90
       50
102
RTVSPost2010PropOp47
 70
     1
102
RTVSPost2010Prop48
 90
       50
102
RTVSPost2010PropOp48
 70
     1
102
RTVSPost2010Prop49
280
     0
102
RTVSPost2010PropOp49
 70
     1
102
RTVSPost2010Prop50
 90
       50
102
RTVSPost2010PropOp50
 70
     1
102
RTVSPost2010Prop51ColorIndex
 90
      256
102
RTVSPost2010Prop51ColorRGB
 90
-16777216
102
RTVSPost2010PropOp51
 70
     0
102
RTVSPost2010Prop52
140
1.0
102
RTVSPost2010PropOp52
 70
     0
102
RTVSPost2010Prop53
 90
        2
102
RTVSPost2010PropOp53
 70
     1
102
RTVSPost2010Prop54
  1
strokes_ogs.tif
102
RTVSPost2010PropOp54
 70
     1
102
RTVSPost2010Prop55
280
     0
102
RTVSPost2010PropOp55
 70
     1
102
RTVSPost2010Prop56
140
1.0
102
RTVSPost2010PropOp56
 70
     1
102
RTVSPost2010Prop57
140
1.0
102
RTVSPost2010PropOp57
 70
     1
  0
XRECORD
  5
30C
102
{ACAD_REACTORS
330
30B
102
}
330
30B
100
AcDbXrecord
280
     1
102
RTVSPropertyOp0
 70
     1
102
RTVSPropertyOp1
 70
     1
102
RTVSPropertyOp2
 70
     1
102
RTVSPropertyOp3
 70
     1
102
RTVSPropertyOp4
 70
     1
102
RTVSPropertyOp5
 70
     1
102
RTVSPropertyOp6
 70
     1
102
RTVSPropertyOp7
 70
     1
102
RTVSPropertyOp8
 70
     1
102
RTVSPropertyOp9
 70
     1
102
RTVSPropertyOp10
 70
     1
102
RTVSPropertyOp11
 70
     1
102
RTVSPropertyOp12
 70
     1
102
RTVSPropertyOp13
 70
     1
102
RTVSPropertyOp14
 70
     1
102
RTVSPropertyOp15
 70
     1
102
RTVSPropertyOp16
 70
     1
102
RTVSPropertyOp17
 70
     1
102
RTVSPropertyOp18
 70
     1
102
RTVSPropertyOp19
 70
     1
102
RTVSPropertyOp20
 70
     1
102
RTVSPropertyOp21
 70
     1
102
RTVSPropertyOp22
 70
     1
102
RTVSPropertyOp23
 70
     1
102
RTVSPropertyOp24
 70
     1
102
RTVSPropertyOp25
 70
     1
102
RTVSPropertyOp26
 70
     1
102
RTVSPropertyOp27
 70
     1
102
RTVSPropertyOp28
 70
     1
102
RTVSPropertyOp29
 70
     1
102
RTVSPropertyOp30
 70
     1
102
RTVSPropertyOp31
 70
     1
102
RTVSPropertyOp32
 70
     1
102
RTVSPropertyOp33
 70
     1
102
RTVSPropertyOp34
 70
     1
102
RTVSPropertyOp35
 70
     1
102
RTVSPropertyOp36
 70
     1
102
RTVSPropertyOp37
 70
     1
102
RTVSPropertyOp38
 70
     1
102
RTVSPropertyOp39
 70
     1
102
RTVSPropertyOp40
 70
     1
102
RTVSPropertyOp41
 70
     1
102
RTVSPropertyOp42
 70
     1
102
RTVSPropertyOp43
 70
     1
102
RTVSPropertyOp44
 70
     1
102
RTVSPropertyOp45
 70
     1
102
RTVSPropertyOp46
 70
     1
102
RTVSPropertyOp47
 70
     1
102
RTVSPropertyOp48
 70
     1
102
RTVSPropertyOp49
 70
     1
102
RTVSPropertyOp50
 70
     1
102
RTVSPropertyOp51
 70
     0
102
RTVSPropertyOp52
 70
     0
102
RTVSPropertyOp53
 70
     1
102
RTVSPropertyOp54
 70
     1
102
RTVSPropertyOp55
 70
     1
102
RTVSPropertyOp56
 70
     1
102
RTVSPropertyOp57
 70
     1
102
RTVSPost2010Prop28
280
     0
102
RTVSPost2010PropOp28
 70
     1
102
RTVSPost2010Prop29
280
     1
102
RTVSPost2010PropOp29
 70
     1
102
RTVSPost2010Prop30
280
     1
102
RTVSPost2010PropOp30
 70
     1
102
RTVSPost2010Prop31
280
     0
102
RTVSPost2010PropOp31
 70
     1
102
RTVSPost2010Prop32
280
     0
102
RTVSPost2010PropOp32
 70
     1
102
RTVSPost2010Prop33
280
     0
102
RTVSPost2010PropOp33
 70
     1
102
RTVSPost2010Prop34
280
     0
102
RTVSPost2010PropOp34
 70
     1
102
RTVSPost2010Prop35
280
     0
102
RTVSPost2010PropOp35
 70
     1
102
RTVSPost2010Prop36
280
     0
102
RTVSPost2010PropOp36
 70
     1
102
RTVSPost2010Prop37
 90
       50
102
RTVSPost2010PropOp37
 70
     1
102
RTVSPost2010Prop38
140
0.0
102
RTVSPost2010PropOp38
 70
     1
102
RTVSPost2010Prop39
140
1.0
102
RTVSPost2010PropOp39
 70
     1
102
RTVSPost2010Prop40
 90
        0
102
RTVSPost2010PropOp40
 70
     1
102
RTVSPost2010Prop41ColorIndex
 90
       18
102
RTVSPost2010Prop41ColorRGB
 90
        0
102
RTVSPost2010PropOp41
 70
     1
102
RTVSPost2010Prop42
 90
       50
102
RTVSPost2010PropOp42
 70
     1
102
RTVSPost2010Prop43
 90
        3
102
RTVSPost2010PropOp43
 70
     1
102
RTVSPost2010Prop44ColorIndex
 90
        5
102
RTVSPost2010Prop44ColorRGB
 90
      255
102
RTVSPost2010PropOp44
 70
     1
102
RTVSPost2010Prop45
280
     0
102
RTVSPost2010PropOp45
 70
     1
102
RTVSPost2010Prop46
 90
       50
102
RTVSPost2010PropOp46
 70
     1
102
RTVSPost2010Prop47
 90
       50
102
RTVSPost2010PropOp47
 70
     1
102
RTVSPost2010Prop48
 90
       50
102
RTVSPost2010PropOp48
 70
     1
102
RTVSPost2010Prop49
280
     0
102
RTVSPost2010PropOp49
 70
     1
102
RTVSPost2010Prop50
 90
       50
102
RTVSPost2010PropOp50
 70
     1
102
RTVSPost2010Prop51ColorIndex
 90
      256
102
RTVSPost2010Prop51ColorRGB
 90
-16777216
102
RTVSPost2010PropOp51
 70
     0
102
RTVSPost2010Prop52
140
1.0
102
RTVSPost2010PropOp52
 70
     0
102
RTVSPost2010Prop53
 90
        2
102
RTVSPost2010PropOp53
 70
     1
102
RTVSPost2010Prop54
  1
strokes_ogs.tif
102
RTVSPost2010PropOp54
 70
     1
102
RTVSPost2010Prop55
280
     0
102
RTVSPost2010PropOp55
 70
     1
102
RTVSPost2010Prop56
140
1.0
102
RTVSPost2010PropOp56
 70
     1
102
RTVSPost2010Prop57
140
1.0
102
RTVSPost2010PropOp57
 70
     1
  0
XRECORD
  5
32C
102
{ACAD_REACTORS
330
32B
102
}
330
32B
100
AcDbXrecord
280
     1
102
RTVSPropertyOp0
 70
     1
102
RTVSPropertyOp1
 70
     1
102
RTVSPropertyOp2
 70
     1
102
RTVSPropertyOp3
 70
     1
102
RTVSPropertyOp4
 70
     1
102
RTVSPropertyOp5
 70
     1
102
RTVSPropertyOp6
 70
     1
102
RTVSPropertyOp7
 70
     1
102
RTVSPropertyOp8
 70
     1
102
RTVSPropertyOp9
 70
     1
102
RTVSPropertyOp10
 70
     1
102
RTVSPropertyOp11
 70
     1
102
RTVSPropertyOp12
 70
     1
102
RTVSPropertyOp13
 70
     1
102
RTVSPropertyOp14
 70
     1
102
RTVSPropertyOp15
 70
     1
102
RTVSPropertyOp16
 70
     1
102
RTVSPropertyOp17
 70
     1
102
RTVSPropertyOp18
 70
     1
102
RTVSPropertyOp19
 70
     1
102
RTVSPropertyOp20
 70
     1
102
RTVSPropertyOp21
 70
     1
102
RTVSPropertyOp22
 70
     1
102
RTVSPropertyOp23
 70
     1
102
RTVSPropertyOp24
 70
     1
102
RTVSPropertyOp25
 70
     1
102
RTVSPropertyOp26
 70
     1
102
RTVSPropertyOp27
 70
     1
102
RTVSPropertyOp28
 70
     1
102
RTVSPropertyOp29
 70
     1
102
RTVSPropertyOp30
 70
     1
102
RTVSPropertyOp31
 70
     1
102
RTVSPropertyOp32
 70
     1
102
RTVSPropertyOp33
 70
     1
102
RTVSPropertyOp34
 70
     1
102
RTVSPropertyOp35
 70
     1
102
RTVSPropertyOp36
 70
     1
102
RTVSPropertyOp37
 70
     1
102
RTVSPropertyOp38
 70
     1
102
RTVSPropertyOp39
 70
     1
102
RTVSPropertyOp40
 70
     1
102
RTVSPropertyOp41
 70
     1
102
RTVSPropertyOp42
 70
     1
102
RTVSPropertyOp43
 70
     1
102
RTVSPropertyOp44
 70
     1
102
RTVSPropertyOp45
 70
     1
102
RTVSPropertyOp46
 70
     1
102
RTVSPropertyOp47
 70
     1
102
RTVSPropertyOp48
 70
     1
102
RTVSPropertyOp49
 70
     1
102
RTVSPropertyOp50
 70
     1
102
RTVSPropertyOp51
 70
     0
102
RTVSPropertyOp52
 70
     0
102
RTVSPropertyOp53
 70
     1
102
RTVSPropertyOp54
 70
     1
102
RTVSPropertyOp55
 70
     1
102
RTVSPropertyOp56
 70
     1
102
RTVSPropertyOp57
 70
     1
102
RTVSPost2010Prop28
280
     0
102
RTVSPost2010PropOp28
 70
     1
102
RTVSPost2010Prop29
280
     1
102
RTVSPost2010PropOp29
 70
     1
102
RTVSPost2010Prop30
280
     1
102
RTVSPost2010PropOp30
 70
     1
102
RTVSPost2010Prop31
280
     0
102
RTVSPost2010PropOp31
 70
     1
102
RTVSPost2010Prop32
280
     0
102
RTVSPost2010PropOp32
 70
     1
102
RTVSPost2010Prop33
280
     0
102
RTVSPost2010PropOp33
 70
     1
102
RTVSPost2010Prop34
280
     0
102
RTVSPost2010PropOp34
 70
     1
102
RTVSPost2010Prop35
280
     0
102
RTVSPost2010PropOp35
 70
     1
102
RTVSPost2010Prop36
280
     0
102
RTVSPost2010PropOp36
 70
     1
102
RTVSPost2010Prop37
 90
       50
102
RTVSPost2010PropOp37
 70
     1
102
RTVSPost2010Prop38
140
0.0
102
RTVSPost2010PropOp38
 70
     1
102
RTVSPost2010Prop39
140
1.0
102
RTVSPost2010PropOp39
 70
     1
102
RTVSPost2010Prop40
 90
        0
102
RTVSPost2010PropOp40
 70
     1
102
RTVSPost2010Prop41ColorIndex
 90
       18
102
RTVSPost2010Prop41ColorRGB
 90
        0
102
RTVSPost2010PropOp41
 70
     1
102
RTVSPost2010Prop42
 90
       50
102
RTVSPost2010PropOp42
 70
     1
102
RTVSPost2010Prop43
 90
        3
102
RTVSPost2010PropOp43
 70
     1
102
RTVSPost2010Prop44ColorIndex
 90
        5
102
RTVSPost2010Prop44ColorRGB
 90
      255
102
RTVSPost2010PropOp44
 70
     1
102
RTVSPost2010Prop45
280
     0
102
RTVSPost2010PropOp45
 70
     1
102
RTVSPost2010Prop46
 90
       50
102
RTVSPost2010PropOp46
 70
     1
102
RTVSPost2010Prop47
 90
       50
102
RTVSPost2010PropOp47
 70
     1
102
RTVSPost2010Prop48
 90
       50
102
RTVSPost2010PropOp48
 70
     1
102
RTVSPost2010Prop49
280
     0
102
RTVSPost2010PropOp49
 70
     1
102
RTVSPost2010Prop50
 90
       50
102
RTVSPost2010PropOp50
 70
     1
102
RTVSPost2010Prop51ColorIndex
 90
      256
102
RTVSPost2010Prop51ColorRGB
 90
-16777216
102
RTVSPost2010PropOp51
 70
     0
102
RTVSPost2010Prop52
140
1.0
102
RTVSPost2010PropOp52
 70
     0
102
RTVSPost2010Prop53
 90
        2
102
RTVSPost2010PropOp53
 70
     1
102
RTVSPost2010Prop54
  1
strokes_ogs.tif
102
RTVSPost2010PropOp54
 70
     1
102
RTVSPost2010Prop55
280
     0
102
RTVSPost2010PropOp55
 70
     1
102
RTVSPost2010Prop56
140
1.0
102
RTVSPost2010PropOp56
 70
     1
102
RTVSPost2010Prop57
140
1.0
102
RTVSPost2010PropOp57
 70
     1
  0
ENDSEC
  0
EOF
