  0
SECTION
  2
HEADER
  9
$ACADVER
  1
AC1018
  9
$ACADMAINTVER
 70
     0
  9
$DWGCODEPAGE
  3
ANSI_932
  9
$INSBASE
 10
0.0
 20
0.0
 30
0.0
  9
$EXTMIN
 10
-630.0
 20
-445.5
 30
0.0
  9
$EXTMAX
 10
630.0
 20
445.5
 30
0.0
  9
$LIMMIN
 10
-630.0
 20
-445.5
  9
$LIMMAX
 10
630.0
 20
445.5
  9
$ORTHOMODE
 70
     0
  9
$REGENMODE
 70
     1
  9
$FILLMODE
 70
     1
  9
$QTEXTMODE
 70
     0
  9
$MIRRTEXT
 70
     1
  9
$LTSCALE
 40
3.0
  9
$ATTMODE
 70
     1
  9
$TEXTSIZE
 40
2.5
  9
$TRACEWID
 40
1.0
  9
$TEXTSTYLE
  7
Standard
  9
$CLAYER
  8
0
  9
$CELTYPE
  6
ByLayer
  9
$CECOLOR
 62
   256
  9
$CELTSCALE
 40
1.0
  9
$DISPSILH
 70
     0
  9
$DIMSCALE
 40
1.0
  9
$DIMASZ
 40
2.5
  9
$DIMEXO
 40
0.625
  9
$DIMDLI
 40
3.75
  9
$DIMRND
 40
0.0
  9
$DIMDLE
 40
0.0
  9
$DIMEXE
 40
1.25
  9
$DIMTP
 40
0.0
  9
$DIMTM
 40
0.0
  9
$DIMTXT
 40
2.5
  9
$DIMCEN
 40
2.5
  9
$DIMTSZ
 40
0.0
  9
$DIMTOL
 70
     0
  9
$DIMLIM
 70
     0
  9
$DIMTIH
 70
     0
  9
$DIMTOH
 70
     0
  9
$DIMSE1
 70
     0
  9
$DIMSE2
 70
     0
  9
$DIMTAD
 70
     1
  9
$DIMZIN
 70
     8
  9
$DIMBLK
  1

  9
$DIMASO
 70
     1
  9
$DIMSHO
 70
     1
  9
$DIMPOST
  1

  9
$DIMAPOST
  1

  9
$DIMALT
 70
     0
  9
$DIMALTD
 70
     3
  9
$DIMALTF
 40
0.03937007874016
  9
$DIMLFAC
 40
1.0
  9
$DIMTOFL
 70
     1
  9
$DIMTVP
 40
0.0
  9
$DIMTIX
 70
     0
  9
$DIMSOXD
 70
     0
  9
$DIMSAH
 70
     0
  9
$DIMBLK1
  1

  9
$DIMBLK2
  1

  9
$DIMSTYLE
  2
ISO-25
  9
$DIMCLRD
 70
     0
  9
$DIMCLRE
 70
     0
  9
$DIMCLRT
 70
     0
  9
$DIMTFAC
 40
1.0
  9
$DIMGAP
 40
0.625
  9
$DIMJUST
 70
     0
  9
$DIMSD1
 70
     0
  9
$DIMSD2
 70
     0
  9
$DIMTOLJ
 70
     0
  9
$DIMTZIN
 70
     8
  9
$DIMALTZ
 70
     0
  9
$DIMALTTZ
 70
     0
  9
$DIMUPT
 70
     0
  9
$DIMDEC
 70
     2
  9
$DIMTDEC
 70
     2
  9
$DIMALTU
 70
     2
  9
$DIMALTTD
 70
     3
  9
$DIMTXSTY
  7
Standard
  9
$DIMAUNIT
 70
     0
  9
$DIMADEC
 70
     0
  9
$DIMALTRND
 40
0.0
  9
$DIMAZIN
 70
     0
  9
$DIMDSEP
 70
    44
  9
$DIMATFIT
 70
     3
  9
$DIMFRAC
 70
     0
  9
$DIMLDRBLK
  1

  9
$DIMLUNIT
 70
     2
  9
$DIMLWD
 70
    -2
  9
$DIMLWE
 70
    -2
  9
$DIMTMOVE
 70
     0
  9
$LUNITS
 70
     2
  9
$LUPREC
 70
     4
  9
$SKETCHINC
 40
1.0
  9
$FILLETRAD
 40
10.0
  9
$AUNITS
 70
     0
  9
$AUPREC
 70
     0
  9
$MENU
  1
.
  9
$ELEVATION
 40
0.0
  9
$PELEVATION
 40
0.0
  9
$THICKNESS
 40
0.0
  9
$LIMCHECK
 70
     0
  9
$CHAMFERA
 40
0.0
  9
$CHAMFERB
 40
0.0
  9
$CHAMFERC
 40
0.0
  9
$CHAMFERD
 40
0.0
  9
$SKPOLY
 70
     0
  9
$TDCREATE
 40
2461032.386062188
  9
$TDUCREATE
 40
2461032.011062188
  9
$TDUPDATE
 40
2461032.386067268
  9
$TDUUPDATE
 40
2461032.011067268
  9
$TDINDWG
 40
0.0000000116
  9
$TDUSRTIMER
 40
0.0000000116
  9
$USRTIMER
 70
     1
  9
$ANGBASE
 50
0.0
  9
$ANGDIR
 70
     0
  9
$PDMODE
 70
     0
  9
$PDSIZE
 40
0.0
  9
$PLINEWID
 40
0.0
  9
$SPLFRAME
 70
     0
  9
$SPLINETYPE
 70
     6
  9
$SPLINESEGS
 70
     8
  9
$HANDSEED
  5
321
  9
$SURFTAB1
 70
     6
  9
$SURFTAB2
 70
     6
  9
$SURFTYPE
 70
     6
  9
$SURFU
 70
     6
  9
$SURFV
 70
     6
  9
$UCSBASE
  2

  9
$UCSNAME
  2

  9
$UCSORG
 10
0.0
 20
0.0
 30
0.0
  9
$UCSXDIR
 10
1.0
 20
0.0
 30
0.0
  9
$UCSYDIR
 10
0.0
 20
1.0
 30
0.0
  9
$UCSORTHOREF
  2

  9
$UCSORTHOVIEW
 70
     0
  9
$UCSORGTOP
 10
0.0
 20
0.0
 30
0.0
  9
$UCSORGBOTTOM
 10
0.0
 20
0.0
 30
0.0
  9
$UCSORGLEFT
 10
0.0
 20
0.0
 30
0.0
  9
$UCSORGRIGHT
 10
0.0
 20
0.0
 30
0.0
  9
$UCSORGFRONT
 10
0.0
 20
0.0
 30
0.0
  9
$UCSORGBACK
 10
0.0
 20
0.0
 30
0.0
  9
$PUCSBASE
  2

  9
$PUCSNAME
  2

  9
$PUCSORG
 10
0.0
 20
0.0
 30
0.0
  9
$PUCSXDIR
 10
1.0
 20
0.0
 30
0.0
  9
$PUCSYDIR
 10
0.0
 20
1.0
 30
0.0
  9
$PUCSORTHOREF
  2

  9
$PUCSORTHOVIEW
 70
     0
  9
$PUCSORGTOP
 10
0.0
 20
0.0
 30
0.0
  9
$PUCSORGBOTTOM
 10
0.0
 20
0.0
 30
0.0
  9
$PUCSORGLEFT
 10
0.0
 20
0.0
 30
0.0
  9
$PUCSORGRIGHT
 10
0.0
 20
0.0
 30
0.0
  9
$PUCSORGFRONT
 10
0.0
 20
0.0
 30
0.0
  9
$PUCSORGBACK
 10
0.0
 20
0.0
 30
0.0
  9
$USERI1
 70
     0
  9
$USERI2
 70
     0
  9
$USERI3
 70
     0
  9
$USERI4
 70
     0
  9
$USERI5
 70
     0
  9
$USERR1
 40
0.0
  9
$USERR2
 40
0.0
  9
$USERR3
 40
0.0
  9
$USERR4
 40
0.0
  9
$USERR5
 40
0.0
  9
$WORLDVIEW
 70
     1
  9
$SHADEDGE
 70
     3
  9
$SHADEDIF
 70
    70
  9
$TILEMODE
 70
     1
  9
$MAXACTVP
 70
    64
  9
$PINSBASE
 10
0.0
 20
0.0
 30
0.0
  9
$PLIMCHECK
 70
     0
  9
$PEXTMIN
 10
1.000000000000000E+20
 20
1.000000000000000E+20
 30
1.000000000000000E+20
  9
$PEXTMAX
 10
-1.000000000000000E+20
 20
-1.000000000000000E+20
 30
-1.000000000000000E+20
  9
$PLIMMIN
 10
0.0
 20
0.0
  9
$PLIMMAX
 10
420.0
 20
297.0
  9
$UNITMODE
 70
     0
  9
$VISRETAIN
 70
     1
  9
$PLINEGEN
 70
     0
  9
$PSLTSCALE
 70
     1
  9
$TREEDEPTH
 70
  3020
  9
$CMLSTYLE
  2
Standard
  9
$CMLJUST
 70
     0
  9
$CMLSCALE
 40
20.0
  9
$PROXYGRAPHICS
 70
     1
  9
$MEASUREMENT
 70
     1
  9
$CELWEIGHT
370
    -1
  9
$ENDCAPS
280
     0
  9
$JOINSTYLE
280
     0
  9
$LWDISPLAY
290
     0
  9
$INSUNITS
 70
     4
  9
$HYPERLINKBASE
  1

  9
$STYLESHEET
  1

  9
$XEDIT
290
     1
  9
$CEPSNTYPE
380
     0
  9
$PSTYLEMODE
290
     1
  9
$FINGERPRINTGUID
  2
{0833C7E0-AADC-489D-92D5-1950BC331C68}
  9
$VERSIONGUID
  2
{FAEB1C32-E019-11D5-929B-00C0DF256EC4}
  9
$EXTNAMES
290
     1
  9
$PSVPSCALE
 40
0.0
  9
$OLESTARTUP
290
     0
  9
$SORTENTS
280
   127
  9
$INDEXCTL
280
     0
  9
$HIDETEXT
280
     1
  9
$XCLIPFRAME
290
     0
  9
$HALOGAP
280
     0
  9
$OBSCOLOR
 70
   257
  9
$OBSLTYPE
280
     0
  9
$INTERSECTIONDISPLAY
280
     0
  9
$INTERSECTIONCOLOR
 70
   257
  9
$DIMASSOC
280
     2
  9
$PROJECTNAME
  1

  0
ENDSEC
  0
SECTION
  2
CLASSES
  0
CLASS
  1
ACDBDICTIONARYWDFLT
  2
AcDbDictionaryWithDefault
  3
ObjectDBX Classes
 90
        0
 91
        4
280
     0
281
     0
  0
CLASS
  1
VISUALSTYLE
  2
AcDbVisualStyle
  3
ObjectDBX Classes
 90
     4095
 91
        4
280
     0
281
     0
  0
CLASS
  1
MATERIAL
  2
AcDbMaterial
  3
ObjectDBX Classes
 90
     1153
 91
        4
280
     0
281
     0
  0
CLASS
  1
SCALE
  2
AcDbScale
  3
ObjectDBX Classes
 90
     1153
 91
        4
280
     0
281
     0
  0
CLASS
  1
TABLESTYLE
  2
AcDbTableStyle
  3
ObjectDBX Classes
 90
     4095
 91
        4
280
     0
281
     0
  0
CLASS
  1
MLEADERSTYLE
  2
AcDbMLeaderStyle
  3
ACDB_MLEADERSTYLE_CLASS
 90
     4095
 91
        4
280
     0
281
     0
  0
CLASS
  1
SUN
  2
AcDbSun
  3
SCENEOE
 90
     1153
 91
        4
280
     0
281
     0
  0
CLASS
  1
DICTIONARYVAR
  2
AcDbDictionaryVar
  3
ObjectDBX Classes
 90
        0
 91
        4
280
     0
281
     0
  0
CLASS
  1
CELLSTYLEMAP
  2
AcDbCellStyleMap
  3
ObjectDBX Classes
 90
     1152
 91
        4
280
     0
281
     0
  0
ENDSEC
  0
SECTION
  2
TABLES
  0
TABLE
  2
VPORT
  5
8
102
{ACAD_XDICTIONARY
360
2D8
102
}
330
0
100
AcDbSymbolTable
 70
     1
  0
VPORT
  5
29
330
8
100
AcDbSymbolTableRecord
100
AcDbViewportTableRecord
  2
*Active
 70
     0
 10
0.0
 20
0.0
 11
1.0
 21
1.0
 12
0.0
 22
0.0
 13
0.0
 23
0.0
 14
10.0
 24
10.0
 15
10.0
 25
10.0
 16
0.0
 26
0.0
 36
1.0
 17
0.0
 27
0.0
 37
0.0
 40
980.1
 41
1.414141414141414
 42
50.0
 43
0.0
 44
0.0
 50
0.0
 51
0.0
 71
     0
 72
 10000
 73
     1
 74
     3
 75
     0
 76
     0
 77
     0
 78
     0
281
     0
 65
     1
110
0.0
120
0.0
130
0.0
111
1.0
121
0.0
131
0.0
112
0.0
122
1.0
132
0.0
 79
     0
146
0.0
  0
ENDTAB
  0
TABLE
  2
LTYPE
  5
5
330
0
100
AcDbSymbolTable
 70
     5
  0
LTYPE
  5
14
330
5
100
AcDbSymbolTableRecord
100
AcDbLinetypeTableRecord
  2
ByBlock
 70
     0
  3

 72
    65
 73
     0
 40
0.0
  0
LTYPE
  5
15
330
5
100
AcDbSymbolTableRecord
100
AcDbLinetypeTableRecord
  2
ByLayer
 70
     0
  3

 72
    65
 73
     0
 40
0.0
  0
LTYPE
  5
16
330
5
100
AcDbSymbolTableRecord
100
AcDbLinetypeTableRecord
  2
Continuous
 70
     0
  3
Solid line
 72
    65
 73
     0
 40
0.0
  0
LTYPE
  5
6F
330
5
100
AcDbSymbolTableRecord
100
AcDbLinetypeTableRecord
  2
JWW_PHANTOM2
 70
     0
  3
------------  -  -  ------------
 72
    65
 73
     6
 40
13.54666666666667
 49
10.16
 74
     0
 49
-0.8466666666666667
 74
     0
 49
0.4233333333333333
 74
     0
 49
-0.8466666666666667
 74
     0
 49
0.4233333333333333
 74
     0
 49
-0.8466666666666667
 74
     0
  0
LTYPE
  5
70
330
5
100
AcDbSymbolTableRecord
100
AcDbLinetypeTableRecord
  2
JWW_DASHED1
 70
     0
  3
-  --  --  --  --  --  --  --  -
 72
    65
 73
     2
 40
1.693333333333333
 49
0.8466666666666667
 74
     0
 49
-0.8466666666666667
 74
     0
  0
LTYPE
  5
71
330
5
100
AcDbSymbolTableRecord
100
AcDbLinetypeTableRecord
  2
JWW_CENTER1
 70
     0
  3
-----  --  ----------  --  -----
 72
    65
 73
     4
 40
6.773333333333333
 49
4.233333333333333
 74
     0
 49
-0.8466666666666667
 74
     0
 49
0.8466666666666667
 74
     0
 49
-0.8466666666666667
 74
     0
  0
LTYPE
  5
72
330
5
100
AcDbSymbolTableRecord
100
AcDbLinetypeTableRecord
  2
JWW_PHANTOM1
 70
     0
  3
----  -  -  --------  -  -  ----
 72
    65
 73
     6
 40
6.773333333333333
 49
3.386666666666667
 74
     0
 49
-0.8466666666666667
 74
     0
 49
0.4233333333333333
 74
     0
 49
-0.8466666666666667
 74
     0
 49
0.4233333333333333
 74
     0
 49
-0.8466666666666667
 74
     0
  0
ENDTAB
  0
TABLE
  2
LAYER
  5
2
330
0
100
AcDbSymbolTable
 70
     9
  0
LAYER
  5
10
330
2
100
AcDbSymbolTableRecord
100
AcDbLayerTableRecord
  2
0
 70
     0
 62
     7
  6
Continuous
370
    -3
390
F
  0
LAYER
  5
73
330
2
100
AcDbSymbolTableRecord
100
AcDbLayerTableRecord
  2
0-0
 70
     0
 62
     7
  6
Continuous
370
    -3
390
F
  0
LAYER
  5
74
330
2
100
AcDbSymbolTableRecord
100
AcDbLayerTableRecord
  2
0-3
 70
     0
 62
     7
  6
Continuous
370
    -3
390
F
  0
LAYER
  5
75
330
2
100
AcDbSymbolTableRecord
100
AcDbLayerTableRecord
  2
0-2
 70
     0
 62
     7
  6
Continuous
370
    -3
390
F
  0
LAYER
  5
76
330
2
100
AcDbSymbolTableRecord
100
AcDbLayerTableRecord
  2
0-4
 70
     0
 62
     7
  6
Continuous
370
    -3
390
F
  0
LAYER
  5
77
330
2
100
AcDbSymbolTableRecord
100
AcDbLayerTableRecord
  2
0-5
 70
     0
 62
     7
  6
Continuous
370
    -3
390
F
  0
LAYER
  5
78
330
2
100
AcDbSymbolTableRecord
100
AcDbLayerTableRecord
  2
F-4
 70
     0
 62
     7
  6
Continuous
370
    -3
390
F
  0
LAYER
  5
79
330
2
100
AcDbSymbolTableRecord
100
AcDbLayerTableRecord
  2
F-5
 70
     0
 62
     7
  6
Continuous
370
    -3
390
F
  0
LAYER
  5
7A
330
2
100
AcDbSymbolTableRecord
100
AcDbLayerTableRecord
  2
F-0
 70
     0
 62
     7
  6
Continuous
370
    -3
390
F
  0
ENDTAB
  0
TABLE
  2
STYLE
  5
3
330
0
100
AcDbSymbolTable
 70
     2
  0
STYLE
  5
11
330
3
100
AcDbSymbolTableRecord
100
AcDbTextStyleTableRecord
  2
Standard
 70
     0
 40
0.0
 41
1.0
 50
0.0
 71
     0
 42
2.5
  3
txt
  4

  0
STYLE
  5
6E
330
3
100
AcDbSymbolTableRecord
100
AcDbTextStyleTableRecord
  2
ＭＳ ゴシック
 70
     0
 40
1.0
 41
1.0
 50
0.0
 71
     0
 42
2.5
  3

  4

1001
ACAD
1000
MS Gothic
1071
    32817
  0
ENDTAB
  0
TABLE
  2
VIEW
  5
6
330
0
100
AcDbSymbolTable
 70
     0
  0
ENDTAB
  0
TABLE
  2
UCS
  5
7
330
0
100
AcDbSymbolTable
 70
     0
  0
ENDTAB
  0
TABLE
  2
APPID
  5
9
330
0
100
AcDbSymbolTable
 70
     2
  0
APPID
  5
12
330
9
100
AcDbSymbolTableRecord
100
AcDbRegAppTableRecord
  2
ACAD
 70
     0
  0
APPID
  5
317
330
9
100
AcDbSymbolTableRecord
100
AcDbRegAppTableRecord
  2
ACAD_MLEADERVER
 70
     0
  0
ENDTAB
  0
TABLE
  2
DIMSTYLE
  5
A
330
0
100
AcDbSymbolTable
 70
     1
100
AcDbDimStyleTable
  0
DIMSTYLE
105
27
330
A
100
AcDbSymbolTableRecord
100
AcDbDimStyleTableRecord
  2
ISO-25
 70
     0
 41
2.5
 42
0.625
 43
3.75
 44
1.25
 73
     0
 74
     0
 77
     1
 78
     8
140
2.5
141
2.5
143
0.03937007874016
147
0.625
171
     3
172
     1
178
     0
271
     2
272
     2
274
     3
278
    44
283
     0
284
     8
340
11
  0
ENDTAB
  0
TABLE
  2
BLOCK_RECORD
  5
1
330
0
100
AcDbSymbolTable
 70
     1
  0
BLOCK_RECORD
  5
1F
330
1
100
AcDbSymbolTableRecord
100
AcDbBlockTableRecord
  2
*Model_Space
340
22
  0
BLOCK_RECORD
  5
1B
330
1
100
AcDbSymbolTableRecord
100
AcDbBlockTableRecord
  2
*Paper_Space
340
1E
  0
BLOCK_RECORD
  5
23
330
1
100
AcDbSymbolTableRecord
100
AcDbBlockTableRecord
  2
*Paper_Space0
340
26
  0
ENDTAB
  0
ENDSEC
  0
SECTION
  2
BLOCKS
  0
BLOCK
  5
20
330
1F
100
AcDbEntity
  8
0
100
AcDbBlockBegin
  2
*Model_Space
 70
     0
 10
0.0
 20
0.0
 30
0.0
  3
*Model_Space
  1

  0
ENDBLK
  5
21
330
1F
100
AcDbEntity
  8
0
100
AcDbBlockEnd
  0
BLOCK
  5
1C
330
1B
100
AcDbEntity
 67
     1
  8
0
100
AcDbBlockBegin
  2
*Paper_Space
 70
     0
 10
0.0
 20
0.0
 30
0.0
  3
*Paper_Space
  1

  0
ENDBLK
  5
1D
330
1B
100
AcDbEntity
 67
     1
  8
0
100
AcDbBlockEnd
  0
BLOCK
  5
24
330
23
100
AcDbEntity
  8
0
100
AcDbBlockBegin
  2
*Paper_Space0
 70
     0
 10
0.0
 20
0.0
 30
0.0
  3
*Paper_Space0
  1

  0
ENDBLK
  5
25
330
23
100
AcDbEntity
  8
0
100
AcDbBlockEnd
  0
ENDSEC
  0
SECTION
  2
ENTITIES
  0
LINE
  5
7B
330
1F
100
AcDbEntity
  8
0-0
  6
Continuous
 62
     3
370
     9
100
AcDbLine
 10
-157.1000065983952
 20
-94.62059241114437
 30
0.0
 11
-158.1000593855574
 21
-102.6206435487077
 31
0.0
  0
LINE
  5
7C
330
1F
100
AcDbEntity
  8
0-0
  6
Continuous
 62
     3
370
     9
100
AcDbLine
 10
-158.1000593855574
 20
-102.6206435487077
 30
0.0
 11
-144.4227489574535
 21
-102.6206435487077
 31
0.0
  0
LINE
  5
7D
330
1F
100
AcDbEntity
  8
0-3
  6
Continuous
 62
     7
370
     9
100
AcDbLine
 10
-125.7134775522593
 20
-176.9506507409586
 30
0.0
 11
-111.926452306799
 21
-174.5196658314886
 31
0.0
  0
LINE
  5
7E
330
1F
100
AcDbEntity
  8
0-3
  6
Continuous
 62
     7
370
     9
100
AcDbLine
 10
-125.0188892261402
 20
-180.8899174612922
 30
0.0
 11
-111.2318639806799
 21
-178.4588954358488
 31
0.0
  0
LINE
  5
7F
330
1F
100
AcDbEntity
  8
0-3
  6
Continuous
 62
     7
370
     9
100
AcDbLine
 10
34.7866065772804
 20
-176.9506507409586
 30
0.0
 11
48.57370605468751
 21
-174.5196658314886
 31
0.0
  0
LINE
  5
80
330
1F
100
AcDbEntity
  8
0-3
  6
Continuous
 62
     7
370
     9
100
AcDbLine
 10
35.48126913534634
 20
-180.8899174612922
 30
0.0
 11
49.26822014885986
 21
-178.4588954358488
 31
0.0
  0
LINE
  5
81
330
1F
100
AcDbEntity
  8
0-3
  6
Continuous
 62
     4
370
     9
100
AcDbLine
 10
-120.6000841295397
 20
-180.1106675998585
 30
0.0
 11
-120.6000841295397
 21
-194.6206377751119
 31
0.0
  0
LINE
  5
82
330
1F
100
AcDbEntity
  8
0-3
  6
Continuous
 62
     4
370
     9
100
AcDbLine
 10
-120.6000841295397
 20
-194.6206377751119
 30
0.0
 11
44.39994061444259
 21
-194.6206377751119
 31
0.0
  0
LINE
  5
83
330
1F
100
AcDbEntity
  8
0-0
  6
Continuous
 62
     3
370
     9
100
AcDbLine
 10
-139.9423313450169
 20
-96.34433244756754
 30
0.0
 11
-139.6000478383657
 21
-94.62059241114437
 31
0.0
  0
LINE
  5
84
330
1F
100
AcDbEntity
  8
0-0
  6
Continuous
 62
     3
370
     9
100
AcDbLine
 10
-135.7897962415541
 20
-101.2198124808234
 30
0.0
 11
-156.0999538112331
 21
-94.62059241114437
 31
0.0
  0
LINE
  5
85
330
1F
100
AcDbEntity
  8
0-0
  6
Continuous
 62
     3
370
     9
100
AcDbLine
 10
-134.6439519108952
 20
-110.5516589757559
 30
0.0
 11
-136.6000379407728
 21
-94.62059241114437
 31
0.0
  0
LINE
  5
86
330
1F
100
AcDbEntity
  8
0-0
  6
JWW_PHANTOM2
 62
     3
370
     9
100
AcDbLine
 10
-133.6767096442146
 20
-107.6206476727048
 30
0.0
 11
-123.2018396326013
 21
-107.6206476727048
 31
0.0
  0
LINE
  5
87
330
1F
100
AcDbEntity
  8
0-0
  6
Continuous
 62
     3
370
     9
100
AcDbLine
 10
60.25996720597556
 20
249.6374840246664
 30
0.0
 11
63.26413409258868
 21
249.6374840246664
 31
0.0
  0
LINE
  5
88
330
1F
100
AcDbEntity
  8
0-0
  6
Continuous
 62
     3
370
     9
100
AcDbLine
 10
60.25996720597556
 20
249.6374840246664
 30
0.0
 11
59.55090365023228
 21
247.1375005206546
 31
0.0
  0
LINE
  5
89
330
1F
100
AcDbEntity
  8
0-0
  6
Continuous
 62
     3
370
     9
100
AcDbLine
 10
59.55090365023228
 20
247.1375005206546
 30
0.0
 11
64.36313806482266
 21
247.1375005206546
 31
0.0
  0
LINE
  5
8A
330
1F
100
AcDbEntity
  8
0-0
  6
Continuous
 62
     3
370
     9
100
AcDbLine
 10
64.36313806482266
 20
247.1375005206546
 30
0.0
 11
63.26413409258868
 21
249.6374840246664
 31
0.0
  0
LINE
  5
8B
330
1F
100
AcDbEntity
  8
0-0
  6
Continuous
 62
     3
370
     9
100
AcDbLine
 10
56.12376313080666
 20
273.0952246021579
 30
0.0
 11
58.94672983530408
 21
274.1226689776859
 31
0.0
  0
LINE
  5
8C
330
1F
100
AcDbEntity
  8
0-0
  6
Continuous
 62
     3
370
     9
100
AcDbLine
 10
59.12444111592064
 20
276.8477979763135
 30
0.0
 11
58.94672983530408
 21
274.1226689776859
 31
0.0
  0
LINE
  5
8D
330
1F
100
AcDbEntity
  8
0-0
  6
Continuous
 62
     3
370
     9
100
AcDbLine
 10
56.12376313080666
 20
273.0952246021579
 30
0.0
 11
54.60245361328126
 21
275.2019272520735
 31
0.0
  0
LINE
  5
8E
330
1F
100
AcDbEntity
  8
0-0
  6
Continuous
 62
     3
370
     9
100
AcDbLine
 10
54.60245361328126
 20
275.2019272520735
 30
0.0
 11
59.12444111592064
 21
276.8477979763135
 31
0.0
  0
LINE
  5
8F
330
1F
100
AcDbEntity
  8
0-0
  6
Continuous
 62
     3
370
     9
100
AcDbLine
 10
52.53257000897384
 20
282.961986505663
 30
0.0
 11
55.35553671347134
 21
283.989430881191
 31
0.0
  0
LINE
  5
90
330
1F
100
AcDbEntity
  8
0-0
  6
Continuous
 62
     3
370
     9
100
AcDbLine
 10
52.53257000897384
 20
282.961986505663
 30
0.0
 11
52.72126761771541
 21
280.3702523154182
 31
0.0
  0
LINE
  5
91
330
1F
100
AcDbEntity
  8
0-0
  6
Continuous
 62
     3
370
     9
100
AcDbLine
 10
52.72126761771541
 20
280.3702523154182
 30
0.0
 11
57.24332935230158
 21
282.0161230396579
 31
0.0
  0
LINE
  5
92
330
1F
100
AcDbEntity
  8
0-0
  6
Continuous
 62
     3
370
     9
100
AcDbLine
 10
57.24332935230158
 20
282.0161230396579
 30
0.0
 11
55.35553671347134
 21
283.989430881191
 31
0.0
  0
LINE
  5
93
330
1F
100
AcDbEntity
  8
0-0
  6
Continuous
 62
     3
370
     9
100
AcDbLine
 10
40.62272223395275
 20
303.5903764312332
 30
0.0
 11
42.92406104835306
 21
305.5213720630954
 31
0.0
  0
LINE
  5
94
330
1F
100
AcDbEntity
  8
0-0
  6
Continuous
 62
     3
370
     9
100
AcDbLine
 10
42.15902660472978
 20
308.1429474959502
 30
0.0
 11
42.92406104835306
 21
305.5213720630954
 31
0.0
  0
LINE
  5
95
330
1F
100
AcDbEntity
  8
0-0
  6
Continuous
 62
     3
370
     9
100
AcDbLine
 10
40.62272223395275
 20
303.5903764312332
 30
0.0
 11
38.4726681271115
 21
305.0497022731885
 31
0.0
  0
LINE
  5
96
330
1F
100
AcDbEntity
  8
0-0
  6
Continuous
 62
     3
370
     9
100
AcDbLine
 10
38.4726681271115
 20
305.0497022731885
 30
0.0
 11
42.15902660472978
 21
308.1429474959502
 31
0.0
  0
LINE
  5
97
330
1F
100
AcDbEntity
  8
0-0
  6
Continuous
 62
     3
370
     9
100
AcDbLine
 10
33.87347939981002
 20
311.6337790257222
 30
0.0
 11
36.17481821421033
 21
313.5648488895313
 31
0.0
  0
LINE
  5
98
330
1F
100
AcDbEntity
  8
0-0
  6
Continuous
 62
     3
370
     9
100
AcDbLine
 10
33.87347939981002
 20
311.6337790257222
 30
0.0
 11
34.93722319731845
 21
309.262959109126
 31
0.0
  0
LINE
  5
99
330
1F
100
AcDbEntity
  8
0-0
  6
Continuous
 62
     3
370
     9
100
AcDbLine
 10
34.93722319731845
 20
309.262959109126
 30
0.0
 11
38.62365590688345
 21
312.3562043318877
 31
0.0
  0
LINE
  5
9A
330
1F
100
AcDbEntity
  8
0-0
  6
Continuous
 62
     3
370
     9
100
AcDbLine
 10
38.62365590688345
 20
312.3562043318877
 30
0.0
 11
36.17481821421033
 21
313.5648488895313
 31
0.0
  0
LINE
  5
9B
330
1F
100
AcDbEntity
  8
0-0
  6
Continuous
 62
     3
370
     9
100
AcDbLine
 10
15.626598791174
 20
326.9447861387923
 30
0.0
 11
17.12868223448064
 21
329.5463931779604
 31
0.0
  0
LINE
  5
9C
330
1F
100
AcDbEntity
  8
0-0
  6
Continuous
 62
     3
370
     9
100
AcDbLine
 10
15.51317237647806
 20
331.7482611836614
 30
0.0
 11
17.12868223448064
 21
329.5463931779604
 31
0.0
  0
LINE
  5
9D
330
1F
100
AcDbEntity
  8
0-0
  6
Continuous
 62
     3
370
     9
100
AcDbLine
 10
15.626598791174
 20
326.9447861387923
 30
0.0
 11
13.10709228515626
 21
327.5807312269469
 31
0.0
  0
LINE
  5
9E
330
1F
100
AcDbEntity
  8
0-0
  6
Continuous
 62
     3
370
     9
100
AcDbLine
 10
13.10709228515626
 20
327.5807312269469
 30
0.0
 11
15.51317237647806
 21
331.7482611836614
 31
0.0
  0
LINE
  5
9F
330
1F
100
AcDbEntity
  8
0-0
  6
Continuous
 62
     3
370
     9
100
AcDbLine
 10
6.533333773226339
 20
332.1947663436065
 30
0.0
 11
8.035417216532984
 21
334.7964476147213
 31
0.0
  0
LINE
  5
A0
330
1F
100
AcDbEntity
  8
0-0
  6
Continuous
 62
     3
370
     9
100
AcDbLine
 10
6.533333773226339
 20
332.1947663436065
 30
0.0
 11
8.343850955447671
 21
330.3307279277492
 31
0.0
  0
LINE
  5
A1
330
1F
100
AcDbEntity
  8
0-0
  6
Continuous
 62
     3
370
     9
100
AcDbLine
 10
8.343850955447671
 20
330.3307279277492
 30
0.0
 11
10.75000527871627
 21
334.498183652517
 31
0.0
  0
LINE
  5
A2
330
1F
100
AcDbEntity
  8
0-0
  6
Continuous
 62
     3
370
     9
100
AcDbLine
 10
10.75000527871627
 20
334.498183652517
 30
0.0
 11
8.035417216532984
 21
334.7964476147213
 31
0.0
  0
LINE
  5
A3
330
1F
100
AcDbEntity
  8
0-0
  6
Continuous
 62
     3
370
     9
100
AcDbLine
 10
-15.8497509105785
 20
340.3415740399747
 30
0.0
 11
-15.32804878853459
 21
343.3000882793117
 31
0.0
  0
LINE
  5
A4
330
1F
100
AcDbEntity
  8
0-0
  6
Continuous
 62
     3
370
     9
100
AcDbLine
 10
-17.59924943253795
 20
344.8164984883489
 30
0.0
 11
-15.32804878853459
 21
343.3000882793117
 31
0.0
  0
LINE
  5
A5
330
1F
100
AcDbEntity
  8
0-0
  6
Continuous
 62
     3
370
     9
100
AcDbLine
 10
-15.8497509105785
 20
340.3415740399747
 30
0.0
 11
-18.43487845755913
 21
340.0773825413472
 31
0.0
  0
LINE
  5
A6
330
1F
100
AcDbEntity
  8
0-0
  6
Continuous
 62
     3
370
     9
100
AcDbLine
 10
-18.43487845755913
 20
340.0773825413472
 30
0.0
 11
-17.59924943253795
 21
344.8164984883489
 31
0.0
  0
LINE
  5
A7
330
1F
100
AcDbEntity
  8
0-0
  6
Continuous
 62
     3
370
     9
100
AcDbLine
 10
-26.19026109850085
 20
342.164859117044
 30
0.0
 11
-25.66855897645694
 21
345.123373356381
 31
0.0
  0
LINE
  5
A8
330
1F
100
AcDbEntity
  8
0-0
  6
Continuous
 62
     3
370
     9
100
AcDbLine
 10
-26.19026109850085
 20
342.164859117044
 30
0.0
 11
-23.85136091902444
 21
341.0324507687543
 31
0.0
  0
LINE
  5
A9
330
1F
100
AcDbEntity
  8
0-0
  6
Continuous
 62
     3
370
     9
100
AcDbLine
 10
-23.85136091902444
 20
341.0324507687543
 30
0.0
 11
-23.01573189400334
 21
345.771566715756
 31
0.0
  0
LINE
  5
AA
330
1F
100
AcDbEntity
  8
0-0
  6
Continuous
 62
     3
370
     9
100
AcDbLine
 10
-23.01573189400334
 20
345.771566715756
 30
0.0
 11
-25.66855897645694
 21
345.123373356381
 31
0.0
  0
LINE
  5
AB
330
1F
100
AcDbEntity
  8
0-0
  6
Continuous
 62
     3
370
     9
100
AcDbLine
 10
-50.00988241659623
 20
342.164859117044
 30
0.0
 11
-50.53151030669343
 21
345.123373356381
 31
0.0
  0
LINE
  5
AC
330
1F
100
AcDbEntity
  8
0-0
  6
Continuous
 62
     3
370
     9
100
AcDbLine
 10
-53.18433738914694
 20
345.771566715756
 30
0.0
 11
-50.53151030669343
 21
345.123373356381
 31
0.0
  0
LINE
  5
AD
330
1F
100
AcDbEntity
  8
0-0
  6
Continuous
 62
     3
370
     9
100
AcDbLine
 10
-50.00988241659623
 20
342.164859117044
 30
0.0
 11
-52.34870836412585
 21
341.0325250007011
 31
0.0
  0
LINE
  5
AE
330
1F
100
AcDbEntity
  8
0-0
  6
Continuous
 62
     3
370
     9
100
AcDbLine
 10
-52.34870836412585
 20
341.0325250007011
 30
0.0
 11
-53.18433738914694
 21
345.771566715756
 31
0.0
  0
LINE
  5
AF
330
1F
100
AcDbEntity
  8
0-0
  6
Continuous
 62
     3
370
     9
100
AcDbLine
 10
-60.35031837257178
 20
340.3415740399747
 30
0.0
 11
-60.87194626266889
 21
343.3000882793117
 31
0.0
  0
LINE
  5
B0
330
1F
100
AcDbEntity
  8
0-0
  6
Continuous
 62
     3
370
     9
100
AcDbLine
 10
-60.35031837257178
 20
340.3415740399747
 30
0.0
 11
-57.76519082559116
 21
340.0773825413472
 31
0.0
  0
LINE
  5
B1
330
1F
100
AcDbEntity
  8
0-0
  6
Continuous
 62
     3
370
     9
100
AcDbLine
 10
-57.76519082559116
 20
340.0773825413472
 30
0.0
 11
-58.60081985061233
 21
344.8164984883489
 31
0.0
  0
LINE
  5
B2
330
1F
100
AcDbEntity
  8
0-0
  6
Continuous
 62
     3
370
     9
100
AcDbLine
 10
-58.60081985061233
 20
344.8164984883489
 30
0.0
 11
-60.87194626266889
 21
343.3000882793117
 31
0.0
  0
LINE
  5
B3
330
1F
100
AcDbEntity
  8
0-0
  6
Continuous
 62
     3
370
     9
100
AcDbLine
 10
-82.73340305637673
 20
332.1947663436065
 30
0.0
 11
-84.23544938370985
 21
334.7964476147213
 31
0.0
  0
LINE
  5
B4
330
1F
100
AcDbEntity
  8
0-0
  6
Continuous
 62
     3
370
     9
100
AcDbLine
 10
-86.95007456186657
 20
334.4982578844638
 30
0.0
 11
-84.23544938370985
 21
334.7964476147213
 31
0.0
  0
LINE
  5
B5
330
1F
100
AcDbEntity
  8
0-0
  6
Continuous
 62
     3
370
     9
100
AcDbLine
 10
-82.73340305637673
 20
332.1947663436065
 30
0.0
 11
-84.54392023859798
 21
330.3307279277492
 31
0.0
  0
LINE
  5
B6
330
1F
100
AcDbEntity
  8
0-0
  6
Continuous
 62
     3
370
     9
100
AcDbLine
 10
-84.54392023859798
 20
330.3307279277492
 30
0.0
 11
-86.95007456186657
 21
334.4982578844638
 31
0.0
  0
LINE
  5
B7
330
1F
100
AcDbEntity
  8
0-0
  6
Continuous
 62
     3
370
     9
100
AcDbLine
 10
-91.8266680743243
 20
326.9447861387923
 30
0.0
 11
-93.32875151763095
 21
329.5464674099072
 31
0.0
  0
LINE
  5
B8
330
1F
100
AcDbEntity
  8
0-0
  6
Continuous
 62
     3
370
     9
100
AcDbLine
 10
-91.8266680743243
 20
326.9447861387923
 30
0.0
 11
-89.30708733635977
 21
327.5807312269469
 31
0.0
  0
LINE
  5
B9
330
1F
100
AcDbEntity
  8
0-0
  6
Continuous
 62
     3
370
     9
100
AcDbLine
 10
-89.30708733635977
 20
327.5807312269469
 30
0.0
 11
-91.71316742768157
 21
331.7481869517146
 31
0.0
  0
LINE
  5
BA
330
1F
100
AcDbEntity
  8
0-0
  6
Continuous
 62
     3
370
     9
100
AcDbLine
 10
-91.71316742768157
 20
331.7481869517146
 30
0.0
 11
-93.32875151763095
 21
329.5464674099072
 31
0.0
  0
LINE
  5
BB
330
1F
100
AcDbEntity
  8
0-0
  6
Continuous
 62
     3
370
     9
100
AcDbLine
 10
-110.0735486829603
 20
311.633853257669
 30
0.0
 11
-112.3748132654138
 21
313.5648488895313
 31
0.0
  0
LINE
  5
BC
330
1F
100
AcDbEntity
  8
0-0
  6
Continuous
 62
     3
370
     9
100
AcDbLine
 10
-114.8237251900338
 20
312.3562043318877
 30
0.0
 11
-112.3748132654138
 21
313.5648488895313
 31
0.0
  0
LINE
  5
BD
330
1F
100
AcDbEntity
  8
0-0
  6
Continuous
 62
     3
370
     9
100
AcDbLine
 10
-110.0735486829603
 20
311.633853257669
 30
0.0
 11
-111.1373667124156
 21
309.2630333410726
 31
0.0
  0
LINE
  5
BE
330
1F
100
AcDbEntity
  8
0-0
  6
Continuous
 62
     3
370
     9
100
AcDbLine
 10
-111.1373667124156
 20
309.2630333410726
 30
0.0
 11
-114.8237251900338
 21
312.3562043318877
 31
0.0
  0
LINE
  5
BF
330
1F
100
AcDbEntity
  8
0-0
  6
Continuous
 62
     3
370
     9
100
AcDbLine
 10
-116.8227915171031
 20
303.5903764312332
 30
0.0
 11
-119.1241303315034
 21
305.5214462950423
 31
0.0
  0
LINE
  5
C0
330
1F
100
AcDbEntity
  8
0-0
  6
Continuous
 62
     3
370
     9
100
AcDbLine
 10
-116.8227915171031
 20
303.5903764312332
 30
0.0
 11
-114.672663178315
 21
305.0497022731885
 31
0.0
  0
LINE
  5
C1
330
1F
100
AcDbEntity
  8
0-0
  6
Continuous
 62
     3
370
     9
100
AcDbLine
 10
-114.672663178315
 20
305.0497022731885
 30
0.0
 11
-118.3590587719066
 21
308.1429474959502
 31
0.0
  0
LINE
  5
C2
330
1F
100
AcDbEntity
  8
0-0
  6
Continuous
 62
     3
370
     9
100
AcDbLine
 10
-118.3590587719066
 20
308.1429474959502
 30
0.0
 11
-119.1241303315034
 21
305.5214462950423
 31
0.0
  0
LINE
  5
C3
330
1F
100
AcDbEntity
  8
0-0
  6
Continuous
 62
     3
370
     9
100
AcDbLine
 10
-128.7326392921241
 20
282.961986505663
 30
0.0
 11
-131.5556059966216
 21
283.9895051131377
 31
0.0
  0
LINE
  5
C4
330
1F
100
AcDbEntity
  8
0-0
  6
Continuous
 62
     3
370
     9
100
AcDbLine
 10
-133.4433986354519
 20
282.0161972716048
 30
0.0
 11
-131.5556059966216
 21
283.9895051131377
 31
0.0
  0
LINE
  5
C5
330
1F
100
AcDbEntity
  8
0-0
  6
Continuous
 62
     3
370
     9
100
AcDbLine
 10
-128.7326392921241
 20
282.961986505663
 30
0.0
 11
-128.9214111328125
 21
280.3703265473649
 31
0.0
  0
LINE
  5
C6
330
1F
100
AcDbEntity
  8
0-0
  6
Continuous
 62
     3
370
     9
100
AcDbLine
 10
-128.9214111328125
 20
280.3703265473649
 30
0.0
 11
-133.4433986354519
 21
282.0161972716048
 31
0.0
  0
LINE
  5
C7
330
1F
100
AcDbEntity
  8
0-0
  6
Continuous
 62
     3
370
     9
100
AcDbLine
 10
-132.3238324139569
 20
273.0952246021579
 30
0.0
 11
-135.1467991184544
 21
274.1227432096326
 31
0.0
  0
LINE
  5
C8
330
1F
100
AcDbEntity
  8
0-0
  6
Continuous
 62
     3
370
     9
100
AcDbLine
 10
-132.3238324139569
 20
273.0952246021579
 30
0.0
 11
-130.8024486644848
 21
275.2019272520735
 31
0.0
  0
LINE
  5
C9
330
1F
100
AcDbEntity
  8
0-0
  6
Continuous
 62
     3
370
     9
100
AcDbLine
 10
-130.8024486644848
 20
275.2019272520735
 30
0.0
 11
-135.324510399071
 21
276.8477979763135
 31
0.0
  0
LINE
  5
CA
330
1F
100
AcDbEntity
  8
0-0
  6
Continuous
 62
     3
370
     9
100
AcDbLine
 10
-135.324510399071
 20
276.8477979763135
 30
0.0
 11
-135.1467991184544
 21
274.1227432096326
 31
0.0
  0
LINE
  5
CB
330
1F
100
AcDbEntity
  8
0-0
  6
Continuous
 62
     3
370
     9
100
AcDbLine
 10
-136.4601107210727
 20
249.6375582566132
 30
0.0
 11
-139.464203375739
 21
249.6375582566132
 31
0.0
  0
LINE
  5
CC
330
1F
100
AcDbEntity
  8
0-0
  6
Continuous
 62
     3
370
     9
100
AcDbLine
 10
-140.563207347973
 20
247.1375747526014
 30
0.0
 11
-139.464203375739
 21
249.6375582566132
 31
0.0
  0
LINE
  5
CD
330
1F
100
AcDbEntity
  8
0-0
  6
Continuous
 62
     3
370
     9
100
AcDbLine
 10
-136.4601107210727
 20
249.6375582566132
 30
0.0
 11
-135.7510471653294
 21
247.1375747526014
 31
0.0
  0
LINE
  5
CE
330
1F
100
AcDbEntity
  8
0-0
  6
Continuous
 62
     3
370
     9
100
AcDbLine
 10
-135.7510471653294
 20
247.1375747526014
 30
0.0
 11
-140.563207347973
 21
247.1375747526014
 31
0.0
  0
LINE
  5
CF
330
1F
100
AcDbEntity
  8
0-3
  6
Continuous
 62
     4
370
     9
100
AcDbLine
 10
38.90002144478462
 20
-180.2870798214062
 30
0.0
 11
38.90002144478462
 21
-194.6206377751119
 31
0.0
  0
LINE
  5
D0
330
1F
100
AcDbEntity
  8
0-3
  6
Continuous
 62
     4
370
     9
100
AcDbLine
 10
44.39994061444259
 20
-179.3172765525612
 30
0.0
 11
44.39994061444259
 21
-194.6206377751119
 31
0.0
  0
LINE
  5
D1
330
1F
100
AcDbEntity
  8
0-3
  6
Continuous
 62
     4
370
     9
100
AcDbLine
 10
-115.1000907279349
 20
-179.1409756789337
 30
0.0
 11
-115.1000907279349
 21
-194.6206377751119
 31
0.0
  0
LINE
  5
D2
330
1F
100
AcDbEntity
  8
0-0
  6
Continuous
 62
     3
370
     9
100
AcDbLine
 10
-141.2670746674409
 20
-103.6460094297255
 30
0.0
 11
-146.6098448057432
 21
-101.9099840061085
 31
0.0
  0
LINE
  5
D3
330
1F
100
AcDbEntity
  8
0-0
  6
Continuous
 62
     3
370
     9
100
AcDbLine
 10
-138.2416774440456
 20
-114.072554443978
 30
0.0
 11
-139.216491369299
 21
-106.1335219666765
 31
0.0
  0
LINE
  5
D4
330
1F
100
AcDbEntity
  8
0-0
  6
JWW_DASHED1
 62
     3
370
     9
100
AcDbLine
 10
-115.8559946421031
 20
-123.9852659225464
 30
0.0
 11
-115.0952656513936
 21
-134.7306000322909
 31
0.0
  0
LINE
  5
D5
330
1F
100
AcDbEntity
  8
0-0
  6
Continuous
 62
     3
370
     9
100
AcDbLine
 10
-120.6831125620249
 20
-133.2086595432178
 30
0.0
 11
-121.5170713682432
 21
-126.0325087830827
 31
0.0
  0
LINE
  5
D6
330
1F
100
AcDbEntity
  8
0-0
  6
Continuous
 62
     3
370
     9
100
AcDbLine
 10
80.89986308329813
 20
-94.62059241114437
 30
0.0
 11
81.89991587046032
 21
-102.6206435487077
 31
0.0
  0
LINE
  5
D7
330
1F
100
AcDbEntity
  8
0-0
  6
Continuous
 62
     3
370
     9
100
AcDbLine
 10
81.89991587046032
 20
-102.6206435487077
 30
0.0
 11
68.22267967430321
 21
-102.6206435487077
 31
0.0
  0
LINE
  5
D8
330
1F
100
AcDbEntity
  8
0-0
  6
Continuous
 62
     3
370
     9
100
AcDbLine
 10
59.58965272645697
 20
-101.2198124808234
 30
0.0
 11
79.89981029613602
 21
-94.62059241114437
 31
0.0
  0
LINE
  5
D9
330
1F
100
AcDbEntity
  8
0-0
  6
Continuous
 62
     3
370
     9
100
AcDbLine
 10
44.20589830553212
 20
-113.0257726463112
 30
0.0
 11
45.57042995143588
 21
-108.6720318510726
 31
0.0
  0
LINE
  5
DA
330
1F
100
AcDbEntity
  8
0-0
  6
Continuous
 62
     3
370
     9
100
AcDbLine
 10
65.06693115234376
 20
-103.6460094297255
 30
0.0
 11
70.4097755225929
 21
-101.9099840061085
 31
0.0
  0
LINE
  5
DB
330
1F
100
AcDbEntity
  8
0-0
  6
Continuous
 62
     3
370
     9
100
AcDbLine
 10
62.04153392894853
 20
-114.072554443978
 30
0.0
 11
63.01634785420189
 21
-106.1335219666765
 31
0.0
  0
LINE
  5
DC
330
1F
100
AcDbEntity
  8
0-0
  6
Continuous
 62
     3
370
     9
100
AcDbLine
 10
55.58201838312923
 20
-120.2024059141005
 30
0.0
 11
42.44385458456509
 21
-121.1211376035536
 31
0.0
  0
LINE
  5
DD
330
1F
100
AcDbEntity
  8
0-0
  6
Continuous
 62
     3
370
     9
100
AcDbLine
 10
37.49495915593329
 20
-152.7204154091912
 30
0.0
 11
38.35248660525759
 21
-135.5706458581461
 31
0.0
  0
LINE
  5
DE
330
1F
100
AcDbEntity
  8
0-0
  6
Continuous
 62
     3
370
     9
100
AcDbLine
 10
-111.6975952148438
 20
-154.6205676671621
 30
0.0
 11
35.49752593169345
 21
-154.6205676671621
 31
0.0
  0
LINE
  5
DF
330
1F
100
AcDbEntity
  8
0-0
  6
Continuous
 62
     3
370
     9
100
AcDbLine
 10
63.74226206186658
 20
-96.34433244756754
 30
0.0
 11
63.39997855521541
 21
-94.62059241114437
 31
0.0
  0
LINE
  5
E0
330
1F
100
AcDbEntity
  8
0-0
  6
Continuous
 62
     3
370
     9
100
AcDbLine
 10
58.96543628589533
 20
-106.30343889288
 30
0.0
 11
60.39996865762252
 21
-94.62059241114437
 31
0.0
  0
LINE
  5
E1
330
1F
100
AcDbEntity
  8
0-0
  6
JWW_DASHED1
 62
     3
370
     9
100
AcDbLine
 10
58.44380839579814
 20
-110.5516589757559
 30
0.0
 11
58.96543628589533
 21
-106.30343889288
 31
0.0
  0
LINE
  5
E2
330
1F
100
AcDbEntity
  8
0-0
  6
JWW_DASHED1
 62
     3
370
     9
100
AcDbLine
 10
42.87922495249158
 20
-114.0735565752597
 30
0.0
 11
55.67547640413853
 21
-113.1787275726731
 31
0.0
  0
LINE
  5
E3
330
1F
100
AcDbEntity
  8
0-0
  6
Continuous
 62
     3
370
     9
100
AcDbLine
 10
-108.6000445391681
 20
-120.6206287023184
 30
0.0
 11
-108.6000445391681
 21
-131.6206155055278
 31
0.0
  0
LINE
  5
E4
330
1F
100
AcDbEntity
  8
0-0
  6
Continuous
 62
     3
370
     9
100
AcDbLine
 10
-108.6000445391681
 20
-131.6206155055278
 30
0.0
 11
32.39997525601775
 21
-131.6206155055278
 31
0.0
  0
LINE
  5
E5
330
1F
100
AcDbEntity
  8
0-0
  6
Continuous
 62
     3
370
     9
100
AcDbLine
 10
32.39997525601775
 20
-120.6206287023184
 30
0.0
 11
32.39997525601775
 21
-131.6206155055278
 31
0.0
  0
LINE
  5
E6
330
1F
100
AcDbEntity
  8
0-0
  6
Continuous
 62
     3
370
     9
100
AcDbLine
 10
-108.6000445391681
 20
-120.6206287023184
 30
0.0
 11
32.39997525601775
 21
-120.6206287023184
 31
0.0
  0
LINE
  5
E7
330
1F
100
AcDbEntity
  8
0-0
  6
Continuous
 62
     3
370
     9
100
AcDbLine
 10
-107.3150524242504
 20
-154.6205676671621
 30
0.0
 11
-105.7883610905827
 21
-153.0939134494679
 31
0.0
  0
LINE
  5
E8
330
1F
100
AcDbEntity
  8
0-0
  6
Continuous
 62
     3
370
     9
100
AcDbLine
 10
-105.7883610905827
 20
-153.0939134494679
 30
0.0
 11
-105.1173042915963
 21
-131.6206155055278
 31
0.0
  0
LINE
  5
E9
330
1F
100
AcDbEntity
  8
0-0
  6
Continuous
 62
     3
370
     9
100
AcDbLine
 10
-107.3150524242504
 20
-154.6205676671621
 30
0.0
 11
-106.596301599451
 21
-131.6206155055278
 31
0.0
  0
LINE
  5
EA
330
1F
100
AcDbEntity
  8
0-0
  6
Continuous
 62
     3
370
     9
100
AcDbLine
 10
31.11494602512673
 20
-154.6205676671621
 30
0.0
 11
29.58821757548564
 21
-153.0939134494679
 31
0.0
  0
LINE
  5
EB
330
1F
100
AcDbEntity
  8
0-0
  6
Continuous
 62
     3
370
     9
100
AcDbLine
 10
29.58821757548564
 20
-153.0939134494679
 30
0.0
 11
28.91716077649915
 21
-131.6206155055278
 31
0.0
  0
LINE
  5
EC
330
1F
100
AcDbEntity
  8
0-0
  6
Continuous
 62
     3
370
     9
100
AcDbLine
 10
31.11494602512673
 20
-154.6205676671621
 30
0.0
 11
30.39615808435392
 21
-131.6206155055278
 31
0.0
  0
LINE
  5
ED
330
1F
100
AcDbEntity
  8
0-0
  6
Continuous
 62
     3
370
     9
100
AcDbLine
 10
29.58821757548564
 20
-153.0939134494679
 30
0.0
 11
-105.7883610905827
 21
-153.0939134494679
 31
0.0
  0
LINE
  5
EE
330
1F
100
AcDbEntity
  8
0-0
  6
Continuous
 62
     3
370
     9
100
AcDbLine
 10
-104.3965120882602
 20
-115.100295747293
 30
0.0
 11
-131.8755456872888
 21
-113.1787275726731
 31
0.0
  0
LINE
  5
EF
330
1F
100
AcDbEntity
  8
0-0
  6
Continuous
 62
     3
370
     9
100
AcDbLine
 10
-103.4780030946473
 20
-115.9449810698226
 30
0.0
 11
-102.7547241210938
 21
-120.6206287023184
 31
0.0
  0
LINE
  5
F0
330
1F
100
AcDbEntity
  8
0-3
  6
Continuous
 62
     4
370
     9
100
AcDbLine
 10
-120.6000841295397
 20
-134.6206254031208
 30
0.0
 11
-120.6000841295397
 21
-176.0490295152406
 31
0.0
  0
LINE
  5
F1
330
1F
100
AcDbEntity
  8
0-3
  6
Continuous
 62
     4
370
     9
100
AcDbLine
 10
-115.1000907279349
 20
-134.6206254031208
 30
0.0
 11
-120.6000841295397
 21
-134.6206254031208
 31
0.0
  0
LINE
  5
F2
330
1F
100
AcDbEntity
  8
0-3
  6
Continuous
 62
     4
370
     9
100
AcDbLine
 10
-115.1000907279349
 20
-134.6206254031208
 30
0.0
 11
-115.1000907279349
 21
-175.0792633623691
 31
0.0
  0
LINE
  5
F3
330
1F
100
AcDbEntity
  8
0-3
  6
Continuous
 62
     4
370
     9
100
AcDbLine
 10
38.90002144478462
 20
-134.6206254031208
 30
0.0
 11
38.90002144478462
 21
-176.2254417367884
 31
0.0
  0
LINE
  5
F4
330
1F
100
AcDbEntity
  8
0-3
  6
Continuous
 62
     4
370
     9
100
AcDbLine
 10
44.39994061444259
 20
-134.6206254031208
 30
0.0
 11
38.90002144478462
 21
-134.6206254031208
 31
0.0
  0
LINE
  5
F5
330
1F
100
AcDbEntity
  8
0-3
  6
Continuous
 62
     4
370
     9
100
AcDbLine
 10
44.39994061444259
 20
-134.6206254031208
 30
0.0
 11
44.39994061444259
 21
-175.2556384679434
 31
0.0
  0
LINE
  5
F6
330
1F
100
AcDbEntity
  8
0-0
  6
Continuous
 62
     3
370
     9
100
AcDbLine
 10
-115.5513467324747
 20
-134.6206254031208
 30
0.0
 11
-119.1857057313661
 21
-134.6206254031208
 31
0.0
  0
LINE
  5
F7
330
1F
100
AcDbEntity
  8
0-0
  6
Continuous
 62
     3
370
     9
100
AcDbLine
 10
-114.552555888408
 20
-135.5706458581461
 30
0.0
 11
-113.6951026710304
 21
-152.7204154091912
 31
0.0
  0
LINE
  5
F8
330
1F
100
AcDbEntity
  8
0-0
  6
Continuous
 62
     3
370
     9
100
AcDbLine
 10
39.65585112700595
 20
-123.9852659225464
 30
0.0
 11
38.8951963682433
 21
-134.7306000322909
 31
0.0
  0
LINE
  5
F9
330
1F
100
AcDbEntity
  8
0-0
  6
Continuous
 62
     3
370
     9
100
AcDbLine
 10
27.27797092747048
 20
-115.9449810698226
 30
0.0
 11
26.55465483794345
 21
-120.6206287023184
 31
0.0
  0
LINE
  5
FA
330
1F
100
AcDbEntity
  8
0-0
  6
Continuous
 62
     3
370
     9
100
AcDbLine
 10
28.19636857316306
 20
-115.100295747293
 30
0.0
 11
42.87922495249158
 21
-114.0735565752597
 31
0.0
  0
LINE
  5
FB
330
1F
100
AcDbEntity
  8
0-0
  6
JWW_CENTER1
 62
     3
370
     9
100
AcDbLine
 10
-165.6441036739865
 20
244.3875038198523
 30
0.0
 11
90.02994714685391
 21
244.3875038198523
 31
0.0
  0
LINE
  5
FC
330
1F
100
AcDbEntity
  8
0-0
  6
JWW_CENTER1
 62
     3
370
     9
100
AcDbLine
 10
-38.10003464157514
 20
241.2218824489697
 30
0.0
 11
-38.10003464157514
 21
373.4122774948945
 31
0.0
  0
LINE
  5
FD
330
1F
100
AcDbEntity
  8
0-0
  6
Continuous
 62
     3
370
     9
100
AcDbLine
 10
57.47664036106423
 20
-107.6206476727048
 30
0.0
 11
55.40000164959884
 21
-107.6206476727048
 31
0.0
  0
LINE
  5
FE
330
1F
100
AcDbEntity
  8
0-0
  6
Continuous
 62
     3
370
     9
100
AcDbLine
 10
49.39998185441306
 20
-107.6206476727048
 30
0.0
 11
47.00177034945103
 21
-107.6206476727048
 31
0.0
  0
LINE
  5
FF
330
1F
100
AcDbEntity
  8
0-0
  6
JWW_PHANTOM1
 62
     3
370
     9
100
AcDbLine
 10
60.89880734005494
 20
-121.1205808639527
 30
0.0
 11
62.89995216163431
 21
-107.0817608549789
 31
0.0
  0
LINE
  5
100
330
1F
100
AcDbEntity
  8
0-0
  6
JWW_PHANTOM1
 62
     3
370
     9
100
AcDbLine
 10
60.58361849398228
 20
-123.33224748663
 30
0.0
 11
60.89880734005494
 21
-121.1205808639527
 31
0.0
  0
LINE
  5
101
330
1F
100
AcDbEntity
  8
0-0
  6
JWW_PHANTOM1
 62
     3
370
     9
100
AcDbLine
 10
44.48300616290118
 20
-133.2086595432178
 30
0.0
 11
45.3169278531461
 21
-126.0325087830827
 31
0.0
  0
LINE
  5
102
330
1F
100
AcDbEntity
  8
0-0
  6
JWW_PHANTOM1
 62
     3
370
     9
100
AcDbLine
 10
39.35120321737759
 20
-134.6206254031208
 30
0.0
 11
42.98559933224244
 21
-134.6206254031208
 31
0.0
  0
LINE
  5
103
330
1F
100
AcDbEntity
  8
0-0
  6
JWW_PHANTOM1
 62
     3
370
     9
100
AcDbLine
 10
46.81433468380494
 20
-124.6206171551266
 30
0.0
 11
59.09860839843751
 21
-124.6206171551266
 31
0.0
  0
LINE
  5
104
330
1F
100
AcDbEntity
  8
0-2
  6
Continuous
 62
     6
370
     5
100
AcDbLine
 10
-134.100054436761
 20
-101.6207021094657
 30
0.0
 11
-132.6000494879646
 21
-107.6206476727048
 31
0.0
  0
LINE
  5
105
330
1F
100
AcDbEntity
  8
0-2
  6
Continuous
 62
     6
370
     5
100
AcDbLine
 10
-122.0998663824958
 20
-101.6207021094657
 30
0.0
 11
-120.6000098975929
 21
-107.6206476727048
 31
0.0
  0
LINE
  5
106
330
1F
100
AcDbEntity
  8
0-2
  6
Continuous
 62
     6
370
     5
100
AcDbLine
 10
-122.100163310283
 20
-101.6207021094657
 30
0.0
 11
-134.100054436761
 21
-101.6207021094657
 31
0.0
  0
LINE
  5
107
330
1F
100
AcDbEntity
  8
0-2
  6
Continuous
 62
     6
370
     5
100
AcDbLine
 10
-80.09995051203546
 20
-96.57846000774488
 30
0.0
 11
-117.6000742319468
 21
-106.6265705572593
 31
0.0
  0
LINE
  5
108
330
1F
100
AcDbEntity
  8
0-2
  6
Continuous
 62
     6
370
     5
100
AcDbLine
 10
-117.6000742319468
 20
-106.6265705572593
 30
0.0
 11
-120.6000098975929
 21
-107.6206476727048
 31
0.0
  0
LINE
  5
109
330
1F
100
AcDbEntity
  8
0-2
  6
Continuous
 62
     6
370
     5
100
AcDbLine
 10
57.89998515361064
 20
-101.6207021094657
 30
0.0
 11
56.39990597286744
 21
-107.6206476727048
 31
0.0
  0
LINE
  5
10A
330
1F
100
AcDbEntity
  8
0-2
  6
Continuous
 62
     6
370
     5
100
AcDbLine
 10
45.89987133129228
 20
-101.6207021094657
 30
0.0
 11
44.40001484638939
 21
-107.6206476727048
 31
0.0
  0
LINE
  5
10B
330
1F
100
AcDbEntity
  8
0-2
  6
Continuous
 62
     6
370
     5
100
AcDbLine
 10
41.4000049487965
 20
-106.6265705572593
 30
0.0
 11
44.40001484638939
 21
-107.6206476727048
 31
0.0
  0
LINE
  5
10C
330
1F
100
AcDbEntity
  8
0-2
  6
Continuous
 62
     6
370
     5
100
AcDbLine
 10
3.899881228885171
 20
-96.57846000774488
 30
0.0
 11
41.4000049487965
 21
-106.6265705572593
 31
0.0
  0
LINE
  5
10D
330
1F
100
AcDbEntity
  8
0-2
  6
Continuous
 62
     6
370
     5
100
AcDbLine
 10
-80.10002474398226
 20
-96.57846000774488
 30
0.0
 11
3.899881228885171
 21
-96.57846000774488
 31
0.0
  0
LINE
  5
10E
330
1F
100
AcDbEntity
  8
0-2
  6
Continuous
 62
     6
370
     5
100
AcDbLine
 10
57.89998515361064
 20
-101.6207021094657
 30
0.0
 11
56.89993236644853
 21
-100.620686438277
 31
0.0
  0
LINE
  5
10F
330
1F
100
AcDbEntity
  8
0-2
  6
Continuous
 62
     6
370
     5
100
AcDbLine
 10
45.89987133129228
 20
-101.6207021094657
 30
0.0
 11
44.89989277607689
 21
-100.620686438277
 31
0.0
  0
LINE
  5
110
330
1F
100
AcDbEntity
  8
0-2
  6
Continuous
 62
     6
370
     5
100
AcDbLine
 10
3.899881228885171
 20
-96.57846000774488
 30
0.0
 11
3.619136006123377
 21
-92.56384786141886
 31
0.0
  0
LINE
  5
111
330
1F
100
AcDbEntity
  8
0-2
  6
Continuous
 62
     6
370
     5
100
AcDbLine
 10
3.410395771748377
 20
-89.57838742539691
 30
0.0
 11
-5.54182854729725
 21
38.44440343186656
 31
0.0
  0
LINE
  5
112
330
1F
100
AcDbEntity
  8
0-2
  6
Continuous
 62
     6
370
     5
100
AcDbLine
 10
-80.09995051203546
 20
-96.57846000774488
 30
0.0
 11
-79.81920528927367
 21
-92.56384786141886
 31
0.0
  0
LINE
  5
113
330
1F
100
AcDbEntity
  8
0-2
  6
Continuous
 62
     6
370
     5
100
AcDbLine
 10
-79.61046505489867
 20
-89.57838742539691
 30
0.0
 11
-70.65824073585304
 21
38.44440343186656
 31
0.0
  0
LINE
  5
114
330
1F
100
AcDbEntity
  8
0-2
  6
Continuous
 62
     6
370
     5
100
AcDbLine
 10
-72.72270540804476
 20
8.921541641853906
 30
0.0
 11
-3.477363875105532
 21
8.921541641853906
 31
0.0
  0
LINE
  5
115
330
1F
100
AcDbEntity
  8
0-2
  6
Continuous
 62
     6
370
     5
100
AcDbLine
 10
-2.708172442461937
 20
-2.078445161355546
 30
0.0
 11
-73.49189684068836
 21
-2.078445161355546
 31
0.0
  0
LINE
  5
116
330
1F
100
AcDbEntity
  8
0-2
  6
Continuous
 62
     6
370
     5
100
AcDbLine
 10
-63.10001814558694
 20
63.23431052646117
 30
0.0
 11
-66.10002804317992
 21
50.38758135099664
 31
0.0
  0
LINE
  5
117
330
1F
100
AcDbEntity
  8
0-2
  6
Continuous
 62
     6
370
     5
100
AcDbLine
 10
-13.10005113756335
 20
63.23431052646117
 30
0.0
 11
-10.10004123997037
 21
50.38758135099664
 31
0.0
  0
LINE
  5
118
330
1F
100
AcDbEntity
  8
0-2
  6
Continuous
 62
     6
370
     5
100
AcDbLine
 10
-87.83002005912165
 20
-92.4380247116089
 30
0.0
 11
-89.33002500791805
 21
-99.05164577896535
 31
0.0
  0
LINE
  5
119
330
1F
100
AcDbEntity
  8
0-2
  6
Continuous
 62
     6
370
     5
100
AcDbLine
 10
11.62995077597134
 20
-92.4380247116089
 30
0.0
 11
13.12995572476775
 21
-99.05164577896535
 31
0.0
  0
LINE
  5
11A
330
1F
100
AcDbEntity
  8
0-2
  6
Continuous
 62
     6
370
     5
100
AcDbLine
 10
-87.73047501847547
 20
-91.01492405968746
 30
0.0
 11
-78.63876887141046
 21
39.00247920783789
 31
0.0
  0
LINE
  5
11B
330
1F
100
AcDbEntity
  8
0-2
  6
Continuous
 62
     6
370
     5
100
AcDbLine
 10
-89.20802480336782
 20
-92.80725441494508
 30
0.0
 11
-122.100163310283
 21
-101.6207021094657
 31
0.0
  0
LINE
  5
11C
330
1F
100
AcDbEntity
  8
0-2
  6
Continuous
 62
     6
370
     5
100
AcDbLine
 10
13.00791840424407
 20
-92.80725441494508
 30
0.0
 11
45.90009402713259
 21
-101.6207021094657
 31
0.0
  0
LINE
  5
11D
330
1F
100
AcDbEntity
  8
0-2
  6
Continuous
 62
     6
370
     5
100
AcDbLine
 10
11.53040573532517
 20
-91.01492405968746
 30
0.0
 11
2.438699588260171
 21
39.00247920783789
 31
0.0
  0
LINE
  5
11E
330
1F
100
AcDbEntity
  8
0-2
  6
Continuous
 62
     6
370
     5
100
AcDbLine
 10
-8.697799765097095
 20
7.78868790188352
 30
0.0
 11
-3.477363875105532
 21
8.921541641853906
 31
0.0
  0
LINE
  5
11F
330
1F
100
AcDbEntity
  8
0-2
  6
Continuous
 62
     6
370
     5
100
AcDbLine
 10
-9.935543245882563
 20
0.9278744517145299
 30
0.0
 11
-10.26884468697209
 21
5.694753146815941
 31
0.0
  0
LINE
  5
120
330
1F
100
AcDbEntity
  8
0-2
  6
Continuous
 62
     6
370
     5
100
AcDbLine
 10
-8.352546980574282
 20
-0.8896205335049956
 30
0.0
 11
-2.708172442461937
 21
-2.078445161355546
 31
0.0
  0
LINE
  5
121
330
1F
100
AcDbEntity
  8
0-2
  6
Continuous
 62
     6
370
     5
100
AcDbLine
 10
-67.50230663402655
 20
7.78868790188352
 30
0.0
 11
-72.72270540804476
 21
8.921541641853906
 31
0.0
  0
LINE
  5
122
330
1F
100
AcDbEntity
  8
0-2
  6
Continuous
 62
     6
370
     5
100
AcDbLine
 10
-66.26452603726773
 20
0.9278744517145299
 30
0.0
 11
-65.93126171215155
 21
5.694753146815941
 31
0.0
  0
LINE
  5
123
330
1F
100
AcDbEntity
  8
0-2
  6
Continuous
 62
     6
370
     5
100
AcDbLine
 10
-67.84752230257601
 20
-0.8896205335049956
 30
0.0
 11
-73.49189684068836
 21
-2.078445161355546
 31
0.0
  0
LINE
  5
124
330
1F
100
AcDbEntity
  8
0-2
  6
Continuous
 62
     6
370
     5
100
AcDbLine
 10
-66.70969502217062
 20
7.421610925004302
 30
0.0
 11
-9.49037426097967
 21
7.421610925004302
 31
0.0
  0
LINE
  5
125
330
1F
100
AcDbEntity
  8
0-2
  6
Continuous
 62
     6
370
     5
100
AcDbLine
 10
-9.076679621516
 20
-0.5783659806122614
 30
0.0
 11
-67.12338966163429
 21
-0.5783659806122614
 31
0.0
  0
LINE
  5
126
330
1F
100
AcDbEntity
  8
0-2
  6
Continuous
 62
     6
370
     5
100
AcDbLine
 10
-87.35033321896118
 20
-85.57839897258863
 30
0.0
 11
3.130689796241576
 21
-85.57839897258863
 31
0.0
  0
LINE
  5
127
330
1F
100
AcDbEntity
  8
0-2
  6
Continuous
 62
     6
370
     5
100
AcDbLine
 10
-79.61046505489867
 20
-89.57838742539691
 30
0.0
 11
3.410395771748377
 21
-89.57838742539691
 31
0.0
  0
LINE
  5
128
330
1F
100
AcDbEntity
  8
0-2
  6
Continuous
 62
     6
370
     5
100
AcDbLine
 10
-79.61046505489867
 20
-92.57839732298984
 30
0.0
 11
3.410395771748377
 21
-92.57839732298984
 31
0.0
  0
LINE
  5
129
330
1F
100
AcDbEntity
  8
0-2
  6
Continuous
 62
     6
370
     5
100
AcDbLine
 10
47.64996370882603
 20
-100.620686438277
 30
0.0
 11
58.14992411845439
 21
-100.620686438277
 31
0.0
  0
LINE
  5
12A
330
1F
100
AcDbEntity
  8
0-2
  6
Continuous
 62
     6
370
     5
100
AcDbLine
 10
52.39991752005916
 20
-99.62063365111484
 30
0.0
 11
53.39997030722134
 21
-99.62063365111484
 31
0.0
  0
LINE
  5
12B
330
1F
100
AcDbEntity
  8
0-2
  6
Continuous
 62
     6
370
     5
100
AcDbLine
 10
53.39997030722134
 20
-96.73865254891886
 30
0.0
 11
53.39997030722134
 21
-99.62063365111484
 31
0.0
  0
LINE
  5
12C
330
1F
100
AcDbEntity
  8
0-2
  6
Continuous
 62
     6
370
     5
100
AcDbLine
 10
52.39991752005916
 20
-96.73865254891886
 30
0.0
 11
52.39991752005916
 21
-99.62063365111484
 31
0.0
  0
LINE
  5
12D
330
1F
100
AcDbEntity
  8
0-2
  6
Continuous
 62
     6
370
     5
100
AcDbLine
 10
50.39996040962837
 20
-112.6206146807284
 30
0.0
 11
55.39992741765204
 21
-112.6206146807284
 31
0.0
  0
LINE
  5
12E
330
1F
100
AcDbEntity
  8
0-2
  6
Continuous
 62
     6
370
     5
100
AcDbLine
 10
49.89993401604736
 20
-112.1206996350675
 30
0.0
 11
55.89995381123314
 21
-112.1206996350675
 31
0.0
  0
LINE
  5
12F
330
1F
100
AcDbEntity
  8
0-2
  6
Continuous
 62
     6
370
     5
100
AcDbLine
 10
49.89993401604736
 20
-112.1206996350675
 30
0.0
 11
50.39996040962837
 21
-112.6206146807284
 31
0.0
  0
LINE
  5
130
330
1F
100
AcDbEntity
  8
0-2
  6
Continuous
 62
     6
370
     5
100
AcDbLine
 10
55.89995381123314
 20
-112.1206996350675
 30
0.0
 11
55.39992741765204
 21
-112.6206146807284
 31
0.0
  0
LINE
  5
131
330
1F
100
AcDbEntity
  8
0-2
  6
Continuous
 62
     6
370
     5
100
AcDbLine
 10
55.89995381123314
 20
-100.620686438277
 30
0.0
 11
55.89995381123314
 21
-112.1206996350675
 31
0.0
  0
LINE
  5
132
330
1F
100
AcDbEntity
  8
0-2
  6
Continuous
 62
     6
370
     5
100
AcDbLine
 10
55.39992741765204
 20
-100.620686438277
 30
0.0
 11
55.39992741765204
 21
-112.6206146807284
 31
0.0
  0
LINE
  5
133
330
1F
100
AcDbEntity
  8
0-2
  6
Continuous
 62
     6
370
     5
100
AcDbLine
 10
50.39996040962837
 20
-100.620686438277
 30
0.0
 11
50.39996040962837
 21
-112.6206146807284
 31
0.0
  0
LINE
  5
134
330
1F
100
AcDbEntity
  8
0-2
  6
Continuous
 62
     6
370
     5
100
AcDbLine
 10
49.89993401604736
 20
-100.620686438277
 30
0.0
 11
49.89993401604736
 21
-112.1206996350675
 31
0.0
  0
LINE
  5
135
330
1F
100
AcDbEntity
  8
0-2
  6
Continuous
 62
     6
370
     5
100
AcDbLine
 10
-128.5999868032094
 20
248.3874922726606
 30
0.0
 11
-129.6000395903716
 21
248.3874922726606
 31
0.0
  0
LINE
  5
136
330
1F
100
AcDbEntity
  8
0-2
  6
Continuous
 62
     6
370
     5
100
AcDbLine
 10
52.39991752005916
 20
248.3874922726606
 30
0.0
 11
53.39997030722134
 21
248.3874922726606
 31
0.0
  0
LINE
  5
137
330
1F
100
AcDbEntity
  8
0-2
  6
Continuous
 62
     6
370
     5
100
AcDbLine
 10
42.16800867029142
 20
-100.620686438277
 30
0.0
 11
47.64996370882603
 21
-100.620686438277
 31
0.0
  0
LINE
  5
138
330
1F
100
AcDbEntity
  8
0-2
  6
Continuous
 62
     6
370
     5
100
AcDbLine
 10
53.39997030722134
 20
244.3875038198523
 30
0.0
 11
53.39997030722134
 21
248.3874922726606
 31
0.0
  0
LINE
  5
139
330
1F
100
AcDbEntity
  8
0-2
  6
Continuous
 62
     6
370
     5
100
AcDbLine
 10
52.39991752005916
 20
244.3875038198523
 30
0.0
 11
52.39991752005916
 21
248.3874922726606
 31
0.0
  0
LINE
  5
13A
330
1F
100
AcDbEntity
  8
0-2
  6
Continuous
 62
     6
370
     5
100
AcDbLine
 10
-128.5999868032094
 20
244.3875038198523
 30
0.0
 11
-128.5999868032094
 21
248.3874922726606
 31
0.0
  0
LINE
  5
13B
330
1F
100
AcDbEntity
  8
0-2
  6
Continuous
 62
     6
370
     5
100
AcDbLine
 10
-129.6000395903716
 20
244.3875038198523
 30
0.0
 11
-129.6000395903716
 21
248.3874922726606
 31
0.0
  0
LINE
  5
13C
330
1F
100
AcDbEntity
  8
0-2
  6
Continuous
 62
     6
370
     5
100
AcDbLine
 10
45.90009402713259
 20
-101.6207021094657
 30
0.0
 11
49.89993401604736
 21
-101.6207021094657
 31
0.0
  0
LINE
  5
13D
330
1F
100
AcDbEntity
  8
0-2
  6
Continuous
 62
     6
370
     5
100
AcDbLine
 10
55.89995381123314
 20
-101.6207021094657
 30
0.0
 11
57.89998515361064
 21
-101.6207021094657
 31
0.0
  0
LINE
  5
13E
330
1F
100
AcDbEntity
  8
0-2
  6
Continuous
 62
     6
370
     5
100
AcDbLine
 10
-132.6000494879646
 20
-107.6206476727048
 30
0.0
 11
49.89993401604736
 21
-107.6206476727048
 31
0.0
  0
LINE
  5
13F
330
1F
100
AcDbEntity
  8
0-2
  6
Continuous
 62
     6
370
     5
100
AcDbLine
 10
55.89995381123314
 20
-107.6206476727048
 30
0.0
 11
56.39990597286744
 21
-107.6206476727048
 31
0.0
  0
LINE
  5
140
330
1F
100
AcDbEntity
  8
0-2
  6
Continuous
 62
     6
370
     5
100
AcDbLine
 10
57.26767743084884
 20
255.3875648550085
 30
0.0
 11
45.17662947371205
 21
255.3875648550085
 31
0.0
  0
LINE
  5
141
330
1F
100
AcDbEntity
  8
0-2
  6
Continuous
 62
     6
370
     5
100
AcDbLine
 10
45.17662947371205
 20
255.3875648550085
 30
0.0
 11
41.54260451858111
 21
254.3875120678463
 31
0.0
  0
LINE
  5
142
330
1F
100
AcDbEntity
  8
0-2
  6
Continuous
 62
     6
370
     5
100
AcDbLine
 10
56.37221745671454
 20
254.3875120678463
 30
0.0
 11
41.54260451858111
 21
254.3875120678463
 31
0.0
  0
LINE
  5
143
330
1F
100
AcDbEntity
  8
0-2
  6
Continuous
 62
     6
370
     5
100
AcDbLine
 10
56.37221745671454
 20
254.3875120678463
 30
0.0
 11
57.26767743084884
 21
255.3875648550085
 31
0.0
  0
LINE
  5
144
330
1F
100
AcDbEntity
  8
0-2
  6
Continuous
 62
     6
370
     5
100
AcDbLine
 10
56.76831912478884
 20
249.3875450598227
 30
0.0
 11
57.81654844541814
 21
248.3874922726606
 31
0.0
  0
LINE
  5
145
330
1F
100
AcDbEntity
  8
0-2
  6
Continuous
 62
     6
370
     5
100
AcDbLine
 10
-133.4677467139991
 20
255.3875648550085
 30
0.0
 11
-121.3766987568624
 21
255.3875648550085
 31
0.0
  0
LINE
  5
146
330
1F
100
AcDbEntity
  8
0-2
  6
Continuous
 62
     6
370
     5
100
AcDbLine
 10
-121.3766987568624
 20
255.3875648550085
 30
0.0
 11
-117.7426738017314
 21
254.3875120678463
 31
0.0
  0
LINE
  5
147
330
1F
100
AcDbEntity
  8
0-2
  6
Continuous
 62
     6
370
     5
100
AcDbLine
 10
-132.5722867398649
 20
254.3875120678463
 30
0.0
 11
-117.7426738017314
 21
254.3875120678463
 31
0.0
  0
LINE
  5
148
330
1F
100
AcDbEntity
  8
0-2
  6
Continuous
 62
     6
370
     5
100
AcDbLine
 10
-132.5722867398649
 20
254.3875120678463
 30
0.0
 11
-133.4677467139991
 21
255.3875648550085
 31
0.0
  0
LINE
  5
149
330
1F
100
AcDbEntity
  8
0-2
  6
Continuous
 62
     6
370
     5
100
AcDbLine
 10
-132.9683884079392
 20
249.3875450598227
 30
0.0
 11
-134.0166177285685
 21
248.3874922726606
 31
0.0
  0
LINE
  5
14A
330
1F
100
AcDbEntity
  8
0-2
  6
Continuous
 62
     6
370
     5
100
AcDbLine
 10
2.857813159839544
 20
252.377830572386
 30
0.0
 11
6.617141641152905
 21
255.0097242458447
 31
0.0
  0
LINE
  5
14B
330
1F
100
AcDbEntity
  8
0-2
  6
Continuous
 62
     6
370
     5
100
AcDbLine
 10
-1.588383525126623
 20
264.5938108959713
 30
0.0
 11
2.983116686021965
 21
264.9941437850127
 31
0.0
  0
LINE
  5
14C
330
1F
100
AcDbEntity
  8
0-2
  6
Continuous
 62
     6
370
     5
100
AcDbLine
 10
2.857813159839544
 20
252.377830572386
 30
0.0
 11
-9.474117464632563
 21
249.1021974563598
 31
0.0
  0
LINE
  5
14D
330
1F
100
AcDbEntity
  8
0-2
  6
Continuous
 62
     6
370
     5
100
AcDbLine
 10
-11.86052609005491
 20
276.8356239370398
 30
0.0
 11
-10.67244378167225
 21
281.2682361757433
 31
0.0
  0
LINE
  5
14E
330
1F
100
AcDbEntity
  8
0-2
  6
Continuous
 62
     6
370
     5
100
AcDbLine
 10
-23.11891430004217
 20
283.3356701258066
 30
0.0
 11
-19.87423590582764
 21
286.5808681436487
 31
0.0
  0
LINE
  5
14F
330
1F
100
AcDbEntity
  8
0-2
  6
Continuous
 62
     6
370
     5
100
AcDbLine
 10
-11.86052609005491
 20
276.8356239370398
 30
0.0
 11
-19.20191716374577
 21
266.3995772335981
 31
0.0
  0
LINE
  5
150
330
1F
100
AcDbEntity
  8
0-2
  6
Continuous
 62
     6
370
     5
100
AcDbLine
 10
-38.85668087521116
 20
286.1106829926774
 30
0.0
 11
-40.79576778927366
 21
290.2698989713514
 31
0.0
  0
LINE
  5
151
330
1F
100
AcDbEntity
  8
0-2
  6
Continuous
 62
     6
370
     5
100
AcDbLine
 10
-51.6591678103885
 20
283.8532152588303
 30
0.0
 11
-51.25957724081498
 21
288.4247897019257
 31
0.0
  0
LINE
  5
152
330
1F
100
AcDbEntity
  8
0-2
  6
Continuous
 62
     6
370
     5
100
AcDbLine
 10
-38.85668087521116
 20
286.1106829926774
 30
0.0
 11
-37.77222636454811
 21
273.3972743936487
 31
0.0
  0
LINE
  5
153
330
1F
100
AcDbEntity
  8
0-2
  6
Continuous
 62
     6
370
     5
100
AcDbLine
 10
-65.49874927417648
 20
275.8629627382433
 30
0.0
 11
-69.65766832506336
 21
277.8026435078801
 31
0.0
  0
LINE
  5
154
330
1F
100
AcDbEntity
  8
0-2
  6
Continuous
 62
     6
370
     5
100
AcDbLine
 10
-73.85503952438765
 20
265.9043759165584
 30
0.0
 11
-76.48745282147382
 21
269.663259006191
 31
0.0
  0
LINE
  5
155
330
1F
100
AcDbEntity
  8
0-2
  6
Continuous
 62
     6
370
     5
100
AcDbLine
 10
-65.49874927417648
 20
275.8629627382433
 30
0.0
 11
-56.49604723131335
 21
266.8209177635812
 31
0.0
  0
LINE
  5
156
330
1F
100
AcDbEntity
  8
0-2
  6
Continuous
 62
     6
370
     5
100
AcDbLine
 10
-73.85496529244085
 20
265.9043759165584
 30
0.0
 11
-63.38699885187921
 21
258.6084890262501
 31
0.0
  0
LINE
  5
157
330
1F
100
AcDbEntity
  8
0-2
  6
Continuous
 62
     6
370
     5
100
AcDbLine
 10
-79.32066353462835
 20
250.8875500086191
 30
0.0
 11
-66.612080012141
 21
249.7477926975972
 31
0.0
  0
LINE
  5
158
330
1F
100
AcDbEntity
  8
0-2
  6
Continuous
 62
     6
370
     5
100
AcDbLine
 10
-51.6591678103885
 20
283.8532152588303
 30
0.0
 11
-48.32993922877952
 21
271.5356114000888
 31
0.0
  0
LINE
  5
159
330
1F
100
AcDbEntity
  8
0-2
  6
Continuous
 62
     6
370
     5
100
AcDbLine
 10
-23.11891430004217
 20
283.3355958938598
 30
0.0
 11
-28.48610674883866
 21
271.7598661113429
 31
0.0
  0
LINE
  5
15A
330
1F
100
AcDbEntity
  8
0-2
  6
Continuous
 62
     6
370
     5
100
AcDbLine
 10
-1.588457757073421
 20
264.5938108959713
 30
0.0
 11
-13.14080447635131
 21
259.1762149553041
 31
0.0
  0
LINE
  5
15B
330
1F
100
AcDbEntity
  8
0-2
  6
Continuous
 62
     6
370
     5
100
AcDbLine
 10
-105.2267964131124
 20
288.7750160268835
 30
0.0
 11
-80.81421030405406
 21
272.6322399500254
 31
0.0
  0
LINE
  5
15C
330
1F
100
AcDbEntity
  8
0-2
  6
Continuous
 62
     6
370
     5
100
AcDbLine
 10
-106.0541114600929
 20
287.5238365637289
 30
0.0
 11
-81.65989775786532
 21
271.3931602941976
 31
0.0
  0
LINE
  5
15D
330
1F
100
AcDbEntity
  8
0-2
  6
Continuous
 62
     6
370
     5
100
AcDbLine
 10
40.15988604571368
 20
263.1394585944511
 30
0.0
 11
11.6983926309122
 21
256.3196954108573
 31
0.0
  0
LINE
  5
15E
330
1F
100
AcDbEntity
  8
0-2
  6
Continuous
 62
     6
370
     5
100
AcDbLine
 10
40.50937005120361
 20
261.6806523761234
 30
0.0
 11
12.06932966902455
 21
254.8661596607517
 31
0.0
  0
LINE
  5
15F
330
1F
100
AcDbEntity
  8
0-2
  6
Continuous
 62
     6
370
     5
100
AcDbLine
 10
33.90398872994087
 20
280.3272720182264
 30
0.0
 11
7.717704484269468
 21
267.2567335231885
 31
0.0
  0
LINE
  5
160
330
1F
100
AcDbEntity
  8
0-2
  6
Continuous
 62
     6
370
     5
100
AcDbLine
 10
33.23411964210306
 20
281.6693856161994
 30
0.0
 11
7.06743263038431
 21
268.6086457381377
 31
0.0
  0
LINE
  5
161
330
1F
100
AcDbEntity
  8
0-2
  6
Continuous
 62
     6
370
     5
100
AcDbLine
 10
29.02672712996205
 20
288.7750160268835
 30
0.0
 11
4.614141020903766
 21
272.6321657180786
 31
0.0
  0
LINE
  5
162
330
1F
100
AcDbEntity
  8
0-2
  6
Continuous
 62
     6
370
     5
100
AcDbLine
 10
29.85404217694259
 20
287.5237623317822
 30
0.0
 11
5.459865590688374
 21
271.393086062251
 31
0.0
  0
LINE
  5
163
330
1F
100
AcDbEntity
  8
0-2
  6
Continuous
 62
     6
370
     5
100
AcDbLine
 10
17.26957446948908
 20
302.786667143332
 30
0.0
 11
-2.867177272487332
 21
281.5481648470904
 31
0.0
  0
LINE
  5
164
330
1F
100
AcDbEntity
  8
0-2
  6
Continuous
 62
     6
370
     5
100
AcDbLine
 10
16.18103720175259
 20
303.8187138995609
 30
0.0
 11
-3.9405712230785
 21
282.5961714718793
 31
0.0
  0
LINE
  5
165
330
1F
100
AcDbEntity
  8
0-2
  6
Continuous
 62
     6
370
     5
100
AcDbLine
 10
9.79708977776611
 20
309.0568169928886
 30
0.0
 11
-7.622030392208579
 21
285.5379092912416
 31
0.0
  0
LINE
  5
166
330
1F
100
AcDbEntity
  8
0-2
  6
Continuous
 62
     6
370
     5
100
AcDbLine
 10
11.00246812975087
 20
308.1640293688388
 30
0.0
 11
-6.403587217588658
 21
284.6628631024747
 31
0.0
  0
LINE
  5
167
330
1F
100
AcDbEntity
  8
0-2
  6
Continuous
 62
     6
370
     5
100
AcDbLine
 10
-6.043339579814123
 20
318.2023413013767
 30
0.0
 11
-17.70168951910889
 21
291.3573969918328
 31
0.0
  0
LINE
  5
168
330
1F
100
AcDbEntity
  8
0-2
  6
Continuous
 62
     6
370
     5
100
AcDbLine
 10
-7.419228713576864
 20
318.799760009147
 30
0.0
 11
-19.0687450512035
 21
291.975081021077
 31
0.0
  0
LINE
  5
169
330
1F
100
AcDbEntity
  8
0-2
  6
Continuous
 62
     6
370
     5
100
AcDbLine
 10
-15.20964883340366
 20
321.538547685984
 30
0.0
 11
-23.5343905062289
 21
293.4803564380954
 31
0.0
  0
LINE
  5
16A
330
1F
100
AcDbEntity
  8
0-2
  6
Continuous
 62
     6
370
     5
100
AcDbLine
 10
-13.77162756017733
 20
321.1119366877788
 30
0.0
 11
-22.09013374947209
 21
293.074753080832
 31
0.0
  0
LINE
  5
16B
330
1F
100
AcDbEntity
  8
0-2
  6
Continuous
 62
     6
370
     5
100
AcDbLine
 10
-33.22277304159623
 20
324.7147099933109
 30
0.0
 11
-34.99647117820944
 21
295.5014696533616
 31
0.0
  0
LINE
  5
16C
330
1F
100
AcDbEntity
  8
0-2
  6
Continuous
 62
     6
370
     5
100
AcDbLine
 10
-34.71995717641467
 20
324.8056441281293
 30
0.0
 11
-36.49239336993241
 21
295.6143022124832
 31
0.0
  0
LINE
  5
16D
330
1F
100
AcDbEntity
  8
0-2
  6
Continuous
 62
     6
370
     5
100
AcDbLine
 10
-42.97729624155405
 20
324.7147099933109
 30
0.0
 11
-41.20352387299405
 21
295.5014696533616
 31
0.0
  0
LINE
  5
16E
330
1F
100
AcDbEntity
  8
0-2
  6
Continuous
 62
     6
370
     5
100
AcDbLine
 10
-41.48003787478881
 20
324.8056441281293
 30
0.0
 11
-39.70760168127108
 21
295.6143022124832
 31
0.0
  0
LINE
  5
16F
330
1F
100
AcDbEntity
  8
0-2
  6
Continuous
 62
     6
370
     5
100
AcDbLine
 10
-60.99042044974663
 20
321.538547685984
 30
0.0
 11
-52.66567877692139
 21
293.4803564380954
 31
0.0
  0
LINE
  5
170
330
1F
100
AcDbEntity
  8
0-2
  6
Continuous
 62
     6
370
     5
100
AcDbLine
 10
-62.42844172297296
 20
321.1119366877788
 30
0.0
 11
-54.10993553367819
 21
293.074753080832
 31
0.0
  0
LINE
  5
171
330
1F
100
AcDbEntity
  8
0-2
  6
Continuous
 62
     6
370
     5
100
AcDbLine
 10
-70.15672970333617
 20
318.2023413013767
 30
0.0
 11
-58.4983055320946
 21
291.3573969918328
 31
0.0
  0
LINE
  5
172
330
1F
100
AcDbEntity
  8
0-2
  6
Continuous
 62
     6
370
     5
100
AcDbLine
 10
-68.78084056957343
 20
318.799760009147
 30
0.0
 11
-57.13124999999999
 21
291.975081021077
 31
0.0
  0
LINE
  5
173
330
1F
100
AcDbEntity
  8
0-2
  6
Continuous
 62
     6
370
     5
100
AcDbLine
 10
-85.99715906091642
 20
309.0568169928886
 30
0.0
 11
-68.57796465899492
 21
285.5379835231885
 31
0.0
  0
LINE
  5
174
330
1F
100
AcDbEntity
  8
0-2
  6
Continuous
 62
     6
370
     5
100
AcDbLine
 10
-87.20253741290118
 20
308.1640293688388
 30
0.0
 11
-69.79640783361484
 21
284.6628631024747
 31
0.0
  0
LINE
  5
175
330
1F
100
AcDbEntity
  8
0-2
  6
Continuous
 62
     6
370
     5
100
AcDbLine
 10
-93.46956952069259
 20
302.786667143332
 30
0.0
 11
-73.33281777871616
 21
281.5481648470904
 31
0.0
  0
LINE
  5
176
330
1F
100
AcDbEntity
  8
0-2
  6
Continuous
 62
     6
370
     5
100
AcDbLine
 10
-92.3811064849029
 20
303.8187138995609
 30
0.0
 11
-72.259423828125
 21
282.5961714718793
 31
0.0
  0
LINE
  5
177
330
1F
100
AcDbEntity
  8
0-2
  6
Continuous
 62
     6
370
     5
100
AcDbLine
 10
35.17268693253806
 20
252.7688102361318
 30
0.0
 11
12.77624049831088
 21
250.2069915204434
 31
0.0
  0
LINE
  5
178
330
1F
100
AcDbEntity
  8
0-2
  6
Continuous
 62
     6
370
     5
100
AcDbLine
 10
35.00217615076017
 20
254.2590907998987
 30
0.0
 11
12.62762814083619
 21
251.6997217384545
 31
0.0
  0
LINE
  5
179
330
1F
100
AcDbEntity
  8
0-2
  6
Continuous
 62
     6
370
     5
100
AcDbLine
 10
-116.359955328864
 20
263.1394585944511
 30
0.0
 11
-87.89846191406251
 21
256.3197696428041
 31
0.0
  0
LINE
  5
17A
330
1F
100
AcDbEntity
  8
0-2
  6
Continuous
 62
     6
370
     5
100
AcDbLine
 10
-116.7094393343539
 20
261.6807266080701
 30
0.0
 11
-88.26939895217485
 21
254.8661596607517
 31
0.0
  0
LINE
  5
17B
330
1F
100
AcDbEntity
  8
0-2
  6
Continuous
 62
     6
370
     5
100
AcDbLine
 10
-110.1040580130912
 20
280.3272720182264
 30
0.0
 11
-83.91769953547298
 21
267.2568077551351
 31
0.0
  0
LINE
  5
17C
330
1F
100
AcDbEntity
  8
0-2
  6
Continuous
 62
     6
370
     5
100
AcDbLine
 10
-109.4341889252534
 20
281.6693856161994
 30
0.0
 11
-83.26750191353462
 21
268.6087199700845
 31
0.0
  0
LINE
  5
17D
330
1F
100
AcDbEntity
  8
0-2
  6
Continuous
 62
     6
370
     5
100
AcDbLine
 10
-111.3727562156884
 20
252.7688102361318
 30
0.0
 11
-88.97630978146118
 21
250.2070657523902
 31
0.0
  0
LINE
  5
17E
330
1F
100
AcDbEntity
  8
0-2
  6
Continuous
 62
     6
370
     5
100
AcDbLine
 10
-111.2022454339105
 20
254.2590907998987
 30
0.0
 11
-88.82769742398649
 21
251.6997959704013
 31
0.0
  0
LINE
  5
17F
330
1F
100
AcDbEntity
  8
0-2
  6
Continuous
 62
     6
370
     5
100
AcDbLine
 10
38.89994721283791
 20
250.7817694844427
 30
0.0
 11
38.89994721283791
 21
244.3875038198523
 31
0.0
  0
LINE
  5
180
330
1F
100
AcDbEntity
  8
0-2
  6
Continuous
 62
     6
370
     5
100
AcDbLine
 10
37.39994226404142
 20
244.3875038198523
 30
0.0
 11
37.39994226404142
 21
250.7817694844427
 31
0.0
  0
LINE
  5
181
330
1F
100
AcDbEntity
  8
0-2
  6
Continuous
 62
     6
370
     5
100
AcDbLine
 10
-79.32066353462835
 20
250.8875500086191
 30
0.0
 11
-83.75342423722547
 21
249.7001357877577
 31
0.0
  0
LINE
  5
182
330
1F
100
AcDbEntity
  8
0-2
  6
Continuous
 62
     6
370
     5
100
AcDbLine
 10
-113.6000115471917
 20
244.3875038198523
 30
0.0
 11
-113.6000115471917
 21
250.7817694844427
 31
0.0
  0
LINE
  5
183
330
1F
100
AcDbEntity
  8
0-2
  6
Continuous
 62
     6
370
     5
100
AcDbLine
 10
-115.1000536119616
 20
250.7817694844427
 30
0.0
 11
-115.1000536119616
 21
244.3875038198523
 31
0.0
  0
LINE
  5
184
330
1F
100
AcDbEntity
  8
0-0
  6
Continuous
 62
     3
370
     9
100
AcDbLine
 10
-157.1000065983952
 20
-94.62059241114437
 30
0.0
 11
-95.97549158044767
 21
-94.62059241114437
 31
0.0
  0
LINE
  5
185
330
1F
100
AcDbEntity
  8
0-0
  6
Continuous
 62
     3
370
     9
100
AcDbLine
 10
19.77542229729736
 20
-94.62059241114437
 30
0.0
 11
80.89986308329813
 21
-94.62059241114437
 31
0.0
  0
LINE
  5
186
330
1F
100
AcDbEntity
  8
0-0
  6
Continuous
 62
     3
370
     9
100
AcDbLine
 10
-136.7836877771326
 20
-123.3322846026034
 30
0.0
 11
-139.1000214447846
 21
-107.0817608549789
 31
0.0
  0
LINE
  5
187
330
1F
100
AcDbEntity
  8
0-0
  6
Continuous
 62
     3
370
     9
100
AcDbLine
 10
-144.6000148463894
 20
-141.6205866375485
 30
0.0
 11
-144.6000148463894
 21
-147.6205693167609
 31
0.0
  0
LINE
  5
188
330
1F
100
AcDbEntity
  8
0-0
  6
Continuous
 62
     3
370
     9
100
AcDbLine
 10
-128.425096336571
 20
-117.420563708125
 30
0.0
 11
-134.7750455289274
 21
-117.420563708125
 31
0.0
  0
LINE
  5
189
330
1F
100
AcDbEntity
  8
0-0
  6
Continuous
 62
     3
370
     9
100
AcDbLine
 10
-128.425096336571
 20
-117.420563708125
 30
0.0
 11
-129.2401631123311
 21
-116.6205660175633
 31
0.0
  0
LINE
  5
18A
330
1F
100
AcDbEntity
  8
0-0
  6
Continuous
 62
     3
370
     9
100
AcDbLine
 10
-133.9601272170608
 20
-116.6205660175633
 30
0.0
 11
-134.7750455289274
 21
-117.420563708125
 31
0.0
  0
LINE
  5
18B
330
1F
100
AcDbEntity
  8
0-0
  6
Continuous
 62
     3
370
     9
100
AcDbLine
 10
-129.2401631123311
 20
-116.6205660175633
 30
0.0
 11
-133.9601272170608
 21
-116.6205660175633
 31
0.0
  0
LINE
  5
18C
330
1F
100
AcDbEntity
  8
0-0
  6
Continuous
 62
     3
370
     9
100
AcDbLine
 10
-136.599963708826
 20
-141.6205866375485
 30
0.0
 11
-144.6000148463894
 21
-141.6205866375485
 31
0.0
  0
LINE
  5
18D
330
1F
100
AcDbEntity
  8
0-0
  6
Continuous
 62
     3
370
     9
100
AcDbLine
 10
-128.5999868032094
 20
-139.620555295171
 30
0.0
 11
-128.5999868032094
 21
-126.6205742655574
 31
0.0
  0
LINE
  5
18E
330
1F
100
AcDbEntity
  8
0-0
  6
Continuous
 62
     3
370
     9
100
AcDbLine
 10
-136.599963708826
 20
-147.6205693167609
 30
0.0
 11
-144.6000148463894
 21
-147.6205693167609
 31
0.0
  0
LINE
  5
18F
330
1F
100
AcDbEntity
  8
0-0
  6
JWW_CENTER1
 62
     3
370
     9
100
AcDbLine
 10
-136.6001121727196
 20
-144.620559419168
 30
0.0
 11
-147.6000247439823
 21
-144.620559419168
 31
0.0
  0
LINE
  5
190
330
1F
100
AcDbEntity
  8
0-0
  6
Continuous
 62
     3
370
     9
100
AcDbLine
 10
-134.6000065983952
 20
-139.620555295171
 30
0.0
 11
-134.6000065983952
 21
-126.6205742655574
 31
0.0
  0
LINE
  5
191
330
1F
100
AcDbEntity
  8
0-0
  6
Continuous
 62
     3
370
     9
100
AcDbLine
 10
-133.9601272170608
 20
-126.6205742655574
 30
0.0
 11
-133.9601272170608
 21
-116.6205660175633
 31
0.0
  0
LINE
  5
192
330
1F
100
AcDbEntity
  8
0-0
  6
Continuous
 62
     3
370
     9
100
AcDbLine
 10
-129.2401631123311
 20
-126.6205742655574
 30
0.0
 11
-129.2401631123311
 21
-116.6205660175633
 31
0.0
  0
LINE
  5
193
330
1F
100
AcDbEntity
  8
0-0
  6
Continuous
 62
     3
370
     9
100
AcDbLine
 10
-128.425096336571
 20
-126.6205742655574
 30
0.0
 11
-128.425096336571
 21
-117.420563708125
 31
0.0
  0
LINE
  5
194
330
1F
100
AcDbEntity
  8
0-0
  6
Continuous
 62
     3
370
     9
100
AcDbLine
 10
-134.7750455289274
 20
-126.6205742655574
 30
0.0
 11
-134.7750455289274
 21
-117.420563708125
 31
0.0
  0
LINE
  5
195
330
1F
100
AcDbEntity
  8
0-0
  6
Continuous
 62
     3
370
     9
100
AcDbLine
 10
-128.425096336571
 20
-126.6205742655574
 30
0.0
 11
-134.7750455289274
 21
-126.6205742655574
 31
0.0
  0
LINE
  5
196
330
1F
100
AcDbEntity
  8
0-0
  6
JWW_CENTER1
 62
     3
370
     9
100
AcDbLine
 10
-131.6000709327491
 20
-113.9741599985071
 30
0.0
 11
-131.6000709327491
 21
-139.620555295171
 31
0.0
  0
LINE
  5
197
330
1F
100
AcDbEntity
  8
0-0
  6
Continuous
 62
     3
370
     9
100
AcDbLine
 10
-134.7750455289274
 20
-124.6206171551266
 30
0.0
 11
-135.2986776815878
 21
-124.6206171551266
 31
0.0
  0
LINE
  5
198
330
1F
100
AcDbEntity
  8
0-0
  6
Continuous
 62
     3
370
     9
100
AcDbLine
 10
-123.014478198902
 20
-124.6206171551266
 30
0.0
 11
-128.425096336571
 21
-124.6206171551266
 31
0.0
  0
LINE
  5
199
330
1F
100
AcDbEntity
  8
0-0
  6
JWW_DASHED1
 62
     3
370
     9
100
AcDbLine
 10
-128.425096336571
 20
-120.4370902138787
 30
0.0
 11
-118.6439238677154
 21
-121.1211376035536
 31
0.0
  0
LINE
  5
19A
330
1F
100
AcDbEntity
  8
0-2
  6
JWW_CENTER1
 62
     6
370
     5
100
AcDbLine
 10
52.89994391364025
 20
-95.72405030018578
 30
0.0
 11
52.89994391364025
 21
-113.8698641132664
 31
0.0
  0
LINE
  5
19B
330
1F
100
AcDbEntity
  8
0-2
  6
Continuous
 62
     6
370
     5
100
AcDbLine
 10
-132.9683884079392
 20
249.3875450598227
 30
0.0
 11
-130.7006766654349
 21
249.3875450598227
 31
0.0
  0
LINE
  5
19C
330
1F
100
AcDbEntity
  8
0-2
  6
Continuous
 62
     6
370
     5
100
AcDbLine
 10
-134.0166177285685
 20
248.3874922726606
 30
0.0
 11
-132.5003930993982
 21
248.3874922726606
 31
0.0
  0
LINE
  5
19D
330
1F
100
AcDbEntity
  8
0-2
  6
Continuous
 62
     6
370
     5
100
AcDbLine
 10
57.81654844541814
 20
248.3874922726606
 30
0.0
 11
56.30036093222134
 21
248.3874922726606
 31
0.0
  0
LINE
  5
19E
330
1F
100
AcDbEntity
  8
0-2
  6
Continuous
 62
     6
370
     5
100
AcDbLine
 10
56.76831912478884
 20
249.3875450598227
 30
0.0
 11
54.50060738228462
 21
249.3875450598227
 31
0.0
  0
LINE
  5
19F
330
1F
100
AcDbEntity
  8
0-0
  6
JWW_CENTER1
 62
     3
370
     9
100
AcDbLine
 10
-38.10003464157514
 20
73.49201497773868
 30
0.0
 11
-38.10003464157514
 21
-202.5006929706883
 31
0.0
  0
LINE
  5
1A0
330
1F
100
AcDbEntity
  8
0-4
  6
Continuous
 62
     7
370
     9
100
AcDbLine
 10
-134.100054436761
 20
98.42151524827281
 30
0.0
 11
57.89998515361064
 21
98.42151524827281
 31
0.0
  0
LINE
  5
1A1
330
1F
100
AcDbEntity
  8
0-4
  6
Continuous
 62
     7
370
     9
100
AcDbLine
 10
-134.100054436761
 20
-94.12071448145687
 30
0.0
 11
-134.100054436761
 21
99.32150337116133
 31
0.0
  0
LINE
  5
1A2
330
1F
100
AcDbEntity
  8
0-4
  6
Continuous
 62
     7
370
     9
100
AcDbLine
 10
57.89998515361064
 20
-94.12071448145687
 30
0.0
 11
57.89998515361064
 21
99.32150337116133
 31
0.0
  0
LINE
  5
1A3
330
1F
100
AcDbEntity
  8
0-4
  6
Continuous
 62
     7
370
     9
100
AcDbLine
 10
-134.100054436761
 20
98.42151524827281
 30
0.0
 11
-126.6642032107791
 21
99.40044904657313
 31
0.0
  0
LINE
  5
1A4
330
1F
100
AcDbEntity
  8
0-4
  6
Continuous
 62
     7
370
     9
100
AcDbLine
 10
-134.100054436761
 20
98.42151524827281
 30
0.0
 11
-126.6642032107791
 21
97.44258144997258
 31
0.0
  0
LINE
  5
1A5
330
1F
100
AcDbEntity
  8
0-4
  6
Continuous
 62
     7
370
     9
100
AcDbLine
 10
57.89998515361064
 20
98.42151524827281
 30
0.0
 11
50.4641710436022
 21
99.40044904657313
 31
0.0
  0
LINE
  5
1A6
330
1F
100
AcDbEntity
  8
0-4
  6
Continuous
 62
     7
370
     9
100
AcDbLine
 10
57.89998515361064
 20
98.42151524827281
 30
0.0
 11
50.4641710436022
 21
97.44258144997258
 31
0.0
  0
LINE
  5
1A7
330
1F
100
AcDbEntity
  8
0-4
  6
Continuous
 62
     7
370
     9
100
AcDbLine
 10
-136.6000379407728
 20
122.4215201970693
 30
0.0
 11
60.39996865762252
 21
122.4215201970693
 31
0.0
  0
LINE
  5
1A8
330
1F
100
AcDbEntity
  8
0-4
  6
Continuous
 62
     7
370
     9
100
AcDbLine
 10
-136.6000379407728
 20
-87.1205676671621
 30
0.0
 11
-136.6000379407728
 21
123.3215083199578
 31
0.0
  0
LINE
  5
1A9
330
1F
100
AcDbEntity
  8
0-4
  6
Continuous
 62
     7
370
     9
100
AcDbLine
 10
60.39996865762252
 20
-87.1205676671621
 30
0.0
 11
60.39996865762252
 21
123.3215083199578
 31
0.0
  0
LINE
  5
1AA
330
1F
100
AcDbEntity
  8
0-4
  6
Continuous
 62
     7
370
     9
100
AcDbLine
 10
-136.6000379407728
 20
122.4215201970693
 30
0.0
 11
-129.164186714791
 21
123.4004539953695
 31
0.0
  0
LINE
  5
1AB
330
1F
100
AcDbEntity
  8
0-4
  6
Continuous
 62
     7
370
     9
100
AcDbLine
 10
-136.6000379407728
 20
122.4215201970693
 30
0.0
 11
-129.164186714791
 21
121.4425863987691
 31
0.0
  0
LINE
  5
1AC
330
1F
100
AcDbEntity
  8
0-4
  6
Continuous
 62
     7
370
     9
100
AcDbLine
 10
60.39996865762252
 20
122.4215201970693
 30
0.0
 11
52.96415454761408
 21
123.4004539953695
 31
0.0
  0
LINE
  5
1AD
330
1F
100
AcDbEntity
  8
0-4
  6
Continuous
 62
     7
370
     9
100
AcDbLine
 10
60.39996865762252
 20
122.4215201970693
 30
0.0
 11
52.96415454761408
 21
121.4425863987691
 31
0.0
  0
LINE
  5
1AE
330
1F
100
AcDbEntity
  8
0-4
  6
Continuous
 62
     7
370
     9
100
AcDbLine
 10
-158.1000593855574
 20
146.4215251458658
 30
0.0
 11
81.89991587046032
 21
146.4215251458658
 31
0.0
  0
LINE
  5
1AF
330
1F
100
AcDbEntity
  8
0-4
  6
Continuous
 62
     7
370
     9
100
AcDbLine
 10
-158.1000593855574
 20
-95.12061880472547
 30
0.0
 11
-158.1000593855574
 21
147.3215132687543
 31
0.0
  0
LINE
  5
1B0
330
1F
100
AcDbEntity
  8
0-4
  6
Continuous
 62
     7
370
     9
100
AcDbLine
 10
81.89991587046032
 20
-95.12061880472547
 30
0.0
 11
81.89991587046032
 21
147.3215132687543
 31
0.0
  0
LINE
  5
1B1
330
1F
100
AcDbEntity
  8
0-4
  6
Continuous
 62
     7
370
     9
100
AcDbLine
 10
-158.1000593855574
 20
146.4215251458658
 30
0.0
 11
-150.6642081595757
 21
147.400458944166
 31
0.0
  0
LINE
  5
1B2
330
1F
100
AcDbEntity
  8
0-4
  6
Continuous
 62
     7
370
     9
100
AcDbLine
 10
-158.1000593855574
 20
146.4215251458658
 30
0.0
 11
-150.6642081595757
 21
145.4425913475655
 31
0.0
  0
LINE
  5
1B3
330
1F
100
AcDbEntity
  8
0-4
  6
Continuous
 62
     7
370
     9
100
AcDbLine
 10
81.89991587046032
 20
146.4215251458658
 30
0.0
 11
74.46410176045188
 21
147.400458944166
 31
0.0
  0
LINE
  5
1B4
330
1F
100
AcDbEntity
  8
0-4
  6
Continuous
 62
     7
370
     9
100
AcDbLine
 10
81.89991587046032
 20
146.4215251458658
 30
0.0
 11
74.46410176045188
 21
145.4425913475655
 31
0.0
  0
LINE
  5
1B5
330
1F
100
AcDbEntity
  8
0-4
  6
Continuous
 62
     7
370
     9
100
AcDbLine
 10
-105.7883610905827
 20
-224.6206254031208
 30
0.0
 11
29.58821757548564
 21
-224.6206254031208
 31
0.0
  0
LINE
  5
1B6
330
1F
100
AcDbEntity
  8
0-4
  6
Continuous
 62
     7
370
     9
100
AcDbLine
 10
-105.7883610905827
 20
-160.5939381934501
 30
0.0
 11
-105.7883610905827
 21
-225.5206506419827
 31
0.0
  0
LINE
  5
1B7
330
1F
100
AcDbEntity
  8
0-4
  6
Continuous
 62
     7
370
     9
100
AcDbLine
 10
29.58821757548564
 20
-160.5939381934501
 30
0.0
 11
29.58821757548564
 21
-225.5206506419827
 31
0.0
  0
LINE
  5
1B8
330
1F
100
AcDbEntity
  8
0-4
  6
Continuous
 62
     7
370
     9
100
AcDbLine
 10
-105.7883610905827
 20
-224.6206254031208
 30
0.0
 11
-98.35250986460095
 21
-223.6416916048205
 31
0.0
  0
LINE
  5
1B9
330
1F
100
AcDbEntity
  8
0-4
  6
Continuous
 62
     7
370
     9
100
AcDbLine
 10
-105.7883610905827
 20
-224.6206254031208
 30
0.0
 11
-98.35250986460095
 21
-225.5995963173944
 31
0.0
  0
LINE
  5
1BA
330
1F
100
AcDbEntity
  8
0-4
  6
Continuous
 62
     7
370
     9
100
AcDbLine
 10
29.58821757548564
 20
-224.6206254031208
 30
0.0
 11
22.1524034654772
 21
-223.6416916048205
 31
0.0
  0
LINE
  5
1BB
330
1F
100
AcDbEntity
  8
0-4
  6
Continuous
 62
     7
370
     9
100
AcDbLine
 10
29.58821757548564
 20
-224.6206254031208
 30
0.0
 11
22.1524034654772
 21
-225.5995963173944
 31
0.0
  0
LINE
  5
1BC
330
1F
100
AcDbEntity
  8
0-4
  6
Continuous
 62
     7
370
     9
100
AcDbLine
 10
-120.6000841295397
 20
-248.6206303519172
 30
0.0
 11
44.39994061444259
 21
-248.6206303519172
 31
0.0
  0
LINE
  5
1BD
330
1F
100
AcDbEntity
  8
0-4
  6
Continuous
 62
     7
370
     9
100
AcDbLine
 10
-120.6000841295397
 20
-202.1206254031208
 30
0.0
 11
-120.6000841295397
 21
-249.5206184748057
 31
0.0
  0
LINE
  5
1BE
330
1F
100
AcDbEntity
  8
0-4
  6
Continuous
 62
     7
370
     9
100
AcDbLine
 10
44.39994061444259
 20
-202.1206254031208
 30
0.0
 11
44.39994061444259
 21
-249.5206184748057
 31
0.0
  0
LINE
  5
1BF
330
1F
100
AcDbEntity
  8
0-4
  6
Continuous
 62
     7
370
     9
100
AcDbLine
 10
-120.6000841295397
 20
-248.6206303519172
 30
0.0
 11
-113.1642329035578
 21
-247.641696553617
 31
0.0
  0
LINE
  5
1C0
330
1F
100
AcDbEntity
  8
0-4
  6
Continuous
 62
     7
370
     9
100
AcDbLine
 10
-120.6000841295397
 20
-248.6206303519172
 30
0.0
 11
-113.1642329035578
 21
-249.5996012661909
 31
0.0
  0
LINE
  5
1C1
330
1F
100
AcDbEntity
  8
0-4
  6
Continuous
 62
     7
370
     9
100
AcDbLine
 10
44.39994061444259
 20
-248.6206303519172
 30
0.0
 11
36.96412650443416
 21
-247.641696553617
 31
0.0
  0
LINE
  5
1C2
330
1F
100
AcDbEntity
  8
0-4
  6
Continuous
 62
     7
370
     9
100
AcDbLine
 10
44.39994061444259
 20
-248.6206303519172
 30
0.0
 11
36.96412650443416
 21
-249.5996012661909
 31
0.0
  0
LINE
  5
1C3
330
1F
100
AcDbEntity
  8
0-4
  6
Continuous
 62
     7
370
     9
100
AcDbLine
 10
111.8999406144426
 20
-134.6206254031208
 30
0.0
 11
111.8999406144426
 21
-94.62059241114437
 31
0.0
  0
LINE
  5
1C4
330
1F
100
AcDbEntity
  8
0-4
  6
Continuous
 62
     7
370
     9
100
AcDbLine
 10
51.89996535842486
 20
-134.6206254031208
 30
0.0
 11
112.7999287373311
 21
-134.6206254031208
 31
0.0
  0
LINE
  5
1C5
330
1F
100
AcDbEntity
  8
0-4
  6
Continuous
 62
     7
370
     9
100
AcDbLine
 10
88.3998878272804
 20
-94.62059241114437
 30
0.0
 11
136.7999336861276
 21
-94.62059241114437
 31
0.0
  0
LINE
  5
1C6
330
1F
100
AcDbEntity
  8
0-4
  6
Continuous
 62
     7
370
     9
100
AcDbLine
 10
111.8999406144426
 20
-134.6206254031208
 30
0.0
 11
110.9209697001689
 21
-127.1848112931123
 31
0.0
  0
LINE
  5
1C7
330
1F
100
AcDbEntity
  8
0-4
  6
Continuous
 62
     7
370
     9
100
AcDbLine
 10
111.8999406144426
 20
-134.6206254031208
 30
0.0
 11
112.8789115287162
 21
-127.1848112931123
 31
0.0
  0
LINE
  5
1C8
330
1F
100
AcDbEntity
  8
0-4
  6
Continuous
 62
     7
370
     9
100
AcDbLine
 10
111.8999406144426
 20
-94.62059241114437
 30
0.0
 11
110.9209697001689
 21
-102.0564065211529
 31
0.0
  0
LINE
  5
1C9
330
1F
100
AcDbEntity
  8
0-4
  6
Continuous
 62
     7
370
     9
100
AcDbLine
 10
111.8999406144426
 20
-94.62059241114437
 30
0.0
 11
112.8789115287162
 21
-102.0564065211529
 31
0.0
  0
LINE
  5
1CA
330
1F
100
AcDbEntity
  8
0-4
  6
Continuous
 62
     7
370
     9
100
AcDbLine
 10
135.899945563239
 20
-194.6206377751119
 30
0.0
 11
135.899945563239
 21
-94.62059241114437
 31
0.0
  0
LINE
  5
1CB
330
1F
100
AcDbEntity
  8
0-4
  6
Continuous
 62
     7
370
     9
100
AcDbLine
 10
51.89996535842486
 20
-194.6206377751119
 30
0.0
 11
136.7999336861276
 21
-194.6206377751119
 31
0.0
  0
LINE
  5
1CC
330
1F
100
AcDbEntity
  8
0-4
  6
Continuous
 62
     7
370
     9
100
AcDbLine
 10
135.899945563239
 20
-194.6206377751119
 30
0.0
 11
134.9209746489654
 21
-187.18478654913
 31
0.0
  0
LINE
  5
1CD
330
1F
100
AcDbEntity
  8
0-4
  6
Continuous
 62
     7
370
     9
100
AcDbLine
 10
135.899945563239
 20
-194.6206377751119
 30
0.0
 11
136.8789164775126
 21
-187.18478654913
 31
0.0
  0
LINE
  5
1CE
330
1F
100
AcDbEntity
  8
0-4
  6
Continuous
 62
     7
370
     9
100
AcDbLine
 10
135.899945563239
 20
-94.62059241114437
 30
0.0
 11
134.9209746489654
 21
-102.0564065211529
 31
0.0
  0
LINE
  5
1CF
330
1F
100
AcDbEntity
  8
0-4
  6
Continuous
 62
     7
370
     9
100
AcDbLine
 10
135.899945563239
 20
-94.62059241114437
 30
0.0
 11
136.8789164775126
 21
-102.0564065211529
 31
0.0
  0
LINE
  5
1D0
330
1F
100
AcDbEntity
  8
0-4
  6
Continuous
 62
     7
370
     9
100
AcDbLine
 10
135.899945563239
 20
-94.62059241114437
 30
0.0
 11
135.899945563239
 21
68.42152762026399
 31
0.0
  0
LINE
  5
1D1
330
1F
100
AcDbEntity
  8
0-4
  6
Continuous
 62
     7
370
     9
100
AcDbLine
 10
135.899945563239
 20
-94.62059241114437
 30
0.0
 11
134.9209746489654
 21
-87.18474118516254
 31
0.0
  0
LINE
  5
1D2
330
1F
100
AcDbEntity
  8
0-4
  6
Continuous
 62
     7
370
     9
100
AcDbLine
 10
135.899945563239
 20
-94.62059241114437
 30
0.0
 11
136.8789164775126
 21
-87.18474118516254
 31
0.0
  0
LINE
  5
1D3
330
1F
100
AcDbEntity
  8
0-4
  6
Continuous
 62
     7
370
     9
100
AcDbLine
 10
135.899945563239
 20
68.42152762026399
 30
0.0
 11
134.9209746489654
 21
60.98567639428211
 31
0.0
  0
LINE
  5
1D4
330
1F
100
AcDbEntity
  8
0-4
  6
Continuous
 62
     7
370
     9
100
AcDbLine
 10
135.899945563239
 20
68.42152762026399
 30
0.0
 11
136.8789164775126
 21
60.98567639428211
 31
0.0
  0
LINE
  5
1D5
330
1F
100
AcDbEntity
  8
0-4
  6
Continuous
 62
     7
370
     9
100
AcDbLine
 10
-188.1000470135663
 20
-107.6206476727048
 30
0.0
 11
-188.1000470135663
 21
68.42152762026399
 31
0.0
  0
LINE
  5
1D6
330
1F
100
AcDbEntity
  8
0-4
  6
Continuous
 62
     7
370
     9
100
AcDbLine
 10
-141.1766972722234
 20
-107.6206476727048
 30
0.0
 11
-189.0000351364549
 21
-107.6206476727048
 31
0.0
  0
LINE
  5
1D7
330
1F
100
AcDbEntity
  8
0-4
  6
Continuous
 62
     7
370
     9
100
AcDbLine
 10
-188.1000470135663
 20
-107.6206476727048
 30
0.0
 11
-189.0789808118666
 21
-100.1847964467229
 31
0.0
  0
LINE
  5
1D8
330
1F
100
AcDbEntity
  8
0-4
  6
Continuous
 62
     7
370
     9
100
AcDbLine
 10
-188.1000470135663
 20
-107.6206476727048
 30
0.0
 11
-187.121113215266
 21
-100.1847964467229
 31
0.0
  0
LINE
  5
1D9
330
1F
100
AcDbEntity
  8
0-4
  6
Continuous
 62
     7
370
     9
100
AcDbLine
 10
-188.1000470135663
 20
68.42152762026399
 30
0.0
 11
-189.0789808118666
 21
60.98567639428211
 31
0.0
  0
LINE
  5
1DA
330
1F
100
AcDbEntity
  8
0-4
  6
Continuous
 62
     7
370
     9
100
AcDbLine
 10
-188.1000470135663
 20
68.42152762026399
 30
0.0
 11
-187.121113215266
 21
60.98567639428211
 31
0.0
  0
LINE
  5
1DB
330
1F
100
AcDbEntity
  8
0-4
  6
Continuous
 62
     7
370
     9
100
AcDbLine
 10
-13.10005113756335
 20
68.42152762026399
 30
0.0
 11
136.7999336861276
 21
68.42152762026399
 31
0.0
  0
LINE
  5
1DC
330
1F
100
AcDbEntity
  8
0-4
  6
Continuous
 62
     7
370
     9
100
AcDbLine
 10
-63.10001814558694
 20
68.42152762026399
 30
0.0
 11
-189.0000351364549
 21
68.42152762026399
 31
0.0
  0
ARC
  5
1DD
330
1F
100
AcDbEntity
  8
0-0
  6
Continuous
 62
     3
370
     9
100
AcDbCircle
 10
-150.0090741131757
 20
-112.3716036152196
 30
0.0
 40
10.99999956182532
100
AcDbArc
 50
71.99996948242188
 51
117.5689697265625
  0
ARC
  5
1DE
330
1F
100
AcDbEntity
  8
0-0
  6
Continuous
 62
     3
370
     9
100
AcDbCircle
 10
-142.8848857157939
 20
-95.76005279437918
 30
0.0
 40
3.000000038662472
100
AcDbArc
 50
252.0001525878906
 51
348.7693023681641
  0
ARC
  5
1DF
330
1F
100
AcDbEntity
  8
0-0
  6
Continuous
 62
     3
370
     9
100
AcDbCircle
 10
-142.1940832189612
 20
-106.4991885365667
 30
0.0
 40
3.000000038662472
100
AcDbArc
 50
7.000427246093752
 51
72.00015258789062
  0
ARC
  5
1E0
330
1F
100
AcDbEntity
  8
0-0
  6
Continuous
 62
     3
370
     9
100
AcDbCircle
 10
-131.6662858292863
 20
-110.1860666378125
 30
0.0
 40
3.000000038662472
100
AcDbArc
 50
187.0000762939453
 51
266.0001831054688
  0
ARC
  5
1E1
330
1F
100
AcDbEntity
  8
0-0
  6
JWW_PHANTOM2
 62
     3
370
     9
100
AcDbCircle
 10
-133.6767096442146
 20
-106.1206427239083
 30
0.0
 40
1.500000019331236
100
AcDbArc
 50
187.001220703125
 51
270.0
  0
ARC
  5
1E2
330
1F
100
AcDbEntity
  8
0-0
  6
Continuous
 62
     3
370
     9
100
AcDbCircle
 10
-38.10003464157514
 20
244.3875038198523
 30
0.0
 40
98.50000329919763
100
AcDbArc
 50
3.055267333984376
 51
16.94471740722657
  0
ARC
  5
1E3
330
1F
100
AcDbEntity
  8
0-0
  6
Continuous
 62
     3
370
     9
100
AcDbCircle
 10
-38.10003464157514
 20
244.3875038198523
 30
0.0
 40
101.5000039177972
100
AcDbArc
 50
2.964889526367188
 51
17.03507995605469
  0
ARC
  5
1E4
330
1F
100
AcDbEntity
  8
0-0
  6
Continuous
 62
     3
370
     9
100
AcDbCircle
 10
-38.10003464157514
 20
244.3875038198523
 30
0.0
 40
102.5000659839527
100
AcDbArc
 50
1.537384033203125
 51
18.46260070800781
  0
ARC
  5
1E5
330
1F
100
AcDbEntity
  8
0-0
  6
Continuous
 62
     3
370
     9
100
AcDbCircle
 10
-38.10003464157514
 20
244.3875038198523
 30
0.0
 40
98.50000329919763
100
AcDbArc
 50
23.05526733398438
 51
36.94471740722656
  0
ARC
  5
1E6
330
1F
100
AcDbEntity
  8
0-0
  6
Continuous
 62
     3
370
     9
100
AcDbCircle
 10
-38.10003464157514
 20
244.3875038198523
 30
0.0
 40
101.5000039177972
100
AcDbArc
 50
22.96488952636719
 51
37.03507995605469
  0
ARC
  5
1E7
330
1F
100
AcDbEntity
  8
0-0
  6
Continuous
 62
     3
370
     9
100
AcDbCircle
 10
-38.10003464157514
 20
244.3875038198523
 30
0.0
 40
102.5000659839527
100
AcDbArc
 50
21.53738403320312
 51
38.46260070800781
  0
ARC
  5
1E8
330
1F
100
AcDbEntity
  8
0-0
  6
Continuous
 62
     3
370
     9
100
AcDbCircle
 10
-38.10003464157514
 20
244.3875038198523
 30
0.0
 40
97.68968736803208
100
AcDbArc
 50
18.38688659667969
 51
21.61311340332032
  0
ARC
  5
1E9
330
1F
100
AcDbEntity
  8
0-0
  6
Continuous
 62
     3
370
     9
100
AcDbCircle
 10
-38.10003464157514
 20
244.3875038198523
 30
0.0
 40
98.50000329919763
100
AcDbArc
 50
43.05526733398438
 51
56.94471740722656
  0
ARC
  5
1EA
330
1F
100
AcDbEntity
  8
0-0
  6
Continuous
 62
     3
370
     9
100
AcDbCircle
 10
-38.10003464157514
 20
244.3875038198523
 30
0.0
 40
101.5000039177972
100
AcDbArc
 50
42.96488952636719
 51
57.03507995605469
  0
ARC
  5
1EB
330
1F
100
AcDbEntity
  8
0-0
  6
Continuous
 62
     3
370
     9
100
AcDbCircle
 10
-38.10003464157514
 20
244.3875038198523
 30
0.0
 40
102.5000659839527
100
AcDbArc
 50
41.53738403320312
 51
58.46260070800781
  0
ARC
  5
1EC
330
1F
100
AcDbEntity
  8
0-0
  6
Continuous
 62
     3
370
     9
100
AcDbCircle
 10
-38.10003464157514
 20
244.3875038198523
 30
0.0
 40
97.68968736803208
100
AcDbArc
 50
38.38688659667969
 51
41.61311340332031
  0
ARC
  5
1ED
330
1F
100
AcDbEntity
  8
0-0
  6
Continuous
 62
     3
370
     9
100
AcDbCircle
 10
-38.10003464157514
 20
244.3875038198523
 30
0.0
 40
98.50000329919763
100
AcDbArc
 50
63.05526733398437
 51
76.94471740722655
  0
ARC
  5
1EE
330
1F
100
AcDbEntity
  8
0-0
  6
Continuous
 62
     3
370
     9
100
AcDbCircle
 10
-38.10003464157514
 20
244.3875038198523
 30
0.0
 40
101.5000039177972
100
AcDbArc
 50
62.96488952636717
 51
77.03507995605469
  0
ARC
  5
1EF
330
1F
100
AcDbEntity
  8
0-0
  6
Continuous
 62
     3
370
     9
100
AcDbCircle
 10
-38.10003464157514
 20
244.3875038198523
 30
0.0
 40
102.5000659839527
100
AcDbArc
 50
61.53738403320312
 51
78.46260070800781
  0
ARC
  5
1F0
330
1F
100
AcDbEntity
  8
0-0
  6
Continuous
 62
     3
370
     9
100
AcDbCircle
 10
-38.10003464157514
 20
244.3875038198523
 30
0.0
 40
97.68968736803208
100
AcDbArc
 50
58.38688659667969
 51
61.61311340332032
  0
ARC
  5
1F1
330
1F
100
AcDbEntity
  8
0-0
  6
Continuous
 62
     3
370
     9
100
AcDbCircle
 10
-38.10003464157514
 20
244.3875038198523
 30
0.0
 40
98.50000329919763
100
AcDbArc
 50
83.05526733398438
 51
96.94471740722655
  0
ARC
  5
1F2
330
1F
100
AcDbEntity
  8
0-0
  6
Continuous
 62
     3
370
     9
100
AcDbCircle
 10
-38.10003464157514
 20
244.3875038198523
 30
0.0
 40
101.5000039177972
100
AcDbArc
 50
82.96488952636719
 51
97.03507995605469
  0
ARC
  5
1F3
330
1F
100
AcDbEntity
  8
0-0
  6
Continuous
 62
     3
370
     9
100
AcDbCircle
 10
-38.10003464157514
 20
244.3875038198523
 30
0.0
 40
102.5000659839527
100
AcDbArc
 50
81.53738403320312
 51
98.46260070800781
  0
ARC
  5
1F4
330
1F
100
AcDbEntity
  8
0-0
  6
Continuous
 62
     3
370
     9
100
AcDbCircle
 10
-38.10003464157514
 20
244.3875038198523
 30
0.0
 40
97.68968736803208
100
AcDbArc
 50
78.3868865966797
 51
81.61311340332031
  0
ARC
  5
1F5
330
1F
100
AcDbEntity
  8
0-0
  6
Continuous
 62
     3
370
     9
100
AcDbCircle
 10
-38.10003464157514
 20
244.3875038198523
 30
0.0
 40
98.50000329919763
100
AcDbArc
 50
103.0552673339844
 51
116.9447174072266
  0
ARC
  5
1F6
330
1F
100
AcDbEntity
  8
0-0
  6
Continuous
 62
     3
370
     9
100
AcDbCircle
 10
-38.10003464157514
 20
244.3875038198523
 30
0.0
 40
101.5000039177972
100
AcDbArc
 50
102.9648895263672
 51
117.0350799560547
  0
ARC
  5
1F7
330
1F
100
AcDbEntity
  8
0-0
  6
Continuous
 62
     3
370
     9
100
AcDbCircle
 10
-38.10003464157514
 20
244.3875038198523
 30
0.0
 40
102.5000659839527
100
AcDbArc
 50
101.5373840332031
 51
118.4626007080078
  0
ARC
  5
1F8
330
1F
100
AcDbEntity
  8
0-0
  6
Continuous
 62
     3
370
     9
100
AcDbCircle
 10
-38.10003464157514
 20
244.3875038198523
 30
0.0
 40
97.68968736803208
100
AcDbArc
 50
98.38688659667972
 51
101.6131134033203
  0
ARC
  5
1F9
330
1F
100
AcDbEntity
  8
0-0
  6
Continuous
 62
     3
370
     9
100
AcDbCircle
 10
-38.10003464157514
 20
244.3875038198523
 30
0.0
 40
98.50000329919763
100
AcDbArc
 50
123.0552673339844
 51
136.9447174072266
  0
ARC
  5
1FA
330
1F
100
AcDbEntity
  8
0-0
  6
Continuous
 62
     3
370
     9
100
AcDbCircle
 10
-38.10003464157514
 20
244.3875038198523
 30
0.0
 40
101.5000039177972
100
AcDbArc
 50
122.9648895263672
 51
137.0350799560547
  0
ARC
  5
1FB
330
1F
100
AcDbEntity
  8
0-0
  6
Continuous
 62
     3
370
     9
100
AcDbCircle
 10
-38.10003464157514
 20
244.3875038198523
 30
0.0
 40
102.5000659839527
100
AcDbArc
 50
121.5373840332031
 51
138.4626007080078
  0
ARC
  5
1FC
330
1F
100
AcDbEntity
  8
0-0
  6
Continuous
 62
     3
370
     9
100
AcDbCircle
 10
-38.10003464157514
 20
244.3875038198523
 30
0.0
 40
97.68968736803208
100
AcDbArc
 50
118.3868865966797
 51
121.6131134033203
  0
ARC
  5
1FD
330
1F
100
AcDbEntity
  8
0-0
  6
Continuous
 62
     3
370
     9
100
AcDbCircle
 10
-38.10003464157514
 20
244.3875038198523
 30
0.0
 40
98.50000329919763
100
AcDbArc
 50
143.0552673339844
 51
156.9447174072266
  0
ARC
  5
1FE
330
1F
100
AcDbEntity
  8
0-0
  6
Continuous
 62
     3
370
     9
100
AcDbCircle
 10
-38.10003464157514
 20
244.3875038198523
 30
0.0
 40
101.5000039177972
100
AcDbArc
 50
142.9648895263672
 51
157.0350799560547
  0
ARC
  5
1FF
330
1F
100
AcDbEntity
  8
0-0
  6
Continuous
 62
     3
370
     9
100
AcDbCircle
 10
-38.10003464157514
 20
244.3875038198523
 30
0.0
 40
102.5000659839527
100
AcDbArc
 50
141.5373840332031
 51
158.4626007080078
  0
ARC
  5
200
330
1F
100
AcDbEntity
  8
0-0
  6
Continuous
 62
     3
370
     9
100
AcDbCircle
 10
-38.10003464157514
 20
244.3875038198523
 30
0.0
 40
97.68968736803208
100
AcDbArc
 50
138.3868865966797
 51
141.6131134033203
  0
ARC
  5
201
330
1F
100
AcDbEntity
  8
0-0
  6
Continuous
 62
     3
370
     9
100
AcDbCircle
 10
-38.10003464157514
 20
244.3875038198523
 30
0.0
 40
98.50000329919763
100
AcDbArc
 50
163.0552673339844
 51
176.9447174072266
  0
ARC
  5
202
330
1F
100
AcDbEntity
  8
0-0
  6
Continuous
 62
     3
370
     9
100
AcDbCircle
 10
-38.10003464157514
 20
244.3875038198523
 30
0.0
 40
101.5000039177972
100
AcDbArc
 50
162.9648895263672
 51
177.0350799560547
  0
ARC
  5
203
330
1F
100
AcDbEntity
  8
0-0
  6
Continuous
 62
     3
370
     9
100
AcDbCircle
 10
-38.10003464157514
 20
244.3875038198523
 30
0.0
 40
102.5000659839527
100
AcDbArc
 50
161.5373840332031
 51
178.4626007080078
  0
ARC
  5
204
330
1F
100
AcDbEntity
  8
0-0
  6
Continuous
 62
     3
370
     9
100
AcDbCircle
 10
-38.10003464157514
 20
244.3875038198523
 30
0.0
 40
97.68968736803208
100
AcDbArc
 50
158.3868865966797
 51
161.6131134033203
  0
ARC
  5
205
330
1F
100
AcDbEntity
  8
0-0
  6
Continuous
 62
     3
370
     9
100
AcDbCircle
 10
-38.10003464157514
 20
244.3875038198523
 30
0.0
 40
97.68968736803208
100
AcDbArc
 50
178.3868865966797
 51
180.0
  0
ARC
  5
206
330
1F
100
AcDbEntity
  8
0-0
  6
Continuous
 62
     3
370
     9
100
AcDbCircle
 10
-38.10003464157514
 20
244.3875038198523
 30
0.0
 40
96.24246133340372
100
AcDbArc
 50
0.0
 51
180.0
  0
ARC
  5
207
330
1F
100
AcDbEntity
  8
0-0
  6
Continuous
 62
     3
370
     9
100
AcDbCircle
 10
-38.10003464157514
 20
244.3875038198523
 30
0.0
 40
97.68968736803208
100
AcDbArc
 50
0.0
 51
1.613113403320313
  0
ARC
  5
208
330
1F
100
AcDbEntity
  8
0-0
  6
Continuous
 62
     3
370
     9
100
AcDbCircle
 10
-38.10003464157514
 20
244.3875038198523
 30
0.0
 40
118.9999997938002
100
AcDbArc
 50
0.0
 51
180.0
  0
ARC
  5
209
330
1F
100
AcDbEntity
  8
0-0
  6
Continuous
 62
     3
370
     9
100
AcDbCircle
 10
-38.10003464157514
 20
244.3875038198523
 30
0.0
 40
119.9999969070022
100
AcDbArc
 50
0.0
 51
180.0
  0
ARC
  5
20A
330
1F
100
AcDbEntity
  8
0-0
  6
JWW_DASHED1
 62
     3
370
     9
100
AcDbCircle
 10
-118.8532579576647
 20
-124.1137243064675
 30
0.0
 40
3.000000038662472
100
AcDbArc
 50
2.4544677734375
 51
85.99945068359375
  0
ARC
  5
20B
330
1F
100
AcDbEntity
  8
0-0
  6
Continuous
 62
     3
370
     9
100
AcDbCircle
 10
-123.014478198902
 20
-126.1206221039231
 30
0.0
 40
1.500000019331236
100
AcDbArc
 50
3.366912841796875
 51
90.0
  0
ARC
  5
20C
330
1F
100
AcDbEntity
  8
0-0
  6
Continuous
 62
     3
370
     9
100
AcDbCircle
 10
-131.2938641522382
 20
-113.2193695635409
 30
0.0
 40
7.000000090212435
100
AcDbArc
 50
187.0000610351562
 51
199.5095520019532
  0
ARC
  5
20D
330
1F
100
AcDbEntity
  8
0-0
  6
Continuous
 62
     3
370
     9
100
AcDbCircle
 10
-119.1857057313661
 20
-133.1206204543243
 30
0.0
 40
1.500000019331236
100
AcDbArc
 50
183.3669128417969
 51
270.0
  0
ARC
  5
20E
330
1F
100
AcDbEntity
  8
0-0
  6
Continuous
 62
     3
370
     9
100
AcDbCircle
 10
-111.6975952148438
 20
-152.6206476727048
 30
0.0
 40
2.000000025774982
100
AcDbArc
 50
182.8625183105469
 51
270.0
  0
ARC
  5
20F
330
1F
100
AcDbEntity
  8
0-0
  6
Continuous
 62
     3
370
     9
100
AcDbCircle
 10
73.8089305980786
 20
-112.3716036152196
 30
0.0
 40
10.99999956182532
100
AcDbArc
 50
62.43103027343751
 51
108.0000305175781
  0
ARC
  5
210
330
1F
100
AcDbEntity
  8
0-0
  6
Continuous
 62
     3
370
     9
100
AcDbCircle
 10
66.6848164326436
 20
-95.76005279437918
 30
0.0
 40
3.000000038662472
100
AcDbArc
 50
191.2306976318359
 51
287.9998474121094
  0
ARC
  5
211
330
1F
100
AcDbEntity
  8
0-0
  6
Continuous
 62
     3
370
     9
100
AcDbCircle
 10
65.99401393581087
 20
-106.4991885365667
 30
0.0
 40
3.000000038662472
100
AcDbArc
 50
107.9998474121094
 51
172.9995727539063
  0
ARC
  5
212
330
1F
100
AcDbEntity
  8
0-0
  6
JWW_DASHED1
 62
     3
370
     9
100
AcDbCircle
 10
55.46621654613603
 20
-110.1860666378125
 30
0.0
 40
3.000000038662472
100
AcDbArc
 50
273.9998168945312
 51
352.9999237060547
  0
ARC
  5
213
330
1F
100
AcDbEntity
  8
0-0
  6
Continuous
 62
     3
370
     9
100
AcDbCircle
 10
47.00177034945103
 20
-109.1206155055279
 30
0.0
 40
1.500000019331236
100
AcDbArc
 50
90.0
 51
162.5982818603515
  0
ARC
  5
214
330
1F
100
AcDbEntity
  8
0-0
  6
Continuous
 62
     3
370
     9
100
AcDbCircle
 10
42.77455790751689
 20
-112.5772261078294
 30
0.0
 40
1.500000019331236
100
AcDbArc
 50
274.001220703125
 51
342.5982818603516
  0
ARC
  5
215
330
1F
100
AcDbEntity
  8
0-0
  6
Continuous
 62
     3
370
     9
100
AcDbCircle
 10
57.47664036106423
 20
-106.1206427239083
 30
0.0
 40
1.500000019331236
100
AcDbArc
 50
270.0
 51
352.9987792968749
  0
ARC
  5
216
330
1F
100
AcDbEntity
  8
0-0
  6
Continuous
 62
     3
370
     9
100
AcDbCircle
 10
42.65318867451439
 20
-124.1137243064675
 30
0.0
 40
3.000000038662472
100
AcDbArc
 50
94.00054931640626
 51
177.5455322265625
  0
ARC
  5
217
330
1F
100
AcDbEntity
  8
0-0
  6
Continuous
 62
     3
370
     9
100
AcDbCircle
 10
55.09372063714111
 20
-113.2193695635409
 30
0.0
 40
7.000000090212435
100
AcDbArc
 50
340.4904479980469
 51
352.9999389648438
  0
ARC
  5
218
330
1F
100
AcDbEntity
  8
0-0
  6
Continuous
 62
     3
370
     9
100
AcDbCircle
 10
55.09372063714111
 20
-113.2193695635409
 30
0.0
 40
7.000000090212435
100
AcDbArc
 50
274.0000152587891
 51
340.4904479980469
  0
ARC
  5
219
330
1F
100
AcDbEntity
  8
0-0
  6
Continuous
 62
     3
370
     9
100
AcDbCircle
 10
35.49752593169345
 20
-152.6206476727048
 30
0.0
 40
2.000000025774982
100
AcDbArc
 50
270.0
 51
357.1374816894531
  0
ARC
  5
21A
330
1F
100
AcDbEntity
  8
0-0
  6
Continuous
 62
     3
370
     9
100
AcDbCircle
 10
-104.4662530022699
 20
-116.0977875322909
 30
0.0
 40
1.000000012887491
100
AcDbArc
 50
8.793853759765627
 51
85.99877929687501
  0
ARC
  5
21B
330
1F
100
AcDbEntity
  8
0-0
  6
Continuous
 62
     3
370
     9
100
AcDbCircle
 10
28.2661466031461
 20
-116.0977875322909
 30
0.0
 40
1.000000012887491
100
AcDbArc
 50
94.00122070312501
 51
171.2061462402344
  0
ARC
  5
21C
330
1F
100
AcDbEntity
  8
0-0
  6
Continuous
 62
     3
370
     9
100
AcDbCircle
 10
-115.5513467324747
 20
-135.6206410743095
 30
0.0
 40
1.000000012887491
100
AcDbArc
 50
2.862518310546875
 51
90.0
  0
ARC
  5
21D
330
1F
100
AcDbEntity
  8
0-0
  6
Continuous
 62
     3
370
     9
100
AcDbCircle
 10
39.35120321737759
 20
-135.6206410743095
 30
0.0
 40
1.000000012887491
100
AcDbArc
 50
117.1299896240235
 51
177.1374816894532
  0
ARC
  5
21E
330
1F
100
AcDbEntity
  8
0-0
  6
JWW_PHANTOM1
 62
     3
370
     9
100
AcDbCircle
 10
46.81433468380494
 20
-126.1206221039231
 30
0.0
 40
1.500000019331236
100
AcDbArc
 50
90.0
 51
176.6330871582031
  0
ARC
  5
21F
330
1F
100
AcDbEntity
  8
0-0
  6
JWW_PHANTOM1
 62
     3
370
     9
100
AcDbCircle
 10
42.98559933224244
 20
-133.1206204543243
 30
0.0
 40
1.500000019331236
100
AcDbArc
 50
270.0
 51
356.6330871582031
  0
ARC
  5
220
330
1F
100
AcDbEntity
  8
0-0
  6
JWW_PHANTOM1
 62
     3
370
     9
100
AcDbCircle
 10
39.35120321737759
 20
-135.6206410743095
 30
0.0
 40
1.000000012887491
100
AcDbArc
 50
90.0
 51
117.1299896240234
  0
ARC
  5
221
330
1F
100
AcDbEntity
  8
0-0
  6
JWW_PHANTOM1
 62
     3
370
     9
100
AcDbCircle
 10
59.09860839843751
 20
-123.1206493223036
 30
0.0
 40
1.500000019331236
100
AcDbArc
 50
270.0
 51
351.8877410888672
  0
ARC
  5
222
330
1F
100
AcDbEntity
  8
0-2
  6
Continuous
 62
     6
370
     5
100
AcDbCircle
 10
-48.71186259501686
 20
36.90973216391899
 30
0.0
 40
22.00000144339897
100
AcDbArc
 50
106.2159576416016
 51
175.9999389648438
  0
ARC
  5
223
330
1F
100
AcDbEntity
  8
0-2
  6
Continuous
 62
     6
370
     5
100
AcDbCircle
 10
-27.48820668813342
 20
36.90973216391899
 30
0.0
 40
22.00000144339897
100
AcDbArc
 50
4.000061035156254
 51
73.78404235839845
  0
ARC
  5
224
330
1F
100
AcDbEntity
  8
0-2
  6
Continuous
 62
     6
370
     5
100
AcDbCircle
 10
-38.10003464157514
 20
0.4215383426563335
 30
0.0
 40
60.00000309299779
100
AcDbArc
 50
73.78405761718753
 51
106.2159423828125
  0
ARC
  5
225
330
1F
100
AcDbEntity
  8
0-2
  6
Continuous
 62
     6
370
     5
100
AcDbCircle
 10
-27.48820668813342
 20
36.90973216391899
 30
0.0
 40
30.00000154649889
100
AcDbArc
 50
4.000061035156254
 51
73.78404235839845
  0
ARC
  5
226
330
1F
100
AcDbEntity
  8
0-2
  6
Continuous
 62
     6
370
     5
100
AcDbCircle
 10
-48.71186259501686
 20
36.90973216391899
 30
0.0
 40
30.00000154649889
100
AcDbArc
 50
106.2159576416016
 51
175.9999389648438
  0
ARC
  5
227
330
1F
100
AcDbEntity
  8
0-2
  6
Continuous
 62
     6
370
     5
100
AcDbCircle
 10
-38.10003464157514
 20
0.4215383426563335
 30
0.0
 40
67.99999855660104
100
AcDbArc
 50
73.78405761718753
 51
106.2159423828125
  0
ARC
  5
228
330
1F
100
AcDbEntity
  8
0-2
  6
Continuous
 62
     6
370
     5
100
AcDbCircle
 10
3.410395771748377
 20
-91.07846660614015
 30
0.0
 40
1.500006833591977
100
AcDbArc
 50
270.0
 51
90.0
  0
ARC
  5
229
330
1F
100
AcDbEntity
  8
0-2
  6
Continuous
 62
     6
370
     5
100
AcDbCircle
 10
-79.61046505489867
 20
-91.07846660614015
 30
0.0
 40
1.500006833591977
100
AcDbArc
 50
90.0
 51
270.0
  0
ARC
  5
22A
330
1F
100
AcDbEntity
  8
0-2
  6
Continuous
 62
     6
370
     5
100
AcDbCircle
 10
-89.72560705236485
 20
-90.87544223166805
 30
0.0
 40
2.000000025774982
100
AcDbArc
 50
285.0002136230469
 51
356.0010986328125
  0
ARC
  5
22B
330
1F
100
AcDbEntity
  8
0-2
  6
Continuous
 62
     6
370
     5
100
AcDbCircle
 10
13.52553776921454
 20
-90.87544223166805
 30
0.0
 40
2.000000025774982
100
AcDbArc
 50
183.9989013671875
 51
254.9997863769531
  0
ARC
  5
22C
330
1F
100
AcDbEntity
  8
0-2
  6
Continuous
 62
     6
370
     5
100
AcDbCircle
 10
-8.273712653082718
 20
5.834234974835312
 30
0.0
 40
2.000000025774982
100
AcDbArc
 50
102.2433624267578
 51
184.0003204345703
  0
ARC
  5
22D
330
1F
100
AcDbEntity
  8
0-2
  6
Continuous
 62
     6
370
     5
100
AcDbCircle
 10
-7.940411211993187
 20
1.067430511680783
 30
0.0
 40
2.000000025774982
100
AcDbArc
 50
184.0003204345703
 51
258.1065826416016
  0
ARC
  5
22E
330
1F
100
AcDbEntity
  8
0-2
  6
Continuous
 62
     6
370
     5
100
AcDbCircle
 10
-67.92635663006757
 20
5.834234974835312
 30
0.0
 40
2.000000025774982
100
AcDbArc
 50
355.9996795654296
 51
77.7566375732422
  0
ARC
  5
22F
330
1F
100
AcDbEntity
  8
0-2
  6
Continuous
 62
     6
370
     5
100
AcDbCircle
 10
-68.2596580711571
 20
1.067430511680783
 30
0.0
 40
2.000000025774982
100
AcDbArc
 50
281.8934173583984
 51
355.9996795654296
  0
ELLIPSE
  5
230
330
1F
100
AcDbEntity
  8
0-2
  6
Continuous
 62
     6
370
     5
100
AcDbEllipse
 10
52.89994391364025
 20
-100.620686438277
 30
0.0
 11
5.249980204814189
 21
0.0
 31
0.0
210
0.0
220
0.0
230
1.0
 40
0.7428
 41
0.0
 42
1.475408288134874
  0
ELLIPSE
  5
231
330
1F
100
AcDbEntity
  8
0-2
  6
Continuous
 62
     6
370
     5
100
AcDbEllipse
 10
52.89994391364025
 20
-100.620686438277
 30
0.0
 11
5.249980204814189
 21
0.0
 31
0.0
210
0.0
220
0.0
230
1.0
 40
0.7428
 41
1.666184365454919
 42
3.141592653589793
  0
ARC
  5
232
330
1F
100
AcDbEntity
  8
0-2
  6
Continuous
 62
     6
370
     5
100
AcDbCircle
 10
-129.1000131967905
 20
244.3875038198523
 30
0.0
 40
5.249999922675055
100
AcDbArc
 50
0.0
 51
180.0
  0
ARC
  5
233
330
1F
100
AcDbEntity
  8
0-2
  6
Continuous
 62
     6
370
     5
100
AcDbCircle
 10
52.89994391364025
 20
244.3875038198523
 30
0.0
 40
5.249999922675055
100
AcDbArc
 50
0.0
 51
180.0
  0
ARC
  5
234
330
1F
100
AcDbEntity
  8
0-2
  6
Continuous
 62
     6
370
     5
100
AcDbCircle
 10
-38.10003464157514
 20
244.3875038198523
 30
0.0
 40
95.00000412399706
100
AcDbArc
 50
3.01695251464844
 51
6.042327880859379
  0
ARC
  5
235
330
1F
100
AcDbEntity
  8
0-2
  6
Continuous
 62
     6
370
     5
100
AcDbCircle
 10
-38.10003464157514
 20
244.3875038198523
 30
0.0
 40
95.00000412399706
100
AcDbArc
 50
173.9576721191407
 51
176.9830474853516
  0
ARC
  5
236
330
1F
100
AcDbEntity
  8
0-2
  6
Continuous
 62
     6
370
     5
100
AcDbCircle
 10
-38.10003464157514
 20
244.3875038198523
 30
0.0
 40
96.00000123719911
100
AcDbArc
 50
2.388015747070304
 51
177.6119842529297
  0
ARC
  5
237
330
1F
100
AcDbEntity
  8
0-2
  6
Continuous
 62
     6
370
     5
100
AcDbCircle
 10
-38.10003464157514
 20
244.3875038198523
 30
0.0
 40
83.99999876280089
100
AcDbArc
 50
7.524627685546873
 51
172.4753723144531
  0
ARC
  5
238
330
1F
100
AcDbEntity
  8
0-2
  6
Continuous
 62
     6
370
     5
100
AcDbCircle
 10
3.462580830342127
 20
259.5150837924029
 30
0.0
 40
5.500000360849742
100
AcDbArc
 50
304.9989624023437
 51
95.00103759765628
  0
ARC
  5
239
330
1F
100
AcDbEntity
  8
0-2
  6
Continuous
 62
     6
370
     5
100
AcDbCircle
 10
-15.98500151763093
 20
282.6918564512923
 30
0.0
 40
5.500000360849742
100
AcDbArc
 50
344.9989624023438
 51
135.0010375976562
  0
ARC
  5
23A
330
1F
100
AcDbEntity
  8
0-2
  6
Continuous
 62
     6
370
     5
100
AcDbCircle
 10
-15.212024255701
 20
263.5928673254476
 30
0.0
 40
4.87818312000584
100
AcDbArc
 50
144.8751678466797
 51
295.124755859375
  0
ARC
  5
23B
330
1F
100
AcDbEntity
  8
0-2
  6
Continuous
 62
     6
370
     5
100
AcDbCircle
 10
-11.55758551520264
 20
266.6593148154182
 30
0.0
 40
7.648712493277886
100
AcDbArc
 50
181.9460906982422
 51
258.0539855957031
  0
ARC
  5
23C
330
1F
100
AcDbEntity
  8
0-2
  6
Continuous
 62
     6
370
     5
100
AcDbCircle
 10
-45.78051724820522
 20
287.945548253446
 30
0.0
 40
5.500000360849742
100
AcDbArc
 50
24.99896240234375
 51
175.0010375976562
  0
ARC
  5
23D
330
1F
100
AcDbEntity
  8
0-2
  6
Continuous
 62
     6
370
     5
100
AcDbCircle
 10
-32.91174118454389
 20
273.8117855845271
 30
0.0
 40
4.87818312000584
100
AcDbArc
 50
184.8751678466797
 51
335.124755859375
  0
ARC
  5
23E
330
1F
100
AcDbEntity
  8
0-2
  6
Continuous
 62
     6
370
     5
100
AcDbCircle
 10
-32.08338689030827
 20
278.5098512649536
 30
0.0
 40
7.648712493277886
100
AcDbArc
 50
221.9460906982422
 51
298.0539855957031
  0
ARC
  5
23F
330
1F
100
AcDbEntity
  8
0-2
  6
Continuous
 62
     6
370
     5
100
AcDbCircle
 10
-71.98216750686234
 20
272.8180425128421
 30
0.0
 40
5.500000360849742
100
AcDbArc
 50
64.99896240234375
 51
215.0010375976563
  0
ARC
  5
240
330
1F
100
AcDbEntity
  8
0-2
  6
Continuous
 62
     6
370
     5
100
AcDbCircle
 10
-53.03913970122468
 20
270.2627562084713
 30
0.0
 40
4.87818312000584
100
AcDbArc
 50
224.8751678466797
 51
15.12475585937501
  0
ARC
  5
241
330
1F
100
AcDbEntity
  8
0-2
  6
Continuous
 62
     6
370
     5
100
AcDbCircle
 10
-55.42443484744506
 20
274.3942094390457
 30
0.0
 40
7.648712493277886
100
AcDbArc
 50
261.9460906982422
 51
338.0539855957031
  0
ARC
  5
242
330
1F
100
AcDbEntity
  8
0-2
  6
Continuous
 62
     6
370
     5
100
AcDbCircle
 10
-66.17633848448054
 20
254.6064963108784
 30
0.0
 40
4.87818312000584
100
AcDbArc
 50
264.875244140625
 51
55.1248321533203
  0
ARC
  5
243
330
1F
100
AcDbEntity
  8
0-2
  6
Continuous
 62
     6
370
     5
100
AcDbCircle
 10
-70.65920575116132
 20
256.2381145013345
 30
0.0
 40
7.648712493277886
100
AcDbArc
 50
301.9460144042969
 51
18.05390930175782
  0
ARC
  5
244
330
1F
100
AcDbEntity
  8
0-2
  6
Continuous
 62
     6
370
     5
100
AcDbCircle
 10
-38.10003464157514
 20
244.3875038198523
 30
0.0
 40
41.72999923293655
100
AcDbArc
 50
28.9610595703125
 51
51.03892517089845
  0
ARC
  5
245
330
1F
100
AcDbEntity
  8
0-2
  6
Continuous
 62
     6
370
     5
100
AcDbCircle
 10
-38.10003464157514
 20
244.3875038198523
 30
0.0
 40
41.72999923293655
100
AcDbArc
 50
68.96107482910155
 51
91.03892517089844
  0
ARC
  5
246
330
1F
100
AcDbEntity
  8
0-2
  6
Continuous
 62
     6
370
     5
100
AcDbCircle
 10
-38.10003464157514
 20
244.3875038198523
 30
0.0
 40
41.72999923293655
100
AcDbArc
 50
108.9610748291016
 51
131.0389404296875
  0
ARC
  5
247
330
1F
100
AcDbEntity
  8
0-2
  6
Continuous
 62
     6
370
     5
100
AcDbCircle
 10
-38.10003464157514
 20
244.3875038198523
 30
0.0
 40
41.72999923293655
100
AcDbArc
 50
148.9610748291016
 51
171.0389251708984
  0
ARC
  5
248
330
1F
100
AcDbEntity
  8
0-2
  6
Continuous
 62
     6
370
     5
100
AcDbCircle
 10
-104.1236354518581
 20
290.4433047990541
 30
0.0
 40
2.000000025774982
100
AcDbArc
 50
145.1017608642578
 51
236.5254669189453
  0
ARC
  5
249
330
1F
100
AcDbEntity
  8
0-2
  6
Continuous
 62
     6
370
     5
100
AcDbCircle
 10
-104.1236354518581
 20
290.4433047990541
 30
0.0
 40
3.500000045106217
100
AcDbArc
 50
145.1017608642578
 51
236.5254669189453
  0
ARC
  5
24A
330
1F
100
AcDbEntity
  8
0-2
  6
Continuous
 62
     6
370
     5
100
AcDbCircle
 10
-79.98689525707343
 20
273.8834194131799
 30
0.0
 40
1.500000019331236
100
AcDbArc
 50
236.5256652832032
 51
324.8476715087891
  0
ARC
  5
24B
330
1F
100
AcDbEntity
  8
0-2
  6
Continuous
 62
     6
370
     5
100
AcDbCircle
 10
-80.83254559491132
 20
272.6443397573523
 30
0.0
 40
1.500000019331236
100
AcDbArc
 50
236.524887084961
 51
326.5254058837891
  0
ARC
  5
24C
330
1F
100
AcDbEntity
  8
0-2
  6
Continuous
 62
     6
370
     5
100
AcDbCircle
 10
-110.9972910288218
 20
278.5378367088937
 30
0.0
 40
2.000000025774982
100
AcDbArc
 50
63.47486877441408
 51
154.8985748291016
  0
ARC
  5
24D
330
1F
100
AcDbEntity
  8
0-2
  6
Continuous
 62
     6
370
     5
100
AcDbCircle
 10
-110.9972910288218
 20
278.5378367088937
 30
0.0
 40
3.500000045106217
100
AcDbArc
 50
63.47471618652344
 51
154.8984222412109
  0
ARC
  5
24E
330
1F
100
AcDbEntity
  8
0-2
  6
Continuous
 62
     6
370
     5
100
AcDbCircle
 10
12.94675128008868
 20
248.7167109566766
 30
0.0
 40
1.500000019331236
100
AcDbArc
 50
96.52566528320312
 51
184.8476715087891
  0
ARC
  5
24F
330
1F
100
AcDbEntity
  8
0-2
  6
Continuous
 62
     6
370
     5
100
AcDbCircle
 10
12.79806469066728
 20
250.2094411746876
 30
0.0
 40
1.500000019331236
100
AcDbArc
 50
96.52488708496094
 51
186.525405883789
  0
ARC
  5
250
330
1F
100
AcDbEntity
  8
0-2
  6
Continuous
 62
     6
370
     5
100
AcDbCircle
 10
39.69378365181587
 20
265.0843356003632
 30
0.0
 40
2.000000025774982
100
AcDbArc
 50
283.4748687744141
 51
14.89857482910156
  0
ARC
  5
251
330
1F
100
AcDbEntity
  8
0-2
  6
Continuous
 62
     6
370
     5
100
AcDbCircle
 10
39.69378365181587
 20
265.0843356003632
 30
0.0
 40
3.500000045106217
100
AcDbArc
 50
283.4747161865235
 51
14.89842224121094
  0
ARC
  5
252
330
1F
100
AcDbEntity
  8
0-2
  6
Continuous
 62
     6
370
     5
100
AcDbCircle
 10
11.34890862542236
 20
257.7784273972382
 30
0.0
 40
1.500000019331236
100
AcDbArc
 50
195.1523132324219
 51
283.4743194580078
  0
ARC
  5
253
330
1F
100
AcDbEntity
  8
0-2
  6
Continuous
 62
     6
370
     5
100
AcDbCircle
 10
11.71977143158782
 20
256.3248174151859
 30
0.0
 40
1.500000019331236
100
AcDbArc
 50
193.4745788574219
 51
283.47509765625
  0
ARC
  5
254
330
1F
100
AcDbEntity
  8
0-2
  6
Continuous
 62
     6
370
     5
100
AcDbCircle
 10
34.7972217456715
 20
278.5378367088937
 30
0.0
 40
2.000000025774982
100
AcDbArc
 50
25.10176086425783
 51
116.5254669189453
  0
ARC
  5
255
330
1F
100
AcDbEntity
  8
0-2
  6
Continuous
 62
     6
370
     5
100
AcDbCircle
 10
34.7972217456715
 20
278.5378367088937
 30
0.0
 40
3.500000045106217
100
AcDbArc
 50
25.10176086425783
 51
116.5254669189453
  0
ARC
  5
256
330
1F
100
AcDbEntity
  8
0-2
  6
Continuous
 62
     6
370
     5
100
AcDbCircle
 10
8.387573572107279
 20
265.9146941571622
 30
0.0
 40
1.500000019331236
100
AcDbArc
 50
116.5256652832032
 51
204.8476715087891
  0
ARC
  5
257
330
1F
100
AcDbEntity
  8
0-2
  6
Continuous
 62
     6
370
     5
100
AcDbCircle
 10
7.73730171822212
 20
267.2665321401648
 30
0.0
 40
1.500000019331236
100
AcDbArc
 50
116.5248870849609
 51
206.525405883789
  0
ARC
  5
258
330
1F
100
AcDbEntity
  8
0-2
  6
Continuous
 62
     6
370
     5
100
AcDbCircle
 10
27.92356616870783
 20
290.4433047990541
 30
0.0
 40
2.000000025774982
100
AcDbArc
 50
303.4748687744141
 51
34.89857482910156
  0
ARC
  5
259
330
1F
100
AcDbEntity
  8
0-2
  6
Continuous
 62
     6
370
     5
100
AcDbCircle
 10
27.92356616870783
 20
290.4433047990541
 30
0.0
 40
3.500000045106217
100
AcDbArc
 50
303.4747161865234
 51
34.89842224121094
  0
ARC
  5
25A
330
1F
100
AcDbEntity
  8
0-2
  6
Continuous
 62
     6
370
     5
100
AcDbCircle
 10
3.786825973923136
 20
273.8833451812332
 30
0.0
 40
1.500000019331236
100
AcDbArc
 50
215.1523132324218
 51
303.4743194580078
  0
ARC
  5
25B
330
1F
100
AcDbEntity
  8
0-2
  6
Continuous
 62
     6
370
     5
100
AcDbCircle
 10
4.632476311761032
 20
272.6442655254054
 30
0.0
 40
1.500000019331236
100
AcDbArc
 50
213.4745788574218
 51
303.47509765625
  0
ARC
  5
25C
330
1F
100
AcDbEntity
  8
0-2
  6
Continuous
 62
     6
370
     5
100
AcDbCircle
 10
18.72088326119087
 20
301.4106295456757
 30
0.0
 40
2.000000025774982
100
AcDbArc
 50
45.1017608642578
 51
136.5254669189453
  0
ARC
  5
25D
330
1F
100
AcDbEntity
  8
0-2
  6
Continuous
 62
     6
370
     5
100
AcDbCircle
 10
18.72088326119087
 20
301.4106295456757
 30
0.0
 40
3.500000045106217
100
AcDbArc
 50
45.1017608642578
 51
136.5254669189453
  0
ARC
  5
25E
330
1F
100
AcDbEntity
  8
0-2
  6
Continuous
 62
     6
370
     5
100
AcDbCircle
 10
-1.778714236697645
 20
280.5161180908616
 30
0.0
 40
1.500000019331236
100
AcDbArc
 50
136.5256652832032
 51
224.8476715087891
  0
ARC
  5
25F
330
1F
100
AcDbEntity
  8
0-2
  6
Continuous
 62
     6
370
     5
100
AcDbCircle
 10
-2.852108187288813
 20
281.5641247156504
 30
0.0
 40
1.500000019331236
100
AcDbArc
 50
136.5248870849609
 51
226.5254058837891
  0
ARC
  5
260
330
1F
100
AcDbEntity
  8
0-2
  6
Continuous
 62
     6
370
     5
100
AcDbCircle
 10
8.189893897804076
 20
310.2471262596749
 30
0.0
 40
2.000000025774982
100
AcDbArc
 50
323.4748687744141
 51
54.89857482910156
  0
ARC
  5
261
330
1F
100
AcDbEntity
  8
0-2
  6
Continuous
 62
     6
370
     5
100
AcDbCircle
 10
8.189893897804076
 20
310.2471262596749
 30
0.0
 40
3.500000045106217
100
AcDbArc
 50
323.4747161865234
 51
54.89842224121094
  0
ARC
  5
262
330
1F
100
AcDbEntity
  8
0-2
  6
Continuous
 62
     6
370
     5
100
AcDbCircle
 10
-8.827408744193427
 20
286.4306969152914
 30
0.0
 40
1.500000019331236
100
AcDbArc
 50
235.1523132324219
 51
323.4743194580079
  0
ARC
  5
263
330
1F
100
AcDbEntity
  8
0-2
  6
Continuous
 62
     6
370
     5
100
AcDbCircle
 10
-7.608965569573421
 20
285.5555764945777
 30
0.0
 40
1.500000019331236
100
AcDbArc
 50
233.4745788574219
 51
323.47509765625
  0
ARC
  5
264
330
1F
100
AcDbEntity
  8
0-2
  6
Continuous
 62
     6
370
     5
100
AcDbCircle
 10
-4.208845478779516
 20
317.4055355845271
 30
0.0
 40
2.000000025774982
100
AcDbArc
 50
65.10176086425781
 51
156.5254669189453
  0
ARC
  5
265
330
1F
100
AcDbEntity
  8
0-2
  6
Continuous
 62
     6
370
     5
100
AcDbCircle
 10
-4.208845478779516
 20
317.4055355845271
 30
0.0
 40
3.500000045106217
100
AcDbArc
 50
65.10176086425781
 51
156.5254669189453
  0
ARC
  5
266
330
1F
100
AcDbEntity
  8
0-2
  6
Continuous
 62
     6
370
     5
100
AcDbCircle
 10
-16.32587461729303
 20
290.7599040521158
 30
0.0
 40
1.500000019331236
100
AcDbArc
 50
156.5256652832032
 51
244.8476715087891
  0
ARC
  5
267
330
1F
100
AcDbEntity
  8
0-2
  6
Continuous
 62
     6
370
     5
100
AcDbCircle
 10
-17.69293014938764
 20
291.3775880813598
 30
0.0
 40
1.500000019331236
100
AcDbArc
 50
156.5248870849609
 51
246.5254058837891
  0
ARC
  5
268
330
1F
100
AcDbEntity
  8
0-2
  6
Continuous
 62
     6
370
     5
100
AcDbCircle
 10
-17.12706001900334
 20
322.1074613261867
 30
0.0
 40
2.000000025774982
100
AcDbArc
 50
343.4748687744141
 51
74.89857482910155
  0
ARC
  5
269
330
1F
100
AcDbEntity
  8
0-2
  6
Continuous
 62
     6
370
     5
100
AcDbCircle
 10
-17.12706001900334
 20
322.1074613261867
 30
0.0
 40
3.500000045106217
100
AcDbArc
 50
343.4747161865234
 51
74.89842224121092
  0
ARC
  5
26A
330
1F
100
AcDbEntity
  8
0-2
  6
Continuous
 62
     6
370
     5
100
AcDbCircle
 10
-24.97241177945522
 20
293.9069674363007
 30
0.0
 40
1.500000019331236
100
AcDbArc
 50
255.1523132324219
 51
343.4743194580078
  0
ARC
  5
26B
330
1F
100
AcDbEntity
  8
0-2
  6
Continuous
 62
     6
370
     5
100
AcDbCircle
 10
-23.52815502269842
 20
293.5013640790372
 30
0.0
 40
1.500000019331236
100
AcDbArc
 50
253.4745788574219
 51
343.4750976562501
  0
ARC
  5
26C
330
1F
100
AcDbEntity
  8
0-2
  6
Continuous
 62
     6
370
     5
100
AcDbCircle
 10
-31.22637906461147
 20
324.5935634561487
 30
0.0
 40
2.000000025774982
100
AcDbArc
 50
85.10176086425781
 51
176.5254669189453
  0
ARC
  5
26D
330
1F
100
AcDbEntity
  8
0-2
  6
Continuous
 62
     6
370
     5
100
AcDbCircle
 10
-31.22637906461147
 20
324.5935634561487
 30
0.0
 40
3.500000045106217
100
AcDbArc
 50
85.10176086425781
 51
176.5254669189453
  0
ARC
  5
26E
330
1F
100
AcDbEntity
  8
0-2
  6
Continuous
 62
     6
370
     5
100
AcDbCircle
 10
-33.499287043391
 20
295.4105355185432
 30
0.0
 40
1.500000019331236
100
AcDbArc
 50
176.525665283203
 51
264.8476715087891
  0
ARC
  5
26F
330
1F
100
AcDbEntity
  8
0-2
  6
Continuous
 62
     6
370
     5
100
AcDbCircle
 10
-34.99520923511397
 20
295.5233680776648
 30
0.0
 40
1.500000019331236
100
AcDbArc
 50
176.5248870849609
 51
266.5254058837891
  0
ARC
  5
270
330
1F
100
AcDbEntity
  8
0-2
  6
Continuous
 62
     6
370
     5
100
AcDbCircle
 10
-44.97361598659202
 20
324.5935634561487
 30
0.0
 40
2.000000025774982
100
AcDbArc
 50
3.474868774414062
 51
94.89857482910155
  0
ARC
  5
271
330
1F
100
AcDbEntity
  8
0-2
  6
Continuous
 62
     6
370
     5
100
AcDbCircle
 10
-44.97361598659202
 20
324.5935634561487
 30
0.0
 40
3.500000045106217
100
AcDbArc
 50
3.474716186523448
 51
94.89842224121095
  0
ARC
  5
272
330
1F
100
AcDbEntity
  8
0-2
  6
Continuous
 62
     6
370
     5
100
AcDbCircle
 10
-42.70078223975928
 20
295.4104612865963
 30
0.0
 40
1.500000019331236
100
AcDbArc
 50
275.1523132324219
 51
3.47431945800783
  0
ARC
  5
273
330
1F
100
AcDbEntity
  8
0-2
  6
Continuous
 62
     6
370
     5
100
AcDbCircle
 10
-41.20486004803632
 20
295.5233680776648
 30
0.0
 40
1.500000019331236
100
AcDbArc
 50
273.4745788574219
 51
3.475097656250007
  0
ARC
  5
274
330
1F
100
AcDbEntity
  8
0-2
  6
Continuous
 62
     6
370
     5
100
AcDbCircle
 10
-59.07300926414694
 20
322.1074613261867
 30
0.0
 40
2.000000025774982
100
AcDbArc
 50
105.1017608642578
 51
196.5254669189453
  0
ARC
  5
275
330
1F
100
AcDbEntity
  8
0-2
  6
Continuous
 62
     6
370
     5
100
AcDbCircle
 10
-59.07300926414694
 20
322.1074613261867
 30
0.0
 40
3.500000045106217
100
AcDbArc
 50
105.1017608642578
 51
196.5254669189453
  0
ARC
  5
276
330
1F
100
AcDbEntity
  8
0-2
  6
Continuous
 62
     6
370
     5
100
AcDbCircle
 10
-51.22765750369506
 20
293.9070416682475
 30
0.0
 40
1.500000019331236
100
AcDbArc
 50
196.5256652832031
 51
284.8476715087891
  0
ARC
  5
277
330
1F
100
AcDbEntity
  8
0-2
  6
Continuous
 62
     6
370
     5
100
AcDbCircle
 10
-52.67191426045186
 20
293.501438310984
 30
0.0
 40
1.500000019331236
100
AcDbArc
 50
196.5248870849609
 51
286.5254058837891
  0
ARC
  5
278
330
1F
100
AcDbEntity
  8
0-2
  6
Continuous
 62
     6
370
     5
100
AcDbCircle
 10
-71.99126092034413
 20
317.4055355845271
 30
0.0
 40
2.000000025774982
100
AcDbArc
 50
23.47486877441407
 51
114.8985748291016
  0
ARC
  5
279
330
1F
100
AcDbEntity
  8
0-2
  6
Continuous
 62
     6
370
     5
100
AcDbCircle
 10
-71.99126092034413
 20
317.4055355845271
 30
0.0
 40
3.500000045106217
100
AcDbArc
 50
23.47471618652345
 51
114.898422241211
  0
ARC
  5
27A
330
1F
100
AcDbEntity
  8
0-2
  6
Continuous
 62
     6
370
     5
100
AcDbCircle
 10
-59.87419466585725
 20
290.7599040521158
 30
0.0
 40
1.500000019331236
100
AcDbArc
 50
295.1523132324219
 51
23.47431945800782
  0
ARC
  5
27B
330
1F
100
AcDbEntity
  8
0-2
  6
Continuous
 62
     6
370
     5
100
AcDbCircle
 10
-58.50706490181584
 20
291.3775880813598
 30
0.0
 40
1.500000019331236
100
AcDbArc
 50
293.4745788574219
 51
23.47509765625
  0
ARC
  5
27C
330
1F
100
AcDbEntity
  8
0-2
  6
Continuous
 62
     6
370
     5
100
AcDbCircle
 10
-84.39000029692782
 20
310.2472004916216
 30
0.0
 40
2.000000025774982
100
AcDbArc
 50
125.1017608642578
 51
216.5254669189453
  0
ARC
  5
27D
330
1F
100
AcDbEntity
  8
0-2
  6
Continuous
 62
     6
370
     5
100
AcDbCircle
 10
-84.39000029692782
 20
310.2472004916216
 30
0.0
 40
3.500000045106217
100
AcDbArc
 50
125.1017608642578
 51
216.5254669189453
  0
ARC
  5
27E
330
1F
100
AcDbEntity
  8
0-2
  6
Continuous
 62
     6
370
     5
100
AcDbCircle
 10
-67.37258630701015
 20
286.4307711472382
 30
0.0
 40
1.500000019331236
100
AcDbArc
 50
216.5256652832032
 51
304.8476715087892
  0
ARC
  5
27F
330
1F
100
AcDbEntity
  8
0-2
  6
Continuous
 62
     6
370
     5
100
AcDbCircle
 10
-68.59102948163007
 20
285.5555764945777
 30
0.0
 40
1.500000019331236
100
AcDbArc
 50
216.524887084961
 51
306.5254058837891
  0
ARC
  5
280
330
1F
100
AcDbEntity
  8
0-2
  6
Continuous
 62
     6
370
     5
100
AcDbCircle
 10
-94.92095254434118
 20
301.4106295456757
 30
0.0
 40
2.000000025774982
100
AcDbArc
 50
43.47486877441408
 51
134.8985748291016
  0
ARC
  5
281
330
1F
100
AcDbEntity
  8
0-2
  6
Continuous
 62
     6
370
     5
100
AcDbCircle
 10
-94.92095254434118
 20
301.4106295456757
 30
0.0
 40
3.500000045106217
100
AcDbArc
 50
43.47471618652344
 51
134.8984222412109
  0
ARC
  5
282
330
1F
100
AcDbEntity
  8
0-2
  6
Continuous
 62
     6
370
     5
100
AcDbCircle
 10
-74.42135504645265
 20
280.5161180908616
 30
0.0
 40
1.500000019331236
100
AcDbArc
 50
315.1523132324219
 51
43.47431945800782
  0
ARC
  5
283
330
1F
100
AcDbEntity
  8
0-2
  6
Continuous
 62
     6
370
     5
100
AcDbCircle
 10
-73.34796109586148
 20
281.5641247156504
 30
0.0
 40
1.500000019331236
100
AcDbArc
 50
313.4745788574218
 51
43.47509765625001
  0
ARC
  5
284
330
1F
100
AcDbEntity
  8
0-2
  6
Continuous
 62
     6
370
     5
100
AcDbCircle
 10
35.39991092166384
 20
250.7817694844427
 30
0.0
 40
2.000000025774982
100
AcDbArc
 50
0.0
 51
96.52499389648439
  0
ARC
  5
285
330
1F
100
AcDbEntity
  8
0-2
  6
Continuous
 62
     6
370
     5
100
AcDbCircle
 10
35.39991092166384
 20
250.7817694844427
 30
0.0
 40
3.500000045106217
100
AcDbArc
 50
0.0
 51
96.52499389648439
  0
ARC
  5
286
330
1F
100
AcDbEntity
  8
0-2
  6
Continuous
 62
     6
370
     5
100
AcDbCircle
 10
-87.54897790857267
 20
257.7784273972382
 30
0.0
 40
1.500000019331236
100
AcDbArc
 50
256.5256652832032
 51
344.8476715087891
  0
ARC
  5
287
330
1F
100
AcDbEntity
  8
0-2
  6
Continuous
 62
     6
370
     5
100
AcDbCircle
 10
-87.91987783071157
 20
256.3248174151859
 30
0.0
 40
1.500000019331236
100
AcDbArc
 50
256.524887084961
 51
346.5254058837891
  0
ARC
  5
288
330
1F
100
AcDbEntity
  8
0-2
  6
Continuous
 62
     6
370
     5
100
AcDbCircle
 10
-84.58760573928423
 20
265.9146941571622
 30
0.0
 40
1.500000019331236
100
AcDbArc
 50
335.1523132324218
 51
63.47431945800785
  0
ARC
  5
289
330
1F
100
AcDbEntity
  8
0-2
  6
Continuous
 62
     6
370
     5
100
AcDbCircle
 10
-83.93737100137243
 20
267.2666063721116
 30
0.0
 40
1.500000019331236
100
AcDbArc
 50
333.4745788574219
 51
63.47509765625003
  0
ARC
  5
28A
330
1F
100
AcDbEntity
  8
0-2
  6
Continuous
 62
     6
370
     5
100
AcDbCircle
 10
-89.14674633129219
 20
248.7167851886234
 30
0.0
 40
1.500000019331236
100
AcDbArc
 50
355.1523132324219
 51
83.47431945800783
  0
ARC
  5
28B
330
1F
100
AcDbEntity
  8
0-2
  6
Continuous
 62
     6
370
     5
100
AcDbCircle
 10
-88.99813397381759
 20
250.2095154066344
 30
0.0
 40
1.500000019331236
100
AcDbArc
 50
353.4745788574219
 51
83.47509765625
  0
ARC
  5
28C
330
1F
100
AcDbEntity
  8
0-2
  6
Continuous
 62
     6
370
     5
100
AcDbCircle
 10
-38.10003464157514
 20
244.3875038198523
 30
0.0
 40
82.50000309299779
100
AcDbArc
 50
134.8982543945312
 51
145.1017303466797
  0
ARC
  5
28D
330
1F
100
AcDbEntity
  8
0-2
  6
Continuous
 62
     6
370
     5
100
AcDbCircle
 10
-115.893927166913
 20
265.0843356003632
 30
0.0
 40
2.000000025774982
100
AcDbArc
 50
165.1017608642579
 51
256.5254669189454
  0
ARC
  5
28E
330
1F
100
AcDbEntity
  8
0-2
  6
Continuous
 62
     6
370
     5
100
AcDbCircle
 10
-115.893927166913
 20
265.0843356003632
 30
0.0
 40
3.500000045106217
100
AcDbArc
 50
165.1017608642579
 51
256.5254669189454
  0
ARC
  5
28F
330
1F
100
AcDbEntity
  8
0-2
  6
Continuous
 62
     6
370
     5
100
AcDbCircle
 10
-38.10003464157514
 20
244.3875038198523
 30
0.0
 40
82.50000309299779
100
AcDbArc
 50
154.8982543945312
 51
165.0114593505859
  0
ARC
  5
290
330
1F
100
AcDbEntity
  8
0-2
  6
Continuous
 62
     6
370
     5
100
AcDbCircle
 10
-38.10003464157514
 20
244.3875038198523
 30
0.0
 40
82.50000309299779
100
AcDbArc
 50
114.8982543945312
 51
125.1017303466797
  0
ARC
  5
291
330
1F
100
AcDbEntity
  8
0-2
  6
Continuous
 62
     6
370
     5
100
AcDbCircle
 10
-38.10003464157514
 20
244.3875038198523
 30
0.0
 40
82.50000309299779
100
AcDbArc
 50
94.89825439453125
 51
105.1017303466797
  0
ARC
  5
292
330
1F
100
AcDbEntity
  8
0-2
  6
Continuous
 62
     6
370
     5
100
AcDbCircle
 10
-38.10003464157514
 20
244.3875038198523
 30
0.0
 40
82.50000309299779
100
AcDbArc
 50
74.89825439453125
 51
85.10173034667974
  0
ARC
  5
293
330
1F
100
AcDbEntity
  8
0-2
  6
Continuous
 62
     6
370
     5
100
AcDbCircle
 10
-38.10003464157514
 20
244.3875038198523
 30
0.0
 40
82.50000309299779
100
AcDbArc
 50
54.89825439453131
 51
65.10173034667976
  0
ARC
  5
294
330
1F
100
AcDbEntity
  8
0-2
  6
Continuous
 62
     6
370
     5
100
AcDbCircle
 10
-38.10003464157514
 20
244.3875038198523
 30
0.0
 40
82.50000309299779
100
AcDbArc
 50
34.89825439453125
 51
45.10173034667969
  0
ARC
  5
295
330
1F
100
AcDbEntity
  8
0-2
  6
Continuous
 62
     6
370
     5
100
AcDbCircle
 10
-38.10003464157514
 20
244.3875038198523
 30
0.0
 40
82.50000309299779
100
AcDbArc
 50
14.89825439453125
 51
25.10173034667969
  0
ARC
  5
296
330
1F
100
AcDbEntity
  8
0-2
  6
Continuous
 62
     6
370
     5
100
AcDbCircle
 10
-111.5999802048142
 20
250.7817694844427
 30
0.0
 40
2.000000025774982
100
AcDbArc
 50
83.47500610351565
 51
180.0
  0
ARC
  5
297
330
1F
100
AcDbEntity
  8
0-2
  6
Continuous
 62
     6
370
     5
100
AcDbCircle
 10
-111.5999802048142
 20
250.7817694844427
 30
0.0
 40
3.500000045106217
100
AcDbArc
 50
83.47500610351565
 51
180.0
  0
ARC
  5
298
330
1F
100
AcDbEntity
  8
0-2
  6
Continuous
 62
     6
370
     5
100
AcDbCircle
 10
-38.10003464157514
 20
244.3875038198523
 30
0.0
 40
80.26799691689982
100
AcDbArc
 50
0.0
 51
7.101470947265625
  0
ARC
  5
299
330
1F
100
AcDbEntity
  8
0-2
  6
Continuous
 62
     6
370
     5
100
AcDbCircle
 10
-38.10003464157514
 20
244.3875038198523
 30
0.0
 40
41.72999923293655
100
AcDbArc
 50
0.0
 51
11.03892517089844
  0
ARC
  5
29A
330
1F
100
AcDbEntity
  8
0-2
  6
Continuous
 62
     6
370
     5
100
AcDbCircle
 10
-3.451308461782098
 20
244.3875780517991
 30
0.0
 40
7.648712493277886
100
AcDbArc
 50
141.9460906982422
 51
180.0001831054688
  0
ARC
  5
29B
330
1F
100
AcDbEntity
  8
0-2
  6
Continuous
 62
     6
370
     5
100
AcDbCircle
 10
-8.221824522276158
 20
244.3875038198523
 30
0.0
 40
4.87818312000584
100
AcDbArc
 50
104.8751678466797
 51
180.0
  0
ARC
  5
29C
330
1F
100
AcDbEntity
  8
0-2
  6
Continuous
 62
     6
370
     5
100
AcDbCircle
 10
-38.10003464157514
 20
244.3875038198523
 30
0.0
 40
49.72999933603647
100
AcDbArc
 50
0.0
 51
180.0
  0
ARC
  5
29D
330
1F
100
AcDbEntity
  8
0-2
  6
Continuous
 62
     6
370
     5
100
AcDbCircle
 10
-82.33006377349032
 20
244.3875038198523
 30
0.0
 40
5.500000360849742
100
AcDbArc
 50
104.9989624023437
 51
180.0
  0
ARC
  5
29E
330
1F
100
AcDbEntity
  8
0-2
  6
Continuous
 62
     6
370
     5
100
AcDbCircle
 10
-38.10003464157514
 20
244.3875038198523
 30
0.0
 40
80.26799691689982
100
AcDbArc
 50
172.8985290527344
 51
180.0
  0
ARC
  5
29F
330
1F
100
AcDbEntity
  8
0-0
  6
Continuous
 62
     3
370
     9
100
AcDbCircle
 10
-135.2986776815878
 20
-123.1206493223036
 30
0.0
 40
1.500000019331236
100
AcDbArc
 50
188.1122589111328
 51
270.0
  0
ARC
  5
2A0
330
1F
100
AcDbEntity
  8
0-0
  6
Continuous
 62
     3
370
     9
100
AcDbCircle
 10
-136.599963708826
 20
-139.620555295171
 30
0.0
 40
2.000000025774982
100
AcDbArc
 50
270.0
 51
0.0
  0
ARC
  5
2A1
330
1F
100
AcDbEntity
  8
0-0
  6
Continuous
 62
     3
370
     9
100
AcDbCircle
 10
-136.599963708826
 20
-139.620555295171
 30
0.0
 40
8.000000103099927
100
AcDbArc
 50
270.0
 51
0.0
  0
ARC
  5
2A2
330
1F
100
AcDbEntity
  8
0-0
  6
JWW_CENTER1
 62
     3
370
     9
100
AcDbCircle
 10
-136.6001121727196
 20
-139.620555295171
 30
0.0
 40
5.000000064437454
100
AcDbArc
 50
270.0
 51
0.0
  0
ARC
  5
2A3
330
1F
100
AcDbEntity
  8
0-0
  6
JWW_DASHED1
 62
     3
370
     9
100
AcDbCircle
 10
-131.2938641522382
 20
-113.2193695635409
 30
0.0
 40
7.000000090212435
100
AcDbArc
 50
199.5095520019531
 51
240.1777191162109
  0
TEXT
  5
2A4
330
1F
100
AcDbEntity
  8
0-4
  6
Continuous
 62
     2
370
     9
100
AcDbText
 10
107.2079307168497
 20
-120.9956089071325
 30
0.0
 40
9.144
  1
40
 50
90.0
 41
1.0625
  7
ＭＳ ゴシック
100
AcDbText
  0
TEXT
  5
2A5
330
1F
100
AcDbEntity
  8
0-4
  6
Continuous
 62
     2
370
     9
100
AcDbText
 10
131.2079356656462
 20
-22.84955095342691
 30
0.0
 40
9.144
  1
163
 50
90.0
 41
1.083333333333333
  7
ＭＳ ゴシック
100
AcDbText
  0
TEXT
  5
2A6
330
1F
100
AcDbEntity
  8
0-4
  6
Continuous
 62
     2
370
     9
100
AcDbText
 10
-192.7920569111592
 20
-29.34956002622041
 30
0.0
 40
9.144
  1
176
 50
90.0
 41
1.083333333333333
  7
ＭＳ ゴシック
100
AcDbText
  0
TEXT
  5
2A7
330
1F
100
AcDbEntity
  8
0-4
  6
Continuous
 62
     2
370
     9
100
AcDbText
 10
-47.85010887352194
 20
-219.9286526215012
 30
0.0
 40
9.144
  1
Rc5
 41
1.083333333333333
  7
ＭＳ ゴシック
100
AcDbText
  0
TEXT
  5
2A8
330
1F
100
AcDbEntity
  8
0-4
  6
Continuous
 62
     2
370
     9
100
AcDbText
 10
-54.60009031553526
 20
-243.9286575702977
 30
0.0
 40
9.144
  1
φ165
 41
1.1
  7
ＭＳ ゴシック
100
AcDbText
  0
TEXT
  5
2A9
330
1F
100
AcDbEntity
  8
0-4
  6
Continuous
 62
     2
370
     9
100
AcDbText
 10
-54.60009031553526
 20
151.1135350434587
 30
0.0
 40
9.144
  1
φ240
 41
1.1
  7
ＭＳ ゴシック
100
AcDbText
  0
TEXT
  5
2AA
330
1F
100
AcDbEntity
  8
0-4
  6
Continuous
 62
     2
370
     9
100
AcDbText
 10
-54.60001608358846
 20
127.1135300946622
 30
0.0
 40
9.144
  1
φ197
 41
1.1
  7
ＭＳ ゴシック
100
AcDbText
  0
TEXT
  5
2AB
330
1F
100
AcDbEntity
  8
0-4
  6
Continuous
 62
     2
370
     9
100
AcDbText
 10
-54.60001608358846
 20
103.1135251458658
 30
0.0
 40
9.144
  1
φ192
 41
1.1
  7
ＭＳ ゴシック
100
AcDbText
  0
LINE
  5
2AC
330
1F
100
AcDbEntity
  8
0-0
  6
Continuous
 62
     3
370
     9
100
AcDbLine
 10
26.55465483794345
 20
-115.100295747293
 30
0.0
 11
-102.7547241210938
 21
-115.100295747293
 31
0.0
  0
LINE
  5
2AD
330
1F
100
AcDbEntity
  8
0-5
  6
Continuous
 62
     7
370
     9
100
AcDbLine
 10
53.9247901710304
 20
-96.79603384378797
 30
0.0
 11
54.90376108530408
 21
-89.36018261780613
 31
0.0
  0
LINE
  5
2AE
330
1F
100
AcDbEntity
  8
0-5
  6
Continuous
 62
     7
370
     9
100
AcDbLine
 10
53.9247901710304
 20
-96.79603384378797
 30
0.0
 11
56.79489416173985
 21
-89.86692700257176
 31
0.0
  0
LINE
  5
2AF
330
1F
100
AcDbEntity
  8
0-5
  6
Continuous
 62
     7
370
     9
100
AcDbLine
 10
-19.72361928578967
 20
65.88750876864867
 30
0.0
 11
-18.74468548748944
 21
73.32335999463055
 31
0.0
  0
LINE
  5
2B0
330
1F
100
AcDbEntity
  8
0-5
  6
Continuous
 62
     7
370
     9
100
AcDbLine
 10
-19.72361928578967
 20
65.88750876864867
 30
0.0
 11
-16.85347817910678
 21
72.81661560986493
 31
0.0
  0
LINE
  5
2B1
330
1F
100
AcDbEntity
  8
0-5
  6
Continuous
 62
     7
370
     9
100
AcDbLine
 10
-144.6000148463894
 20
-147.6205693167609
 30
0.0
 11
-147.4701559530722
 21
-154.5496761579772
 31
0.0
  0
LINE
  5
2B2
330
1F
100
AcDbEntity
  8
0-5
  6
Continuous
 62
     7
370
     9
100
AcDbLine
 10
-144.6000148463894
 20
-147.6205693167609
 30
0.0
 11
-149.1657249656884
 21
-153.5707052437035
 31
0.0
  0
LINE
  5
2B3
330
1F
100
AcDbEntity
  8
0-5
  6
Continuous
 62
     7
370
     9
100
AcDbLine
 10
-158.1000593855574
 20
-102.6206435487077
 30
0.0
 11
-160.9702004922403
 21
-109.5497503899239
 31
0.0
  0
LINE
  5
2B4
330
1F
100
AcDbEntity
  8
0-5
  6
Continuous
 62
     7
370
     9
100
AcDbLine
 10
-158.1000593855574
 20
-102.6206435487077
 30
0.0
 11
-162.6657695048564
 21
-108.5707794756503
 31
0.0
  0
LINE
  5
2B5
330
1F
100
AcDbEntity
  8
0-5
  6
Continuous
 62
     7
370
     9
100
AcDbLine
 10
-120.6000841295397
 20
-194.6206377751119
 30
0.0
 11
-123.4702252362226
 21
-201.5497075003547
 31
0.0
  0
LINE
  5
2B6
330
1F
100
AcDbEntity
  8
0-5
  6
Continuous
 62
     7
370
     9
100
AcDbLine
 10
-120.6000841295397
 20
-194.6206377751119
 30
0.0
 11
-125.1657942488387
 21
-200.5708108180278
 31
0.0
  0
LINE
  5
2B7
330
1F
100
AcDbEntity
  8
0-5
  6
Continuous
 62
     7
370
     9
100
AcDbLine
 10
53.9247901710304
 20
-96.79603384378797
 30
0.0
 11
106.2331480283995
 21
98.42151524827281
 31
0.0
  0
LINE
  5
2B8
330
1F
100
AcDbEntity
  8
0-5
  6
Continuous
 62
     7
370
     9
100
AcDbLine
 10
-19.72361928578967
 20
65.88750876864867
 30
0.0
 11
9.893888236380953
 21
176.4215127738746
 31
0.0
  0
LINE
  5
2B9
330
1F
100
AcDbEntity
  8
0-5
  6
Continuous
 62
     7
370
     9
100
AcDbLine
 10
-120.6000841295397
 20
-194.6206377751119
 30
0.0
 11
-135.0338180954392
 21
-219.6205841631503
 31
0.0
  0
LINE
  5
2BA
330
1F
100
AcDbEntity
  8
0-5
  6
Continuous
 62
     7
370
     9
100
AcDbLine
 10
-144.6000148463894
 20
-147.6205693167609
 30
0.0
 11
-165.3846259039802
 21
-183.6205767399556
 31
0.0
  0
LINE
  5
2BB
330
1F
100
AcDbEntity
  8
0-5
  6
Continuous
 62
     7
370
     9
100
AcDbLine
 10
-158.1000593855574
 20
-102.6206435487077
 30
0.0
 11
-177.2625539418813
 21
-136.6355216928431
 31
0.0
  0
LINE
  5
2BC
330
1F
100
AcDbEntity
  8
0-5
  6
Continuous
 62
     7
370
     9
100
AcDbLine
 10
9.893888236380953
 20
176.4215127738746
 30
0.0
 11
137.5731336438978
 21
176.4215127738746
 31
0.0
  0
LINE
  5
2BD
330
1F
100
AcDbEntity
  8
0-5
  6
Continuous
 62
     7
370
     9
100
AcDbLine
 10
-135.0338180954392
 20
-219.6205841631503
 30
0.0
 11
-236.3117000723253
 21
-219.6205841631503
 31
0.0
  0
TEXT
  5
2BE
330
1F
100
AcDbEntity
  8
0-5
  6
Continuous
 62
     7
370
     9
100
AcDbText
 10
-214.9068354216663
 20
-215.4833568104949
 30
0.0
 40
6.858000000000001
  1
スペーサー
 41
1.133333333333333
  7
ＭＳ ゴシック
100
AcDbText
  0
LINE
  5
2BF
330
1F
100
AcDbEntity
  8
0-0
  6
Continuous
 62
     3
370
     9
100
AcDbLine
 10
-120.4059675886824
 20
-113.0257726463112
 30
0.0
 11
-121.7704992345862
 21
-108.6720318510726
 31
0.0
  0
ARC
  5
2C0
330
1F
100
AcDbEntity
  8
0-0
  6
Continuous
 62
     3
370
     9
100
AcDbCircle
 10
-118.9746271906672
 20
-112.5772261078294
 30
0.0
 40
1.500000019331236
100
AcDbArc
 50
197.4017181396484
 51
265.9987792968751
  0
ARC
  5
2C1
330
1F
100
AcDbEntity
  8
0-0
  6
Continuous
 62
     3
370
     9
100
AcDbCircle
 10
-123.2018396326013
 20
-109.1206155055279
 30
0.0
 40
1.500000019331236
100
AcDbArc
 50
17.40171813964845
 51
90.00000000000001
  0
LINE
  5
2C2
330
1F
100
AcDbEntity
  8
0-5
  6
Continuous
 62
     7
370
     9
100
AcDbLine
 10
-177.2625539418813
 20
-136.6355216928431
 30
0.0
 11
-283.448565583121
 21
-136.6355216928431
 31
0.0
  0
LINE
  5
2C3
330
1F
100
AcDbEntity
  8
0-5
  6
Continuous
 62
     7
370
     9
100
AcDbLine
 10
-165.3846259039802
 20
-183.6205767399556
 30
0.0
 11
-270.6460931248134
 21
-183.6205767399556
 31
0.0
  0
TEXT
  5
2C4
330
1F
100
AcDbEntity
  8
F-4
  6
Continuous
 62
     6
370
     5
100
AcDbText
 10
-39.63968482121755
 20
-330.8977504164143
 30
0.0
 40
9.144
  1
鋳鉄製高耐食性ルーフドレン　たて引き用　打込型　ねじ込み式
 41
0.7491379310344829
  7
ＭＳ ゴシック
100
AcDbText
  0
TEXT
  5
2C5
330
1F
100
AcDbEntity
  8
F-5
  6
Continuous
 62
     2
370
     9
100
AcDbText
 10
-47.00371679107649
 20
-272.4551540286089
 30
0.0
 40
9.144
  1
※ご注文の際はＣ寸法をご指示ください。
 41
1.118421052631579
  7
ＭＳ ゴシック
100
AcDbText
  0
TEXT
  5
2C6
330
1F
100
AcDbEntity
  8
F-4
  6
Continuous
 62
     6
370
     5
100
AcDbText
 10
-39.57217343906326
 20
-344.692880275267
 30
0.0
 40
9.144
  1
塗膜・モルタル防水用　　ＥＭＰ－２Ｒ－１２５　Ｃ＝指示
 41
0.7981481481481483
  7
ＭＳ ゴシック
100
AcDbText
  0
TEXT
  5
2C7
330
1F
100
AcDbEntity
  8
0-5
  6
Continuous
 62
     7
370
     9
100
AcDbText
 10
-269.7653595143968
 20
-179.8649764224144
 30
0.0
 40
6.858000000000001
  1
アンカー：ＳＷＲＭ８
 41
1.15
  7
ＭＳ ゴシック
100
AcDbText
  0
TEXT
  5
2C8
330
1F
100
AcDbEntity
  8
0-5
  6
Continuous
 62
     7
370
     9
100
AcDbText
 10
-269.7653595143968
 20
-194.4785715173258
 30
0.0
 40
6.858000000000001
  1
ナイロンコーティング
 41
1.15
  7
ＭＳ ゴシック
100
AcDbText
  0
TEXT
  5
2C9
330
1F
100
AcDbEntity
  8
0-5
  6
Continuous
 62
     7
370
     9
100
AcDbText
 10
-271.6055597625012
 20
-132.0241582887384
 30
0.0
 40
6.858000000000001
  1
本体：ＦＣ１５０
 41
1.145833333333333
  7
ＭＳ ゴシック
100
AcDbText
  0
TEXT
  5
2CA
330
1F
100
AcDbEntity
  8
0-5
  6
Continuous
 62
     7
370
     9
100
AcDbText
 10
-282.1055597625012
 20
-147.5218881066898
 30
0.0
 40
6.858000000000001
  1
ナイロンコーティング
 41
1.15
  7
ＭＳ ゴシック
100
AcDbText
  0
TEXT
  5
2CB
330
1F
100
AcDbEntity
  8
0-5
  6
Continuous
 62
     7
370
     9
100
AcDbText
 10
-232.6720171698967
 20
-231.2530957878716
 30
0.0
 40
6.858000000000001
  1
硬質ポリ塩化ビニル
 41
1.148148148148148
  7
ＭＳ ゴシック
100
AcDbText
  0
TEXT
  5
2CC
330
1F
100
AcDbEntity
  8
0-4
  6
Continuous
 62
     2
370
     9
100
AcDbText
 10
131.2079356656462
 20
-151.3933047062642
 30
0.0
 40
9.144
  1
Ｃ
 50
90.0
  7
ＭＳ ゴシック
100
AcDbText
  0
TEXT
  5
2CD
330
1F
100
AcDbEntity
  8
0-5
  6
Continuous
 62
     7
370
     9
100
AcDbText
 10
11.48351094013938
 20
181.2927664557792
 30
0.0
 40
6.858000000000001
  1
ストレーナー：ＦＣ１５０
 41
1.152777777777777
  7
ＭＳ ゴシック
100
AcDbText
  0
TEXT
  5
2CE
330
1F
100
AcDbEntity
  8
0-5
  6
Continuous
 62
     7
370
     9
100
AcDbText
 10
21.98351094013938
 20
165.0228615159116
 30
0.0
 40
6.858000000000001
  1
ナイロンコーティング
 41
1.15
  7
ＭＳ ゴシック
100
AcDbText
  0
TEXT
  5
2CF
330
1F
100
AcDbEntity
  8
0-5
  6
Continuous
 62
     7
370
     9
100
AcDbText
 10
105.0861059900275
 20
104.7923284872931
 30
0.0
 40
6.858000000000001
  1
丸小ねじ：Ｃ２７００Ｗ
 41
1.151515151515151
  7
ＭＳ ゴシック
100
AcDbText
  0
LINE
  5
2D0
330
1F
100
AcDbEntity
  8
0-5
  6
Continuous
 62
     7
370
     9
100
AcDbLine
 10
106.2331480283995
 20
98.42151524827281
 30
0.0
 11
218.4547160695273
 21
98.42151524827281
 31
0.0
  0
TEXT
  5
2D1
330
1F
100
AcDbEntity
  8
0-5
  6
Continuous
 62
     7
370
     9
100
AcDbText
 10
136.8439320489634
 20
87.62916006985228
 30
0.0
 40
6.858000000000001
  1
Ｍ６×１２
 41
1.133333333333333
  7
ＭＳ ゴシック
100
AcDbText
  0
TEXT
  5
2D2
330
1F
100
AcDbEntity
  8
F-0
  6
Continuous
 62
     9
370
     5
100
AcDbText
 10
0.0
 20
-2998.731
 30
0.0
 40
6.858000000000001
  1
Printer_Orientation = 0
 41
0.0
  7
ＭＳ ゴシック
100
AcDbText
  0
TEXT
  5
2D3
330
1F
100
AcDbEntity
  8
F-0
  6
Continuous
 62
     9
370
     5
100
AcDbText
 10
0.0
 20
-2998.731
 30
0.0
 40
6.858000000000001
  1
Printer_PaperSize = 0
 41
0.0
  7
ＭＳ ゴシック
100
AcDbText
  0
TEXT
  5
2D4
330
1F
100
AcDbEntity
  8
F-0
  6
Continuous
 62
     9
370
     5
100
AcDbText
 10
0.0
 20
-2998.731
 30
0.0
 40
6.858000000000001
  1
Printer_D2dBMP = 0
 41
0.0
  7
ＭＳ ゴシック
100
AcDbText
  0
TEXT
  5
2D5
330
1F
100
AcDbEntity
  8
F-0
  6
Continuous
 62
     9
370
     5
100
AcDbText
 10
0.0
 20
-2998.731
 30
0.0
 40
6.858000000000001
  1
Printer_BmpZENTAI = 0
 41
0.0
  7
ＭＳ ゴシック
100
AcDbText
  0
TEXT
  5
2D6
330
1F
100
AcDbEntity
  8
F-0
  6
Continuous
 62
     9
370
     5
100
AcDbText
 10
0.0
 20
-2998.731
 30
0.0
 40
6.858000000000001
  1
View_Direct2d = 0
 41
0.0
  7
ＭＳ ゴシック
100
AcDbText
  0
TEXT
  5
2D7
330
1F
100
AcDbEntity
  8
F-0
  6
Continuous
 62
     9
370
     5
100
AcDbText
 10
0.0
 20
-2998.731
 30
0.0
 40
6.858000000000001
  1
Draw_BmpTOUKA = 1
 41
0.0
  7
ＭＳ ゴシック
100
AcDbText
  0
ENDSEC
  0
SECTION
  2
OBJECTS
  0
DICTIONARY
  5
C
330
0
100
AcDbDictionary
281
     1
  3
ACAD_DETAILVIEWSTYLE
350
31D
  3
ACAD_GROUP
350
D
  3
ACAD_LAYOUT
350
1A
  3
ACAD_MATERIAL
350
43
  3
ACAD_MLEADERSTYLE
350
6B
  3
ACAD_MLINESTYLE
350
17
  3
ACAD_PLOTSETTINGS
350
19
  3
ACAD_PLOTSTYLENAME
350
E
  3
ACAD_SCALELIST
350
47
  3
ACAD_SECTIONVIEWSTYLE
350
31E
  3
ACAD_TABLESTYLE
350
69
  3
ACAD_VISUALSTYLE
350
2A
  3
ACDB_RECOMPOSE_DATA
350
31A
  3
AcDbVariableDictionary
350
2DA
  0
DICTIONARY
  5
2D8
330
8
100
AcDbDictionary
280
     1
281
     1
  3
ACAD_XREC_ROUNDTRIP
360
2D9
  0
DICTIONARY
  5
31D
102
{ACAD_REACTORS
330
C
102
}
330
C
100
AcDbDictionary
281
     1
  0
DICTIONARY
  5
D
102
{ACAD_REACTORS
330
C
102
}
330
C
100
AcDbDictionary
281
     1
  0
DICTIONARY
  5
1A
102
{ACAD_REACTORS
330
C
102
}
330
C
100
AcDbDictionary
281
     1
  3
Layout1
350
1E
  3
Layout2
350
26
  3
Model
350
22
  0
DICTIONARY
  5
43
102
{ACAD_REACTORS
330
C
102
}
330
C
100
AcDbDictionary
281
     1
  3
ByBlock
350
45
  3
ByLayer
350
44
  3
Global
350
46
  0
DICTIONARY
  5
6B
102
{ACAD_REACTORS
330
C
102
}
330
C
100
AcDbDictionary
281
     1
  3
Standard
350
6C
  0
DICTIONARY
  5
17
102
{ACAD_REACTORS
330
C
102
}
330
C
100
AcDbDictionary
281
     1
  3
Standard
350
18
  0
DICTIONARY
  5
19
102
{ACAD_REACTORS
330
C
102
}
330
C
100
AcDbDictionary
281
     1
  0
ACDBDICTIONARYWDFLT
  5
E
102
{ACAD_REACTORS
330
C
102
}
330
C
100
AcDbDictionary
281
     1
  3
Normal
350
F
100
AcDbDictionaryWithDefault
340
F
  0
DICTIONARY
  5
47
102
{ACAD_REACTORS
330
C
102
}
330
C
100
AcDbDictionary
281
     1
  3
A0
350
48
  3
A1
350
49
  3
A2
350
4A
  3
A3
350
4B
  3
A4
350
4C
  3
A5
350
4D
  3
A6
350
4E
  3
A7
350
4F
  3
A8
350
50
  3
A9
350
51
  3
B0
350
52
  3
B1
350
53
  3
B2
350
54
  3
B3
350
55
  3
B4
350
56
  3
B5
350
57
  3
B6
350
58
  3
B7
350
59
  3
B8
350
5A
  3
B9
350
5B
  3
C0
350
5C
  3
C1
350
5D
  3
C2
350
5E
  3
C3
350
5F
  3
C4
350
60
  3
C5
350
61
  3
C6
350
62
  3
C7
350
63
  3
C8
350
64
  3
C9
350
65
  3
D0
350
66
  3
D1
350
67
  3
D2
350
68
  0
DICTIONARY
  5
31E
102
{ACAD_REACTORS
330
C
102
}
330
C
100
AcDbDictionary
281
     1
  0
DICTIONARY
  5
69
102
{ACAD_REACTORS
330
C
102
}
330
C
100
AcDbDictionary
281
     1
  3
Standard
350
6A
  0
DICTIONARY
  5
2A
102
{ACAD_REACTORS
330
C
102
}
330
C
100
AcDbDictionary
281
     1
  3
2dWireframe
350
2F
  3
Basic
350
32
  3
Brighten
350
36
  3
ColorChange
350
3A
  3
Conceptual
350
34
  3
Dim
350
35
  3
EdgeColorOff
350
3D
  3
Facepattern
350
39
  3
Flat
350
2B
  3
FlatWithEdges
350
2C
  3
Gouraud
350
2D
  3
GouraudWithEdges
350
2E
  3
Hidden
350
31
  3
JitterOff
350
3B
  3
Linepattern
350
38
  3
OverhangOff
350
3C
  3
Realistic
350
33
  3
Shaded
350
42
  3
Shaded with edges
350
41
  3
Shades of Gray
350
3E
  3
Sketchy
350
3F
  3
Thicken
350
37
  3
Wireframe
350
30
  3
X-Ray
350
40
  0
XRECORD
  5
31A
102
{ACAD_REACTORS
330
C
102
}
330
C
100
AcDbXrecord
280
     1
 90
        1
330
6A
  0
DICTIONARY
  5
2DA
102
{ACAD_REACTORS
330
C
102
}
330
C
100
AcDbDictionary
281
     1
  3
CANNOSCALE
350
2DB
  3
CENTEREXE
350
31F
  3
CENTERLTYPEFILE
350
320
  3
CMLEADERSTYLE
350
31C
  3
CTABLESTYLE
350
31B
  3
MSLTSCALE
350
2DC
  3
XCLIPFRAME
350
2DD
  0
XRECORD
  5
2D9
102
{ACAD_REACTORS
330
2D8
102
}
330
2D8
100
AcDbXrecord
280
     1
102
VTR_0.000_0.000_1.000_1.000_VISUALSTYLE
340
2F
102
VTR_0.000_0.000_1.000_1.000_GRIDDISPLAY
 70
     3
102
VTR_0.000_0.000_1.000_1.000_GRIDMAJOR
 70
     5
102
VTR_0.000_0.000_1.000_1.000_DEFAULTLIGHTING
280
     1
102
VTR_0.000_0.000_1.000_1.000_DEFAULTLIGHTINGTYPE
 70
     1
102
VTR_0.000_0.000_1.000_1.000_BRIGHTNESS
141
0.0
102
VTR_0.000_0.000_1.000_1.000_CONTRAST
142
0.0
  0
LAYOUT
  5
1E
102
{ACAD_REACTORS
330
1A
102
}
330
1A
100
AcDbPlotSettings
  1

  2
none_device
  4

  6

 40
0.0
 41
0.0
 42
0.0
 43
0.0
 44
0.0
 45
0.0
 46
0.0
 47
0.0
 48
0.0
 49
0.0
140
0.0
141
0.0
142
1.0
143
1.0
 70
   688
 72
     1
 73
     0
 74
     5
  7

 75
    16
 76
     0
 77
     5
 78
   300
147
1.0
148
0.0
149
0.0
100
AcDbLayout
  1
Layout1
 70
     1
 71
     1
 10
0.0
 20
0.0
 11
420.0
 21
297.0
 12
0.0
 22
0.0
 32
0.0
 14
1.000000000000000E+20
 24
1.000000000000000E+20
 34
1.000000000000000E+20
 15
-1.000000000000000E+20
 25
-1.000000000000000E+20
 35
-1.000000000000000E+20
146
0.0
 13
0.0
 23
0.0
 33
0.0
 16
1.0
 26
0.0
 36
0.0
 17
0.0
 27
1.0
 37
0.0
 76
     0
330
1B
  0
LAYOUT
  5
26
102
{ACAD_REACTORS
330
1A
102
}
330
1A
100
AcDbPlotSettings
  1

  2
none_device
  4

  6

 40
0.0
 41
0.0
 42
0.0
 43
0.0
 44
0.0
 45
0.0
 46
0.0
 47
0.0
 48
0.0
 49
0.0
140
0.0
141
0.0
142
1.0
143
1.0
 70
   688
 72
     1
 73
     0
 74
     5
  7

 75
    16
 76
     0
 77
     5
 78
   300
147
1.0
148
0.0
149
0.0
100
AcDbLayout
  1
Layout2
 70
     1
 71
     2
 10
0.0
 20
0.0
 11
0.0
 21
0.0
 12
0.0
 22
0.0
 32
0.0
 14
0.0
 24
0.0
 34
0.0
 15
0.0
 25
0.0
 35
0.0
146
0.0
 13
0.0
 23
0.0
 33
0.0
 16
1.0
 26
0.0
 36
0.0
 17
0.0
 27
1.0
 37
0.0
 76
     0
330
23
  0
LAYOUT
  5
22
102
{ACAD_REACTORS
330
1A
102
}
330
1A
100
AcDbPlotSettings
  1

  2
none_device
  4
Letter_(8.50_x_11.00_Inches)
  6

 40
6.35
 41
6.35
 42
6.35000508
 43
6.35000508
 44
215.9
 45
279.4
 46
0.0
 47
0.0
 48
0.0
 49
0.0
140
0.0
141
0.0
142
1.0
143
1.0
 70
  1712
 72
     1
 73
     0
 74
     0
  7

 75
     0
 76
     0
 77
     5
 78
   300
147
1.0
148
0.0
149
0.0
100
AcDbLayout
  1
Model
 70
     1
 71
     0
 10
-630.0
 20
-445.5
 11
630.0
 21
445.5
 12
0.0
 22
0.0
 32
0.0
 14
-630.0
 24
-445.5
 34
0.0
 15
630.0
 25
445.5
 35
0.0
146
0.0
 13
0.0
 23
0.0
 33
0.0
 16
1.0
 26
0.0
 36
0.0
 17
0.0
 27
1.0
 37
0.0
 76
     0
330
1F
331
29
  0
MATERIAL
  5
45
102
{ACAD_REACTORS
330
43
102
}
102
{ACAD_XDICTIONARY
360
310
102
}
330
43
100
AcDbMaterial
  1
ByBlock
  0
MATERIAL
  5
44
102
{ACAD_REACTORS
330
43
102
}
102
{ACAD_XDICTIONARY
360
30E
102
}
330
43
100
AcDbMaterial
  1
ByLayer
  0
MATERIAL
  5
46
102
{ACAD_REACTORS
330
43
102
}
102
{ACAD_XDICTIONARY
360
312
102
}
330
43
100
AcDbMaterial
  1
Global
  0
MLEADERSTYLE
  5
6C
102
{ACAD_REACTORS
330
6B
102
}
102
{ACAD_XDICTIONARY
360
318
102
}
330
6B
100
AcDbMLeaderStyle
170
     2
171
     1
172
     0
 90
        2
 40
0.0
 41
0.0
173
     1
 91
-1056964608
340
14
 92
       -2
290
     1
 42
2.0
291
     1
 43
8.0
  3
Standard
341
0
 44
4.0
300

342
11
174
     1
178
     6
175
     1
176
     0
 93
-1056964608
 45
4.0
292
     0
297
     0
 46
4.0
343
0
 94
-1056964608
 47
1.0
 49
1.0
140
1.0
293
     1
141
0.0
294
     1
177
     0
142
1.0
295
     0
296
     0
143
3.75
1001
ACAD_MLEADERVER
1070
     2
  0
MLINESTYLE
  5
18
102
{ACAD_REACTORS
330
17
102
}
330
17
100
AcDbMlineStyle
  2
Standard
 70
     0
  3

 62
   256
 51
90.0
 52
90.0
 71
     2
 49
0.5
 62
   256
  6
BYLAYER
 49
-0.5
 62
   256
  6
BYLAYER
  0
ACDBPLACEHOLDER
  5
F
102
{ACAD_REACTORS
330
E
102
}
330
E
  0
SCALE
  5
48
102
{ACAD_REACTORS
330
47
102
}
330
47
100
AcDbScale
 70
     0
300
1:1
140
1.0
141
1.0
290
     1
  0
SCALE
  5
49
102
{ACAD_REACTORS
330
47
102
}
330
47
100
AcDbScale
 70
     0
300
1:2
140
1.0
141
2.0
290
     0
  0
SCALE
  5
4A
102
{ACAD_REACTORS
330
47
102
}
330
47
100
AcDbScale
 70
     0
300
1:4
140
1.0
141
4.0
290
     0
  0
SCALE
  5
4B
102
{ACAD_REACTORS
330
47
102
}
330
47
100
AcDbScale
 70
     0
300
1:5
140
1.0
141
5.0
290
     0
  0
SCALE
  5
4C
102
{ACAD_REACTORS
330
47
102
}
330
47
100
AcDbScale
 70
     0
300
1:8
140
1.0
141
8.0
290
     0
  0
SCALE
  5
4D
102
{ACAD_REACTORS
330
47
102
}
330
47
100
AcDbScale
 70
     0
300
1:10
140
1.0
141
10.0
290
     0
  0
SCALE
  5
4E
102
{ACAD_REACTORS
330
47
102
}
330
47
100
AcDbScale
 70
     0
300
1:16
140
1.0
141
16.0
290
     0
  0
SCALE
  5
4F
102
{ACAD_REACTORS
330
47
102
}
330
47
100
AcDbScale
 70
     0
300
1:20
140
1.0
141
20.0
290
     0
  0
SCALE
  5
50
102
{ACAD_REACTORS
330
47
102
}
330
47
100
AcDbScale
 70
     0
300
1:30
140
1.0
141
30.0
290
     0
  0
SCALE
  5
51
102
{ACAD_REACTORS
330
47
102
}
330
47
100
AcDbScale
 70
     0
300
1:40
140
1.0
141
40.0
290
     0
  0
SCALE
  5
52
102
{ACAD_REACTORS
330
47
102
}
330
47
100
AcDbScale
 70
     0
300
1:50
140
1.0
141
50.0
290
     0
  0
SCALE
  5
53
102
{ACAD_REACTORS
330
47
102
}
330
47
100
AcDbScale
 70
     0
300
1:100
140
1.0
141
100.0
290
     0
  0
SCALE
  5
54
102
{ACAD_REACTORS
330
47
102
}
330
47
100
AcDbScale
 70
     0
300
2:1
140
2.0
141
1.0
290
     0
  0
SCALE
  5
55
102
{ACAD_REACTORS
330
47
102
}
330
47
100
AcDbScale
 70
     0
300
4:1
140
4.0
141
1.0
290
     0
  0
SCALE
  5
56
102
{ACAD_REACTORS
330
47
102
}
330
47
100
AcDbScale
 70
     0
300
8:1
140
8.0
141
1.0
290
     0
  0
SCALE
  5
57
102
{ACAD_REACTORS
330
47
102
}
330
47
100
AcDbScale
 70
     0
300
10:1
140
10.0
141
1.0
290
     0
  0
SCALE
  5
58
102
{ACAD_REACTORS
330
47
102
}
330
47
100
AcDbScale
 70
     0
300
100:1
140
100.0
141
1.0
290
     0
  0
SCALE
  5
59
102
{ACAD_REACTORS
330
47
102
}
330
47
100
AcDbScale
 70
     0
300
1/128" = 1'-0"
140
0.0078125
141
12.0
290
     0
  0
SCALE
  5
5A
102
{ACAD_REACTORS
330
47
102
}
330
47
100
AcDbScale
 70
     0
300
1/64" = 1'-0"
140
0.015625
141
12.0
290
     0
  0
SCALE
  5
5B
102
{ACAD_REACTORS
330
47
102
}
330
47
100
AcDbScale
 70
     0
300
1/32" = 1'-0"
140
0.03125
141
12.0
290
     0
  0
SCALE
  5
5C
102
{ACAD_REACTORS
330
47
102
}
330
47
100
AcDbScale
 70
     0
300
1/16" = 1'-0"
140
0.0625
141
12.0
290
     0
  0
SCALE
  5
5D
102
{ACAD_REACTORS
330
47
102
}
330
47
100
AcDbScale
 70
     0
300
3/32" = 1'-0"
140
0.09375
141
12.0
290
     0
  0
SCALE
  5
5E
102
{ACAD_REACTORS
330
47
102
}
330
47
100
AcDbScale
 70
     0
300
1/8" = 1'-0"
140
0.125
141
12.0
290
     0
  0
SCALE
  5
5F
102
{ACAD_REACTORS
330
47
102
}
330
47
100
AcDbScale
 70
     0
300
3/16" = 1'-0"
140
0.1875
141
12.0
290
     0
  0
SCALE
  5
60
102
{ACAD_REACTORS
330
47
102
}
330
47
100
AcDbScale
 70
     0
300
1/4" = 1'-0"
140
0.25
141
12.0
290
     0
  0
SCALE
  5
61
102
{ACAD_REACTORS
330
47
102
}
330
47
100
AcDbScale
 70
     0
300
3/8" = 1'-0"
140
0.375
141
12.0
290
     0
  0
SCALE
  5
62
102
{ACAD_REACTORS
330
47
102
}
330
47
100
AcDbScale
 70
     0
300
1/2" = 1'-0"
140
0.5
141
12.0
290
     0
  0
SCALE
  5
63
102
{ACAD_REACTORS
330
47
102
}
330
47
100
AcDbScale
 70
     0
300
3/4" = 1'-0"
140
0.75
141
12.0
290
     0
  0
SCALE
  5
64
102
{ACAD_REACTORS
330
47
102
}
330
47
100
AcDbScale
 70
     0
300
1" = 1'-0"
140
1.0
141
12.0
290
     0
  0
SCALE
  5
65
102
{ACAD_REACTORS
330
47
102
}
330
47
100
AcDbScale
 70
     0
300
1-1/2" = 1'-0"
140
1.5
141
12.0
290
     0
  0
SCALE
  5
66
102
{ACAD_REACTORS
330
47
102
}
330
47
100
AcDbScale
 70
     0
300
3" = 1'-0"
140
3.0
141
12.0
290
     0
  0
SCALE
  5
67
102
{ACAD_REACTORS
330
47
102
}
330
47
100
AcDbScale
 70
     0
300
6" = 1'-0"
140
6.0
141
12.0
290
     0
  0
SCALE
  5
68
102
{ACAD_REACTORS
330
47
102
}
330
47
100
AcDbScale
 70
     0
300
1'-0" = 1'-0"
140
12.0
141
12.0
290
     0
  0
TABLESTYLE
  5
6A
102
{ACAD_REACTORS
330
69
102
}
102
{ACAD_XDICTIONARY
360
314
102
}
330
69
100
AcDbTableStyle
  3
Standard
 70
     0
 71
     0
 40
0.06
 41
0.06
280
     0
281
     0
  7
Standard
140
4.5
170
     2
 62
     0
 63
   257
283
     0
274
    -2
284
     1
 64
     0
275
    -2
285
     1
 65
     0
276
    -2
286
     1
 66
     0
277
    -2
287
     1
 67
     0
278
    -2
288
     1
 68
     0
279
    -2
289
     1
 69
     0
  7
Standard
140
6.0
170
     5
 62
     0
 63
   257
283
     0
274
    -2
284
     1
 64
     0
275
    -2
285
     1
 65
     0
276
    -2
286
     1
 66
     0
277
    -2
287
     1
 67
     0
278
    -2
288
     1
 68
     0
279
    -2
289
     1
 69
     0
  7
Standard
140
4.5
170
     5
 62
     0
 63
   257
283
     0
274
    -2
284
     1
 64
     0
275
    -2
285
     1
 65
     0
276
    -2
286
     1
 66
     0
277
    -2
287
     1
 67
     0
278
    -2
288
     1
 68
     0
279
    -2
289
     1
 69
     0
  0
VISUALSTYLE
  5
2F
102
{ACAD_REACTORS
330
2A
102
}
102
{ACAD_XDICTIONARY
360
2E6
102
}
330
2A
100
AcDbVisualStyle
  2
2dWireframe
 70
     4
 71
     0
 72
     2
 73
     0
 90
        0
 40
0.6
 41
30.0
 62
     5
 63
     7
421
 16777215
 74
     1
 91
        4
 64
     7
 65
   257
 75
     1
175
     1
 42
1.0
 92
        0
 66
   257
 43
1.0
 76
     1
 77
     6
 78
     2
 67
     7
 79
     5
170
     0
171
     0
290
     0
174
     0
 93
        1
 44
0.0
173
     0
291
     0
 45
0.0
1001
ACAD
1000
AcDbSavedByObjectVersion
1070
     0
  0
VISUALSTYLE
  5
32
102
{ACAD_REACTORS
330
2A
102
}
102
{ACAD_XDICTIONARY
360
2EC
102
}
330
2A
100
AcDbVisualStyle
  2
Basic
 70
     7
 71
     1
 72
     0
 73
     1
 90
        0
 40
0.6
 41
30.0
 62
     5
 63
     7
421
 16777215
 74
     0
 91
        4
 64
     7
 65
   257
 75
     1
175
     1
 42
1.0
 92
        8
 66
     7
 43
1.0
 76
     1
 77
     6
 78
     2
 67
     7
 79
     5
170
     0
171
     0
290
     0
174
     0
 93
        1
 44
0.0
173
     0
291
     1
 45
0.0
1001
ACAD
1000
AcDbSavedByObjectVersion
1070
     0
  0
VISUALSTYLE
  5
36
102
{ACAD_REACTORS
330
2A
102
}
102
{ACAD_XDICTIONARY
360
2F4
102
}
330
2A
100
AcDbVisualStyle
  2
Brighten
 70
    12
 71
     2
 72
     2
 73
     0
 90
        0
 40
0.6
 41
30.0
 62
     5
 63
     7
421
 16777215
 74
     1
 91
        4
 64
     7
 65
   257
 75
     1
175
     1
 42
1.0
 92
        8
 66
     7
 43
1.0
 76
     1
 77
     6
 78
     2
 67
     7
 79
     5
170
     0
171
     0
290
     0
174
     0
 93
        1
 44
50.0
173
     0
291
     1
 45
0.0
1001
ACAD
1000
AcDbSavedByObjectVersion
1070
     0
  0
VISUALSTYLE
  5
3A
102
{ACAD_REACTORS
330
2A
102
}
102
{ACAD_XDICTIONARY
360
2FC
102
}
330
2A
100
AcDbVisualStyle
  2
ColorChange
 70
    16
 71
     2
 72
     2
 73
     3
 90
        0
 40
0.6
 41
30.0
 62
     5
 63
     8
421
  8421504
 74
     1
 91
        4
 64
     7
 65
   257
 75
     1
175
     1
 42
1.0
 92
        8
 66
     8
424
  8421504
 43
1.0
 76
     1
 77
     6
 78
     2
 67
     7
 79
     5
170
     0
171
     0
290
     0
174
     0
 93
        1
 44
0.0
173
     0
291
     1
 45
0.0
1001
ACAD
1000
AcDbSavedByObjectVersion
1070
     0
  0
VISUALSTYLE
  5
34
102
{ACAD_REACTORS
330
2A
102
}
102
{ACAD_XDICTIONARY
360
2F0
102
}
330
2A
100
AcDbVisualStyle
  2
Conceptual
 70
     9
 71
     3
 72
     2
 73
     0
 90
        0
 40
0.6
 41
30.0
 62
     5
 63
     7
421
 16777215
 74
     2
 91
        2
 64
     7
 65
   257
 75
     1
175
     1
 42
179.0
 92
        8
 66
     7
 43
1.0
 76
     1
 77
     6
 78
     2
 67
     7
 79
     3
170
     0
171
     0
290
     0
174
     0
 93
        1
 44
0.0
173
     0
291
     0
 45
0.0
1001
ACAD
1000
AcDbSavedByObjectVersion
1070
     0
  0
VISUALSTYLE
  5
35
102
{ACAD_REACTORS
330
2A
102
}
102
{ACAD_XDICTIONARY
360
2F2
102
}
330
2A
100
AcDbVisualStyle
  2
Dim
 70
    11
 71
     2
 72
     2
 73
     0
 90
        0
 40
0.6
 41
30.0
 62
     5
 63
     7
421
 16777215
 74
     1
 91
        4
 64
     7
 65
   257
 75
     1
175
     1
 42
1.0
 92
        8
 66
     7
 43
1.0
 76
     1
 77
     6
 78
     2
 67
     7
 79
     5
170
     0
171
     0
290
     0
174
     0
 93
        1
 44
-50.0
173
     0
291
     1
 45
0.0
1001
ACAD
1000
AcDbSavedByObjectVersion
1070
     0
  0
VISUALSTYLE
  5
3D
102
{ACAD_REACTORS
330
2A
102
}
102
{ACAD_XDICTIONARY
360
302
102
}
330
2A
100
AcDbVisualStyle
  2
EdgeColorOff
 70
    22
 71
     2
 72
     2
 73
     0
 90
        0
 40
0.6
 41
30.0
 62
     5
 63
     7
421
 16777215
 74
     1
 91
        4
 64
     7
 65
   257
 75
     1
175
     1
 42
1.0
 92
        8
 66
     7
 43
1.0
 76
     1
 77
     6
 78
     2
 67
     7
 79
     5
170
     0
171
     0
290
     0
174
     0
 93
        1
 44
0.0
173
     0
291
     1
 45
0.0
1001
ACAD
1000
AcDbSavedByObjectVersion
1070
     0
  0
VISUALSTYLE
  5
39
102
{ACAD_REACTORS
330
2A
102
}
102
{ACAD_XDICTIONARY
360
2FA
102
}
330
2A
100
AcDbVisualStyle
  2
Facepattern
 70
    15
 71
     2
 72
     2
 73
     0
 90
        0
 40
0.6
 41
30.0
 62
     5
 63
     7
421
 16777215
 74
     1
 91
        4
 64
     7
 65
   257
 75
     1
175
     1
 42
1.0
 92
        8
 66
     7
 43
1.0
 76
     1
 77
     6
 78
     2
 67
     7
 79
     5
170
     0
171
     0
290
     0
174
     0
 93
        1
 44
0.0
173
     0
291
     1
 45
0.0
1001
ACAD
1000
AcDbSavedByObjectVersion
1070
     0
  0
VISUALSTYLE
  5
2B
102
{ACAD_REACTORS
330
2A
102
}
102
{ACAD_XDICTIONARY
360
2DE
102
}
330
2A
100
AcDbVisualStyle
  2
Flat
 70
     0
 71
     2
 72
     1
 73
     1
 90
        2
 40
0.6
 41
30.0
 62
     5
 63
     7
421
 16777215
 74
     0
 91
        0
 64
     7
 65
   257
 75
     1
175
     1
 42
1.0
 92
        8
 66
     7
 43
1.0
 76
     1
 77
     6
 78
     2
 67
     7
 79
     5
170
     0
171
     0
290
     0
174
     0
 93
       13
 44
0.0
173
     0
291
     1
 45
0.0
1001
ACAD
1000
AcDbSavedByObjectVersion
1070
     0
  0
VISUALSTYLE
  5
2C
102
{ACAD_REACTORS
330
2A
102
}
102
{ACAD_XDICTIONARY
360
2E0
102
}
330
2A
100
AcDbVisualStyle
  2
FlatWithEdges
 70
     1
 71
     2
 72
     1
 73
     1
 90
        2
 40
0.6
 41
30.0
 62
     5
 63
     7
421
 16777215
 74
     1
 91
        0
 64
     7
 65
   257
 75
     1
175
     1
 42
1.0
 92
        0
 66
   257
 43
1.0
 76
     1
 77
     6
 78
     2
 67
     7
 79
     5
170
     0
171
     0
290
     0
174
     0
 93
       13
 44
0.0
173
     0
291
     1
 45
0.0
1001
ACAD
1000
AcDbSavedByObjectVersion
1070
     0
  0
VISUALSTYLE
  5
2D
102
{ACAD_REACTORS
330
2A
102
}
102
{ACAD_XDICTIONARY
360
2E2
102
}
330
2A
100
AcDbVisualStyle
  2
Gouraud
 70
     2
 71
     2
 72
     2
 73
     1
 90
        2
 40
0.6
 41
30.0
 62
     5
 63
     7
421
 16777215
 74
     0
 91
        0
 64
     7
 65
   257
 75
     1
175
     1
 42
1.0
 92
        0
 66
     7
 43
1.0
 76
     1
 77
     6
 78
     2
 67
     7
 79
     5
170
     0
171
     0
290
     0
174
     0
 93
       13
 44
0.0
173
     0
291
     1
 45
0.0
1001
ACAD
1000
AcDbSavedByObjectVersion
1070
     0
  0
VISUALSTYLE
  5
2E
102
{ACAD_REACTORS
330
2A
102
}
102
{ACAD_XDICTIONARY
360
2E4
102
}
330
2A
100
AcDbVisualStyle
  2
GouraudWithEdges
 70
     3
 71
     2
 72
     2
 73
     1
 90
        2
 40
0.6
 41
30.0
 62
     5
 63
     7
421
 16777215
 74
     1
 91
        0
 64
     7
 65
   257
 75
     1
175
     1
 42
1.0
 92
        0
 66
   257
 43
1.0
 76
     1
 77
     6
 78
     2
 67
     7
 79
     5
170
     0
171
     0
290
     0
174
     0
 93
       13
 44
0.0
173
     0
291
     1
 45
0.0
1001
ACAD
1000
AcDbSavedByObjectVersion
1070
     0
  0
VISUALSTYLE
  5
31
102
{ACAD_REACTORS
330
2A
102
}
102
{ACAD_XDICTIONARY
360
2EA
102
}
330
2A
100
AcDbVisualStyle
  2
Hidden
 70
     6
 71
     1
 72
     2
 73
     2
 90
        0
 40
0.6
 41
30.0
 62
     5
 63
     7
421
 16777215
 74
     2
 91
        2
 64
     7
 65
   257
 75
     2
175
     1
 42
40.0
 92
        0
 66
   257
 43
1.0
 76
     1
 77
     6
 78
     2
 67
     7
 79
     3
170
     0
171
     0
290
     0
174
     0
 93
        1
 44
0.0
173
     0
291
     0
 45
0.0
1001
ACAD
1000
AcDbSavedByObjectVersion
1070
     0
  0
VISUALSTYLE
  5
3B
102
{ACAD_REACTORS
330
2A
102
}
102
{ACAD_XDICTIONARY
360
2FE
102
}
330
2A
100
AcDbVisualStyle
  2
JitterOff
 70
    20
 71
     2
 72
     2
 73
     0
 90
        0
 40
0.6
 41
30.0
 62
     5
 63
     7
421
 16777215
 74
     1
 91
        4
 64
     7
 65
   257
 75
     1
175
     1
 42
1.0
 92
       10
 66
     7
 43
1.0
 76
     1
 77
     6
 78
     2
 67
     7
 79
     5
170
     0
171
     0
290
     0
174
     0
 93
        1
 44
0.0
173
     0
291
     1
 45
0.0
1001
ACAD
1000
AcDbSavedByObjectVersion
1070
     0
  0
VISUALSTYLE
  5
38
102
{ACAD_REACTORS
330
2A
102
}
102
{ACAD_XDICTIONARY
360
2F8
102
}
330
2A
100
AcDbVisualStyle
  2
Linepattern
 70
    14
 71
     2
 72
     2
 73
     0
 90
        0
 40
0.6
 41
30.0
 62
     5
 63
     7
421
 16777215
 74
     1
 91
        4
 64
     7
 65
   257
 75
     7
175
     7
 42
1.0
 92
        8
 66
     7
 43
1.0
 76
     1
 77
     6
 78
     2
 67
     7
 79
     5
170
     0
171
     0
290
     0
174
     0
 93
        1
 44
0.0
173
     0
291
     1
 45
0.0
1001
ACAD
1000
AcDbSavedByObjectVersion
1070
     0
  0
VISUALSTYLE
  5
3C
102
{ACAD_REACTORS
330
2A
102
}
102
{ACAD_XDICTIONARY
360
300
102
}
330
2A
100
AcDbVisualStyle
  2
OverhangOff
 70
    21
 71
     2
 72
     2
 73
     0
 90
        0
 40
0.6
 41
30.0
 62
     5
 63
     7
421
 16777215
 74
     1
 91
        4
 64
     7
 65
   257
 75
     1
175
     1
 42
1.0
 92
        9
 66
     7
 43
1.0
 76
     1
 77
     6
 78
     2
 67
     7
 79
     5
170
     0
171
     0
290
     0
174
     0
 93
        1
 44
0.0
173
     0
291
     1
 45
0.0
1001
ACAD
1000
AcDbSavedByObjectVersion
1070
     0
  0
VISUALSTYLE
  5
33
102
{ACAD_REACTORS
330
2A
102
}
102
{ACAD_XDICTIONARY
360
2EE
102
}
330
2A
100
AcDbVisualStyle
  2
Realistic
 70
     8
 71
     2
 72
     3
 73
     0
 90
        2
 40
0.6
 41
30.0
 62
     5
 63
     7
421
 16777215
 74
     0
 91
        0
 64
     7
 65
   257
 75
     1
175
     1
 42
1.0
 92
        8
 66
   257
 43
1.0
 76
     1
 77
     6
 78
     2
 67
     7
 79
     3
170
     0
171
     0
290
     0
174
     0
 93
       13
 44
0.0
173
     0
291
     0
 45
0.0
1001
ACAD
1000
AcDbSavedByObjectVersion
1070
     0
  0
VISUALSTYLE
  5
42
102
{ACAD_REACTORS
330
2A
102
}
102
{ACAD_XDICTIONARY
360
30C
102
}
330
2A
100
AcDbVisualStyle
  2
Shaded
 70
    27
 71
     2
 72
     2
 73
     1
 90
        2
 40
0.6
 41
30.0
 62
     5
 63
     7
421
 16777215
 74
     0
 91
        4
 64
     7
 65
   257
 75
     1
175
     1
 42
1.0
 92
        8
 66
   257
 43
1.0
 76
     1
 77
     6
 78
     2
 67
     8
425
  7895160
 79
     3
170
     0
171
     0
290
     0
174
     0
 93
        5
 44
0.0
173
     0
291
     0
 45
0.0
1001
ACAD
1000
AcDbSavedByObjectVersion
1070
     0
  0
VISUALSTYLE
  5
41
102
{ACAD_REACTORS
330
2A
102
}
102
{ACAD_XDICTIONARY
360
30A
102
}
330
2A
100
AcDbVisualStyle
  2
Shaded with edges
 70
    26
 71
     2
 72
     2
 73
     1
 90
        2
 40
0.6
 41
30.0
 62
     5
 63
     7
421
 16777215
 74
     1
 91
       10
 64
     7
 65
   257
 75
     2
175
     1
 42
1.0
 92
        8
 66
   257
 43
1.0
 76
     1
 77
     6
 78
     2
 67
     7
 79
     3
170
     0
171
     0
290
     0
174
     0
 93
        5
 44
0.0
173
     0
291
     0
 45
0.0
1001
ACAD
1000
AcDbSavedByObjectVersion
1070
     0
  0
VISUALSTYLE
  5
3E
102
{ACAD_REACTORS
330
2A
102
}
102
{ACAD_XDICTIONARY
360
304
102
}
330
2A
100
AcDbVisualStyle
  2
Shades of Gray
 70
    23
 71
     2
 72
     2
 73
     3
 90
        0
 40
0.6
 41
30.0
 62
     5
 63
     7
421
 16777215
 74
     2
 91
        2
 64
     7
 65
     7
 75
     1
175
     1
 42
40.0
 92
        8
 66
     7
 43
1.0
 76
     1
 77
     6
 78
     2
 67
     7
 79
     3
170
     0
171
     0
290
     0
174
     0
 93
        1
 44
0.0
173
     0
291
     0
 45
0.0
1001
ACAD
1000
AcDbSavedByObjectVersion
1070
     0
  0
VISUALSTYLE
  5
3F
102
{ACAD_REACTORS
330
2A
102
}
102
{ACAD_XDICTIONARY
360
306
102
}
330
2A
100
AcDbVisualStyle
  2
Sketchy
 70
    24
 71
     1
 72
     2
 73
     2
 90
        0
 40
0.6
 41
30.0
 62
     5
 63
     7
421
 16777215
 74
     2
 91
        2
 64
     7
 65
     7
 75
     1
175
     1
 42
40.0
 92
       11
 66
     7
 43
1.0
 76
     1
 77
     6
 78
     2
 67
     7
 79
     6
170
     0
171
     0
290
     0
174
     0
 93
        1
 44
0.0
173
     0
291
     0
 45
0.0
1001
ACAD
1000
AcDbSavedByObjectVersion
1070
     0
  0
VISUALSTYLE
  5
37
102
{ACAD_REACTORS
330
2A
102
}
102
{ACAD_XDICTIONARY
360
2F6
102
}
330
2A
100
AcDbVisualStyle
  2
Thicken
 70
    13
 71
     2
 72
     2
 73
     0
 90
        0
 40
0.6
 41
30.0
 62
     5
 63
     7
421
 16777215
 74
     1
 91
        4
 64
     7
 65
   257
 75
     1
175
     1
 42
1.0
 92
       12
 66
     7
 43
1.0
 76
     1
 77
     6
 78
     2
 67
     7
 79
     5
170
     0
171
     0
290
     0
174
     0
 93
        1
 44
0.0
173
     0
291
     1
 45
0.0
1001
ACAD
1000
AcDbSavedByObjectVersion
1070
     0
  0
VISUALSTYLE
  5
30
102
{ACAD_REACTORS
330
2A
102
}
102
{ACAD_XDICTIONARY
360
2E8
102
}
330
2A
100
AcDbVisualStyle
  2
Wireframe
 70
     5
 71
     0
 72
     2
 73
     0
 90
        0
 40
0.6
 41
30.0
 62
     5
 63
     7
421
 16777215
 74
     1
 91
        4
 64
     7
 65
   257
 75
     1
175
     1
 42
1.0
 92
        0
 66
   257
 43
1.0
 76
     1
 77
     6
 78
     2
 67
     7
 79
     3
170
     0
171
     0
290
     0
174
     0
 93
        1
 44
0.0
173
     0
291
     0
 45
0.0
1001
ACAD
1000
AcDbSavedByObjectVersion
1070
     0
  0
VISUALSTYLE
  5
40
102
{ACAD_REACTORS
330
2A
102
}
102
{ACAD_XDICTIONARY
360
308
102
}
330
2A
100
AcDbVisualStyle
  2
X-Ray
 70
    25
 71
     2
 72
     2
 73
     1
 90
        1
 40
0.5
 41
30.0
 62
     5
 63
     7
421
 16777215
 74
     1
 91
        0
 64
     7
 65
   257
 75
     1
175
     1
 42
1.0
 92
        8
 66
     7
 43
1.0
 76
     1
 77
     6
 78
     2
 67
     7
 79
     3
170
     0
171
     0
290
     0
174
     0
 93
       13
 44
0.0
173
     0
291
     0
 45
0.0
1001
ACAD
1000
AcDbSavedByObjectVersion
1070
     0
  0
DICTIONARYVAR
  5
2DB
102
{ACAD_REACTORS
330
2DA
102
}
330
2DA
100
DictionaryVariables
280
     0
  1
1:1
  0
DICTIONARYVAR
  5
31F
102
{ACAD_REACTORS
330
2DA
102
}
330
2DA
100
DictionaryVariables
280
     0
  1
3.500000
  0
DICTIONARYVAR
  5
320
102
{ACAD_REACTORS
330
2DA
102
}
330
2DA
100
DictionaryVariables
280
     0
  1
acadiso.lin
  0
DICTIONARYVAR
  5
31C
102
{ACAD_REACTORS
330
2DA
102
}
330
2DA
100
DictionaryVariables
280
     0
  1
Standard
  0
DICTIONARYVAR
  5
31B
102
{ACAD_REACTORS
330
2DA
102
}
330
2DA
100
DictionaryVariables
280
     0
  1
Standard
  0
DICTIONARYVAR
  5
2DC
102
{ACAD_REACTORS
330
2DA
102
}
330
2DA
100
DictionaryVariables
280
     0
  1
1
  0
DICTIONARYVAR
  5
2DD
102
{ACAD_REACTORS
330
2DA
102
}
330
2DA
100
DictionaryVariables
280
     0
  1
2
  0
DICTIONARY
  5
310
330
45
100
AcDbDictionary
280
     1
281
     1
  3
ACAD_XREC_ROUNDTRIP
360
311
  0
DICTIONARY
  5
30E
330
44
100
AcDbDictionary
280
     1
281
     1
  3
ACAD_XREC_ROUNDTRIP
360
30F
  0
DICTIONARY
  5
312
330
46
100
AcDbDictionary
280
     1
281
     1
  3
ACAD_XREC_ROUNDTRIP
360
313
  0
DICTIONARY
  5
318
330
6C
100
AcDbDictionary
280
     1
281
     1
  3
ACAD_XREC_ROUNDTRIP
360
319
  0
DICTIONARY
  5
314
330
6A
100
AcDbDictionary
280
     1
281
     1
  3
ACAD_ROUNDTRIP_2008_TABLESTYLE_CELLSTYLEMAP
360
316
  3
ACAD_XREC_ROUNDTRIP
360
315
  0
DICTIONARY
  5
2E6
330
2F
100
AcDbDictionary
280
     1
281
     1
  3
ACAD_XREC_ROUNDTRIP
360
2E7
  0
DICTIONARY
  5
2EC
330
32
100
AcDbDictionary
280
     1
281
     1
  3
ACAD_XREC_ROUNDTRIP
360
2ED
  0
DICTIONARY
  5
2F4
330
36
100
AcDbDictionary
280
     1
281
     1
  3
ACAD_XREC_ROUNDTRIP
360
2F5
  0
DICTIONARY
  5
2FC
330
3A
100
AcDbDictionary
280
     1
281
     1
  3
ACAD_XREC_ROUNDTRIP
360
2FD
  0
DICTIONARY
  5
2F0
330
34
100
AcDbDictionary
280
     1
281
     1
  3
ACAD_XREC_ROUNDTRIP
360
2F1
  0
DICTIONARY
  5
2F2
330
35
100
AcDbDictionary
280
     1
281
     1
  3
ACAD_XREC_ROUNDTRIP
360
2F3
  0
DICTIONARY
  5
302
330
3D
100
AcDbDictionary
280
     1
281
     1
  3
ACAD_XREC_ROUNDTRIP
360
303
  0
DICTIONARY
  5
2FA
330
39
100
AcDbDictionary
280
     1
281
     1
  3
ACAD_XREC_ROUNDTRIP
360
2FB
  0
DICTIONARY
  5
2DE
330
2B
100
AcDbDictionary
280
     1
281
     1
  3
ACAD_XREC_ROUNDTRIP
360
2DF
  0
DICTIONARY
  5
2E0
330
2C
100
AcDbDictionary
280
     1
281
     1
  3
ACAD_XREC_ROUNDTRIP
360
2E1
  0
DICTIONARY
  5
2E2
330
2D
100
AcDbDictionary
280
     1
281
     1
  3
ACAD_XREC_ROUNDTRIP
360
2E3
  0
DICTIONARY
  5
2E4
330
2E
100
AcDbDictionary
280
     1
281
     1
  3
ACAD_XREC_ROUNDTRIP
360
2E5
  0
DICTIONARY
  5
2EA
330
31
100
AcDbDictionary
280
     1
281
     1
  3
ACAD_XREC_ROUNDTRIP
360
2EB
  0
DICTIONARY
  5
2FE
330
3B
100
AcDbDictionary
280
     1
281
     1
  3
ACAD_XREC_ROUNDTRIP
360
2FF
  0
DICTIONARY
  5
2F8
330
38
100
AcDbDictionary
280
     1
281
     1
  3
ACAD_XREC_ROUNDTRIP
360
2F9
  0
DICTIONARY
  5
300
330
3C
100
AcDbDictionary
280
     1
281
     1
  3
ACAD_XREC_ROUNDTRIP
360
301
  0
DICTIONARY
  5
2EE
330
33
100
AcDbDictionary
280
     1
281
     1
  3
ACAD_XREC_ROUNDTRIP
360
2EF
  0
DICTIONARY
  5
30C
330
42
100
AcDbDictionary
280
     1
281
     1
  3
ACAD_XREC_ROUNDTRIP
360
30D
  0
DICTIONARY
  5
30A
330
41
100
AcDbDictionary
280
     1
281
     1
  3
ACAD_XREC_ROUNDTRIP
360
30B
  0
DICTIONARY
  5
304
330
3E
100
AcDbDictionary
280
     1
281
     1
  3
ACAD_XREC_ROUNDTRIP
360
305
  0
DICTIONARY
  5
306
330
3F
100
AcDbDictionary
280
     1
281
     1
  3
ACAD_XREC_ROUNDTRIP
360
307
  0
DICTIONARY
  5
2F6
330
37
100
AcDbDictionary
280
     1
281
     1
  3
ACAD_XREC_ROUNDTRIP
360
2F7
  0
DICTIONARY
  5
2E8
330
30
100
AcDbDictionary
280
     1
281
     1
  3
ACAD_XREC_ROUNDTRIP
360
2E9
  0
DICTIONARY
  5
308
330
40
100
AcDbDictionary
280
     1
281
     1
  3
ACAD_XREC_ROUNDTRIP
360
309
  0
XRECORD
  5
311
102
{ACAD_REACTORS
330
310
102
}
330
310
100
AcDbXrecord
280
     1
102
MATERIAL
148
0.0
149
0.0
149
0.0
 93
        0
 94
      127
282
     0
 72
     1
 77
     1
171
     1
175
     1
179
     1
273
     0
  0
XRECORD
  5
30F
102
{ACAD_REACTORS
330
30E
102
}
330
30E
100
AcDbXrecord
280
     1
102
MATERIAL
148
0.0
149
0.0
149
0.0
 93
        0
 94
      127
282
     0
 72
     1
 77
     1
171
     1
175
     1
179
     1
273
     0
  0
XRECORD
  5
313
102
{ACAD_REACTORS
330
312
102
}
330
312
100
AcDbXrecord
280
     1
102
MATERIAL
148
0.0
149
0.0
149
0.0
 93
        0
 94
      127
282
     0
 72
     1
 77
     1
171
     1
175
     1
179
     1
273
     0
  0
XRECORD
  5
319
102
{ACAD_REACTORS
330
318
102
}
330
318
100
AcDbXrecord
280
     1
102
ACAD_ROUNDTRIP_2010_MLEADER_STYLE
  0
CELLSTYLEMAP
  5
316
102
{ACAD_REACTORS
330
314
102
}
330
314
100
AcDbCellStyleMap
 90
        3
300
CELLSTYLE
  1
TABLEFORMAT_BEGIN
 90
        5
170
     1
 91
        0
 92
    32768
 62
   257
 93
        1
300
CONTENTFORMAT
  1
CONTENTFORMAT_BEGIN
 90
        0
 91
        0
 92
        4
 93
        0
300

 40
0.0
140
1.0
 94
        5
 62
     0
340
11
144
6.0
309
CONTENTFORMAT_END
171
     1
301
MARGIN
  1
CELLMARGIN_BEGIN
 40
1.5
 40
1.5
 40
1.5
 40
1.5
 40
1.5
 40
1.5
309
CELLMARGIN_END
 94
        6
 95
        1
302
GRIDFORMAT
  1
GRIDFORMAT_BEGIN
 90
        0
 91
        1
 62
     0
 92
       -2
340
14
 93
        0
 40
0.045
309
GRIDFORMAT_END
 95
        2
302
GRIDFORMAT
  1
GRIDFORMAT_BEGIN
 90
        0
 91
        1
 62
     0
 92
       -2
340
14
 93
        0
 40
0.045
309
GRIDFORMAT_END
 95
        4
302
GRIDFORMAT
  1
GRIDFORMAT_BEGIN
 90
        0
 91
        1
 62
     0
 92
       -2
340
14
 93
        0
 40
0.045
309
GRIDFORMAT_END
 95
        8
302
GRIDFORMAT
  1
GRIDFORMAT_BEGIN
 90
        0
 91
        1
 62
     0
 92
       -2
340
14
 93
        0
 40
0.045
309
GRIDFORMAT_END
 95
       16
302
GRIDFORMAT
  1
GRIDFORMAT_BEGIN
 90
        0
 91
        1
 62
     0
 92
       -2
340
14
 93
        0
 40
0.045
309
GRIDFORMAT_END
 95
       32
302
GRIDFORMAT
  1
GRIDFORMAT_BEGIN
 90
        0
 91
        1
 62
     0
 92
       -2
340
14
 93
        0
 40
0.045
309
GRIDFORMAT_END
309
TABLEFORMAT_END
  1
CELLSTYLE_BEGIN
 90
        1
 91
        1
300
_TITLE
309
CELLSTYLE_END
300
CELLSTYLE
  1
TABLEFORMAT_BEGIN
 90
        5
170
     1
 91
        0
 92
        0
 62
   257
 93
        1
300
CONTENTFORMAT
  1
CONTENTFORMAT_BEGIN
 90
        0
 91
        0
 92
        4
 93
        0
300

 40
0.0
140
1.0
 94
        5
 62
     0
340
11
144
4.5
309
CONTENTFORMAT_END
171
     1
301
MARGIN
  1
CELLMARGIN_BEGIN
 40
1.5
 40
1.5
 40
1.5
 40
1.5
 40
1.5
 40
1.5
309
CELLMARGIN_END
 94
        6
 95
        1
302
GRIDFORMAT
  1
GRIDFORMAT_BEGIN
 90
        0
 91
        1
 62
     0
 92
       -2
340
14
 93
        0
 40
0.045
309
GRIDFORMAT_END
 95
        2
302
GRIDFORMAT
  1
GRIDFORMAT_BEGIN
 90
        0
 91
        1
 62
     0
 92
       -2
340
14
 93
        0
 40
0.045
309
GRIDFORMAT_END
 95
        4
302
GRIDFORMAT
  1
GRIDFORMAT_BEGIN
 90
        0
 91
        1
 62
     0
 92
       -2
340
14
 93
        0
 40
0.045
309
GRIDFORMAT_END
 95
        8
302
GRIDFORMAT
  1
GRIDFORMAT_BEGIN
 90
        0
 91
        1
 62
     0
 92
       -2
340
14
 93
        0
 40
0.045
309
GRIDFORMAT_END
 95
       16
302
GRIDFORMAT
  1
GRIDFORMAT_BEGIN
 90
        0
 91
        1
 62
     0
 92
       -2
340
14
 93
        0
 40
0.045
309
GRIDFORMAT_END
 95
       32
302
GRIDFORMAT
  1
GRIDFORMAT_BEGIN
 90
        0
 91
        1
 62
     0
 92
       -2
340
14
 93
        0
 40
0.045
309
GRIDFORMAT_END
309
TABLEFORMAT_END
  1
CELLSTYLE_BEGIN
 90
        2
 91
        1
300
_HEADER
309
CELLSTYLE_END
300
CELLSTYLE
  1
TABLEFORMAT_BEGIN
 90
        5
170
     1
 91
        0
 92
        0
 62
   257
 93
        1
300
CONTENTFORMAT
  1
CONTENTFORMAT_BEGIN
 90
        0
 91
        0
 92
        4
 93
        0
300

 40
0.0
140
1.0
 94
        2
 62
     0
340
11
144
4.5
309
CONTENTFORMAT_END
171
     1
301
MARGIN
  1
CELLMARGIN_BEGIN
 40
1.5
 40
1.5
 40
1.5
 40
1.5
 40
1.5
 40
1.5
309
CELLMARGIN_END
 94
        6
 95
        1
302
GRIDFORMAT
  1
GRIDFORMAT_BEGIN
 90
        0
 91
        1
 62
     0
 92
       -2
340
14
 93
        0
 40
0.045
309
GRIDFORMAT_END
 95
        2
302
GRIDFORMAT
  1
GRIDFORMAT_BEGIN
 90
        0
 91
        1
 62
     0
 92
       -2
340
14
 93
        0
 40
0.045
309
GRIDFORMAT_END
 95
        4
302
GRIDFORMAT
  1
GRIDFORMAT_BEGIN
 90
        0
 91
        1
 62
     0
 92
       -2
340
14
 93
        0
 40
0.045
309
GRIDFORMAT_END
 95
        8
302
GRIDFORMAT
  1
GRIDFORMAT_BEGIN
 90
        0
 91
        1
 62
     0
 92
       -2
340
14
 93
        0
 40
0.045
309
GRIDFORMAT_END
 95
       16
302
GRIDFORMAT
  1
GRIDFORMAT_BEGIN
 90
        0
 91
        1
 62
     0
 92
       -2
340
14
 93
        0
 40
0.045
309
GRIDFORMAT_END
 95
       32
302
GRIDFORMAT
  1
GRIDFORMAT_BEGIN
 90
        0
 91
        1
 62
     0
 92
       -2
340
14
 93
        0
 40
0.045
309
GRIDFORMAT_END
309
TABLEFORMAT_END
  1
CELLSTYLE_BEGIN
 90
        3
 91
        2
300
_DATA
309
CELLSTYLE_END
  0
XRECORD
  5
315
102
{ACAD_REACTORS
330
314
102
}
330
314
100
AcDbXrecord
280
     1
102
ACAD_ROUNDTRIP_PRE2007_TABLESTYLE
 90
        4
 91
        0
  1

 92
        4
 93
        0
  2

 94
        4
 95
        0
  3

  0
XRECORD
  5
2E7
102
{ACAD_REACTORS
330
2E6
102
}
330
2E6
100
AcDbXrecord
280
     1
102
RTVSPropertyOp0
 70
     1
102
RTVSPropertyOp1
 70
     1
102
RTVSPropertyOp2
 70
     1
102
RTVSPropertyOp3
 70
     1
102
RTVSPropertyOp4
 70
     1
102
RTVSPropertyOp5
 70
     1
102
RTVSPropertyOp6
 70
     1
102
RTVSPropertyOp7
 70
     1
102
RTVSPropertyOp8
 70
     1
102
RTVSPropertyOp9
 70
     1
102
RTVSPropertyOp10
 70
     1
102
RTVSPropertyOp11
 70
     1
102
RTVSPropertyOp12
 70
     1
102
RTVSPropertyOp13
 70
     1
102
RTVSPropertyOp14
 70
     1
102
RTVSPropertyOp15
 70
     1
102
RTVSPropertyOp16
 70
     1
102
RTVSPropertyOp17
 70
     1
102
RTVSPropertyOp18
 70
     1
102
RTVSPropertyOp19
 70
     1
102
RTVSPropertyOp20
 70
     1
102
RTVSPropertyOp21
 70
     1
102
RTVSPropertyOp22
 70
     1
102
RTVSPropertyOp23
 70
     1
102
RTVSPropertyOp24
 70
     1
102
RTVSPropertyOp25
 70
     1
102
RTVSPropertyOp26
 70
     1
102
RTVSPropertyOp27
 70
     1
102
RTVSPropertyOp28
 70
     1
102
RTVSPropertyOp29
 70
     1
102
RTVSPropertyOp30
 70
     1
102
RTVSPropertyOp31
 70
     1
102
RTVSPropertyOp32
 70
     1
102
RTVSPropertyOp33
 70
     1
102
RTVSPropertyOp34
 70
     1
102
RTVSPropertyOp35
 70
     1
102
RTVSPropertyOp36
 70
     1
102
RTVSPropertyOp37
 70
     1
102
RTVSPropertyOp38
 70
     1
102
RTVSPropertyOp39
 70
     1
102
RTVSPropertyOp40
 70
     1
102
RTVSPropertyOp41
 70
     1
102
RTVSPropertyOp42
 70
     1
102
RTVSPropertyOp43
 70
     1
102
RTVSPropertyOp44
 70
     1
102
RTVSPropertyOp45
 70
     1
102
RTVSPropertyOp46
 70
     1
102
RTVSPropertyOp47
 70
     1
102
RTVSPropertyOp48
 70
     1
102
RTVSPropertyOp49
 70
     1
102
RTVSPropertyOp50
 70
     1
102
RTVSPropertyOp51
 70
     0
102
RTVSPropertyOp52
 70
     0
102
RTVSPropertyOp53
 70
     1
102
RTVSPropertyOp54
 70
     1
102
RTVSPropertyOp55
 70
     1
102
RTVSPropertyOp56
 70
     1
102
RTVSPropertyOp57
 70
     1
102
RTVSPost2010Prop28
280
     1
102
RTVSPost2010PropOp28
 70
     1
102
RTVSPost2010Prop29
280
     1
102
RTVSPost2010PropOp29
 70
     1
102
RTVSPost2010Prop30
280
     0
102
RTVSPost2010PropOp30
 70
     1
102
RTVSPost2010Prop31
280
     0
102
RTVSPost2010PropOp31
 70
     1
102
RTVSPost2010Prop32
280
     0
102
RTVSPost2010PropOp32
 70
     1
102
RTVSPost2010Prop33
280
     0
102
RTVSPost2010PropOp33
 70
     1
102
RTVSPost2010Prop34
280
     0
102
RTVSPost2010PropOp34
 70
     1
102
RTVSPost2010Prop35
280
     0
102
RTVSPost2010PropOp35
 70
     1
102
RTVSPost2010Prop36
280
     0
102
RTVSPost2010PropOp36
 70
     1
102
RTVSPost2010Prop37
 90
       50
102
RTVSPost2010PropOp37
 70
     1
102
RTVSPost2010Prop38
140
0.0
102
RTVSPost2010PropOp38
 70
     1
102
RTVSPost2010Prop39
140
1.0
102
RTVSPost2010PropOp39
 70
     1
102
RTVSPost2010Prop40
 90
        0
102
RTVSPost2010PropOp40
 70
     1
102
RTVSPost2010Prop41ColorIndex
 90
       18
102
RTVSPost2010Prop41ColorRGB
 90
        0
102
RTVSPost2010PropOp41
 70
     1
102
RTVSPost2010Prop42
 90
       50
102
RTVSPost2010PropOp42
 70
     1
102
RTVSPost2010Prop43
 90
        3
102
RTVSPost2010PropOp43
 70
     1
102
RTVSPost2010Prop44ColorIndex
 90
        5
102
RTVSPost2010Prop44ColorRGB
 90
      255
102
RTVSPost2010PropOp44
 70
     1
102
RTVSPost2010Prop45
280
     0
102
RTVSPost2010PropOp45
 70
     1
102
RTVSPost2010Prop46
 90
       50
102
RTVSPost2010PropOp46
 70
     1
102
RTVSPost2010Prop47
 90
       50
102
RTVSPost2010PropOp47
 70
     1
102
RTVSPost2010Prop48
 90
       50
102
RTVSPost2010PropOp48
 70
     1
102
RTVSPost2010Prop49
280
     0
102
RTVSPost2010PropOp49
 70
     1
102
RTVSPost2010Prop50
 90
       50
102
RTVSPost2010PropOp50
 70
     1
102
RTVSPost2010Prop51ColorIndex
 90
      256
102
RTVSPost2010Prop51ColorRGB
 90
-16777216
102
RTVSPost2010PropOp51
 70
     0
102
RTVSPost2010Prop52
140
1.0
102
RTVSPost2010PropOp52
 70
     0
102
RTVSPost2010Prop53
 90
        2
102
RTVSPost2010PropOp53
 70
     1
102
RTVSPost2010Prop54
  1
strokes_ogs.tif
102
RTVSPost2010PropOp54
 70
     1
102
RTVSPost2010Prop55
280
     0
102
RTVSPost2010PropOp55
 70
     1
102
RTVSPost2010Prop56
140
1.0
102
RTVSPost2010PropOp56
 70
     1
102
RTVSPost2010Prop57
140
1.0
102
RTVSPost2010PropOp57
 70
     1
  0
XRECORD
  5
2ED
102
{ACAD_REACTORS
330
2EC
102
}
330
2EC
100
AcDbXrecord
280
     1
102
RTVSPropertyOp0
 70
     1
102
RTVSPropertyOp1
 70
     1
102
RTVSPropertyOp2
 70
     1
102
RTVSPropertyOp3
 70
     1
102
RTVSPropertyOp4
 70
     1
102
RTVSPropertyOp5
 70
     1
102
RTVSPropertyOp6
 70
     1
102
RTVSPropertyOp7
 70
     1
102
RTVSPropertyOp8
 70
     1
102
RTVSPropertyOp9
 70
     1
102
RTVSPropertyOp10
 70
     1
102
RTVSPropertyOp11
 70
     1
102
RTVSPropertyOp12
 70
     1
102
RTVSPropertyOp13
 70
     1
102
RTVSPropertyOp14
 70
     1
102
RTVSPropertyOp15
 70
     1
102
RTVSPropertyOp16
 70
     1
102
RTVSPropertyOp17
 70
     1
102
RTVSPropertyOp18
 70
     1
102
RTVSPropertyOp19
 70
     1
102
RTVSPropertyOp20
 70
     1
102
RTVSPropertyOp21
 70
     1
102
RTVSPropertyOp22
 70
     1
102
RTVSPropertyOp23
 70
     1
102
RTVSPropertyOp24
 70
     1
102
RTVSPropertyOp25
 70
     1
102
RTVSPropertyOp26
 70
     1
102
RTVSPropertyOp27
 70
     1
102
RTVSPropertyOp28
 70
     1
102
RTVSPropertyOp29
 70
     1
102
RTVSPropertyOp30
 70
     1
102
RTVSPropertyOp31
 70
     1
102
RTVSPropertyOp32
 70
     1
102
RTVSPropertyOp33
 70
     1
102
RTVSPropertyOp34
 70
     1
102
RTVSPropertyOp35
 70
     1
102
RTVSPropertyOp36
 70
     1
102
RTVSPropertyOp37
 70
     1
102
RTVSPropertyOp38
 70
     1
102
RTVSPropertyOp39
 70
     1
102
RTVSPropertyOp40
 70
     1
102
RTVSPropertyOp41
 70
     1
102
RTVSPropertyOp42
 70
     1
102
RTVSPropertyOp43
 70
     1
102
RTVSPropertyOp44
 70
     1
102
RTVSPropertyOp45
 70
     1
102
RTVSPropertyOp46
 70
     1
102
RTVSPropertyOp47
 70
     1
102
RTVSPropertyOp48
 70
     1
102
RTVSPropertyOp49
 70
     1
102
RTVSPropertyOp50
 70
     1
102
RTVSPropertyOp51
 70
     0
102
RTVSPropertyOp52
 70
     0
102
RTVSPropertyOp53
 70
     1
102
RTVSPropertyOp54
 70
     1
102
RTVSPropertyOp55
 70
     1
102
RTVSPropertyOp56
 70
     1
102
RTVSPropertyOp57
 70
     1
102
RTVSPost2010Prop28
280
     0
102
RTVSPost2010PropOp28
 70
     1
102
RTVSPost2010Prop29
280
     1
102
RTVSPost2010PropOp29
 70
     1
102
RTVSPost2010Prop30
280
     1
102
RTVSPost2010PropOp30
 70
     1
102
RTVSPost2010Prop31
280
     0
102
RTVSPost2010PropOp31
 70
     1
102
RTVSPost2010Prop32
280
     0
102
RTVSPost2010PropOp32
 70
     1
102
RTVSPost2010Prop33
280
     0
102
RTVSPost2010PropOp33
 70
     1
102
RTVSPost2010Prop34
280
     0
102
RTVSPost2010PropOp34
 70
     1
102
RTVSPost2010Prop35
280
     0
102
RTVSPost2010PropOp35
 70
     1
102
RTVSPost2010Prop36
280
     0
102
RTVSPost2010PropOp36
 70
     1
102
RTVSPost2010Prop37
 90
       50
102
RTVSPost2010PropOp37
 70
     1
102
RTVSPost2010Prop38
140
0.0
102
RTVSPost2010PropOp38
 70
     1
102
RTVSPost2010Prop39
140
1.0
102
RTVSPost2010PropOp39
 70
     1
102
RTVSPost2010Prop40
 90
        0
102
RTVSPost2010PropOp40
 70
     1
102
RTVSPost2010Prop41ColorIndex
 90
       18
102
RTVSPost2010Prop41ColorRGB
 90
        0
102
RTVSPost2010PropOp41
 70
     1
102
RTVSPost2010Prop42
 90
       50
102
RTVSPost2010PropOp42
 70
     1
102
RTVSPost2010Prop43
 90
        3
102
RTVSPost2010PropOp43
 70
     1
102
RTVSPost2010Prop44ColorIndex
 90
        5
102
RTVSPost2010Prop44ColorRGB
 90
      255
102
RTVSPost2010PropOp44
 70
     1
102
RTVSPost2010Prop45
280
     0
102
RTVSPost2010PropOp45
 70
     1
102
RTVSPost2010Prop46
 90
       50
102
RTVSPost2010PropOp46
 70
     1
102
RTVSPost2010Prop47
 90
       50
102
RTVSPost2010PropOp47
 70
     1
102
RTVSPost2010Prop48
 90
       50
102
RTVSPost2010PropOp48
 70
     1
102
RTVSPost2010Prop49
280
     0
102
RTVSPost2010PropOp49
 70
     1
102
RTVSPost2010Prop50
 90
       50
102
RTVSPost2010PropOp50
 70
     1
102
RTVSPost2010Prop51ColorIndex
 90
      256
102
RTVSPost2010Prop51ColorRGB
 90
-16777216
102
RTVSPost2010PropOp51
 70
     0
102
RTVSPost2010Prop52
140
1.0
102
RTVSPost2010PropOp52
 70
     0
102
RTVSPost2010Prop53
 90
        2
102
RTVSPost2010PropOp53
 70
     1
102
RTVSPost2010Prop54
  1
strokes_ogs.tif
102
RTVSPost2010PropOp54
 70
     1
102
RTVSPost2010Prop55
280
     0
102
RTVSPost2010PropOp55
 70
     1
102
RTVSPost2010Prop56
140
1.0
102
RTVSPost2010PropOp56
 70
     1
102
RTVSPost2010Prop57
140
1.0
102
RTVSPost2010PropOp57
 70
     1
  0
XRECORD
  5
2F5
102
{ACAD_REACTORS
330
2F4
102
}
330
2F4
100
AcDbXrecord
280
     1
102
RTVSPropertyOp0
 70
     1
102
RTVSPropertyOp1
 70
     1
102
RTVSPropertyOp2
 70
     1
102
RTVSPropertyOp3
 70
     1
102
RTVSPropertyOp4
 70
     1
102
RTVSPropertyOp5
 70
     1
102
RTVSPropertyOp6
 70
     1
102
RTVSPropertyOp7
 70
     1
102
RTVSPropertyOp8
 70
     1
102
RTVSPropertyOp9
 70
     1
102
RTVSPropertyOp10
 70
     1
102
RTVSPropertyOp11
 70
     1
102
RTVSPropertyOp12
 70
     1
102
RTVSPropertyOp13
 70
     1
102
RTVSPropertyOp14
 70
     1
102
RTVSPropertyOp15
 70
     1
102
RTVSPropertyOp16
 70
     1
102
RTVSPropertyOp17
 70
     1
102
RTVSPropertyOp18
 70
     1
102
RTVSPropertyOp19
 70
     1
102
RTVSPropertyOp20
 70
     1
102
RTVSPropertyOp21
 70
     1
102
RTVSPropertyOp22
 70
     1
102
RTVSPropertyOp23
 70
     1
102
RTVSPropertyOp24
 70
     1
102
RTVSPropertyOp25
 70
     1
102
RTVSPropertyOp26
 70
     1
102
RTVSPropertyOp27
 70
     1
102
RTVSPropertyOp28
 70
     1
102
RTVSPropertyOp29
 70
     1
102
RTVSPropertyOp30
 70
     1
102
RTVSPropertyOp31
 70
     1
102
RTVSPropertyOp32
 70
     1
102
RTVSPropertyOp33
 70
     1
102
RTVSPropertyOp34
 70
     1
102
RTVSPropertyOp35
 70
     1
102
RTVSPropertyOp36
 70
     1
102
RTVSPropertyOp37
 70
     1
102
RTVSPropertyOp38
 70
     1
102
RTVSPropertyOp39
 70
     1
102
RTVSPropertyOp40
 70
     1
102
RTVSPropertyOp41
 70
     1
102
RTVSPropertyOp42
 70
     1
102
RTVSPropertyOp43
 70
     1
102
RTVSPropertyOp44
 70
     1
102
RTVSPropertyOp45
 70
     1
102
RTVSPropertyOp46
 70
     1
102
RTVSPropertyOp47
 70
     1
102
RTVSPropertyOp48
 70
     1
102
RTVSPropertyOp49
 70
     1
102
RTVSPropertyOp50
 70
     1
102
RTVSPropertyOp51
 70
     0
102
RTVSPropertyOp52
 70
     0
102
RTVSPropertyOp53
 70
     1
102
RTVSPropertyOp54
 70
     1
102
RTVSPropertyOp55
 70
     1
102
RTVSPropertyOp56
 70
     1
102
RTVSPropertyOp57
 70
     1
102
RTVSPost2010Prop28
280
     0
102
RTVSPost2010PropOp28
 70
     1
102
RTVSPost2010Prop29
280
     1
102
RTVSPost2010PropOp29
 70
     1
102
RTVSPost2010Prop30
280
     1
102
RTVSPost2010PropOp30
 70
     1
102
RTVSPost2010Prop31
280
     0
102
RTVSPost2010PropOp31
 70
     1
102
RTVSPost2010Prop32
280
     0
102
RTVSPost2010PropOp32
 70
     1
102
RTVSPost2010Prop33
280
     0
102
RTVSPost2010PropOp33
 70
     1
102
RTVSPost2010Prop34
280
     0
102
RTVSPost2010PropOp34
 70
     1
102
RTVSPost2010Prop35
280
     0
102
RTVSPost2010PropOp35
 70
     1
102
RTVSPost2010Prop36
280
     0
102
RTVSPost2010PropOp36
 70
     1
102
RTVSPost2010Prop37
 90
       50
102
RTVSPost2010PropOp37
 70
     1
102
RTVSPost2010Prop38
140
0.0
102
RTVSPost2010PropOp38
 70
     1
102
RTVSPost2010Prop39
140
1.0
102
RTVSPost2010PropOp39
 70
     1
102
RTVSPost2010Prop40
 90
        0
102
RTVSPost2010PropOp40
 70
     1
102
RTVSPost2010Prop41ColorIndex
 90
       18
102
RTVSPost2010Prop41ColorRGB
 90
        0
102
RTVSPost2010PropOp41
 70
     1
102
RTVSPost2010Prop42
 90
       50
102
RTVSPost2010PropOp42
 70
     1
102
RTVSPost2010Prop43
 90
        3
102
RTVSPost2010PropOp43
 70
     1
102
RTVSPost2010Prop44ColorIndex
 90
        5
102
RTVSPost2010Prop44ColorRGB
 90
      255
102
RTVSPost2010PropOp44
 70
     1
102
RTVSPost2010Prop45
280
     0
102
RTVSPost2010PropOp45
 70
     1
102
RTVSPost2010Prop46
 90
       50
102
RTVSPost2010PropOp46
 70
     1
102
RTVSPost2010Prop47
 90
       50
102
RTVSPost2010PropOp47
 70
     1
102
RTVSPost2010Prop48
 90
       50
102
RTVSPost2010PropOp48
 70
     1
102
RTVSPost2010Prop49
280
     0
102
RTVSPost2010PropOp49
 70
     1
102
RTVSPost2010Prop50
 90
       50
102
RTVSPost2010PropOp50
 70
     1
102
RTVSPost2010Prop51ColorIndex
 90
      256
102
RTVSPost2010Prop51ColorRGB
 90
-16777216
102
RTVSPost2010PropOp51
 70
     0
102
RTVSPost2010Prop52
140
1.0
102
RTVSPost2010PropOp52
 70
     0
102
RTVSPost2010Prop53
 90
        2
102
RTVSPost2010PropOp53
 70
     1
102
RTVSPost2010Prop54
  1
strokes_ogs.tif
102
RTVSPost2010PropOp54
 70
     1
102
RTVSPost2010Prop55
280
     0
102
RTVSPost2010PropOp55
 70
     1
102
RTVSPost2010Prop56
140
1.0
102
RTVSPost2010PropOp56
 70
     1
102
RTVSPost2010Prop57
140
1.0
102
RTVSPost2010PropOp57
 70
     1
  0
XRECORD
  5
2FD
102
{ACAD_REACTORS
330
2FC
102
}
330
2FC
100
AcDbXrecord
280
     1
102
RTVSPropertyOp0
 70
     1
102
RTVSPropertyOp1
 70
     1
102
RTVSPropertyOp2
 70
     1
102
RTVSPropertyOp3
 70
     1
102
RTVSPropertyOp4
 70
     1
102
RTVSPropertyOp5
 70
     1
102
RTVSPropertyOp6
 70
     1
102
RTVSPropertyOp7
 70
     1
102
RTVSPropertyOp8
 70
     1
102
RTVSPropertyOp9
 70
     1
102
RTVSPropertyOp10
 70
     1
102
RTVSPropertyOp11
 70
     1
102
RTVSPropertyOp12
 70
     1
102
RTVSPropertyOp13
 70
     1
102
RTVSPropertyOp14
 70
     1
102
RTVSPropertyOp15
 70
     1
102
RTVSPropertyOp16
 70
     1
102
RTVSPropertyOp17
 70
     1
102
RTVSPropertyOp18
 70
     1
102
RTVSPropertyOp19
 70
     1
102
RTVSPropertyOp20
 70
     1
102
RTVSPropertyOp21
 70
     1
102
RTVSPropertyOp22
 70
     1
102
RTVSPropertyOp23
 70
     1
102
RTVSPropertyOp24
 70
     1
102
RTVSPropertyOp25
 70
     1
102
RTVSPropertyOp26
 70
     1
102
RTVSPropertyOp27
 70
     1
102
RTVSPropertyOp28
 70
     1
102
RTVSPropertyOp29
 70
     1
102
RTVSPropertyOp30
 70
     1
102
RTVSPropertyOp31
 70
     1
102
RTVSPropertyOp32
 70
     1
102
RTVSPropertyOp33
 70
     1
102
RTVSPropertyOp34
 70
     1
102
RTVSPropertyOp35
 70
     1
102
RTVSPropertyOp36
 70
     1
102
RTVSPropertyOp37
 70
     1
102
RTVSPropertyOp38
 70
     1
102
RTVSPropertyOp39
 70
     1
102
RTVSPropertyOp40
 70
     1
102
RTVSPropertyOp41
 70
     1
102
RTVSPropertyOp42
 70
     1
102
RTVSPropertyOp43
 70
     1
102
RTVSPropertyOp44
 70
     1
102
RTVSPropertyOp45
 70
     1
102
RTVSPropertyOp46
 70
     1
102
RTVSPropertyOp47
 70
     1
102
RTVSPropertyOp48
 70
     1
102
RTVSPropertyOp49
 70
     1
102
RTVSPropertyOp50
 70
     1
102
RTVSPropertyOp51
 70
     0
102
RTVSPropertyOp52
 70
     0
102
RTVSPropertyOp53
 70
     1
102
RTVSPropertyOp54
 70
     1
102
RTVSPropertyOp55
 70
     1
102
RTVSPropertyOp56
 70
     1
102
RTVSPropertyOp57
 70
     1
102
RTVSPost2010Prop28
280
     0
102
RTVSPost2010PropOp28
 70
     1
102
RTVSPost2010Prop29
280
     1
102
RTVSPost2010PropOp29
 70
     1
102
RTVSPost2010Prop30
280
     1
102
RTVSPost2010PropOp30
 70
     1
102
RTVSPost2010Prop31
280
     0
102
RTVSPost2010PropOp31
 70
     1
102
RTVSPost2010Prop32
280
     0
102
RTVSPost2010PropOp32
 70
     1
102
RTVSPost2010Prop33
280
     0
102
RTVSPost2010PropOp33
 70
     1
102
RTVSPost2010Prop34
280
     0
102
RTVSPost2010PropOp34
 70
     1
102
RTVSPost2010Prop35
280
     0
102
RTVSPost2010PropOp35
 70
     1
102
RTVSPost2010Prop36
280
     0
102
RTVSPost2010PropOp36
 70
     1
102
RTVSPost2010Prop37
 90
       50
102
RTVSPost2010PropOp37
 70
     1
102
RTVSPost2010Prop38
140
0.0
102
RTVSPost2010PropOp38
 70
     1
102
RTVSPost2010Prop39
140
1.0
102
RTVSPost2010PropOp39
 70
     1
102
RTVSPost2010Prop40
 90
        0
102
RTVSPost2010PropOp40
 70
     1
102
RTVSPost2010Prop41ColorIndex
 90
       18
102
RTVSPost2010Prop41ColorRGB
 90
        0
102
RTVSPost2010PropOp41
 70
     1
102
RTVSPost2010Prop42
 90
       50
102
RTVSPost2010PropOp42
 70
     1
102
RTVSPost2010Prop43
 90
        3
102
RTVSPost2010PropOp43
 70
     1
102
RTVSPost2010Prop44ColorIndex
 90
        5
102
RTVSPost2010Prop44ColorRGB
 90
      255
102
RTVSPost2010PropOp44
 70
     1
102
RTVSPost2010Prop45
280
     0
102
RTVSPost2010PropOp45
 70
     1
102
RTVSPost2010Prop46
 90
       50
102
RTVSPost2010PropOp46
 70
     1
102
RTVSPost2010Prop47
 90
       50
102
RTVSPost2010PropOp47
 70
     1
102
RTVSPost2010Prop48
 90
       50
102
RTVSPost2010PropOp48
 70
     1
102
RTVSPost2010Prop49
280
     0
102
RTVSPost2010PropOp49
 70
     1
102
RTVSPost2010Prop50
 90
       50
102
RTVSPost2010PropOp50
 70
     1
102
RTVSPost2010Prop51ColorIndex
 90
      256
102
RTVSPost2010Prop51ColorRGB
 90
-16777216
102
RTVSPost2010PropOp51
 70
     0
102
RTVSPost2010Prop52
140
1.0
102
RTVSPost2010PropOp52
 70
     0
102
RTVSPost2010Prop53
 90
        2
102
RTVSPost2010PropOp53
 70
     1
102
RTVSPost2010Prop54
  1
strokes_ogs.tif
102
RTVSPost2010PropOp54
 70
     1
102
RTVSPost2010Prop55
280
     0
102
RTVSPost2010PropOp55
 70
     1
102
RTVSPost2010Prop56
140
1.0
102
RTVSPost2010PropOp56
 70
     1
102
RTVSPost2010Prop57
140
1.0
102
RTVSPost2010PropOp57
 70
     1
  0
XRECORD
  5
2F1
102
{ACAD_REACTORS
330
2F0
102
}
330
2F0
100
AcDbXrecord
280
     1
102
RTVSPropertyOp0
 70
     1
102
RTVSPropertyOp1
 70
     1
102
RTVSPropertyOp2
 70
     1
102
RTVSPropertyOp3
 70
     1
102
RTVSPropertyOp4
 70
     1
102
RTVSPropertyOp5
 70
     1
102
RTVSPropertyOp6
 70
     1
102
RTVSPropertyOp7
 70
     1
102
RTVSPropertyOp8
 70
     1
102
RTVSPropertyOp9
 70
     1
102
RTVSPropertyOp10
 70
     1
102
RTVSPropertyOp11
 70
     1
102
RTVSPropertyOp12
 70
     1
102
RTVSPropertyOp13
 70
     1
102
RTVSPropertyOp14
 70
     1
102
RTVSPropertyOp15
 70
     1
102
RTVSPropertyOp16
 70
     1
102
RTVSPropertyOp17
 70
     1
102
RTVSPropertyOp18
 70
     1
102
RTVSPropertyOp19
 70
     1
102
RTVSPropertyOp20
 70
     1
102
RTVSPropertyOp21
 70
     1
102
RTVSPropertyOp22
 70
     1
102
RTVSPropertyOp23
 70
     1
102
RTVSPropertyOp24
 70
     1
102
RTVSPropertyOp25
 70
     1
102
RTVSPropertyOp26
 70
     1
102
RTVSPropertyOp27
 70
     1
102
RTVSPropertyOp28
 70
     1
102
RTVSPropertyOp29
 70
     1
102
RTVSPropertyOp30
 70
     1
102
RTVSPropertyOp31
 70
     1
102
RTVSPropertyOp32
 70
     1
102
RTVSPropertyOp33
 70
     1
102
RTVSPropertyOp34
 70
     1
102
RTVSPropertyOp35
 70
     1
102
RTVSPropertyOp36
 70
     1
102
RTVSPropertyOp37
 70
     1
102
RTVSPropertyOp38
 70
     1
102
RTVSPropertyOp39
 70
     1
102
RTVSPropertyOp40
 70
     1
102
RTVSPropertyOp41
 70
     1
102
RTVSPropertyOp42
 70
     1
102
RTVSPropertyOp43
 70
     1
102
RTVSPropertyOp44
 70
     1
102
RTVSPropertyOp45
 70
     1
102
RTVSPropertyOp46
 70
     1
102
RTVSPropertyOp47
 70
     1
102
RTVSPropertyOp48
 70
     1
102
RTVSPropertyOp49
 70
     1
102
RTVSPropertyOp50
 70
     1
102
RTVSPropertyOp51
 70
     0
102
RTVSPropertyOp52
 70
     0
102
RTVSPropertyOp53
 70
     1
102
RTVSPropertyOp54
 70
     1
102
RTVSPropertyOp55
 70
     1
102
RTVSPropertyOp56
 70
     1
102
RTVSPropertyOp57
 70
     1
102
RTVSPost2010Prop28
280
     0
102
RTVSPost2010PropOp28
 70
     1
102
RTVSPost2010Prop29
280
     1
102
RTVSPost2010PropOp29
 70
     1
102
RTVSPost2010Prop30
280
     1
102
RTVSPost2010PropOp30
 70
     1
102
RTVSPost2010Prop31
280
     0
102
RTVSPost2010PropOp31
 70
     1
102
RTVSPost2010Prop32
280
     0
102
RTVSPost2010PropOp32
 70
     1
102
RTVSPost2010Prop33
280
     0
102
RTVSPost2010PropOp33
 70
     1
102
RTVSPost2010Prop34
280
     0
102
RTVSPost2010PropOp34
 70
     1
102
RTVSPost2010Prop35
280
     0
102
RTVSPost2010PropOp35
 70
     1
102
RTVSPost2010Prop36
280
     0
102
RTVSPost2010PropOp36
 70
     1
102
RTVSPost2010Prop37
 90
       50
102
RTVSPost2010PropOp37
 70
     1
102
RTVSPost2010Prop38
140
0.0
102
RTVSPost2010PropOp38
 70
     1
102
RTVSPost2010Prop39
140
1.0
102
RTVSPost2010PropOp39
 70
     1
102
RTVSPost2010Prop40
 90
        0
102
RTVSPost2010PropOp40
 70
     1
102
RTVSPost2010Prop41ColorIndex
 90
       18
102
RTVSPost2010Prop41ColorRGB
 90
        0
102
RTVSPost2010PropOp41
 70
     1
102
RTVSPost2010Prop42
 90
       50
102
RTVSPost2010PropOp42
 70
     1
102
RTVSPost2010Prop43
 90
        3
102
RTVSPost2010PropOp43
 70
     1
102
RTVSPost2010Prop44ColorIndex
 90
        5
102
RTVSPost2010Prop44ColorRGB
 90
      255
102
RTVSPost2010PropOp44
 70
     1
102
RTVSPost2010Prop45
280
     0
102
RTVSPost2010PropOp45
 70
     1
102
RTVSPost2010Prop46
 90
       50
102
RTVSPost2010PropOp46
 70
     1
102
RTVSPost2010Prop47
 90
       50
102
RTVSPost2010PropOp47
 70
     1
102
RTVSPost2010Prop48
 90
       50
102
RTVSPost2010PropOp48
 70
     1
102
RTVSPost2010Prop49
280
     0
102
RTVSPost2010PropOp49
 70
     1
102
RTVSPost2010Prop50
 90
       50
102
RTVSPost2010PropOp50
 70
     1
102
RTVSPost2010Prop51ColorIndex
 90
      256
102
RTVSPost2010Prop51ColorRGB
 90
-16777216
102
RTVSPost2010PropOp51
 70
     0
102
RTVSPost2010Prop52
140
1.0
102
RTVSPost2010PropOp52
 70
     0
102
RTVSPost2010Prop53
 90
        2
102
RTVSPost2010PropOp53
 70
     1
102
RTVSPost2010Prop54
  1
strokes_ogs.tif
102
RTVSPost2010PropOp54
 70
     1
102
RTVSPost2010Prop55
280
     0
102
RTVSPost2010PropOp55
 70
     1
102
RTVSPost2010Prop56
140
1.0
102
RTVSPost2010PropOp56
 70
     1
102
RTVSPost2010Prop57
140
1.0
102
RTVSPost2010PropOp57
 70
     1
  0
XRECORD
  5
2F3
102
{ACAD_REACTORS
330
2F2
102
}
330
2F2
100
AcDbXrecord
280
     1
102
RTVSPropertyOp0
 70
     1
102
RTVSPropertyOp1
 70
     1
102
RTVSPropertyOp2
 70
     1
102
RTVSPropertyOp3
 70
     1
102
RTVSPropertyOp4
 70
     1
102
RTVSPropertyOp5
 70
     1
102
RTVSPropertyOp6
 70
     1
102
RTVSPropertyOp7
 70
     1
102
RTVSPropertyOp8
 70
     1
102
RTVSPropertyOp9
 70
     1
102
RTVSPropertyOp10
 70
     1
102
RTVSPropertyOp11
 70
     1
102
RTVSPropertyOp12
 70
     1
102
RTVSPropertyOp13
 70
     1
102
RTVSPropertyOp14
 70
     1
102
RTVSPropertyOp15
 70
     1
102
RTVSPropertyOp16
 70
     1
102
RTVSPropertyOp17
 70
     1
102
RTVSPropertyOp18
 70
     1
102
RTVSPropertyOp19
 70
     1
102
RTVSPropertyOp20
 70
     1
102
RTVSPropertyOp21
 70
     1
102
RTVSPropertyOp22
 70
     1
102
RTVSPropertyOp23
 70
     1
102
RTVSPropertyOp24
 70
     1
102
RTVSPropertyOp25
 70
     1
102
RTVSPropertyOp26
 70
     1
102
RTVSPropertyOp27
 70
     1
102
RTVSPropertyOp28
 70
     1
102
RTVSPropertyOp29
 70
     1
102
RTVSPropertyOp30
 70
     1
102
RTVSPropertyOp31
 70
     1
102
RTVSPropertyOp32
 70
     1
102
RTVSPropertyOp33
 70
     1
102
RTVSPropertyOp34
 70
     1
102
RTVSPropertyOp35
 70
     1
102
RTVSPropertyOp36
 70
     1
102
RTVSPropertyOp37
 70
     1
102
RTVSPropertyOp38
 70
     1
102
RTVSPropertyOp39
 70
     1
102
RTVSPropertyOp40
 70
     1
102
RTVSPropertyOp41
 70
     1
102
RTVSPropertyOp42
 70
     1
102
RTVSPropertyOp43
 70
     1
102
RTVSPropertyOp44
 70
     1
102
RTVSPropertyOp45
 70
     1
102
RTVSPropertyOp46
 70
     1
102
RTVSPropertyOp47
 70
     1
102
RTVSPropertyOp48
 70
     1
102
RTVSPropertyOp49
 70
     1
102
RTVSPropertyOp50
 70
     1
102
RTVSPropertyOp51
 70
     0
102
RTVSPropertyOp52
 70
     0
102
RTVSPropertyOp53
 70
     1
102
RTVSPropertyOp54
 70
     1
102
RTVSPropertyOp55
 70
     1
102
RTVSPropertyOp56
 70
     1
102
RTVSPropertyOp57
 70
     1
102
RTVSPost2010Prop28
280
     0
102
RTVSPost2010PropOp28
 70
     1
102
RTVSPost2010Prop29
280
     1
102
RTVSPost2010PropOp29
 70
     1
102
RTVSPost2010Prop30
280
     1
102
RTVSPost2010PropOp30
 70
     1
102
RTVSPost2010Prop31
280
     0
102
RTVSPost2010PropOp31
 70
     1
102
RTVSPost2010Prop32
280
     0
102
RTVSPost2010PropOp32
 70
     1
102
RTVSPost2010Prop33
280
     0
102
RTVSPost2010PropOp33
 70
     1
102
RTVSPost2010Prop34
280
     0
102
RTVSPost2010PropOp34
 70
     1
102
RTVSPost2010Prop35
280
     0
102
RTVSPost2010PropOp35
 70
     1
102
RTVSPost2010Prop36
280
     0
102
RTVSPost2010PropOp36
 70
     1
102
RTVSPost2010Prop37
 90
       50
102
RTVSPost2010PropOp37
 70
     1
102
RTVSPost2010Prop38
140
0.0
102
RTVSPost2010PropOp38
 70
     1
102
RTVSPost2010Prop39
140
1.0
102
RTVSPost2010PropOp39
 70
     1
102
RTVSPost2010Prop40
 90
        0
102
RTVSPost2010PropOp40
 70
     1
102
RTVSPost2010Prop41ColorIndex
 90
       18
102
RTVSPost2010Prop41ColorRGB
 90
        0
102
RTVSPost2010PropOp41
 70
     1
102
RTVSPost2010Prop42
 90
       50
102
RTVSPost2010PropOp42
 70
     1
102
RTVSPost2010Prop43
 90
        3
102
RTVSPost2010PropOp43
 70
     1
102
RTVSPost2010Prop44ColorIndex
 90
        5
102
RTVSPost2010Prop44ColorRGB
 90
      255
102
RTVSPost2010PropOp44
 70
     1
102
RTVSPost2010Prop45
280
     0
102
RTVSPost2010PropOp45
 70
     1
102
RTVSPost2010Prop46
 90
       50
102
RTVSPost2010PropOp46
 70
     1
102
RTVSPost2010Prop47
 90
       50
102
RTVSPost2010PropOp47
 70
     1
102
RTVSPost2010Prop48
 90
       50
102
RTVSPost2010PropOp48
 70
     1
102
RTVSPost2010Prop49
280
     0
102
RTVSPost2010PropOp49
 70
     1
102
RTVSPost2010Prop50
 90
       50
102
RTVSPost2010PropOp50
 70
     1
102
RTVSPost2010Prop51ColorIndex
 90
      256
102
RTVSPost2010Prop51ColorRGB
 90
-16777216
102
RTVSPost2010PropOp51
 70
     0
102
RTVSPost2010Prop52
140
1.0
102
RTVSPost2010PropOp52
 70
     0
102
RTVSPost2010Prop53
 90
        2
102
RTVSPost2010PropOp53
 70
     1
102
RTVSPost2010Prop54
  1
strokes_ogs.tif
102
RTVSPost2010PropOp54
 70
     1
102
RTVSPost2010Prop55
280
     0
102
RTVSPost2010PropOp55
 70
     1
102
RTVSPost2010Prop56
140
1.0
102
RTVSPost2010PropOp56
 70
     1
102
RTVSPost2010Prop57
140
1.0
102
RTVSPost2010PropOp57
 70
     1
  0
XRECORD
  5
303
102
{ACAD_REACTORS
330
302
102
}
330
302
100
AcDbXrecord
280
     1
102
RTVSPropertyOp0
 70
     0
102
RTVSPropertyOp1
 70
     0
102
RTVSPropertyOp2
 70
     0
102
RTVSPropertyOp3
 70
     0
102
RTVSPropertyOp4
 70
     0
102
RTVSPropertyOp5
 70
     0
102
RTVSPropertyOp6
 70
     0
102
RTVSPropertyOp7
 70
     0
102
RTVSPropertyOp8
 70
     0
102
RTVSPropertyOp9
 70
     0
102
RTVSPropertyOp10
 70
     0
102
RTVSPropertyOp11
 70
     0
102
RTVSPropertyOp12
 70
     0
102
RTVSPropertyOp13
 70
     0
102
RTVSPropertyOp14
 70
     2
102
RTVSPropertyOp15
 70
     0
102
RTVSPropertyOp16
 70
     0
102
RTVSPropertyOp17
 70
     0
102
RTVSPropertyOp18
 70
     0
102
RTVSPropertyOp19
 70
     0
102
RTVSPropertyOp20
 70
     0
102
RTVSPropertyOp21
 70
     0
102
RTVSPropertyOp22
 70
     0
102
RTVSPropertyOp23
 70
     0
102
RTVSPropertyOp24
 70
     0
102
RTVSPropertyOp25
 70
     0
102
RTVSPropertyOp26
 70
     0
102
RTVSPropertyOp27
 70
     0
102
RTVSPropertyOp28
 70
     0
102
RTVSPropertyOp29
 70
     0
102
RTVSPropertyOp30
 70
     0
102
RTVSPropertyOp31
 70
     0
102
RTVSPropertyOp32
 70
     0
102
RTVSPropertyOp33
 70
     0
102
RTVSPropertyOp34
 70
     0
102
RTVSPropertyOp35
 70
     0
102
RTVSPropertyOp36
 70
     0
102
RTVSPropertyOp37
 70
     0
102
RTVSPropertyOp38
 70
     0
102
RTVSPropertyOp39
 70
     0
102
RTVSPropertyOp40
 70
     0
102
RTVSPropertyOp41
 70
     0
102
RTVSPropertyOp42
 70
     0
102
RTVSPropertyOp43
 70
     0
102
RTVSPropertyOp44
 70
     0
102
RTVSPropertyOp45
 70
     0
102
RTVSPropertyOp46
 70
     0
102
RTVSPropertyOp47
 70
     0
102
RTVSPropertyOp48
 70
     0
102
RTVSPropertyOp49
 70
     0
102
RTVSPropertyOp50
 70
     0
102
RTVSPropertyOp51
 70
     0
102
RTVSPropertyOp52
 70
     0
102
RTVSPropertyOp53
 70
     0
102
RTVSPropertyOp54
 70
     0
102
RTVSPropertyOp55
 70
     0
102
RTVSPropertyOp56
 70
     0
102
RTVSPropertyOp57
 70
     0
102
RTVSPost2010Prop28
280
     0
102
RTVSPost2010PropOp28
 70
     0
102
RTVSPost2010Prop29
280
     1
102
RTVSPost2010PropOp29
 70
     0
102
RTVSPost2010Prop30
280
     1
102
RTVSPost2010PropOp30
 70
     0
102
RTVSPost2010Prop31
280
     0
102
RTVSPost2010PropOp31
 70
     0
102
RTVSPost2010Prop32
280
     0
102
RTVSPost2010PropOp32
 70
     0
102
RTVSPost2010Prop33
280
     0
102
RTVSPost2010PropOp33
 70
     0
102
RTVSPost2010Prop34
280
     0
102
RTVSPost2010PropOp34
 70
     0
102
RTVSPost2010Prop35
280
     0
102
RTVSPost2010PropOp35
 70
     0
102
RTVSPost2010Prop36
280
     0
102
RTVSPost2010PropOp36
 70
     0
102
RTVSPost2010Prop37
 90
       50
102
RTVSPost2010PropOp37
 70
     0
102
RTVSPost2010Prop38
140
0.0
102
RTVSPost2010PropOp38
 70
     0
102
RTVSPost2010Prop39
140
1.0
102
RTVSPost2010PropOp39
 70
     0
102
RTVSPost2010Prop40
 90
        0
102
RTVSPost2010PropOp40
 70
     0
102
RTVSPost2010Prop41ColorIndex
 90
       18
102
RTVSPost2010Prop41ColorRGB
 90
        0
102
RTVSPost2010PropOp41
 70
     0
102
RTVSPost2010Prop42
 90
       50
102
RTVSPost2010PropOp42
 70
     0
102
RTVSPost2010Prop43
 90
        3
102
RTVSPost2010PropOp43
 70
     0
102
RTVSPost2010Prop44ColorIndex
 90
        5
102
RTVSPost2010Prop44ColorRGB
 90
      255
102
RTVSPost2010PropOp44
 70
     0
102
RTVSPost2010Prop45
280
     0
102
RTVSPost2010PropOp45
 70
     0
102
RTVSPost2010Prop46
 90
       50
102
RTVSPost2010PropOp46
 70
     0
102
RTVSPost2010Prop47
 90
       50
102
RTVSPost2010PropOp47
 70
     0
102
RTVSPost2010Prop48
 90
       50
102
RTVSPost2010PropOp48
 70
     0
102
RTVSPost2010Prop49
280
     0
102
RTVSPost2010PropOp49
 70
     0
102
RTVSPost2010Prop50
 90
       50
102
RTVSPost2010PropOp50
 70
     0
102
RTVSPost2010Prop51ColorIndex
 90
      256
102
RTVSPost2010Prop51ColorRGB
 90
-16777216
102
RTVSPost2010PropOp51
 70
     0
102
RTVSPost2010Prop52
140
1.0
102
RTVSPost2010PropOp52
 70
     0
102
RTVSPost2010Prop53
 90
        2
102
RTVSPost2010PropOp53
 70
     0
102
RTVSPost2010Prop54
  1
strokes_ogs.tif
102
RTVSPost2010PropOp54
 70
     0
102
RTVSPost2010Prop55
280
     0
102
RTVSPost2010PropOp55
 70
     0
102
RTVSPost2010Prop56
140
1.0
102
RTVSPost2010PropOp56
 70
     0
102
RTVSPost2010Prop57
140
1.0
102
RTVSPost2010PropOp57
 70
     0
  0
XRECORD
  5
2FB
102
{ACAD_REACTORS
330
2FA
102
}
330
2FA
100
AcDbXrecord
280
     1
102
RTVSPropertyOp0
 70
     1
102
RTVSPropertyOp1
 70
     1
102
RTVSPropertyOp2
 70
     1
102
RTVSPropertyOp3
 70
     1
102
RTVSPropertyOp4
 70
     1
102
RTVSPropertyOp5
 70
     1
102
RTVSPropertyOp6
 70
     1
102
RTVSPropertyOp7
 70
     1
102
RTVSPropertyOp8
 70
     1
102
RTVSPropertyOp9
 70
     1
102
RTVSPropertyOp10
 70
     1
102
RTVSPropertyOp11
 70
     1
102
RTVSPropertyOp12
 70
     1
102
RTVSPropertyOp13
 70
     1
102
RTVSPropertyOp14
 70
     1
102
RTVSPropertyOp15
 70
     1
102
RTVSPropertyOp16
 70
     1
102
RTVSPropertyOp17
 70
     1
102
RTVSPropertyOp18
 70
     1
102
RTVSPropertyOp19
 70
     1
102
RTVSPropertyOp20
 70
     1
102
RTVSPropertyOp21
 70
     1
102
RTVSPropertyOp22
 70
     1
102
RTVSPropertyOp23
 70
     1
102
RTVSPropertyOp24
 70
     1
102
RTVSPropertyOp25
 70
     1
102
RTVSPropertyOp26
 70
     1
102
RTVSPropertyOp27
 70
     1
102
RTVSPropertyOp28
 70
     1
102
RTVSPropertyOp29
 70
     1
102
RTVSPropertyOp30
 70
     1
102
RTVSPropertyOp31
 70
     1
102
RTVSPropertyOp32
 70
     1
102
RTVSPropertyOp33
 70
     1
102
RTVSPropertyOp34
 70
     1
102
RTVSPropertyOp35
 70
     1
102
RTVSPropertyOp36
 70
     1
102
RTVSPropertyOp37
 70
     1
102
RTVSPropertyOp38
 70
     1
102
RTVSPropertyOp39
 70
     1
102
RTVSPropertyOp40
 70
     1
102
RTVSPropertyOp41
 70
     1
102
RTVSPropertyOp42
 70
     1
102
RTVSPropertyOp43
 70
     1
102
RTVSPropertyOp44
 70
     1
102
RTVSPropertyOp45
 70
     1
102
RTVSPropertyOp46
 70
     1
102
RTVSPropertyOp47
 70
     1
102
RTVSPropertyOp48
 70
     1
102
RTVSPropertyOp49
 70
     1
102
RTVSPropertyOp50
 70
     1
102
RTVSPropertyOp51
 70
     0
102
RTVSPropertyOp52
 70
     0
102
RTVSPropertyOp53
 70
     1
102
RTVSPropertyOp54
 70
     1
102
RTVSPropertyOp55
 70
     1
102
RTVSPropertyOp56
 70
     1
102
RTVSPropertyOp57
 70
     1
102
RTVSPost2010Prop28
280
     0
102
RTVSPost2010PropOp28
 70
     1
102
RTVSPost2010Prop29
280
     1
102
RTVSPost2010PropOp29
 70
     1
102
RTVSPost2010Prop30
280
     1
102
RTVSPost2010PropOp30
 70
     1
102
RTVSPost2010Prop31
280
     0
102
RTVSPost2010PropOp31
 70
     1
102
RTVSPost2010Prop32
280
     0
102
RTVSPost2010PropOp32
 70
     1
102
RTVSPost2010Prop33
280
     0
102
RTVSPost2010PropOp33
 70
     1
102
RTVSPost2010Prop34
280
     0
102
RTVSPost2010PropOp34
 70
     1
102
RTVSPost2010Prop35
280
     0
102
RTVSPost2010PropOp35
 70
     1
102
RTVSPost2010Prop36
280
     0
102
RTVSPost2010PropOp36
 70
     1
102
RTVSPost2010Prop37
 90
       50
102
RTVSPost2010PropOp37
 70
     1
102
RTVSPost2010Prop38
140
0.0
102
RTVSPost2010PropOp38
 70
     1
102
RTVSPost2010Prop39
140
1.0
102
RTVSPost2010PropOp39
 70
     1
102
RTVSPost2010Prop40
 90
        0
102
RTVSPost2010PropOp40
 70
     1
102
RTVSPost2010Prop41ColorIndex
 90
       18
102
RTVSPost2010Prop41ColorRGB
 90
        0
102
RTVSPost2010PropOp41
 70
     1
102
RTVSPost2010Prop42
 90
       50
102
RTVSPost2010PropOp42
 70
     1
102
RTVSPost2010Prop43
 90
        3
102
RTVSPost2010PropOp43
 70
     1
102
RTVSPost2010Prop44ColorIndex
 90
        5
102
RTVSPost2010Prop44ColorRGB
 90
      255
102
RTVSPost2010PropOp44
 70
     1
102
RTVSPost2010Prop45
280
     0
102
RTVSPost2010PropOp45
 70
     1
102
RTVSPost2010Prop46
 90
       50
102
RTVSPost2010PropOp46
 70
     1
102
RTVSPost2010Prop47
 90
       50
102
RTVSPost2010PropOp47
 70
     1
102
RTVSPost2010Prop48
 90
       50
102
RTVSPost2010PropOp48
 70
     1
102
RTVSPost2010Prop49
280
     0
102
RTVSPost2010PropOp49
 70
     1
102
RTVSPost2010Prop50
 90
       50
102
RTVSPost2010PropOp50
 70
     1
102
RTVSPost2010Prop51ColorIndex
 90
      256
102
RTVSPost2010Prop51ColorRGB
 90
-16777216
102
RTVSPost2010PropOp51
 70
     0
102
RTVSPost2010Prop52
140
1.0
102
RTVSPost2010PropOp52
 70
     0
102
RTVSPost2010Prop53
 90
        2
102
RTVSPost2010PropOp53
 70
     1
102
RTVSPost2010Prop54
  1
strokes_ogs.tif
102
RTVSPost2010PropOp54
 70
     1
102
RTVSPost2010Prop55
280
     0
102
RTVSPost2010PropOp55
 70
     1
102
RTVSPost2010Prop56
140
1.0
102
RTVSPost2010PropOp56
 70
     1
102
RTVSPost2010Prop57
140
1.0
102
RTVSPost2010PropOp57
 70
     1
  0
XRECORD
  5
2DF
102
{ACAD_REACTORS
330
2DE
102
}
330
2DE
100
AcDbXrecord
280
     1
102
RTVSPropertyOp0
 70
     1
102
RTVSPropertyOp1
 70
     1
102
RTVSPropertyOp2
 70
     1
102
RTVSPropertyOp3
 70
     1
102
RTVSPropertyOp4
 70
     1
102
RTVSPropertyOp5
 70
     1
102
RTVSPropertyOp6
 70
     1
102
RTVSPropertyOp7
 70
     1
102
RTVSPropertyOp8
 70
     1
102
RTVSPropertyOp9
 70
     1
102
RTVSPropertyOp10
 70
     1
102
RTVSPropertyOp11
 70
     1
102
RTVSPropertyOp12
 70
     1
102
RTVSPropertyOp13
 70
     1
102
RTVSPropertyOp14
 70
     1
102
RTVSPropertyOp15
 70
     1
102
RTVSPropertyOp16
 70
     1
102
RTVSPropertyOp17
 70
     1
102
RTVSPropertyOp18
 70
     1
102
RTVSPropertyOp19
 70
     1
102
RTVSPropertyOp20
 70
     1
102
RTVSPropertyOp21
 70
     1
102
RTVSPropertyOp22
 70
     1
102
RTVSPropertyOp23
 70
     1
102
RTVSPropertyOp24
 70
     1
102
RTVSPropertyOp25
 70
     1
102
RTVSPropertyOp26
 70
     1
102
RTVSPropertyOp27
 70
     1
102
RTVSPropertyOp28
 70
     1
102
RTVSPropertyOp29
 70
     1
102
RTVSPropertyOp30
 70
     1
102
RTVSPropertyOp31
 70
     1
102
RTVSPropertyOp32
 70
     1
102
RTVSPropertyOp33
 70
     1
102
RTVSPropertyOp34
 70
     1
102
RTVSPropertyOp35
 70
     1
102
RTVSPropertyOp36
 70
     1
102
RTVSPropertyOp37
 70
     1
102
RTVSPropertyOp38
 70
     1
102
RTVSPropertyOp39
 70
     1
102
RTVSPropertyOp40
 70
     1
102
RTVSPropertyOp41
 70
     1
102
RTVSPropertyOp42
 70
     1
102
RTVSPropertyOp43
 70
     1
102
RTVSPropertyOp44
 70
     1
102
RTVSPropertyOp45
 70
     1
102
RTVSPropertyOp46
 70
     1
102
RTVSPropertyOp47
 70
     1
102
RTVSPropertyOp48
 70
     1
102
RTVSPropertyOp49
 70
     1
102
RTVSPropertyOp50
 70
     1
102
RTVSPropertyOp51
 70
     0
102
RTVSPropertyOp52
 70
     0
102
RTVSPropertyOp53
 70
     1
102
RTVSPropertyOp54
 70
     1
102
RTVSPropertyOp55
 70
     1
102
RTVSPropertyOp56
 70
     1
102
RTVSPropertyOp57
 70
     1
102
RTVSPost2010Prop28
280
     0
102
RTVSPost2010PropOp28
 70
     1
102
RTVSPost2010Prop29
280
     1
102
RTVSPost2010PropOp29
 70
     1
102
RTVSPost2010Prop30
280
     1
102
RTVSPost2010PropOp30
 70
     1
102
RTVSPost2010Prop31
280
     0
102
RTVSPost2010PropOp31
 70
     1
102
RTVSPost2010Prop32
280
     0
102
RTVSPost2010PropOp32
 70
     1
102
RTVSPost2010Prop33
280
     0
102
RTVSPost2010PropOp33
 70
     1
102
RTVSPost2010Prop34
280
     0
102
RTVSPost2010PropOp34
 70
     1
102
RTVSPost2010Prop35
280
     0
102
RTVSPost2010PropOp35
 70
     1
102
RTVSPost2010Prop36
280
     0
102
RTVSPost2010PropOp36
 70
     1
102
RTVSPost2010Prop37
 90
       50
102
RTVSPost2010PropOp37
 70
     1
102
RTVSPost2010Prop38
140
0.0
102
RTVSPost2010PropOp38
 70
     1
102
RTVSPost2010Prop39
140
1.0
102
RTVSPost2010PropOp39
 70
     1
102
RTVSPost2010Prop40
 90
        0
102
RTVSPost2010PropOp40
 70
     1
102
RTVSPost2010Prop41ColorIndex
 90
       18
102
RTVSPost2010Prop41ColorRGB
 90
        0
102
RTVSPost2010PropOp41
 70
     1
102
RTVSPost2010Prop42
 90
       50
102
RTVSPost2010PropOp42
 70
     1
102
RTVSPost2010Prop43
 90
        3
102
RTVSPost2010PropOp43
 70
     1
102
RTVSPost2010Prop44ColorIndex
 90
        5
102
RTVSPost2010Prop44ColorRGB
 90
      255
102
RTVSPost2010PropOp44
 70
     1
102
RTVSPost2010Prop45
280
     0
102
RTVSPost2010PropOp45
 70
     1
102
RTVSPost2010Prop46
 90
       50
102
RTVSPost2010PropOp46
 70
     1
102
RTVSPost2010Prop47
 90
       50
102
RTVSPost2010PropOp47
 70
     1
102
RTVSPost2010Prop48
 90
       50
102
RTVSPost2010PropOp48
 70
     1
102
RTVSPost2010Prop49
280
     0
102
RTVSPost2010PropOp49
 70
     1
102
RTVSPost2010Prop50
 90
       50
102
RTVSPost2010PropOp50
 70
     1
102
RTVSPost2010Prop51ColorIndex
 90
      256
102
RTVSPost2010Prop51ColorRGB
 90
-16777216
102
RTVSPost2010PropOp51
 70
     0
102
RTVSPost2010Prop52
140
1.0
102
RTVSPost2010PropOp52
 70
     0
102
RTVSPost2010Prop53
 90
        2
102
RTVSPost2010PropOp53
 70
     1
102
RTVSPost2010Prop54
  1
strokes_ogs.tif
102
RTVSPost2010PropOp54
 70
     1
102
RTVSPost2010Prop55
280
     0
102
RTVSPost2010PropOp55
 70
     1
102
RTVSPost2010Prop56
140
1.0
102
RTVSPost2010PropOp56
 70
     1
102
RTVSPost2010Prop57
140
1.0
102
RTVSPost2010PropOp57
 70
     1
  0
XRECORD
  5
2E1
102
{ACAD_REACTORS
330
2E0
102
}
330
2E0
100
AcDbXrecord
280
     1
102
RTVSPropertyOp0
 70
     1
102
RTVSPropertyOp1
 70
     1
102
RTVSPropertyOp2
 70
     1
102
RTVSPropertyOp3
 70
     1
102
RTVSPropertyOp4
 70
     1
102
RTVSPropertyOp5
 70
     1
102
RTVSPropertyOp6
 70
     1
102
RTVSPropertyOp7
 70
     1
102
RTVSPropertyOp8
 70
     1
102
RTVSPropertyOp9
 70
     1
102
RTVSPropertyOp10
 70
     1
102
RTVSPropertyOp11
 70
     1
102
RTVSPropertyOp12
 70
     1
102
RTVSPropertyOp13
 70
     1
102
RTVSPropertyOp14
 70
     1
102
RTVSPropertyOp15
 70
     1
102
RTVSPropertyOp16
 70
     1
102
RTVSPropertyOp17
 70
     1
102
RTVSPropertyOp18
 70
     1
102
RTVSPropertyOp19
 70
     1
102
RTVSPropertyOp20
 70
     1
102
RTVSPropertyOp21
 70
     1
102
RTVSPropertyOp22
 70
     1
102
RTVSPropertyOp23
 70
     1
102
RTVSPropertyOp24
 70
     1
102
RTVSPropertyOp25
 70
     1
102
RTVSPropertyOp26
 70
     1
102
RTVSPropertyOp27
 70
     1
102
RTVSPropertyOp28
 70
     1
102
RTVSPropertyOp29
 70
     1
102
RTVSPropertyOp30
 70
     1
102
RTVSPropertyOp31
 70
     1
102
RTVSPropertyOp32
 70
     1
102
RTVSPropertyOp33
 70
     1
102
RTVSPropertyOp34
 70
     1
102
RTVSPropertyOp35
 70
     1
102
RTVSPropertyOp36
 70
     1
102
RTVSPropertyOp37
 70
     1
102
RTVSPropertyOp38
 70
     1
102
RTVSPropertyOp39
 70
     1
102
RTVSPropertyOp40
 70
     1
102
RTVSPropertyOp41
 70
     1
102
RTVSPropertyOp42
 70
     1
102
RTVSPropertyOp43
 70
     1
102
RTVSPropertyOp44
 70
     1
102
RTVSPropertyOp45
 70
     1
102
RTVSPropertyOp46
 70
     1
102
RTVSPropertyOp47
 70
     1
102
RTVSPropertyOp48
 70
     1
102
RTVSPropertyOp49
 70
     1
102
RTVSPropertyOp50
 70
     1
102
RTVSPropertyOp51
 70
     0
102
RTVSPropertyOp52
 70
     0
102
RTVSPropertyOp53
 70
     1
102
RTVSPropertyOp54
 70
     1
102
RTVSPropertyOp55
 70
     1
102
RTVSPropertyOp56
 70
     1
102
RTVSPropertyOp57
 70
     1
102
RTVSPost2010Prop28
280
     0
102
RTVSPost2010PropOp28
 70
     1
102
RTVSPost2010Prop29
280
     1
102
RTVSPost2010PropOp29
 70
     1
102
RTVSPost2010Prop30
280
     1
102
RTVSPost2010PropOp30
 70
     1
102
RTVSPost2010Prop31
280
     0
102
RTVSPost2010PropOp31
 70
     1
102
RTVSPost2010Prop32
280
     0
102
RTVSPost2010PropOp32
 70
     1
102
RTVSPost2010Prop33
280
     0
102
RTVSPost2010PropOp33
 70
     1
102
RTVSPost2010Prop34
280
     0
102
RTVSPost2010PropOp34
 70
     1
102
RTVSPost2010Prop35
280
     0
102
RTVSPost2010PropOp35
 70
     1
102
RTVSPost2010Prop36
280
     0
102
RTVSPost2010PropOp36
 70
     1
102
RTVSPost2010Prop37
 90
       50
102
RTVSPost2010PropOp37
 70
     1
102
RTVSPost2010Prop38
140
0.0
102
RTVSPost2010PropOp38
 70
     1
102
RTVSPost2010Prop39
140
1.0
102
RTVSPost2010PropOp39
 70
     1
102
RTVSPost2010Prop40
 90
        0
102
RTVSPost2010PropOp40
 70
     1
102
RTVSPost2010Prop41ColorIndex
 90
       18
102
RTVSPost2010Prop41ColorRGB
 90
        0
102
RTVSPost2010PropOp41
 70
     1
102
RTVSPost2010Prop42
 90
       50
102
RTVSPost2010PropOp42
 70
     1
102
RTVSPost2010Prop43
 90
        3
102
RTVSPost2010PropOp43
 70
     1
102
RTVSPost2010Prop44ColorIndex
 90
        5
102
RTVSPost2010Prop44ColorRGB
 90
      255
102
RTVSPost2010PropOp44
 70
     1
102
RTVSPost2010Prop45
280
     0
102
RTVSPost2010PropOp45
 70
     1
102
RTVSPost2010Prop46
 90
       50
102
RTVSPost2010PropOp46
 70
     1
102
RTVSPost2010Prop47
 90
       50
102
RTVSPost2010PropOp47
 70
     1
102
RTVSPost2010Prop48
 90
       50
102
RTVSPost2010PropOp48
 70
     1
102
RTVSPost2010Prop49
280
     0
102
RTVSPost2010PropOp49
 70
     1
102
RTVSPost2010Prop50
 90
       50
102
RTVSPost2010PropOp50
 70
     1
102
RTVSPost2010Prop51ColorIndex
 90
      256
102
RTVSPost2010Prop51ColorRGB
 90
-16777216
102
RTVSPost2010PropOp51
 70
     0
102
RTVSPost2010Prop52
140
1.0
102
RTVSPost2010PropOp52
 70
     0
102
RTVSPost2010Prop53
 90
        2
102
RTVSPost2010PropOp53
 70
     1
102
RTVSPost2010Prop54
  1
strokes_ogs.tif
102
RTVSPost2010PropOp54
 70
     1
102
RTVSPost2010Prop55
280
     0
102
RTVSPost2010PropOp55
 70
     1
102
RTVSPost2010Prop56
140
1.0
102
RTVSPost2010PropOp56
 70
     1
102
RTVSPost2010Prop57
140
1.0
102
RTVSPost2010PropOp57
 70
     1
  0
XRECORD
  5
2E3
102
{ACAD_REACTORS
330
2E2
102
}
330
2E2
100
AcDbXrecord
280
     1
102
RTVSPropertyOp0
 70
     1
102
RTVSPropertyOp1
 70
     1
102
RTVSPropertyOp2
 70
     1
102
RTVSPropertyOp3
 70
     1
102
RTVSPropertyOp4
 70
     1
102
RTVSPropertyOp5
 70
     1
102
RTVSPropertyOp6
 70
     1
102
RTVSPropertyOp7
 70
     1
102
RTVSPropertyOp8
 70
     1
102
RTVSPropertyOp9
 70
     1
102
RTVSPropertyOp10
 70
     1
102
RTVSPropertyOp11
 70
     1
102
RTVSPropertyOp12
 70
     1
102
RTVSPropertyOp13
 70
     1
102
RTVSPropertyOp14
 70
     1
102
RTVSPropertyOp15
 70
     1
102
RTVSPropertyOp16
 70
     1
102
RTVSPropertyOp17
 70
     1
102
RTVSPropertyOp18
 70
     1
102
RTVSPropertyOp19
 70
     1
102
RTVSPropertyOp20
 70
     1
102
RTVSPropertyOp21
 70
     1
102
RTVSPropertyOp22
 70
     1
102
RTVSPropertyOp23
 70
     1
102
RTVSPropertyOp24
 70
     1
102
RTVSPropertyOp25
 70
     1
102
RTVSPropertyOp26
 70
     1
102
RTVSPropertyOp27
 70
     1
102
RTVSPropertyOp28
 70
     1
102
RTVSPropertyOp29
 70
     1
102
RTVSPropertyOp30
 70
     1
102
RTVSPropertyOp31
 70
     1
102
RTVSPropertyOp32
 70
     1
102
RTVSPropertyOp33
 70
     1
102
RTVSPropertyOp34
 70
     1
102
RTVSPropertyOp35
 70
     1
102
RTVSPropertyOp36
 70
     1
102
RTVSPropertyOp37
 70
     1
102
RTVSPropertyOp38
 70
     1
102
RTVSPropertyOp39
 70
     1
102
RTVSPropertyOp40
 70
     1
102
RTVSPropertyOp41
 70
     1
102
RTVSPropertyOp42
 70
     1
102
RTVSPropertyOp43
 70
     1
102
RTVSPropertyOp44
 70
     1
102
RTVSPropertyOp45
 70
     1
102
RTVSPropertyOp46
 70
     1
102
RTVSPropertyOp47
 70
     1
102
RTVSPropertyOp48
 70
     1
102
RTVSPropertyOp49
 70
     1
102
RTVSPropertyOp50
 70
     1
102
RTVSPropertyOp51
 70
     0
102
RTVSPropertyOp52
 70
     0
102
RTVSPropertyOp53
 70
     1
102
RTVSPropertyOp54
 70
     1
102
RTVSPropertyOp55
 70
     1
102
RTVSPropertyOp56
 70
     1
102
RTVSPropertyOp57
 70
     1
102
RTVSPost2010Prop28
280
     0
102
RTVSPost2010PropOp28
 70
     1
102
RTVSPost2010Prop29
280
     1
102
RTVSPost2010PropOp29
 70
     1
102
RTVSPost2010Prop30
280
     1
102
RTVSPost2010PropOp30
 70
     1
102
RTVSPost2010Prop31
280
     0
102
RTVSPost2010PropOp31
 70
     1
102
RTVSPost2010Prop32
280
     0
102
RTVSPost2010PropOp32
 70
     1
102
RTVSPost2010Prop33
280
     0
102
RTVSPost2010PropOp33
 70
     1
102
RTVSPost2010Prop34
280
     0
102
RTVSPost2010PropOp34
 70
     1
102
RTVSPost2010Prop35
280
     0
102
RTVSPost2010PropOp35
 70
     1
102
RTVSPost2010Prop36
280
     0
102
RTVSPost2010PropOp36
 70
     1
102
RTVSPost2010Prop37
 90
       50
102
RTVSPost2010PropOp37
 70
     1
102
RTVSPost2010Prop38
140
0.0
102
RTVSPost2010PropOp38
 70
     1
102
RTVSPost2010Prop39
140
1.0
102
RTVSPost2010PropOp39
 70
     1
102
RTVSPost2010Prop40
 90
        0
102
RTVSPost2010PropOp40
 70
     1
102
RTVSPost2010Prop41ColorIndex
 90
       18
102
RTVSPost2010Prop41ColorRGB
 90
        0
102
RTVSPost2010PropOp41
 70
     1
102
RTVSPost2010Prop42
 90
       50
102
RTVSPost2010PropOp42
 70
     1
102
RTVSPost2010Prop43
 90
        3
102
RTVSPost2010PropOp43
 70
     1
102
RTVSPost2010Prop44ColorIndex
 90
        5
102
RTVSPost2010Prop44ColorRGB
 90
      255
102
RTVSPost2010PropOp44
 70
     1
102
RTVSPost2010Prop45
280
     0
102
RTVSPost2010PropOp45
 70
     1
102
RTVSPost2010Prop46
 90
       50
102
RTVSPost2010PropOp46
 70
     1
102
RTVSPost2010Prop47
 90
       50
102
RTVSPost2010PropOp47
 70
     1
102
RTVSPost2010Prop48
 90
       50
102
RTVSPost2010PropOp48
 70
     1
102
RTVSPost2010Prop49
280
     0
102
RTVSPost2010PropOp49
 70
     1
102
RTVSPost2010Prop50
 90
       50
102
RTVSPost2010PropOp50
 70
     1
102
RTVSPost2010Prop51ColorIndex
 90
      256
102
RTVSPost2010Prop51ColorRGB
 90
-16777216
102
RTVSPost2010PropOp51
 70
     0
102
RTVSPost2010Prop52
140
1.0
102
RTVSPost2010PropOp52
 70
     0
102
RTVSPost2010Prop53
 90
        2
102
RTVSPost2010PropOp53
 70
     1
102
RTVSPost2010Prop54
  1
strokes_ogs.tif
102
RTVSPost2010PropOp54
 70
     1
102
RTVSPost2010Prop55
280
     0
102
RTVSPost2010PropOp55
 70
     1
102
RTVSPost2010Prop56
140
1.0
102
RTVSPost2010PropOp56
 70
     1
102
RTVSPost2010Prop57
140
1.0
102
RTVSPost2010PropOp57
 70
     1
  0
XRECORD
  5
2E5
102
{ACAD_REACTORS
330
2E4
102
}
330
2E4
100
AcDbXrecord
280
     1
102
RTVSPropertyOp0
 70
     1
102
RTVSPropertyOp1
 70
     1
102
RTVSPropertyOp2
 70
     1
102
RTVSPropertyOp3
 70
     1
102
RTVSPropertyOp4
 70
     1
102
RTVSPropertyOp5
 70
     1
102
RTVSPropertyOp6
 70
     1
102
RTVSPropertyOp7
 70
     1
102
RTVSPropertyOp8
 70
     1
102
RTVSPropertyOp9
 70
     1
102
RTVSPropertyOp10
 70
     1
102
RTVSPropertyOp11
 70
     1
102
RTVSPropertyOp12
 70
     1
102
RTVSPropertyOp13
 70
     1
102
RTVSPropertyOp14
 70
     1
102
RTVSPropertyOp15
 70
     1
102
RTVSPropertyOp16
 70
     1
102
RTVSPropertyOp17
 70
     1
102
RTVSPropertyOp18
 70
     1
102
RTVSPropertyOp19
 70
     1
102
RTVSPropertyOp20
 70
     1
102
RTVSPropertyOp21
 70
     1
102
RTVSPropertyOp22
 70
     1
102
RTVSPropertyOp23
 70
     1
102
RTVSPropertyOp24
 70
     1
102
RTVSPropertyOp25
 70
     1
102
RTVSPropertyOp26
 70
     1
102
RTVSPropertyOp27
 70
     1
102
RTVSPropertyOp28
 70
     1
102
RTVSPropertyOp29
 70
     1
102
RTVSPropertyOp30
 70
     1
102
RTVSPropertyOp31
 70
     1
102
RTVSPropertyOp32
 70
     1
102
RTVSPropertyOp33
 70
     1
102
RTVSPropertyOp34
 70
     1
102
RTVSPropertyOp35
 70
     1
102
RTVSPropertyOp36
 70
     1
102
RTVSPropertyOp37
 70
     1
102
RTVSPropertyOp38
 70
     1
102
RTVSPropertyOp39
 70
     1
102
RTVSPropertyOp40
 70
     1
102
RTVSPropertyOp41
 70
     1
102
RTVSPropertyOp42
 70
     1
102
RTVSPropertyOp43
 70
     1
102
RTVSPropertyOp44
 70
     1
102
RTVSPropertyOp45
 70
     1
102
RTVSPropertyOp46
 70
     1
102
RTVSPropertyOp47
 70
     1
102
RTVSPropertyOp48
 70
     1
102
RTVSPropertyOp49
 70
     1
102
RTVSPropertyOp50
 70
     1
102
RTVSPropertyOp51
 70
     0
102
RTVSPropertyOp52
 70
     0
102
RTVSPropertyOp53
 70
     1
102
RTVSPropertyOp54
 70
     1
102
RTVSPropertyOp55
 70
     1
102
RTVSPropertyOp56
 70
     1
102
RTVSPropertyOp57
 70
     1
102
RTVSPost2010Prop28
280
     0
102
RTVSPost2010PropOp28
 70
     1
102
RTVSPost2010Prop29
280
     1
102
RTVSPost2010PropOp29
 70
     1
102
RTVSPost2010Prop30
280
     1
102
RTVSPost2010PropOp30
 70
     1
102
RTVSPost2010Prop31
280
     0
102
RTVSPost2010PropOp31
 70
     1
102
RTVSPost2010Prop32
280
     0
102
RTVSPost2010PropOp32
 70
     1
102
RTVSPost2010Prop33
280
     0
102
RTVSPost2010PropOp33
 70
     1
102
RTVSPost2010Prop34
280
     0
102
RTVSPost2010PropOp34
 70
     1
102
RTVSPost2010Prop35
280
     0
102
RTVSPost2010PropOp35
 70
     1
102
RTVSPost2010Prop36
280
     0
102
RTVSPost2010PropOp36
 70
     1
102
RTVSPost2010Prop37
 90
       50
102
RTVSPost2010PropOp37
 70
     1
102
RTVSPost2010Prop38
140
0.0
102
RTVSPost2010PropOp38
 70
     1
102
RTVSPost2010Prop39
140
1.0
102
RTVSPost2010PropOp39
 70
     1
102
RTVSPost2010Prop40
 90
        0
102
RTVSPost2010PropOp40
 70
     1
102
RTVSPost2010Prop41ColorIndex
 90
       18
102
RTVSPost2010Prop41ColorRGB
 90
        0
102
RTVSPost2010PropOp41
 70
     1
102
RTVSPost2010Prop42
 90
       50
102
RTVSPost2010PropOp42
 70
     1
102
RTVSPost2010Prop43
 90
        3
102
RTVSPost2010PropOp43
 70
     1
102
RTVSPost2010Prop44ColorIndex
 90
        5
102
RTVSPost2010Prop44ColorRGB
 90
      255
102
RTVSPost2010PropOp44
 70
     1
102
RTVSPost2010Prop45
280
     0
102
RTVSPost2010PropOp45
 70
     1
102
RTVSPost2010Prop46
 90
       50
102
RTVSPost2010PropOp46
 70
     1
102
RTVSPost2010Prop47
 90
       50
102
RTVSPost2010PropOp47
 70
     1
102
RTVSPost2010Prop48
 90
       50
102
RTVSPost2010PropOp48
 70
     1
102
RTVSPost2010Prop49
280
     0
102
RTVSPost2010PropOp49
 70
     1
102
RTVSPost2010Prop50
 90
       50
102
RTVSPost2010PropOp50
 70
     1
102
RTVSPost2010Prop51ColorIndex
 90
      256
102
RTVSPost2010Prop51ColorRGB
 90
-16777216
102
RTVSPost2010PropOp51
 70
     0
102
RTVSPost2010Prop52
140
1.0
102
RTVSPost2010PropOp52
 70
     0
102
RTVSPost2010Prop53
 90
        2
102
RTVSPost2010PropOp53
 70
     1
102
RTVSPost2010Prop54
  1
strokes_ogs.tif
102
RTVSPost2010PropOp54
 70
     1
102
RTVSPost2010Prop55
280
     0
102
RTVSPost2010PropOp55
 70
     1
102
RTVSPost2010Prop56
140
1.0
102
RTVSPost2010PropOp56
 70
     1
102
RTVSPost2010Prop57
140
1.0
102
RTVSPost2010PropOp57
 70
     1
  0
XRECORD
  5
2EB
102
{ACAD_REACTORS
330
2EA
102
}
330
2EA
100
AcDbXrecord
280
     1
102
RTVSPropertyOp0
 70
     1
102
RTVSPropertyOp1
 70
     1
102
RTVSPropertyOp2
 70
     1
102
RTVSPropertyOp3
 70
     1
102
RTVSPropertyOp4
 70
     1
102
RTVSPropertyOp5
 70
     1
102
RTVSPropertyOp6
 70
     1
102
RTVSPropertyOp7
 70
     1
102
RTVSPropertyOp8
 70
     1
102
RTVSPropertyOp9
 70
     1
102
RTVSPropertyOp10
 70
     1
102
RTVSPropertyOp11
 70
     1
102
RTVSPropertyOp12
 70
     1
102
RTVSPropertyOp13
 70
     1
102
RTVSPropertyOp14
 70
     1
102
RTVSPropertyOp15
 70
     1
102
RTVSPropertyOp16
 70
     1
102
RTVSPropertyOp17
 70
     1
102
RTVSPropertyOp18
 70
     1
102
RTVSPropertyOp19
 70
     1
102
RTVSPropertyOp20
 70
     1
102
RTVSPropertyOp21
 70
     1
102
RTVSPropertyOp22
 70
     1
102
RTVSPropertyOp23
 70
     1
102
RTVSPropertyOp24
 70
     1
102
RTVSPropertyOp25
 70
     1
102
RTVSPropertyOp26
 70
     1
102
RTVSPropertyOp27
 70
     1
102
RTVSPropertyOp28
 70
     1
102
RTVSPropertyOp29
 70
     1
102
RTVSPropertyOp30
 70
     1
102
RTVSPropertyOp31
 70
     1
102
RTVSPropertyOp32
 70
     1
102
RTVSPropertyOp33
 70
     1
102
RTVSPropertyOp34
 70
     1
102
RTVSPropertyOp35
 70
     1
102
RTVSPropertyOp36
 70
     1
102
RTVSPropertyOp37
 70
     1
102
RTVSPropertyOp38
 70
     1
102
RTVSPropertyOp39
 70
     1
102
RTVSPropertyOp40
 70
     1
102
RTVSPropertyOp41
 70
     1
102
RTVSPropertyOp42
 70
     1
102
RTVSPropertyOp43
 70
     1
102
RTVSPropertyOp44
 70
     1
102
RTVSPropertyOp45
 70
     1
102
RTVSPropertyOp46
 70
     1
102
RTVSPropertyOp47
 70
     1
102
RTVSPropertyOp48
 70
     1
102
RTVSPropertyOp49
 70
     1
102
RTVSPropertyOp50
 70
     1
102
RTVSPropertyOp51
 70
     0
102
RTVSPropertyOp52
 70
     0
102
RTVSPropertyOp53
 70
     1
102
RTVSPropertyOp54
 70
     1
102
RTVSPropertyOp55
 70
     1
102
RTVSPropertyOp56
 70
     1
102
RTVSPropertyOp57
 70
     1
102
RTVSPost2010Prop28
280
     0
102
RTVSPost2010PropOp28
 70
     1
102
RTVSPost2010Prop29
280
     1
102
RTVSPost2010PropOp29
 70
     1
102
RTVSPost2010Prop30
280
     1
102
RTVSPost2010PropOp30
 70
     1
102
RTVSPost2010Prop31
280
     0
102
RTVSPost2010PropOp31
 70
     1
102
RTVSPost2010Prop32
280
     0
102
RTVSPost2010PropOp32
 70
     1
102
RTVSPost2010Prop33
280
     0
102
RTVSPost2010PropOp33
 70
     1
102
RTVSPost2010Prop34
280
     0
102
RTVSPost2010PropOp34
 70
     1
102
RTVSPost2010Prop35
280
     0
102
RTVSPost2010PropOp35
 70
     1
102
RTVSPost2010Prop36
280
     0
102
RTVSPost2010PropOp36
 70
     1
102
RTVSPost2010Prop37
 90
       50
102
RTVSPost2010PropOp37
 70
     1
102
RTVSPost2010Prop38
140
0.0
102
RTVSPost2010PropOp38
 70
     1
102
RTVSPost2010Prop39
140
1.0
102
RTVSPost2010PropOp39
 70
     1
102
RTVSPost2010Prop40
 90
        0
102
RTVSPost2010PropOp40
 70
     1
102
RTVSPost2010Prop41ColorIndex
 90
       18
102
RTVSPost2010Prop41ColorRGB
 90
        0
102
RTVSPost2010PropOp41
 70
     1
102
RTVSPost2010Prop42
 90
       50
102
RTVSPost2010PropOp42
 70
     1
102
RTVSPost2010Prop43
 90
        3
102
RTVSPost2010PropOp43
 70
     1
102
RTVSPost2010Prop44ColorIndex
 90
        5
102
RTVSPost2010Prop44ColorRGB
 90
      255
102
RTVSPost2010PropOp44
 70
     1
102
RTVSPost2010Prop45
280
     0
102
RTVSPost2010PropOp45
 70
     1
102
RTVSPost2010Prop46
 90
       50
102
RTVSPost2010PropOp46
 70
     1
102
RTVSPost2010Prop47
 90
       50
102
RTVSPost2010PropOp47
 70
     1
102
RTVSPost2010Prop48
 90
       50
102
RTVSPost2010PropOp48
 70
     1
102
RTVSPost2010Prop49
280
     0
102
RTVSPost2010PropOp49
 70
     1
102
RTVSPost2010Prop50
 90
       50
102
RTVSPost2010PropOp50
 70
     1
102
RTVSPost2010Prop51ColorIndex
 90
      256
102
RTVSPost2010Prop51ColorRGB
 90
-16777216
102
RTVSPost2010PropOp51
 70
     0
102
RTVSPost2010Prop52
140
1.0
102
RTVSPost2010PropOp52
 70
     0
102
RTVSPost2010Prop53
 90
        2
102
RTVSPost2010PropOp53
 70
     1
102
RTVSPost2010Prop54
  1
strokes_ogs.tif
102
RTVSPost2010PropOp54
 70
     1
102
RTVSPost2010Prop55
280
     0
102
RTVSPost2010PropOp55
 70
     1
102
RTVSPost2010Prop56
140
1.0
102
RTVSPost2010PropOp56
 70
     1
102
RTVSPost2010Prop57
140
1.0
102
RTVSPost2010PropOp57
 70
     1
  0
XRECORD
  5
2FF
102
{ACAD_REACTORS
330
2FE
102
}
330
2FE
100
AcDbXrecord
280
     1
102
RTVSPropertyOp0
 70
     0
102
RTVSPropertyOp1
 70
     0
102
RTVSPropertyOp2
 70
     0
102
RTVSPropertyOp3
 70
     0
102
RTVSPropertyOp4
 70
     0
102
RTVSPropertyOp5
 70
     0
102
RTVSPropertyOp6
 70
     0
102
RTVSPropertyOp7
 70
     0
102
RTVSPropertyOp8
 70
     0
102
RTVSPropertyOp9
 70
     0
102
RTVSPropertyOp10
 70
     0
102
RTVSPropertyOp11
 70
     0
102
RTVSPropertyOp12
 70
     0
102
RTVSPropertyOp13
 70
     0
102
RTVSPropertyOp14
 70
     2
102
RTVSPropertyOp15
 70
     0
102
RTVSPropertyOp16
 70
     0
102
RTVSPropertyOp17
 70
     0
102
RTVSPropertyOp18
 70
     0
102
RTVSPropertyOp19
 70
     0
102
RTVSPropertyOp20
 70
     0
102
RTVSPropertyOp21
 70
     0
102
RTVSPropertyOp22
 70
     0
102
RTVSPropertyOp23
 70
     0
102
RTVSPropertyOp24
 70
     0
102
RTVSPropertyOp25
 70
     0
102
RTVSPropertyOp26
 70
     0
102
RTVSPropertyOp27
 70
     0
102
RTVSPropertyOp28
 70
     0
102
RTVSPropertyOp29
 70
     0
102
RTVSPropertyOp30
 70
     0
102
RTVSPropertyOp31
 70
     0
102
RTVSPropertyOp32
 70
     0
102
RTVSPropertyOp33
 70
     0
102
RTVSPropertyOp34
 70
     0
102
RTVSPropertyOp35
 70
     0
102
RTVSPropertyOp36
 70
     0
102
RTVSPropertyOp37
 70
     0
102
RTVSPropertyOp38
 70
     0
102
RTVSPropertyOp39
 70
     0
102
RTVSPropertyOp40
 70
     0
102
RTVSPropertyOp41
 70
     0
102
RTVSPropertyOp42
 70
     0
102
RTVSPropertyOp43
 70
     0
102
RTVSPropertyOp44
 70
     0
102
RTVSPropertyOp45
 70
     0
102
RTVSPropertyOp46
 70
     0
102
RTVSPropertyOp47
 70
     0
102
RTVSPropertyOp48
 70
     0
102
RTVSPropertyOp49
 70
     0
102
RTVSPropertyOp50
 70
     0
102
RTVSPropertyOp51
 70
     0
102
RTVSPropertyOp52
 70
     0
102
RTVSPropertyOp53
 70
     0
102
RTVSPropertyOp54
 70
     0
102
RTVSPropertyOp55
 70
     0
102
RTVSPropertyOp56
 70
     0
102
RTVSPropertyOp57
 70
     0
102
RTVSPost2010Prop28
280
     0
102
RTVSPost2010PropOp28
 70
     0
102
RTVSPost2010Prop29
280
     1
102
RTVSPost2010PropOp29
 70
     0
102
RTVSPost2010Prop30
280
     1
102
RTVSPost2010PropOp30
 70
     0
102
RTVSPost2010Prop31
280
     0
102
RTVSPost2010PropOp31
 70
     0
102
RTVSPost2010Prop32
280
     0
102
RTVSPost2010PropOp32
 70
     0
102
RTVSPost2010Prop33
280
     0
102
RTVSPost2010PropOp33
 70
     0
102
RTVSPost2010Prop34
280
     0
102
RTVSPost2010PropOp34
 70
     0
102
RTVSPost2010Prop35
280
     0
102
RTVSPost2010PropOp35
 70
     0
102
RTVSPost2010Prop36
280
     0
102
RTVSPost2010PropOp36
 70
     0
102
RTVSPost2010Prop37
 90
       50
102
RTVSPost2010PropOp37
 70
     0
102
RTVSPost2010Prop38
140
0.0
102
RTVSPost2010PropOp38
 70
     0
102
RTVSPost2010Prop39
140
1.0
102
RTVSPost2010PropOp39
 70
     0
102
RTVSPost2010Prop40
 90
        0
102
RTVSPost2010PropOp40
 70
     0
102
RTVSPost2010Prop41ColorIndex
 90
       18
102
RTVSPost2010Prop41ColorRGB
 90
        0
102
RTVSPost2010PropOp41
 70
     0
102
RTVSPost2010Prop42
 90
       50
102
RTVSPost2010PropOp42
 70
     0
102
RTVSPost2010Prop43
 90
        3
102
RTVSPost2010PropOp43
 70
     0
102
RTVSPost2010Prop44ColorIndex
 90
        5
102
RTVSPost2010Prop44ColorRGB
 90
      255
102
RTVSPost2010PropOp44
 70
     0
102
RTVSPost2010Prop45
280
     0
102
RTVSPost2010PropOp45
 70
     0
102
RTVSPost2010Prop46
 90
       50
102
RTVSPost2010PropOp46
 70
     0
102
RTVSPost2010Prop47
 90
       50
102
RTVSPost2010PropOp47
 70
     0
102
RTVSPost2010Prop48
 90
       50
102
RTVSPost2010PropOp48
 70
     0
102
RTVSPost2010Prop49
280
     0
102
RTVSPost2010PropOp49
 70
     0
102
RTVSPost2010Prop50
 90
       50
102
RTVSPost2010PropOp50
 70
     0
102
RTVSPost2010Prop51ColorIndex
 90
      256
102
RTVSPost2010Prop51ColorRGB
 90
-16777216
102
RTVSPost2010PropOp51
 70
     0
102
RTVSPost2010Prop52
140
1.0
102
RTVSPost2010PropOp52
 70
     0
102
RTVSPost2010Prop53
 90
        2
102
RTVSPost2010PropOp53
 70
     0
102
RTVSPost2010Prop54
  1
strokes_ogs.tif
102
RTVSPost2010PropOp54
 70
     0
102
RTVSPost2010Prop55
280
     0
102
RTVSPost2010PropOp55
 70
     0
102
RTVSPost2010Prop56
140
1.0
102
RTVSPost2010PropOp56
 70
     0
102
RTVSPost2010Prop57
140
1.0
102
RTVSPost2010PropOp57
 70
     0
  0
XRECORD
  5
2F9
102
{ACAD_REACTORS
330
2F8
102
}
330
2F8
100
AcDbXrecord
280
     1
102
RTVSPropertyOp0
 70
     1
102
RTVSPropertyOp1
 70
     1
102
RTVSPropertyOp2
 70
     1
102
RTVSPropertyOp3
 70
     1
102
RTVSPropertyOp4
 70
     1
102
RTVSPropertyOp5
 70
     1
102
RTVSPropertyOp6
 70
     1
102
RTVSPropertyOp7
 70
     1
102
RTVSPropertyOp8
 70
     1
102
RTVSPropertyOp9
 70
     1
102
RTVSPropertyOp10
 70
     1
102
RTVSPropertyOp11
 70
     1
102
RTVSPropertyOp12
 70
     1
102
RTVSPropertyOp13
 70
     1
102
RTVSPropertyOp14
 70
     1
102
RTVSPropertyOp15
 70
     1
102
RTVSPropertyOp16
 70
     1
102
RTVSPropertyOp17
 70
     1
102
RTVSPropertyOp18
 70
     1
102
RTVSPropertyOp19
 70
     1
102
RTVSPropertyOp20
 70
     1
102
RTVSPropertyOp21
 70
     1
102
RTVSPropertyOp22
 70
     1
102
RTVSPropertyOp23
 70
     1
102
RTVSPropertyOp24
 70
     1
102
RTVSPropertyOp25
 70
     1
102
RTVSPropertyOp26
 70
     1
102
RTVSPropertyOp27
 70
     1
102
RTVSPropertyOp28
 70
     1
102
RTVSPropertyOp29
 70
     1
102
RTVSPropertyOp30
 70
     1
102
RTVSPropertyOp31
 70
     1
102
RTVSPropertyOp32
 70
     1
102
RTVSPropertyOp33
 70
     1
102
RTVSPropertyOp34
 70
     1
102
RTVSPropertyOp35
 70
     1
102
RTVSPropertyOp36
 70
     1
102
RTVSPropertyOp37
 70
     1
102
RTVSPropertyOp38
 70
     1
102
RTVSPropertyOp39
 70
     1
102
RTVSPropertyOp40
 70
     1
102
RTVSPropertyOp41
 70
     1
102
RTVSPropertyOp42
 70
     1
102
RTVSPropertyOp43
 70
     1
102
RTVSPropertyOp44
 70
     1
102
RTVSPropertyOp45
 70
     1
102
RTVSPropertyOp46
 70
     1
102
RTVSPropertyOp47
 70
     1
102
RTVSPropertyOp48
 70
     1
102
RTVSPropertyOp49
 70
     1
102
RTVSPropertyOp50
 70
     1
102
RTVSPropertyOp51
 70
     0
102
RTVSPropertyOp52
 70
     0
102
RTVSPropertyOp53
 70
     1
102
RTVSPropertyOp54
 70
     1
102
RTVSPropertyOp55
 70
     1
102
RTVSPropertyOp56
 70
     1
102
RTVSPropertyOp57
 70
     1
102
RTVSPost2010Prop28
280
     0
102
RTVSPost2010PropOp28
 70
     1
102
RTVSPost2010Prop29
280
     1
102
RTVSPost2010PropOp29
 70
     1
102
RTVSPost2010Prop30
280
     1
102
RTVSPost2010PropOp30
 70
     1
102
RTVSPost2010Prop31
280
     0
102
RTVSPost2010PropOp31
 70
     1
102
RTVSPost2010Prop32
280
     0
102
RTVSPost2010PropOp32
 70
     1
102
RTVSPost2010Prop33
280
     0
102
RTVSPost2010PropOp33
 70
     1
102
RTVSPost2010Prop34
280
     0
102
RTVSPost2010PropOp34
 70
     1
102
RTVSPost2010Prop35
280
     0
102
RTVSPost2010PropOp35
 70
     1
102
RTVSPost2010Prop36
280
     0
102
RTVSPost2010PropOp36
 70
     1
102
RTVSPost2010Prop37
 90
       50
102
RTVSPost2010PropOp37
 70
     1
102
RTVSPost2010Prop38
140
0.0
102
RTVSPost2010PropOp38
 70
     1
102
RTVSPost2010Prop39
140
1.0
102
RTVSPost2010PropOp39
 70
     1
102
RTVSPost2010Prop40
 90
        0
102
RTVSPost2010PropOp40
 70
     1
102
RTVSPost2010Prop41ColorIndex
 90
       18
102
RTVSPost2010Prop41ColorRGB
 90
        0
102
RTVSPost2010PropOp41
 70
     1
102
RTVSPost2010Prop42
 90
       50
102
RTVSPost2010PropOp42
 70
     1
102
RTVSPost2010Prop43
 90
        3
102
RTVSPost2010PropOp43
 70
     1
102
RTVSPost2010Prop44ColorIndex
 90
        5
102
RTVSPost2010Prop44ColorRGB
 90
      255
102
RTVSPost2010PropOp44
 70
     1
102
RTVSPost2010Prop45
280
     0
102
RTVSPost2010PropOp45
 70
     1
102
RTVSPost2010Prop46
 90
       50
102
RTVSPost2010PropOp46
 70
     1
102
RTVSPost2010Prop47
 90
       50
102
RTVSPost2010PropOp47
 70
     1
102
RTVSPost2010Prop48
 90
       50
102
RTVSPost2010PropOp48
 70
     1
102
RTVSPost2010Prop49
280
     0
102
RTVSPost2010PropOp49
 70
     1
102
RTVSPost2010Prop50
 90
       50
102
RTVSPost2010PropOp50
 70
     1
102
RTVSPost2010Prop51ColorIndex
 90
      256
102
RTVSPost2010Prop51ColorRGB
 90
-16777216
102
RTVSPost2010PropOp51
 70
     0
102
RTVSPost2010Prop52
140
1.0
102
RTVSPost2010PropOp52
 70
     0
102
RTVSPost2010Prop53
 90
        2
102
RTVSPost2010PropOp53
 70
     1
102
RTVSPost2010Prop54
  1
strokes_ogs.tif
102
RTVSPost2010PropOp54
 70
     1
102
RTVSPost2010Prop55
280
     0
102
RTVSPost2010PropOp55
 70
     1
102
RTVSPost2010Prop56
140
1.0
102
RTVSPost2010PropOp56
 70
     1
102
RTVSPost2010Prop57
140
1.0
102
RTVSPost2010PropOp57
 70
     1
  0
XRECORD
  5
301
102
{ACAD_REACTORS
330
300
102
}
330
300
100
AcDbXrecord
280
     1
102
RTVSPropertyOp0
 70
     0
102
RTVSPropertyOp1
 70
     0
102
RTVSPropertyOp2
 70
     0
102
RTVSPropertyOp3
 70
     0
102
RTVSPropertyOp4
 70
     0
102
RTVSPropertyOp5
 70
     0
102
RTVSPropertyOp6
 70
     0
102
RTVSPropertyOp7
 70
     0
102
RTVSPropertyOp8
 70
     0
102
RTVSPropertyOp9
 70
     0
102
RTVSPropertyOp10
 70
     0
102
RTVSPropertyOp11
 70
     0
102
RTVSPropertyOp12
 70
     0
102
RTVSPropertyOp13
 70
     0
102
RTVSPropertyOp14
 70
     2
102
RTVSPropertyOp15
 70
     0
102
RTVSPropertyOp16
 70
     0
102
RTVSPropertyOp17
 70
     0
102
RTVSPropertyOp18
 70
     0
102
RTVSPropertyOp19
 70
     0
102
RTVSPropertyOp20
 70
     0
102
RTVSPropertyOp21
 70
     0
102
RTVSPropertyOp22
 70
     0
102
RTVSPropertyOp23
 70
     0
102
RTVSPropertyOp24
 70
     0
102
RTVSPropertyOp25
 70
     0
102
RTVSPropertyOp26
 70
     0
102
RTVSPropertyOp27
 70
     0
102
RTVSPropertyOp28
 70
     0
102
RTVSPropertyOp29
 70
     0
102
RTVSPropertyOp30
 70
     0
102
RTVSPropertyOp31
 70
     0
102
RTVSPropertyOp32
 70
     0
102
RTVSPropertyOp33
 70
     0
102
RTVSPropertyOp34
 70
     0
102
RTVSPropertyOp35
 70
     0
102
RTVSPropertyOp36
 70
     0
102
RTVSPropertyOp37
 70
     0
102
RTVSPropertyOp38
 70
     0
102
RTVSPropertyOp39
 70
     0
102
RTVSPropertyOp40
 70
     0
102
RTVSPropertyOp41
 70
     0
102
RTVSPropertyOp42
 70
     0
102
RTVSPropertyOp43
 70
     0
102
RTVSPropertyOp44
 70
     0
102
RTVSPropertyOp45
 70
     0
102
RTVSPropertyOp46
 70
     0
102
RTVSPropertyOp47
 70
     0
102
RTVSPropertyOp48
 70
     0
102
RTVSPropertyOp49
 70
     0
102
RTVSPropertyOp50
 70
     0
102
RTVSPropertyOp51
 70
     0
102
RTVSPropertyOp52
 70
     0
102
RTVSPropertyOp53
 70
     0
102
RTVSPropertyOp54
 70
     0
102
RTVSPropertyOp55
 70
     0
102
RTVSPropertyOp56
 70
     0
102
RTVSPropertyOp57
 70
     0
102
RTVSPost2010Prop28
280
     0
102
RTVSPost2010PropOp28
 70
     0
102
RTVSPost2010Prop29
280
     1
102
RTVSPost2010PropOp29
 70
     0
102
RTVSPost2010Prop30
280
     1
102
RTVSPost2010PropOp30
 70
     0
102
RTVSPost2010Prop31
280
     0
102
RTVSPost2010PropOp31
 70
     0
102
RTVSPost2010Prop32
280
     0
102
RTVSPost2010PropOp32
 70
     0
102
RTVSPost2010Prop33
280
     0
102
RTVSPost2010PropOp33
 70
     0
102
RTVSPost2010Prop34
280
     0
102
RTVSPost2010PropOp34
 70
     0
102
RTVSPost2010Prop35
280
     0
102
RTVSPost2010PropOp35
 70
     0
102
RTVSPost2010Prop36
280
     0
102
RTVSPost2010PropOp36
 70
     0
102
RTVSPost2010Prop37
 90
       50
102
RTVSPost2010PropOp37
 70
     0
102
RTVSPost2010Prop38
140
0.0
102
RTVSPost2010PropOp38
 70
     0
102
RTVSPost2010Prop39
140
1.0
102
RTVSPost2010PropOp39
 70
     0
102
RTVSPost2010Prop40
 90
        0
102
RTVSPost2010PropOp40
 70
     0
102
RTVSPost2010Prop41ColorIndex
 90
       18
102
RTVSPost2010Prop41ColorRGB
 90
        0
102
RTVSPost2010PropOp41
 70
     0
102
RTVSPost2010Prop42
 90
       50
102
RTVSPost2010PropOp42
 70
     0
102
RTVSPost2010Prop43
 90
        3
102
RTVSPost2010PropOp43
 70
     0
102
RTVSPost2010Prop44ColorIndex
 90
        5
102
RTVSPost2010Prop44ColorRGB
 90
      255
102
RTVSPost2010PropOp44
 70
     0
102
RTVSPost2010Prop45
280
     0
102
RTVSPost2010PropOp45
 70
     0
102
RTVSPost2010Prop46
 90
       50
102
RTVSPost2010PropOp46
 70
     0
102
RTVSPost2010Prop47
 90
       50
102
RTVSPost2010PropOp47
 70
     0
102
RTVSPost2010Prop48
 90
       50
102
RTVSPost2010PropOp48
 70
     0
102
RTVSPost2010Prop49
280
     0
102
RTVSPost2010PropOp49
 70
     0
102
RTVSPost2010Prop50
 90
       50
102
RTVSPost2010PropOp50
 70
     0
102
RTVSPost2010Prop51ColorIndex
 90
      256
102
RTVSPost2010Prop51ColorRGB
 90
-16777216
102
RTVSPost2010PropOp51
 70
     0
102
RTVSPost2010Prop52
140
1.0
102
RTVSPost2010PropOp52
 70
     0
102
RTVSPost2010Prop53
 90
        2
102
RTVSPost2010PropOp53
 70
     0
102
RTVSPost2010Prop54
  1
strokes_ogs.tif
102
RTVSPost2010PropOp54
 70
     0
102
RTVSPost2010Prop55
280
     0
102
RTVSPost2010PropOp55
 70
     0
102
RTVSPost2010Prop56
140
1.0
102
RTVSPost2010PropOp56
 70
     0
102
RTVSPost2010Prop57
140
1.0
102
RTVSPost2010PropOp57
 70
     0
  0
XRECORD
  5
2EF
102
{ACAD_REACTORS
330
2EE
102
}
330
2EE
100
AcDbXrecord
280
     1
102
RTVSPropertyOp0
 70
     1
102
RTVSPropertyOp1
 70
     1
102
RTVSPropertyOp2
 70
     1
102
RTVSPropertyOp3
 70
     1
102
RTVSPropertyOp4
 70
     1
102
RTVSPropertyOp5
 70
     1
102
RTVSPropertyOp6
 70
     1
102
RTVSPropertyOp7
 70
     1
102
RTVSPropertyOp8
 70
     1
102
RTVSPropertyOp9
 70
     1
102
RTVSPropertyOp10
 70
     1
102
RTVSPropertyOp11
 70
     1
102
RTVSPropertyOp12
 70
     1
102
RTVSPropertyOp13
 70
     1
102
RTVSPropertyOp14
 70
     1
102
RTVSPropertyOp15
 70
     1
102
RTVSPropertyOp16
 70
     1
102
RTVSPropertyOp17
 70
     1
102
RTVSPropertyOp18
 70
     1
102
RTVSPropertyOp19
 70
     1
102
RTVSPropertyOp20
 70
     1
102
RTVSPropertyOp21
 70
     1
102
RTVSPropertyOp22
 70
     1
102
RTVSPropertyOp23
 70
     1
102
RTVSPropertyOp24
 70
     1
102
RTVSPropertyOp25
 70
     1
102
RTVSPropertyOp26
 70
     1
102
RTVSPropertyOp27
 70
     1
102
RTVSPropertyOp28
 70
     1
102
RTVSPropertyOp29
 70
     1
102
RTVSPropertyOp30
 70
     1
102
RTVSPropertyOp31
 70
     1
102
RTVSPropertyOp32
 70
     1
102
RTVSPropertyOp33
 70
     1
102
RTVSPropertyOp34
 70
     1
102
RTVSPropertyOp35
 70
     1
102
RTVSPropertyOp36
 70
     1
102
RTVSPropertyOp37
 70
     1
102
RTVSPropertyOp38
 70
     1
102
RTVSPropertyOp39
 70
     1
102
RTVSPropertyOp40
 70
     1
102
RTVSPropertyOp41
 70
     1
102
RTVSPropertyOp42
 70
     1
102
RTVSPropertyOp43
 70
     1
102
RTVSPropertyOp44
 70
     1
102
RTVSPropertyOp45
 70
     1
102
RTVSPropertyOp46
 70
     1
102
RTVSPropertyOp47
 70
     1
102
RTVSPropertyOp48
 70
     1
102
RTVSPropertyOp49
 70
     1
102
RTVSPropertyOp50
 70
     1
102
RTVSPropertyOp51
 70
     0
102
RTVSPropertyOp52
 70
     0
102
RTVSPropertyOp53
 70
     1
102
RTVSPropertyOp54
 70
     1
102
RTVSPropertyOp55
 70
     1
102
RTVSPropertyOp56
 70
     1
102
RTVSPropertyOp57
 70
     1
102
RTVSPost2010Prop28
280
     0
102
RTVSPost2010PropOp28
 70
     1
102
RTVSPost2010Prop29
280
     1
102
RTVSPost2010PropOp29
 70
     1
102
RTVSPost2010Prop30
280
     1
102
RTVSPost2010PropOp30
 70
     1
102
RTVSPost2010Prop31
280
     0
102
RTVSPost2010PropOp31
 70
     1
102
RTVSPost2010Prop32
280
     0
102
RTVSPost2010PropOp32
 70
     1
102
RTVSPost2010Prop33
280
     0
102
RTVSPost2010PropOp33
 70
     1
102
RTVSPost2010Prop34
280
     0
102
RTVSPost2010PropOp34
 70
     1
102
RTVSPost2010Prop35
280
     0
102
RTVSPost2010PropOp35
 70
     1
102
RTVSPost2010Prop36
280
     0
102
RTVSPost2010PropOp36
 70
     1
102
RTVSPost2010Prop37
 90
       50
102
RTVSPost2010PropOp37
 70
     1
102
RTVSPost2010Prop38
140
0.0
102
RTVSPost2010PropOp38
 70
     1
102
RTVSPost2010Prop39
140
1.0
102
RTVSPost2010PropOp39
 70
     1
102
RTVSPost2010Prop40
 90
        0
102
RTVSPost2010PropOp40
 70
     1
102
RTVSPost2010Prop41ColorIndex
 90
       18
102
RTVSPost2010Prop41ColorRGB
 90
        0
102
RTVSPost2010PropOp41
 70
     1
102
RTVSPost2010Prop42
 90
       50
102
RTVSPost2010PropOp42
 70
     1
102
RTVSPost2010Prop43
 90
        3
102
RTVSPost2010PropOp43
 70
     1
102
RTVSPost2010Prop44ColorIndex
 90
        5
102
RTVSPost2010Prop44ColorRGB
 90
      255
102
RTVSPost2010PropOp44
 70
     1
102
RTVSPost2010Prop45
280
     0
102
RTVSPost2010PropOp45
 70
     1
102
RTVSPost2010Prop46
 90
       50
102
RTVSPost2010PropOp46
 70
     1
102
RTVSPost2010Prop47
 90
       50
102
RTVSPost2010PropOp47
 70
     1
102
RTVSPost2010Prop48
 90
       50
102
RTVSPost2010PropOp48
 70
     1
102
RTVSPost2010Prop49
280
     0
102
RTVSPost2010PropOp49
 70
     1
102
RTVSPost2010Prop50
 90
       50
102
RTVSPost2010PropOp50
 70
     1
102
RTVSPost2010Prop51ColorIndex
 90
      256
102
RTVSPost2010Prop51ColorRGB
 90
-16777216
102
RTVSPost2010PropOp51
 70
     0
102
RTVSPost2010Prop52
140
1.0
102
RTVSPost2010PropOp52
 70
     0
102
RTVSPost2010Prop53
 90
        2
102
RTVSPost2010PropOp53
 70
     1
102
RTVSPost2010Prop54
  1
strokes_ogs.tif
102
RTVSPost2010PropOp54
 70
     1
102
RTVSPost2010Prop55
280
     0
102
RTVSPost2010PropOp55
 70
     1
102
RTVSPost2010Prop56
140
1.0
102
RTVSPost2010PropOp56
 70
     1
102
RTVSPost2010Prop57
140
1.0
102
RTVSPost2010PropOp57
 70
     1
  0
XRECORD
  5
30D
102
{ACAD_REACTORS
330
30C
102
}
330
30C
100
AcDbXrecord
280
     1
102
RTVSPropertyOp0
 70
     1
102
RTVSPropertyOp1
 70
     1
102
RTVSPropertyOp2
 70
     1
102
RTVSPropertyOp3
 70
     1
102
RTVSPropertyOp4
 70
     1
102
RTVSPropertyOp5
 70
     1
102
RTVSPropertyOp6
 70
     1
102
RTVSPropertyOp7
 70
     1
102
RTVSPropertyOp8
 70
     1
102
RTVSPropertyOp9
 70
     1
102
RTVSPropertyOp10
 70
     1
102
RTVSPropertyOp11
 70
     1
102
RTVSPropertyOp12
 70
     1
102
RTVSPropertyOp13
 70
     1
102
RTVSPropertyOp14
 70
     1
102
RTVSPropertyOp15
 70
     1
102
RTVSPropertyOp16
 70
     1
102
RTVSPropertyOp17
 70
     1
102
RTVSPropertyOp18
 70
     1
102
RTVSPropertyOp19
 70
     1
102
RTVSPropertyOp20
 70
     1
102
RTVSPropertyOp21
 70
     1
102
RTVSPropertyOp22
 70
     1
102
RTVSPropertyOp23
 70
     1
102
RTVSPropertyOp24
 70
     1
102
RTVSPropertyOp25
 70
     1
102
RTVSPropertyOp26
 70
     1
102
RTVSPropertyOp27
 70
     1
102
RTVSPropertyOp28
 70
     1
102
RTVSPropertyOp29
 70
     1
102
RTVSPropertyOp30
 70
     1
102
RTVSPropertyOp31
 70
     1
102
RTVSPropertyOp32
 70
     1
102
RTVSPropertyOp33
 70
     1
102
RTVSPropertyOp34
 70
     1
102
RTVSPropertyOp35
 70
     1
102
RTVSPropertyOp36
 70
     1
102
RTVSPropertyOp37
 70
     1
102
RTVSPropertyOp38
 70
     1
102
RTVSPropertyOp39
 70
     1
102
RTVSPropertyOp40
 70
     1
102
RTVSPropertyOp41
 70
     1
102
RTVSPropertyOp42
 70
     1
102
RTVSPropertyOp43
 70
     1
102
RTVSPropertyOp44
 70
     1
102
RTVSPropertyOp45
 70
     1
102
RTVSPropertyOp46
 70
     1
102
RTVSPropertyOp47
 70
     1
102
RTVSPropertyOp48
 70
     1
102
RTVSPropertyOp49
 70
     1
102
RTVSPropertyOp50
 70
     1
102
RTVSPropertyOp51
 70
     0
102
RTVSPropertyOp52
 70
     0
102
RTVSPropertyOp53
 70
     1
102
RTVSPropertyOp54
 70
     1
102
RTVSPropertyOp55
 70
     1
102
RTVSPropertyOp56
 70
     1
102
RTVSPropertyOp57
 70
     1
102
RTVSPost2010Prop28
280
     0
102
RTVSPost2010PropOp28
 70
     1
102
RTVSPost2010Prop29
280
     1
102
RTVSPost2010PropOp29
 70
     1
102
RTVSPost2010Prop30
280
     1
102
RTVSPost2010PropOp30
 70
     1
102
RTVSPost2010Prop31
280
     0
102
RTVSPost2010PropOp31
 70
     1
102
RTVSPost2010Prop32
280
     0
102
RTVSPost2010PropOp32
 70
     1
102
RTVSPost2010Prop33
280
     0
102
RTVSPost2010PropOp33
 70
     1
102
RTVSPost2010Prop34
280
     0
102
RTVSPost2010PropOp34
 70
     1
102
RTVSPost2010Prop35
280
     0
102
RTVSPost2010PropOp35
 70
     1
102
RTVSPost2010Prop36
280
     0
102
RTVSPost2010PropOp36
 70
     1
102
RTVSPost2010Prop37
 90
       50
102
RTVSPost2010PropOp37
 70
     1
102
RTVSPost2010Prop38
140
0.0
102
RTVSPost2010PropOp38
 70
     1
102
RTVSPost2010Prop39
140
1.0
102
RTVSPost2010PropOp39
 70
     1
102
RTVSPost2010Prop40
 90
        0
102
RTVSPost2010PropOp40
 70
     1
102
RTVSPost2010Prop41ColorIndex
 90
       18
102
RTVSPost2010Prop41ColorRGB
 90
        0
102
RTVSPost2010PropOp41
 70
     1
102
RTVSPost2010Prop42
 90
       50
102
RTVSPost2010PropOp42
 70
     1
102
RTVSPost2010Prop43
 90
        3
102
RTVSPost2010PropOp43
 70
     1
102
RTVSPost2010Prop44ColorIndex
 90
        5
102
RTVSPost2010Prop44ColorRGB
 90
      255
102
RTVSPost2010PropOp44
 70
     1
102
RTVSPost2010Prop45
280
     0
102
RTVSPost2010PropOp45
 70
     1
102
RTVSPost2010Prop46
 90
       50
102
RTVSPost2010PropOp46
 70
     1
102
RTVSPost2010Prop47
 90
       50
102
RTVSPost2010PropOp47
 70
     1
102
RTVSPost2010Prop48
 90
       50
102
RTVSPost2010PropOp48
 70
     1
102
RTVSPost2010Prop49
280
     0
102
RTVSPost2010PropOp49
 70
     1
102
RTVSPost2010Prop50
 90
       50
102
RTVSPost2010PropOp50
 70
     1
102
RTVSPost2010Prop51ColorIndex
 90
      256
102
RTVSPost2010Prop51ColorRGB
 90
-16777216
102
RTVSPost2010PropOp51
 70
     0
102
RTVSPost2010Prop52
140
1.0
102
RTVSPost2010PropOp52
 70
     0
102
RTVSPost2010Prop53
 90
        2
102
RTVSPost2010PropOp53
 70
     1
102
RTVSPost2010Prop54
  1
strokes_ogs.tif
102
RTVSPost2010PropOp54
 70
     1
102
RTVSPost2010Prop55
280
     0
102
RTVSPost2010PropOp55
 70
     1
102
RTVSPost2010Prop56
140
1.0
102
RTVSPost2010PropOp56
 70
     1
102
RTVSPost2010Prop57
140
1.0
102
RTVSPost2010PropOp57
 70
     1
  0
XRECORD
  5
30B
102
{ACAD_REACTORS
330
30A
102
}
330
30A
100
AcDbXrecord
280
     1
102
RTVSPropertyOp0
 70
     1
102
RTVSPropertyOp1
 70
     1
102
RTVSPropertyOp2
 70
     1
102
RTVSPropertyOp3
 70
     1
102
RTVSPropertyOp4
 70
     1
102
RTVSPropertyOp5
 70
     1
102
RTVSPropertyOp6
 70
     1
102
RTVSPropertyOp7
 70
     1
102
RTVSPropertyOp8
 70
     1
102
RTVSPropertyOp9
 70
     1
102
RTVSPropertyOp10
 70
     1
102
RTVSPropertyOp11
 70
     1
102
RTVSPropertyOp12
 70
     1
102
RTVSPropertyOp13
 70
     1
102
RTVSPropertyOp14
 70
     1
102
RTVSPropertyOp15
 70
     1
102
RTVSPropertyOp16
 70
     1
102
RTVSPropertyOp17
 70
     1
102
RTVSPropertyOp18
 70
     1
102
RTVSPropertyOp19
 70
     1
102
RTVSPropertyOp20
 70
     1
102
RTVSPropertyOp21
 70
     1
102
RTVSPropertyOp22
 70
     1
102
RTVSPropertyOp23
 70
     1
102
RTVSPropertyOp24
 70
     1
102
RTVSPropertyOp25
 70
     1
102
RTVSPropertyOp26
 70
     1
102
RTVSPropertyOp27
 70
     1
102
RTVSPropertyOp28
 70
     1
102
RTVSPropertyOp29
 70
     1
102
RTVSPropertyOp30
 70
     1
102
RTVSPropertyOp31
 70
     1
102
RTVSPropertyOp32
 70
     1
102
RTVSPropertyOp33
 70
     1
102
RTVSPropertyOp34
 70
     1
102
RTVSPropertyOp35
 70
     1
102
RTVSPropertyOp36
 70
     1
102
RTVSPropertyOp37
 70
     1
102
RTVSPropertyOp38
 70
     1
102
RTVSPropertyOp39
 70
     1
102
RTVSPropertyOp40
 70
     1
102
RTVSPropertyOp41
 70
     1
102
RTVSPropertyOp42
 70
     1
102
RTVSPropertyOp43
 70
     1
102
RTVSPropertyOp44
 70
     1
102
RTVSPropertyOp45
 70
     1
102
RTVSPropertyOp46
 70
     1
102
RTVSPropertyOp47
 70
     1
102
RTVSPropertyOp48
 70
     1
102
RTVSPropertyOp49
 70
     1
102
RTVSPropertyOp50
 70
     1
102
RTVSPropertyOp51
 70
     0
102
RTVSPropertyOp52
 70
     0
102
RTVSPropertyOp53
 70
     1
102
RTVSPropertyOp54
 70
     1
102
RTVSPropertyOp55
 70
     1
102
RTVSPropertyOp56
 70
     1
102
RTVSPropertyOp57
 70
     1
102
RTVSPost2010Prop28
280
     0
102
RTVSPost2010PropOp28
 70
     1
102
RTVSPost2010Prop29
280
     1
102
RTVSPost2010PropOp29
 70
     1
102
RTVSPost2010Prop30
280
     1
102
RTVSPost2010PropOp30
 70
     1
102
RTVSPost2010Prop31
280
     0
102
RTVSPost2010PropOp31
 70
     1
102
RTVSPost2010Prop32
280
     0
102
RTVSPost2010PropOp32
 70
     1
102
RTVSPost2010Prop33
280
     0
102
RTVSPost2010PropOp33
 70
     1
102
RTVSPost2010Prop34
280
     0
102
RTVSPost2010PropOp34
 70
     1
102
RTVSPost2010Prop35
280
     0
102
RTVSPost2010PropOp35
 70
     1
102
RTVSPost2010Prop36
280
     0
102
RTVSPost2010PropOp36
 70
     1
102
RTVSPost2010Prop37
 90
       50
102
RTVSPost2010PropOp37
 70
     1
102
RTVSPost2010Prop38
140
0.0
102
RTVSPost2010PropOp38
 70
     1
102
RTVSPost2010Prop39
140
1.0
102
RTVSPost2010PropOp39
 70
     1
102
RTVSPost2010Prop40
 90
        0
102
RTVSPost2010PropOp40
 70
     1
102
RTVSPost2010Prop41ColorIndex
 90
       18
102
RTVSPost2010Prop41ColorRGB
 90
        0
102
RTVSPost2010PropOp41
 70
     1
102
RTVSPost2010Prop42
 90
       50
102
RTVSPost2010PropOp42
 70
     1
102
RTVSPost2010Prop43
 90
        3
102
RTVSPost2010PropOp43
 70
     1
102
RTVSPost2010Prop44ColorIndex
 90
        5
102
RTVSPost2010Prop44ColorRGB
 90
      255
102
RTVSPost2010PropOp44
 70
     1
102
RTVSPost2010Prop45
280
     0
102
RTVSPost2010PropOp45
 70
     1
102
RTVSPost2010Prop46
 90
       50
102
RTVSPost2010PropOp46
 70
     1
102
RTVSPost2010Prop47
 90
       50
102
RTVSPost2010PropOp47
 70
     1
102
RTVSPost2010Prop48
 90
       50
102
RTVSPost2010PropOp48
 70
     1
102
RTVSPost2010Prop49
280
     0
102
RTVSPost2010PropOp49
 70
     1
102
RTVSPost2010Prop50
 90
       50
102
RTVSPost2010PropOp50
 70
     1
102
RTVSPost2010Prop51ColorIndex
 90
      256
102
RTVSPost2010Prop51ColorRGB
 90
-16777216
102
RTVSPost2010PropOp51
 70
     0
102
RTVSPost2010Prop52
140
1.0
102
RTVSPost2010PropOp52
 70
     0
102
RTVSPost2010Prop53
 90
        2
102
RTVSPost2010PropOp53
 70
     1
102
RTVSPost2010Prop54
  1
strokes_ogs.tif
102
RTVSPost2010PropOp54
 70
     1
102
RTVSPost2010Prop55
280
     0
102
RTVSPost2010PropOp55
 70
     1
102
RTVSPost2010Prop56
140
1.0
102
RTVSPost2010PropOp56
 70
     1
102
RTVSPost2010Prop57
140
1.0
102
RTVSPost2010PropOp57
 70
     1
  0
XRECORD
  5
305
102
{ACAD_REACTORS
330
304
102
}
330
304
100
AcDbXrecord
280
     1
102
RTVSPropertyOp0
 70
     1
102
RTVSPropertyOp1
 70
     1
102
RTVSPropertyOp2
 70
     1
102
RTVSPropertyOp3
 70
     1
102
RTVSPropertyOp4
 70
     1
102
RTVSPropertyOp5
 70
     1
102
RTVSPropertyOp6
 70
     1
102
RTVSPropertyOp7
 70
     1
102
RTVSPropertyOp8
 70
     1
102
RTVSPropertyOp9
 70
     1
102
RTVSPropertyOp10
 70
     1
102
RTVSPropertyOp11
 70
     1
102
RTVSPropertyOp12
 70
     1
102
RTVSPropertyOp13
 70
     1
102
RTVSPropertyOp14
 70
     1
102
RTVSPropertyOp15
 70
     1
102
RTVSPropertyOp16
 70
     1
102
RTVSPropertyOp17
 70
     1
102
RTVSPropertyOp18
 70
     1
102
RTVSPropertyOp19
 70
     1
102
RTVSPropertyOp20
 70
     1
102
RTVSPropertyOp21
 70
     1
102
RTVSPropertyOp22
 70
     1
102
RTVSPropertyOp23
 70
     1
102
RTVSPropertyOp24
 70
     1
102
RTVSPropertyOp25
 70
     1
102
RTVSPropertyOp26
 70
     1
102
RTVSPropertyOp27
 70
     1
102
RTVSPropertyOp28
 70
     1
102
RTVSPropertyOp29
 70
     1
102
RTVSPropertyOp30
 70
     1
102
RTVSPropertyOp31
 70
     1
102
RTVSPropertyOp32
 70
     1
102
RTVSPropertyOp33
 70
     1
102
RTVSPropertyOp34
 70
     1
102
RTVSPropertyOp35
 70
     1
102
RTVSPropertyOp36
 70
     1
102
RTVSPropertyOp37
 70
     1
102
RTVSPropertyOp38
 70
     1
102
RTVSPropertyOp39
 70
     1
102
RTVSPropertyOp40
 70
     1
102
RTVSPropertyOp41
 70
     1
102
RTVSPropertyOp42
 70
     1
102
RTVSPropertyOp43
 70
     1
102
RTVSPropertyOp44
 70
     1
102
RTVSPropertyOp45
 70
     1
102
RTVSPropertyOp46
 70
     1
102
RTVSPropertyOp47
 70
     1
102
RTVSPropertyOp48
 70
     1
102
RTVSPropertyOp49
 70
     1
102
RTVSPropertyOp50
 70
     1
102
RTVSPropertyOp51
 70
     0
102
RTVSPropertyOp52
 70
     0
102
RTVSPropertyOp53
 70
     1
102
RTVSPropertyOp54
 70
     1
102
RTVSPropertyOp55
 70
     1
102
RTVSPropertyOp56
 70
     1
102
RTVSPropertyOp57
 70
     1
102
RTVSPost2010Prop28
280
     0
102
RTVSPost2010PropOp28
 70
     1
102
RTVSPost2010Prop29
280
     1
102
RTVSPost2010PropOp29
 70
     1
102
RTVSPost2010Prop30
280
     1
102
RTVSPost2010PropOp30
 70
     1
102
RTVSPost2010Prop31
280
     0
102
RTVSPost2010PropOp31
 70
     1
102
RTVSPost2010Prop32
280
     0
102
RTVSPost2010PropOp32
 70
     1
102
RTVSPost2010Prop33
280
     0
102
RTVSPost2010PropOp33
 70
     1
102
RTVSPost2010Prop34
280
     0
102
RTVSPost2010PropOp34
 70
     1
102
RTVSPost2010Prop35
280
     0
102
RTVSPost2010PropOp35
 70
     1
102
RTVSPost2010Prop36
280
     0
102
RTVSPost2010PropOp36
 70
     1
102
RTVSPost2010Prop37
 90
       50
102
RTVSPost2010PropOp37
 70
     1
102
RTVSPost2010Prop38
140
0.0
102
RTVSPost2010PropOp38
 70
     1
102
RTVSPost2010Prop39
140
1.0
102
RTVSPost2010PropOp39
 70
     1
102
RTVSPost2010Prop40
 90
        0
102
RTVSPost2010PropOp40
 70
     1
102
RTVSPost2010Prop41ColorIndex
 90
       18
102
RTVSPost2010Prop41ColorRGB
 90
        0
102
RTVSPost2010PropOp41
 70
     1
102
RTVSPost2010Prop42
 90
       50
102
RTVSPost2010PropOp42
 70
     1
102
RTVSPost2010Prop43
 90
        3
102
RTVSPost2010PropOp43
 70
     1
102
RTVSPost2010Prop44ColorIndex
 90
        5
102
RTVSPost2010Prop44ColorRGB
 90
      255
102
RTVSPost2010PropOp44
 70
     1
102
RTVSPost2010Prop45
280
     0
102
RTVSPost2010PropOp45
 70
     1
102
RTVSPost2010Prop46
 90
       50
102
RTVSPost2010PropOp46
 70
     1
102
RTVSPost2010Prop47
 90
       50
102
RTVSPost2010PropOp47
 70
     1
102
RTVSPost2010Prop48
 90
       50
102
RTVSPost2010PropOp48
 70
     1
102
RTVSPost2010Prop49
280
     0
102
RTVSPost2010PropOp49
 70
     1
102
RTVSPost2010Prop50
 90
       50
102
RTVSPost2010PropOp50
 70
     1
102
RTVSPost2010Prop51ColorIndex
 90
      256
102
RTVSPost2010Prop51ColorRGB
 90
-16777216
102
RTVSPost2010PropOp51
 70
     0
102
RTVSPost2010Prop52
140
1.0
102
RTVSPost2010PropOp52
 70
     0
102
RTVSPost2010Prop53
 90
        2
102
RTVSPost2010PropOp53
 70
     1
102
RTVSPost2010Prop54
  1
strokes_ogs.tif
102
RTVSPost2010PropOp54
 70
     1
102
RTVSPost2010Prop55
280
     0
102
RTVSPost2010PropOp55
 70
     1
102
RTVSPost2010Prop56
140
1.0
102
RTVSPost2010PropOp56
 70
     1
102
RTVSPost2010Prop57
140
1.0
102
RTVSPost2010PropOp57
 70
     1
  0
XRECORD
  5
307
102
{ACAD_REACTORS
330
306
102
}
330
306
100
AcDbXrecord
280
     1
102
RTVSPropertyOp0
 70
     1
102
RTVSPropertyOp1
 70
     1
102
RTVSPropertyOp2
 70
     1
102
RTVSPropertyOp3
 70
     1
102
RTVSPropertyOp4
 70
     1
102
RTVSPropertyOp5
 70
     1
102
RTVSPropertyOp6
 70
     1
102
RTVSPropertyOp7
 70
     1
102
RTVSPropertyOp8
 70
     1
102
RTVSPropertyOp9
 70
     1
102
RTVSPropertyOp10
 70
     1
102
RTVSPropertyOp11
 70
     1
102
RTVSPropertyOp12
 70
     1
102
RTVSPropertyOp13
 70
     1
102
RTVSPropertyOp14
 70
     1
102
RTVSPropertyOp15
 70
     1
102
RTVSPropertyOp16
 70
     1
102
RTVSPropertyOp17
 70
     1
102
RTVSPropertyOp18
 70
     1
102
RTVSPropertyOp19
 70
     1
102
RTVSPropertyOp20
 70
     1
102
RTVSPropertyOp21
 70
     1
102
RTVSPropertyOp22
 70
     1
102
RTVSPropertyOp23
 70
     1
102
RTVSPropertyOp24
 70
     1
102
RTVSPropertyOp25
 70
     1
102
RTVSPropertyOp26
 70
     1
102
RTVSPropertyOp27
 70
     1
102
RTVSPropertyOp28
 70
     1
102
RTVSPropertyOp29
 70
     1
102
RTVSPropertyOp30
 70
     1
102
RTVSPropertyOp31
 70
     1
102
RTVSPropertyOp32
 70
     1
102
RTVSPropertyOp33
 70
     1
102
RTVSPropertyOp34
 70
     1
102
RTVSPropertyOp35
 70
     1
102
RTVSPropertyOp36
 70
     1
102
RTVSPropertyOp37
 70
     1
102
RTVSPropertyOp38
 70
     1
102
RTVSPropertyOp39
 70
     1
102
RTVSPropertyOp40
 70
     1
102
RTVSPropertyOp41
 70
     1
102
RTVSPropertyOp42
 70
     1
102
RTVSPropertyOp43
 70
     1
102
RTVSPropertyOp44
 70
     1
102
RTVSPropertyOp45
 70
     1
102
RTVSPropertyOp46
 70
     1
102
RTVSPropertyOp47
 70
     1
102
RTVSPropertyOp48
 70
     1
102
RTVSPropertyOp49
 70
     1
102
RTVSPropertyOp50
 70
     1
102
RTVSPropertyOp51
 70
     0
102
RTVSPropertyOp52
 70
     0
102
RTVSPropertyOp53
 70
     1
102
RTVSPropertyOp54
 70
     1
102
RTVSPropertyOp55
 70
     1
102
RTVSPropertyOp56
 70
     1
102
RTVSPropertyOp57
 70
     1
102
RTVSPost2010Prop28
280
     0
102
RTVSPost2010PropOp28
 70
     1
102
RTVSPost2010Prop29
280
     1
102
RTVSPost2010PropOp29
 70
     1
102
RTVSPost2010Prop30
280
     1
102
RTVSPost2010PropOp30
 70
     1
102
RTVSPost2010Prop31
280
     0
102
RTVSPost2010PropOp31
 70
     1
102
RTVSPost2010Prop32
280
     0
102
RTVSPost2010PropOp32
 70
     1
102
RTVSPost2010Prop33
280
     0
102
RTVSPost2010PropOp33
 70
     1
102
RTVSPost2010Prop34
280
     0
102
RTVSPost2010PropOp34
 70
     1
102
RTVSPost2010Prop35
280
     0
102
RTVSPost2010PropOp35
 70
     1
102
RTVSPost2010Prop36
280
     0
102
RTVSPost2010PropOp36
 70
     1
102
RTVSPost2010Prop37
 90
       50
102
RTVSPost2010PropOp37
 70
     1
102
RTVSPost2010Prop38
140
0.0
102
RTVSPost2010PropOp38
 70
     1
102
RTVSPost2010Prop39
140
1.0
102
RTVSPost2010PropOp39
 70
     1
102
RTVSPost2010Prop40
 90
        0
102
RTVSPost2010PropOp40
 70
     1
102
RTVSPost2010Prop41ColorIndex
 90
       18
102
RTVSPost2010Prop41ColorRGB
 90
        0
102
RTVSPost2010PropOp41
 70
     1
102
RTVSPost2010Prop42
 90
       50
102
RTVSPost2010PropOp42
 70
     1
102
RTVSPost2010Prop43
 90
        3
102
RTVSPost2010PropOp43
 70
     1
102
RTVSPost2010Prop44ColorIndex
 90
        5
102
RTVSPost2010Prop44ColorRGB
 90
      255
102
RTVSPost2010PropOp44
 70
     1
102
RTVSPost2010Prop45
280
     0
102
RTVSPost2010PropOp45
 70
     1
102
RTVSPost2010Prop46
 90
       50
102
RTVSPost2010PropOp46
 70
     1
102
RTVSPost2010Prop47
 90
       50
102
RTVSPost2010PropOp47
 70
     1
102
RTVSPost2010Prop48
 90
       50
102
RTVSPost2010PropOp48
 70
     1
102
RTVSPost2010Prop49
280
     0
102
RTVSPost2010PropOp49
 70
     1
102
RTVSPost2010Prop50
 90
       50
102
RTVSPost2010PropOp50
 70
     1
102
RTVSPost2010Prop51ColorIndex
 90
      256
102
RTVSPost2010Prop51ColorRGB
 90
-16777216
102
RTVSPost2010PropOp51
 70
     0
102
RTVSPost2010Prop52
140
1.0
102
RTVSPost2010PropOp52
 70
     0
102
RTVSPost2010Prop53
 90
        2
102
RTVSPost2010PropOp53
 70
     1
102
RTVSPost2010Prop54
  1
strokes_ogs.tif
102
RTVSPost2010PropOp54
 70
     1
102
RTVSPost2010Prop55
280
     0
102
RTVSPost2010PropOp55
 70
     1
102
RTVSPost2010Prop56
140
1.0
102
RTVSPost2010PropOp56
 70
     1
102
RTVSPost2010Prop57
140
1.0
102
RTVSPost2010PropOp57
 70
     1
  0
XRECORD
  5
2F7
102
{ACAD_REACTORS
330
2F6
102
}
330
2F6
100
AcDbXrecord
280
     1
102
RTVSPropertyOp0
 70
     1
102
RTVSPropertyOp1
 70
     1
102
RTVSPropertyOp2
 70
     1
102
RTVSPropertyOp3
 70
     1
102
RTVSPropertyOp4
 70
     1
102
RTVSPropertyOp5
 70
     1
102
RTVSPropertyOp6
 70
     1
102
RTVSPropertyOp7
 70
     1
102
RTVSPropertyOp8
 70
     1
102
RTVSPropertyOp9
 70
     1
102
RTVSPropertyOp10
 70
     1
102
RTVSPropertyOp11
 70
     1
102
RTVSPropertyOp12
 70
     1
102
RTVSPropertyOp13
 70
     1
102
RTVSPropertyOp14
 70
     1
102
RTVSPropertyOp15
 70
     1
102
RTVSPropertyOp16
 70
     1
102
RTVSPropertyOp17
 70
     1
102
RTVSPropertyOp18
 70
     1
102
RTVSPropertyOp19
 70
     1
102
RTVSPropertyOp20
 70
     1
102
RTVSPropertyOp21
 70
     1
102
RTVSPropertyOp22
 70
     1
102
RTVSPropertyOp23
 70
     1
102
RTVSPropertyOp24
 70
     1
102
RTVSPropertyOp25
 70
     1
102
RTVSPropertyOp26
 70
     1
102
RTVSPropertyOp27
 70
     1
102
RTVSPropertyOp28
 70
     1
102
RTVSPropertyOp29
 70
     1
102
RTVSPropertyOp30
 70
     1
102
RTVSPropertyOp31
 70
     1
102
RTVSPropertyOp32
 70
     1
102
RTVSPropertyOp33
 70
     1
102
RTVSPropertyOp34
 70
     1
102
RTVSPropertyOp35
 70
     1
102
RTVSPropertyOp36
 70
     1
102
RTVSPropertyOp37
 70
     1
102
RTVSPropertyOp38
 70
     1
102
RTVSPropertyOp39
 70
     1
102
RTVSPropertyOp40
 70
     1
102
RTVSPropertyOp41
 70
     1
102
RTVSPropertyOp42
 70
     1
102
RTVSPropertyOp43
 70
     1
102
RTVSPropertyOp44
 70
     1
102
RTVSPropertyOp45
 70
     1
102
RTVSPropertyOp46
 70
     1
102
RTVSPropertyOp47
 70
     1
102
RTVSPropertyOp48
 70
     1
102
RTVSPropertyOp49
 70
     1
102
RTVSPropertyOp50
 70
     1
102
RTVSPropertyOp51
 70
     0
102
RTVSPropertyOp52
 70
     0
102
RTVSPropertyOp53
 70
     1
102
RTVSPropertyOp54
 70
     1
102
RTVSPropertyOp55
 70
     1
102
RTVSPropertyOp56
 70
     1
102
RTVSPropertyOp57
 70
     1
102
RTVSPost2010Prop28
280
     0
102
RTVSPost2010PropOp28
 70
     1
102
RTVSPost2010Prop29
280
     1
102
RTVSPost2010PropOp29
 70
     1
102
RTVSPost2010Prop30
280
     1
102
RTVSPost2010PropOp30
 70
     1
102
RTVSPost2010Prop31
280
     0
102
RTVSPost2010PropOp31
 70
     1
102
RTVSPost2010Prop32
280
     0
102
RTVSPost2010PropOp32
 70
     1
102
RTVSPost2010Prop33
280
     0
102
RTVSPost2010PropOp33
 70
     1
102
RTVSPost2010Prop34
280
     0
102
RTVSPost2010PropOp34
 70
     1
102
RTVSPost2010Prop35
280
     0
102
RTVSPost2010PropOp35
 70
     1
102
RTVSPost2010Prop36
280
     0
102
RTVSPost2010PropOp36
 70
     1
102
RTVSPost2010Prop37
 90
       50
102
RTVSPost2010PropOp37
 70
     1
102
RTVSPost2010Prop38
140
0.0
102
RTVSPost2010PropOp38
 70
     1
102
RTVSPost2010Prop39
140
1.0
102
RTVSPost2010PropOp39
 70
     1
102
RTVSPost2010Prop40
 90
        0
102
RTVSPost2010PropOp40
 70
     1
102
RTVSPost2010Prop41ColorIndex
 90
       18
102
RTVSPost2010Prop41ColorRGB
 90
        0
102
RTVSPost2010PropOp41
 70
     1
102
RTVSPost2010Prop42
 90
       50
102
RTVSPost2010PropOp42
 70
     1
102
RTVSPost2010Prop43
 90
        3
102
RTVSPost2010PropOp43
 70
     1
102
RTVSPost2010Prop44ColorIndex
 90
        5
102
RTVSPost2010Prop44ColorRGB
 90
      255
102
RTVSPost2010PropOp44
 70
     1
102
RTVSPost2010Prop45
280
     0
102
RTVSPost2010PropOp45
 70
     1
102
RTVSPost2010Prop46
 90
       50
102
RTVSPost2010PropOp46
 70
     1
102
RTVSPost2010Prop47
 90
       50
102
RTVSPost2010PropOp47
 70
     1
102
RTVSPost2010Prop48
 90
       50
102
RTVSPost2010PropOp48
 70
     1
102
RTVSPost2010Prop49
280
     0
102
RTVSPost2010PropOp49
 70
     1
102
RTVSPost2010Prop50
 90
       50
102
RTVSPost2010PropOp50
 70
     1
102
RTVSPost2010Prop51ColorIndex
 90
      256
102
RTVSPost2010Prop51ColorRGB
 90
-16777216
102
RTVSPost2010PropOp51
 70
     0
102
RTVSPost2010Prop52
140
1.0
102
RTVSPost2010PropOp52
 70
     0
102
RTVSPost2010Prop53
 90
        2
102
RTVSPost2010PropOp53
 70
     1
102
RTVSPost2010Prop54
  1
strokes_ogs.tif
102
RTVSPost2010PropOp54
 70
     1
102
RTVSPost2010Prop55
280
     0
102
RTVSPost2010PropOp55
 70
     1
102
RTVSPost2010Prop56
140
1.0
102
RTVSPost2010PropOp56
 70
     1
102
RTVSPost2010Prop57
140
1.0
102
RTVSPost2010PropOp57
 70
     1
  0
XRECORD
  5
2E9
102
{ACAD_REACTORS
330
2E8
102
}
330
2E8
100
AcDbXrecord
280
     1
102
RTVSPropertyOp0
 70
     1
102
RTVSPropertyOp1
 70
     1
102
RTVSPropertyOp2
 70
     1
102
RTVSPropertyOp3
 70
     1
102
RTVSPropertyOp4
 70
     1
102
RTVSPropertyOp5
 70
     1
102
RTVSPropertyOp6
 70
     1
102
RTVSPropertyOp7
 70
     1
102
RTVSPropertyOp8
 70
     1
102
RTVSPropertyOp9
 70
     1
102
RTVSPropertyOp10
 70
     1
102
RTVSPropertyOp11
 70
     1
102
RTVSPropertyOp12
 70
     1
102
RTVSPropertyOp13
 70
     1
102
RTVSPropertyOp14
 70
     1
102
RTVSPropertyOp15
 70
     1
102
RTVSPropertyOp16
 70
     1
102
RTVSPropertyOp17
 70
     1
102
RTVSPropertyOp18
 70
     1
102
RTVSPropertyOp19
 70
     1
102
RTVSPropertyOp20
 70
     1
102
RTVSPropertyOp21
 70
     1
102
RTVSPropertyOp22
 70
     1
102
RTVSPropertyOp23
 70
     1
102
RTVSPropertyOp24
 70
     1
102
RTVSPropertyOp25
 70
     1
102
RTVSPropertyOp26
 70
     1
102
RTVSPropertyOp27
 70
     1
102
RTVSPropertyOp28
 70
     1
102
RTVSPropertyOp29
 70
     1
102
RTVSPropertyOp30
 70
     1
102
RTVSPropertyOp31
 70
     1
102
RTVSPropertyOp32
 70
     1
102
RTVSPropertyOp33
 70
     1
102
RTVSPropertyOp34
 70
     1
102
RTVSPropertyOp35
 70
     1
102
RTVSPropertyOp36
 70
     1
102
RTVSPropertyOp37
 70
     1
102
RTVSPropertyOp38
 70
     1
102
RTVSPropertyOp39
 70
     1
102
RTVSPropertyOp40
 70
     1
102
RTVSPropertyOp41
 70
     1
102
RTVSPropertyOp42
 70
     1
102
RTVSPropertyOp43
 70
     1
102
RTVSPropertyOp44
 70
     1
102
RTVSPropertyOp45
 70
     1
102
RTVSPropertyOp46
 70
     1
102
RTVSPropertyOp47
 70
     1
102
RTVSPropertyOp48
 70
     1
102
RTVSPropertyOp49
 70
     1
102
RTVSPropertyOp50
 70
     1
102
RTVSPropertyOp51
 70
     0
102
RTVSPropertyOp52
 70
     0
102
RTVSPropertyOp53
 70
     1
102
RTVSPropertyOp54
 70
     1
102
RTVSPropertyOp55
 70
     1
102
RTVSPropertyOp56
 70
     1
102
RTVSPropertyOp57
 70
     1
102
RTVSPost2010Prop28
280
     0
102
RTVSPost2010PropOp28
 70
     1
102
RTVSPost2010Prop29
280
     1
102
RTVSPost2010PropOp29
 70
     1
102
RTVSPost2010Prop30
280
     1
102
RTVSPost2010PropOp30
 70
     1
102
RTVSPost2010Prop31
280
     0
102
RTVSPost2010PropOp31
 70
     1
102
RTVSPost2010Prop32
280
     0
102
RTVSPost2010PropOp32
 70
     1
102
RTVSPost2010Prop33
280
     0
102
RTVSPost2010PropOp33
 70
     1
102
RTVSPost2010Prop34
280
     0
102
RTVSPost2010PropOp34
 70
     1
102
RTVSPost2010Prop35
280
     0
102
RTVSPost2010PropOp35
 70
     1
102
RTVSPost2010Prop36
280
     0
102
RTVSPost2010PropOp36
 70
     1
102
RTVSPost2010Prop37
 90
       50
102
RTVSPost2010PropOp37
 70
     1
102
RTVSPost2010Prop38
140
0.0
102
RTVSPost2010PropOp38
 70
     1
102
RTVSPost2010Prop39
140
1.0
102
RTVSPost2010PropOp39
 70
     1
102
RTVSPost2010Prop40
 90
        0
102
RTVSPost2010PropOp40
 70
     1
102
RTVSPost2010Prop41ColorIndex
 90
       18
102
RTVSPost2010Prop41ColorRGB
 90
        0
102
RTVSPost2010PropOp41
 70
     1
102
RTVSPost2010Prop42
 90
       50
102
RTVSPost2010PropOp42
 70
     1
102
RTVSPost2010Prop43
 90
        3
102
RTVSPost2010PropOp43
 70
     1
102
RTVSPost2010Prop44ColorIndex
 90
        5
102
RTVSPost2010Prop44ColorRGB
 90
      255
102
RTVSPost2010PropOp44
 70
     1
102
RTVSPost2010Prop45
280
     0
102
RTVSPost2010PropOp45
 70
     1
102
RTVSPost2010Prop46
 90
       50
102
RTVSPost2010PropOp46
 70
     1
102
RTVSPost2010Prop47
 90
       50
102
RTVSPost2010PropOp47
 70
     1
102
RTVSPost2010Prop48
 90
       50
102
RTVSPost2010PropOp48
 70
     1
102
RTVSPost2010Prop49
280
     0
102
RTVSPost2010PropOp49
 70
     1
102
RTVSPost2010Prop50
 90
       50
102
RTVSPost2010PropOp50
 70
     1
102
RTVSPost2010Prop51ColorIndex
 90
      256
102
RTVSPost2010Prop51ColorRGB
 90
-16777216
102
RTVSPost2010PropOp51
 70
     0
102
RTVSPost2010Prop52
140
1.0
102
RTVSPost2010PropOp52
 70
     0
102
RTVSPost2010Prop53
 90
        2
102
RTVSPost2010PropOp53
 70
     1
102
RTVSPost2010Prop54
  1
strokes_ogs.tif
102
RTVSPost2010PropOp54
 70
     1
102
RTVSPost2010Prop55
280
     0
102
RTVSPost2010PropOp55
 70
     1
102
RTVSPost2010Prop56
140
1.0
102
RTVSPost2010PropOp56
 70
     1
102
RTVSPost2010Prop57
140
1.0
102
RTVSPost2010PropOp57
 70
     1
  0
XRECORD
  5
309
102
{ACAD_REACTORS
330
308
102
}
330
308
100
AcDbXrecord
280
     1
102
RTVSPropertyOp0
 70
     1
102
RTVSPropertyOp1
 70
     1
102
RTVSPropertyOp2
 70
     1
102
RTVSPropertyOp3
 70
     1
102
RTVSPropertyOp4
 70
     1
102
RTVSPropertyOp5
 70
     1
102
RTVSPropertyOp6
 70
     1
102
RTVSPropertyOp7
 70
     1
102
RTVSPropertyOp8
 70
     1
102
RTVSPropertyOp9
 70
     1
102
RTVSPropertyOp10
 70
     1
102
RTVSPropertyOp11
 70
     1
102
RTVSPropertyOp12
 70
     1
102
RTVSPropertyOp13
 70
     1
102
RTVSPropertyOp14
 70
     1
102
RTVSPropertyOp15
 70
     1
102
RTVSPropertyOp16
 70
     1
102
RTVSPropertyOp17
 70
     1
102
RTVSPropertyOp18
 70
     1
102
RTVSPropertyOp19
 70
     1
102
RTVSPropertyOp20
 70
     1
102
RTVSPropertyOp21
 70
     1
102
RTVSPropertyOp22
 70
     1
102
RTVSPropertyOp23
 70
     1
102
RTVSPropertyOp24
 70
     1
102
RTVSPropertyOp25
 70
     1
102
RTVSPropertyOp26
 70
     1
102
RTVSPropertyOp27
 70
     1
102
RTVSPropertyOp28
 70
     1
102
RTVSPropertyOp29
 70
     1
102
RTVSPropertyOp30
 70
     1
102
RTVSPropertyOp31
 70
     1
102
RTVSPropertyOp32
 70
     1
102
RTVSPropertyOp33
 70
     1
102
RTVSPropertyOp34
 70
     1
102
RTVSPropertyOp35
 70
     1
102
RTVSPropertyOp36
 70
     1
102
RTVSPropertyOp37
 70
     1
102
RTVSPropertyOp38
 70
     1
102
RTVSPropertyOp39
 70
     1
102
RTVSPropertyOp40
 70
     1
102
RTVSPropertyOp41
 70
     1
102
RTVSPropertyOp42
 70
     1
102
RTVSPropertyOp43
 70
     1
102
RTVSPropertyOp44
 70
     1
102
RTVSPropertyOp45
 70
     1
102
RTVSPropertyOp46
 70
     1
102
RTVSPropertyOp47
 70
     1
102
RTVSPropertyOp48
 70
     1
102
RTVSPropertyOp49
 70
     1
102
RTVSPropertyOp50
 70
     1
102
RTVSPropertyOp51
 70
     0
102
RTVSPropertyOp52
 70
     0
102
RTVSPropertyOp53
 70
     1
102
RTVSPropertyOp54
 70
     1
102
RTVSPropertyOp55
 70
     1
102
RTVSPropertyOp56
 70
     1
102
RTVSPropertyOp57
 70
     1
102
RTVSPost2010Prop28
280
     0
102
RTVSPost2010PropOp28
 70
     1
102
RTVSPost2010Prop29
280
     1
102
RTVSPost2010PropOp29
 70
     1
102
RTVSPost2010Prop30
280
     1
102
RTVSPost2010PropOp30
 70
     1
102
RTVSPost2010Prop31
280
     0
102
RTVSPost2010PropOp31
 70
     1
102
RTVSPost2010Prop32
280
     0
102
RTVSPost2010PropOp32
 70
     1
102
RTVSPost2010Prop33
280
     0
102
RTVSPost2010PropOp33
 70
     1
102
RTVSPost2010Prop34
280
     0
102
RTVSPost2010PropOp34
 70
     1
102
RTVSPost2010Prop35
280
     0
102
RTVSPost2010PropOp35
 70
     1
102
RTVSPost2010Prop36
280
     0
102
RTVSPost2010PropOp36
 70
     1
102
RTVSPost2010Prop37
 90
       50
102
RTVSPost2010PropOp37
 70
     1
102
RTVSPost2010Prop38
140
0.0
102
RTVSPost2010PropOp38
 70
     1
102
RTVSPost2010Prop39
140
1.0
102
RTVSPost2010PropOp39
 70
     1
102
RTVSPost2010Prop40
 90
        0
102
RTVSPost2010PropOp40
 70
     1
102
RTVSPost2010Prop41ColorIndex
 90
       18
102
RTVSPost2010Prop41ColorRGB
 90
        0
102
RTVSPost2010PropOp41
 70
     1
102
RTVSPost2010Prop42
 90
       50
102
RTVSPost2010PropOp42
 70
     1
102
RTVSPost2010Prop43
 90
        3
102
RTVSPost2010PropOp43
 70
     1
102
RTVSPost2010Prop44ColorIndex
 90
        5
102
RTVSPost2010Prop44ColorRGB
 90
      255
102
RTVSPost2010PropOp44
 70
     1
102
RTVSPost2010Prop45
280
     0
102
RTVSPost2010PropOp45
 70
     1
102
RTVSPost2010Prop46
 90
       50
102
RTVSPost2010PropOp46
 70
     1
102
RTVSPost2010Prop47
 90
       50
102
RTVSPost2010PropOp47
 70
     1
102
RTVSPost2010Prop48
 90
       50
102
RTVSPost2010PropOp48
 70
     1
102
RTVSPost2010Prop49
280
     0
102
RTVSPost2010PropOp49
 70
     1
102
RTVSPost2010Prop50
 90
       50
102
RTVSPost2010PropOp50
 70
     1
102
RTVSPost2010Prop51ColorIndex
 90
      256
102
RTVSPost2010Prop51ColorRGB
 90
-16777216
102
RTVSPost2010PropOp51
 70
     0
102
RTVSPost2010Prop52
140
1.0
102
RTVSPost2010PropOp52
 70
     0
102
RTVSPost2010Prop53
 90
        2
102
RTVSPost2010PropOp53
 70
     1
102
RTVSPost2010Prop54
  1
strokes_ogs.tif
102
RTVSPost2010PropOp54
 70
     1
102
RTVSPost2010Prop55
280
     0
102
RTVSPost2010PropOp55
 70
     1
102
RTVSPost2010Prop56
140
1.0
102
RTVSPost2010PropOp56
 70
     1
102
RTVSPost2010Prop57
140
1.0
102
RTVSPost2010PropOp57
 70
     1
  0
ENDSEC
  0
EOF
