  0
SECTION
  2
HEADER
  9
$ACADVER
  1
AC1018
  9
$ACADMAINTVER
 70
     0
  9
$DWGCODEPAGE
  3
ANSI_932
  9
$INSBASE
 10
0.0
 20
0.0
 30
0.0
  9
$EXTMIN
 10
-420.0
 20
-297.0
 30
0.0
  9
$EXTMAX
 10
420.0
 20
297.0
 30
0.0
  9
$LIMMIN
 10
-420.0
 20
-297.0
  9
$LIMMAX
 10
420.0
 20
297.0
  9
$ORTHOMODE
 70
     0
  9
$REGENMODE
 70
     1
  9
$FILLMODE
 70
     1
  9
$QTEXTMODE
 70
     0
  9
$MIRRTEXT
 70
     1
  9
$LTSCALE
 40
2.0
  9
$ATTMODE
 70
     1
  9
$TEXTSIZE
 40
2.5
  9
$TRACEWID
 40
1.0
  9
$TEXTSTYLE
  7
Standard
  9
$CLAYER
  8
0
  9
$CELTYPE
  6
ByLayer
  9
$CECOLOR
 62
   256
  9
$CELTSCALE
 40
1.0
  9
$DISPSILH
 70
     0
  9
$DIMSCALE
 40
1.0
  9
$DIMASZ
 40
2.5
  9
$DIMEXO
 40
0.625
  9
$DIMDLI
 40
3.75
  9
$DIMRND
 40
0.0
  9
$DIMDLE
 40
0.0
  9
$DIMEXE
 40
1.25
  9
$DIMTP
 40
0.0
  9
$DIMTM
 40
0.0
  9
$DIMTXT
 40
2.5
  9
$DIMCEN
 40
2.5
  9
$DIMTSZ
 40
0.0
  9
$DIMTOL
 70
     0
  9
$DIMLIM
 70
     0
  9
$DIMTIH
 70
     0
  9
$DIMTOH
 70
     0
  9
$DIMSE1
 70
     0
  9
$DIMSE2
 70
     0
  9
$DIMTAD
 70
     1
  9
$DIMZIN
 70
     8
  9
$DIMBLK
  1

  9
$DIMASO
 70
     1
  9
$DIMSHO
 70
     1
  9
$DIMPOST
  1

  9
$DIMAPOST
  1

  9
$DIMALT
 70
     0
  9
$DIMALTD
 70
     3
  9
$DIMALTF
 40
0.03937007874016
  9
$DIMLFAC
 40
1.0
  9
$DIMTOFL
 70
     1
  9
$DIMTVP
 40
0.0
  9
$DIMTIX
 70
     0
  9
$DIMSOXD
 70
     0
  9
$DIMSAH
 70
     0
  9
$DIMBLK1
  1

  9
$DIMBLK2
  1

  9
$DIMSTYLE
  2
ISO-25
  9
$DIMCLRD
 70
     0
  9
$DIMCLRE
 70
     0
  9
$DIMCLRT
 70
     0
  9
$DIMTFAC
 40
1.0
  9
$DIMGAP
 40
0.625
  9
$DIMJUST
 70
     0
  9
$DIMSD1
 70
     0
  9
$DIMSD2
 70
     0
  9
$DIMTOLJ
 70
     0
  9
$DIMTZIN
 70
     8
  9
$DIMALTZ
 70
     0
  9
$DIMALTTZ
 70
     0
  9
$DIMUPT
 70
     0
  9
$DIMDEC
 70
     2
  9
$DIMTDEC
 70
     2
  9
$DIMALTU
 70
     2
  9
$DIMALTTD
 70
     3
  9
$DIMTXSTY
  7
Standard
  9
$DIMAUNIT
 70
     0
  9
$DIMADEC
 70
     0
  9
$DIMALTRND
 40
0.0
  9
$DIMAZIN
 70
     0
  9
$DIMDSEP
 70
    44
  9
$DIMATFIT
 70
     3
  9
$DIMFRAC
 70
     0
  9
$DIMLDRBLK
  1

  9
$DIMLUNIT
 70
     2
  9
$DIMLWD
 70
    -2
  9
$DIMLWE
 70
    -2
  9
$DIMTMOVE
 70
     0
  9
$LUNITS
 70
     2
  9
$LUPREC
 70
     4
  9
$SKETCHINC
 40
1.0
  9
$FILLETRAD
 40
10.0
  9
$AUNITS
 70
     0
  9
$AUPREC
 70
     0
  9
$MENU
  1
.
  9
$ELEVATION
 40
0.0
  9
$PELEVATION
 40
0.0
  9
$THICKNESS
 40
0.0
  9
$LIMCHECK
 70
     0
  9
$CHAMFERA
 40
0.0
  9
$CHAMFERB
 40
0.0
  9
$CHAMFERC
 40
0.0
  9
$CHAMFERD
 40
0.0
  9
$SKPOLY
 70
     0
  9
$TDCREATE
 40
2461032.406639711
  9
$TDUCREATE
 40
2461032.031639711
  9
$TDUPDATE
 40
2461032.406643657
  9
$TDUUPDATE
 40
2461032.031643657
  9
$TDINDWG
 40
0.0000000116
  9
$TDUSRTIMER
 40
0.0000000116
  9
$USRTIMER
 70
     1
  9
$ANGBASE
 50
0.0
  9
$ANGDIR
 70
     0
  9
$PDMODE
 70
     0
  9
$PDSIZE
 40
0.0
  9
$PLINEWID
 40
0.0
  9
$SPLFRAME
 70
     0
  9
$SPLINETYPE
 70
     6
  9
$SPLINESEGS
 70
     8
  9
$HANDSEED
  5
2D0
  9
$SURFTAB1
 70
     6
  9
$SURFTAB2
 70
     6
  9
$SURFTYPE
 70
     6
  9
$SURFU
 70
     6
  9
$SURFV
 70
     6
  9
$UCSBASE
  2

  9
$UCSNAME
  2

  9
$UCSORG
 10
0.0
 20
0.0
 30
0.0
  9
$UCSXDIR
 10
1.0
 20
0.0
 30
0.0
  9
$UCSYDIR
 10
0.0
 20
1.0
 30
0.0
  9
$UCSORTHOREF
  2

  9
$UCSORTHOVIEW
 70
     0
  9
$UCSORGTOP
 10
0.0
 20
0.0
 30
0.0
  9
$UCSORGBOTTOM
 10
0.0
 20
0.0
 30
0.0
  9
$UCSORGLEFT
 10
0.0
 20
0.0
 30
0.0
  9
$UCSORGRIGHT
 10
0.0
 20
0.0
 30
0.0
  9
$UCSORGFRONT
 10
0.0
 20
0.0
 30
0.0
  9
$UCSORGBACK
 10
0.0
 20
0.0
 30
0.0
  9
$PUCSBASE
  2

  9
$PUCSNAME
  2

  9
$PUCSORG
 10
0.0
 20
0.0
 30
0.0
  9
$PUCSXDIR
 10
1.0
 20
0.0
 30
0.0
  9
$PUCSYDIR
 10
0.0
 20
1.0
 30
0.0
  9
$PUCSORTHOREF
  2

  9
$PUCSORTHOVIEW
 70
     0
  9
$PUCSORGTOP
 10
0.0
 20
0.0
 30
0.0
  9
$PUCSORGBOTTOM
 10
0.0
 20
0.0
 30
0.0
  9
$PUCSORGLEFT
 10
0.0
 20
0.0
 30
0.0
  9
$PUCSORGRIGHT
 10
0.0
 20
0.0
 30
0.0
  9
$PUCSORGFRONT
 10
0.0
 20
0.0
 30
0.0
  9
$PUCSORGBACK
 10
0.0
 20
0.0
 30
0.0
  9
$USERI1
 70
     0
  9
$USERI2
 70
     0
  9
$USERI3
 70
     0
  9
$USERI4
 70
     0
  9
$USERI5
 70
     0
  9
$USERR1
 40
0.0
  9
$USERR2
 40
0.0
  9
$USERR3
 40
0.0
  9
$USERR4
 40
0.0
  9
$USERR5
 40
0.0
  9
$WORLDVIEW
 70
     1
  9
$SHADEDGE
 70
     3
  9
$SHADEDIF
 70
    70
  9
$TILEMODE
 70
     1
  9
$MAXACTVP
 70
    64
  9
$PINSBASE
 10
0.0
 20
0.0
 30
0.0
  9
$PLIMCHECK
 70
     0
  9
$PEXTMIN
 10
1.000000000000000E+20
 20
1.000000000000000E+20
 30
1.000000000000000E+20
  9
$PEXTMAX
 10
-1.000000000000000E+20
 20
-1.000000000000000E+20
 30
-1.000000000000000E+20
  9
$PLIMMIN
 10
0.0
 20
0.0
  9
$PLIMMAX
 10
420.0
 20
297.0
  9
$UNITMODE
 70
     0
  9
$VISRETAIN
 70
     1
  9
$PLINEGEN
 70
     0
  9
$PSLTSCALE
 70
     1
  9
$TREEDEPTH
 70
  3020
  9
$CMLSTYLE
  2
Standard
  9
$CMLJUST
 70
     0
  9
$CMLSCALE
 40
20.0
  9
$PROXYGRAPHICS
 70
     1
  9
$MEASUREMENT
 70
     1
  9
$CELWEIGHT
370
    -1
  9
$ENDCAPS
280
     0
  9
$JOINSTYLE
280
     0
  9
$LWDISPLAY
290
     0
  9
$INSUNITS
 70
     4
  9
$HYPERLINKBASE
  1

  9
$STYLESHEET
  1

  9
$XEDIT
290
     1
  9
$CEPSNTYPE
380
     0
  9
$PSTYLEMODE
290
     1
  9
$FINGERPRINTGUID
  2
{8E306817-0E09-42A4-9BAE-6D2C4FCB9E7E}
  9
$VERSIONGUID
  2
{FAEB1C32-E019-11D5-929B-00C0DF256EC4}
  9
$EXTNAMES
290
     1
  9
$PSVPSCALE
 40
0.0
  9
$OLESTARTUP
290
     0
  9
$SORTENTS
280
   127
  9
$INDEXCTL
280
     0
  9
$HIDETEXT
280
     1
  9
$XCLIPFRAME
290
     0
  9
$HALOGAP
280
     0
  9
$OBSCOLOR
 70
   257
  9
$OBSLTYPE
280
     0
  9
$INTERSECTIONDISPLAY
280
     0
  9
$INTERSECTIONCOLOR
 70
   257
  9
$DIMASSOC
280
     2
  9
$PROJECTNAME
  1

  0
ENDSEC
  0
SECTION
  2
CLASSES
  0
CLASS
  1
ACDBDICTIONARYWDFLT
  2
AcDbDictionaryWithDefault
  3
ObjectDBX Classes
 90
        0
 91
        4
280
     0
281
     0
  0
CLASS
  1
VISUALSTYLE
  2
AcDbVisualStyle
  3
ObjectDBX Classes
 90
     4095
 91
        4
280
     0
281
     0
  0
CLASS
  1
MATERIAL
  2
AcDbMaterial
  3
ObjectDBX Classes
 90
     1153
 91
        4
280
     0
281
     0
  0
CLASS
  1
SCALE
  2
AcDbScale
  3
ObjectDBX Classes
 90
     1153
 91
        4
280
     0
281
     0
  0
CLASS
  1
TABLESTYLE
  2
AcDbTableStyle
  3
ObjectDBX Classes
 90
     4095
 91
        4
280
     0
281
     0
  0
CLASS
  1
MLEADERSTYLE
  2
AcDbMLeaderStyle
  3
ACDB_MLEADERSTYLE_CLASS
 90
     4095
 91
        4
280
     0
281
     0
  0
CLASS
  1
SUN
  2
AcDbSun
  3
SCENEOE
 90
     1153
 91
        4
280
     0
281
     0
  0
CLASS
  1
DICTIONARYVAR
  2
AcDbDictionaryVar
  3
ObjectDBX Classes
 90
        0
 91
        4
280
     0
281
     0
  0
CLASS
  1
CELLSTYLEMAP
  2
AcDbCellStyleMap
  3
ObjectDBX Classes
 90
     1152
 91
        4
280
     0
281
     0
  0
ENDSEC
  0
SECTION
  2
TABLES
  0
TABLE
  2
VPORT
  5
8
102
{ACAD_XDICTIONARY
360
287
102
}
330
0
100
AcDbSymbolTable
 70
     1
  0
VPORT
  5
29
330
8
100
AcDbSymbolTableRecord
100
AcDbViewportTableRecord
  2
*Active
 70
     0
 10
0.0
 20
0.0
 11
1.0
 21
1.0
 12
0.0
 22
0.0
 13
0.0
 23
0.0
 14
10.0
 24
10.0
 15
10.0
 25
10.0
 16
0.0
 26
0.0
 36
1.0
 17
0.0
 27
0.0
 37
0.0
 40
653.4000000000001
 41
1.414141414141414
 42
50.0
 43
0.0
 44
0.0
 50
0.0
 51
0.0
 71
     0
 72
 10000
 73
     1
 74
     3
 75
     0
 76
     0
 77
     0
 78
     0
281
     0
 65
     1
110
0.0
120
0.0
130
0.0
111
1.0
121
0.0
131
0.0
112
0.0
122
1.0
132
0.0
 79
     0
146
0.0
  0
ENDTAB
  0
TABLE
  2
LTYPE
  5
5
330
0
100
AcDbSymbolTable
 70
     4
  0
LTYPE
  5
14
330
5
100
AcDbSymbolTableRecord
100
AcDbLinetypeTableRecord
  2
ByBlock
 70
     0
  3

 72
    65
 73
     0
 40
0.0
  0
LTYPE
  5
15
330
5
100
AcDbSymbolTableRecord
100
AcDbLinetypeTableRecord
  2
ByLayer
 70
     0
  3

 72
    65
 73
     0
 40
0.0
  0
LTYPE
  5
16
330
5
100
AcDbSymbolTableRecord
100
AcDbLinetypeTableRecord
  2
Continuous
 70
     0
  3
Solid line
 72
    65
 73
     0
 40
0.0
  0
LTYPE
  5
6F
330
5
100
AcDbSymbolTableRecord
100
AcDbLinetypeTableRecord
  2
JWW_DASHED1
 70
     0
  3
-  --  --  --  --  --  --  --  -
 72
    65
 73
     2
 40
1.693333333333333
 49
0.8466666666666667
 74
     0
 49
-0.8466666666666667
 74
     0
  0
LTYPE
  5
70
330
5
100
AcDbSymbolTableRecord
100
AcDbLinetypeTableRecord
  2
JWW_PHANTOM2
 70
     0
  3
------------  -  -  ------------
 72
    65
 73
     6
 40
13.54666666666667
 49
10.16
 74
     0
 49
-0.8466666666666667
 74
     0
 49
0.4233333333333333
 74
     0
 49
-0.8466666666666667
 74
     0
 49
0.4233333333333333
 74
     0
 49
-0.8466666666666667
 74
     0
  0
LTYPE
  5
71
330
5
100
AcDbSymbolTableRecord
100
AcDbLinetypeTableRecord
  2
JWW_CENTER1
 70
     0
  3
-----  --  ----------  --  -----
 72
    65
 73
     4
 40
6.773333333333333
 49
4.233333333333333
 74
     0
 49
-0.8466666666666667
 74
     0
 49
0.8466666666666667
 74
     0
 49
-0.8466666666666667
 74
     0
  0
ENDTAB
  0
TABLE
  2
LAYER
  5
2
330
0
100
AcDbSymbolTable
 70
     9
  0
LAYER
  5
10
330
2
100
AcDbSymbolTableRecord
100
AcDbLayerTableRecord
  2
0
 70
     0
 62
     7
  6
Continuous
370
    -3
390
F
  0
LAYER
  5
72
330
2
100
AcDbSymbolTableRecord
100
AcDbLayerTableRecord
  2
0-0
 70
     0
 62
     7
  6
Continuous
370
    -3
390
F
  0
LAYER
  5
73
330
2
100
AcDbSymbolTableRecord
100
AcDbLayerTableRecord
  2
0-3
 70
     0
 62
     7
  6
Continuous
370
    -3
390
F
  0
LAYER
  5
74
330
2
100
AcDbSymbolTableRecord
100
AcDbLayerTableRecord
  2
0-2
 70
     0
 62
     7
  6
Continuous
370
    -3
390
F
  0
LAYER
  5
75
330
2
100
AcDbSymbolTableRecord
100
AcDbLayerTableRecord
  2
0-4
 70
     0
 62
     7
  6
Continuous
370
    -3
390
F
  0
LAYER
  5
76
330
2
100
AcDbSymbolTableRecord
100
AcDbLayerTableRecord
  2
0-5
 70
     0
 62
     7
  6
Continuous
370
    -3
390
F
  0
LAYER
  5
77
330
2
100
AcDbSymbolTableRecord
100
AcDbLayerTableRecord
  2
F-5
 70
     0
 62
     7
  6
Continuous
370
    -3
390
F
  0
LAYER
  5
78
330
2
100
AcDbSymbolTableRecord
100
AcDbLayerTableRecord
  2
F-4
 70
     0
 62
     7
  6
Continuous
370
    -3
390
F
  0
LAYER
  5
79
330
2
100
AcDbSymbolTableRecord
100
AcDbLayerTableRecord
  2
F-0
 70
     0
 62
     7
  6
Continuous
370
    -3
390
F
  0
ENDTAB
  0
TABLE
  2
STYLE
  5
3
330
0
100
AcDbSymbolTable
 70
     2
  0
STYLE
  5
11
330
3
100
AcDbSymbolTableRecord
100
AcDbTextStyleTableRecord
  2
Standard
 70
     0
 40
0.0
 41
1.0
 50
0.0
 71
     0
 42
2.5
  3
txt
  4

  0
STYLE
  5
6E
330
3
100
AcDbSymbolTableRecord
100
AcDbTextStyleTableRecord
  2
ＭＳ ゴシック
 70
     0
 40
1.0
 41
1.0
 50
0.0
 71
     0
 42
2.5
  3

  4

1001
ACAD
1000
MS Gothic
1071
    32817
  0
ENDTAB
  0
TABLE
  2
VIEW
  5
6
330
0
100
AcDbSymbolTable
 70
     0
  0
ENDTAB
  0
TABLE
  2
UCS
  5
7
330
0
100
AcDbSymbolTable
 70
     0
  0
ENDTAB
  0
TABLE
  2
APPID
  5
9
330
0
100
AcDbSymbolTable
 70
     2
  0
APPID
  5
12
330
9
100
AcDbSymbolTableRecord
100
AcDbRegAppTableRecord
  2
ACAD
 70
     0
  0
APPID
  5
2C6
330
9
100
AcDbSymbolTableRecord
100
AcDbRegAppTableRecord
  2
ACAD_MLEADERVER
 70
     0
  0
ENDTAB
  0
TABLE
  2
DIMSTYLE
  5
A
330
0
100
AcDbSymbolTable
 70
     1
100
AcDbDimStyleTable
  0
DIMSTYLE
105
27
330
A
100
AcDbSymbolTableRecord
100
AcDbDimStyleTableRecord
  2
ISO-25
 70
     0
 41
2.5
 42
0.625
 43
3.75
 44
1.25
 73
     0
 74
     0
 77
     1
 78
     8
140
2.5
141
2.5
143
0.03937007874016
147
0.625
171
     3
172
     1
178
     0
271
     2
272
     2
274
     3
278
    44
283
     0
284
     8
340
11
  0
ENDTAB
  0
TABLE
  2
BLOCK_RECORD
  5
1
330
0
100
AcDbSymbolTable
 70
     1
  0
BLOCK_RECORD
  5
1F
330
1
100
AcDbSymbolTableRecord
100
AcDbBlockTableRecord
  2
*Model_Space
340
22
  0
BLOCK_RECORD
  5
1B
330
1
100
AcDbSymbolTableRecord
100
AcDbBlockTableRecord
  2
*Paper_Space
340
1E
  0
BLOCK_RECORD
  5
23
330
1
100
AcDbSymbolTableRecord
100
AcDbBlockTableRecord
  2
*Paper_Space0
340
26
  0
ENDTAB
  0
ENDSEC
  0
SECTION
  2
BLOCKS
  0
BLOCK
  5
20
330
1F
100
AcDbEntity
  8
0
100
AcDbBlockBegin
  2
*Model_Space
 70
     0
 10
0.0
 20
0.0
 30
0.0
  3
*Model_Space
  1

  0
ENDBLK
  5
21
330
1F
100
AcDbEntity
  8
0
100
AcDbBlockEnd
  0
BLOCK
  5
1C
330
1B
100
AcDbEntity
 67
     1
  8
0
100
AcDbBlockBegin
  2
*Paper_Space
 70
     0
 10
0.0
 20
0.0
 30
0.0
  3
*Paper_Space
  1

  0
ENDBLK
  5
1D
330
1B
100
AcDbEntity
 67
     1
  8
0
100
AcDbBlockEnd
  0
BLOCK
  5
24
330
23
100
AcDbEntity
  8
0
100
AcDbBlockBegin
  2
*Paper_Space0
 70
     0
 10
0.0
 20
0.0
 30
0.0
  3
*Paper_Space0
  1

  0
ENDBLK
  5
25
330
23
100
AcDbEntity
  8
0
100
AcDbBlockEnd
  0
ENDSEC
  0
SECTION
  2
ENTITIES
  0
LINE
  5
7A
330
1F
100
AcDbEntity
  8
0-0
  6
Continuous
 62
     3
370
     9
100
AcDbLine
 10
-96.39992329365498
 20
-5.624265838313761
 30
0.0
 11
-95.39987050649282
 21
2.375785299249571
 31
0.0
  0
LINE
  5
7B
330
1F
100
AcDbEntity
  8
0-0
  6
Continuous
 62
     3
370
     9
100
AcDbLine
 10
-96.39992329365498
 20
-5.624265838313761
 30
0.0
 11
-82.72268709749787
 21
-5.624265838313761
 31
0.0
  0
LINE
  5
7C
330
1F
100
AcDbEntity
  8
0-0
  6
Continuous
 62
     3
370
     9
100
AcDbLine
 10
-78.24219525311443
 20
0.6520452628264479
 30
0.0
 11
-77.89998597841006
 21
2.375785299249571
 31
0.0
  0
LINE
  5
7D
330
1F
100
AcDbEntity
  8
0-0
  6
Continuous
 62
     3
370
     9
100
AcDbLine
 10
-74.08966014965156
 20
-4.223459514411729
 30
0.0
 11
-94.39989195127743
 21
2.375785299249571
 31
0.0
  0
LINE
  5
7E
330
1F
100
AcDbEntity
  8
0-0
  6
JWW_DASHED1
 62
     3
370
     9
100
AcDbLine
 10
-59.25000115471917
 20
-37.62424769272678
 30
0.0
 11
-60.41217651367188
 21
-23.53977503647678
 31
0.0
  0
LINE
  5
7F
330
1F
100
AcDbEntity
  8
0-0
  6
Continuous
 62
     3
370
     9
100
AcDbLine
 10
-95.39987050649282
 20
2.375785299249571
 30
0.0
 11
-94.39989195127743
 21
2.375785299249571
 31
0.0
  0
LINE
  5
80
330
1F
100
AcDbEntity
  8
0-0
  6
Continuous
 62
     3
370
     9
100
AcDbLine
 10
-72.9298602129962
 20
-13.6696726953661
 30
0.0
 11
-74.89997608081714
 21
2.375785299249571
 31
0.0
  0
LINE
  5
81
330
1F
100
AcDbEntity
  8
0-0
  6
Continuous
 62
     3
370
     9
100
AcDbLine
 10
-56.19080365155193
 20
-17.27360896806459
 30
0.0
 11
-70.16152822133657
 21
-16.29674129228334
 31
0.0
  0
LINE
  5
82
330
1F
100
AcDbEntity
  8
0-0
  6
Continuous
 62
     3
370
     9
100
AcDbLine
 10
-56.97459403373099
 20
-38.54205148284501
 30
0.0
 11
-55.51356085699959
 21
-56.24760799150212
 31
0.0
  0
LINE
  5
83
330
1F
100
AcDbEntity
  8
0-0
  6
Continuous
 62
     3
370
     9
100
AcDbLine
 10
-51.63605511639568
 20
-36.62426913751139
 30
0.0
 11
8.836084809174423
 21
-36.62426913751139
 31
0.0
  0
LINE
  5
84
330
1F
100
AcDbEntity
  8
0-0
  6
Continuous
 62
     3
370
     9
100
AcDbLine
 10
-49.39996618322422
 20
-43.62426748791259
 30
0.0
 11
6.600020619985258
 21
-43.62426748791259
 31
0.0
  0
LINE
  5
85
330
1F
100
AcDbEntity
  8
0-0
  6
Continuous
 62
     3
370
     9
100
AcDbLine
 10
-52.39997608081714
 20
-38.62430047988894
 30
0.0
 11
-52.39997608081714
 21
-40.62425759031967
 31
0.0
  0
LINE
  5
86
330
1F
100
AcDbEntity
  8
0-0
  6
Continuous
 62
     3
370
     9
100
AcDbLine
 10
-49.39996618322422
 20
-35.62426583831376
 30
0.0
 11
6.600020619985258
 21
-35.62426583831376
 31
0.0
  0
LINE
  5
87
330
1F
100
AcDbEntity
  8
0-0
  6
Continuous
 62
     3
370
     9
100
AcDbLine
 10
-51.63605511639568
 20
-42.62423944473269
 30
0.0
 11
8.836084809174423
 21
-42.62423944473269
 31
0.0
  0
LINE
  5
88
330
1F
100
AcDbEntity
  8
0-0
  6
Continuous
 62
     3
370
     9
100
AcDbLine
 10
-80.88495153478672
 20
-6.221362874314593
 30
0.0
 11
-84.90970871384079
 21
-4.913643411687929
 31
0.0
  0
LINE
  5
89
330
1F
100
AcDbEntity
  8
0-0
  6
JWW_DASHED1
 62
     3
370
     9
100
AcDbLine
 10
-78.96115640176308
 20
-6.846445354255479
 30
0.0
 11
-80.88492679080449
 21
-6.221362874314593
 31
0.0
  0
LINE
  5
8A
330
1F
100
AcDbEntity
  8
0-0
  6
JWW_DASHED1
 62
     3
370
     9
100
AcDbLine
 10
-76.59869995117188
 20
-16.61168269853334
 30
0.0
 11
-77.5941008696685
 21
-8.504861277502926
 31
0.0
  0
LINE
  5
8B
330
1F
100
AcDbEntity
  8
0-0
  6
JWW_DASHED1
 62
     3
370
     9
100
AcDbLine
 10
-72.90754114099448
 20
-20.11456454766764
 30
0.0
 11
-63.19280626451646
 21
-20.79378686080111
 31
0.0
  0
LINE
  5
8C
330
1F
100
AcDbEntity
  8
0-0
  6
Continuous
 62
     3
370
     9
100
AcDbLine
 10
-61.49004912505276
 20
-36.72376469019298
 30
0.0
 11
-62.30994097735427
 21
-28.52474719124874
 31
0.0
  0
LINE
  5
8D
330
1F
100
AcDbEntity
  8
0-0
  6
Continuous
 62
     3
370
     9
100
AcDbLine
 10
53.59997773041599
 20
-5.624265838313761
 30
0.0
 11
52.5999249432538
 21
2.375785299249571
 31
0.0
  0
LINE
  5
8E
330
1F
100
AcDbEntity
  8
0-0
  6
Continuous
 62
     3
370
     9
100
AcDbLine
 10
53.59997773041599
 20
-5.624265838313761
 30
0.0
 11
39.9227415342589
 21
-5.624265838313761
 31
0.0
  0
LINE
  5
8F
330
1F
100
AcDbEntity
  8
0-0
  6
Continuous
 62
     3
370
     9
100
AcDbLine
 10
35.44220020191094
 20
0.6520452628264479
 30
0.0
 11
35.09994143924197
 21
2.375785299249571
 31
0.0
  0
LINE
  5
90
330
1F
100
AcDbEntity
  8
0-0
  6
Continuous
 62
     3
370
     9
100
AcDbLine
 10
31.28966509844807
 20
-4.223459514411729
 30
0.0
 11
51.5999216440562
 21
2.375785299249571
 31
0.0
  0
LINE
  5
91
330
1F
100
AcDbEntity
  8
0-0
  6
Continuous
 62
     3
370
     9
100
AcDbLine
 10
52.5999249432538
 20
2.375785299249571
 30
0.0
 11
51.5999216440562
 21
2.375785299249571
 31
0.0
  0
LINE
  5
92
330
1F
100
AcDbEntity
  8
0-0
  6
Continuous
 62
     3
370
     9
100
AcDbLine
 10
14.17464847049197
 20
-38.54205148284501
 30
0.0
 11
12.71361529376057
 21
-56.24760799150212
 31
0.0
  0
LINE
  5
93
330
1F
100
AcDbEntity
  8
0-0
  6
Continuous
 62
     3
370
     9
100
AcDbLine
 10
9.60003051757812
 20
-38.62430047988894
 30
0.0
 11
9.60003051757812
 21
-40.62425759031967
 31
0.0
  0
LINE
  5
94
330
1F
100
AcDbEntity
  8
0-0
  6
Continuous
 62
     3
370
     9
100
AcDbLine
 10
10.61651330896328
 20
-19.95278839162879
 30
0.0
 11
9.81174002982479
 21
-27.60976421510853
 31
0.0
  0
LINE
  5
95
330
1F
100
AcDbEntity
  8
0-0
  6
Continuous
 62
     3
370
     9
100
AcDbLine
 10
6.686278142155828
 20
-30.45675732638387
 30
0.0
 11
7.652332697687967
 21
-30.18078769219889
 31
0.0
  0
LINE
  5
96
330
1F
100
AcDbEntity
  8
0-0
  6
Continuous
 62
     3
370
     9
100
AcDbLine
 10
5.980431304106872
 20
-31.22213818575887
 30
0.0
 11
5.100040415171037
 21
-35.62426583831376
 31
0.0
  0
LINE
  5
97
330
1F
100
AcDbEntity
  8
0-0
  6
Continuous
 62
     3
370
     9
100
AcDbLine
 10
36.16116135055958
 20
-6.846445354255479
 30
0.0
 11
42.10976315060182
 21
-4.913643411687929
 31
0.0
  0
LINE
  5
98
330
1F
100
AcDbEntity
  8
0-0
  6
Continuous
 62
     3
370
     9
100
AcDbLine
 10
17.61218146246833
 20
-23.53977503647678
 30
0.0
 11
16.52567320127744
 21
-36.70654287853759
 31
0.0
  0
LINE
  5
99
330
1F
100
AcDbEntity
  8
0-0
  6
Continuous
 62
     3
370
     9
100
AcDbLine
 10
33.79870489996833
 20
-16.61168269853334
 30
0.0
 11
34.79410581846494
 21
-8.504861277502926
 31
0.0
  0
LINE
  5
9A
330
1F
100
AcDbEntity
  8
0-0
  6
Continuous
 62
     3
370
     9
100
AcDbLine
 10
30.10759557775552
 20
-20.11456454766764
 30
0.0
 11
20.39281121331297
 21
-20.79378686080111
 31
0.0
  0
LINE
  5
9B
330
1F
100
AcDbEntity
  8
0-0
  6
Continuous
 62
     3
370
     9
100
AcDbLine
 10
15.52913405959671
 20
-37.62424769272678
 30
0.0
 11
15.17128658810176
 21
-37.62424769272678
 31
0.0
  0
LINE
  5
9C
330
1F
100
AcDbEntity
  8
0-0
  6
Continuous
 62
     3
370
     9
100
AcDbLine
 10
17.90683280326229
 20
-16.00458909369806
 30
0.0
 11
19.26973134633661
 21
-11.67394680590246
 31
0.0
  0
LINE
  5
9D
330
1F
100
AcDbEntity
  8
0-0
  6
Continuous
 62
     3
370
     9
100
AcDbLine
 10
30.66552288983323
 20
-9.307061182486052
 30
0.0
 11
32.09993154164911
 21
2.375785299249571
 31
0.0
  0
LINE
  5
9E
330
1F
100
AcDbEntity
  8
0-0
  6
JWW_DASHED1
 62
     3
370
     9
100
AcDbLine
 10
30.12996413772171
 20
-13.6696726953661
 30
0.0
 11
30.66106897302578
 21
-9.343954460040948
 31
0.0
  0
LINE
  5
9F
330
1F
100
AcDbEntity
  8
0-0
  6
Continuous
 62
     3
370
     9
100
AcDbLine
 10
13.39085808831297
 20
-17.27368320001139
 30
0.0
 11
16.58055535393797
 21
-17.05061619990582
 31
0.0
  0
LINE
  5
A0
330
1F
100
AcDbEntity
  8
0-0
  6
JWW_DASHED1
 62
     3
370
     9
100
AcDbLine
 10
16.58055535393797
 20
-17.05061619990582
 30
0.0
 11
27.36160740207984
 21
-16.29674129228334
 31
0.0
  0
LINE
  5
A1
330
1F
100
AcDbEntity
  8
0-0
  6
JWW_PHANTOM2
 62
     3
370
     9
100
AcDbLine
 10
-60.70675362251902
 20
-16.00458909369806
 30
0.0
 11
-62.06965216559334
 21
-11.67394680590246
 31
0.0
  0
LINE
  5
A2
330
1F
100
AcDbEntity
  8
0-0
  6
JWW_PHANTOM2
 62
     3
370
     9
100
AcDbLine
 10
-63.50047293998099
 20
-10.62423284633741
 30
0.0
 11
-71.97664778425886
 21
-10.62423284633741
 31
0.0
  0
LINE
  5
A3
330
1F
100
AcDbEntity
  8
0-0
  6
Continuous
 62
     3
370
     9
100
AcDbLine
 10
34.85260059253594
 20
173.8553434707023
 30
0.0
 11
34.33594624287375
 21
171.2035308915216
 31
0.0
  0
LINE
  5
A4
330
1F
100
AcDbEntity
  8
0-0
  6
Continuous
 62
     3
370
     9
100
AcDbLine
 10
31.39210518501901
 20
170.6179398072732
 30
0.0
 11
34.33594624287375
 21
171.2035308915216
 31
0.0
  0
LINE
  5
A5
330
1F
100
AcDbEntity
  8
0-0
  6
Continuous
 62
     3
370
     9
100
AcDbLine
 10
30.13466549435176
 20
172.9168537114118
 30
0.0
 11
34.85260059253594
 21
173.8553434707023
 31
0.0
  0
LINE
  5
A6
330
1F
100
AcDbEntity
  8
0-0
  6
Continuous
 62
     3
370
     9
100
AcDbLine
 10
30.13466549435176
 20
172.9168537114118
 30
0.0
 11
31.39210518501901
 21
170.6179398072732
 31
0.0
  0
LINE
  5
A7
330
1F
100
AcDbEntity
  8
0-0
  6
Continuous
 62
     3
370
     9
100
AcDbLine
 10
-73.22272998706714
 20
171.4636891210401
 30
0.0
 11
-77.91611905484584
 21
172.5349550891567
 31
0.0
  0
LINE
  5
A8
330
1F
100
AcDbEntity
  8
0-0
  6
Continuous
 62
     3
370
     9
100
AcDbLine
 10
-77.91611905484584
 20
172.5349550891567
 30
0.0
 11
-77.34096993111277
 21
169.8715623262766
 31
0.0
  0
LINE
  5
A9
330
1F
100
AcDbEntity
  8
0-0
  6
Continuous
 62
     3
370
     9
100
AcDbLine
 10
-74.39381317963469
 20
169.2852289225604
 30
0.0
 11
-77.34096993111277
 21
169.8715623262766
 31
0.0
  0
LINE
  5
AA
330
1F
100
AcDbEntity
  8
0-0
  6
Continuous
 62
     3
370
     9
100
AcDbLine
 10
-73.22272998706714
 20
171.4636891210401
 30
0.0
 11
-74.39381317963469
 21
169.2852289225604
 31
0.0
  0
LINE
  5
AB
330
1F
100
AcDbEntity
  8
0-0
  6
Continuous
 62
     3
370
     9
100
AcDbLine
 10
-72.22139051282724
 20
175.8508961522901
 30
0.0
 11
-76.91473009264146
 21
176.9221126324422
 31
0.0
  0
LINE
  5
AC
330
1F
100
AcDbEntity
  8
0-0
  6
Continuous
 62
     3
370
     9
100
AcDbLine
 10
-76.91473009264146
 20
176.9221126324422
 30
0.0
 11
-75.24099764437287
 21
179.0722657152124
 31
0.0
  0
LINE
  5
AD
330
1F
100
AcDbEntity
  8
0-0
  6
Continuous
 62
     3
370
     9
100
AcDbLine
 10
-72.33132802602407
 20
178.32178073316
 30
0.0
 11
-75.24099764437287
 21
179.0722657152124
 31
0.0
  0
LINE
  5
AE
330
1F
100
AcDbEntity
  8
0-0
  6
Continuous
 62
     3
370
     9
100
AcDbLine
 10
-72.22139051282724
 20
175.8508961522901
 30
0.0
 11
-72.33132802602407
 21
178.32178073316
 31
0.0
  0
LINE
  5
AF
330
1F
100
AcDbEntity
  8
0-0
  6
Continuous
 62
     3
370
     9
100
AcDbLine
 10
-63.95996869061443
 20
193.0058990555841
 30
0.0
 11
-67.72375108873521
 21
196.0074430800773
 31
0.0
  0
LINE
  5
B0
330
1F
100
AcDbEntity
  8
0-0
  6
Continuous
 62
     3
370
     9
100
AcDbLine
 10
-67.72375108873521
 20
196.0074430800773
 30
0.0
 11
-68.36118081582558
 21
193.358302850981
 31
0.0
  0
LINE
  5
B1
330
1F
100
AcDbEntity
  8
0-0
  6
Continuous
 62
     3
370
     9
100
AcDbLine
 10
-65.96027221679688
 20
191.5513488022057
 30
0.0
 11
-68.36118081582558
 21
193.358302850981
 31
0.0
  0
LINE
  5
B2
330
1F
100
AcDbEntity
  8
0-0
  6
Continuous
 62
     3
370
     9
100
AcDbLine
 10
-63.95996869061443
 20
193.0058990555841
 30
0.0
 11
-65.96027221679688
 21
191.5513488022057
 31
0.0
  0
LINE
  5
B3
330
1F
100
AcDbEntity
  8
0-0
  6
Continuous
 62
     3
370
     9
100
AcDbLine
 10
-46.26760072450381
 20
208.395864216057
 30
0.0
 11
-48.35631449931375
 21
212.7331873790638
 31
0.0
  0
LINE
  5
B4
330
1F
100
AcDbEntity
  8
0-0
  6
Continuous
 62
     3
370
     9
100
AcDbLine
 10
-48.35631449931375
 20
212.7331873790638
 30
0.0
 11
-50.0801287676837
 21
210.6229215957023
 31
0.0
  0
LINE
  5
B5
330
1F
100
AcDbEntity
  8
0-0
  6
Continuous
 62
     3
370
     9
100
AcDbLine
 10
-48.70099817224448
 20
207.9532438613273
 30
0.0
 11
-50.0801287676837
 21
210.6229215957023
 31
0.0
  0
LINE
  5
B6
330
1F
100
AcDbEntity
  8
0-0
  6
Continuous
 62
     3
370
     9
100
AcDbLine
 10
-46.26760072450381
 20
208.395864216057
 30
0.0
 11
-48.70099817224448
 21
207.9532438613273
 31
0.0
  0
LINE
  5
B7
330
1F
100
AcDbEntity
  8
0-0
  6
Continuous
 62
     3
370
     9
100
AcDbLine
 10
-61.15422379777235
 20
196.5241964056685
 30
0.0
 11
-64.91800619589313
 21
199.5257404301618
 31
0.0
  0
LINE
  5
B8
330
1F
100
AcDbEntity
  8
0-0
  6
Continuous
 62
     3
370
     9
100
AcDbLine
 10
-64.91800619589313
 20
199.5257404301618
 30
0.0
 11
-62.47711132152656
 21
200.7367109221381
 31
0.0
  0
LINE
  5
B9
330
1F
100
AcDbEntity
  8
0-0
  6
Continuous
 62
     3
370
     9
100
AcDbLine
 10
-60.18119143924199
 20
198.7980693997563
 30
0.0
 11
-62.47711132152656
 21
200.7367109221381
 31
0.0
  0
LINE
  5
BA
330
1F
100
AcDbEntity
  8
0-0
  6
Continuous
 62
     3
370
     9
100
AcDbLine
 10
-61.15422379777235
 20
196.5241964056685
 30
0.0
 11
-60.18119143924199
 21
198.7980693997563
 31
0.0
  0
LINE
  5
BB
330
1F
100
AcDbEntity
  8
0-0
  6
Continuous
 62
     3
370
     9
100
AcDbLine
 10
-42.21327448664485
 20
210.3483623685063
 30
0.0
 11
-44.30201300543709
 21
214.6856360435486
 31
0.0
  0
LINE
  5
BC
330
1F
100
AcDbEntity
  8
0-0
  6
Continuous
 62
     3
370
     9
100
AcDbLine
 10
-44.30201300543709
 20
214.6856360435486
 30
0.0
 11
-41.57740363043709
 21
214.7176547565976
 31
0.0
  0
LINE
  5
BD
330
1F
100
AcDbEntity
  8
0-0
  6
Continuous
 62
     3
370
     9
100
AcDbLine
 10
-40.35000313423771
 20
211.9748338106516
 30
0.0
 11
-41.57740363043709
 21
214.7176547565976
 31
0.0
  0
LINE
  5
BE
330
1F
100
AcDbEntity
  8
0-0
  6
Continuous
 62
     3
370
     9
100
AcDbLine
 10
-42.21327448664485
 20
210.3483623685063
 30
0.0
 11
-40.35000313423771
 21
211.9748338106516
 31
0.0
  0
LINE
  5
BF
330
1F
100
AcDbEntity
  8
0-0
  6
Continuous
 62
     3
370
     9
100
AcDbLine
 10
-23.64999257680532
 20
214.5852744514877
 30
0.0
 11
-23.64999257680532
 21
219.3993646647479
 31
0.0
  0
LINE
  5
C0
330
1F
100
AcDbEntity
  8
0-0
  6
Continuous
 62
     3
370
     9
100
AcDbLine
 10
-23.64999257680532
 20
219.3993646647479
 30
0.0
 11
-26.11865019927151
 21
218.2460476514456
 31
0.0
  0
LINE
  5
C1
330
1F
100
AcDbEntity
  8
0-0
  6
Continuous
 62
     3
370
     9
100
AcDbLine
 10
-26.03447117161105
 20
215.2422271805841
 30
0.0
 11
-26.11865019927151
 21
218.2460476514456
 31
0.0
  0
LINE
  5
C2
330
1F
100
AcDbEntity
  8
0-0
  6
Continuous
 62
     3
370
     9
100
AcDbLine
 10
-23.64999257680532
 20
214.5852744514877
 30
0.0
 11
-26.03447117161105
 21
215.2422271805841
 31
0.0
  0
LINE
  5
C3
330
1F
100
AcDbEntity
  8
0-0
  6
Continuous
 62
     3
370
     9
100
AcDbLine
 10
-0.5866710765941718
 20
210.3483623685063
 30
0.0
 11
1.502067442198069
 21
214.6856360435486
 31
0.0
  0
LINE
  5
C4
330
1F
100
AcDbEntity
  8
0-0
  6
Continuous
 62
     3
370
     9
100
AcDbLine
 10
1.502067442198069
 20
214.6856360435486
 30
0.0
 11
-1.222541932801931
 21
214.7176547565976
 31
0.0
  0
LINE
  5
C5
330
1F
100
AcDbEntity
  8
0-0
  6
Continuous
 62
     3
370
     9
100
AcDbLine
 10
-2.449942429001254
 20
211.9748338106516
 30
0.0
 11
-1.222541932801931
 21
214.7176547565976
 31
0.0
  0
LINE
  5
C6
330
1F
100
AcDbEntity
  8
0-0
  6
Continuous
 62
     3
370
     9
100
AcDbLine
 10
-0.5866710765941718
 20
210.3483623685063
 30
0.0
 11
-2.449942429001254
 21
211.9748338106516
 31
0.0
  0
LINE
  5
C7
330
1F
100
AcDbEntity
  8
0-0
  6
Continuous
 62
     3
370
     9
100
AcDbLine
 10
-19.1499529864337
 20
214.5852744514877
 30
0.0
 11
-19.1499529864337
 21
219.3993646647479
 31
0.0
  0
LINE
  5
C8
330
1F
100
AcDbEntity
  8
0-0
  6
Continuous
 62
     3
370
     9
100
AcDbLine
 10
-19.1499529864337
 20
219.3993646647479
 30
0.0
 11
-16.68129536396745
 21
218.2460476514456
 31
0.0
  0
LINE
  5
C9
330
1F
100
AcDbEntity
  8
0-0
  6
Continuous
 62
     3
370
     9
100
AcDbLine
 10
-16.76552387959245
 20
215.2422271805841
 30
0.0
 11
-16.68129536396745
 21
218.2460476514456
 31
0.0
  0
LINE
  5
CA
330
1F
100
AcDbEntity
  8
0-0
  6
Continuous
 62
     3
370
     9
100
AcDbLine
 10
-19.1499529864337
 20
214.5852744514877
 30
0.0
 11
-16.76552387959245
 21
215.2422271805841
 31
0.0
  0
LINE
  5
CB
330
1F
100
AcDbEntity
  8
0-0
  6
Continuous
 62
     3
370
     9
100
AcDbLine
 10
3.46763041728255
 20
208.395864216057
 30
0.0
 11
5.556418424039265
 21
212.7331873790638
 31
0.0
  0
LINE
  5
CC
330
1F
100
AcDbEntity
  8
0-0
  6
Continuous
 62
     3
370
     9
100
AcDbLine
 10
5.556418424039265
 20
212.7331873790638
 30
0.0
 11
7.280183204444683
 21
210.6229215957023
 31
0.0
  0
LINE
  5
CD
330
1F
100
AcDbEntity
  8
0-0
  6
Continuous
 62
     3
370
     9
100
AcDbLine
 10
5.901052609005518
 20
207.9532438613273
 30
0.0
 11
7.280183204444683
 21
210.6229215957023
 31
0.0
  0
LINE
  5
CE
330
1F
100
AcDbEntity
  8
0-0
  6
Continuous
 62
     3
370
     9
100
AcDbLine
 10
3.46763041728255
 20
208.395864216057
 30
0.0
 11
5.901052609005518
 21
207.9532438613273
 31
0.0
  0
LINE
  5
CF
330
1F
100
AcDbEntity
  8
0-0
  6
Continuous
 62
     3
370
     9
100
AcDbLine
 10
18.35430297851562
 20
196.5241964056685
 30
0.0
 11
22.11801114468963
 21
199.5256909421972
 31
0.0
  0
LINE
  5
D0
330
1F
100
AcDbEntity
  8
0-0
  6
Continuous
 62
     3
370
     9
100
AcDbLine
 10
22.11801114468963
 20
199.5256909421972
 30
0.0
 11
19.6771657582876
 21
200.7367109221381
 31
0.0
  0
LINE
  5
D1
330
1F
100
AcDbEntity
  8
0-0
  6
Continuous
 62
     3
370
     9
100
AcDbLine
 10
17.38122113202073
 20
198.7980693997563
 30
0.0
 11
19.6771657582876
 21
200.7367109221381
 31
0.0
  0
LINE
  5
D2
330
1F
100
AcDbEntity
  8
0-0
  6
Continuous
 62
     3
370
     9
100
AcDbLine
 10
18.35430297851562
 20
196.5241964056685
 30
0.0
 11
17.38122113202073
 21
198.7980693997563
 31
0.0
  0
LINE
  5
D3
330
1F
100
AcDbEntity
  8
0-0
  6
Continuous
 62
     3
370
     9
100
AcDbLine
 10
29.42144494958828
 20
175.8508961522901
 30
0.0
 11
34.11473504143797
 21
176.9221126324422
 31
0.0
  0
LINE
  5
D4
330
1F
100
AcDbEntity
  8
0-0
  6
Continuous
 62
     3
370
     9
100
AcDbLine
 10
34.11473504143797
 20
176.9221126324422
 30
0.0
 11
32.44095310520484
 21
179.0722657152124
 31
0.0
  0
LINE
  5
D5
330
1F
100
AcDbEntity
  8
0-0
  6
Continuous
 62
     3
370
     9
100
AcDbLine
 10
29.53130823083828
 20
178.32178073316
 30
0.0
 11
32.44095310520484
 21
179.0722657152124
 31
0.0
  0
LINE
  5
D6
330
1F
100
AcDbEntity
  8
0-0
  6
Continuous
 62
     3
370
     9
100
AcDbLine
 10
29.42144494958828
 20
175.8508961522901
 30
0.0
 11
29.53130823083828
 21
178.32178073316
 31
0.0
  0
LINE
  5
D7
330
1F
100
AcDbEntity
  8
0-0
  6
Continuous
 62
     3
370
     9
100
AcDbLine
 10
21.15997363941094
 20
193.0058990555841
 30
0.0
 11
24.92383026947849
 21
196.0074430800773
 31
0.0
  0
LINE
  5
D8
330
1F
100
AcDbEntity
  8
0-0
  6
Continuous
 62
     3
370
     9
100
AcDbLine
 10
24.92383026947849
 20
196.0074430800773
 30
0.0
 11
25.56123525258661
 21
193.358302850981
 31
0.0
  0
LINE
  5
D9
330
1F
100
AcDbEntity
  8
0-0
  6
Continuous
 62
     3
370
     9
100
AcDbLine
 10
23.16027716559333
 20
191.5513488022057
 30
0.0
 11
25.56123525258661
 21
193.358302850981
 31
0.0
  0
LINE
  5
DA
330
1F
100
AcDbEntity
  8
0-0
  6
Continuous
 62
     3
370
     9
100
AcDbLine
 10
21.15997363941094
 20
193.0058990555841
 30
0.0
 11
23.16027716559333
 21
191.5513488022057
 31
0.0
  0
LINE
  5
DB
330
1F
100
AcDbEntity
  8
0-3
  6
Continuous
 62
     4
370
     9
100
AcDbLine
 10
16.10002721838052
 20
-37.62424769272678
 30
0.0
 11
18.60001072239234
 21
-37.62424769272678
 31
0.0
  0
LINE
  5
DC
330
1F
100
AcDbEntity
  8
0-0
  6
Continuous
 62
     3
370
     9
100
AcDbLine
 10
-50.32286723368875
 20
-43.47874812822087
 30
0.0
 11
-51.20696971996406
 21
-57.62426418871496
 31
0.0
  0
LINE
  5
DD
330
1F
100
AcDbEntity
  8
0-0
  6
Continuous
 62
     3
370
     9
100
AcDbLine
 10
11.21863337336364
 20
-57.62426418871496
 30
0.0
 11
-54.01862842456714
 21
-57.62426418871496
 31
0.0
  0
LINE
  5
DE
330
1F
100
AcDbEntity
  8
0-0
  6
Continuous
 62
     3
370
     9
100
AcDbLine
 10
7.52292167044979
 20
-43.47874812822087
 30
0.0
 11
8.4070241567251
 21
-57.62426418871496
 31
0.0
  0
LINE
  5
DF
330
1F
100
AcDbEntity
  8
0-0
  6
Continuous
 62
     3
370
     9
100
AcDbLine
 10
6.069311688397391
 20
-43.88524226884587
 30
0.0
 11
-48.86925725163641
 21
-43.88524226884587
 31
0.0
  0
LINE
  5
E0
330
1F
100
AcDbEntity
  8
0-0
  6
Continuous
 62
     3
370
     9
100
AcDbLine
 10
-51.20696971996406
 20
-57.62426418871496
 30
0.0
 11
-49.62934289880698
 21
-56.04666211154012
 31
0.0
  0
LINE
  5
E1
330
1F
100
AcDbEntity
  8
0-0
  6
Continuous
 62
     3
370
     9
100
AcDbLine
 10
8.4070241567251
 20
-57.62426418871496
 30
0.0
 11
6.829397335568018
 21
-56.04666211154012
 31
0.0
  0
LINE
  5
E2
330
1F
100
AcDbEntity
  8
0-0
  6
Continuous
 62
     3
370
     9
100
AcDbLine
 10
-48.86925725163641
 20
-43.88524226884587
 30
0.0
 11
-49.62934289880698
 21
-56.04666211154012
 31
0.0
  0
LINE
  5
E3
330
1F
100
AcDbEntity
  8
0-0
  6
Continuous
 62
     3
370
     9
100
AcDbLine
 10
6.829397335568018
 20
-56.04666211154012
 30
0.0
 11
-49.62934289880698
 21
-56.04666211154012
 31
0.0
  0
LINE
  5
E4
330
1F
100
AcDbEntity
  8
0-0
  6
Continuous
 62
     3
370
     9
100
AcDbLine
 10
6.069311688397391
 20
-43.88524226884587
 30
0.0
 11
6.829397335568018
 21
-56.04666211154012
 31
0.0
  0
LINE
  5
E5
330
1F
100
AcDbEntity
  8
0-0
  6
Continuous
 62
     3
370
     9
100
AcDbLine
 10
-53.41650836016677
 20
-19.95278839162879
 30
0.0
 11
-52.61168559306375
 21
-27.60976421510853
 31
0.0
  0
LINE
  5
E6
330
1F
100
AcDbEntity
  8
0-0
  6
Continuous
 62
     3
370
     9
100
AcDbLine
 10
-49.48627319335938
 20
-30.45675732638387
 30
0.0
 11
-50.4522287729624
 21
-30.18078769219889
 31
0.0
  0
LINE
  5
E7
330
1F
100
AcDbEntity
  8
0-0
  6
Continuous
 62
     3
370
     9
100
AcDbLine
 10
-48.78042635531037
 20
-31.22213818575887
 30
0.0
 11
-47.89998597841006
 21
-35.62426583831376
 31
0.0
  0
LINE
  5
E8
330
1F
100
AcDbEntity
  8
0-0
  6
Continuous
 62
     3
370
     9
100
AcDbLine
 10
-77.69280461491766
 20
-26.27232722978334
 30
0.0
 11
-79.5127492543813
 21
-7.926050044394856
 31
0.0
  0
LINE
  5
E9
330
1F
100
AcDbEntity
  8
0-0
  6
Continuous
 62
     3
370
     9
100
AcDbLine
 10
-85.39986225849873
 20
-44.62424604312795
 30
0.0
 11
-85.39986225849873
 21
-50.62426583831376
 31
0.0
  0
LINE
  5
EA
330
1F
100
AcDbEntity
  8
0-0
  6
Continuous
 62
     3
370
     9
100
AcDbLine
 10
-69.22489426071579
 20
-20.424185997731
 30
0.0
 11
-75.57484345307219
 21
-20.424185997731
 31
0.0
  0
LINE
  5
EB
330
1F
100
AcDbEntity
  8
0-0
  6
Continuous
 62
     3
370
     9
100
AcDbLine
 10
-69.22489426071579
 20
-20.424185997731
 30
0.0
 11
-70.03996103647589
 21
-19.62416356318707
 31
0.0
  0
LINE
  5
EC
330
1F
100
AcDbEntity
  8
0-0
  6
Continuous
 62
     3
370
     9
100
AcDbLine
 10
-74.75992514120563
 20
-19.62416356318707
 30
0.0
 11
-75.57484345307219
 21
-20.424185997731
 31
0.0
  0
LINE
  5
ED
330
1F
100
AcDbEntity
  8
0-0
  6
Continuous
 62
     3
370
     9
100
AcDbLine
 10
-70.03996103647589
 20
-19.62416356318707
 30
0.0
 11
-74.75992514120563
 21
-19.62416356318707
 31
0.0
  0
LINE
  5
EE
330
1F
100
AcDbEntity
  8
0-0
  6
Continuous
 62
     3
370
     9
100
AcDbLine
 10
-77.39981112093537
 20
-44.62424604312795
 30
0.0
 11
-85.39986225849873
 21
-44.62424604312795
 31
0.0
  0
LINE
  5
EF
330
1F
100
AcDbEntity
  8
0-0
  6
Continuous
 62
     3
370
     9
100
AcDbLine
 10
-69.39978472735427
 20
-42.62423944473269
 30
0.0
 11
-69.39978472735427
 21
-29.62424604312795
 31
0.0
  0
LINE
  5
F0
330
1F
100
AcDbEntity
  8
0-0
  6
Continuous
 62
     3
370
     9
100
AcDbLine
 10
-77.39981112093537
 20
-50.62426583831376
 30
0.0
 11
-85.39986225849873
 21
-50.62426583831376
 31
0.0
  0
LINE
  5
F1
330
1F
100
AcDbEntity
  8
0-0
  6
JWW_CENTER1
 62
     3
370
     9
100
AcDbLine
 10
-77.39995958482896
 20
-47.62420645275634
 30
0.0
 11
-88.39984741210935
 21
-47.62420645275634
 31
0.0
  0
LINE
  5
F2
330
1F
100
AcDbEntity
  8
0-0
  6
JWW_CENTER1
 62
     3
370
     9
100
AcDbLine
 10
-72.39994308884079
 20
-42.62423944473269
 30
0.0
 11
-72.39994308884079
 21
-16.62415366559418
 31
0.0
  0
LINE
  5
F3
330
1F
100
AcDbEntity
  8
0-0
  6
Continuous
 62
     3
370
     9
100
AcDbLine
 10
-75.39980452254011
 20
-42.62423944473269
 30
0.0
 11
-75.39980452254011
 21
-29.62424604312795
 31
0.0
  0
LINE
  5
F4
330
1F
100
AcDbEntity
  8
0-0
  6
Continuous
 62
     3
370
     9
100
AcDbLine
 10
-70.03996103647589
 20
-29.62424604312795
 30
0.0
 11
-70.03996103647589
 21
-19.62416356318707
 31
0.0
  0
LINE
  5
F5
330
1F
100
AcDbEntity
  8
0-0
  6
Continuous
 62
     3
370
     9
100
AcDbLine
 10
-69.22489426071579
 20
-29.62424604312795
 30
0.0
 11
-69.22489426071579
 21
-20.424185997731
 31
0.0
  0
LINE
  5
F6
330
1F
100
AcDbEntity
  8
0-0
  6
Continuous
 62
     3
370
     9
100
AcDbLine
 10
-75.57484345307219
 20
-29.62424604312795
 30
0.0
 11
-75.57484345307219
 21
-20.424185997731
 31
0.0
  0
LINE
  5
F7
330
1F
100
AcDbEntity
  8
0-0
  6
Continuous
 62
     3
370
     9
100
AcDbLine
 10
-69.22489426071579
 20
-29.62424604312795
 30
0.0
 11
-75.57484345307219
 21
-29.62424604312795
 31
0.0
  0
LINE
  5
F8
330
1F
100
AcDbEntity
  8
0-0
  6
Continuous
 62
     3
370
     9
100
AcDbLine
 10
-76.20014862885344
 20
-27.62421470075043
 30
0.0
 11
-75.57484345307219
 21
-27.62421470075043
 31
0.0
  0
LINE
  5
F9
330
1F
100
AcDbEntity
  8
0-0
  6
Continuous
 62
     3
370
     9
100
AcDbLine
 10
-69.22489426071579
 20
-27.62421470075043
 30
0.0
 11
-63.30502022408152
 21
-27.62421470075043
 31
0.0
  0
LINE
  5
FA
330
1F
100
AcDbEntity
  8
0-0
  6
Continuous
 62
     3
370
     9
100
AcDbLine
 10
-74.75992514120563
 20
-29.62424604312795
 30
0.0
 11
-74.75992514120563
 21
-19.62416356318707
 31
0.0
  0
LINE
  5
FB
330
1F
100
AcDbEntity
  8
0-0
  6
Continuous
 62
     3
370
     9
100
AcDbLine
 10
-61.3999562856313
 20
-37.62424769272678
 30
0.0
 11
-57.97123215134079
 21
-37.62424769272678
 31
0.0
  0
LINE
  5
FC
330
1F
100
AcDbEntity
  8
0-2
  6
Continuous
 62
     6
370
     5
100
AcDbLine
 10
-71.56080041833823
 20
-9.820375094542669
 30
0.0
 11
-72.39999257680532
 21
-5.624216350349229
 31
0.0
  0
LINE
  5
FD
330
1F
100
AcDbEntity
  8
0-2
  6
Continuous
 62
     6
370
     5
100
AcDbLine
 10
-59.83539428710938
 20
-9.141895100877093
 30
0.0
 11
-51.00822605442355
 21
23.80152530927916
 31
0.0
  0
LINE
  5
FE
330
1F
100
AcDbEntity
  8
0-2
  6
Continuous
 62
     6
370
     5
100
AcDbLine
 10
-63.98802836650125
 20
-5.181497019690426
 30
0.0
 11
-72.39999257680532
 21
-5.624216350349229
 31
0.0
  0
LINE
  5
FF
330
1F
100
AcDbEntity
  8
0-2
  6
Continuous
 62
     6
370
     5
100
AcDbLine
 10
-25.89996288402656
 20
34.32514096595145
 30
0.0
 11
-24.3999826792124
 21
30.3527915413315
 31
0.0
  0
LINE
  5
100
330
1F
100
AcDbEntity
  8
0-2
  6
Continuous
 62
     6
370
     5
100
AcDbLine
 10
-32.89993649044553
 20
30.03809757490416
 30
0.0
 11
-31.3999562856313
 21
34.12560549297848
 31
0.0
  0
LINE
  5
101
330
1F
100
AcDbEntity
  8
0-2
  6
Continuous
 62
     6
370
     5
100
AcDbLine
 10
-35.39996948242188
 20
33.88516821732389
 30
0.0
 11
-36.39997278161948
 21
32.80962154027577
 31
0.0
  0
LINE
  5
102
330
1F
100
AcDbEntity
  8
0-2
  6
Continuous
 62
     6
370
     5
100
AcDbLine
 10
-36.39997278161948
 20
32.80962154027577
 30
0.0
 11
-34.89999257680532
 21
29.91027016253082
 31
0.0
  0
LINE
  5
103
330
1F
100
AcDbEntity
  8
0-2
  6
Continuous
 62
     6
370
     5
100
AcDbLine
 10
-47.39995958482896
 20
32.52815874202832
 30
0.0
 11
-46.3999562856313
 21
31.7991762805629
 31
0.0
  0
LINE
  5
104
330
1F
100
AcDbEntity
  8
0-2
  6
Continuous
 62
     6
370
     5
100
AcDbLine
 10
28.76083011111697
 20
-9.820375094542669
 30
0.0
 11
29.6000470135663
 21
-5.624216350349229
 31
0.0
  0
LINE
  5
105
330
1F
100
AcDbEntity
  8
0-2
  6
Continuous
 62
     6
370
     5
100
AcDbLine
 10
-64.07584475955449
 20
-9.51246097925548
 30
0.0
 11
-54.87197414088891
 21
24.83681352718457
 31
0.0
  0
LINE
  5
106
330
1F
100
AcDbEntity
  8
0-2
  6
Continuous
 62
     6
370
     5
100
AcDbLine
 10
-21.39997278161948
 20
-10.62423284633741
 30
0.0
 11
-70.58019640123521
 21
-10.62423284633741
 31
0.0
  0
LINE
  5
107
330
1F
100
AcDbEntity
  8
0-2
  6
Continuous
 62
     6
370
     5
100
AcDbLine
 10
-51.12229581265834
 20
23.37573086248858
 30
0.0
 11
-55.26344868427995
 21
23.37573086248858
 31
0.0
  0
LINE
  5
108
330
1F
100
AcDbEntity
  8
0-2
  6
JWW_DASHED1
 62
     6
370
     5
100
AcDbLine
 10
8.322350249419372
 20
23.37573086248858
 30
0.0
 11
12.46350312104099
 21
23.37573086248858
 31
0.0
  0
LINE
  5
109
330
1F
100
AcDbEntity
  8
0-2
  6
Continuous
 62
     6
370
     5
100
AcDbLine
 10
28.60009320233323
 20
-4.570221681852615
 30
0.0
 11
29.6000470135663
 21
-5.624216350349229
 31
0.0
  0
LINE
  5
10A
330
1F
100
AcDbEntity
  8
0-2
  6
Continuous
 62
     6
370
     5
100
AcDbLine
 10
19.35005031276395
 20
-10.62423284633741
 30
0.0
 11
20.85003051757812
 21
-5.124511628537562
 31
0.0
  0
LINE
  5
10B
330
1F
100
AcDbEntity
  8
0-2
  6
Continuous
 62
     6
370
     5
100
AcDbLine
 10
-21.39997278161948
 20
-10.62423284633741
 30
0.0
 11
22.60007340714739
 21
-10.62423284633741
 31
0.0
  0
LINE
  5
10C
330
1F
100
AcDbEntity
  8
0-2
  6
Continuous
 62
     6
370
     5
100
AcDbLine
 10
21.18808280326229
 20
-5.181497019690426
 30
0.0
 11
22.60007340714739
 21
-5.255827942410065
 31
0.0
  0
LINE
  5
10D
330
1F
100
AcDbEntity
  8
0-2
  6
Continuous
 62
     6
370
     5
100
AcDbLine
 10
28.60009320233323
 20
-5.571635388039283
 30
0.0
 11
29.6000470135663
 21
-5.624216350349229
 31
0.0
  0
LINE
  5
10E
330
1F
100
AcDbEntity
  8
0-2
  6
Continuous
 62
     6
370
     5
100
AcDbLine
 10
20.91594848632812
 20
-4.165781291755479
 30
0.0
 11
22.60007340714739
 21
-4.254463724187929
 31
0.0
  0
LINE
  5
10F
330
1F
100
AcDbEntity
  8
0-2
  6
Continuous
 62
     6
370
     5
100
AcDbLine
 10
-59.57825482342693
 20
178.1243732426618
 30
0.0
 11
-53.9036183950063
 21
175.7063912958712
 31
0.0
  0
LINE
  5
110
330
1F
100
AcDbEntity
  8
0-2
  6
Continuous
 62
     6
370
     5
100
AcDbLine
 10
-62.59766400311443
 20
166.8557657679996
 30
0.0
 11
-56.47427071236277
 21
166.1125555167327
 31
0.0
  0
LINE
  5
111
330
1F
100
AcDbEntity
  8
0-2
  6
Continuous
 62
     6
370
     5
100
AcDbLine
 10
-46.32899054449959
 20
195.0340148178307
 30
0.0
 11
-42.62367817646745
 21
190.1025391527124
 31
0.0
  0
LINE
  5
112
330
1F
100
AcDbEntity
  8
0-2
  6
Continuous
 62
     6
370
     5
100
AcDbLine
 10
-54.57823832743875
 20
186.7847670348915
 30
0.0
 11
-49.64678740630276
 21
183.0794051788949
 31
0.0
  0
LINE
  5
113
330
1F
100
AcDbEntity
  8
0-2
  6
Continuous
 62
     6
370
     5
100
AcDbLine
 10
-26.39998927760766
 20
203.0534404935063
 30
0.0
 11
-25.65682851430532
 21
196.9299977147901
 31
0.0
  0
LINE
  5
114
330
1F
100
AcDbEntity
  8
0-2
  6
Continuous
 62
     6
370
     5
100
AcDbLine
 10
-37.66869572819891
 20
200.0339818258543
 30
0.0
 11
-35.25061480547927
 21
194.3593948853982
 31
0.0
  0
LINE
  5
115
330
1F
100
AcDbEntity
  8
0-2
  6
Continuous
 62
     6
370
     5
100
AcDbLine
 10
-5.13129932300464
 20
200.0340313138188
 30
0.0
 11
-7.549380245724223
 21
194.3593948853982
 31
0.0
  0
LINE
  5
116
330
1F
100
AcDbEntity
  8
0-2
  6
Continuous
 62
     6
370
     5
100
AcDbLine
 10
-16.3999562856313
 20
203.0534404935063
 30
0.0
 11
-17.14316653689824
 21
196.9299977147901
 31
0.0
  0
LINE
  5
117
330
1F
100
AcDbEntity
  8
0-2
  6
Continuous
 62
     6
370
     5
100
AcDbLine
 10
11.77824327623526
 20
186.7847670348915
 30
0.0
 11
6.846817099081505
 21
183.0794546668594
 31
0.0
  0
LINE
  5
118
330
1F
100
AcDbEntity
  8
0-2
  6
Continuous
 62
     6
370
     5
100
AcDbLine
 10
3.528995493296037
 20
195.0340148178307
 30
0.0
 11
-0.1763168747360453
 21
190.1025391527124
 31
0.0
  0
LINE
  5
119
330
1F
100
AcDbEntity
  8
0-2
  6
Continuous
 62
     6
370
     5
100
AcDbLine
 10
19.79771843987547
 20
166.8558647439286
 30
0.0
 11
13.67432514912375
 21
166.1126544926618
 31
0.0
  0
LINE
  5
11A
330
1F
100
AcDbEntity
  8
0-2
  6
Continuous
 62
     6
370
     5
100
AcDbLine
 10
16.77825977222344
 20
178.1244722185908
 30
0.0
 11
11.10362334380281
 21
175.7063912958712
 31
0.0
  0
LINE
  5
11B
330
1F
100
AcDbEntity
  8
0-2
  6
Continuous
 62
     6
370
     5
100
AcDbLine
 10
-34.35290312895901
 20
171.6267024761922
 30
0.0
 11
-39.39503388275969
 21
176.6688332299929
 31
0.0
  0
LINE
  5
11C
330
1F
100
AcDbEntity
  8
0-2
  6
Continuous
 62
     6
370
     5
100
AcDbLine
 10
-44.59884181667016
 20
164.1057195792327
 30
0.0
 11
-37.4682199838999
 21
164.1057195792327
 31
0.0
  0
LINE
  5
11D
330
1F
100
AcDbEntity
  8
0-2
  6
Continuous
 62
     6
370
     5
100
AcDbLine
 10
-33.64576960383235
 20
172.3337865133543
 30
0.0
 11
-38.68790035763303
 21
177.375917267155
 31
0.0
  0
LINE
  5
11E
330
1F
100
AcDbEntity
  8
0-2
  6
Continuous
 62
     6
370
     5
100
AcDbLine
 10
-44.59884181667016
 20
163.105716280035
 30
0.0
 11
-37.4682199838999
 21
163.105716280035
 31
0.0
  0
LINE
  5
11F
330
1F
100
AcDbEntity
  8
0-2
  6
Continuous
 62
     6
370
     5
100
AcDbLine
 10
-35.34107880463469
 20
169.7864430272901
 30
0.0
 11
-40.51712399044553
 21
174.9624882131009
 31
0.0
  0
LINE
  5
120
330
1F
100
AcDbEntity
  8
0-2
  6
Continuous
 62
     6
370
     5
100
AcDbLine
 10
-23.64999257680532
 20
177.9239469863273
 30
0.0
 11
-23.64999257680532
 21
185.0546183070621
 31
0.0
  0
LINE
  5
121
330
1F
100
AcDbEntity
  8
0-2
  6
Continuous
 62
     6
370
     5
100
AcDbLine
 10
-36.21305673960089
 20
179.8508103731516
 30
0.0
 11
-31.17092598580021
 21
174.8086796193509
 31
0.0
  0
LINE
  5
122
330
1F
100
AcDbEntity
  8
0-2
  6
Continuous
 62
     6
370
     5
100
AcDbLine
 10
-22.64993978964313
 20
177.9239469863273
 30
0.0
 11
-22.64993978964313
 21
185.0545193311331
 31
0.0
  0
LINE
  5
123
330
1F
100
AcDbEntity
  8
0-2
  6
Continuous
 62
     6
370
     5
100
AcDbLine
 10
-36.92014077676308
 20
179.1437263359895
 30
0.0
 11
-31.8780100229624
 21
174.1015955821888
 31
0.0
  0
LINE
  5
124
330
1F
100
AcDbEntity
  8
0-2
  6
Continuous
 62
     6
370
     5
100
AcDbLine
 10
-25.64994968723605
 20
177.3214310182107
 30
0.0
 11
-25.64994968723605
 21
184.6414432912259
 31
0.0
  0
LINE
  5
125
330
1F
100
AcDbEntity
  8
0-2
  6
Continuous
 62
     6
370
     5
100
AcDbLine
 10
-11.62901957743875
 20
174.8086796193509
 30
0.0
 11
-6.586888823638077
 21
179.8508103731516
 31
0.0
  0
LINE
  5
126
330
1F
100
AcDbEntity
  8
0-2
  6
Continuous
 62
     6
370
     5
100
AcDbLine
 10
-19.15000247439824
 20
185.0546183070621
 30
0.0
 11
-19.15000247439824
 21
177.9239469863273
 31
0.0
  0
LINE
  5
127
330
1F
100
AcDbEntity
  8
0-2
  6
Continuous
 62
     6
370
     5
100
AcDbLine
 10
-10.92193554027656
 20
174.1015460942243
 30
0.0
 11
-5.879804786475887
 21
179.1436768480249
 31
0.0
  0
LINE
  5
128
330
1F
100
AcDbEntity
  8
0-2
  6
Continuous
 62
     6
370
     5
100
AcDbLine
 10
-20.1499562856313
 20
185.0546183070621
 30
0.0
 11
-20.1499562856313
 21
177.9239469863273
 31
0.0
  0
LINE
  5
129
330
1F
100
AcDbEntity
  8
0-2
  6
Continuous
 62
     6
370
     5
100
AcDbLine
 10
-13.46927902634079
 20
175.7967563190975
 30
0.0
 11
-8.29323384052995
 21
180.9728509928729
 31
0.0
  0
LINE
  5
12A
330
1F
100
AcDbEntity
  8
0-2
  6
Continuous
 62
     6
370
     5
100
AcDbLine
 10
-5.331775067303596
 20
164.1057195792327
 30
0.0
 11
1.798896253431195
 21
164.1057195792327
 31
0.0
  0
LINE
  5
12B
330
1F
100
AcDbEntity
  8
0-2
  6
Continuous
 62
     6
370
     5
100
AcDbLine
 10
-3.404911680479273
 20
176.6688332299929
 30
0.0
 11
-8.44704243427995
 21
171.6267024761922
 31
0.0
  0
LINE
  5
12C
330
1F
100
AcDbEntity
  8
0-2
  6
Continuous
 62
     6
370
     5
100
AcDbLine
 10
-5.331775067303596
 20
163.105716280035
 30
0.0
 11
1.798846765466664
 21
163.105716280035
 31
0.0
  0
LINE
  5
12D
330
1F
100
AcDbEntity
  8
0-2
  6
Continuous
 62
     6
370
     5
100
AcDbLine
 10
-4.111995717641463
 20
177.3760162430841
 30
0.0
 11
-9.15412647144214
 21
172.3338854892834
 31
0.0
  0
LINE
  5
12E
330
1F
100
AcDbEntity
  8
0-2
  6
Continuous
 62
     6
370
     5
100
AcDbLine
 10
-5.934291035420159
 20
166.105726177628
 30
0.0
 11
1.38572123759505
 21
166.105726177628
 31
0.0
  0
LINE
  5
12F
330
1F
100
AcDbEntity
  8
0-2
  6
Continuous
 62
     6
370
     5
100
AcDbLine
 10
-27.42077752190667
 20
166.3557393744185
 30
0.0
 11
-15.37916804133235
 21
166.3557393744185
 31
0.0
  0
LINE
  5
130
330
1F
100
AcDbEntity
  8
0-2
  6
Continuous
 62
     6
370
     5
100
AcDbLine
 10
28.34938717403926
 20
166.8557657679996
 30
0.0
 11
29.44292272619302
 21
165.8558119567665
 31
0.0
  0
LINE
  5
131
330
1F
100
AcDbEntity
  8
0-2
  6
Continuous
 62
     6
370
     5
100
AcDbLine
 10
27.58984589447849
 20
171.8557327760232
 30
0.0
 11
28.39966694599875
 21
172.8556865872563
 31
0.0
  0
LINE
  5
132
330
1F
100
AcDbEntity
  8
0-2
  6
Continuous
 62
     6
370
     5
100
AcDbLine
 10
18.87719281170823
 20
171.8557327760232
 30
0.0
 11
27.58984589447849
 21
171.8557327760232
 31
0.0
  0
LINE
  5
133
330
1F
100
AcDbEntity
  8
0-2
  6
Continuous
 62
     6
370
     5
100
AcDbLine
 10
18.61559943121833
 20
172.8556865872563
 30
0.0
 11
28.39966694599875
 21
172.8556865872563
 31
0.0
  0
LINE
  5
134
330
1F
100
AcDbEntity
  8
0-2
  6
Continuous
 62
     6
370
     5
100
AcDbLine
 10
-71.14933273727829
 20
166.8557657679996
 30
0.0
 11
-72.24286828943198
 21
165.8558119567665
 31
0.0
  0
LINE
  5
135
330
1F
100
AcDbEntity
  8
0-2
  6
Continuous
 62
     6
370
     5
100
AcDbLine
 10
-70.00074182458823
 20
166.8557657679996
 30
0.0
 11
-71.14933273727829
 21
166.8557657679996
 31
0.0
  0
LINE
  5
136
330
1F
100
AcDbEntity
  8
0-2
  6
Continuous
 62
     6
370
     5
100
AcDbLine
 10
-70.38979145771745
 20
171.8557327760232
 30
0.0
 11
-71.19958776525547
 21
172.8556865872563
 31
0.0
  0
LINE
  5
137
330
1F
100
AcDbEntity
  8
0-2
  6
Continuous
 62
     6
370
     5
100
AcDbLine
 10
-61.67713837494719
 20
171.8557327760232
 30
0.0
 11
-70.38979145771745
 21
171.8557327760232
 31
0.0
  0
LINE
  5
138
330
1F
100
AcDbEntity
  8
0-2
  6
Continuous
 62
     6
370
     5
100
AcDbLine
 10
-61.41559448242188
 20
172.8556865872563
 30
0.0
 11
-71.19958776525547
 21
172.8556865872563
 31
0.0
  0
LINE
  5
139
330
1F
100
AcDbEntity
  8
0-2
  6
Continuous
 62
     6
370
     5
100
AcDbLine
 10
20.35010309992614
 20
-3.934598265467457
 30
0.0
 11
30.85001402158994
 21
-3.934598265467457
 31
0.0
  0
LINE
  5
13A
330
1F
100
AcDbEntity
  8
0-2
  6
Continuous
 62
     6
370
     5
100
AcDbLine
 10
25.10000742319468
 20
-2.934570222287562
 30
0.0
 11
26.10006021035687
 21
-2.934570222287562
 31
0.0
  0
LINE
  5
13B
330
1F
100
AcDbEntity
  8
0-2
  6
Continuous
 62
     6
370
     5
100
AcDbLine
 10
26.10006021035687
 20
-0.0526138640739191
 30
0.0
 11
26.10006021035687
 21
-2.934570222287562
 31
0.0
  0
LINE
  5
13C
330
1F
100
AcDbEntity
  8
0-2
  6
Continuous
 62
     6
370
     5
100
AcDbLine
 10
25.10000742319468
 20
-0.0526138640739191
 30
0.0
 11
25.10000742319468
 21
-2.934570222287562
 31
0.0
  0
LINE
  5
13D
330
1F
100
AcDbEntity
  8
0-2
  6
Continuous
 62
     6
370
     5
100
AcDbLine
 10
23.10009980072849
 20
-13.93463125744381
 30
0.0
 11
28.10006680875213
 21
-13.93463125744381
 31
0.0
  0
LINE
  5
13E
330
1F
100
AcDbEntity
  8
0-2
  6
Continuous
 62
     6
370
     5
100
AcDbLine
 10
22.60007340714739
 20
-13.43458011988048
 30
0.0
 11
28.60009320233323
 21
-13.43458011988048
 31
0.0
  0
LINE
  5
13F
330
1F
100
AcDbEntity
  8
0-2
  6
Continuous
 62
     6
370
     5
100
AcDbLine
 10
22.60007340714739
 20
-13.43458011988048
 30
0.0
 11
23.10009980072849
 21
-13.93463125744381
 31
0.0
  0
LINE
  5
140
330
1F
100
AcDbEntity
  8
0-2
  6
Continuous
 62
     6
370
     5
100
AcDbLine
 10
28.60009320233323
 20
-13.43458011988048
 30
0.0
 11
28.10006680875213
 21
-13.93463125744381
 31
0.0
  0
LINE
  5
141
330
1F
100
AcDbEntity
  8
0-2
  6
Continuous
 62
     6
370
     5
100
AcDbLine
 10
28.60009320233323
 20
-3.934598265467457
 30
0.0
 11
28.60009320233323
 21
-13.43458011988048
 31
0.0
  0
LINE
  5
142
330
1F
100
AcDbEntity
  8
0-2
  6
Continuous
 62
     6
370
     5
100
AcDbLine
 10
28.10006680875213
 20
-3.934598265467457
 30
0.0
 11
28.10006680875213
 21
-13.93463125744381
 31
0.0
  0
LINE
  5
143
330
1F
100
AcDbEntity
  8
0-2
  6
Continuous
 62
     6
370
     5
100
AcDbLine
 10
23.10009980072849
 20
-3.934598265467457
 30
0.0
 11
23.10009980072849
 21
-13.93463125744381
 31
0.0
  0
LINE
  5
144
330
1F
100
AcDbEntity
  8
0-2
  6
Continuous
 62
     6
370
     5
100
AcDbLine
 10
22.60007340714739
 20
-3.934598265467457
 30
0.0
 11
22.60007340714739
 21
-13.43458011988048
 31
0.0
  0
LINE
  5
145
330
1F
100
AcDbEntity
  8
0-2
  6
JWW_CENTER1
 62
     6
370
     5
100
AcDbLine
 10
25.66644666517104
 20
160.6683845391145
 30
0.0
 11
25.66644666517104
 21
169.5506328763188
 31
0.0
  0
LINE
  5
146
330
1F
100
AcDbEntity
  8
0-2
  6
JWW_CENTER1
 62
     6
370
     5
100
AcDbLine
 10
-68.33356653161948
 20
160.6683845391145
 30
0.0
 11
-68.33356653161948
 21
169.5506328763188
 31
0.0
  0
LINE
  5
147
330
1F
100
AcDbEntity
  8
0-2
  6
JWW_CENTER1
 62
     6
370
     5
100
AcDbLine
 10
25.60003381677578
 20
2.108005923193844
 30
0.0
 11
25.60003381677578
 21
-15.97405501958488
 31
0.0
  0
LINE
  5
148
330
1F
100
AcDbEntity
  8
0-2
  6
Continuous
 62
     6
370
     5
100
AcDbLine
 10
-72.33362921637459
 20
161.9433924571888
 30
0.0
 11
-72.33362921637459
 21
162.5433845391145
 31
0.0
  0
LINE
  5
149
330
1F
100
AcDbEntity
  8
0-2
  6
Continuous
 62
     6
370
     5
100
AcDbLine
 10
-64.33365231075803
 20
162.5433845391145
 30
0.0
 11
-72.33362921637459
 21
162.5433845391145
 31
0.0
  0
LINE
  5
14A
330
1F
100
AcDbEntity
  8
0-2
  6
Continuous
 62
     6
370
     5
100
AcDbLine
 10
-64.33365231075803
 20
161.9433924571888
 30
0.0
 11
-64.33365231075803
 21
162.5433845391145
 31
0.0
  0
LINE
  5
14B
330
1F
100
AcDbEntity
  8
0-2
  6
Continuous
 62
     6
370
     5
100
AcDbLine
 10
29.53368365313557
 20
161.9433924571888
 30
0.0
 11
29.53368365313557
 21
162.5433845391145
 31
0.0
  0
LINE
  5
14C
330
1F
100
AcDbEntity
  8
0-2
  6
Continuous
 62
     6
370
     5
100
AcDbLine
 10
21.53370674751901
 20
162.5433845391145
 30
0.0
 11
29.53368365313557
 21
162.5433845391145
 31
0.0
  0
LINE
  5
14D
330
1F
100
AcDbEntity
  8
0-2
  6
Continuous
 62
     6
370
     5
100
AcDbLine
 10
21.53370674751901
 20
161.9433924571888
 30
0.0
 11
21.53370674751901
 21
162.5433845391145
 31
0.0
  0
LINE
  5
14E
330
1F
100
AcDbEntity
  8
0-2
  6
Continuous
 62
     6
370
     5
100
AcDbLine
 10
19.81805799329604
 20
-4.071778903136419
 30
0.0
 11
12.07200383366765
 21
24.83681352718457
 31
0.0
  0
LINE
  5
14F
330
1F
100
AcDbEntity
  8
0-2
  6
Continuous
 62
     6
370
     5
100
AcDbLine
 10
17.03539923590583
 20
-9.141895100877093
 30
0.0
 11
8.208280491184581
 21
23.80152530927916
 31
0.0
  0
LINE
  5
150
330
1F
100
AcDbEntity
  8
0-0
  6
Continuous
 62
     3
370
     9
100
AcDbLine
 10
-77.89998597841006
 20
2.375785299249571
 30
0.0
 11
-60.89040345887881
 21
2.375785299249571
 31
0.0
  0
LINE
  5
151
330
1F
100
AcDbEntity
  8
0-0
  6
Continuous
 62
     3
370
     9
100
AcDbLine
 10
18.09043315165755
 20
2.375785299249571
 30
0.0
 11
35.09994143924197
 21
2.375785299249571
 31
0.0
  0
LINE
  5
152
330
1F
100
AcDbEntity
  8
0-0
  6
Continuous
 62
     3
370
     9
100
AcDbLine
 10
28.60009320233323
 20
-10.62423284633741
 30
0.0
 11
29.17672696500213
 21
-10.62423284633741
 31
0.0
  0
LINE
  5
153
330
1F
100
AcDbEntity
  8
0-2
  6
Continuous
 62
     6
370
     5
100
AcDbLine
 10
27.51873168945312
 20
166.8557657679996
 30
0.0
 11
28.34938717403926
 21
166.8557657679996
 31
0.0
  0
LINE
  5
154
330
1F
100
AcDbEntity
  8
0-2
  6
Continuous
 62
     6
370
     5
100
AcDbLine
 10
29.16722527581297
 20
165.8558119567665
 30
0.0
 11
29.44292272619302
 21
165.8558119567665
 31
0.0
  0
LINE
  5
155
330
1F
100
AcDbEntity
  8
0-2
  6
Continuous
 62
     6
370
     5
100
AcDbLine
 10
-71.83439463022589
 20
165.8558119567665
 30
0.0
 11
-72.24286828943198
 21
165.8558119567665
 31
0.0
  0
LINE
  5
156
330
1F
100
AcDbEntity
  8
0-0
  6
JWW_CENTER1
 62
     3
370
     9
100
AcDbLine
 10
-99.32337531012456
 20
161.9433924571888
 30
0.0
 11
56.62671112885349
 21
161.9433924571888
 31
0.0
  0
LINE
  5
157
330
1F
100
AcDbEntity
  8
0-0
  6
JWW_CENTER1
 62
     3
370
     9
100
AcDbLine
 10
-21.39997278161948
 20
159.6862463951111
 30
0.0
 11
-21.39997278161948
 21
239.6684472238695
 31
0.0
  0
LINE
  5
158
330
1F
100
AcDbEntity
  8
0-3
  6
Continuous
 62
     7
370
     9
100
AcDbLine
 10
9.986630496463277
 20
-65.27911202972001
 30
0.0
 11
23.77368048590583
 21
-62.84806526029433
 31
0.0
  0
LINE
  5
159
330
1F
100
AcDbEntity
  8
0-3
  6
Continuous
 62
     4
370
     9
100
AcDbLine
 10
18.60001072239234
 20
-37.62424769272678
 30
0.0
 11
18.60001072239234
 21
-63.76032639838556
 31
0.0
  0
LINE
  5
15A
330
1F
100
AcDbEntity
  8
0-3
  6
Continuous
 62
     4
370
     9
100
AcDbLine
 10
16.10002721838052
 20
-37.62424769272678
 30
0.0
 11
16.10002721838052
 21
-64.20114044241004
 31
0.0
  0
LINE
  5
15B
330
1F
100
AcDbEntity
  8
0-3
  6
Continuous
 62
     7
370
     9
100
AcDbLine
 10
10.6811940786001
 20
-69.21835400607137
 30
0.0
 11
24.46824406804265
 21
-66.78728249266342
 31
0.0
  0
LINE
  5
15C
330
1F
100
AcDbEntity
  8
0-3
  6
Continuous
 62
     4
370
     9
100
AcDbLine
 10
18.60001072239234
 20
-67.82205108694129
 30
0.0
 11
18.60001072239234
 21
-77.6242311967386
 31
0.0
  0
LINE
  5
15D
330
1F
100
AcDbEntity
  8
0-3
  6
Continuous
 62
     4
370
     9
100
AcDbLine
 10
16.10002721838052
 20
-68.26281564300126
 30
0.0
 11
16.10002721838052
 21
-77.6242311967386
 31
0.0
  0
LINE
  5
15E
330
1F
100
AcDbEntity
  8
0-3
  6
Continuous
 62
     7
370
     9
100
AcDbLine
 10
-67.51330351958401
 20
-65.27911202972001
 30
0.0
 11
-53.7262782741237
 21
-62.84806526029433
 31
0.0
  0
LINE
  5
15F
330
1F
100
AcDbEntity
  8
0-3
  6
Continuous
 62
     7
370
     9
100
AcDbLine
 10
-66.81871519346495
 20
-69.21835400607137
 30
0.0
 11
-53.03168994800464
 21
-66.78728249266342
 31
0.0
  0
LINE
  5
160
330
1F
100
AcDbEntity
  8
0-3
  6
Continuous
 62
     4
370
     9
100
AcDbLine
 10
-58.89992329365495
 20
-37.62424769272678
 30
0.0
 11
-58.89992329365495
 21
-63.76032639838556
 31
0.0
  0
LINE
  5
161
330
1F
100
AcDbEntity
  8
0-3
  6
Continuous
 62
     4
370
     9
100
AcDbLine
 10
-58.89992329365495
 20
-67.82205108694129
 30
0.0
 11
-58.89992329365495
 21
-77.6242311967386
 31
0.0
  0
LINE
  5
162
330
1F
100
AcDbEntity
  8
0-3
  6
Continuous
 62
     4
370
     9
100
AcDbLine
 10
-61.3999562856313
 20
-77.6242311967386
 30
0.0
 11
18.60001072239234
 21
-77.6242311967386
 31
0.0
  0
LINE
  5
163
330
1F
100
AcDbEntity
  8
0-3
  6
Continuous
 62
     4
370
     9
100
AcDbLine
 10
-61.3999562856313
 20
-68.26288987494806
 30
0.0
 11
-61.3999562856313
 21
-77.6242311967386
 31
0.0
  0
LINE
  5
164
330
1F
100
AcDbEntity
  8
0-3
  6
Continuous
 62
     4
370
     9
100
AcDbLine
 10
-61.3999562856313
 20
-37.62424769272678
 30
0.0
 11
-61.3999562856313
 21
-64.20114044241004
 31
0.0
  0
LINE
  5
165
330
1F
100
AcDbEntity
  8
0-0
  6
JWW_CENTER1
 62
     3
370
     9
100
AcDbLine
 10
-21.39997278161948
 20
37.87471470961697
 30
0.0
 11
-21.39997278161948
 21
-83.5898073686136
 31
0.0
  0
LINE
  5
166
330
1F
100
AcDbEntity
  8
0-4
  6
Continuous
 62
     7
370
     9
100
AcDbLine
 10
-72.39999257680532
 20
54.37573416168624
 30
0.0
 11
29.6000470135663
 21
54.37573416168624
 31
0.0
  0
LINE
  5
167
330
1F
100
AcDbEntity
  8
0-4
  6
Continuous
 62
     7
370
     9
100
AcDbLine
 10
-72.39999257680532
 20
-0.6241998543610521
 30
0.0
 11
-72.39999257680532
 21
54.97572624361192
 31
0.0
  0
LINE
  5
168
330
1F
100
AcDbEntity
  8
0-4
  6
Continuous
 62
     7
370
     9
100
AcDbLine
 10
29.6000470135663
 20
-0.6241998543610521
 30
0.0
 11
29.6000470135663
 21
54.97572624361192
 31
0.0
  0
LINE
  5
169
330
1F
100
AcDbEntity
  8
0-4
  6
Continuous
 62
     7
370
     9
100
AcDbLine
 10
-72.39999257680532
 20
54.37573416168624
 30
0.0
 11
-67.44275842615073
 21
55.02835669388639
 31
0.0
  0
LINE
  5
16A
330
1F
100
AcDbEntity
  8
0-4
  6
Continuous
 62
     7
370
     9
100
AcDbLine
 10
-72.39999257680532
 20
54.37573416168624
 30
0.0
 11
-67.44275842615073
 21
53.72311162948608
 31
0.0
  0
LINE
  5
16B
330
1F
100
AcDbEntity
  8
0-4
  6
Continuous
 62
     7
370
     9
100
AcDbLine
 10
29.6000470135663
 20
54.37573416168624
 30
0.0
 11
24.64283760689401
 21
55.02835669388639
 31
0.0
  0
LINE
  5
16C
330
1F
100
AcDbEntity
  8
0-4
  6
Continuous
 62
     7
370
     9
100
AcDbLine
 10
29.6000470135663
 20
54.37573416168624
 30
0.0
 11
24.64283760689401
 21
53.72311162948608
 31
0.0
  0
LINE
  5
16D
330
1F
100
AcDbEntity
  8
0-4
  6
Continuous
 62
     7
370
     9
100
AcDbLine
 10
-74.89997608081714
 20
70.3757374608839
 30
0.0
 11
32.09993154164911
 21
70.3757374608839
 31
0.0
  0
LINE
  5
16E
330
1F
100
AcDbEntity
  8
0-4
  6
Continuous
 62
     7
370
     9
100
AcDbLine
 10
-74.89997608081714
 20
7.375752307273217
 30
0.0
 11
-74.89997608081714
 21
70.97572954280957
 31
0.0
  0
LINE
  5
16F
330
1F
100
AcDbEntity
  8
0-4
  6
Continuous
 62
     7
370
     9
100
AcDbLine
 10
32.09993154164911
 20
7.375752307273217
 30
0.0
 11
32.09993154164911
 21
70.97572954280957
 31
0.0
  0
LINE
  5
170
330
1F
100
AcDbEntity
  8
0-4
  6
Continuous
 62
     7
370
     9
100
AcDbLine
 10
-74.89997608081714
 20
70.3757374608839
 30
0.0
 11
-69.94274193016255
 21
71.02835999308405
 31
0.0
  0
LINE
  5
171
330
1F
100
AcDbEntity
  8
0-4
  6
Continuous
 62
     7
370
     9
100
AcDbLine
 10
-74.89997608081714
 20
70.3757374608839
 30
0.0
 11
-69.94274193016255
 21
69.72311492868369
 31
0.0
  0
LINE
  5
172
330
1F
100
AcDbEntity
  8
0-4
  6
Continuous
 62
     7
370
     9
100
AcDbLine
 10
32.09993154164911
 20
70.3757374608839
 30
0.0
 11
27.14272213497676
 21
71.02835999308405
 31
0.0
  0
LINE
  5
173
330
1F
100
AcDbEntity
  8
0-4
  6
Continuous
 62
     7
370
     9
100
AcDbLine
 10
32.09993154164911
 20
70.3757374608839
 30
0.0
 11
27.14272213497676
 21
69.72311492868369
 31
0.0
  0
LINE
  5
174
330
1F
100
AcDbEntity
  8
0-4
  6
Continuous
 62
     7
370
     9
100
AcDbLine
 10
-96.39992329365498
 20
86.37571601609926
 30
0.0
 11
53.59997773041599
 21
86.37571601609926
 31
0.0
  0
LINE
  5
175
330
1F
100
AcDbEntity
  8
0-4
  6
Continuous
 62
     7
370
     9
100
AcDbLine
 10
-96.39992329365498
 20
-0.6242988302901153
 30
0.0
 11
-96.39992329365498
 21
86.97570809802494
 31
0.0
  0
LINE
  5
176
330
1F
100
AcDbEntity
  8
0-4
  6
Continuous
 62
     7
370
     9
100
AcDbLine
 10
53.59997773041599
 20
-0.6242988302901153
 30
0.0
 11
53.59997773041599
 21
86.97570809802494
 31
0.0
  0
LINE
  5
177
330
1F
100
AcDbEntity
  8
0-4
  6
Continuous
 62
     7
370
     9
100
AcDbLine
 10
-96.39992329365498
 20
86.37571601609926
 30
0.0
 11
-91.44266439901816
 21
87.02836329228171
 31
0.0
  0
LINE
  5
178
330
1F
100
AcDbEntity
  8
0-4
  6
Continuous
 62
     7
370
     9
100
AcDbLine
 10
-96.39992329365498
 20
86.37571601609926
 30
0.0
 11
-91.44266439901816
 21
85.72311822788134
 31
0.0
  0
LINE
  5
179
330
1F
100
AcDbEntity
  8
0-4
  6
Continuous
 62
     7
370
     9
100
AcDbLine
 10
53.59997773041599
 20
86.37571601609926
 30
0.0
 11
48.6427683237437
 21
87.02836329228171
 31
0.0
  0
LINE
  5
17A
330
1F
100
AcDbEntity
  8
0-4
  6
Continuous
 62
     7
370
     9
100
AcDbLine
 10
53.59997773041599
 20
86.37571601609926
 30
0.0
 11
48.6427683237437
 21
85.72311822788134
 31
0.0
  0
LINE
  5
17B
330
1F
100
AcDbEntity
  8
0-4
  6
Continuous
 62
     7
370
     9
100
AcDbLine
 10
-49.62934289880698
 20
-97.62424769272678
 30
0.0
 11
6.829397335568018
 21
-97.62424769272678
 31
0.0
  0
LINE
  5
17C
330
1F
100
AcDbEntity
  8
0-4
  6
Continuous
 62
     7
370
     9
100
AcDbLine
 10
-49.62934289880698
 20
-61.04665386354603
 30
0.0
 11
-49.62934289880698
 21
-98.22423977465246
 31
0.0
  0
LINE
  5
17D
330
1F
100
AcDbEntity
  8
0-4
  6
Continuous
 62
     7
370
     9
100
AcDbLine
 10
6.829397335568018
 20
-61.04665386354603
 30
0.0
 11
6.829397335568018
 21
-98.22423977465246
 31
0.0
  0
LINE
  5
17E
330
1F
100
AcDbEntity
  8
0-4
  6
Continuous
 62
     7
370
     9
100
AcDbLine
 10
-49.62934289880698
 20
-97.62424769272678
 30
0.0
 11
-44.67208400417016
 21
-96.97160041654433
 31
0.0
  0
LINE
  5
17F
330
1F
100
AcDbEntity
  8
0-4
  6
Continuous
 62
     7
370
     9
100
AcDbLine
 10
-49.62934289880698
 20
-97.62424769272678
 30
0.0
 11
-44.67208400417016
 21
-98.2768949689092
 31
0.0
  0
LINE
  5
180
330
1F
100
AcDbEntity
  8
0-4
  6
Continuous
 62
     7
370
     9
100
AcDbLine
 10
6.829397335568018
 20
-97.62424769272678
 30
0.0
 11
1.872187928895727
 21
-96.97160041654433
 31
0.0
  0
LINE
  5
181
330
1F
100
AcDbEntity
  8
0-4
  6
Continuous
 62
     7
370
     9
100
AcDbLine
 10
6.829397335568018
 20
-97.62424769272678
 30
0.0
 11
1.872187928895727
 21
-98.2768949689092
 31
0.0
  0
LINE
  5
182
330
1F
100
AcDbEntity
  8
0-4
  6
Continuous
 62
     7
370
     9
100
AcDbLine
 10
-61.3999562856313
 20
-113.6242262479421
 30
0.0
 11
18.60001072239234
 21
-113.6242262479421
 31
0.0
  0
LINE
  5
183
330
1F
100
AcDbEntity
  8
0-4
  6
Continuous
 62
     7
370
     9
100
AcDbLine
 10
-61.3999562856313
 20
-82.62424769272678
 30
0.0
 11
-61.3999562856313
 21
-114.2242430738501
 31
0.0
  0
LINE
  5
184
330
1F
100
AcDbEntity
  8
0-4
  6
Continuous
 62
     7
370
     9
100
AcDbLine
 10
18.60001072239234
 20
-82.62424769272678
 30
0.0
 11
18.60001072239234
 21
-114.2242430738501
 31
0.0
  0
LINE
  5
185
330
1F
100
AcDbEntity
  8
0-4
  6
Continuous
 62
     7
370
     9
100
AcDbLine
 10
-61.3999562856313
 20
-113.6242262479421
 30
0.0
 11
-56.44272213497678
 21
-112.9716284597242
 31
0.0
  0
LINE
  5
186
330
1F
100
AcDbEntity
  8
0-4
  6
Continuous
 62
     7
370
     9
100
AcDbLine
 10
-61.3999562856313
 20
-113.6242262479421
 30
0.0
 11
-56.44272213497678
 21
-114.2768982681068
 31
0.0
  0
LINE
  5
187
330
1F
100
AcDbEntity
  8
0-4
  6
Continuous
 62
     7
370
     9
100
AcDbLine
 10
18.60001072239234
 20
-113.6242262479421
 30
0.0
 11
13.64280131572005
 21
-112.9716284597242
 31
0.0
  0
LINE
  5
188
330
1F
100
AcDbEntity
  8
0-4
  6
Continuous
 62
     7
370
     9
100
AcDbLine
 10
18.60001072239234
 20
-113.6242262479421
 30
0.0
 11
13.64280131572005
 21
-114.2768982681068
 31
0.0
  0
LINE
  5
189
330
1F
100
AcDbEntity
  8
0-4
  6
Continuous
 62
     7
370
     9
100
AcDbLine
 10
73.59994473843963
 20
-37.62424769272678
 30
0.0
 11
73.59994473843963
 21
2.375785299249571
 31
0.0
  0
LINE
  5
18A
330
1F
100
AcDbEntity
  8
0-4
  6
Continuous
 62
     7
370
     9
100
AcDbLine
 10
23.60002721838052
 20
-37.62424769272678
 30
0.0
 11
74.19998630832984
 21
-37.62424769272678
 31
0.0
  0
LINE
  5
18B
330
1F
100
AcDbEntity
  8
0-4
  6
Continuous
 62
     7
370
     9
100
AcDbLine
 10
57.59994143924197
 20
2.375785299249571
 30
0.0
 11
90.20001435150974
 21
2.375785299249571
 31
0.0
  0
LINE
  5
18C
330
1F
100
AcDbEntity
  8
0-4
  6
Continuous
 62
     7
370
     9
100
AcDbLine
 10
73.59994473843963
 20
-37.62424769272678
 30
0.0
 11
72.94734695022171
 21
-32.66698879808993
 31
0.0
  0
LINE
  5
18D
330
1F
100
AcDbEntity
  8
0-4
  6
Continuous
 62
     7
370
     9
100
AcDbLine
 10
73.59994473843963
 20
-37.62424769272678
 30
0.0
 11
74.25264150258661
 21
-32.66698879808993
 31
0.0
  0
LINE
  5
18E
330
1F
100
AcDbEntity
  8
0-4
  6
Continuous
 62
     7
370
     9
100
AcDbLine
 10
73.59994473843963
 20
2.375785299249571
 30
0.0
 11
72.94734695022171
 21
-2.581448851404957
 31
0.0
  0
LINE
  5
18F
330
1F
100
AcDbEntity
  8
0-4
  6
Continuous
 62
     7
370
     9
100
AcDbLine
 10
73.59994473843963
 20
2.375785299249571
 30
0.0
 11
74.25264150258661
 21
-2.581448851404957
 31
0.0
  0
LINE
  5
190
330
1F
100
AcDbEntity
  8
0-4
  6
Continuous
 62
     7
370
     9
100
AcDbLine
 10
89.60002226958406
 20
-77.6242311967386
 30
0.0
 11
89.60002226958406
 21
2.375785299249571
 31
0.0
  0
LINE
  5
191
330
1F
100
AcDbEntity
  8
0-4
  6
Continuous
 62
     7
370
     9
100
AcDbLine
 10
23.60002721838052
 20
-77.6242311967386
 30
0.0
 11
90.20001435150974
 21
-77.6242311967386
 31
0.0
  0
LINE
  5
192
330
1F
100
AcDbEntity
  8
0-4
  6
Continuous
 62
     7
370
     9
100
AcDbLine
 10
89.60002226958406
 20
-77.6242311967386
 30
0.0
 11
88.94737499340161
 21
-72.66702179006629
 31
0.0
  0
LINE
  5
193
330
1F
100
AcDbEntity
  8
0-4
  6
Continuous
 62
     7
370
     9
100
AcDbLine
 10
89.60002226958406
 20
-77.6242311967386
 30
0.0
 11
90.25266954576651
 21
-72.66702179006629
 31
0.0
  0
LINE
  5
194
330
1F
100
AcDbEntity
  8
0-4
  6
Continuous
 62
     7
370
     9
100
AcDbLine
 10
89.60002226958406
 20
2.375785299249571
 30
0.0
 11
88.94737499340161
 21
-2.581448851404957
 31
0.0
  0
LINE
  5
195
330
1F
100
AcDbEntity
  8
0-4
  6
Continuous
 62
     7
370
     9
100
AcDbLine
 10
89.60002226958406
 20
2.375785299249571
 30
0.0
 11
90.25266954576651
 21
-2.581448851404957
 31
0.0
  0
LINE
  5
196
330
1F
100
AcDbEntity
  8
0-4
  6
Continuous
 62
     7
370
     9
100
AcDbLine
 10
89.60002226958406
 20
2.375785299249571
 30
0.0
 11
89.60002226958406
 21
34.37574240968036
 31
0.0
  0
LINE
  5
197
330
1F
100
AcDbEntity
  8
0-4
  6
Continuous
 62
     7
370
     9
100
AcDbLine
 10
89.60002226958406
 20
2.375785299249571
 30
0.0
 11
88.94737499340161
 21
7.333019449904157
 31
0.0
  0
LINE
  5
198
330
1F
100
AcDbEntity
  8
0-4
  6
Continuous
 62
     7
370
     9
100
AcDbLine
 10
89.60002226958406
 20
2.375785299249571
 30
0.0
 11
90.25266954576651
 21
7.333019449904157
 31
0.0
  0
LINE
  5
199
330
1F
100
AcDbEntity
  8
0-4
  6
Continuous
 62
     7
370
     9
100
AcDbLine
 10
89.60002226958406
 20
34.37574240968036
 30
0.0
 11
88.94737499340161
 21
29.41850825902577
 31
0.0
  0
LINE
  5
19A
330
1F
100
AcDbEntity
  8
0-4
  6
Continuous
 62
     7
370
     9
100
AcDbLine
 10
89.60002226958406
 20
34.37574240968036
 30
0.0
 11
90.25266954576651
 21
29.41850825902577
 31
0.0
  0
LINE
  5
19B
330
1F
100
AcDbEntity
  8
0-4
  6
Continuous
 62
     7
370
     9
100
AcDbLine
 10
-116.3999150456609
 20
-10.62423284633741
 30
0.0
 11
-116.3999150456609
 21
34.37574240968036
 31
0.0
  0
LINE
  5
19C
330
1F
100
AcDbEntity
  8
0-4
  6
Continuous
 62
     7
370
     9
100
AcDbLine
 10
-76.97663953626474
 20
-10.62423284633741
 30
0.0
 11
-116.9999071275866
 21
-10.62423284633741
 31
0.0
  0
LINE
  5
19D
330
1F
100
AcDbEntity
  8
0-4
  6
Continuous
 62
     7
370
     9
100
AcDbLine
 10
-116.3999150456609
 20
-10.62423284633741
 30
0.0
 11
-117.052537577861
 21
-5.667023439665115
 31
0.0
  0
LINE
  5
19E
330
1F
100
AcDbEntity
  8
0-4
  6
Continuous
 62
     7
370
     9
100
AcDbLine
 10
-116.3999150456609
 20
-10.62423284633741
 30
0.0
 11
-115.7472925134607
 21
-5.667023439665115
 31
0.0
  0
LINE
  5
19F
330
1F
100
AcDbEntity
  8
0-4
  6
Continuous
 62
     7
370
     9
100
AcDbLine
 10
-116.3999150456609
 20
34.37574240968036
 30
0.0
 11
-117.052537577861
 21
29.41850825902577
 31
0.0
  0
LINE
  5
1A0
330
1F
100
AcDbEntity
  8
0-4
  6
Continuous
 62
     7
370
     9
100
AcDbLine
 10
-116.3999150456609
 20
34.37574240968036
 30
0.0
 11
-115.7472925134607
 21
29.41850825902577
 31
0.0
  0
LINE
  5
1A1
330
1F
100
AcDbEntity
  8
0-4
  6
Continuous
 62
     7
370
     9
100
AcDbLine
 10
2.776481504698069
 20
34.37574240968036
 30
0.0
 11
90.20001435150974
 21
34.37574240968036
 31
0.0
  0
LINE
  5
1A2
330
1F
100
AcDbEntity
  8
0-2
  6
Continuous
 62
     6
370
     5
100
AcDbLine
 10
-46.3999562856313
 20
31.7991762805629
 30
0.0
 11
-47.89996123442776
 21
27.96086500786447
 31
0.0
  0
LINE
  5
1A3
330
1F
100
AcDbEntity
  8
0-4
  6
Continuous
 62
     7
370
     9
100
AcDbLine
 10
-45.57642706793709
 20
34.37574240968036
 30
0.0
 11
-116.9999071275866
 21
34.37574240968036
 31
0.0
  0
ARC
  5
1A4
330
1F
100
AcDbEntity
  8
0-0
  6
Continuous
 62
     3
370
     9
100
AcDbCircle
 10
-88.3089380212732
 20
-15.37520116084332
 30
0.0
 40
10.99999917520059
100
AcDbArc
 50
71.99996948242188
 51
117.5689697265625
  0
ARC
  5
1A5
330
1F
100
AcDbEntity
  8
0-0
  6
Continuous
 62
     3
370
     9
100
AcDbCircle
 10
-81.18470013592693
 20
1.236349659997074
 30
0.0
 40
3.000000038662472
100
AcDbArc
 50
252.0001525878906
 51
348.7693023681641
  0
ARC
  5
1A6
330
1F
100
AcDbEntity
  8
0-0
  6
Continuous
 62
     3
370
     9
100
AcDbCircle
 10
-54.01862842456714
 20
-56.1242592399185
 30
0.0
 40
1.500000019331236
100
AcDbArc
 50
184.7178497314453
 51
270.0
  0
ARC
  5
1A7
330
1F
100
AcDbEntity
  8
0-0
  6
Continuous
 62
     3
370
     9
100
AcDbCircle
 10
-69.95226836333401
 20
-13.30405561344043
 30
0.0
 40
3.000000038662472
100
AcDbArc
 50
186.9997253417969
 51
266.0001831054688
  0
ARC
  5
1A8
330
1F
100
AcDbEntity
  8
0-0
  6
Continuous
 62
     3
370
     9
100
AcDbCircle
 10
-63.30502022408152
 20
-28.62426748791259
 30
0.0
 40
1.000000012887491
100
AcDbArc
 50
5.710800170898438
 51
90.00000000000001
  0
ARC
  5
1A9
330
1F
100
AcDbEntity
  8
0-0
  6
Continuous
 62
     3
370
     9
100
AcDbCircle
 10
-57.97123215134079
 20
-38.62430047988894
 30
0.0
 40
1.000000012887491
100
AcDbArc
 50
4.717132568359375
 51
90.00000000000001
  0
ARC
  5
1AA
330
1F
100
AcDbEntity
  8
0-0
  6
Continuous
 62
     3
370
     9
100
AcDbCircle
 10
-49.39996618322422
 20
-38.62430047988894
 30
0.0
 40
3.000000038662472
100
AcDbArc
 50
90.0
 51
180.0
  0
ARC
  5
1AB
330
1F
100
AcDbEntity
  8
0-0
  6
Continuous
 62
     3
370
     9
100
AcDbCircle
 10
-56.40003876557219
 20
-20.26636887885431
 30
0.0
 40
3.000000038662472
100
AcDbArc
 50
5.999908447265625
 51
85.99993896484375
  0
ARC
  5
1AC
330
1F
100
AcDbEntity
  8
0-0
  6
Continuous
 62
     3
370
     9
100
AcDbCircle
 10
-49.6281056996938
 20
-27.29623321584754
 30
0.0
 40
3.000000038662472
100
AcDbArc
 50
186.0001678466797
 51
254.0544128417969
  0
ARC
  5
1AD
330
1F
100
AcDbEntity
  8
0-0
  6
Continuous
 62
     3
370
     9
100
AcDbCircle
 10
-49.76098088444891
 20
-31.41833322112626
 30
0.0
 40
1.000000012887491
100
AcDbArc
 50
11.30950927734375
 51
74.05381774902344
  0
ARC
  5
1AE
330
1F
100
AcDbEntity
  8
0-0
  6
Continuous
 62
     3
370
     9
100
AcDbCircle
 10
-81.5029819797825
 20
-8.123482278875429
 30
0.0
 40
2.000000025774982
100
AcDbArc
 50
5.665267944335938
 51
72.00004577636719
  0
ARC
  5
1AF
330
1F
100
AcDbEntity
  8
0-0
  6
JWW_DASHED1
 62
     3
370
     9
100
AcDbCircle
 10
-63.40199189057219
 20
-23.78649728362626
 30
0.0
 40
3.000000038662472
100
AcDbArc
 50
4.716918945312501
 51
86.0004119873047
  0
ARC
  5
1B0
330
1F
100
AcDbEntity
  8
0-0
  6
JWW_DASHED1
 62
     3
370
     9
100
AcDbCircle
 10
-79.5792115907411
 20
-8.748564758816315
 30
0.0
 40
2.000000025774982
100
AcDbArc
 50
7.000030517578125
 51
71.99937438964845
  0
ARC
  5
1B1
330
1F
100
AcDbEntity
  8
0-0
  6
JWW_DASHED1
 62
     3
370
     9
100
AcDbCircle
 10
-72.62855274097339
 20
-16.12427573590668
 30
0.0
 40
4.000000051549963
100
AcDbArc
 50
186.9998626708984
 51
266.0001831054688
  0
ARC
  5
1B2
330
1F
100
AcDbEntity
  8
0-0
  6
Continuous
 62
     3
370
     9
100
AcDbCircle
 10
-60.49496987832558
 20
-36.62426913751139
 30
0.0
 40
1.000000012887491
100
AcDbArc
 50
185.7108764648438
 51
270.0
  0
ARC
  5
1B3
330
1F
100
AcDbEntity
  8
0-0
  6
Continuous
 62
     3
370
     9
100
AcDbCircle
 10
45.50899245803421
 20
-15.37520116084332
 30
0.0
 40
10.99999917520059
100
AcDbArc
 50
62.4310302734375
 51
108.0000305175781
  0
ARC
  5
1B4
330
1F
100
AcDbEntity
  8
0-0
  6
Continuous
 62
     3
370
     9
100
AcDbCircle
 10
38.38475457268797
 20
1.236349659997074
 30
0.0
 40
3.000000038662472
100
AcDbArc
 50
191.230697631836
 51
287.9998474121094
  0
ARC
  5
1B5
330
1F
100
AcDbEntity
  8
0-0
  6
Continuous
 62
     3
370
     9
100
AcDbCircle
 10
11.21863337336364
 20
-56.1242592399185
 30
0.0
 40
1.500000019331236
100
AcDbArc
 50
270.0
 51
355.2821502685547
  0
ARC
  5
1B6
330
1F
100
AcDbEntity
  8
0-0
  6
JWW_DASHED1
 62
     3
370
     9
100
AcDbCircle
 10
27.15227331213052
 20
-13.30405561344043
 30
0.0
 40
3.000000038662472
100
AcDbArc
 50
273.9998168945312
 51
353.0002746582031
  0
ARC
  5
1B7
330
1F
100
AcDbEntity
  8
0-0
  6
Continuous
 62
     3
370
     9
100
AcDbCircle
 10
15.17128658810176
 20
-38.62430047988894
 30
0.0
 40
1.000000012887491
100
AcDbArc
 50
90.0
 51
175.2828674316407
  0
ARC
  5
1B8
330
1F
100
AcDbEntity
  8
0-0
  6
Continuous
 62
     3
370
     9
100
AcDbCircle
 10
6.600020619985258
 20
-38.62430047988894
 30
0.0
 40
3.000000038662472
100
AcDbArc
 50
0.0
 51
90.0
  0
ARC
  5
1B9
330
1F
100
AcDbEntity
  8
0-0
  6
Continuous
 62
     3
370
     9
100
AcDbCircle
 10
6.600020619985258
 20
-40.62425759031967
 30
0.0
 40
3.000000038662472
100
AcDbArc
 50
270.0
 51
0.0
  0
ARC
  5
1BA
330
1F
100
AcDbEntity
  8
0-0
  6
Continuous
 62
     3
370
     9
100
AcDbCircle
 10
13.60009320233323
 20
-20.26636887885431
 30
0.0
 40
3.000000038662472
100
AcDbArc
 50
94.00006103515625
 51
174.0000915527344
  0
ARC
  5
1BB
330
1F
100
AcDbEntity
  8
0-0
  6
Continuous
 62
     3
370
     9
100
AcDbCircle
 10
6.828160136454841
 20
-27.29623321584754
 30
0.0
 40
3.000000038662472
100
AcDbArc
 50
285.9455871582031
 51
353.9998321533203
  0
ARC
  5
1BC
330
1F
100
AcDbEntity
  8
0-0
  6
Continuous
 62
     3
370
     9
100
AcDbCircle
 10
6.960936345280828
 20
-31.41833322112626
 30
0.0
 40
1.000000012887491
100
AcDbArc
 50
105.9461822509766
 51
168.6904907226562
  0
ARC
  5
1BD
330
1F
100
AcDbEntity
  8
0-0
  6
Continuous
 62
     3
370
     9
100
AcDbCircle
 10
20.60204632733323
 20
-23.78649728362626
 30
0.0
 40
3.000000038662472
100
AcDbArc
 50
93.99958801269531
 51
175.2830810546875
  0
ARC
  5
1BE
330
1F
100
AcDbEntity
  8
0-0
  6
Continuous
 62
     3
370
     9
100
AcDbCircle
 10
36.77926602750213
 20
-8.748564758816315
 30
0.0
 40
2.000000025774982
100
AcDbArc
 50
108.0006256103516
 51
172.9999694824219
  0
ARC
  5
1BF
330
1F
100
AcDbEntity
  8
0-0
  6
Continuous
 62
     3
370
     9
100
AcDbCircle
 10
29.82858243375213
 20
-16.12427573590668
 30
0.0
 40
4.000000051549963
100
AcDbArc
 50
273.9998168945312
 51
353.0001373291016
  0
ARC
  5
1C0
330
1F
100
AcDbEntity
  8
0-0
  6
Continuous
 62
     3
370
     9
100
AcDbCircle
 10
15.52913405959671
 20
-36.62426913751139
 30
0.0
 40
1.000000012887491
100
AcDbArc
 50
270.0
 51
355.2828674316407
  0
ARC
  5
1C1
330
1F
100
AcDbEntity
  8
0-0
  6
Continuous
 62
     3
370
     9
100
AcDbCircle
 10
20.70052737674197
 20
-12.12423779513387
 30
0.0
 40
1.500000019331236
100
AcDbArc
 50
90.0
 51
162.5307922363281
  0
ARC
  5
1C2
330
1F
100
AcDbEntity
  8
0-0
  6
Continuous
 62
     3
370
     9
100
AcDbCircle
 10
29.17672696500213
 20
-9.124227897540948
 30
0.0
 40
1.500000019331236
100
AcDbArc
 50
270.0
 51
353.0005340576172
  0
ARC
  5
1C3
330
1F
100
AcDbEntity
  8
0-0
  6
Continuous
 62
     3
370
     9
100
AcDbCircle
 10
16.47598728489234
 20
-15.55424861650209
 30
0.0
 40
1.500000019331236
100
AcDbArc
 50
273.9983520507812
 51
342.5294342041016
  0
ARC
  5
1C4
330
1F
100
AcDbEntity
  8
0-0
  6
JWW_PHANTOM2
 62
     3
370
     9
100
AcDbCircle
 10
-63.50047293998099
 20
-12.12423779513387
 30
0.0
 40
1.500000019331236
100
AcDbArc
 50
17.46920776367188
 51
90.00000000000001
  0
ARC
  5
1C5
330
1F
100
AcDbEntity
  8
0-0
  6
JWW_PHANTOM2
 62
     3
370
     9
100
AcDbCircle
 10
-71.97664778425886
 20
-9.124227897540948
 30
0.0
 40
1.500000019331236
100
AcDbArc
 50
186.9994659423828
 51
270.0
  0
ARC
  5
1C6
330
1F
100
AcDbEntity
  8
0-0
  6
JWW_PHANTOM2
 62
     3
370
     9
100
AcDbCircle
 10
-59.2759328481313
 20
-15.55424861650209
 30
0.0
 40
1.500000019331236
100
AcDbArc
 50
197.4705657958984
 51
266.0016479492188
  0
ARC
  5
1C7
330
1F
100
AcDbEntity
  8
0-0
  6
Continuous
 62
     3
370
     9
100
AcDbCircle
 10
-21.39997278161948
 20
161.9433924571888
 30
0.0
 40
75.0
100
AcDbArc
 50
0.0
 51
180.0
  0
ARC
  5
1C8
330
1F
100
AcDbEntity
  8
0-0
  6
Continuous
 62
     3
370
     9
100
AcDbCircle
 10
-21.39997278161948
 20
161.9433924571888
 30
0.0
 40
74.0000090727935
100
AcDbArc
 50
0.0
 51
180.0
  0
ARC
  5
1C9
330
1F
100
AcDbEntity
  8
0-0
  6
Continuous
 62
     3
370
     9
100
AcDbCircle
 10
-21.39997278161948
 20
161.9433924571888
 30
0.0
 40
56.50000701079498
100
AcDbArc
 50
0.0
 51
9.433181762695312
  0
ARC
  5
1CA
330
1F
100
AcDbEntity
  8
0-0
  6
Continuous
 62
     3
370
     9
100
AcDbCircle
 10
-21.39997278161948
 20
161.9433924571888
 30
0.0
 40
53.50000329919764
100
AcDbArc
 50
0.0
 51
9.3311767578125
  0
ARC
  5
1CB
330
1F
100
AcDbEntity
  8
0-0
  6
Continuous
 62
     3
370
     9
100
AcDbCircle
 10
-21.39997278161948
 20
161.9433924571888
 30
0.0
 40
56.50000701079498
100
AcDbArc
 50
171.9335174560547
 51
180.0
  0
ARC
  5
1CC
330
1F
100
AcDbEntity
  8
0-0
  6
Continuous
 62
     3
370
     9
100
AcDbCircle
 10
-21.39997278161948
 20
161.9433924571888
 30
0.0
 40
53.50000329919764
100
AcDbArc
 50
172.1123352050782
 51
180.0
  0
ARC
  5
1CD
330
1F
100
AcDbEntity
  8
0-0
  6
Continuous
 62
     3
370
     9
100
AcDbCircle
 10
-21.39997278161948
 20
161.9433924571888
 30
0.0
 40
52.69000285380596
100
AcDbArc
 50
169.5902709960938
 51
180.0
  0
ARC
  5
1CE
330
1F
100
AcDbEntity
  8
0-0
  6
Continuous
 62
     3
370
     9
100
AcDbCircle
 10
-21.39997278161948
 20
161.9433924571888
 30
0.0
 40
57.49999793800148
100
AcDbArc
 50
169.3854370117188
 51
180.0
  0
ARC
  5
1CF
330
1F
100
AcDbEntity
  8
0-0
  6
Continuous
 62
     3
370
     9
100
AcDbCircle
 10
-21.39997278161948
 20
161.9433924571888
 30
0.0
 40
57.49999793800148
100
AcDbArc
 50
143.6711730957031
 51
164.9002685546875
  0
ARC
  5
1D0
330
1F
100
AcDbEntity
  8
0-0
  6
Continuous
 62
     3
370
     9
100
AcDbCircle
 10
-21.39997278161948
 20
161.9433924571888
 30
0.0
 40
56.50000701079498
100
AcDbArc
 50
146.2192840576172
 51
162.3521728515625
  0
ARC
  5
1D1
330
1F
100
AcDbEntity
  8
0-0
  6
Continuous
 62
     3
370
     9
100
AcDbCircle
 10
-21.39997278161948
 20
161.9433924571888
 30
0.0
 40
53.50000329919764
100
AcDbArc
 50
146.3980865478516
 51
162.1733703613282
  0
ARC
  5
1D2
330
1F
100
AcDbEntity
  8
0-0
  6
Continuous
 62
     3
370
     9
100
AcDbCircle
 10
-21.39997278161948
 20
161.9433924571888
 30
0.0
 40
52.69000285380596
100
AcDbArc
 50
143.8760070800781
 51
164.6954345703125
  0
ARC
  5
1D3
330
1F
100
AcDbEntity
  8
0-0
  6
Continuous
 62
     3
370
     9
100
AcDbCircle
 10
-21.39997278161948
 20
161.9433924571888
 30
0.0
 40
57.49999793800148
100
AcDbArc
 50
117.9568634033203
 51
139.1859588623047
  0
ARC
  5
1D4
330
1F
100
AcDbEntity
  8
0-0
  6
Continuous
 62
     3
370
     9
100
AcDbCircle
 10
-21.39997278161948
 20
161.9433924571888
 30
0.0
 40
56.50000701079498
100
AcDbArc
 50
120.5049438476562
 51
136.6378326416016
  0
ARC
  5
1D5
330
1F
100
AcDbEntity
  8
0-0
  6
Continuous
 62
     3
370
     9
100
AcDbCircle
 10
-21.39997278161948
 20
161.9433924571888
 30
0.0
 40
53.50000329919764
100
AcDbArc
 50
120.6837463378906
 51
136.4590301513672
  0
ARC
  5
1D6
330
1F
100
AcDbEntity
  8
0-0
  6
Continuous
 62
     3
370
     9
100
AcDbCircle
 10
-21.39997278161948
 20
161.9433924571888
 30
0.0
 40
52.69000285380596
100
AcDbArc
 50
118.1616973876953
 51
138.9811248779297
  0
ARC
  5
1D7
330
1F
100
AcDbEntity
  8
0-0
  6
Continuous
 62
     3
370
     9
100
AcDbCircle
 10
-21.39997278161948
 20
161.9433924571888
 30
0.0
 40
57.49999793800148
100
AcDbArc
 50
92.2425994873047
 51
113.4716949462891
  0
ARC
  5
1D8
330
1F
100
AcDbEntity
  8
0-0
  6
Continuous
 62
     3
370
     9
100
AcDbCircle
 10
-21.39997278161948
 20
161.9433924571888
 30
0.0
 40
56.50000701079498
100
AcDbArc
 50
94.7906951904297
 51
110.923583984375
  0
ARC
  5
1D9
330
1F
100
AcDbEntity
  8
0-0
  6
Continuous
 62
     3
370
     9
100
AcDbCircle
 10
-21.39997278161948
 20
161.9433924571888
 30
0.0
 40
53.50000329919764
100
AcDbArc
 50
94.96952819824219
 51
110.7448120117188
  0
ARC
  5
1DA
330
1F
100
AcDbEntity
  8
0-0
  6
Continuous
 62
     3
370
     9
100
AcDbCircle
 10
-21.39997278161948
 20
161.9433924571888
 30
0.0
 40
52.69000285380596
100
AcDbArc
 50
92.44741821289062
 51
113.266845703125
  0
ARC
  5
1DB
330
1F
100
AcDbEntity
  8
0-0
  6
Continuous
 62
     3
370
     9
100
AcDbCircle
 10
-21.39997278161948
 20
161.9433924571888
 30
0.0
 40
57.49999793800148
100
AcDbArc
 50
66.52830505371094
 51
87.75740051269533
  0
ARC
  5
1DC
330
1F
100
AcDbEntity
  8
0-0
  6
Continuous
 62
     3
370
     9
100
AcDbCircle
 10
-21.39997278161948
 20
161.9433924571888
 30
0.0
 40
56.50000701079498
100
AcDbArc
 50
69.076416015625
 51
85.20930480957031
  0
ARC
  5
1DD
330
1F
100
AcDbEntity
  8
0-0
  6
Continuous
 62
     3
370
     9
100
AcDbCircle
 10
-21.39997278161948
 20
161.9433924571888
 30
0.0
 40
53.50000329919764
100
AcDbArc
 50
69.25518798828126
 51
85.03047180175781
  0
ARC
  5
1DE
330
1F
100
AcDbEntity
  8
0-0
  6
Continuous
 62
     3
370
     9
100
AcDbCircle
 10
-21.39997278161948
 20
161.9433924571888
 30
0.0
 40
52.69000285380596
100
AcDbArc
 50
66.733154296875
 51
87.55258178710938
  0
ARC
  5
1DF
330
1F
100
AcDbEntity
  8
0-0
  6
Continuous
 62
     3
370
     9
100
AcDbCircle
 10
-21.39997278161948
 20
161.9433924571888
 30
0.0
 40
57.49999793800148
100
AcDbArc
 50
40.81402587890625
 51
62.04312133789062
  0
ARC
  5
1E0
330
1F
100
AcDbEntity
  8
0-0
  6
Continuous
 62
     3
370
     9
100
AcDbCircle
 10
-21.39997278161948
 20
161.9433924571888
 30
0.0
 40
56.50000701079498
100
AcDbArc
 50
43.36210632324219
 51
59.49499511718751
  0
ARC
  5
1E1
330
1F
100
AcDbEntity
  8
0-0
  6
Continuous
 62
     3
370
     9
100
AcDbCircle
 10
-21.39997278161948
 20
161.9433924571888
 30
0.0
 40
53.50000329919764
100
AcDbArc
 50
43.54093933105469
 51
59.31622314453126
  0
ARC
  5
1E2
330
1F
100
AcDbEntity
  8
0-0
  6
Continuous
 62
     3
370
     9
100
AcDbCircle
 10
-21.39997278161948
 20
161.9433924571888
 30
0.0
 40
52.69000285380596
100
AcDbArc
 50
41.01885986328125
 51
61.83828735351563
  0
ARC
  5
1E3
330
1F
100
AcDbEntity
  8
0-0
  6
Continuous
 62
     3
370
     9
100
AcDbCircle
 10
-21.39997278161948
 20
161.9433924571888
 30
0.0
 40
57.49999793800148
100
AcDbArc
 50
15.09974670410156
 51
36.32884216308594
  0
ARC
  5
1E4
330
1F
100
AcDbEntity
  8
0-0
  6
Continuous
 62
     3
370
     9
100
AcDbCircle
 10
-21.39997278161948
 20
161.9433924571888
 30
0.0
 40
56.50000701079498
100
AcDbArc
 50
17.64785766601562
 51
33.78074645996094
  0
ARC
  5
1E5
330
1F
100
AcDbEntity
  8
0-0
  6
Continuous
 62
     3
370
     9
100
AcDbCircle
 10
-21.39997278161948
 20
161.9433924571888
 30
0.0
 40
53.50000329919764
100
AcDbArc
 50
17.82662963867188
 51
33.60191345214844
  0
ARC
  5
1E6
330
1F
100
AcDbEntity
  8
0-0
  6
Continuous
 62
     3
370
     9
100
AcDbCircle
 10
-21.39997278161948
 20
161.9433924571888
 30
0.0
 40
52.69000285380596
100
AcDbArc
 50
15.30458068847656
 51
36.12400817871094
  0
ARC
  5
1E7
330
1F
100
AcDbEntity
  8
0-0
  6
Continuous
 62
     3
370
     9
100
AcDbCircle
 10
-49.39996618322422
 20
-40.62425759031967
 30
0.0
 40
3.000000038662472
100
AcDbArc
 50
180.0
 51
270.0
  0
ARC
  5
1E8
330
1F
100
AcDbEntity
  8
0-0
  6
Continuous
 62
     3
370
     9
100
AcDbCircle
 10
-49.89999257680532
 20
-45.59920843227491
 30
0.0
 40
2.000000025774982
100
AcDbArc
 50
58.97770690917969
 51
84.26101684570312
  0
ARC
  5
1E9
330
1F
100
AcDbEntity
  8
0-0
  6
Continuous
 62
     3
370
     9
100
AcDbCircle
 10
7.100047013566297
 20
-45.59920843227491
 30
0.0
 40
2.000000025774982
100
AcDbArc
 50
95.73898315429689
 51
121.0222930908203
  0
ARC
  5
1EA
330
1F
100
AcDbEntity
  8
0-0
  6
Continuous
 62
     3
370
     9
100
AcDbCircle
 10
-76.20014862885344
 20
-26.12423449593624
 30
0.0
 40
1.500000019331236
100
AcDbArc
 50
185.6653137207031
 51
270.0
  0
ARC
  5
1EB
330
1F
100
AcDbEntity
  8
0-0
  6
Continuous
 62
     3
370
     9
100
AcDbCircle
 10
-77.39981112093537
 20
-42.62423944473269
 30
0.0
 40
2.000000025774982
100
AcDbArc
 50
270.0
 51
0.0
  0
ARC
  5
1EC
330
1F
100
AcDbEntity
  8
0-0
  6
Continuous
 62
     3
370
     9
100
AcDbCircle
 10
-77.39981112093537
 20
-42.62423944473269
 30
0.0
 40
8.000000103099927
100
AcDbArc
 50
270.0
 51
0.0
  0
ARC
  5
1ED
330
1F
100
AcDbEntity
  8
0-0
  6
JWW_CENTER1
 62
     3
370
     9
100
AcDbCircle
 10
-77.39995958482896
 20
-42.62423944473269
 30
0.0
 40
5.000000257749815
100
AcDbArc
 50
270.0
 51
0.0
  0
ARC
  5
1EE
330
1F
100
AcDbEntity
  8
0-2
  6
Continuous
 62
     6
370
     5
100
AcDbCircle
 10
-70.58019640123521
 20
-9.62427903510428
 30
0.0
 40
1.000000012887491
100
AcDbArc
 50
191.3099365234376
 51
270.0
  0
ARC
  5
1EF
330
1F
100
AcDbEntity
  8
0-2
  6
Continuous
 62
     6
370
     5
100
AcDbCircle
 10
-21.39997278161948
 20
-165.6242740863079
 30
0.0
 40
196.0000156711888
100
AcDbArc
 50
90.0
 51
96.9430389404297
  0
ARC
  5
1F0
330
1F
100
AcDbEntity
  8
0-2
  6
Continuous
 62
     6
370
     5
100
AcDbCircle
 10
-21.39997278161948
 20
-165.6242740863079
 30
0.0
 40
200.0000164959882
100
AcDbArc
 50
90.0
 51
96.94302368164062
  0
ARC
  5
1F1
330
1F
100
AcDbEntity
  8
0-2
  6
Continuous
 62
     6
370
     5
100
AcDbCircle
 10
-44.24673494906037
 20
21.98979567192697
 30
0.0
 40
6.999999896900074
100
AcDbArc
 50
96.94316101074219
 51
165.0000457763672
  0
ARC
  5
1F2
330
1F
100
AcDbEntity
  8
0-2
  6
Continuous
 62
     6
370
     5
100
AcDbCircle
 10
-44.24673494906037
 20
21.98979567192697
 30
0.0
 40
11.00000072169948
100
AcDbArc
 50
96.94294738769531
 51
165.0
  0
ARC
  5
1F3
330
1F
100
AcDbEntity
  8
0-2
  6
Continuous
 62
     6
370
     5
100
AcDbCircle
 10
-61.76725595835089
 20
-8.624275735906679
 30
0.0
 40
2.000000025774982
100
AcDbArc
 50
270.0
 51
344.9999084472656
  0
ARC
  5
1F4
330
1F
100
AcDbEntity
  8
0-2
  6
Continuous
 62
     6
370
     5
100
AcDbCircle
 10
-64.06686269399282
 20
-3.683595309386419
 30
0.0
 40
1.500000019331236
100
AcDbArc
 50
273.0126342773438
 51
344.9995422363281
  0
ARC
  5
1F5
330
1F
100
AcDbEntity
  8
0-2
  6
Continuous
 62
     6
370
     5
100
AcDbCircle
 10
-21.39997278161948
 20
-165.6242740863079
 30
0.0
 40
199.0000008247994
100
AcDbArc
 50
94.3228759765625
 51
97.21702575683594
  0
ARC
  5
1F6
330
1F
100
AcDbEntity
  8
0-2
  6
Continuous
 62
     6
370
     5
100
AcDbCircle
 10
-21.39997278161948
 20
-165.6242740863079
 30
0.0
 40
196.0000156711888
100
AcDbArc
 50
83.05696105957031
 51
90.0
  0
ARC
  5
1F7
330
1F
100
AcDbEntity
  8
0-2
  6
Continuous
 62
     6
370
     5
100
AcDbCircle
 10
-21.39997278161948
 20
-165.6242740863079
 30
0.0
 40
200.0000164959882
100
AcDbArc
 50
83.0569763183594
 51
90.00000000000001
  0
ARC
  5
1F8
330
1F
100
AcDbEntity
  8
0-2
  6
Continuous
 62
     6
370
     5
100
AcDbCircle
 10
1.446739897856872
 20
21.98979567192697
 30
0.0
 40
6.999999896900074
100
AcDbArc
 50
14.99995422363279
 51
83.0568389892578
  0
ARC
  5
1F9
330
1F
100
AcDbEntity
  8
0-2
  6
Continuous
 62
     6
370
     5
100
AcDbCircle
 10
1.446739897856872
 20
21.98979567192697
 30
0.0
 40
11.00000072169948
100
AcDbArc
 50
15.00000000000001
 51
83.0570526123047
  0
ARC
  5
1FA
330
1F
100
AcDbEntity
  8
0-2
  6
Continuous
 62
     6
370
     5
100
AcDbCircle
 10
18.96726090714739
 20
-8.624275735906679
 30
0.0
 40
2.000000025774982
100
AcDbArc
 50
195.0000915527344
 51
270.0
  0
ARC
  5
1FB
330
1F
100
AcDbEntity
  8
0-2
  6
Continuous
 62
     6
370
     5
100
AcDbCircle
 10
21.2669171307538
 20
-3.683595309386419
 30
0.0
 40
1.500000019331236
100
AcDbArc
 50
195.0004577636719
 51
266.9873657226562
  0
ARC
  5
1FC
330
1F
100
AcDbEntity
  8
0-2
  6
Continuous
 62
     6
370
     5
100
AcDbCircle
 10
-65.52472864099448
 20
-9.124227897540948
 30
0.0
 40
1.500000019331236
100
AcDbArc
 50
270.0
 51
345.0000305175781
  0
ARC
  5
1FD
330
1F
100
AcDbEntity
  8
0-2
  6
Continuous
 62
     6
370
     5
100
AcDbCircle
 10
20.99478281381968
 20
-2.667854837469179
 30
0.0
 40
1.500000019331236
100
AcDbArc
 50
195.0004577636719
 51
266.9873657226562
  0
ARC
  5
1FE
330
1F
100
AcDbEntity
  8
0-2
  6
Continuous
 62
     6
370
     5
100
AcDbCircle
 10
27.78027558197849
 20
-9.62427903510428
 30
0.0
 40
1.000000012887491
100
AcDbArc
 50
325.0665130615234
 51
348.6900634765626
  0
ARC
  5
1FF
330
1F
100
AcDbEntity
  8
0-2
  6
Continuous
 62
     6
370
     5
100
AcDbCircle
 10
-21.39997278161948
 20
161.8556997840469
 30
0.0
 40
41.50000082479941
100
AcDbArc
 50
0.0
 51
180.0
  0
ARC
  5
200
330
1F
100
AcDbEntity
  8
0-2
  6
Continuous
 62
     6
370
     5
100
AcDbCircle
 10
-21.39997278161948
 20
161.8556997840469
 30
0.0
 40
33.86347590266048
100
AcDbArc
 50
159.3509979248047
 51
170.6490631103516
  0
ARC
  5
201
330
1F
100
AcDbEntity
  8
0-2
  6
Continuous
 62
     6
370
     5
100
AcDbCircle
 10
-56.29351592192776
 20
167.6016483693509
 30
0.0
 40
1.500000019331236
100
AcDbArc
 50
263.0798950195312
 51
350.6487731933594
  0
ARC
  5
202
330
1F
100
AcDbEntity
  8
0-2
  6
Continuous
 62
     6
370
     5
100
AcDbCircle
 10
-54.49163438951646
 20
174.326419405035
 30
0.0
 40
1.500000019331236
100
AcDbArc
 50
339.3503723144532
 51
66.92005920410159
  0
ARC
  5
203
330
1F
100
AcDbEntity
  8
0-2
  6
Continuous
 62
     6
370
     5
100
AcDbCircle
 10
-21.39997278161948
 20
161.8556997840469
 30
0.0
 40
33.86347590266048
100
AcDbArc
 50
129.3509979248047
 51
140.6490631103516
  0
ARC
  5
204
330
1F
100
AcDbEntity
  8
0-2
  6
Continuous
 62
     6
370
     5
100
AcDbCircle
 10
-48.74573529217693
 20
184.2785975353138
 30
0.0
 40
1.500000019331236
100
AcDbArc
 50
233.0798950195312
 51
320.6487731933594
  0
ARC
  5
205
330
1F
100
AcDbEntity
  8
0-2
  6
Continuous
 62
     6
370
     5
100
AcDbCircle
 10
-43.82282104492188
 20
189.2015117825688
 30
0.0
 40
1.500000019331236
100
AcDbArc
 50
309.3503723144531
 51
36.92005920410158
  0
ARC
  5
206
330
1F
100
AcDbEntity
  8
0-2
  6
Continuous
 62
     6
370
     5
100
AcDbCircle
 10
-21.39997278161948
 20
161.8556997840469
 30
0.0
 40
33.86347590266048
100
AcDbArc
 50
99.35099792480472
 51
110.6490631103516
  0
ARC
  5
207
330
1F
100
AcDbEntity
  8
0-2
  6
Continuous
 62
     6
370
     5
100
AcDbCircle
 10
-33.87064291464313
 20
194.9474603678729
 30
0.0
 40
1.500000019331236
100
AcDbArc
 50
203.0798950195312
 51
290.6487731933594
  0
ARC
  5
208
330
1F
100
AcDbEntity
  8
0-2
  6
Continuous
 62
     6
370
     5
100
AcDbCircle
 10
-27.14587187895901
 20
196.7493666442665
 30
0.0
 40
1.500000019331236
100
AcDbArc
 50
279.3503723144532
 51
6.920059204101607
  0
ARC
  5
209
330
1F
100
AcDbEntity
  8
0-2
  6
Continuous
 62
     6
370
     5
100
AcDbCircle
 10
-21.39997278161948
 20
161.8556997840469
 30
0.0
 40
33.86347590266048
100
AcDbArc
 50
69.3509979248047
 51
80.64906311035158
  0
ARC
  5
20A
330
1F
100
AcDbEntity
  8
0-2
  6
Continuous
 62
     6
370
     5
100
AcDbCircle
 10
-15.65407368427995
 20
196.7493666442665
 30
0.0
 40
1.500000019331236
100
AcDbArc
 50
173.0798950195313
 51
260.6487731933593
  0
ARC
  5
20B
330
1F
100
AcDbEntity
  8
0-2
  6
Continuous
 62
     6
370
     5
100
AcDbCircle
 10
-8.929302648595836
 20
194.9474603678729
 30
0.0
 40
1.500000019331236
100
AcDbArc
 50
249.3503723144532
 51
336.9200592041016
  0
ARC
  5
20C
330
1F
100
AcDbEntity
  8
0-2
  6
Continuous
 62
     6
370
     5
100
AcDbCircle
 10
-21.39997278161948
 20
161.8556997840469
 30
0.0
 40
33.86347590266048
100
AcDbArc
 50
39.35099792480469
 51
50.64906311035156
  0
ARC
  5
20D
330
1F
100
AcDbEntity
  8
0-2
  6
Continuous
 62
     6
370
     5
100
AcDbCircle
 10
1.02287548168286
 20
189.2015117825688
 30
0.0
 40
1.500000019331236
100
AcDbArc
 50
143.0798950195312
 51
230.6487731933594
  0
ARC
  5
20E
330
1F
100
AcDbEntity
  8
0-2
  6
Continuous
 62
     6
370
     5
100
AcDbCircle
 10
5.945789728937967
 20
184.2786965112429
 30
0.0
 40
1.500000019331236
100
AcDbArc
 50
219.3503723144532
 51
306.9200592041016
  0
ARC
  5
20F
330
1F
100
AcDbEntity
  8
0-2
  6
Continuous
 62
     6
370
     5
100
AcDbCircle
 10
-21.39997278161948
 20
161.8556997840469
 30
0.0
 40
33.86347590266048
100
AcDbArc
 50
9.350997924804721
 51
20.6490631103516
  0
ARC
  5
210
330
1F
100
AcDbEntity
  8
0-2
  6
Continuous
 62
     6
370
     5
100
AcDbCircle
 10
11.69163933831297
 20
174.326419405035
 30
0.0
 40
1.500000019331236
100
AcDbArc
 50
113.0798950195312
 51
200.6487731933594
  0
ARC
  5
211
330
1F
100
AcDbEntity
  8
0-2
  6
Continuous
 62
     6
370
     5
100
AcDbCircle
 10
13.49359510267104
 20
167.6016483693509
 30
0.0
 40
1.500000019331236
100
AcDbArc
 50
189.3503723144532
 51
276.9200592041016
  0
ARC
  5
212
330
1F
100
AcDbEntity
  8
0-2
  6
Continuous
 62
     6
370
     5
100
AcDbCircle
 10
-21.39997278161948
 20
161.8556997840469
 30
0.0
 40
15.00000154649889
100
AcDbArc
 50
148.1364440917969
 51
166.8634796142578
  0
ARC
  5
213
330
1F
100
AcDbEntity
  8
0-2
  6
Continuous
 62
     6
370
     5
100
AcDbCircle
 10
-21.39997278161948
 20
161.8556997840469
 30
0.0
 40
25.00000206199852
100
AcDbArc
 50
144.1820983886719
 51
170.8177795410156
  0
ARC
  5
214
330
1F
100
AcDbEntity
  8
0-2
  6
Continuous
 62
     6
370
     5
100
AcDbCircle
 10
-44.59884181667016
 20
165.6057987599759
 30
0.0
 40
1.500000019331236
100
AcDbArc
 50
170.817367553711
 51
270.0000000000001
  0
ARC
  5
215
330
1F
100
AcDbEntity
  8
0-2
  6
Continuous
 62
     6
370
     5
100
AcDbCircle
 10
-37.4682199838999
 20
165.6057987599759
 30
0.0
 40
1.500000019331236
100
AcDbArc
 50
270.0
 51
346.8630676269531
  0
ARC
  5
216
330
1F
100
AcDbEntity
  8
0-2
  6
Continuous
 62
     6
370
     5
100
AcDbCircle
 10
-35.41352918470224
 20
170.5660764204489
 30
0.0
 40
1.500000019331236
100
AcDbArc
 50
328.1362762451172
 51
44.9993286132813
  0
ARC
  5
217
330
1F
100
AcDbEntity
  8
0-2
  6
Continuous
 62
     6
370
     5
100
AcDbCircle
 10
-40.45565993850292
 20
175.6082071742496
 30
0.0
 40
1.500000019331236
100
AcDbArc
 50
44.99932861328126
 51
144.1819305419922
  0
ARC
  5
218
330
1F
100
AcDbEntity
  8
0-2
  6
Continuous
 62
     6
370
     5
100
AcDbCircle
 10
-21.39997278161948
 20
161.8556997840469
 30
0.0
 40
13.99999979380015
100
AcDbArc
 50
148.1366271972656
 51
166.8634033203125
  0
ARC
  5
219
330
1F
100
AcDbEntity
  8
0-2
  6
Continuous
 62
     6
370
     5
100
AcDbCircle
 10
-21.39997278161948
 20
161.8556997840469
 30
0.0
 40
25.99999917520059
100
AcDbArc
 50
144.1821746826172
 51
170.8178253173828
  0
ARC
  5
21A
330
1F
100
AcDbEntity
  8
0-2
  6
Continuous
 62
     6
370
     5
100
AcDbCircle
 10
-44.59884181667016
 20
165.6057987599759
 30
0.0
 40
2.500000322187269
100
AcDbArc
 50
170.818115234375
 51
270.0
  0
ARC
  5
21B
330
1F
100
AcDbEntity
  8
0-2
  6
Continuous
 62
     6
370
     5
100
AcDbCircle
 10
-37.4682199838999
 20
165.6057987599759
 30
0.0
 40
2.500000322187269
100
AcDbArc
 50
270.0
 51
346.8637084960937
  0
ARC
  5
21C
330
1F
100
AcDbEntity
  8
0-2
  6
Continuous
 62
     6
370
     5
100
AcDbCircle
 10
-35.41352918470224
 20
170.5660269324844
 30
0.0
 40
2.500000322187269
100
AcDbArc
 50
328.1363067626953
 51
44.9996032714844
  0
ARC
  5
21D
330
1F
100
AcDbEntity
  8
0-2
  6
Continuous
 62
     6
370
     5
100
AcDbCircle
 10
-40.45565993850292
 20
175.608157686285
 30
0.0
 40
2.500000322187269
100
AcDbArc
 50
44.99960327148438
 51
144.1817626953125
  0
ARC
  5
21E
330
1F
100
AcDbEntity
  8
0-2
  6
Continuous
 62
     6
370
     5
100
AcDbCircle
 10
-41.57775004618875
 20
173.9017631814286
 30
0.0
 40
1.500000019331236
100
AcDbArc
 50
45.00067138671875
 51
149.1631622314453
  0
ARC
  5
21F
330
1F
100
AcDbEntity
  8
0-2
  6
Continuous
 62
     6
370
     5
100
AcDbCircle
 10
-36.40170486037792
 20
168.7257179956179
 30
0.0
 40
1.500000019331236
100
AcDbArc
 50
335.3949127197266
 51
44.99999999999997
  0
ARC
  5
220
330
1F
100
AcDbEntity
  8
0-2
  6
Continuous
 62
     6
370
     5
100
AcDbCircle
 10
-21.39997278161948
 20
161.8556997840469
 30
0.0
 40
15.00000154649889
100
AcDbArc
 50
103.1364440917969
 51
121.8634796142579
  0
ARC
  5
221
330
1F
100
AcDbEntity
  8
0-2
  6
Continuous
 62
     6
370
     5
100
AcDbCircle
 10
-21.39997278161948
 20
161.8556997840469
 30
0.0
 40
25.00000206199852
100
AcDbArc
 50
99.18209838867192
 51
125.8177795410157
  0
ARC
  5
222
330
1F
100
AcDbEntity
  8
0-2
  6
Continuous
 62
     6
370
     5
100
AcDbCircle
 10
-35.15238119589313
 20
180.9115354048239
 30
0.0
 40
1.500000019331236
100
AcDbArc
 50
125.817367553711
 51
225.0000000000001
  0
ARC
  5
223
330
1F
100
AcDbEntity
  8
0-2
  6
Continuous
 62
     6
370
     5
100
AcDbCircle
 10
-30.11025044209245
 20
175.8694046510232
 30
0.0
 40
1.500000019331236
100
AcDbArc
 50
225.0000000000001
 51
301.8630676269532
  0
ARC
  5
224
330
1F
100
AcDbEntity
  8
0-2
  6
Continuous
 62
     6
370
     5
100
AcDbCircle
 10
-25.14992329365495
 20
177.9239469863273
 30
0.0
 40
1.500000019331236
100
AcDbArc
 50
283.1362762451173
 51
359.9993286132814
  0
ARC
  5
225
330
1F
100
AcDbEntity
  8
0-2
  6
Continuous
 62
     6
370
     5
100
AcDbCircle
 10
-25.14992329365495
 20
185.0546183070621
 30
0.0
 40
1.500000019331236
100
AcDbArc
 50
359.9993286132813
 51
99.18193054199223
  0
ARC
  5
226
330
1F
100
AcDbEntity
  8
0-2
  6
Continuous
 62
     6
370
     5
100
AcDbCircle
 10
-21.39997278161948
 20
161.8556997840469
 30
0.0
 40
13.99999979380015
100
AcDbArc
 50
103.1366271972657
 51
121.8634033203125
  0
ARC
  5
227
330
1F
100
AcDbEntity
  8
0-2
  6
Continuous
 62
     6
370
     5
100
AcDbCircle
 10
-21.39997278161948
 20
161.8556997840469
 30
0.0
 40
25.99999917520059
100
AcDbArc
 50
99.18217468261726
 51
125.8178253173829
  0
ARC
  5
228
330
1F
100
AcDbEntity
  8
0-2
  6
Continuous
 62
     6
370
     5
100
AcDbCircle
 10
-35.15238119589313
 20
180.9115354048239
 30
0.0
 40
2.500000322187269
100
AcDbArc
 50
125.8181152343751
 51
225.0
  0
ARC
  5
229
330
1F
100
AcDbEntity
  8
0-2
  6
Continuous
 62
     6
370
     5
100
AcDbCircle
 10
-30.11025044209245
 20
175.8694046510232
 30
0.0
 40
2.500000322187269
100
AcDbArc
 50
225.0000000000001
 51
301.8637084960938
  0
ARC
  5
22A
330
1F
100
AcDbEntity
  8
0-2
  6
Continuous
 62
     6
370
     5
100
AcDbCircle
 10
-25.14997278161948
 20
177.9239469863273
 30
0.0
 40
2.500000322187269
100
AcDbArc
 50
283.1363067626954
 51
359.9996032714844
  0
ARC
  5
22B
330
1F
100
AcDbEntity
  8
0-2
  6
Continuous
 62
     6
370
     5
100
AcDbCircle
 10
-25.14997278161948
 20
185.0546183070621
 30
0.0
 40
2.500000322187269
100
AcDbArc
 50
359.9996032714844
 51
99.18176269531254
  0
ARC
  5
22C
330
1F
100
AcDbEntity
  8
0-2
  6
Continuous
 62
     6
370
     5
100
AcDbCircle
 10
-27.14997938001474
 20
184.6414432912259
 30
0.0
 40
1.500000019331236
100
AcDbArc
 50
0.0006713867188035
 51
104.1631622314454
  0
ARC
  5
22D
330
1F
100
AcDbEntity
  8
0-2
  6
Continuous
 62
     6
370
     5
100
AcDbCircle
 10
-27.14997938001474
 20
177.3214310182107
 30
0.0
 40
1.500000019331236
100
AcDbArc
 50
290.3949127197266
 51
0.0000000000000254
  0
ARC
  5
22E
330
1F
100
AcDbEntity
  8
0-2
  6
Continuous
 62
     6
370
     5
100
AcDbCircle
 10
-21.39997278161948
 20
161.8556997840469
 30
0.0
 40
15.00000154649889
100
AcDbArc
 50
58.13644409179688
 51
76.86347961425781
  0
ARC
  5
22F
330
1F
100
AcDbEntity
  8
0-2
  6
Continuous
 62
     6
370
     5
100
AcDbCircle
 10
-21.39997278161948
 20
161.8556997840469
 30
0.0
 40
25.00000206199852
100
AcDbArc
 50
54.18209838867186
 51
80.81777954101562
  0
ARC
  5
230
330
1F
100
AcDbEntity
  8
0-2
  6
Continuous
 62
     6
370
     5
100
AcDbCircle
 10
-17.64997278161948
 20
185.0546183070621
 30
0.0
 40
1.500000019331236
100
AcDbArc
 50
80.81736755371097
 51
180.0
  0
ARC
  5
231
330
1F
100
AcDbEntity
  8
0-2
  6
Continuous
 62
     6
370
     5
100
AcDbCircle
 10
-17.64997278161948
 20
177.9239469863273
 30
0.0
 40
1.500000019331236
100
AcDbArc
 50
180.0
 51
256.8630676269531
  0
ARC
  5
232
330
1F
100
AcDbEntity
  8
0-2
  6
Continuous
 62
     6
370
     5
100
AcDbCircle
 10
-12.68964563318198
 20
175.8694046510232
 30
0.0
 40
1.500000019331236
100
AcDbArc
 50
238.1362762451172
 51
314.9993286132813
  0
ARC
  5
233
330
1F
100
AcDbEntity
  8
0-2
  6
Continuous
 62
     6
370
     5
100
AcDbCircle
 10
-7.647514879381305
 20
180.9115354048239
 30
0.0
 40
1.500000019331236
100
AcDbArc
 50
314.9993286132812
 51
54.18193054199219
  0
ARC
  5
234
330
1F
100
AcDbEntity
  8
0-2
  6
Continuous
 62
     6
370
     5
100
AcDbCircle
 10
-21.39997278161948
 20
161.8556997840469
 30
0.0
 40
13.99999979380015
100
AcDbArc
 50
58.13662719726563
 51
76.8634033203125
  0
ARC
  5
235
330
1F
100
AcDbEntity
  8
0-2
  6
Continuous
 62
     6
370
     5
100
AcDbCircle
 10
-21.39997278161948
 20
161.8556997840469
 30
0.0
 40
25.99999917520059
100
AcDbArc
 50
54.18217468261719
 51
80.81782531738281
  0
ARC
  5
236
330
1F
100
AcDbEntity
  8
0-2
  6
Continuous
 62
     6
370
     5
100
AcDbCircle
 10
-17.64997278161948
 20
185.0546183070621
 30
0.0
 40
2.500000322187269
100
AcDbArc
 50
80.81811523437501
 51
180.0
  0
ARC
  5
237
330
1F
100
AcDbEntity
  8
0-2
  6
Continuous
 62
     6
370
     5
100
AcDbCircle
 10
-17.64997278161948
 20
177.9239469863273
 30
0.0
 40
2.500000322187269
100
AcDbArc
 50
180.0
 51
256.8637084960937
  0
ARC
  5
238
330
1F
100
AcDbEntity
  8
0-2
  6
Continuous
 62
     6
370
     5
100
AcDbCircle
 10
-12.68969512114651
 20
175.8694046510232
 30
0.0
 40
2.500000322187269
100
AcDbArc
 50
238.1363067626953
 51
314.9996032714844
  0
ARC
  5
239
330
1F
100
AcDbEntity
  8
0-2
  6
Continuous
 62
     6
370
     5
100
AcDbCircle
 10
-7.647564367345836
 20
180.9115354048239
 30
0.0
 40
2.500000322187269
100
AcDbArc
 50
314.9996032714844
 51
54.1817626953125
  0
ARC
  5
23A
330
1F
100
AcDbEntity
  8
0-2
  6
Continuous
 62
     6
370
     5
100
AcDbCircle
 10
-9.35390938423771
 20
182.0335265365807
 30
0.0
 40
1.500000019331236
100
AcDbArc
 50
315.0006713867188
 51
59.16316223144531
  0
ARC
  5
23B
330
1F
100
AcDbEntity
  8
0-2
  6
Continuous
 62
     6
370
     5
100
AcDbCircle
 10
-14.52995457004855
 20
176.8575803266989
 30
0.0
 40
1.500000019331236
100
AcDbArc
 50
245.3949127197266
 51
315.0
  0
ARC
  5
23C
330
1F
100
AcDbEntity
  8
0-2
  6
Continuous
 62
     6
370
     5
100
AcDbCircle
 10
-21.39997278161948
 20
161.8556997840469
 30
0.0
 40
15.00000154649889
100
AcDbArc
 50
13.13644409179687
 51
31.86347961425781
  0
ARC
  5
23D
330
1F
100
AcDbEntity
  8
0-2
  6
Continuous
 62
     6
370
     5
100
AcDbCircle
 10
-21.39997278161948
 20
161.8556997840469
 30
0.0
 40
25.00000206199852
100
AcDbArc
 50
9.182098388671863
 51
35.81777954101562
  0
ARC
  5
23E
330
1F
100
AcDbEntity
  8
0-2
  6
Continuous
 62
     6
370
     5
100
AcDbCircle
 10
-2.344236136771514
 20
175.608157686285
 30
0.0
 40
1.500000019331236
100
AcDbArc
 50
35.81736755371097
 51
135.0000000000001
  0
ARC
  5
23F
330
1F
100
AcDbEntity
  8
0-2
  6
Continuous
 62
     6
370
     5
100
AcDbCircle
 10
-7.386366890572191
 20
170.5660269324844
 30
0.0
 40
1.500000019331236
100
AcDbArc
 50
135.0
 51
211.8630676269531
  0
ARC
  5
240
330
1F
100
AcDbEntity
  8
0-2
  6
Continuous
 62
     6
370
     5
100
AcDbCircle
 10
-5.331775067303596
 20
165.6056997840469
 30
0.0
 40
1.500000019331236
100
AcDbArc
 50
193.1362762451172
 51
269.9993286132813
  0
ARC
  5
241
330
1F
100
AcDbEntity
  8
0-2
  6
Continuous
 62
     6
370
     5
100
AcDbCircle
 10
1.798896253431195
 20
165.6056997840469
 30
0.0
 40
1.500000019331236
100
AcDbArc
 50
269.9993286132812
 51
9.181930541992191
  0
ARC
  5
242
330
1F
100
AcDbEntity
  8
0-2
  6
Continuous
 62
     6
370
     5
100
AcDbCircle
 10
-21.39997278161948
 20
161.8556997840469
 30
0.0
 40
13.99999979380015
100
AcDbArc
 50
13.13662719726563
 51
31.8634033203125
  0
ARC
  5
243
330
1F
100
AcDbEntity
  8
0-2
  6
Continuous
 62
     6
370
     5
100
AcDbCircle
 10
-21.39997278161948
 20
161.8556997840469
 30
0.0
 40
25.99999917520059
100
AcDbArc
 50
9.182174682617195
 51
35.81782531738282
  0
ARC
  5
244
330
1F
100
AcDbEntity
  8
0-2
  6
Continuous
 62
     6
370
     5
100
AcDbCircle
 10
-2.344236136771514
 20
175.608157686285
 30
0.0
 40
2.500000322187269
100
AcDbArc
 50
35.81811523437501
 51
135.0
  0
ARC
  5
245
330
1F
100
AcDbEntity
  8
0-2
  6
Continuous
 62
     6
370
     5
100
AcDbCircle
 10
-7.386366890572191
 20
170.5660269324844
 30
0.0
 40
2.500000322187269
100
AcDbArc
 50
135.0
 51
211.8637084960938
  0
ARC
  5
246
330
1F
100
AcDbEntity
  8
0-2
  6
Continuous
 62
     6
370
     5
100
AcDbCircle
 10
-5.331775067303596
 20
165.6057987599759
 30
0.0
 40
2.500000322187269
100
AcDbArc
 50
193.1363067626954
 51
269.9996032714844
  0
ARC
  5
247
330
1F
100
AcDbEntity
  8
0-2
  6
Continuous
 62
     6
370
     5
100
AcDbCircle
 10
1.798846765466664
 20
165.6057987599759
 30
0.0
 40
2.500000322187269
100
AcDbArc
 50
269.9996032714844
 51
9.181762695312493
  0
ARC
  5
248
330
1F
100
AcDbEntity
  8
0-2
  6
Continuous
 62
     6
370
     5
100
AcDbCircle
 10
1.38572123759505
 20
167.6057063824422
 30
0.0
 40
1.500000019331236
100
AcDbArc
 50
270.0006713867188
 51
14.16316223144531
  0
ARC
  5
249
330
1F
100
AcDbEntity
  8
0-2
  6
Continuous
 62
     6
370
     5
100
AcDbCircle
 10
-5.934291035420159
 20
167.6057063824422
 30
0.0
 40
1.500000019331236
100
AcDbArc
 50
200.3949127197265
 51
270.0
  0
ARC
  5
24A
330
1F
100
AcDbEntity
  8
0-2
  6
Continuous
 62
     6
370
     5
100
AcDbCircle
 10
-21.39997278161948
 20
161.8556997840469
 30
0.0
 40
10.00000128874908
100
AcDbArc
 50
44.90075683593749
 51
135.0992431640625
  0
ARC
  5
24B
330
1F
100
AcDbEntity
  8
0-2
  6
Continuous
 62
     6
370
     5
100
AcDbCircle
 10
-27.42077752190667
 20
167.8557195792327
 30
0.0
 40
1.500000019331236
100
AcDbArc
 50
135.0989074707031
 51
270.0
  0
ARC
  5
24C
330
1F
100
AcDbEntity
  8
0-2
  6
Continuous
 62
     6
370
     5
100
AcDbCircle
 10
-15.37916804133235
 20
167.8557195792327
 30
0.0
 40
1.500000019331236
100
AcDbArc
 50
270.0
 51
44.90109252929689
  0
ARC
  5
24D
330
1F
100
AcDbEntity
  8
0-2
  6
Continuous
 62
     6
370
     5
100
AcDbCircle
 10
-21.39997278161948
 20
161.8556997840469
 30
0.0
 40
50.00000412399704
100
AcDbArc
 50
5.739196777343751
 51
11.53694152832031
  0
ARC
  5
24E
330
1F
100
AcDbEntity
  8
0-2
  6
Continuous
 62
     6
370
     5
100
AcDbCircle
 10
-21.39997278161948
 20
161.8556997840469
 30
0.0
 40
51.00000123719911
100
AcDbArc
 50
4.498428344726562
 51
176.0198211669922
  0
ARC
  5
24F
330
1F
100
AcDbEntity
  8
0-2
  6
Continuous
 62
     6
370
     5
100
AcDbCircle
 10
-21.39997278161948
 20
161.8556997840469
 30
0.0
 40
50.00000412399704
100
AcDbArc
 50
168.4630584716797
 51
174.2608032226563
  0
ELLIPSE
  5
250
330
1F
100
AcDbEntity
  8
0-2
  6
Continuous
 62
     6
370
     5
100
AcDbEllipse
 10
25.60003381677578
 20
-3.934598265467457
 30
0.0
 11
5.249980204814189
 21
0.0
 31
0.0
210
0.0
220
0.0
230
1.0
 40
0.7428
 41
0.0
 42
1.475408288134874
  0
ELLIPSE
  5
251
330
1F
100
AcDbEntity
  8
0-2
  6
Continuous
 62
     6
370
     5
100
AcDbEllipse
 10
25.60003381677578
 20
-3.934598265467457
 30
0.0
 11
5.249980204814189
 21
0.0
 31
0.0
210
0.0
220
0.0
230
1.0
 40
0.7428
 41
1.666184365454919
 42
3.141592653589793
  0
ARC
  5
252
330
1F
100
AcDbEntity
  8
0-2
  6
Continuous
 62
     6
370
     5
100
AcDbCircle
 10
25.66644666517104
 20
161.9433924571888
 30
0.0
 40
5.249999922675055
100
AcDbArc
 50
0.0
 51
180.0
  0
ARC
  5
253
330
1F
100
AcDbEntity
  8
0-2
  6
Continuous
 62
     6
370
     5
100
AcDbCircle
 10
-68.33356653161948
 20
161.9433924571888
 30
0.0
 40
5.249999922675055
100
AcDbArc
 50
0.0
 51
180.0
  0
ARC
  5
254
330
1F
100
AcDbEntity
  8
0-0
  6
Continuous
 62
     3
370
     9
100
AcDbCircle
 10
-21.39997278161948
 20
161.9433924571888
 30
0.0
 40
51.22857995935389
100
AcDbArc
 50
3.734298706054688
 51
176.4715118408203
  0
TEXT
  5
255
330
1F
100
AcDbEntity
  8
0-4
  6
Continuous
 62
     2
370
     0
100
AcDbText
 10
70.4719876280089
 20
-21.87420645275633
 30
0.0
 40
6.096
  1
40
 50
90.0
 41
1.0625
  7
ＭＳ ゴシック
100
AcDbText
  0
TEXT
  5
256
330
1F
100
AcDbEntity
  8
0-4
  6
Continuous
 62
     2
370
     0
100
AcDbText
 10
86.4720156711888
 20
14.12576385446496
 30
0.0
 40
6.096
  1
32
 50
90.0
 41
1.0625
  7
ＭＳ ゴシック
100
AcDbText
  0
TEXT
  5
257
330
1F
100
AcDbEntity
  8
0-4
  6
Continuous
 62
     2
370
     0
100
AcDbText
 10
-119.5279216440561
 20
7.625767153662594
 30
0.0
 40
6.096
  1
45
 50
90.0
 41
1.0625
  7
ＭＳ ゴシック
100
AcDbText
  0
TEXT
  5
258
330
1F
100
AcDbEntity
  8
0-4
  6
Continuous
 62
     2
370
     0
100
AcDbText
 10
-27.89997278161951
 20
-94.49621635034923
 30
0.0
 40
6.096
  1
Rc2
 41
1.083333333333333
  7
ＭＳ ゴシック
100
AcDbText
  0
TEXT
  5
259
330
1F
100
AcDbEntity
  8
0-4
  6
Continuous
 62
     2
370
     0
100
AcDbText
 10
-32.39996040962836
 20
89.50374735847676
 30
0.0
 40
6.096
  1
φ150
 41
1.1
  7
ＭＳ ゴシック
100
AcDbText
  0
TEXT
  5
25A
330
1F
100
AcDbEntity
  8
0-4
  6
Continuous
 62
     2
370
     0
100
AcDbText
 10
-32.40000989759289
 20
73.50374405927916
 30
0.0
 40
6.096
  1
φ107
 41
1.1
  7
ＭＳ ゴシック
100
AcDbText
  0
TEXT
  5
25B
330
1F
100
AcDbEntity
  8
0-4
  6
Continuous
 62
     2
370
     0
100
AcDbText
 10
-32.39996040962836
 20
57.5037407600815
 30
0.0
 40
6.096
  1
φ102
 41
1.1
  7
ＭＳ ゴシック
100
AcDbText
  0
TEXT
  5
25C
330
1F
100
AcDbEntity
  8
0-4
  6
Continuous
 62
     2
370
     0
100
AcDbText
 10
-30.14998515361063
 20
-110.4962691375114
 30
0.0
 40
6.096
  1
φ80
 41
1.09375
  7
ＭＳ ゴシック
100
AcDbText
  0
LINE
  5
25D
330
1F
100
AcDbEntity
  8
0-0
  6
Continuous
 62
     3
370
     9
100
AcDbLine
 10
10.8980967147351
 20
-17.27367691243552
 30
0.0
 11
-53.69810908136142
 21
-17.27367691243552
 31
0.0
  0
LINE
  5
25E
330
1F
100
AcDbEntity
  8
0-5
  6
Continuous
 62
     7
370
     9
100
AcDbLine
 10
12.07192468414479
 20
24.83680535484427
 30
0.0
 11
55.90856179212261
 21
100.7640880588211
 31
0.0
  0
LINE
  5
25F
330
1F
100
AcDbEntity
  8
0-5
  6
Continuous
 62
     7
370
     9
100
AcDbLine
 10
12.07192468414479
 20
24.83680535484427
 30
0.0
 11
13.98534184597024
 21
29.45620301740071
 31
0.0
  0
LINE
  5
260
330
1F
100
AcDbEntity
  8
0-5
  6
Continuous
 62
     7
370
     9
100
AcDbLine
 10
12.07192468414479
 20
24.83680535484427
 30
0.0
 11
15.1157318291884
 21
28.80357205630045
 31
0.0
  0
LINE
  5
261
330
1F
100
AcDbEntity
  8
0-5
  6
Continuous
 62
     7
370
     9
100
AcDbLine
 10
27.66927407754437
 20
-0.3505808984911027
 30
0.0
 11
29.58267673801734
 21
4.268798918337438
 31
0.0
  0
LINE
  5
262
330
1F
100
AcDbEntity
  8
0-5
  6
Continuous
 62
     7
370
     9
100
AcDbLine
 10
27.66927407754437
 20
-0.3505808984911027
 30
0.0
 11
30.7130808237437
 21
3.616151642154989
 31
0.0
  0
LINE
  5
263
330
1F
100
AcDbEntity
  8
0-5
  6
Continuous
 62
     7
370
     9
100
AcDbLine
 10
-85.39986225849873
 20
-50.62426583831376
 30
0.0
 11
-87.31328966295396
 21
-55.2436456551423
 31
0.0
  0
LINE
  5
264
330
1F
100
AcDbEntity
  8
0-5
  6
Continuous
 62
     7
370
     9
100
AcDbLine
 10
-85.39986225849873
 20
-50.62426583831376
 30
0.0
 11
-88.44366900469805
 21
-54.59099837895988
 31
0.0
  0
LINE
  5
265
330
1F
100
AcDbEntity
  8
0-5
  6
Continuous
 62
     7
370
     9
100
AcDbLine
 10
-61.3999562856313
 20
-77.6242311967386
 30
0.0
 11
-63.31338369008657
 21
-82.24361101356715
 31
0.0
  0
LINE
  5
266
330
1F
100
AcDbEntity
  8
0-5
  6
Continuous
 62
     7
370
     9
100
AcDbLine
 10
-61.3999562856313
 20
-77.6242311967386
 30
0.0
 11
-64.44376303183063
 21
-81.59101322534923
 31
0.0
  0
LINE
  5
267
330
1F
100
AcDbEntity
  8
0-5
  6
Continuous
 62
     7
370
     9
100
AcDbLine
 10
-96.39992329365498
 20
-5.624265838313761
 30
0.0
 11
-98.31335069811021
 21
-10.2436703991246
 31
0.0
  0
LINE
  5
268
330
1F
100
AcDbEntity
  8
0-5
  6
Continuous
 62
     7
370
     9
100
AcDbLine
 10
-96.39992329365498
 20
-5.624265838313761
 30
0.0
 11
-99.4437300398543
 21
-9.591023122942147
 31
0.0
  0
LINE
  5
269
330
1F
100
AcDbEntity
  8
0-5
  6
Continuous
 62
     7
370
     9
100
AcDbLine
 10
-61.3999562856313
 20
-77.6242311967386
 30
0.0
 11
-75.25633891337625
 21
-101.6242361455351
 31
0.0
  0
LINE
  5
26A
330
1F
100
AcDbEntity
  8
0-5
  6
Continuous
 62
     7
370
     9
100
AcDbLine
 10
27.66927407754437
 20
-0.3505808984911027
 30
0.0
 11
68.50312978383661
 21
70.3757374608839
 31
0.0
  0
TEXT
  5
26B
330
1F
100
AcDbEntity
  8
0-5
  6
Continuous
 62
     7
370
     0
100
AcDbText
 10
-124.9804781527133
 20
-99.03823931276477
 30
0.0
 40
4.572
  1
スペーサー
 41
1.133333333333333
  7
ＭＳ ゴシック
100
AcDbText
  0
LINE
  5
26C
330
1F
100
AcDbEntity
  8
0-5
  6
Continuous
 62
     7
370
     9
100
AcDbLine
 10
-75.25633891337625
 20
-101.6242361455351
 30
0.0
 11
-145.1748073506249
 21
-101.6242361455351
 31
0.0
  0
LINE
  5
26D
330
1F
100
AcDbEntity
  8
0-5
  6
Continuous
 62
     7
370
     9
100
AcDbLine
 10
-96.39992329365498
 20
-5.624265838313761
 30
0.0
 11
-108.0419204370271
 21
-25.78879643886006
 31
0.0
  0
LINE
  5
26E
330
1F
100
AcDbEntity
  8
0-5
  6
Continuous
 62
     7
370
     9
100
AcDbLine
 10
-85.39986225849873
 20
-50.62426583831376
 30
0.0
 11
-93.99300064525995
 21
-65.50799509258356
 31
0.0
  0
LINE
  5
26F
330
1F
100
AcDbEntity
  8
0-5
  6
Continuous
 62
     7
370
     9
100
AcDbLine
 10
55.90856179212261
 20
100.7640880588211
 30
0.0
 11
140.8917441321775
 21
100.7640880588211
 31
0.0
  0
LINE
  5
270
330
1F
100
AcDbEntity
  8
0-0
  6
Continuous
 62
     3
370
     9
100
AcDbLine
 10
-48.06388884224526
 20
-30.45675732638387
 30
0.0
 11
5.19625005052675
 21
-30.45675732638387
 31
0.0
  0
LINE
  5
271
330
1F
100
AcDbEntity
  8
0-5
  6
Continuous
 62
     7
370
     9
100
AcDbLine
 10
-108.0419204370271
 20
-25.78879643886006
 30
0.0
 11
-177.1852658250694
 21
-25.78879643886006
 31
0.0
  0
LINE
  5
272
330
1F
100
AcDbEntity
  8
0-5
  6
Continuous
 62
     7
370
     9
100
AcDbLine
 10
-93.99300064525995
 20
-65.50799509258356
 30
0.0
 11
-164.0196336900565
 21
-65.50799509258356
 31
0.0
  0
TEXT
  5
273
330
1F
100
AcDbEntity
  8
F-5
  6
Continuous
 62
     2
370
     9
100
AcDbText
 10
-31.33579882205986
 20
-181.6296655844955
 30
0.0
 40
6.096
  1
※ご注文の際はＣ寸法をご指示ください。
 41
1.118421052631579
  7
ＭＳ ゴシック
100
AcDbText
  0
TEXT
  5
274
330
1F
100
AcDbEntity
  8
F-4
  6
Continuous
 62
     6
370
     5
100
AcDbText
 10
-26.42644417548723
 20
-220.591396509699
 30
0.0
 40
6.096
  1
鋳鉄製高耐食性ルーフドレン　たて引き用　打込型　ねじ込み式
 41
0.7491379310344828
  7
ＭＳ ゴシック
100
AcDbText
  0
TEXT
  5
275
330
1F
100
AcDbEntity
  8
F-4
  6
Continuous
 62
     6
370
     5
100
AcDbText
 10
-26.38143658738437
 20
-229.7881497489341
 30
0.0
 40
6.096
  1
塗膜・モルタル防水用　　　ＥＭＲ－２Ｒ－５０　Ｃ＝指示
 41
0.7981481481481482
  7
ＭＳ ゴシック
100
AcDbText
  0
LINE
  5
276
330
1F
100
AcDbEntity
  8
0-5
  6
Continuous
 62
     7
370
     9
100
AcDbLine
 10
68.50312978383661
 20
70.3757374608839
 30
0.0
 11
145.2666862821229
 21
70.3757374608839
 31
0.0
  0
TEXT
  5
277
330
1F
100
AcDbEntity
  8
0-5
  6
Continuous
 62
     7
370
     0
100
AcDbText
 10
56.90015296215006
 20
103.3604278761775
 30
0.0
 40
4.572
  1
ストレーナー：ＦＣ１５０
 41
1.152777777777778
  7
ＭＳ ゴシック
100
AcDbText
  0
TEXT
  5
278
330
1F
100
AcDbEntity
  8
0-5
  6
Continuous
 62
     7
370
     0
100
AcDbText
 10
63.90015296215006
 20
93.83882318461458
 30
0.0
 40
4.572
  1
ナイロンコーティング
 41
1.15
  7
ＭＳ ゴシック
100
AcDbText
  0
TEXT
  5
279
330
1F
100
AcDbEntity
  8
0-5
  6
Continuous
 62
     7
370
     0
100
AcDbText
 10
68.88490803297974
 20
72.56263860372593
 30
0.0
 40
4.572
  1
丸小ねじ：Ｃ２７００Ｗ
 41
1.151515151515152
  7
ＭＳ ゴシック
100
AcDbText
  0
TEXT
  5
27A
330
1F
100
AcDbEntity
  8
0-5
  6
Continuous
 62
     7
370
     0
100
AcDbText
 10
89.88490803297974
 20
63.28832186755619
 30
0.0
 40
4.572
  1
Ｍ６×１０
 41
1.133333333333333
  7
ＭＳ ゴシック
100
AcDbText
  0
TEXT
  5
27B
330
1F
100
AcDbEntity
  8
0-4
  6
Continuous
 62
     2
370
     0
100
AcDbText
 10
86.5996290961351
 20
-37.84244017543
 30
0.0
 40
6.096
  1
Ｃ
 50
90.0
  7
ＭＳ ゴシック
100
AcDbText
  0
TEXT
  5
27C
330
1F
100
AcDbEntity
  8
0-5
  6
Continuous
 62
     7
370
     0
100
AcDbText
 10
-170.1135931310483
 20
-23.24643070084817
 30
0.0
 40
4.572
  1
本体：ＦＣ１５０
 41
1.145833333333333
  7
ＭＳ ゴシック
100
AcDbText
  0
TEXT
  5
27D
330
1F
100
AcDbEntity
  8
0-5
  6
Continuous
 62
     7
370
     0
100
AcDbText
 10
-177.1135931310483
 20
-32.3268810910764
 30
0.0
 40
4.572
  1
ナイロンコーティング
 41
1.15
  7
ＭＳ ゴシック
100
AcDbText
  0
TEXT
  5
27E
330
1F
100
AcDbEntity
  8
0-5
  6
Continuous
 62
     7
370
     0
100
AcDbText
 10
-163.5063171676582
 20
-62.5684562412322
 30
0.0
 40
4.572
  1
アンカー：ＳＷＲＭ８
 41
1.15
  7
ＭＳ ゴシック
100
AcDbText
  0
TEXT
  5
27F
330
1F
100
AcDbEntity
  8
0-5
  6
Continuous
 62
     7
370
     0
100
AcDbText
 10
-163.5063171676582
 20
-73.20495104567276
 30
0.0
 40
4.572
  1
ナイロンコーティング
 41
1.15
  7
ＭＳ ゴシック
100
AcDbText
  0
TEXT
  5
280
330
1F
100
AcDbEntity
  8
0-5
  6
Continuous
 62
     7
370
     0
100
AcDbText
 10
-140.7235274001235
 20
-108.8550110022622
 30
0.0
 40
4.572
  1
硬質ポリ塩化ビニル
 41
1.148148148148148
  7
ＭＳ ゴシック
100
AcDbText
  0
TEXT
  5
281
330
1F
100
AcDbEntity
  8
F-0
  6
Continuous
 62
     9
370
     5
100
AcDbText
 10
0.0
 20
-1999.154
 30
0.0
 40
4.572
  1
Printer_Orientation = 0
 41
0.0
  7
ＭＳ ゴシック
100
AcDbText
  0
TEXT
  5
282
330
1F
100
AcDbEntity
  8
F-0
  6
Continuous
 62
     9
370
     5
100
AcDbText
 10
0.0
 20
-1999.154
 30
0.0
 40
4.572
  1
Printer_PaperSize = 0
 41
0.0
  7
ＭＳ ゴシック
100
AcDbText
  0
TEXT
  5
283
330
1F
100
AcDbEntity
  8
F-0
  6
Continuous
 62
     9
370
     5
100
AcDbText
 10
0.0
 20
-1999.154
 30
0.0
 40
4.572
  1
Printer_D2dBMP = 0
 41
0.0
  7
ＭＳ ゴシック
100
AcDbText
  0
TEXT
  5
284
330
1F
100
AcDbEntity
  8
F-0
  6
Continuous
 62
     9
370
     5
100
AcDbText
 10
0.0
 20
-1999.154
 30
0.0
 40
4.572
  1
Printer_BmpZENTAI = 0
 41
0.0
  7
ＭＳ ゴシック
100
AcDbText
  0
TEXT
  5
285
330
1F
100
AcDbEntity
  8
F-0
  6
Continuous
 62
     9
370
     5
100
AcDbText
 10
0.0
 20
-1999.154
 30
0.0
 40
4.572
  1
View_Direct2d = 0
 41
0.0
  7
ＭＳ ゴシック
100
AcDbText
  0
TEXT
  5
286
330
1F
100
AcDbEntity
  8
F-0
  6
Continuous
 62
     9
370
     5
100
AcDbText
 10
0.0
 20
-1999.154
 30
0.0
 40
4.572
  1
Draw_BmpTOUKA = 1
 41
0.0
  7
ＭＳ ゴシック
100
AcDbText
  0
ENDSEC
  0
SECTION
  2
OBJECTS
  0
DICTIONARY
  5
C
330
0
100
AcDbDictionary
281
     1
  3
ACAD_DETAILVIEWSTYLE
350
2CC
  3
ACAD_GROUP
350
D
  3
ACAD_LAYOUT
350
1A
  3
ACAD_MATERIAL
350
43
  3
ACAD_MLEADERSTYLE
350
6B
  3
ACAD_MLINESTYLE
350
17
  3
ACAD_PLOTSETTINGS
350
19
  3
ACAD_PLOTSTYLENAME
350
E
  3
ACAD_SCALELIST
350
47
  3
ACAD_SECTIONVIEWSTYLE
350
2CD
  3
ACAD_TABLESTYLE
350
69
  3
ACAD_VISUALSTYLE
350
2A
  3
ACDB_RECOMPOSE_DATA
350
2C9
  3
AcDbVariableDictionary
350
289
  0
DICTIONARY
  5
287
330
8
100
AcDbDictionary
280
     1
281
     1
  3
ACAD_XREC_ROUNDTRIP
360
288
  0
DICTIONARY
  5
2CC
102
{ACAD_REACTORS
330
C
102
}
330
C
100
AcDbDictionary
281
     1
  0
DICTIONARY
  5
D
102
{ACAD_REACTORS
330
C
102
}
330
C
100
AcDbDictionary
281
     1
  0
DICTIONARY
  5
1A
102
{ACAD_REACTORS
330
C
102
}
330
C
100
AcDbDictionary
281
     1
  3
Layout1
350
1E
  3
Layout2
350
26
  3
Model
350
22
  0
DICTIONARY
  5
43
102
{ACAD_REACTORS
330
C
102
}
330
C
100
AcDbDictionary
281
     1
  3
ByBlock
350
45
  3
ByLayer
350
44
  3
Global
350
46
  0
DICTIONARY
  5
6B
102
{ACAD_REACTORS
330
C
102
}
330
C
100
AcDbDictionary
281
     1
  3
Standard
350
6C
  0
DICTIONARY
  5
17
102
{ACAD_REACTORS
330
C
102
}
330
C
100
AcDbDictionary
281
     1
  3
Standard
350
18
  0
DICTIONARY
  5
19
102
{ACAD_REACTORS
330
C
102
}
330
C
100
AcDbDictionary
281
     1
  0
ACDBDICTIONARYWDFLT
  5
E
102
{ACAD_REACTORS
330
C
102
}
330
C
100
AcDbDictionary
281
     1
  3
Normal
350
F
100
AcDbDictionaryWithDefault
340
F
  0
DICTIONARY
  5
47
102
{ACAD_REACTORS
330
C
102
}
330
C
100
AcDbDictionary
281
     1
  3
A0
350
48
  3
A1
350
49
  3
A2
350
4A
  3
A3
350
4B
  3
A4
350
4C
  3
A5
350
4D
  3
A6
350
4E
  3
A7
350
4F
  3
A8
350
50
  3
A9
350
51
  3
B0
350
52
  3
B1
350
53
  3
B2
350
54
  3
B3
350
55
  3
B4
350
56
  3
B5
350
57
  3
B6
350
58
  3
B7
350
59
  3
B8
350
5A
  3
B9
350
5B
  3
C0
350
5C
  3
C1
350
5D
  3
C2
350
5E
  3
C3
350
5F
  3
C4
350
60
  3
C5
350
61
  3
C6
350
62
  3
C7
350
63
  3
C8
350
64
  3
C9
350
65
  3
D0
350
66
  3
D1
350
67
  3
D2
350
68
  0
DICTIONARY
  5
2CD
102
{ACAD_REACTORS
330
C
102
}
330
C
100
AcDbDictionary
281
     1
  0
DICTIONARY
  5
69
102
{ACAD_REACTORS
330
C
102
}
330
C
100
AcDbDictionary
281
     1
  3
Standard
350
6A
  0
DICTIONARY
  5
2A
102
{ACAD_REACTORS
330
C
102
}
330
C
100
AcDbDictionary
281
     1
  3
2dWireframe
350
2F
  3
Basic
350
32
  3
Brighten
350
36
  3
ColorChange
350
3A
  3
Conceptual
350
34
  3
Dim
350
35
  3
EdgeColorOff
350
3D
  3
Facepattern
350
39
  3
Flat
350
2B
  3
FlatWithEdges
350
2C
  3
Gouraud
350
2D
  3
GouraudWithEdges
350
2E
  3
Hidden
350
31
  3
JitterOff
350
3B
  3
Linepattern
350
38
  3
OverhangOff
350
3C
  3
Realistic
350
33
  3
Shaded
350
42
  3
Shaded with edges
350
41
  3
Shades of Gray
350
3E
  3
Sketchy
350
3F
  3
Thicken
350
37
  3
Wireframe
350
30
  3
X-Ray
350
40
  0
XRECORD
  5
2C9
102
{ACAD_REACTORS
330
C
102
}
330
C
100
AcDbXrecord
280
     1
 90
        1
330
6A
  0
DICTIONARY
  5
289
102
{ACAD_REACTORS
330
C
102
}
330
C
100
AcDbDictionary
281
     1
  3
CANNOSCALE
350
28A
  3
CENTEREXE
350
2CE
  3
CENTERLTYPEFILE
350
2CF
  3
CMLEADERSTYLE
350
2CB
  3
CTABLESTYLE
350
2CA
  3
MSLTSCALE
350
28B
  3
XCLIPFRAME
350
28C
  0
XRECORD
  5
288
102
{ACAD_REACTORS
330
287
102
}
330
287
100
AcDbXrecord
280
     1
102
VTR_0.000_0.000_1.000_1.000_VISUALSTYLE
340
2F
102
VTR_0.000_0.000_1.000_1.000_GRIDDISPLAY
 70
     3
102
VTR_0.000_0.000_1.000_1.000_GRIDMAJOR
 70
     5
102
VTR_0.000_0.000_1.000_1.000_DEFAULTLIGHTING
280
     1
102
VTR_0.000_0.000_1.000_1.000_DEFAULTLIGHTINGTYPE
 70
     1
102
VTR_0.000_0.000_1.000_1.000_BRIGHTNESS
141
0.0
102
VTR_0.000_0.000_1.000_1.000_CONTRAST
142
0.0
  0
LAYOUT
  5
1E
102
{ACAD_REACTORS
330
1A
102
}
330
1A
100
AcDbPlotSettings
  1

  2
none_device
  4

  6

 40
0.0
 41
0.0
 42
0.0
 43
0.0
 44
0.0
 45
0.0
 46
0.0
 47
0.0
 48
0.0
 49
0.0
140
0.0
141
0.0
142
1.0
143
1.0
 70
   688
 72
     1
 73
     0
 74
     5
  7

 75
    16
 76
     0
 77
     5
 78
   300
147
1.0
148
0.0
149
0.0
100
AcDbLayout
  1
Layout1
 70
     1
 71
     1
 10
0.0
 20
0.0
 11
420.0
 21
297.0
 12
0.0
 22
0.0
 32
0.0
 14
1.000000000000000E+20
 24
1.000000000000000E+20
 34
1.000000000000000E+20
 15
-1.000000000000000E+20
 25
-1.000000000000000E+20
 35
-1.000000000000000E+20
146
0.0
 13
0.0
 23
0.0
 33
0.0
 16
1.0
 26
0.0
 36
0.0
 17
0.0
 27
1.0
 37
0.0
 76
     0
330
1B
  0
LAYOUT
  5
26
102
{ACAD_REACTORS
330
1A
102
}
330
1A
100
AcDbPlotSettings
  1

  2
none_device
  4

  6

 40
0.0
 41
0.0
 42
0.0
 43
0.0
 44
0.0
 45
0.0
 46
0.0
 47
0.0
 48
0.0
 49
0.0
140
0.0
141
0.0
142
1.0
143
1.0
 70
   688
 72
     1
 73
     0
 74
     5
  7

 75
    16
 76
     0
 77
     5
 78
   300
147
1.0
148
0.0
149
0.0
100
AcDbLayout
  1
Layout2
 70
     1
 71
     2
 10
0.0
 20
0.0
 11
0.0
 21
0.0
 12
0.0
 22
0.0
 32
0.0
 14
0.0
 24
0.0
 34
0.0
 15
0.0
 25
0.0
 35
0.0
146
0.0
 13
0.0
 23
0.0
 33
0.0
 16
1.0
 26
0.0
 36
0.0
 17
0.0
 27
1.0
 37
0.0
 76
     0
330
23
  0
LAYOUT
  5
22
102
{ACAD_REACTORS
330
1A
102
}
330
1A
100
AcDbPlotSettings
  1

  2
none_device
  4
Letter_(8.50_x_11.00_Inches)
  6

 40
6.35
 41
6.35
 42
6.35000508
 43
6.35000508
 44
215.9
 45
279.4
 46
0.0
 47
0.0
 48
0.0
 49
0.0
140
0.0
141
0.0
142
1.0
143
1.0
 70
  1712
 72
     1
 73
     0
 74
     0
  7

 75
     0
 76
     0
 77
     5
 78
   300
147
1.0
148
0.0
149
0.0
100
AcDbLayout
  1
Model
 70
     1
 71
     0
 10
-420.0
 20
-297.0
 11
420.0
 21
297.0
 12
0.0
 22
0.0
 32
0.0
 14
-420.0
 24
-297.0
 34
0.0
 15
420.0
 25
297.0
 35
0.0
146
0.0
 13
0.0
 23
0.0
 33
0.0
 16
1.0
 26
0.0
 36
0.0
 17
0.0
 27
1.0
 37
0.0
 76
     0
330
1F
331
29
  0
MATERIAL
  5
45
102
{ACAD_REACTORS
330
43
102
}
102
{ACAD_XDICTIONARY
360
2BF
102
}
330
43
100
AcDbMaterial
  1
ByBlock
  0
MATERIAL
  5
44
102
{ACAD_REACTORS
330
43
102
}
102
{ACAD_XDICTIONARY
360
2BD
102
}
330
43
100
AcDbMaterial
  1
ByLayer
  0
MATERIAL
  5
46
102
{ACAD_REACTORS
330
43
102
}
102
{ACAD_XDICTIONARY
360
2C1
102
}
330
43
100
AcDbMaterial
  1
Global
  0
MLEADERSTYLE
  5
6C
102
{ACAD_REACTORS
330
6B
102
}
102
{ACAD_XDICTIONARY
360
2C7
102
}
330
6B
100
AcDbMLeaderStyle
170
     2
171
     1
172
     0
 90
        2
 40
0.0
 41
0.0
173
     1
 91
-1056964608
340
14
 92
       -2
290
     1
 42
2.0
291
     1
 43
8.0
  3
Standard
341
0
 44
4.0
300

342
11
174
     1
178
     6
175
     1
176
     0
 93
-1056964608
 45
4.0
292
     0
297
     0
 46
4.0
343
0
 94
-1056964608
 47
1.0
 49
1.0
140
1.0
293
     1
141
0.0
294
     1
177
     0
142
1.0
295
     0
296
     0
143
3.75
1001
ACAD_MLEADERVER
1070
     2
  0
MLINESTYLE
  5
18
102
{ACAD_REACTORS
330
17
102
}
330
17
100
AcDbMlineStyle
  2
Standard
 70
     0
  3

 62
   256
 51
90.0
 52
90.0
 71
     2
 49
0.5
 62
   256
  6
BYLAYER
 49
-0.5
 62
   256
  6
BYLAYER
  0
ACDBPLACEHOLDER
  5
F
102
{ACAD_REACTORS
330
E
102
}
330
E
  0
SCALE
  5
48
102
{ACAD_REACTORS
330
47
102
}
330
47
100
AcDbScale
 70
     0
300
1:1
140
1.0
141
1.0
290
     1
  0
SCALE
  5
49
102
{ACAD_REACTORS
330
47
102
}
330
47
100
AcDbScale
 70
     0
300
1:2
140
1.0
141
2.0
290
     0
  0
SCALE
  5
4A
102
{ACAD_REACTORS
330
47
102
}
330
47
100
AcDbScale
 70
     0
300
1:4
140
1.0
141
4.0
290
     0
  0
SCALE
  5
4B
102
{ACAD_REACTORS
330
47
102
}
330
47
100
AcDbScale
 70
     0
300
1:5
140
1.0
141
5.0
290
     0
  0
SCALE
  5
4C
102
{ACAD_REACTORS
330
47
102
}
330
47
100
AcDbScale
 70
     0
300
1:8
140
1.0
141
8.0
290
     0
  0
SCALE
  5
4D
102
{ACAD_REACTORS
330
47
102
}
330
47
100
AcDbScale
 70
     0
300
1:10
140
1.0
141
10.0
290
     0
  0
SCALE
  5
4E
102
{ACAD_REACTORS
330
47
102
}
330
47
100
AcDbScale
 70
     0
300
1:16
140
1.0
141
16.0
290
     0
  0
SCALE
  5
4F
102
{ACAD_REACTORS
330
47
102
}
330
47
100
AcDbScale
 70
     0
300
1:20
140
1.0
141
20.0
290
     0
  0
SCALE
  5
50
102
{ACAD_REACTORS
330
47
102
}
330
47
100
AcDbScale
 70
     0
300
1:30
140
1.0
141
30.0
290
     0
  0
SCALE
  5
51
102
{ACAD_REACTORS
330
47
102
}
330
47
100
AcDbScale
 70
     0
300
1:40
140
1.0
141
40.0
290
     0
  0
SCALE
  5
52
102
{ACAD_REACTORS
330
47
102
}
330
47
100
AcDbScale
 70
     0
300
1:50
140
1.0
141
50.0
290
     0
  0
SCALE
  5
53
102
{ACAD_REACTORS
330
47
102
}
330
47
100
AcDbScale
 70
     0
300
1:100
140
1.0
141
100.0
290
     0
  0
SCALE
  5
54
102
{ACAD_REACTORS
330
47
102
}
330
47
100
AcDbScale
 70
     0
300
2:1
140
2.0
141
1.0
290
     0
  0
SCALE
  5
55
102
{ACAD_REACTORS
330
47
102
}
330
47
100
AcDbScale
 70
     0
300
4:1
140
4.0
141
1.0
290
     0
  0
SCALE
  5
56
102
{ACAD_REACTORS
330
47
102
}
330
47
100
AcDbScale
 70
     0
300
8:1
140
8.0
141
1.0
290
     0
  0
SCALE
  5
57
102
{ACAD_REACTORS
330
47
102
}
330
47
100
AcDbScale
 70
     0
300
10:1
140
10.0
141
1.0
290
     0
  0
SCALE
  5
58
102
{ACAD_REACTORS
330
47
102
}
330
47
100
AcDbScale
 70
     0
300
100:1
140
100.0
141
1.0
290
     0
  0
SCALE
  5
59
102
{ACAD_REACTORS
330
47
102
}
330
47
100
AcDbScale
 70
     0
300
1/128" = 1'-0"
140
0.0078125
141
12.0
290
     0
  0
SCALE
  5
5A
102
{ACAD_REACTORS
330
47
102
}
330
47
100
AcDbScale
 70
     0
300
1/64" = 1'-0"
140
0.015625
141
12.0
290
     0
  0
SCALE
  5
5B
102
{ACAD_REACTORS
330
47
102
}
330
47
100
AcDbScale
 70
     0
300
1/32" = 1'-0"
140
0.03125
141
12.0
290
     0
  0
SCALE
  5
5C
102
{ACAD_REACTORS
330
47
102
}
330
47
100
AcDbScale
 70
     0
300
1/16" = 1'-0"
140
0.0625
141
12.0
290
     0
  0
SCALE
  5
5D
102
{ACAD_REACTORS
330
47
102
}
330
47
100
AcDbScale
 70
     0
300
3/32" = 1'-0"
140
0.09375
141
12.0
290
     0
  0
SCALE
  5
5E
102
{ACAD_REACTORS
330
47
102
}
330
47
100
AcDbScale
 70
     0
300
1/8" = 1'-0"
140
0.125
141
12.0
290
     0
  0
SCALE
  5
5F
102
{ACAD_REACTORS
330
47
102
}
330
47
100
AcDbScale
 70
     0
300
3/16" = 1'-0"
140
0.1875
141
12.0
290
     0
  0
SCALE
  5
60
102
{ACAD_REACTORS
330
47
102
}
330
47
100
AcDbScale
 70
     0
300
1/4" = 1'-0"
140
0.25
141
12.0
290
     0
  0
SCALE
  5
61
102
{ACAD_REACTORS
330
47
102
}
330
47
100
AcDbScale
 70
     0
300
3/8" = 1'-0"
140
0.375
141
12.0
290
     0
  0
SCALE
  5
62
102
{ACAD_REACTORS
330
47
102
}
330
47
100
AcDbScale
 70
     0
300
1/2" = 1'-0"
140
0.5
141
12.0
290
     0
  0
SCALE
  5
63
102
{ACAD_REACTORS
330
47
102
}
330
47
100
AcDbScale
 70
     0
300
3/4" = 1'-0"
140
0.75
141
12.0
290
     0
  0
SCALE
  5
64
102
{ACAD_REACTORS
330
47
102
}
330
47
100
AcDbScale
 70
     0
300
1" = 1'-0"
140
1.0
141
12.0
290
     0
  0
SCALE
  5
65
102
{ACAD_REACTORS
330
47
102
}
330
47
100
AcDbScale
 70
     0
300
1-1/2" = 1'-0"
140
1.5
141
12.0
290
     0
  0
SCALE
  5
66
102
{ACAD_REACTORS
330
47
102
}
330
47
100
AcDbScale
 70
     0
300
3" = 1'-0"
140
3.0
141
12.0
290
     0
  0
SCALE
  5
67
102
{ACAD_REACTORS
330
47
102
}
330
47
100
AcDbScale
 70
     0
300
6" = 1'-0"
140
6.0
141
12.0
290
     0
  0
SCALE
  5
68
102
{ACAD_REACTORS
330
47
102
}
330
47
100
AcDbScale
 70
     0
300
1'-0" = 1'-0"
140
12.0
141
12.0
290
     0
  0
TABLESTYLE
  5
6A
102
{ACAD_REACTORS
330
69
102
}
102
{ACAD_XDICTIONARY
360
2C3
102
}
330
69
100
AcDbTableStyle
  3
Standard
 70
     0
 71
     0
 40
0.06
 41
0.06
280
     0
281
     0
  7
Standard
140
4.5
170
     2
 62
     0
 63
   257
283
     0
274
    -2
284
     1
 64
     0
275
    -2
285
     1
 65
     0
276
    -2
286
     1
 66
     0
277
    -2
287
     1
 67
     0
278
    -2
288
     1
 68
     0
279
    -2
289
     1
 69
     0
  7
Standard
140
6.0
170
     5
 62
     0
 63
   257
283
     0
274
    -2
284
     1
 64
     0
275
    -2
285
     1
 65
     0
276
    -2
286
     1
 66
     0
277
    -2
287
     1
 67
     0
278
    -2
288
     1
 68
     0
279
    -2
289
     1
 69
     0
  7
Standard
140
4.5
170
     5
 62
     0
 63
   257
283
     0
274
    -2
284
     1
 64
     0
275
    -2
285
     1
 65
     0
276
    -2
286
     1
 66
     0
277
    -2
287
     1
 67
     0
278
    -2
288
     1
 68
     0
279
    -2
289
     1
 69
     0
  0
VISUALSTYLE
  5
2F
102
{ACAD_REACTORS
330
2A
102
}
102
{ACAD_XDICTIONARY
360
295
102
}
330
2A
100
AcDbVisualStyle
  2
2dWireframe
 70
     4
 71
     0
 72
     2
 73
     0
 90
        0
 40
0.6
 41
30.0
 62
     5
 63
     7
421
 16777215
 74
     1
 91
        4
 64
     7
 65
   257
 75
     1
175
     1
 42
1.0
 92
        0
 66
   257
 43
1.0
 76
     1
 77
     6
 78
     2
 67
     7
 79
     5
170
     0
171
     0
290
     0
174
     0
 93
        1
 44
0.0
173
     0
291
     0
 45
0.0
1001
ACAD
1000
AcDbSavedByObjectVersion
1070
     0
  0
VISUALSTYLE
  5
32
102
{ACAD_REACTORS
330
2A
102
}
102
{ACAD_XDICTIONARY
360
29B
102
}
330
2A
100
AcDbVisualStyle
  2
Basic
 70
     7
 71
     1
 72
     0
 73
     1
 90
        0
 40
0.6
 41
30.0
 62
     5
 63
     7
421
 16777215
 74
     0
 91
        4
 64
     7
 65
   257
 75
     1
175
     1
 42
1.0
 92
        8
 66
     7
 43
1.0
 76
     1
 77
     6
 78
     2
 67
     7
 79
     5
170
     0
171
     0
290
     0
174
     0
 93
        1
 44
0.0
173
     0
291
     1
 45
0.0
1001
ACAD
1000
AcDbSavedByObjectVersion
1070
     0
  0
VISUALSTYLE
  5
36
102
{ACAD_REACTORS
330
2A
102
}
102
{ACAD_XDICTIONARY
360
2A3
102
}
330
2A
100
AcDbVisualStyle
  2
Brighten
 70
    12
 71
     2
 72
     2
 73
     0
 90
        0
 40
0.6
 41
30.0
 62
     5
 63
     7
421
 16777215
 74
     1
 91
        4
 64
     7
 65
   257
 75
     1
175
     1
 42
1.0
 92
        8
 66
     7
 43
1.0
 76
     1
 77
     6
 78
     2
 67
     7
 79
     5
170
     0
171
     0
290
     0
174
     0
 93
        1
 44
50.0
173
     0
291
     1
 45
0.0
1001
ACAD
1000
AcDbSavedByObjectVersion
1070
     0
  0
VISUALSTYLE
  5
3A
102
{ACAD_REACTORS
330
2A
102
}
102
{ACAD_XDICTIONARY
360
2AB
102
}
330
2A
100
AcDbVisualStyle
  2
ColorChange
 70
    16
 71
     2
 72
     2
 73
     3
 90
        0
 40
0.6
 41
30.0
 62
     5
 63
     8
421
  8421504
 74
     1
 91
        4
 64
     7
 65
   257
 75
     1
175
     1
 42
1.0
 92
        8
 66
     8
424
  8421504
 43
1.0
 76
     1
 77
     6
 78
     2
 67
     7
 79
     5
170
     0
171
     0
290
     0
174
     0
 93
        1
 44
0.0
173
     0
291
     1
 45
0.0
1001
ACAD
1000
AcDbSavedByObjectVersion
1070
     0
  0
VISUALSTYLE
  5
34
102
{ACAD_REACTORS
330
2A
102
}
102
{ACAD_XDICTIONARY
360
29F
102
}
330
2A
100
AcDbVisualStyle
  2
Conceptual
 70
     9
 71
     3
 72
     2
 73
     0
 90
        0
 40
0.6
 41
30.0
 62
     5
 63
     7
421
 16777215
 74
     2
 91
        2
 64
     7
 65
   257
 75
     1
175
     1
 42
179.0
 92
        8
 66
     7
 43
1.0
 76
     1
 77
     6
 78
     2
 67
     7
 79
     3
170
     0
171
     0
290
     0
174
     0
 93
        1
 44
0.0
173
     0
291
     0
 45
0.0
1001
ACAD
1000
AcDbSavedByObjectVersion
1070
     0
  0
VISUALSTYLE
  5
35
102
{ACAD_REACTORS
330
2A
102
}
102
{ACAD_XDICTIONARY
360
2A1
102
}
330
2A
100
AcDbVisualStyle
  2
Dim
 70
    11
 71
     2
 72
     2
 73
     0
 90
        0
 40
0.6
 41
30.0
 62
     5
 63
     7
421
 16777215
 74
     1
 91
        4
 64
     7
 65
   257
 75
     1
175
     1
 42
1.0
 92
        8
 66
     7
 43
1.0
 76
     1
 77
     6
 78
     2
 67
     7
 79
     5
170
     0
171
     0
290
     0
174
     0
 93
        1
 44
-50.0
173
     0
291
     1
 45
0.0
1001
ACAD
1000
AcDbSavedByObjectVersion
1070
     0
  0
VISUALSTYLE
  5
3D
102
{ACAD_REACTORS
330
2A
102
}
102
{ACAD_XDICTIONARY
360
2B1
102
}
330
2A
100
AcDbVisualStyle
  2
EdgeColorOff
 70
    22
 71
     2
 72
     2
 73
     0
 90
        0
 40
0.6
 41
30.0
 62
     5
 63
     7
421
 16777215
 74
     1
 91
        4
 64
     7
 65
   257
 75
     1
175
     1
 42
1.0
 92
        8
 66
     7
 43
1.0
 76
     1
 77
     6
 78
     2
 67
     7
 79
     5
170
     0
171
     0
290
     0
174
     0
 93
        1
 44
0.0
173
     0
291
     1
 45
0.0
1001
ACAD
1000
AcDbSavedByObjectVersion
1070
     0
  0
VISUALSTYLE
  5
39
102
{ACAD_REACTORS
330
2A
102
}
102
{ACAD_XDICTIONARY
360
2A9
102
}
330
2A
100
AcDbVisualStyle
  2
Facepattern
 70
    15
 71
     2
 72
     2
 73
     0
 90
        0
 40
0.6
 41
30.0
 62
     5
 63
     7
421
 16777215
 74
     1
 91
        4
 64
     7
 65
   257
 75
     1
175
     1
 42
1.0
 92
        8
 66
     7
 43
1.0
 76
     1
 77
     6
 78
     2
 67
     7
 79
     5
170
     0
171
     0
290
     0
174
     0
 93
        1
 44
0.0
173
     0
291
     1
 45
0.0
1001
ACAD
1000
AcDbSavedByObjectVersion
1070
     0
  0
VISUALSTYLE
  5
2B
102
{ACAD_REACTORS
330
2A
102
}
102
{ACAD_XDICTIONARY
360
28D
102
}
330
2A
100
AcDbVisualStyle
  2
Flat
 70
     0
 71
     2
 72
     1
 73
     1
 90
        2
 40
0.6
 41
30.0
 62
     5
 63
     7
421
 16777215
 74
     0
 91
        0
 64
     7
 65
   257
 75
     1
175
     1
 42
1.0
 92
        8
 66
     7
 43
1.0
 76
     1
 77
     6
 78
     2
 67
     7
 79
     5
170
     0
171
     0
290
     0
174
     0
 93
       13
 44
0.0
173
     0
291
     1
 45
0.0
1001
ACAD
1000
AcDbSavedByObjectVersion
1070
     0
  0
VISUALSTYLE
  5
2C
102
{ACAD_REACTORS
330
2A
102
}
102
{ACAD_XDICTIONARY
360
28F
102
}
330
2A
100
AcDbVisualStyle
  2
FlatWithEdges
 70
     1
 71
     2
 72
     1
 73
     1
 90
        2
 40
0.6
 41
30.0
 62
     5
 63
     7
421
 16777215
 74
     1
 91
        0
 64
     7
 65
   257
 75
     1
175
     1
 42
1.0
 92
        0
 66
   257
 43
1.0
 76
     1
 77
     6
 78
     2
 67
     7
 79
     5
170
     0
171
     0
290
     0
174
     0
 93
       13
 44
0.0
173
     0
291
     1
 45
0.0
1001
ACAD
1000
AcDbSavedByObjectVersion
1070
     0
  0
VISUALSTYLE
  5
2D
102
{ACAD_REACTORS
330
2A
102
}
102
{ACAD_XDICTIONARY
360
291
102
}
330
2A
100
AcDbVisualStyle
  2
Gouraud
 70
     2
 71
     2
 72
     2
 73
     1
 90
        2
 40
0.6
 41
30.0
 62
     5
 63
     7
421
 16777215
 74
     0
 91
        0
 64
     7
 65
   257
 75
     1
175
     1
 42
1.0
 92
        0
 66
     7
 43
1.0
 76
     1
 77
     6
 78
     2
 67
     7
 79
     5
170
     0
171
     0
290
     0
174
     0
 93
       13
 44
0.0
173
     0
291
     1
 45
0.0
1001
ACAD
1000
AcDbSavedByObjectVersion
1070
     0
  0
VISUALSTYLE
  5
2E
102
{ACAD_REACTORS
330
2A
102
}
102
{ACAD_XDICTIONARY
360
293
102
}
330
2A
100
AcDbVisualStyle
  2
GouraudWithEdges
 70
     3
 71
     2
 72
     2
 73
     1
 90
        2
 40
0.6
 41
30.0
 62
     5
 63
     7
421
 16777215
 74
     1
 91
        0
 64
     7
 65
   257
 75
     1
175
     1
 42
1.0
 92
        0
 66
   257
 43
1.0
 76
     1
 77
     6
 78
     2
 67
     7
 79
     5
170
     0
171
     0
290
     0
174
     0
 93
       13
 44
0.0
173
     0
291
     1
 45
0.0
1001
ACAD
1000
AcDbSavedByObjectVersion
1070
     0
  0
VISUALSTYLE
  5
31
102
{ACAD_REACTORS
330
2A
102
}
102
{ACAD_XDICTIONARY
360
299
102
}
330
2A
100
AcDbVisualStyle
  2
Hidden
 70
     6
 71
     1
 72
     2
 73
     2
 90
        0
 40
0.6
 41
30.0
 62
     5
 63
     7
421
 16777215
 74
     2
 91
        2
 64
     7
 65
   257
 75
     2
175
     1
 42
40.0
 92
        0
 66
   257
 43
1.0
 76
     1
 77
     6
 78
     2
 67
     7
 79
     3
170
     0
171
     0
290
     0
174
     0
 93
        1
 44
0.0
173
     0
291
     0
 45
0.0
1001
ACAD
1000
AcDbSavedByObjectVersion
1070
     0
  0
VISUALSTYLE
  5
3B
102
{ACAD_REACTORS
330
2A
102
}
102
{ACAD_XDICTIONARY
360
2AD
102
}
330
2A
100
AcDbVisualStyle
  2
JitterOff
 70
    20
 71
     2
 72
     2
 73
     0
 90
        0
 40
0.6
 41
30.0
 62
     5
 63
     7
421
 16777215
 74
     1
 91
        4
 64
     7
 65
   257
 75
     1
175
     1
 42
1.0
 92
       10
 66
     7
 43
1.0
 76
     1
 77
     6
 78
     2
 67
     7
 79
     5
170
     0
171
     0
290
     0
174
     0
 93
        1
 44
0.0
173
     0
291
     1
 45
0.0
1001
ACAD
1000
AcDbSavedByObjectVersion
1070
     0
  0
VISUALSTYLE
  5
38
102
{ACAD_REACTORS
330
2A
102
}
102
{ACAD_XDICTIONARY
360
2A7
102
}
330
2A
100
AcDbVisualStyle
  2
Linepattern
 70
    14
 71
     2
 72
     2
 73
     0
 90
        0
 40
0.6
 41
30.0
 62
     5
 63
     7
421
 16777215
 74
     1
 91
        4
 64
     7
 65
   257
 75
     7
175
     7
 42
1.0
 92
        8
 66
     7
 43
1.0
 76
     1
 77
     6
 78
     2
 67
     7
 79
     5
170
     0
171
     0
290
     0
174
     0
 93
        1
 44
0.0
173
     0
291
     1
 45
0.0
1001
ACAD
1000
AcDbSavedByObjectVersion
1070
     0
  0
VISUALSTYLE
  5
3C
102
{ACAD_REACTORS
330
2A
102
}
102
{ACAD_XDICTIONARY
360
2AF
102
}
330
2A
100
AcDbVisualStyle
  2
OverhangOff
 70
    21
 71
     2
 72
     2
 73
     0
 90
        0
 40
0.6
 41
30.0
 62
     5
 63
     7
421
 16777215
 74
     1
 91
        4
 64
     7
 65
   257
 75
     1
175
     1
 42
1.0
 92
        9
 66
     7
 43
1.0
 76
     1
 77
     6
 78
     2
 67
     7
 79
     5
170
     0
171
     0
290
     0
174
     0
 93
        1
 44
0.0
173
     0
291
     1
 45
0.0
1001
ACAD
1000
AcDbSavedByObjectVersion
1070
     0
  0
VISUALSTYLE
  5
33
102
{ACAD_REACTORS
330
2A
102
}
102
{ACAD_XDICTIONARY
360
29D
102
}
330
2A
100
AcDbVisualStyle
  2
Realistic
 70
     8
 71
     2
 72
     3
 73
     0
 90
        2
 40
0.6
 41
30.0
 62
     5
 63
     7
421
 16777215
 74
     0
 91
        0
 64
     7
 65
   257
 75
     1
175
     1
 42
1.0
 92
        8
 66
   257
 43
1.0
 76
     1
 77
     6
 78
     2
 67
     7
 79
     3
170
     0
171
     0
290
     0
174
     0
 93
       13
 44
0.0
173
     0
291
     0
 45
0.0
1001
ACAD
1000
AcDbSavedByObjectVersion
1070
     0
  0
VISUALSTYLE
  5
42
102
{ACAD_REACTORS
330
2A
102
}
102
{ACAD_XDICTIONARY
360
2BB
102
}
330
2A
100
AcDbVisualStyle
  2
Shaded
 70
    27
 71
     2
 72
     2
 73
     1
 90
        2
 40
0.6
 41
30.0
 62
     5
 63
     7
421
 16777215
 74
     0
 91
        4
 64
     7
 65
   257
 75
     1
175
     1
 42
1.0
 92
        8
 66
   257
 43
1.0
 76
     1
 77
     6
 78
     2
 67
     8
425
  7895160
 79
     3
170
     0
171
     0
290
     0
174
     0
 93
        5
 44
0.0
173
     0
291
     0
 45
0.0
1001
ACAD
1000
AcDbSavedByObjectVersion
1070
     0
  0
VISUALSTYLE
  5
41
102
{ACAD_REACTORS
330
2A
102
}
102
{ACAD_XDICTIONARY
360
2B9
102
}
330
2A
100
AcDbVisualStyle
  2
Shaded with edges
 70
    26
 71
     2
 72
     2
 73
     1
 90
        2
 40
0.6
 41
30.0
 62
     5
 63
     7
421
 16777215
 74
     1
 91
       10
 64
     7
 65
   257
 75
     2
175
     1
 42
1.0
 92
        8
 66
   257
 43
1.0
 76
     1
 77
     6
 78
     2
 67
     7
 79
     3
170
     0
171
     0
290
     0
174
     0
 93
        5
 44
0.0
173
     0
291
     0
 45
0.0
1001
ACAD
1000
AcDbSavedByObjectVersion
1070
     0
  0
VISUALSTYLE
  5
3E
102
{ACAD_REACTORS
330
2A
102
}
102
{ACAD_XDICTIONARY
360
2B3
102
}
330
2A
100
AcDbVisualStyle
  2
Shades of Gray
 70
    23
 71
     2
 72
     2
 73
     3
 90
        0
 40
0.6
 41
30.0
 62
     5
 63
     7
421
 16777215
 74
     2
 91
        2
 64
     7
 65
     7
 75
     1
175
     1
 42
40.0
 92
        8
 66
     7
 43
1.0
 76
     1
 77
     6
 78
     2
 67
     7
 79
     3
170
     0
171
     0
290
     0
174
     0
 93
        1
 44
0.0
173
     0
291
     0
 45
0.0
1001
ACAD
1000
AcDbSavedByObjectVersion
1070
     0
  0
VISUALSTYLE
  5
3F
102
{ACAD_REACTORS
330
2A
102
}
102
{ACAD_XDICTIONARY
360
2B5
102
}
330
2A
100
AcDbVisualStyle
  2
Sketchy
 70
    24
 71
     1
 72
     2
 73
     2
 90
        0
 40
0.6
 41
30.0
 62
     5
 63
     7
421
 16777215
 74
     2
 91
        2
 64
     7
 65
     7
 75
     1
175
     1
 42
40.0
 92
       11
 66
     7
 43
1.0
 76
     1
 77
     6
 78
     2
 67
     7
 79
     6
170
     0
171
     0
290
     0
174
     0
 93
        1
 44
0.0
173
     0
291
     0
 45
0.0
1001
ACAD
1000
AcDbSavedByObjectVersion
1070
     0
  0
VISUALSTYLE
  5
37
102
{ACAD_REACTORS
330
2A
102
}
102
{ACAD_XDICTIONARY
360
2A5
102
}
330
2A
100
AcDbVisualStyle
  2
Thicken
 70
    13
 71
     2
 72
     2
 73
     0
 90
        0
 40
0.6
 41
30.0
 62
     5
 63
     7
421
 16777215
 74
     1
 91
        4
 64
     7
 65
   257
 75
     1
175
     1
 42
1.0
 92
       12
 66
     7
 43
1.0
 76
     1
 77
     6
 78
     2
 67
     7
 79
     5
170
     0
171
     0
290
     0
174
     0
 93
        1
 44
0.0
173
     0
291
     1
 45
0.0
1001
ACAD
1000
AcDbSavedByObjectVersion
1070
     0
  0
VISUALSTYLE
  5
30
102
{ACAD_REACTORS
330
2A
102
}
102
{ACAD_XDICTIONARY
360
297
102
}
330
2A
100
AcDbVisualStyle
  2
Wireframe
 70
     5
 71
     0
 72
     2
 73
     0
 90
        0
 40
0.6
 41
30.0
 62
     5
 63
     7
421
 16777215
 74
     1
 91
        4
 64
     7
 65
   257
 75
     1
175
     1
 42
1.0
 92
        0
 66
   257
 43
1.0
 76
     1
 77
     6
 78
     2
 67
     7
 79
     3
170
     0
171
     0
290
     0
174
     0
 93
        1
 44
0.0
173
     0
291
     0
 45
0.0
1001
ACAD
1000
AcDbSavedByObjectVersion
1070
     0
  0
VISUALSTYLE
  5
40
102
{ACAD_REACTORS
330
2A
102
}
102
{ACAD_XDICTIONARY
360
2B7
102
}
330
2A
100
AcDbVisualStyle
  2
X-Ray
 70
    25
 71
     2
 72
     2
 73
     1
 90
        1
 40
0.5
 41
30.0
 62
     5
 63
     7
421
 16777215
 74
     1
 91
        0
 64
     7
 65
   257
 75
     1
175
     1
 42
1.0
 92
        8
 66
     7
 43
1.0
 76
     1
 77
     6
 78
     2
 67
     7
 79
     3
170
     0
171
     0
290
     0
174
     0
 93
       13
 44
0.0
173
     0
291
     0
 45
0.0
1001
ACAD
1000
AcDbSavedByObjectVersion
1070
     0
  0
DICTIONARYVAR
  5
28A
102
{ACAD_REACTORS
330
289
102
}
330
289
100
DictionaryVariables
280
     0
  1
1:1
  0
DICTIONARYVAR
  5
2CE
102
{ACAD_REACTORS
330
289
102
}
330
289
100
DictionaryVariables
280
     0
  1
3.500000
  0
DICTIONARYVAR
  5
2CF
102
{ACAD_REACTORS
330
289
102
}
330
289
100
DictionaryVariables
280
     0
  1
acadiso.lin
  0
DICTIONARYVAR
  5
2CB
102
{ACAD_REACTORS
330
289
102
}
330
289
100
DictionaryVariables
280
     0
  1
Standard
  0
DICTIONARYVAR
  5
2CA
102
{ACAD_REACTORS
330
289
102
}
330
289
100
DictionaryVariables
280
     0
  1
Standard
  0
DICTIONARYVAR
  5
28B
102
{ACAD_REACTORS
330
289
102
}
330
289
100
DictionaryVariables
280
     0
  1
1
  0
DICTIONARYVAR
  5
28C
102
{ACAD_REACTORS
330
289
102
}
330
289
100
DictionaryVariables
280
     0
  1
2
  0
DICTIONARY
  5
2BF
330
45
100
AcDbDictionary
280
     1
281
     1
  3
ACAD_XREC_ROUNDTRIP
360
2C0
  0
DICTIONARY
  5
2BD
330
44
100
AcDbDictionary
280
     1
281
     1
  3
ACAD_XREC_ROUNDTRIP
360
2BE
  0
DICTIONARY
  5
2C1
330
46
100
AcDbDictionary
280
     1
281
     1
  3
ACAD_XREC_ROUNDTRIP
360
2C2
  0
DICTIONARY
  5
2C7
330
6C
100
AcDbDictionary
280
     1
281
     1
  3
ACAD_XREC_ROUNDTRIP
360
2C8
  0
DICTIONARY
  5
2C3
330
6A
100
AcDbDictionary
280
     1
281
     1
  3
ACAD_ROUNDTRIP_2008_TABLESTYLE_CELLSTYLEMAP
360
2C5
  3
ACAD_XREC_ROUNDTRIP
360
2C4
  0
DICTIONARY
  5
295
330
2F
100
AcDbDictionary
280
     1
281
     1
  3
ACAD_XREC_ROUNDTRIP
360
296
  0
DICTIONARY
  5
29B
330
32
100
AcDbDictionary
280
     1
281
     1
  3
ACAD_XREC_ROUNDTRIP
360
29C
  0
DICTIONARY
  5
2A3
330
36
100
AcDbDictionary
280
     1
281
     1
  3
ACAD_XREC_ROUNDTRIP
360
2A4
  0
DICTIONARY
  5
2AB
330
3A
100
AcDbDictionary
280
     1
281
     1
  3
ACAD_XREC_ROUNDTRIP
360
2AC
  0
DICTIONARY
  5
29F
330
34
100
AcDbDictionary
280
     1
281
     1
  3
ACAD_XREC_ROUNDTRIP
360
2A0
  0
DICTIONARY
  5
2A1
330
35
100
AcDbDictionary
280
     1
281
     1
  3
ACAD_XREC_ROUNDTRIP
360
2A2
  0
DICTIONARY
  5
2B1
330
3D
100
AcDbDictionary
280
     1
281
     1
  3
ACAD_XREC_ROUNDTRIP
360
2B2
  0
DICTIONARY
  5
2A9
330
39
100
AcDbDictionary
280
     1
281
     1
  3
ACAD_XREC_ROUNDTRIP
360
2AA
  0
DICTIONARY
  5
28D
330
2B
100
AcDbDictionary
280
     1
281
     1
  3
ACAD_XREC_ROUNDTRIP
360
28E
  0
DICTIONARY
  5
28F
330
2C
100
AcDbDictionary
280
     1
281
     1
  3
ACAD_XREC_ROUNDTRIP
360
290
  0
DICTIONARY
  5
291
330
2D
100
AcDbDictionary
280
     1
281
     1
  3
ACAD_XREC_ROUNDTRIP
360
292
  0
DICTIONARY
  5
293
330
2E
100
AcDbDictionary
280
     1
281
     1
  3
ACAD_XREC_ROUNDTRIP
360
294
  0
DICTIONARY
  5
299
330
31
100
AcDbDictionary
280
     1
281
     1
  3
ACAD_XREC_ROUNDTRIP
360
29A
  0
DICTIONARY
  5
2AD
330
3B
100
AcDbDictionary
280
     1
281
     1
  3
ACAD_XREC_ROUNDTRIP
360
2AE
  0
DICTIONARY
  5
2A7
330
38
100
AcDbDictionary
280
     1
281
     1
  3
ACAD_XREC_ROUNDTRIP
360
2A8
  0
DICTIONARY
  5
2AF
330
3C
100
AcDbDictionary
280
     1
281
     1
  3
ACAD_XREC_ROUNDTRIP
360
2B0
  0
DICTIONARY
  5
29D
330
33
100
AcDbDictionary
280
     1
281
     1
  3
ACAD_XREC_ROUNDTRIP
360
29E
  0
DICTIONARY
  5
2BB
330
42
100
AcDbDictionary
280
     1
281
     1
  3
ACAD_XREC_ROUNDTRIP
360
2BC
  0
DICTIONARY
  5
2B9
330
41
100
AcDbDictionary
280
     1
281
     1
  3
ACAD_XREC_ROUNDTRIP
360
2BA
  0
DICTIONARY
  5
2B3
330
3E
100
AcDbDictionary
280
     1
281
     1
  3
ACAD_XREC_ROUNDTRIP
360
2B4
  0
DICTIONARY
  5
2B5
330
3F
100
AcDbDictionary
280
     1
281
     1
  3
ACAD_XREC_ROUNDTRIP
360
2B6
  0
DICTIONARY
  5
2A5
330
37
100
AcDbDictionary
280
     1
281
     1
  3
ACAD_XREC_ROUNDTRIP
360
2A6
  0
DICTIONARY
  5
297
330
30
100
AcDbDictionary
280
     1
281
     1
  3
ACAD_XREC_ROUNDTRIP
360
298
  0
DICTIONARY
  5
2B7
330
40
100
AcDbDictionary
280
     1
281
     1
  3
ACAD_XREC_ROUNDTRIP
360
2B8
  0
XRECORD
  5
2C0
102
{ACAD_REACTORS
330
2BF
102
}
330
2BF
100
AcDbXrecord
280
     1
102
MATERIAL
148
0.0
149
0.0
149
0.0
 93
        0
 94
      127
282
     0
 72
     1
 77
     1
171
     1
175
     1
179
     1
273
     0
  0
XRECORD
  5
2BE
102
{ACAD_REACTORS
330
2BD
102
}
330
2BD
100
AcDbXrecord
280
     1
102
MATERIAL
148
0.0
149
0.0
149
0.0
 93
        0
 94
      127
282
     0
 72
     1
 77
     1
171
     1
175
     1
179
     1
273
     0
  0
XRECORD
  5
2C2
102
{ACAD_REACTORS
330
2C1
102
}
330
2C1
100
AcDbXrecord
280
     1
102
MATERIAL
148
0.0
149
0.0
149
0.0
 93
        0
 94
      127
282
     0
 72
     1
 77
     1
171
     1
175
     1
179
     1
273
     0
  0
XRECORD
  5
2C8
102
{ACAD_REACTORS
330
2C7
102
}
330
2C7
100
AcDbXrecord
280
     1
102
ACAD_ROUNDTRIP_2010_MLEADER_STYLE
  0
CELLSTYLEMAP
  5
2C5
102
{ACAD_REACTORS
330
2C3
102
}
330
2C3
100
AcDbCellStyleMap
 90
        3
300
CELLSTYLE
  1
TABLEFORMAT_BEGIN
 90
        5
170
     1
 91
        0
 92
    32768
 62
   257
 93
        1
300
CONTENTFORMAT
  1
CONTENTFORMAT_BEGIN
 90
        0
 91
        0
 92
        4
 93
        0
300

 40
0.0
140
1.0
 94
        5
 62
     0
340
11
144
6.0
309
CONTENTFORMAT_END
171
     1
301
MARGIN
  1
CELLMARGIN_BEGIN
 40
1.5
 40
1.5
 40
1.5
 40
1.5
 40
1.5
 40
1.5
309
CELLMARGIN_END
 94
        6
 95
        1
302
GRIDFORMAT
  1
GRIDFORMAT_BEGIN
 90
        0
 91
        1
 62
     0
 92
       -2
340
14
 93
        0
 40
0.045
309
GRIDFORMAT_END
 95
        2
302
GRIDFORMAT
  1
GRIDFORMAT_BEGIN
 90
        0
 91
        1
 62
     0
 92
       -2
340
14
 93
        0
 40
0.045
309
GRIDFORMAT_END
 95
        4
302
GRIDFORMAT
  1
GRIDFORMAT_BEGIN
 90
        0
 91
        1
 62
     0
 92
       -2
340
14
 93
        0
 40
0.045
309
GRIDFORMAT_END
 95
        8
302
GRIDFORMAT
  1
GRIDFORMAT_BEGIN
 90
        0
 91
        1
 62
     0
 92
       -2
340
14
 93
        0
 40
0.045
309
GRIDFORMAT_END
 95
       16
302
GRIDFORMAT
  1
GRIDFORMAT_BEGIN
 90
        0
 91
        1
 62
     0
 92
       -2
340
14
 93
        0
 40
0.045
309
GRIDFORMAT_END
 95
       32
302
GRIDFORMAT
  1
GRIDFORMAT_BEGIN
 90
        0
 91
        1
 62
     0
 92
       -2
340
14
 93
        0
 40
0.045
309
GRIDFORMAT_END
309
TABLEFORMAT_END
  1
CELLSTYLE_BEGIN
 90
        1
 91
        1
300
_TITLE
309
CELLSTYLE_END
300
CELLSTYLE
  1
TABLEFORMAT_BEGIN
 90
        5
170
     1
 91
        0
 92
        0
 62
   257
 93
        1
300
CONTENTFORMAT
  1
CONTENTFORMAT_BEGIN
 90
        0
 91
        0
 92
        4
 93
        0
300

 40
0.0
140
1.0
 94
        5
 62
     0
340
11
144
4.5
309
CONTENTFORMAT_END
171
     1
301
MARGIN
  1
CELLMARGIN_BEGIN
 40
1.5
 40
1.5
 40
1.5
 40
1.5
 40
1.5
 40
1.5
309
CELLMARGIN_END
 94
        6
 95
        1
302
GRIDFORMAT
  1
GRIDFORMAT_BEGIN
 90
        0
 91
        1
 62
     0
 92
       -2
340
14
 93
        0
 40
0.045
309
GRIDFORMAT_END
 95
        2
302
GRIDFORMAT
  1
GRIDFORMAT_BEGIN
 90
        0
 91
        1
 62
     0
 92
       -2
340
14
 93
        0
 40
0.045
309
GRIDFORMAT_END
 95
        4
302
GRIDFORMAT
  1
GRIDFORMAT_BEGIN
 90
        0
 91
        1
 62
     0
 92
       -2
340
14
 93
        0
 40
0.045
309
GRIDFORMAT_END
 95
        8
302
GRIDFORMAT
  1
GRIDFORMAT_BEGIN
 90
        0
 91
        1
 62
     0
 92
       -2
340
14
 93
        0
 40
0.045
309
GRIDFORMAT_END
 95
       16
302
GRIDFORMAT
  1
GRIDFORMAT_BEGIN
 90
        0
 91
        1
 62
     0
 92
       -2
340
14
 93
        0
 40
0.045
309
GRIDFORMAT_END
 95
       32
302
GRIDFORMAT
  1
GRIDFORMAT_BEGIN
 90
        0
 91
        1
 62
     0
 92
       -2
340
14
 93
        0
 40
0.045
309
GRIDFORMAT_END
309
TABLEFORMAT_END
  1
CELLSTYLE_BEGIN
 90
        2
 91
        1
300
_HEADER
309
CELLSTYLE_END
300
CELLSTYLE
  1
TABLEFORMAT_BEGIN
 90
        5
170
     1
 91
        0
 92
        0
 62
   257
 93
        1
300
CONTENTFORMAT
  1
CONTENTFORMAT_BEGIN
 90
        0
 91
        0
 92
        4
 93
        0
300

 40
0.0
140
1.0
 94
        2
 62
     0
340
11
144
4.5
309
CONTENTFORMAT_END
171
     1
301
MARGIN
  1
CELLMARGIN_BEGIN
 40
1.5
 40
1.5
 40
1.5
 40
1.5
 40
1.5
 40
1.5
309
CELLMARGIN_END
 94
        6
 95
        1
302
GRIDFORMAT
  1
GRIDFORMAT_BEGIN
 90
        0
 91
        1
 62
     0
 92
       -2
340
14
 93
        0
 40
0.045
309
GRIDFORMAT_END
 95
        2
302
GRIDFORMAT
  1
GRIDFORMAT_BEGIN
 90
        0
 91
        1
 62
     0
 92
       -2
340
14
 93
        0
 40
0.045
309
GRIDFORMAT_END
 95
        4
302
GRIDFORMAT
  1
GRIDFORMAT_BEGIN
 90
        0
 91
        1
 62
     0
 92
       -2
340
14
 93
        0
 40
0.045
309
GRIDFORMAT_END
 95
        8
302
GRIDFORMAT
  1
GRIDFORMAT_BEGIN
 90
        0
 91
        1
 62
     0
 92
       -2
340
14
 93
        0
 40
0.045
309
GRIDFORMAT_END
 95
       16
302
GRIDFORMAT
  1
GRIDFORMAT_BEGIN
 90
        0
 91
        1
 62
     0
 92
       -2
340
14
 93
        0
 40
0.045
309
GRIDFORMAT_END
 95
       32
302
GRIDFORMAT
  1
GRIDFORMAT_BEGIN
 90
        0
 91
        1
 62
     0
 92
       -2
340
14
 93
        0
 40
0.045
309
GRIDFORMAT_END
309
TABLEFORMAT_END
  1
CELLSTYLE_BEGIN
 90
        3
 91
        2
300
_DATA
309
CELLSTYLE_END
  0
XRECORD
  5
2C4
102
{ACAD_REACTORS
330
2C3
102
}
330
2C3
100
AcDbXrecord
280
     1
102
ACAD_ROUNDTRIP_PRE2007_TABLESTYLE
 90
        4
 91
        0
  1

 92
        4
 93
        0
  2

 94
        4
 95
        0
  3

  0
XRECORD
  5
296
102
{ACAD_REACTORS
330
295
102
}
330
295
100
AcDbXrecord
280
     1
102
RTVSPropertyOp0
 70
     1
102
RTVSPropertyOp1
 70
     1
102
RTVSPropertyOp2
 70
     1
102
RTVSPropertyOp3
 70
     1
102
RTVSPropertyOp4
 70
     1
102
RTVSPropertyOp5
 70
     1
102
RTVSPropertyOp6
 70
     1
102
RTVSPropertyOp7
 70
     1
102
RTVSPropertyOp8
 70
     1
102
RTVSPropertyOp9
 70
     1
102
RTVSPropertyOp10
 70
     1
102
RTVSPropertyOp11
 70
     1
102
RTVSPropertyOp12
 70
     1
102
RTVSPropertyOp13
 70
     1
102
RTVSPropertyOp14
 70
     1
102
RTVSPropertyOp15
 70
     1
102
RTVSPropertyOp16
 70
     1
102
RTVSPropertyOp17
 70
     1
102
RTVSPropertyOp18
 70
     1
102
RTVSPropertyOp19
 70
     1
102
RTVSPropertyOp20
 70
     1
102
RTVSPropertyOp21
 70
     1
102
RTVSPropertyOp22
 70
     1
102
RTVSPropertyOp23
 70
     1
102
RTVSPropertyOp24
 70
     1
102
RTVSPropertyOp25
 70
     1
102
RTVSPropertyOp26
 70
     1
102
RTVSPropertyOp27
 70
     1
102
RTVSPropertyOp28
 70
     1
102
RTVSPropertyOp29
 70
     1
102
RTVSPropertyOp30
 70
     1
102
RTVSPropertyOp31
 70
     1
102
RTVSPropertyOp32
 70
     1
102
RTVSPropertyOp33
 70
     1
102
RTVSPropertyOp34
 70
     1
102
RTVSPropertyOp35
 70
     1
102
RTVSPropertyOp36
 70
     1
102
RTVSPropertyOp37
 70
     1
102
RTVSPropertyOp38
 70
     1
102
RTVSPropertyOp39
 70
     1
102
RTVSPropertyOp40
 70
     1
102
RTVSPropertyOp41
 70
     1
102
RTVSPropertyOp42
 70
     1
102
RTVSPropertyOp43
 70
     1
102
RTVSPropertyOp44
 70
     1
102
RTVSPropertyOp45
 70
     1
102
RTVSPropertyOp46
 70
     1
102
RTVSPropertyOp47
 70
     1
102
RTVSPropertyOp48
 70
     1
102
RTVSPropertyOp49
 70
     1
102
RTVSPropertyOp50
 70
     1
102
RTVSPropertyOp51
 70
     0
102
RTVSPropertyOp52
 70
     0
102
RTVSPropertyOp53
 70
     1
102
RTVSPropertyOp54
 70
     1
102
RTVSPropertyOp55
 70
     1
102
RTVSPropertyOp56
 70
     1
102
RTVSPropertyOp57
 70
     1
102
RTVSPost2010Prop28
280
     1
102
RTVSPost2010PropOp28
 70
     1
102
RTVSPost2010Prop29
280
     1
102
RTVSPost2010PropOp29
 70
     1
102
RTVSPost2010Prop30
280
     0
102
RTVSPost2010PropOp30
 70
     1
102
RTVSPost2010Prop31
280
     0
102
RTVSPost2010PropOp31
 70
     1
102
RTVSPost2010Prop32
280
     0
102
RTVSPost2010PropOp32
 70
     1
102
RTVSPost2010Prop33
280
     0
102
RTVSPost2010PropOp33
 70
     1
102
RTVSPost2010Prop34
280
     0
102
RTVSPost2010PropOp34
 70
     1
102
RTVSPost2010Prop35
280
     0
102
RTVSPost2010PropOp35
 70
     1
102
RTVSPost2010Prop36
280
     0
102
RTVSPost2010PropOp36
 70
     1
102
RTVSPost2010Prop37
 90
       50
102
RTVSPost2010PropOp37
 70
     1
102
RTVSPost2010Prop38
140
0.0
102
RTVSPost2010PropOp38
 70
     1
102
RTVSPost2010Prop39
140
1.0
102
RTVSPost2010PropOp39
 70
     1
102
RTVSPost2010Prop40
 90
        0
102
RTVSPost2010PropOp40
 70
     1
102
RTVSPost2010Prop41ColorIndex
 90
       18
102
RTVSPost2010Prop41ColorRGB
 90
        0
102
RTVSPost2010PropOp41
 70
     1
102
RTVSPost2010Prop42
 90
       50
102
RTVSPost2010PropOp42
 70
     1
102
RTVSPost2010Prop43
 90
        3
102
RTVSPost2010PropOp43
 70
     1
102
RTVSPost2010Prop44ColorIndex
 90
        5
102
RTVSPost2010Prop44ColorRGB
 90
      255
102
RTVSPost2010PropOp44
 70
     1
102
RTVSPost2010Prop45
280
     0
102
RTVSPost2010PropOp45
 70
     1
102
RTVSPost2010Prop46
 90
       50
102
RTVSPost2010PropOp46
 70
     1
102
RTVSPost2010Prop47
 90
       50
102
RTVSPost2010PropOp47
 70
     1
102
RTVSPost2010Prop48
 90
       50
102
RTVSPost2010PropOp48
 70
     1
102
RTVSPost2010Prop49
280
     0
102
RTVSPost2010PropOp49
 70
     1
102
RTVSPost2010Prop50
 90
       50
102
RTVSPost2010PropOp50
 70
     1
102
RTVSPost2010Prop51ColorIndex
 90
      256
102
RTVSPost2010Prop51ColorRGB
 90
-16777216
102
RTVSPost2010PropOp51
 70
     0
102
RTVSPost2010Prop52
140
1.0
102
RTVSPost2010PropOp52
 70
     0
102
RTVSPost2010Prop53
 90
        2
102
RTVSPost2010PropOp53
 70
     1
102
RTVSPost2010Prop54
  1
strokes_ogs.tif
102
RTVSPost2010PropOp54
 70
     1
102
RTVSPost2010Prop55
280
     0
102
RTVSPost2010PropOp55
 70
     1
102
RTVSPost2010Prop56
140
1.0
102
RTVSPost2010PropOp56
 70
     1
102
RTVSPost2010Prop57
140
1.0
102
RTVSPost2010PropOp57
 70
     1
  0
XRECORD
  5
29C
102
{ACAD_REACTORS
330
29B
102
}
330
29B
100
AcDbXrecord
280
     1
102
RTVSPropertyOp0
 70
     1
102
RTVSPropertyOp1
 70
     1
102
RTVSPropertyOp2
 70
     1
102
RTVSPropertyOp3
 70
     1
102
RTVSPropertyOp4
 70
     1
102
RTVSPropertyOp5
 70
     1
102
RTVSPropertyOp6
 70
     1
102
RTVSPropertyOp7
 70
     1
102
RTVSPropertyOp8
 70
     1
102
RTVSPropertyOp9
 70
     1
102
RTVSPropertyOp10
 70
     1
102
RTVSPropertyOp11
 70
     1
102
RTVSPropertyOp12
 70
     1
102
RTVSPropertyOp13
 70
     1
102
RTVSPropertyOp14
 70
     1
102
RTVSPropertyOp15
 70
     1
102
RTVSPropertyOp16
 70
     1
102
RTVSPropertyOp17
 70
     1
102
RTVSPropertyOp18
 70
     1
102
RTVSPropertyOp19
 70
     1
102
RTVSPropertyOp20
 70
     1
102
RTVSPropertyOp21
 70
     1
102
RTVSPropertyOp22
 70
     1
102
RTVSPropertyOp23
 70
     1
102
RTVSPropertyOp24
 70
     1
102
RTVSPropertyOp25
 70
     1
102
RTVSPropertyOp26
 70
     1
102
RTVSPropertyOp27
 70
     1
102
RTVSPropertyOp28
 70
     1
102
RTVSPropertyOp29
 70
     1
102
RTVSPropertyOp30
 70
     1
102
RTVSPropertyOp31
 70
     1
102
RTVSPropertyOp32
 70
     1
102
RTVSPropertyOp33
 70
     1
102
RTVSPropertyOp34
 70
     1
102
RTVSPropertyOp35
 70
     1
102
RTVSPropertyOp36
 70
     1
102
RTVSPropertyOp37
 70
     1
102
RTVSPropertyOp38
 70
     1
102
RTVSPropertyOp39
 70
     1
102
RTVSPropertyOp40
 70
     1
102
RTVSPropertyOp41
 70
     1
102
RTVSPropertyOp42
 70
     1
102
RTVSPropertyOp43
 70
     1
102
RTVSPropertyOp44
 70
     1
102
RTVSPropertyOp45
 70
     1
102
RTVSPropertyOp46
 70
     1
102
RTVSPropertyOp47
 70
     1
102
RTVSPropertyOp48
 70
     1
102
RTVSPropertyOp49
 70
     1
102
RTVSPropertyOp50
 70
     1
102
RTVSPropertyOp51
 70
     0
102
RTVSPropertyOp52
 70
     0
102
RTVSPropertyOp53
 70
     1
102
RTVSPropertyOp54
 70
     1
102
RTVSPropertyOp55
 70
     1
102
RTVSPropertyOp56
 70
     1
102
RTVSPropertyOp57
 70
     1
102
RTVSPost2010Prop28
280
     0
102
RTVSPost2010PropOp28
 70
     1
102
RTVSPost2010Prop29
280
     1
102
RTVSPost2010PropOp29
 70
     1
102
RTVSPost2010Prop30
280
     1
102
RTVSPost2010PropOp30
 70
     1
102
RTVSPost2010Prop31
280
     0
102
RTVSPost2010PropOp31
 70
     1
102
RTVSPost2010Prop32
280
     0
102
RTVSPost2010PropOp32
 70
     1
102
RTVSPost2010Prop33
280
     0
102
RTVSPost2010PropOp33
 70
     1
102
RTVSPost2010Prop34
280
     0
102
RTVSPost2010PropOp34
 70
     1
102
RTVSPost2010Prop35
280
     0
102
RTVSPost2010PropOp35
 70
     1
102
RTVSPost2010Prop36
280
     0
102
RTVSPost2010PropOp36
 70
     1
102
RTVSPost2010Prop37
 90
       50
102
RTVSPost2010PropOp37
 70
     1
102
RTVSPost2010Prop38
140
0.0
102
RTVSPost2010PropOp38
 70
     1
102
RTVSPost2010Prop39
140
1.0
102
RTVSPost2010PropOp39
 70
     1
102
RTVSPost2010Prop40
 90
        0
102
RTVSPost2010PropOp40
 70
     1
102
RTVSPost2010Prop41ColorIndex
 90
       18
102
RTVSPost2010Prop41ColorRGB
 90
        0
102
RTVSPost2010PropOp41
 70
     1
102
RTVSPost2010Prop42
 90
       50
102
RTVSPost2010PropOp42
 70
     1
102
RTVSPost2010Prop43
 90
        3
102
RTVSPost2010PropOp43
 70
     1
102
RTVSPost2010Prop44ColorIndex
 90
        5
102
RTVSPost2010Prop44ColorRGB
 90
      255
102
RTVSPost2010PropOp44
 70
     1
102
RTVSPost2010Prop45
280
     0
102
RTVSPost2010PropOp45
 70
     1
102
RTVSPost2010Prop46
 90
       50
102
RTVSPost2010PropOp46
 70
     1
102
RTVSPost2010Prop47
 90
       50
102
RTVSPost2010PropOp47
 70
     1
102
RTVSPost2010Prop48
 90
       50
102
RTVSPost2010PropOp48
 70
     1
102
RTVSPost2010Prop49
280
     0
102
RTVSPost2010PropOp49
 70
     1
102
RTVSPost2010Prop50
 90
       50
102
RTVSPost2010PropOp50
 70
     1
102
RTVSPost2010Prop51ColorIndex
 90
      256
102
RTVSPost2010Prop51ColorRGB
 90
-16777216
102
RTVSPost2010PropOp51
 70
     0
102
RTVSPost2010Prop52
140
1.0
102
RTVSPost2010PropOp52
 70
     0
102
RTVSPost2010Prop53
 90
        2
102
RTVSPost2010PropOp53
 70
     1
102
RTVSPost2010Prop54
  1
strokes_ogs.tif
102
RTVSPost2010PropOp54
 70
     1
102
RTVSPost2010Prop55
280
     0
102
RTVSPost2010PropOp55
 70
     1
102
RTVSPost2010Prop56
140
1.0
102
RTVSPost2010PropOp56
 70
     1
102
RTVSPost2010Prop57
140
1.0
102
RTVSPost2010PropOp57
 70
     1
  0
XRECORD
  5
2A4
102
{ACAD_REACTORS
330
2A3
102
}
330
2A3
100
AcDbXrecord
280
     1
102
RTVSPropertyOp0
 70
     1
102
RTVSPropertyOp1
 70
     1
102
RTVSPropertyOp2
 70
     1
102
RTVSPropertyOp3
 70
     1
102
RTVSPropertyOp4
 70
     1
102
RTVSPropertyOp5
 70
     1
102
RTVSPropertyOp6
 70
     1
102
RTVSPropertyOp7
 70
     1
102
RTVSPropertyOp8
 70
     1
102
RTVSPropertyOp9
 70
     1
102
RTVSPropertyOp10
 70
     1
102
RTVSPropertyOp11
 70
     1
102
RTVSPropertyOp12
 70
     1
102
RTVSPropertyOp13
 70
     1
102
RTVSPropertyOp14
 70
     1
102
RTVSPropertyOp15
 70
     1
102
RTVSPropertyOp16
 70
     1
102
RTVSPropertyOp17
 70
     1
102
RTVSPropertyOp18
 70
     1
102
RTVSPropertyOp19
 70
     1
102
RTVSPropertyOp20
 70
     1
102
RTVSPropertyOp21
 70
     1
102
RTVSPropertyOp22
 70
     1
102
RTVSPropertyOp23
 70
     1
102
RTVSPropertyOp24
 70
     1
102
RTVSPropertyOp25
 70
     1
102
RTVSPropertyOp26
 70
     1
102
RTVSPropertyOp27
 70
     1
102
RTVSPropertyOp28
 70
     1
102
RTVSPropertyOp29
 70
     1
102
RTVSPropertyOp30
 70
     1
102
RTVSPropertyOp31
 70
     1
102
RTVSPropertyOp32
 70
     1
102
RTVSPropertyOp33
 70
     1
102
RTVSPropertyOp34
 70
     1
102
RTVSPropertyOp35
 70
     1
102
RTVSPropertyOp36
 70
     1
102
RTVSPropertyOp37
 70
     1
102
RTVSPropertyOp38
 70
     1
102
RTVSPropertyOp39
 70
     1
102
RTVSPropertyOp40
 70
     1
102
RTVSPropertyOp41
 70
     1
102
RTVSPropertyOp42
 70
     1
102
RTVSPropertyOp43
 70
     1
102
RTVSPropertyOp44
 70
     1
102
RTVSPropertyOp45
 70
     1
102
RTVSPropertyOp46
 70
     1
102
RTVSPropertyOp47
 70
     1
102
RTVSPropertyOp48
 70
     1
102
RTVSPropertyOp49
 70
     1
102
RTVSPropertyOp50
 70
     1
102
RTVSPropertyOp51
 70
     0
102
RTVSPropertyOp52
 70
     0
102
RTVSPropertyOp53
 70
     1
102
RTVSPropertyOp54
 70
     1
102
RTVSPropertyOp55
 70
     1
102
RTVSPropertyOp56
 70
     1
102
RTVSPropertyOp57
 70
     1
102
RTVSPost2010Prop28
280
     0
102
RTVSPost2010PropOp28
 70
     1
102
RTVSPost2010Prop29
280
     1
102
RTVSPost2010PropOp29
 70
     1
102
RTVSPost2010Prop30
280
     1
102
RTVSPost2010PropOp30
 70
     1
102
RTVSPost2010Prop31
280
     0
102
RTVSPost2010PropOp31
 70
     1
102
RTVSPost2010Prop32
280
     0
102
RTVSPost2010PropOp32
 70
     1
102
RTVSPost2010Prop33
280
     0
102
RTVSPost2010PropOp33
 70
     1
102
RTVSPost2010Prop34
280
     0
102
RTVSPost2010PropOp34
 70
     1
102
RTVSPost2010Prop35
280
     0
102
RTVSPost2010PropOp35
 70
     1
102
RTVSPost2010Prop36
280
     0
102
RTVSPost2010PropOp36
 70
     1
102
RTVSPost2010Prop37
 90
       50
102
RTVSPost2010PropOp37
 70
     1
102
RTVSPost2010Prop38
140
0.0
102
RTVSPost2010PropOp38
 70
     1
102
RTVSPost2010Prop39
140
1.0
102
RTVSPost2010PropOp39
 70
     1
102
RTVSPost2010Prop40
 90
        0
102
RTVSPost2010PropOp40
 70
     1
102
RTVSPost2010Prop41ColorIndex
 90
       18
102
RTVSPost2010Prop41ColorRGB
 90
        0
102
RTVSPost2010PropOp41
 70
     1
102
RTVSPost2010Prop42
 90
       50
102
RTVSPost2010PropOp42
 70
     1
102
RTVSPost2010Prop43
 90
        3
102
RTVSPost2010PropOp43
 70
     1
102
RTVSPost2010Prop44ColorIndex
 90
        5
102
RTVSPost2010Prop44ColorRGB
 90
      255
102
RTVSPost2010PropOp44
 70
     1
102
RTVSPost2010Prop45
280
     0
102
RTVSPost2010PropOp45
 70
     1
102
RTVSPost2010Prop46
 90
       50
102
RTVSPost2010PropOp46
 70
     1
102
RTVSPost2010Prop47
 90
       50
102
RTVSPost2010PropOp47
 70
     1
102
RTVSPost2010Prop48
 90
       50
102
RTVSPost2010PropOp48
 70
     1
102
RTVSPost2010Prop49
280
     0
102
RTVSPost2010PropOp49
 70
     1
102
RTVSPost2010Prop50
 90
       50
102
RTVSPost2010PropOp50
 70
     1
102
RTVSPost2010Prop51ColorIndex
 90
      256
102
RTVSPost2010Prop51ColorRGB
 90
-16777216
102
RTVSPost2010PropOp51
 70
     0
102
RTVSPost2010Prop52
140
1.0
102
RTVSPost2010PropOp52
 70
     0
102
RTVSPost2010Prop53
 90
        2
102
RTVSPost2010PropOp53
 70
     1
102
RTVSPost2010Prop54
  1
strokes_ogs.tif
102
RTVSPost2010PropOp54
 70
     1
102
RTVSPost2010Prop55
280
     0
102
RTVSPost2010PropOp55
 70
     1
102
RTVSPost2010Prop56
140
1.0
102
RTVSPost2010PropOp56
 70
     1
102
RTVSPost2010Prop57
140
1.0
102
RTVSPost2010PropOp57
 70
     1
  0
XRECORD
  5
2AC
102
{ACAD_REACTORS
330
2AB
102
}
330
2AB
100
AcDbXrecord
280
     1
102
RTVSPropertyOp0
 70
     1
102
RTVSPropertyOp1
 70
     1
102
RTVSPropertyOp2
 70
     1
102
RTVSPropertyOp3
 70
     1
102
RTVSPropertyOp4
 70
     1
102
RTVSPropertyOp5
 70
     1
102
RTVSPropertyOp6
 70
     1
102
RTVSPropertyOp7
 70
     1
102
RTVSPropertyOp8
 70
     1
102
RTVSPropertyOp9
 70
     1
102
RTVSPropertyOp10
 70
     1
102
RTVSPropertyOp11
 70
     1
102
RTVSPropertyOp12
 70
     1
102
RTVSPropertyOp13
 70
     1
102
RTVSPropertyOp14
 70
     1
102
RTVSPropertyOp15
 70
     1
102
RTVSPropertyOp16
 70
     1
102
RTVSPropertyOp17
 70
     1
102
RTVSPropertyOp18
 70
     1
102
RTVSPropertyOp19
 70
     1
102
RTVSPropertyOp20
 70
     1
102
RTVSPropertyOp21
 70
     1
102
RTVSPropertyOp22
 70
     1
102
RTVSPropertyOp23
 70
     1
102
RTVSPropertyOp24
 70
     1
102
RTVSPropertyOp25
 70
     1
102
RTVSPropertyOp26
 70
     1
102
RTVSPropertyOp27
 70
     1
102
RTVSPropertyOp28
 70
     1
102
RTVSPropertyOp29
 70
     1
102
RTVSPropertyOp30
 70
     1
102
RTVSPropertyOp31
 70
     1
102
RTVSPropertyOp32
 70
     1
102
RTVSPropertyOp33
 70
     1
102
RTVSPropertyOp34
 70
     1
102
RTVSPropertyOp35
 70
     1
102
RTVSPropertyOp36
 70
     1
102
RTVSPropertyOp37
 70
     1
102
RTVSPropertyOp38
 70
     1
102
RTVSPropertyOp39
 70
     1
102
RTVSPropertyOp40
 70
     1
102
RTVSPropertyOp41
 70
     1
102
RTVSPropertyOp42
 70
     1
102
RTVSPropertyOp43
 70
     1
102
RTVSPropertyOp44
 70
     1
102
RTVSPropertyOp45
 70
     1
102
RTVSPropertyOp46
 70
     1
102
RTVSPropertyOp47
 70
     1
102
RTVSPropertyOp48
 70
     1
102
RTVSPropertyOp49
 70
     1
102
RTVSPropertyOp50
 70
     1
102
RTVSPropertyOp51
 70
     0
102
RTVSPropertyOp52
 70
     0
102
RTVSPropertyOp53
 70
     1
102
RTVSPropertyOp54
 70
     1
102
RTVSPropertyOp55
 70
     1
102
RTVSPropertyOp56
 70
     1
102
RTVSPropertyOp57
 70
     1
102
RTVSPost2010Prop28
280
     0
102
RTVSPost2010PropOp28
 70
     1
102
RTVSPost2010Prop29
280
     1
102
RTVSPost2010PropOp29
 70
     1
102
RTVSPost2010Prop30
280
     1
102
RTVSPost2010PropOp30
 70
     1
102
RTVSPost2010Prop31
280
     0
102
RTVSPost2010PropOp31
 70
     1
102
RTVSPost2010Prop32
280
     0
102
RTVSPost2010PropOp32
 70
     1
102
RTVSPost2010Prop33
280
     0
102
RTVSPost2010PropOp33
 70
     1
102
RTVSPost2010Prop34
280
     0
102
RTVSPost2010PropOp34
 70
     1
102
RTVSPost2010Prop35
280
     0
102
RTVSPost2010PropOp35
 70
     1
102
RTVSPost2010Prop36
280
     0
102
RTVSPost2010PropOp36
 70
     1
102
RTVSPost2010Prop37
 90
       50
102
RTVSPost2010PropOp37
 70
     1
102
RTVSPost2010Prop38
140
0.0
102
RTVSPost2010PropOp38
 70
     1
102
RTVSPost2010Prop39
140
1.0
102
RTVSPost2010PropOp39
 70
     1
102
RTVSPost2010Prop40
 90
        0
102
RTVSPost2010PropOp40
 70
     1
102
RTVSPost2010Prop41ColorIndex
 90
       18
102
RTVSPost2010Prop41ColorRGB
 90
        0
102
RTVSPost2010PropOp41
 70
     1
102
RTVSPost2010Prop42
 90
       50
102
RTVSPost2010PropOp42
 70
     1
102
RTVSPost2010Prop43
 90
        3
102
RTVSPost2010PropOp43
 70
     1
102
RTVSPost2010Prop44ColorIndex
 90
        5
102
RTVSPost2010Prop44ColorRGB
 90
      255
102
RTVSPost2010PropOp44
 70
     1
102
RTVSPost2010Prop45
280
     0
102
RTVSPost2010PropOp45
 70
     1
102
RTVSPost2010Prop46
 90
       50
102
RTVSPost2010PropOp46
 70
     1
102
RTVSPost2010Prop47
 90
       50
102
RTVSPost2010PropOp47
 70
     1
102
RTVSPost2010Prop48
 90
       50
102
RTVSPost2010PropOp48
 70
     1
102
RTVSPost2010Prop49
280
     0
102
RTVSPost2010PropOp49
 70
     1
102
RTVSPost2010Prop50
 90
       50
102
RTVSPost2010PropOp50
 70
     1
102
RTVSPost2010Prop51ColorIndex
 90
      256
102
RTVSPost2010Prop51ColorRGB
 90
-16777216
102
RTVSPost2010PropOp51
 70
     0
102
RTVSPost2010Prop52
140
1.0
102
RTVSPost2010PropOp52
 70
     0
102
RTVSPost2010Prop53
 90
        2
102
RTVSPost2010PropOp53
 70
     1
102
RTVSPost2010Prop54
  1
strokes_ogs.tif
102
RTVSPost2010PropOp54
 70
     1
102
RTVSPost2010Prop55
280
     0
102
RTVSPost2010PropOp55
 70
     1
102
RTVSPost2010Prop56
140
1.0
102
RTVSPost2010PropOp56
 70
     1
102
RTVSPost2010Prop57
140
1.0
102
RTVSPost2010PropOp57
 70
     1
  0
XRECORD
  5
2A0
102
{ACAD_REACTORS
330
29F
102
}
330
29F
100
AcDbXrecord
280
     1
102
RTVSPropertyOp0
 70
     1
102
RTVSPropertyOp1
 70
     1
102
RTVSPropertyOp2
 70
     1
102
RTVSPropertyOp3
 70
     1
102
RTVSPropertyOp4
 70
     1
102
RTVSPropertyOp5
 70
     1
102
RTVSPropertyOp6
 70
     1
102
RTVSPropertyOp7
 70
     1
102
RTVSPropertyOp8
 70
     1
102
RTVSPropertyOp9
 70
     1
102
RTVSPropertyOp10
 70
     1
102
RTVSPropertyOp11
 70
     1
102
RTVSPropertyOp12
 70
     1
102
RTVSPropertyOp13
 70
     1
102
RTVSPropertyOp14
 70
     1
102
RTVSPropertyOp15
 70
     1
102
RTVSPropertyOp16
 70
     1
102
RTVSPropertyOp17
 70
     1
102
RTVSPropertyOp18
 70
     1
102
RTVSPropertyOp19
 70
     1
102
RTVSPropertyOp20
 70
     1
102
RTVSPropertyOp21
 70
     1
102
RTVSPropertyOp22
 70
     1
102
RTVSPropertyOp23
 70
     1
102
RTVSPropertyOp24
 70
     1
102
RTVSPropertyOp25
 70
     1
102
RTVSPropertyOp26
 70
     1
102
RTVSPropertyOp27
 70
     1
102
RTVSPropertyOp28
 70
     1
102
RTVSPropertyOp29
 70
     1
102
RTVSPropertyOp30
 70
     1
102
RTVSPropertyOp31
 70
     1
102
RTVSPropertyOp32
 70
     1
102
RTVSPropertyOp33
 70
     1
102
RTVSPropertyOp34
 70
     1
102
RTVSPropertyOp35
 70
     1
102
RTVSPropertyOp36
 70
     1
102
RTVSPropertyOp37
 70
     1
102
RTVSPropertyOp38
 70
     1
102
RTVSPropertyOp39
 70
     1
102
RTVSPropertyOp40
 70
     1
102
RTVSPropertyOp41
 70
     1
102
RTVSPropertyOp42
 70
     1
102
RTVSPropertyOp43
 70
     1
102
RTVSPropertyOp44
 70
     1
102
RTVSPropertyOp45
 70
     1
102
RTVSPropertyOp46
 70
     1
102
RTVSPropertyOp47
 70
     1
102
RTVSPropertyOp48
 70
     1
102
RTVSPropertyOp49
 70
     1
102
RTVSPropertyOp50
 70
     1
102
RTVSPropertyOp51
 70
     0
102
RTVSPropertyOp52
 70
     0
102
RTVSPropertyOp53
 70
     1
102
RTVSPropertyOp54
 70
     1
102
RTVSPropertyOp55
 70
     1
102
RTVSPropertyOp56
 70
     1
102
RTVSPropertyOp57
 70
     1
102
RTVSPost2010Prop28
280
     0
102
RTVSPost2010PropOp28
 70
     1
102
RTVSPost2010Prop29
280
     1
102
RTVSPost2010PropOp29
 70
     1
102
RTVSPost2010Prop30
280
     1
102
RTVSPost2010PropOp30
 70
     1
102
RTVSPost2010Prop31
280
     0
102
RTVSPost2010PropOp31
 70
     1
102
RTVSPost2010Prop32
280
     0
102
RTVSPost2010PropOp32
 70
     1
102
RTVSPost2010Prop33
280
     0
102
RTVSPost2010PropOp33
 70
     1
102
RTVSPost2010Prop34
280
     0
102
RTVSPost2010PropOp34
 70
     1
102
RTVSPost2010Prop35
280
     0
102
RTVSPost2010PropOp35
 70
     1
102
RTVSPost2010Prop36
280
     0
102
RTVSPost2010PropOp36
 70
     1
102
RTVSPost2010Prop37
 90
       50
102
RTVSPost2010PropOp37
 70
     1
102
RTVSPost2010Prop38
140
0.0
102
RTVSPost2010PropOp38
 70
     1
102
RTVSPost2010Prop39
140
1.0
102
RTVSPost2010PropOp39
 70
     1
102
RTVSPost2010Prop40
 90
        0
102
RTVSPost2010PropOp40
 70
     1
102
RTVSPost2010Prop41ColorIndex
 90
       18
102
RTVSPost2010Prop41ColorRGB
 90
        0
102
RTVSPost2010PropOp41
 70
     1
102
RTVSPost2010Prop42
 90
       50
102
RTVSPost2010PropOp42
 70
     1
102
RTVSPost2010Prop43
 90
        3
102
RTVSPost2010PropOp43
 70
     1
102
RTVSPost2010Prop44ColorIndex
 90
        5
102
RTVSPost2010Prop44ColorRGB
 90
      255
102
RTVSPost2010PropOp44
 70
     1
102
RTVSPost2010Prop45
280
     0
102
RTVSPost2010PropOp45
 70
     1
102
RTVSPost2010Prop46
 90
       50
102
RTVSPost2010PropOp46
 70
     1
102
RTVSPost2010Prop47
 90
       50
102
RTVSPost2010PropOp47
 70
     1
102
RTVSPost2010Prop48
 90
       50
102
RTVSPost2010PropOp48
 70
     1
102
RTVSPost2010Prop49
280
     0
102
RTVSPost2010PropOp49
 70
     1
102
RTVSPost2010Prop50
 90
       50
102
RTVSPost2010PropOp50
 70
     1
102
RTVSPost2010Prop51ColorIndex
 90
      256
102
RTVSPost2010Prop51ColorRGB
 90
-16777216
102
RTVSPost2010PropOp51
 70
     0
102
RTVSPost2010Prop52
140
1.0
102
RTVSPost2010PropOp52
 70
     0
102
RTVSPost2010Prop53
 90
        2
102
RTVSPost2010PropOp53
 70
     1
102
RTVSPost2010Prop54
  1
strokes_ogs.tif
102
RTVSPost2010PropOp54
 70
     1
102
RTVSPost2010Prop55
280
     0
102
RTVSPost2010PropOp55
 70
     1
102
RTVSPost2010Prop56
140
1.0
102
RTVSPost2010PropOp56
 70
     1
102
RTVSPost2010Prop57
140
1.0
102
RTVSPost2010PropOp57
 70
     1
  0
XRECORD
  5
2A2
102
{ACAD_REACTORS
330
2A1
102
}
330
2A1
100
AcDbXrecord
280
     1
102
RTVSPropertyOp0
 70
     1
102
RTVSPropertyOp1
 70
     1
102
RTVSPropertyOp2
 70
     1
102
RTVSPropertyOp3
 70
     1
102
RTVSPropertyOp4
 70
     1
102
RTVSPropertyOp5
 70
     1
102
RTVSPropertyOp6
 70
     1
102
RTVSPropertyOp7
 70
     1
102
RTVSPropertyOp8
 70
     1
102
RTVSPropertyOp9
 70
     1
102
RTVSPropertyOp10
 70
     1
102
RTVSPropertyOp11
 70
     1
102
RTVSPropertyOp12
 70
     1
102
RTVSPropertyOp13
 70
     1
102
RTVSPropertyOp14
 70
     1
102
RTVSPropertyOp15
 70
     1
102
RTVSPropertyOp16
 70
     1
102
RTVSPropertyOp17
 70
     1
102
RTVSPropertyOp18
 70
     1
102
RTVSPropertyOp19
 70
     1
102
RTVSPropertyOp20
 70
     1
102
RTVSPropertyOp21
 70
     1
102
RTVSPropertyOp22
 70
     1
102
RTVSPropertyOp23
 70
     1
102
RTVSPropertyOp24
 70
     1
102
RTVSPropertyOp25
 70
     1
102
RTVSPropertyOp26
 70
     1
102
RTVSPropertyOp27
 70
     1
102
RTVSPropertyOp28
 70
     1
102
RTVSPropertyOp29
 70
     1
102
RTVSPropertyOp30
 70
     1
102
RTVSPropertyOp31
 70
     1
102
RTVSPropertyOp32
 70
     1
102
RTVSPropertyOp33
 70
     1
102
RTVSPropertyOp34
 70
     1
102
RTVSPropertyOp35
 70
     1
102
RTVSPropertyOp36
 70
     1
102
RTVSPropertyOp37
 70
     1
102
RTVSPropertyOp38
 70
     1
102
RTVSPropertyOp39
 70
     1
102
RTVSPropertyOp40
 70
     1
102
RTVSPropertyOp41
 70
     1
102
RTVSPropertyOp42
 70
     1
102
RTVSPropertyOp43
 70
     1
102
RTVSPropertyOp44
 70
     1
102
RTVSPropertyOp45
 70
     1
102
RTVSPropertyOp46
 70
     1
102
RTVSPropertyOp47
 70
     1
102
RTVSPropertyOp48
 70
     1
102
RTVSPropertyOp49
 70
     1
102
RTVSPropertyOp50
 70
     1
102
RTVSPropertyOp51
 70
     0
102
RTVSPropertyOp52
 70
     0
102
RTVSPropertyOp53
 70
     1
102
RTVSPropertyOp54
 70
     1
102
RTVSPropertyOp55
 70
     1
102
RTVSPropertyOp56
 70
     1
102
RTVSPropertyOp57
 70
     1
102
RTVSPost2010Prop28
280
     0
102
RTVSPost2010PropOp28
 70
     1
102
RTVSPost2010Prop29
280
     1
102
RTVSPost2010PropOp29
 70
     1
102
RTVSPost2010Prop30
280
     1
102
RTVSPost2010PropOp30
 70
     1
102
RTVSPost2010Prop31
280
     0
102
RTVSPost2010PropOp31
 70
     1
102
RTVSPost2010Prop32
280
     0
102
RTVSPost2010PropOp32
 70
     1
102
RTVSPost2010Prop33
280
     0
102
RTVSPost2010PropOp33
 70
     1
102
RTVSPost2010Prop34
280
     0
102
RTVSPost2010PropOp34
 70
     1
102
RTVSPost2010Prop35
280
     0
102
RTVSPost2010PropOp35
 70
     1
102
RTVSPost2010Prop36
280
     0
102
RTVSPost2010PropOp36
 70
     1
102
RTVSPost2010Prop37
 90
       50
102
RTVSPost2010PropOp37
 70
     1
102
RTVSPost2010Prop38
140
0.0
102
RTVSPost2010PropOp38
 70
     1
102
RTVSPost2010Prop39
140
1.0
102
RTVSPost2010PropOp39
 70
     1
102
RTVSPost2010Prop40
 90
        0
102
RTVSPost2010PropOp40
 70
     1
102
RTVSPost2010Prop41ColorIndex
 90
       18
102
RTVSPost2010Prop41ColorRGB
 90
        0
102
RTVSPost2010PropOp41
 70
     1
102
RTVSPost2010Prop42
 90
       50
102
RTVSPost2010PropOp42
 70
     1
102
RTVSPost2010Prop43
 90
        3
102
RTVSPost2010PropOp43
 70
     1
102
RTVSPost2010Prop44ColorIndex
 90
        5
102
RTVSPost2010Prop44ColorRGB
 90
      255
102
RTVSPost2010PropOp44
 70
     1
102
RTVSPost2010Prop45
280
     0
102
RTVSPost2010PropOp45
 70
     1
102
RTVSPost2010Prop46
 90
       50
102
RTVSPost2010PropOp46
 70
     1
102
RTVSPost2010Prop47
 90
       50
102
RTVSPost2010PropOp47
 70
     1
102
RTVSPost2010Prop48
 90
       50
102
RTVSPost2010PropOp48
 70
     1
102
RTVSPost2010Prop49
280
     0
102
RTVSPost2010PropOp49
 70
     1
102
RTVSPost2010Prop50
 90
       50
102
RTVSPost2010PropOp50
 70
     1
102
RTVSPost2010Prop51ColorIndex
 90
      256
102
RTVSPost2010Prop51ColorRGB
 90
-16777216
102
RTVSPost2010PropOp51
 70
     0
102
RTVSPost2010Prop52
140
1.0
102
RTVSPost2010PropOp52
 70
     0
102
RTVSPost2010Prop53
 90
        2
102
RTVSPost2010PropOp53
 70
     1
102
RTVSPost2010Prop54
  1
strokes_ogs.tif
102
RTVSPost2010PropOp54
 70
     1
102
RTVSPost2010Prop55
280
     0
102
RTVSPost2010PropOp55
 70
     1
102
RTVSPost2010Prop56
140
1.0
102
RTVSPost2010PropOp56
 70
     1
102
RTVSPost2010Prop57
140
1.0
102
RTVSPost2010PropOp57
 70
     1
  0
XRECORD
  5
2B2
102
{ACAD_REACTORS
330
2B1
102
}
330
2B1
100
AcDbXrecord
280
     1
102
RTVSPropertyOp0
 70
     0
102
RTVSPropertyOp1
 70
     0
102
RTVSPropertyOp2
 70
     0
102
RTVSPropertyOp3
 70
     0
102
RTVSPropertyOp4
 70
     0
102
RTVSPropertyOp5
 70
     0
102
RTVSPropertyOp6
 70
     0
102
RTVSPropertyOp7
 70
     0
102
RTVSPropertyOp8
 70
     0
102
RTVSPropertyOp9
 70
     0
102
RTVSPropertyOp10
 70
     0
102
RTVSPropertyOp11
 70
     0
102
RTVSPropertyOp12
 70
     0
102
RTVSPropertyOp13
 70
     0
102
RTVSPropertyOp14
 70
     2
102
RTVSPropertyOp15
 70
     0
102
RTVSPropertyOp16
 70
     0
102
RTVSPropertyOp17
 70
     0
102
RTVSPropertyOp18
 70
     0
102
RTVSPropertyOp19
 70
     0
102
RTVSPropertyOp20
 70
     0
102
RTVSPropertyOp21
 70
     0
102
RTVSPropertyOp22
 70
     0
102
RTVSPropertyOp23
 70
     0
102
RTVSPropertyOp24
 70
     0
102
RTVSPropertyOp25
 70
     0
102
RTVSPropertyOp26
 70
     0
102
RTVSPropertyOp27
 70
     0
102
RTVSPropertyOp28
 70
     0
102
RTVSPropertyOp29
 70
     0
102
RTVSPropertyOp30
 70
     0
102
RTVSPropertyOp31
 70
     0
102
RTVSPropertyOp32
 70
     0
102
RTVSPropertyOp33
 70
     0
102
RTVSPropertyOp34
 70
     0
102
RTVSPropertyOp35
 70
     0
102
RTVSPropertyOp36
 70
     0
102
RTVSPropertyOp37
 70
     0
102
RTVSPropertyOp38
 70
     0
102
RTVSPropertyOp39
 70
     0
102
RTVSPropertyOp40
 70
     0
102
RTVSPropertyOp41
 70
     0
102
RTVSPropertyOp42
 70
     0
102
RTVSPropertyOp43
 70
     0
102
RTVSPropertyOp44
 70
     0
102
RTVSPropertyOp45
 70
     0
102
RTVSPropertyOp46
 70
     0
102
RTVSPropertyOp47
 70
     0
102
RTVSPropertyOp48
 70
     0
102
RTVSPropertyOp49
 70
     0
102
RTVSPropertyOp50
 70
     0
102
RTVSPropertyOp51
 70
     0
102
RTVSPropertyOp52
 70
     0
102
RTVSPropertyOp53
 70
     0
102
RTVSPropertyOp54
 70
     0
102
RTVSPropertyOp55
 70
     0
102
RTVSPropertyOp56
 70
     0
102
RTVSPropertyOp57
 70
     0
102
RTVSPost2010Prop28
280
     0
102
RTVSPost2010PropOp28
 70
     0
102
RTVSPost2010Prop29
280
     1
102
RTVSPost2010PropOp29
 70
     0
102
RTVSPost2010Prop30
280
     1
102
RTVSPost2010PropOp30
 70
     0
102
RTVSPost2010Prop31
280
     0
102
RTVSPost2010PropOp31
 70
     0
102
RTVSPost2010Prop32
280
     0
102
RTVSPost2010PropOp32
 70
     0
102
RTVSPost2010Prop33
280
     0
102
RTVSPost2010PropOp33
 70
     0
102
RTVSPost2010Prop34
280
     0
102
RTVSPost2010PropOp34
 70
     0
102
RTVSPost2010Prop35
280
     0
102
RTVSPost2010PropOp35
 70
     0
102
RTVSPost2010Prop36
280
     0
102
RTVSPost2010PropOp36
 70
     0
102
RTVSPost2010Prop37
 90
       50
102
RTVSPost2010PropOp37
 70
     0
102
RTVSPost2010Prop38
140
0.0
102
RTVSPost2010PropOp38
 70
     0
102
RTVSPost2010Prop39
140
1.0
102
RTVSPost2010PropOp39
 70
     0
102
RTVSPost2010Prop40
 90
        0
102
RTVSPost2010PropOp40
 70
     0
102
RTVSPost2010Prop41ColorIndex
 90
       18
102
RTVSPost2010Prop41ColorRGB
 90
        0
102
RTVSPost2010PropOp41
 70
     0
102
RTVSPost2010Prop42
 90
       50
102
RTVSPost2010PropOp42
 70
     0
102
RTVSPost2010Prop43
 90
        3
102
RTVSPost2010PropOp43
 70
     0
102
RTVSPost2010Prop44ColorIndex
 90
        5
102
RTVSPost2010Prop44ColorRGB
 90
      255
102
RTVSPost2010PropOp44
 70
     0
102
RTVSPost2010Prop45
280
     0
102
RTVSPost2010PropOp45
 70
     0
102
RTVSPost2010Prop46
 90
       50
102
RTVSPost2010PropOp46
 70
     0
102
RTVSPost2010Prop47
 90
       50
102
RTVSPost2010PropOp47
 70
     0
102
RTVSPost2010Prop48
 90
       50
102
RTVSPost2010PropOp48
 70
     0
102
RTVSPost2010Prop49
280
     0
102
RTVSPost2010PropOp49
 70
     0
102
RTVSPost2010Prop50
 90
       50
102
RTVSPost2010PropOp50
 70
     0
102
RTVSPost2010Prop51ColorIndex
 90
      256
102
RTVSPost2010Prop51ColorRGB
 90
-16777216
102
RTVSPost2010PropOp51
 70
     0
102
RTVSPost2010Prop52
140
1.0
102
RTVSPost2010PropOp52
 70
     0
102
RTVSPost2010Prop53
 90
        2
102
RTVSPost2010PropOp53
 70
     0
102
RTVSPost2010Prop54
  1
strokes_ogs.tif
102
RTVSPost2010PropOp54
 70
     0
102
RTVSPost2010Prop55
280
     0
102
RTVSPost2010PropOp55
 70
     0
102
RTVSPost2010Prop56
140
1.0
102
RTVSPost2010PropOp56
 70
     0
102
RTVSPost2010Prop57
140
1.0
102
RTVSPost2010PropOp57
 70
     0
  0
XRECORD
  5
2AA
102
{ACAD_REACTORS
330
2A9
102
}
330
2A9
100
AcDbXrecord
280
     1
102
RTVSPropertyOp0
 70
     1
102
RTVSPropertyOp1
 70
     1
102
RTVSPropertyOp2
 70
     1
102
RTVSPropertyOp3
 70
     1
102
RTVSPropertyOp4
 70
     1
102
RTVSPropertyOp5
 70
     1
102
RTVSPropertyOp6
 70
     1
102
RTVSPropertyOp7
 70
     1
102
RTVSPropertyOp8
 70
     1
102
RTVSPropertyOp9
 70
     1
102
RTVSPropertyOp10
 70
     1
102
RTVSPropertyOp11
 70
     1
102
RTVSPropertyOp12
 70
     1
102
RTVSPropertyOp13
 70
     1
102
RTVSPropertyOp14
 70
     1
102
RTVSPropertyOp15
 70
     1
102
RTVSPropertyOp16
 70
     1
102
RTVSPropertyOp17
 70
     1
102
RTVSPropertyOp18
 70
     1
102
RTVSPropertyOp19
 70
     1
102
RTVSPropertyOp20
 70
     1
102
RTVSPropertyOp21
 70
     1
102
RTVSPropertyOp22
 70
     1
102
RTVSPropertyOp23
 70
     1
102
RTVSPropertyOp24
 70
     1
102
RTVSPropertyOp25
 70
     1
102
RTVSPropertyOp26
 70
     1
102
RTVSPropertyOp27
 70
     1
102
RTVSPropertyOp28
 70
     1
102
RTVSPropertyOp29
 70
     1
102
RTVSPropertyOp30
 70
     1
102
RTVSPropertyOp31
 70
     1
102
RTVSPropertyOp32
 70
     1
102
RTVSPropertyOp33
 70
     1
102
RTVSPropertyOp34
 70
     1
102
RTVSPropertyOp35
 70
     1
102
RTVSPropertyOp36
 70
     1
102
RTVSPropertyOp37
 70
     1
102
RTVSPropertyOp38
 70
     1
102
RTVSPropertyOp39
 70
     1
102
RTVSPropertyOp40
 70
     1
102
RTVSPropertyOp41
 70
     1
102
RTVSPropertyOp42
 70
     1
102
RTVSPropertyOp43
 70
     1
102
RTVSPropertyOp44
 70
     1
102
RTVSPropertyOp45
 70
     1
102
RTVSPropertyOp46
 70
     1
102
RTVSPropertyOp47
 70
     1
102
RTVSPropertyOp48
 70
     1
102
RTVSPropertyOp49
 70
     1
102
RTVSPropertyOp50
 70
     1
102
RTVSPropertyOp51
 70
     0
102
RTVSPropertyOp52
 70
     0
102
RTVSPropertyOp53
 70
     1
102
RTVSPropertyOp54
 70
     1
102
RTVSPropertyOp55
 70
     1
102
RTVSPropertyOp56
 70
     1
102
RTVSPropertyOp57
 70
     1
102
RTVSPost2010Prop28
280
     0
102
RTVSPost2010PropOp28
 70
     1
102
RTVSPost2010Prop29
280
     1
102
RTVSPost2010PropOp29
 70
     1
102
RTVSPost2010Prop30
280
     1
102
RTVSPost2010PropOp30
 70
     1
102
RTVSPost2010Prop31
280
     0
102
RTVSPost2010PropOp31
 70
     1
102
RTVSPost2010Prop32
280
     0
102
RTVSPost2010PropOp32
 70
     1
102
RTVSPost2010Prop33
280
     0
102
RTVSPost2010PropOp33
 70
     1
102
RTVSPost2010Prop34
280
     0
102
RTVSPost2010PropOp34
 70
     1
102
RTVSPost2010Prop35
280
     0
102
RTVSPost2010PropOp35
 70
     1
102
RTVSPost2010Prop36
280
     0
102
RTVSPost2010PropOp36
 70
     1
102
RTVSPost2010Prop37
 90
       50
102
RTVSPost2010PropOp37
 70
     1
102
RTVSPost2010Prop38
140
0.0
102
RTVSPost2010PropOp38
 70
     1
102
RTVSPost2010Prop39
140
1.0
102
RTVSPost2010PropOp39
 70
     1
102
RTVSPost2010Prop40
 90
        0
102
RTVSPost2010PropOp40
 70
     1
102
RTVSPost2010Prop41ColorIndex
 90
       18
102
RTVSPost2010Prop41ColorRGB
 90
        0
102
RTVSPost2010PropOp41
 70
     1
102
RTVSPost2010Prop42
 90
       50
102
RTVSPost2010PropOp42
 70
     1
102
RTVSPost2010Prop43
 90
        3
102
RTVSPost2010PropOp43
 70
     1
102
RTVSPost2010Prop44ColorIndex
 90
        5
102
RTVSPost2010Prop44ColorRGB
 90
      255
102
RTVSPost2010PropOp44
 70
     1
102
RTVSPost2010Prop45
280
     0
102
RTVSPost2010PropOp45
 70
     1
102
RTVSPost2010Prop46
 90
       50
102
RTVSPost2010PropOp46
 70
     1
102
RTVSPost2010Prop47
 90
       50
102
RTVSPost2010PropOp47
 70
     1
102
RTVSPost2010Prop48
 90
       50
102
RTVSPost2010PropOp48
 70
     1
102
RTVSPost2010Prop49
280
     0
102
RTVSPost2010PropOp49
 70
     1
102
RTVSPost2010Prop50
 90
       50
102
RTVSPost2010PropOp50
 70
     1
102
RTVSPost2010Prop51ColorIndex
 90
      256
102
RTVSPost2010Prop51ColorRGB
 90
-16777216
102
RTVSPost2010PropOp51
 70
     0
102
RTVSPost2010Prop52
140
1.0
102
RTVSPost2010PropOp52
 70
     0
102
RTVSPost2010Prop53
 90
        2
102
RTVSPost2010PropOp53
 70
     1
102
RTVSPost2010Prop54
  1
strokes_ogs.tif
102
RTVSPost2010PropOp54
 70
     1
102
RTVSPost2010Prop55
280
     0
102
RTVSPost2010PropOp55
 70
     1
102
RTVSPost2010Prop56
140
1.0
102
RTVSPost2010PropOp56
 70
     1
102
RTVSPost2010Prop57
140
1.0
102
RTVSPost2010PropOp57
 70
     1
  0
XRECORD
  5
28E
102
{ACAD_REACTORS
330
28D
102
}
330
28D
100
AcDbXrecord
280
     1
102
RTVSPropertyOp0
 70
     1
102
RTVSPropertyOp1
 70
     1
102
RTVSPropertyOp2
 70
     1
102
RTVSPropertyOp3
 70
     1
102
RTVSPropertyOp4
 70
     1
102
RTVSPropertyOp5
 70
     1
102
RTVSPropertyOp6
 70
     1
102
RTVSPropertyOp7
 70
     1
102
RTVSPropertyOp8
 70
     1
102
RTVSPropertyOp9
 70
     1
102
RTVSPropertyOp10
 70
     1
102
RTVSPropertyOp11
 70
     1
102
RTVSPropertyOp12
 70
     1
102
RTVSPropertyOp13
 70
     1
102
RTVSPropertyOp14
 70
     1
102
RTVSPropertyOp15
 70
     1
102
RTVSPropertyOp16
 70
     1
102
RTVSPropertyOp17
 70
     1
102
RTVSPropertyOp18
 70
     1
102
RTVSPropertyOp19
 70
     1
102
RTVSPropertyOp20
 70
     1
102
RTVSPropertyOp21
 70
     1
102
RTVSPropertyOp22
 70
     1
102
RTVSPropertyOp23
 70
     1
102
RTVSPropertyOp24
 70
     1
102
RTVSPropertyOp25
 70
     1
102
RTVSPropertyOp26
 70
     1
102
RTVSPropertyOp27
 70
     1
102
RTVSPropertyOp28
 70
     1
102
RTVSPropertyOp29
 70
     1
102
RTVSPropertyOp30
 70
     1
102
RTVSPropertyOp31
 70
     1
102
RTVSPropertyOp32
 70
     1
102
RTVSPropertyOp33
 70
     1
102
RTVSPropertyOp34
 70
     1
102
RTVSPropertyOp35
 70
     1
102
RTVSPropertyOp36
 70
     1
102
RTVSPropertyOp37
 70
     1
102
RTVSPropertyOp38
 70
     1
102
RTVSPropertyOp39
 70
     1
102
RTVSPropertyOp40
 70
     1
102
RTVSPropertyOp41
 70
     1
102
RTVSPropertyOp42
 70
     1
102
RTVSPropertyOp43
 70
     1
102
RTVSPropertyOp44
 70
     1
102
RTVSPropertyOp45
 70
     1
102
RTVSPropertyOp46
 70
     1
102
RTVSPropertyOp47
 70
     1
102
RTVSPropertyOp48
 70
     1
102
RTVSPropertyOp49
 70
     1
102
RTVSPropertyOp50
 70
     1
102
RTVSPropertyOp51
 70
     0
102
RTVSPropertyOp52
 70
     0
102
RTVSPropertyOp53
 70
     1
102
RTVSPropertyOp54
 70
     1
102
RTVSPropertyOp55
 70
     1
102
RTVSPropertyOp56
 70
     1
102
RTVSPropertyOp57
 70
     1
102
RTVSPost2010Prop28
280
     0
102
RTVSPost2010PropOp28
 70
     1
102
RTVSPost2010Prop29
280
     1
102
RTVSPost2010PropOp29
 70
     1
102
RTVSPost2010Prop30
280
     1
102
RTVSPost2010PropOp30
 70
     1
102
RTVSPost2010Prop31
280
     0
102
RTVSPost2010PropOp31
 70
     1
102
RTVSPost2010Prop32
280
     0
102
RTVSPost2010PropOp32
 70
     1
102
RTVSPost2010Prop33
280
     0
102
RTVSPost2010PropOp33
 70
     1
102
RTVSPost2010Prop34
280
     0
102
RTVSPost2010PropOp34
 70
     1
102
RTVSPost2010Prop35
280
     0
102
RTVSPost2010PropOp35
 70
     1
102
RTVSPost2010Prop36
280
     0
102
RTVSPost2010PropOp36
 70
     1
102
RTVSPost2010Prop37
 90
       50
102
RTVSPost2010PropOp37
 70
     1
102
RTVSPost2010Prop38
140
0.0
102
RTVSPost2010PropOp38
 70
     1
102
RTVSPost2010Prop39
140
1.0
102
RTVSPost2010PropOp39
 70
     1
102
RTVSPost2010Prop40
 90
        0
102
RTVSPost2010PropOp40
 70
     1
102
RTVSPost2010Prop41ColorIndex
 90
       18
102
RTVSPost2010Prop41ColorRGB
 90
        0
102
RTVSPost2010PropOp41
 70
     1
102
RTVSPost2010Prop42
 90
       50
102
RTVSPost2010PropOp42
 70
     1
102
RTVSPost2010Prop43
 90
        3
102
RTVSPost2010PropOp43
 70
     1
102
RTVSPost2010Prop44ColorIndex
 90
        5
102
RTVSPost2010Prop44ColorRGB
 90
      255
102
RTVSPost2010PropOp44
 70
     1
102
RTVSPost2010Prop45
280
     0
102
RTVSPost2010PropOp45
 70
     1
102
RTVSPost2010Prop46
 90
       50
102
RTVSPost2010PropOp46
 70
     1
102
RTVSPost2010Prop47
 90
       50
102
RTVSPost2010PropOp47
 70
     1
102
RTVSPost2010Prop48
 90
       50
102
RTVSPost2010PropOp48
 70
     1
102
RTVSPost2010Prop49
280
     0
102
RTVSPost2010PropOp49
 70
     1
102
RTVSPost2010Prop50
 90
       50
102
RTVSPost2010PropOp50
 70
     1
102
RTVSPost2010Prop51ColorIndex
 90
      256
102
RTVSPost2010Prop51ColorRGB
 90
-16777216
102
RTVSPost2010PropOp51
 70
     0
102
RTVSPost2010Prop52
140
1.0
102
RTVSPost2010PropOp52
 70
     0
102
RTVSPost2010Prop53
 90
        2
102
RTVSPost2010PropOp53
 70
     1
102
RTVSPost2010Prop54
  1
strokes_ogs.tif
102
RTVSPost2010PropOp54
 70
     1
102
RTVSPost2010Prop55
280
     0
102
RTVSPost2010PropOp55
 70
     1
102
RTVSPost2010Prop56
140
1.0
102
RTVSPost2010PropOp56
 70
     1
102
RTVSPost2010Prop57
140
1.0
102
RTVSPost2010PropOp57
 70
     1
  0
XRECORD
  5
290
102
{ACAD_REACTORS
330
28F
102
}
330
28F
100
AcDbXrecord
280
     1
102
RTVSPropertyOp0
 70
     1
102
RTVSPropertyOp1
 70
     1
102
RTVSPropertyOp2
 70
     1
102
RTVSPropertyOp3
 70
     1
102
RTVSPropertyOp4
 70
     1
102
RTVSPropertyOp5
 70
     1
102
RTVSPropertyOp6
 70
     1
102
RTVSPropertyOp7
 70
     1
102
RTVSPropertyOp8
 70
     1
102
RTVSPropertyOp9
 70
     1
102
RTVSPropertyOp10
 70
     1
102
RTVSPropertyOp11
 70
     1
102
RTVSPropertyOp12
 70
     1
102
RTVSPropertyOp13
 70
     1
102
RTVSPropertyOp14
 70
     1
102
RTVSPropertyOp15
 70
     1
102
RTVSPropertyOp16
 70
     1
102
RTVSPropertyOp17
 70
     1
102
RTVSPropertyOp18
 70
     1
102
RTVSPropertyOp19
 70
     1
102
RTVSPropertyOp20
 70
     1
102
RTVSPropertyOp21
 70
     1
102
RTVSPropertyOp22
 70
     1
102
RTVSPropertyOp23
 70
     1
102
RTVSPropertyOp24
 70
     1
102
RTVSPropertyOp25
 70
     1
102
RTVSPropertyOp26
 70
     1
102
RTVSPropertyOp27
 70
     1
102
RTVSPropertyOp28
 70
     1
102
RTVSPropertyOp29
 70
     1
102
RTVSPropertyOp30
 70
     1
102
RTVSPropertyOp31
 70
     1
102
RTVSPropertyOp32
 70
     1
102
RTVSPropertyOp33
 70
     1
102
RTVSPropertyOp34
 70
     1
102
RTVSPropertyOp35
 70
     1
102
RTVSPropertyOp36
 70
     1
102
RTVSPropertyOp37
 70
     1
102
RTVSPropertyOp38
 70
     1
102
RTVSPropertyOp39
 70
     1
102
RTVSPropertyOp40
 70
     1
102
RTVSPropertyOp41
 70
     1
102
RTVSPropertyOp42
 70
     1
102
RTVSPropertyOp43
 70
     1
102
RTVSPropertyOp44
 70
     1
102
RTVSPropertyOp45
 70
     1
102
RTVSPropertyOp46
 70
     1
102
RTVSPropertyOp47
 70
     1
102
RTVSPropertyOp48
 70
     1
102
RTVSPropertyOp49
 70
     1
102
RTVSPropertyOp50
 70
     1
102
RTVSPropertyOp51
 70
     0
102
RTVSPropertyOp52
 70
     0
102
RTVSPropertyOp53
 70
     1
102
RTVSPropertyOp54
 70
     1
102
RTVSPropertyOp55
 70
     1
102
RTVSPropertyOp56
 70
     1
102
RTVSPropertyOp57
 70
     1
102
RTVSPost2010Prop28
280
     0
102
RTVSPost2010PropOp28
 70
     1
102
RTVSPost2010Prop29
280
     1
102
RTVSPost2010PropOp29
 70
     1
102
RTVSPost2010Prop30
280
     1
102
RTVSPost2010PropOp30
 70
     1
102
RTVSPost2010Prop31
280
     0
102
RTVSPost2010PropOp31
 70
     1
102
RTVSPost2010Prop32
280
     0
102
RTVSPost2010PropOp32
 70
     1
102
RTVSPost2010Prop33
280
     0
102
RTVSPost2010PropOp33
 70
     1
102
RTVSPost2010Prop34
280
     0
102
RTVSPost2010PropOp34
 70
     1
102
RTVSPost2010Prop35
280
     0
102
RTVSPost2010PropOp35
 70
     1
102
RTVSPost2010Prop36
280
     0
102
RTVSPost2010PropOp36
 70
     1
102
RTVSPost2010Prop37
 90
       50
102
RTVSPost2010PropOp37
 70
     1
102
RTVSPost2010Prop38
140
0.0
102
RTVSPost2010PropOp38
 70
     1
102
RTVSPost2010Prop39
140
1.0
102
RTVSPost2010PropOp39
 70
     1
102
RTVSPost2010Prop40
 90
        0
102
RTVSPost2010PropOp40
 70
     1
102
RTVSPost2010Prop41ColorIndex
 90
       18
102
RTVSPost2010Prop41ColorRGB
 90
        0
102
RTVSPost2010PropOp41
 70
     1
102
RTVSPost2010Prop42
 90
       50
102
RTVSPost2010PropOp42
 70
     1
102
RTVSPost2010Prop43
 90
        3
102
RTVSPost2010PropOp43
 70
     1
102
RTVSPost2010Prop44ColorIndex
 90
        5
102
RTVSPost2010Prop44ColorRGB
 90
      255
102
RTVSPost2010PropOp44
 70
     1
102
RTVSPost2010Prop45
280
     0
102
RTVSPost2010PropOp45
 70
     1
102
RTVSPost2010Prop46
 90
       50
102
RTVSPost2010PropOp46
 70
     1
102
RTVSPost2010Prop47
 90
       50
102
RTVSPost2010PropOp47
 70
     1
102
RTVSPost2010Prop48
 90
       50
102
RTVSPost2010PropOp48
 70
     1
102
RTVSPost2010Prop49
280
     0
102
RTVSPost2010PropOp49
 70
     1
102
RTVSPost2010Prop50
 90
       50
102
RTVSPost2010PropOp50
 70
     1
102
RTVSPost2010Prop51ColorIndex
 90
      256
102
RTVSPost2010Prop51ColorRGB
 90
-16777216
102
RTVSPost2010PropOp51
 70
     0
102
RTVSPost2010Prop52
140
1.0
102
RTVSPost2010PropOp52
 70
     0
102
RTVSPost2010Prop53
 90
        2
102
RTVSPost2010PropOp53
 70
     1
102
RTVSPost2010Prop54
  1
strokes_ogs.tif
102
RTVSPost2010PropOp54
 70
     1
102
RTVSPost2010Prop55
280
     0
102
RTVSPost2010PropOp55
 70
     1
102
RTVSPost2010Prop56
140
1.0
102
RTVSPost2010PropOp56
 70
     1
102
RTVSPost2010Prop57
140
1.0
102
RTVSPost2010PropOp57
 70
     1
  0
XRECORD
  5
292
102
{ACAD_REACTORS
330
291
102
}
330
291
100
AcDbXrecord
280
     1
102
RTVSPropertyOp0
 70
     1
102
RTVSPropertyOp1
 70
     1
102
RTVSPropertyOp2
 70
     1
102
RTVSPropertyOp3
 70
     1
102
RTVSPropertyOp4
 70
     1
102
RTVSPropertyOp5
 70
     1
102
RTVSPropertyOp6
 70
     1
102
RTVSPropertyOp7
 70
     1
102
RTVSPropertyOp8
 70
     1
102
RTVSPropertyOp9
 70
     1
102
RTVSPropertyOp10
 70
     1
102
RTVSPropertyOp11
 70
     1
102
RTVSPropertyOp12
 70
     1
102
RTVSPropertyOp13
 70
     1
102
RTVSPropertyOp14
 70
     1
102
RTVSPropertyOp15
 70
     1
102
RTVSPropertyOp16
 70
     1
102
RTVSPropertyOp17
 70
     1
102
RTVSPropertyOp18
 70
     1
102
RTVSPropertyOp19
 70
     1
102
RTVSPropertyOp20
 70
     1
102
RTVSPropertyOp21
 70
     1
102
RTVSPropertyOp22
 70
     1
102
RTVSPropertyOp23
 70
     1
102
RTVSPropertyOp24
 70
     1
102
RTVSPropertyOp25
 70
     1
102
RTVSPropertyOp26
 70
     1
102
RTVSPropertyOp27
 70
     1
102
RTVSPropertyOp28
 70
     1
102
RTVSPropertyOp29
 70
     1
102
RTVSPropertyOp30
 70
     1
102
RTVSPropertyOp31
 70
     1
102
RTVSPropertyOp32
 70
     1
102
RTVSPropertyOp33
 70
     1
102
RTVSPropertyOp34
 70
     1
102
RTVSPropertyOp35
 70
     1
102
RTVSPropertyOp36
 70
     1
102
RTVSPropertyOp37
 70
     1
102
RTVSPropertyOp38
 70
     1
102
RTVSPropertyOp39
 70
     1
102
RTVSPropertyOp40
 70
     1
102
RTVSPropertyOp41
 70
     1
102
RTVSPropertyOp42
 70
     1
102
RTVSPropertyOp43
 70
     1
102
RTVSPropertyOp44
 70
     1
102
RTVSPropertyOp45
 70
     1
102
RTVSPropertyOp46
 70
     1
102
RTVSPropertyOp47
 70
     1
102
RTVSPropertyOp48
 70
     1
102
RTVSPropertyOp49
 70
     1
102
RTVSPropertyOp50
 70
     1
102
RTVSPropertyOp51
 70
     0
102
RTVSPropertyOp52
 70
     0
102
RTVSPropertyOp53
 70
     1
102
RTVSPropertyOp54
 70
     1
102
RTVSPropertyOp55
 70
     1
102
RTVSPropertyOp56
 70
     1
102
RTVSPropertyOp57
 70
     1
102
RTVSPost2010Prop28
280
     0
102
RTVSPost2010PropOp28
 70
     1
102
RTVSPost2010Prop29
280
     1
102
RTVSPost2010PropOp29
 70
     1
102
RTVSPost2010Prop30
280
     1
102
RTVSPost2010PropOp30
 70
     1
102
RTVSPost2010Prop31
280
     0
102
RTVSPost2010PropOp31
 70
     1
102
RTVSPost2010Prop32
280
     0
102
RTVSPost2010PropOp32
 70
     1
102
RTVSPost2010Prop33
280
     0
102
RTVSPost2010PropOp33
 70
     1
102
RTVSPost2010Prop34
280
     0
102
RTVSPost2010PropOp34
 70
     1
102
RTVSPost2010Prop35
280
     0
102
RTVSPost2010PropOp35
 70
     1
102
RTVSPost2010Prop36
280
     0
102
RTVSPost2010PropOp36
 70
     1
102
RTVSPost2010Prop37
 90
       50
102
RTVSPost2010PropOp37
 70
     1
102
RTVSPost2010Prop38
140
0.0
102
RTVSPost2010PropOp38
 70
     1
102
RTVSPost2010Prop39
140
1.0
102
RTVSPost2010PropOp39
 70
     1
102
RTVSPost2010Prop40
 90
        0
102
RTVSPost2010PropOp40
 70
     1
102
RTVSPost2010Prop41ColorIndex
 90
       18
102
RTVSPost2010Prop41ColorRGB
 90
        0
102
RTVSPost2010PropOp41
 70
     1
102
RTVSPost2010Prop42
 90
       50
102
RTVSPost2010PropOp42
 70
     1
102
RTVSPost2010Prop43
 90
        3
102
RTVSPost2010PropOp43
 70
     1
102
RTVSPost2010Prop44ColorIndex
 90
        5
102
RTVSPost2010Prop44ColorRGB
 90
      255
102
RTVSPost2010PropOp44
 70
     1
102
RTVSPost2010Prop45
280
     0
102
RTVSPost2010PropOp45
 70
     1
102
RTVSPost2010Prop46
 90
       50
102
RTVSPost2010PropOp46
 70
     1
102
RTVSPost2010Prop47
 90
       50
102
RTVSPost2010PropOp47
 70
     1
102
RTVSPost2010Prop48
 90
       50
102
RTVSPost2010PropOp48
 70
     1
102
RTVSPost2010Prop49
280
     0
102
RTVSPost2010PropOp49
 70
     1
102
RTVSPost2010Prop50
 90
       50
102
RTVSPost2010PropOp50
 70
     1
102
RTVSPost2010Prop51ColorIndex
 90
      256
102
RTVSPost2010Prop51ColorRGB
 90
-16777216
102
RTVSPost2010PropOp51
 70
     0
102
RTVSPost2010Prop52
140
1.0
102
RTVSPost2010PropOp52
 70
     0
102
RTVSPost2010Prop53
 90
        2
102
RTVSPost2010PropOp53
 70
     1
102
RTVSPost2010Prop54
  1
strokes_ogs.tif
102
RTVSPost2010PropOp54
 70
     1
102
RTVSPost2010Prop55
280
     0
102
RTVSPost2010PropOp55
 70
     1
102
RTVSPost2010Prop56
140
1.0
102
RTVSPost2010PropOp56
 70
     1
102
RTVSPost2010Prop57
140
1.0
102
RTVSPost2010PropOp57
 70
     1
  0
XRECORD
  5
294
102
{ACAD_REACTORS
330
293
102
}
330
293
100
AcDbXrecord
280
     1
102
RTVSPropertyOp0
 70
     1
102
RTVSPropertyOp1
 70
     1
102
RTVSPropertyOp2
 70
     1
102
RTVSPropertyOp3
 70
     1
102
RTVSPropertyOp4
 70
     1
102
RTVSPropertyOp5
 70
     1
102
RTVSPropertyOp6
 70
     1
102
RTVSPropertyOp7
 70
     1
102
RTVSPropertyOp8
 70
     1
102
RTVSPropertyOp9
 70
     1
102
RTVSPropertyOp10
 70
     1
102
RTVSPropertyOp11
 70
     1
102
RTVSPropertyOp12
 70
     1
102
RTVSPropertyOp13
 70
     1
102
RTVSPropertyOp14
 70
     1
102
RTVSPropertyOp15
 70
     1
102
RTVSPropertyOp16
 70
     1
102
RTVSPropertyOp17
 70
     1
102
RTVSPropertyOp18
 70
     1
102
RTVSPropertyOp19
 70
     1
102
RTVSPropertyOp20
 70
     1
102
RTVSPropertyOp21
 70
     1
102
RTVSPropertyOp22
 70
     1
102
RTVSPropertyOp23
 70
     1
102
RTVSPropertyOp24
 70
     1
102
RTVSPropertyOp25
 70
     1
102
RTVSPropertyOp26
 70
     1
102
RTVSPropertyOp27
 70
     1
102
RTVSPropertyOp28
 70
     1
102
RTVSPropertyOp29
 70
     1
102
RTVSPropertyOp30
 70
     1
102
RTVSPropertyOp31
 70
     1
102
RTVSPropertyOp32
 70
     1
102
RTVSPropertyOp33
 70
     1
102
RTVSPropertyOp34
 70
     1
102
RTVSPropertyOp35
 70
     1
102
RTVSPropertyOp36
 70
     1
102
RTVSPropertyOp37
 70
     1
102
RTVSPropertyOp38
 70
     1
102
RTVSPropertyOp39
 70
     1
102
RTVSPropertyOp40
 70
     1
102
RTVSPropertyOp41
 70
     1
102
RTVSPropertyOp42
 70
     1
102
RTVSPropertyOp43
 70
     1
102
RTVSPropertyOp44
 70
     1
102
RTVSPropertyOp45
 70
     1
102
RTVSPropertyOp46
 70
     1
102
RTVSPropertyOp47
 70
     1
102
RTVSPropertyOp48
 70
     1
102
RTVSPropertyOp49
 70
     1
102
RTVSPropertyOp50
 70
     1
102
RTVSPropertyOp51
 70
     0
102
RTVSPropertyOp52
 70
     0
102
RTVSPropertyOp53
 70
     1
102
RTVSPropertyOp54
 70
     1
102
RTVSPropertyOp55
 70
     1
102
RTVSPropertyOp56
 70
     1
102
RTVSPropertyOp57
 70
     1
102
RTVSPost2010Prop28
280
     0
102
RTVSPost2010PropOp28
 70
     1
102
RTVSPost2010Prop29
280
     1
102
RTVSPost2010PropOp29
 70
     1
102
RTVSPost2010Prop30
280
     1
102
RTVSPost2010PropOp30
 70
     1
102
RTVSPost2010Prop31
280
     0
102
RTVSPost2010PropOp31
 70
     1
102
RTVSPost2010Prop32
280
     0
102
RTVSPost2010PropOp32
 70
     1
102
RTVSPost2010Prop33
280
     0
102
RTVSPost2010PropOp33
 70
     1
102
RTVSPost2010Prop34
280
     0
102
RTVSPost2010PropOp34
 70
     1
102
RTVSPost2010Prop35
280
     0
102
RTVSPost2010PropOp35
 70
     1
102
RTVSPost2010Prop36
280
     0
102
RTVSPost2010PropOp36
 70
     1
102
RTVSPost2010Prop37
 90
       50
102
RTVSPost2010PropOp37
 70
     1
102
RTVSPost2010Prop38
140
0.0
102
RTVSPost2010PropOp38
 70
     1
102
RTVSPost2010Prop39
140
1.0
102
RTVSPost2010PropOp39
 70
     1
102
RTVSPost2010Prop40
 90
        0
102
RTVSPost2010PropOp40
 70
     1
102
RTVSPost2010Prop41ColorIndex
 90
       18
102
RTVSPost2010Prop41ColorRGB
 90
        0
102
RTVSPost2010PropOp41
 70
     1
102
RTVSPost2010Prop42
 90
       50
102
RTVSPost2010PropOp42
 70
     1
102
RTVSPost2010Prop43
 90
        3
102
RTVSPost2010PropOp43
 70
     1
102
RTVSPost2010Prop44ColorIndex
 90
        5
102
RTVSPost2010Prop44ColorRGB
 90
      255
102
RTVSPost2010PropOp44
 70
     1
102
RTVSPost2010Prop45
280
     0
102
RTVSPost2010PropOp45
 70
     1
102
RTVSPost2010Prop46
 90
       50
102
RTVSPost2010PropOp46
 70
     1
102
RTVSPost2010Prop47
 90
       50
102
RTVSPost2010PropOp47
 70
     1
102
RTVSPost2010Prop48
 90
       50
102
RTVSPost2010PropOp48
 70
     1
102
RTVSPost2010Prop49
280
     0
102
RTVSPost2010PropOp49
 70
     1
102
RTVSPost2010Prop50
 90
       50
102
RTVSPost2010PropOp50
 70
     1
102
RTVSPost2010Prop51ColorIndex
 90
      256
102
RTVSPost2010Prop51ColorRGB
 90
-16777216
102
RTVSPost2010PropOp51
 70
     0
102
RTVSPost2010Prop52
140
1.0
102
RTVSPost2010PropOp52
 70
     0
102
RTVSPost2010Prop53
 90
        2
102
RTVSPost2010PropOp53
 70
     1
102
RTVSPost2010Prop54
  1
strokes_ogs.tif
102
RTVSPost2010PropOp54
 70
     1
102
RTVSPost2010Prop55
280
     0
102
RTVSPost2010PropOp55
 70
     1
102
RTVSPost2010Prop56
140
1.0
102
RTVSPost2010PropOp56
 70
     1
102
RTVSPost2010Prop57
140
1.0
102
RTVSPost2010PropOp57
 70
     1
  0
XRECORD
  5
29A
102
{ACAD_REACTORS
330
299
102
}
330
299
100
AcDbXrecord
280
     1
102
RTVSPropertyOp0
 70
     1
102
RTVSPropertyOp1
 70
     1
102
RTVSPropertyOp2
 70
     1
102
RTVSPropertyOp3
 70
     1
102
RTVSPropertyOp4
 70
     1
102
RTVSPropertyOp5
 70
     1
102
RTVSPropertyOp6
 70
     1
102
RTVSPropertyOp7
 70
     1
102
RTVSPropertyOp8
 70
     1
102
RTVSPropertyOp9
 70
     1
102
RTVSPropertyOp10
 70
     1
102
RTVSPropertyOp11
 70
     1
102
RTVSPropertyOp12
 70
     1
102
RTVSPropertyOp13
 70
     1
102
RTVSPropertyOp14
 70
     1
102
RTVSPropertyOp15
 70
     1
102
RTVSPropertyOp16
 70
     1
102
RTVSPropertyOp17
 70
     1
102
RTVSPropertyOp18
 70
     1
102
RTVSPropertyOp19
 70
     1
102
RTVSPropertyOp20
 70
     1
102
RTVSPropertyOp21
 70
     1
102
RTVSPropertyOp22
 70
     1
102
RTVSPropertyOp23
 70
     1
102
RTVSPropertyOp24
 70
     1
102
RTVSPropertyOp25
 70
     1
102
RTVSPropertyOp26
 70
     1
102
RTVSPropertyOp27
 70
     1
102
RTVSPropertyOp28
 70
     1
102
RTVSPropertyOp29
 70
     1
102
RTVSPropertyOp30
 70
     1
102
RTVSPropertyOp31
 70
     1
102
RTVSPropertyOp32
 70
     1
102
RTVSPropertyOp33
 70
     1
102
RTVSPropertyOp34
 70
     1
102
RTVSPropertyOp35
 70
     1
102
RTVSPropertyOp36
 70
     1
102
RTVSPropertyOp37
 70
     1
102
RTVSPropertyOp38
 70
     1
102
RTVSPropertyOp39
 70
     1
102
RTVSPropertyOp40
 70
     1
102
RTVSPropertyOp41
 70
     1
102
RTVSPropertyOp42
 70
     1
102
RTVSPropertyOp43
 70
     1
102
RTVSPropertyOp44
 70
     1
102
RTVSPropertyOp45
 70
     1
102
RTVSPropertyOp46
 70
     1
102
RTVSPropertyOp47
 70
     1
102
RTVSPropertyOp48
 70
     1
102
RTVSPropertyOp49
 70
     1
102
RTVSPropertyOp50
 70
     1
102
RTVSPropertyOp51
 70
     0
102
RTVSPropertyOp52
 70
     0
102
RTVSPropertyOp53
 70
     1
102
RTVSPropertyOp54
 70
     1
102
RTVSPropertyOp55
 70
     1
102
RTVSPropertyOp56
 70
     1
102
RTVSPropertyOp57
 70
     1
102
RTVSPost2010Prop28
280
     0
102
RTVSPost2010PropOp28
 70
     1
102
RTVSPost2010Prop29
280
     1
102
RTVSPost2010PropOp29
 70
     1
102
RTVSPost2010Prop30
280
     1
102
RTVSPost2010PropOp30
 70
     1
102
RTVSPost2010Prop31
280
     0
102
RTVSPost2010PropOp31
 70
     1
102
RTVSPost2010Prop32
280
     0
102
RTVSPost2010PropOp32
 70
     1
102
RTVSPost2010Prop33
280
     0
102
RTVSPost2010PropOp33
 70
     1
102
RTVSPost2010Prop34
280
     0
102
RTVSPost2010PropOp34
 70
     1
102
RTVSPost2010Prop35
280
     0
102
RTVSPost2010PropOp35
 70
     1
102
RTVSPost2010Prop36
280
     0
102
RTVSPost2010PropOp36
 70
     1
102
RTVSPost2010Prop37
 90
       50
102
RTVSPost2010PropOp37
 70
     1
102
RTVSPost2010Prop38
140
0.0
102
RTVSPost2010PropOp38
 70
     1
102
RTVSPost2010Prop39
140
1.0
102
RTVSPost2010PropOp39
 70
     1
102
RTVSPost2010Prop40
 90
        0
102
RTVSPost2010PropOp40
 70
     1
102
RTVSPost2010Prop41ColorIndex
 90
       18
102
RTVSPost2010Prop41ColorRGB
 90
        0
102
RTVSPost2010PropOp41
 70
     1
102
RTVSPost2010Prop42
 90
       50
102
RTVSPost2010PropOp42
 70
     1
102
RTVSPost2010Prop43
 90
        3
102
RTVSPost2010PropOp43
 70
     1
102
RTVSPost2010Prop44ColorIndex
 90
        5
102
RTVSPost2010Prop44ColorRGB
 90
      255
102
RTVSPost2010PropOp44
 70
     1
102
RTVSPost2010Prop45
280
     0
102
RTVSPost2010PropOp45
 70
     1
102
RTVSPost2010Prop46
 90
       50
102
RTVSPost2010PropOp46
 70
     1
102
RTVSPost2010Prop47
 90
       50
102
RTVSPost2010PropOp47
 70
     1
102
RTVSPost2010Prop48
 90
       50
102
RTVSPost2010PropOp48
 70
     1
102
RTVSPost2010Prop49
280
     0
102
RTVSPost2010PropOp49
 70
     1
102
RTVSPost2010Prop50
 90
       50
102
RTVSPost2010PropOp50
 70
     1
102
RTVSPost2010Prop51ColorIndex
 90
      256
102
RTVSPost2010Prop51ColorRGB
 90
-16777216
102
RTVSPost2010PropOp51
 70
     0
102
RTVSPost2010Prop52
140
1.0
102
RTVSPost2010PropOp52
 70
     0
102
RTVSPost2010Prop53
 90
        2
102
RTVSPost2010PropOp53
 70
     1
102
RTVSPost2010Prop54
  1
strokes_ogs.tif
102
RTVSPost2010PropOp54
 70
     1
102
RTVSPost2010Prop55
280
     0
102
RTVSPost2010PropOp55
 70
     1
102
RTVSPost2010Prop56
140
1.0
102
RTVSPost2010PropOp56
 70
     1
102
RTVSPost2010Prop57
140
1.0
102
RTVSPost2010PropOp57
 70
     1
  0
XRECORD
  5
2AE
102
{ACAD_REACTORS
330
2AD
102
}
330
2AD
100
AcDbXrecord
280
     1
102
RTVSPropertyOp0
 70
     0
102
RTVSPropertyOp1
 70
     0
102
RTVSPropertyOp2
 70
     0
102
RTVSPropertyOp3
 70
     0
102
RTVSPropertyOp4
 70
     0
102
RTVSPropertyOp5
 70
     0
102
RTVSPropertyOp6
 70
     0
102
RTVSPropertyOp7
 70
     0
102
RTVSPropertyOp8
 70
     0
102
RTVSPropertyOp9
 70
     0
102
RTVSPropertyOp10
 70
     0
102
RTVSPropertyOp11
 70
     0
102
RTVSPropertyOp12
 70
     0
102
RTVSPropertyOp13
 70
     0
102
RTVSPropertyOp14
 70
     2
102
RTVSPropertyOp15
 70
     0
102
RTVSPropertyOp16
 70
     0
102
RTVSPropertyOp17
 70
     0
102
RTVSPropertyOp18
 70
     0
102
RTVSPropertyOp19
 70
     0
102
RTVSPropertyOp20
 70
     0
102
RTVSPropertyOp21
 70
     0
102
RTVSPropertyOp22
 70
     0
102
RTVSPropertyOp23
 70
     0
102
RTVSPropertyOp24
 70
     0
102
RTVSPropertyOp25
 70
     0
102
RTVSPropertyOp26
 70
     0
102
RTVSPropertyOp27
 70
     0
102
RTVSPropertyOp28
 70
     0
102
RTVSPropertyOp29
 70
     0
102
RTVSPropertyOp30
 70
     0
102
RTVSPropertyOp31
 70
     0
102
RTVSPropertyOp32
 70
     0
102
RTVSPropertyOp33
 70
     0
102
RTVSPropertyOp34
 70
     0
102
RTVSPropertyOp35
 70
     0
102
RTVSPropertyOp36
 70
     0
102
RTVSPropertyOp37
 70
     0
102
RTVSPropertyOp38
 70
     0
102
RTVSPropertyOp39
 70
     0
102
RTVSPropertyOp40
 70
     0
102
RTVSPropertyOp41
 70
     0
102
RTVSPropertyOp42
 70
     0
102
RTVSPropertyOp43
 70
     0
102
RTVSPropertyOp44
 70
     0
102
RTVSPropertyOp45
 70
     0
102
RTVSPropertyOp46
 70
     0
102
RTVSPropertyOp47
 70
     0
102
RTVSPropertyOp48
 70
     0
102
RTVSPropertyOp49
 70
     0
102
RTVSPropertyOp50
 70
     0
102
RTVSPropertyOp51
 70
     0
102
RTVSPropertyOp52
 70
     0
102
RTVSPropertyOp53
 70
     0
102
RTVSPropertyOp54
 70
     0
102
RTVSPropertyOp55
 70
     0
102
RTVSPropertyOp56
 70
     0
102
RTVSPropertyOp57
 70
     0
102
RTVSPost2010Prop28
280
     0
102
RTVSPost2010PropOp28
 70
     0
102
RTVSPost2010Prop29
280
     1
102
RTVSPost2010PropOp29
 70
     0
102
RTVSPost2010Prop30
280
     1
102
RTVSPost2010PropOp30
 70
     0
102
RTVSPost2010Prop31
280
     0
102
RTVSPost2010PropOp31
 70
     0
102
RTVSPost2010Prop32
280
     0
102
RTVSPost2010PropOp32
 70
     0
102
RTVSPost2010Prop33
280
     0
102
RTVSPost2010PropOp33
 70
     0
102
RTVSPost2010Prop34
280
     0
102
RTVSPost2010PropOp34
 70
     0
102
RTVSPost2010Prop35
280
     0
102
RTVSPost2010PropOp35
 70
     0
102
RTVSPost2010Prop36
280
     0
102
RTVSPost2010PropOp36
 70
     0
102
RTVSPost2010Prop37
 90
       50
102
RTVSPost2010PropOp37
 70
     0
102
RTVSPost2010Prop38
140
0.0
102
RTVSPost2010PropOp38
 70
     0
102
RTVSPost2010Prop39
140
1.0
102
RTVSPost2010PropOp39
 70
     0
102
RTVSPost2010Prop40
 90
        0
102
RTVSPost2010PropOp40
 70
     0
102
RTVSPost2010Prop41ColorIndex
 90
       18
102
RTVSPost2010Prop41ColorRGB
 90
        0
102
RTVSPost2010PropOp41
 70
     0
102
RTVSPost2010Prop42
 90
       50
102
RTVSPost2010PropOp42
 70
     0
102
RTVSPost2010Prop43
 90
        3
102
RTVSPost2010PropOp43
 70
     0
102
RTVSPost2010Prop44ColorIndex
 90
        5
102
RTVSPost2010Prop44ColorRGB
 90
      255
102
RTVSPost2010PropOp44
 70
     0
102
RTVSPost2010Prop45
280
     0
102
RTVSPost2010PropOp45
 70
     0
102
RTVSPost2010Prop46
 90
       50
102
RTVSPost2010PropOp46
 70
     0
102
RTVSPost2010Prop47
 90
       50
102
RTVSPost2010PropOp47
 70
     0
102
RTVSPost2010Prop48
 90
       50
102
RTVSPost2010PropOp48
 70
     0
102
RTVSPost2010Prop49
280
     0
102
RTVSPost2010PropOp49
 70
     0
102
RTVSPost2010Prop50
 90
       50
102
RTVSPost2010PropOp50
 70
     0
102
RTVSPost2010Prop51ColorIndex
 90
      256
102
RTVSPost2010Prop51ColorRGB
 90
-16777216
102
RTVSPost2010PropOp51
 70
     0
102
RTVSPost2010Prop52
140
1.0
102
RTVSPost2010PropOp52
 70
     0
102
RTVSPost2010Prop53
 90
        2
102
RTVSPost2010PropOp53
 70
     0
102
RTVSPost2010Prop54
  1
strokes_ogs.tif
102
RTVSPost2010PropOp54
 70
     0
102
RTVSPost2010Prop55
280
     0
102
RTVSPost2010PropOp55
 70
     0
102
RTVSPost2010Prop56
140
1.0
102
RTVSPost2010PropOp56
 70
     0
102
RTVSPost2010Prop57
140
1.0
102
RTVSPost2010PropOp57
 70
     0
  0
XRECORD
  5
2A8
102
{ACAD_REACTORS
330
2A7
102
}
330
2A7
100
AcDbXrecord
280
     1
102
RTVSPropertyOp0
 70
     1
102
RTVSPropertyOp1
 70
     1
102
RTVSPropertyOp2
 70
     1
102
RTVSPropertyOp3
 70
     1
102
RTVSPropertyOp4
 70
     1
102
RTVSPropertyOp5
 70
     1
102
RTVSPropertyOp6
 70
     1
102
RTVSPropertyOp7
 70
     1
102
RTVSPropertyOp8
 70
     1
102
RTVSPropertyOp9
 70
     1
102
RTVSPropertyOp10
 70
     1
102
RTVSPropertyOp11
 70
     1
102
RTVSPropertyOp12
 70
     1
102
RTVSPropertyOp13
 70
     1
102
RTVSPropertyOp14
 70
     1
102
RTVSPropertyOp15
 70
     1
102
RTVSPropertyOp16
 70
     1
102
RTVSPropertyOp17
 70
     1
102
RTVSPropertyOp18
 70
     1
102
RTVSPropertyOp19
 70
     1
102
RTVSPropertyOp20
 70
     1
102
RTVSPropertyOp21
 70
     1
102
RTVSPropertyOp22
 70
     1
102
RTVSPropertyOp23
 70
     1
102
RTVSPropertyOp24
 70
     1
102
RTVSPropertyOp25
 70
     1
102
RTVSPropertyOp26
 70
     1
102
RTVSPropertyOp27
 70
     1
102
RTVSPropertyOp28
 70
     1
102
RTVSPropertyOp29
 70
     1
102
RTVSPropertyOp30
 70
     1
102
RTVSPropertyOp31
 70
     1
102
RTVSPropertyOp32
 70
     1
102
RTVSPropertyOp33
 70
     1
102
RTVSPropertyOp34
 70
     1
102
RTVSPropertyOp35
 70
     1
102
RTVSPropertyOp36
 70
     1
102
RTVSPropertyOp37
 70
     1
102
RTVSPropertyOp38
 70
     1
102
RTVSPropertyOp39
 70
     1
102
RTVSPropertyOp40
 70
     1
102
RTVSPropertyOp41
 70
     1
102
RTVSPropertyOp42
 70
     1
102
RTVSPropertyOp43
 70
     1
102
RTVSPropertyOp44
 70
     1
102
RTVSPropertyOp45
 70
     1
102
RTVSPropertyOp46
 70
     1
102
RTVSPropertyOp47
 70
     1
102
RTVSPropertyOp48
 70
     1
102
RTVSPropertyOp49
 70
     1
102
RTVSPropertyOp50
 70
     1
102
RTVSPropertyOp51
 70
     0
102
RTVSPropertyOp52
 70
     0
102
RTVSPropertyOp53
 70
     1
102
RTVSPropertyOp54
 70
     1
102
RTVSPropertyOp55
 70
     1
102
RTVSPropertyOp56
 70
     1
102
RTVSPropertyOp57
 70
     1
102
RTVSPost2010Prop28
280
     0
102
RTVSPost2010PropOp28
 70
     1
102
RTVSPost2010Prop29
280
     1
102
RTVSPost2010PropOp29
 70
     1
102
RTVSPost2010Prop30
280
     1
102
RTVSPost2010PropOp30
 70
     1
102
RTVSPost2010Prop31
280
     0
102
RTVSPost2010PropOp31
 70
     1
102
RTVSPost2010Prop32
280
     0
102
RTVSPost2010PropOp32
 70
     1
102
RTVSPost2010Prop33
280
     0
102
RTVSPost2010PropOp33
 70
     1
102
RTVSPost2010Prop34
280
     0
102
RTVSPost2010PropOp34
 70
     1
102
RTVSPost2010Prop35
280
     0
102
RTVSPost2010PropOp35
 70
     1
102
RTVSPost2010Prop36
280
     0
102
RTVSPost2010PropOp36
 70
     1
102
RTVSPost2010Prop37
 90
       50
102
RTVSPost2010PropOp37
 70
     1
102
RTVSPost2010Prop38
140
0.0
102
RTVSPost2010PropOp38
 70
     1
102
RTVSPost2010Prop39
140
1.0
102
RTVSPost2010PropOp39
 70
     1
102
RTVSPost2010Prop40
 90
        0
102
RTVSPost2010PropOp40
 70
     1
102
RTVSPost2010Prop41ColorIndex
 90
       18
102
RTVSPost2010Prop41ColorRGB
 90
        0
102
RTVSPost2010PropOp41
 70
     1
102
RTVSPost2010Prop42
 90
       50
102
RTVSPost2010PropOp42
 70
     1
102
RTVSPost2010Prop43
 90
        3
102
RTVSPost2010PropOp43
 70
     1
102
RTVSPost2010Prop44ColorIndex
 90
        5
102
RTVSPost2010Prop44ColorRGB
 90
      255
102
RTVSPost2010PropOp44
 70
     1
102
RTVSPost2010Prop45
280
     0
102
RTVSPost2010PropOp45
 70
     1
102
RTVSPost2010Prop46
 90
       50
102
RTVSPost2010PropOp46
 70
     1
102
RTVSPost2010Prop47
 90
       50
102
RTVSPost2010PropOp47
 70
     1
102
RTVSPost2010Prop48
 90
       50
102
RTVSPost2010PropOp48
 70
     1
102
RTVSPost2010Prop49
280
     0
102
RTVSPost2010PropOp49
 70
     1
102
RTVSPost2010Prop50
 90
       50
102
RTVSPost2010PropOp50
 70
     1
102
RTVSPost2010Prop51ColorIndex
 90
      256
102
RTVSPost2010Prop51ColorRGB
 90
-16777216
102
RTVSPost2010PropOp51
 70
     0
102
RTVSPost2010Prop52
140
1.0
102
RTVSPost2010PropOp52
 70
     0
102
RTVSPost2010Prop53
 90
        2
102
RTVSPost2010PropOp53
 70
     1
102
RTVSPost2010Prop54
  1
strokes_ogs.tif
102
RTVSPost2010PropOp54
 70
     1
102
RTVSPost2010Prop55
280
     0
102
RTVSPost2010PropOp55
 70
     1
102
RTVSPost2010Prop56
140
1.0
102
RTVSPost2010PropOp56
 70
     1
102
RTVSPost2010Prop57
140
1.0
102
RTVSPost2010PropOp57
 70
     1
  0
XRECORD
  5
2B0
102
{ACAD_REACTORS
330
2AF
102
}
330
2AF
100
AcDbXrecord
280
     1
102
RTVSPropertyOp0
 70
     0
102
RTVSPropertyOp1
 70
     0
102
RTVSPropertyOp2
 70
     0
102
RTVSPropertyOp3
 70
     0
102
RTVSPropertyOp4
 70
     0
102
RTVSPropertyOp5
 70
     0
102
RTVSPropertyOp6
 70
     0
102
RTVSPropertyOp7
 70
     0
102
RTVSPropertyOp8
 70
     0
102
RTVSPropertyOp9
 70
     0
102
RTVSPropertyOp10
 70
     0
102
RTVSPropertyOp11
 70
     0
102
RTVSPropertyOp12
 70
     0
102
RTVSPropertyOp13
 70
     0
102
RTVSPropertyOp14
 70
     2
102
RTVSPropertyOp15
 70
     0
102
RTVSPropertyOp16
 70
     0
102
RTVSPropertyOp17
 70
     0
102
RTVSPropertyOp18
 70
     0
102
RTVSPropertyOp19
 70
     0
102
RTVSPropertyOp20
 70
     0
102
RTVSPropertyOp21
 70
     0
102
RTVSPropertyOp22
 70
     0
102
RTVSPropertyOp23
 70
     0
102
RTVSPropertyOp24
 70
     0
102
RTVSPropertyOp25
 70
     0
102
RTVSPropertyOp26
 70
     0
102
RTVSPropertyOp27
 70
     0
102
RTVSPropertyOp28
 70
     0
102
RTVSPropertyOp29
 70
     0
102
RTVSPropertyOp30
 70
     0
102
RTVSPropertyOp31
 70
     0
102
RTVSPropertyOp32
 70
     0
102
RTVSPropertyOp33
 70
     0
102
RTVSPropertyOp34
 70
     0
102
RTVSPropertyOp35
 70
     0
102
RTVSPropertyOp36
 70
     0
102
RTVSPropertyOp37
 70
     0
102
RTVSPropertyOp38
 70
     0
102
RTVSPropertyOp39
 70
     0
102
RTVSPropertyOp40
 70
     0
102
RTVSPropertyOp41
 70
     0
102
RTVSPropertyOp42
 70
     0
102
RTVSPropertyOp43
 70
     0
102
RTVSPropertyOp44
 70
     0
102
RTVSPropertyOp45
 70
     0
102
RTVSPropertyOp46
 70
     0
102
RTVSPropertyOp47
 70
     0
102
RTVSPropertyOp48
 70
     0
102
RTVSPropertyOp49
 70
     0
102
RTVSPropertyOp50
 70
     0
102
RTVSPropertyOp51
 70
     0
102
RTVSPropertyOp52
 70
     0
102
RTVSPropertyOp53
 70
     0
102
RTVSPropertyOp54
 70
     0
102
RTVSPropertyOp55
 70
     0
102
RTVSPropertyOp56
 70
     0
102
RTVSPropertyOp57
 70
     0
102
RTVSPost2010Prop28
280
     0
102
RTVSPost2010PropOp28
 70
     0
102
RTVSPost2010Prop29
280
     1
102
RTVSPost2010PropOp29
 70
     0
102
RTVSPost2010Prop30
280
     1
102
RTVSPost2010PropOp30
 70
     0
102
RTVSPost2010Prop31
280
     0
102
RTVSPost2010PropOp31
 70
     0
102
RTVSPost2010Prop32
280
     0
102
RTVSPost2010PropOp32
 70
     0
102
RTVSPost2010Prop33
280
     0
102
RTVSPost2010PropOp33
 70
     0
102
RTVSPost2010Prop34
280
     0
102
RTVSPost2010PropOp34
 70
     0
102
RTVSPost2010Prop35
280
     0
102
RTVSPost2010PropOp35
 70
     0
102
RTVSPost2010Prop36
280
     0
102
RTVSPost2010PropOp36
 70
     0
102
RTVSPost2010Prop37
 90
       50
102
RTVSPost2010PropOp37
 70
     0
102
RTVSPost2010Prop38
140
0.0
102
RTVSPost2010PropOp38
 70
     0
102
RTVSPost2010Prop39
140
1.0
102
RTVSPost2010PropOp39
 70
     0
102
RTVSPost2010Prop40
 90
        0
102
RTVSPost2010PropOp40
 70
     0
102
RTVSPost2010Prop41ColorIndex
 90
       18
102
RTVSPost2010Prop41ColorRGB
 90
        0
102
RTVSPost2010PropOp41
 70
     0
102
RTVSPost2010Prop42
 90
       50
102
RTVSPost2010PropOp42
 70
     0
102
RTVSPost2010Prop43
 90
        3
102
RTVSPost2010PropOp43
 70
     0
102
RTVSPost2010Prop44ColorIndex
 90
        5
102
RTVSPost2010Prop44ColorRGB
 90
      255
102
RTVSPost2010PropOp44
 70
     0
102
RTVSPost2010Prop45
280
     0
102
RTVSPost2010PropOp45
 70
     0
102
RTVSPost2010Prop46
 90
       50
102
RTVSPost2010PropOp46
 70
     0
102
RTVSPost2010Prop47
 90
       50
102
RTVSPost2010PropOp47
 70
     0
102
RTVSPost2010Prop48
 90
       50
102
RTVSPost2010PropOp48
 70
     0
102
RTVSPost2010Prop49
280
     0
102
RTVSPost2010PropOp49
 70
     0
102
RTVSPost2010Prop50
 90
       50
102
RTVSPost2010PropOp50
 70
     0
102
RTVSPost2010Prop51ColorIndex
 90
      256
102
RTVSPost2010Prop51ColorRGB
 90
-16777216
102
RTVSPost2010PropOp51
 70
     0
102
RTVSPost2010Prop52
140
1.0
102
RTVSPost2010PropOp52
 70
     0
102
RTVSPost2010Prop53
 90
        2
102
RTVSPost2010PropOp53
 70
     0
102
RTVSPost2010Prop54
  1
strokes_ogs.tif
102
RTVSPost2010PropOp54
 70
     0
102
RTVSPost2010Prop55
280
     0
102
RTVSPost2010PropOp55
 70
     0
102
RTVSPost2010Prop56
140
1.0
102
RTVSPost2010PropOp56
 70
     0
102
RTVSPost2010Prop57
140
1.0
102
RTVSPost2010PropOp57
 70
     0
  0
XRECORD
  5
29E
102
{ACAD_REACTORS
330
29D
102
}
330
29D
100
AcDbXrecord
280
     1
102
RTVSPropertyOp0
 70
     1
102
RTVSPropertyOp1
 70
     1
102
RTVSPropertyOp2
 70
     1
102
RTVSPropertyOp3
 70
     1
102
RTVSPropertyOp4
 70
     1
102
RTVSPropertyOp5
 70
     1
102
RTVSPropertyOp6
 70
     1
102
RTVSPropertyOp7
 70
     1
102
RTVSPropertyOp8
 70
     1
102
RTVSPropertyOp9
 70
     1
102
RTVSPropertyOp10
 70
     1
102
RTVSPropertyOp11
 70
     1
102
RTVSPropertyOp12
 70
     1
102
RTVSPropertyOp13
 70
     1
102
RTVSPropertyOp14
 70
     1
102
RTVSPropertyOp15
 70
     1
102
RTVSPropertyOp16
 70
     1
102
RTVSPropertyOp17
 70
     1
102
RTVSPropertyOp18
 70
     1
102
RTVSPropertyOp19
 70
     1
102
RTVSPropertyOp20
 70
     1
102
RTVSPropertyOp21
 70
     1
102
RTVSPropertyOp22
 70
     1
102
RTVSPropertyOp23
 70
     1
102
RTVSPropertyOp24
 70
     1
102
RTVSPropertyOp25
 70
     1
102
RTVSPropertyOp26
 70
     1
102
RTVSPropertyOp27
 70
     1
102
RTVSPropertyOp28
 70
     1
102
RTVSPropertyOp29
 70
     1
102
RTVSPropertyOp30
 70
     1
102
RTVSPropertyOp31
 70
     1
102
RTVSPropertyOp32
 70
     1
102
RTVSPropertyOp33
 70
     1
102
RTVSPropertyOp34
 70
     1
102
RTVSPropertyOp35
 70
     1
102
RTVSPropertyOp36
 70
     1
102
RTVSPropertyOp37
 70
     1
102
RTVSPropertyOp38
 70
     1
102
RTVSPropertyOp39
 70
     1
102
RTVSPropertyOp40
 70
     1
102
RTVSPropertyOp41
 70
     1
102
RTVSPropertyOp42
 70
     1
102
RTVSPropertyOp43
 70
     1
102
RTVSPropertyOp44
 70
     1
102
RTVSPropertyOp45
 70
     1
102
RTVSPropertyOp46
 70
     1
102
RTVSPropertyOp47
 70
     1
102
RTVSPropertyOp48
 70
     1
102
RTVSPropertyOp49
 70
     1
102
RTVSPropertyOp50
 70
     1
102
RTVSPropertyOp51
 70
     0
102
RTVSPropertyOp52
 70
     0
102
RTVSPropertyOp53
 70
     1
102
RTVSPropertyOp54
 70
     1
102
RTVSPropertyOp55
 70
     1
102
RTVSPropertyOp56
 70
     1
102
RTVSPropertyOp57
 70
     1
102
RTVSPost2010Prop28
280
     0
102
RTVSPost2010PropOp28
 70
     1
102
RTVSPost2010Prop29
280
     1
102
RTVSPost2010PropOp29
 70
     1
102
RTVSPost2010Prop30
280
     1
102
RTVSPost2010PropOp30
 70
     1
102
RTVSPost2010Prop31
280
     0
102
RTVSPost2010PropOp31
 70
     1
102
RTVSPost2010Prop32
280
     0
102
RTVSPost2010PropOp32
 70
     1
102
RTVSPost2010Prop33
280
     0
102
RTVSPost2010PropOp33
 70
     1
102
RTVSPost2010Prop34
280
     0
102
RTVSPost2010PropOp34
 70
     1
102
RTVSPost2010Prop35
280
     0
102
RTVSPost2010PropOp35
 70
     1
102
RTVSPost2010Prop36
280
     0
102
RTVSPost2010PropOp36
 70
     1
102
RTVSPost2010Prop37
 90
       50
102
RTVSPost2010PropOp37
 70
     1
102
RTVSPost2010Prop38
140
0.0
102
RTVSPost2010PropOp38
 70
     1
102
RTVSPost2010Prop39
140
1.0
102
RTVSPost2010PropOp39
 70
     1
102
RTVSPost2010Prop40
 90
        0
102
RTVSPost2010PropOp40
 70
     1
102
RTVSPost2010Prop41ColorIndex
 90
       18
102
RTVSPost2010Prop41ColorRGB
 90
        0
102
RTVSPost2010PropOp41
 70
     1
102
RTVSPost2010Prop42
 90
       50
102
RTVSPost2010PropOp42
 70
     1
102
RTVSPost2010Prop43
 90
        3
102
RTVSPost2010PropOp43
 70
     1
102
RTVSPost2010Prop44ColorIndex
 90
        5
102
RTVSPost2010Prop44ColorRGB
 90
      255
102
RTVSPost2010PropOp44
 70
     1
102
RTVSPost2010Prop45
280
     0
102
RTVSPost2010PropOp45
 70
     1
102
RTVSPost2010Prop46
 90
       50
102
RTVSPost2010PropOp46
 70
     1
102
RTVSPost2010Prop47
 90
       50
102
RTVSPost2010PropOp47
 70
     1
102
RTVSPost2010Prop48
 90
       50
102
RTVSPost2010PropOp48
 70
     1
102
RTVSPost2010Prop49
280
     0
102
RTVSPost2010PropOp49
 70
     1
102
RTVSPost2010Prop50
 90
       50
102
RTVSPost2010PropOp50
 70
     1
102
RTVSPost2010Prop51ColorIndex
 90
      256
102
RTVSPost2010Prop51ColorRGB
 90
-16777216
102
RTVSPost2010PropOp51
 70
     0
102
RTVSPost2010Prop52
140
1.0
102
RTVSPost2010PropOp52
 70
     0
102
RTVSPost2010Prop53
 90
        2
102
RTVSPost2010PropOp53
 70
     1
102
RTVSPost2010Prop54
  1
strokes_ogs.tif
102
RTVSPost2010PropOp54
 70
     1
102
RTVSPost2010Prop55
280
     0
102
RTVSPost2010PropOp55
 70
     1
102
RTVSPost2010Prop56
140
1.0
102
RTVSPost2010PropOp56
 70
     1
102
RTVSPost2010Prop57
140
1.0
102
RTVSPost2010PropOp57
 70
     1
  0
XRECORD
  5
2BC
102
{ACAD_REACTORS
330
2BB
102
}
330
2BB
100
AcDbXrecord
280
     1
102
RTVSPropertyOp0
 70
     1
102
RTVSPropertyOp1
 70
     1
102
RTVSPropertyOp2
 70
     1
102
RTVSPropertyOp3
 70
     1
102
RTVSPropertyOp4
 70
     1
102
RTVSPropertyOp5
 70
     1
102
RTVSPropertyOp6
 70
     1
102
RTVSPropertyOp7
 70
     1
102
RTVSPropertyOp8
 70
     1
102
RTVSPropertyOp9
 70
     1
102
RTVSPropertyOp10
 70
     1
102
RTVSPropertyOp11
 70
     1
102
RTVSPropertyOp12
 70
     1
102
RTVSPropertyOp13
 70
     1
102
RTVSPropertyOp14
 70
     1
102
RTVSPropertyOp15
 70
     1
102
RTVSPropertyOp16
 70
     1
102
RTVSPropertyOp17
 70
     1
102
RTVSPropertyOp18
 70
     1
102
RTVSPropertyOp19
 70
     1
102
RTVSPropertyOp20
 70
     1
102
RTVSPropertyOp21
 70
     1
102
RTVSPropertyOp22
 70
     1
102
RTVSPropertyOp23
 70
     1
102
RTVSPropertyOp24
 70
     1
102
RTVSPropertyOp25
 70
     1
102
RTVSPropertyOp26
 70
     1
102
RTVSPropertyOp27
 70
     1
102
RTVSPropertyOp28
 70
     1
102
RTVSPropertyOp29
 70
     1
102
RTVSPropertyOp30
 70
     1
102
RTVSPropertyOp31
 70
     1
102
RTVSPropertyOp32
 70
     1
102
RTVSPropertyOp33
 70
     1
102
RTVSPropertyOp34
 70
     1
102
RTVSPropertyOp35
 70
     1
102
RTVSPropertyOp36
 70
     1
102
RTVSPropertyOp37
 70
     1
102
RTVSPropertyOp38
 70
     1
102
RTVSPropertyOp39
 70
     1
102
RTVSPropertyOp40
 70
     1
102
RTVSPropertyOp41
 70
     1
102
RTVSPropertyOp42
 70
     1
102
RTVSPropertyOp43
 70
     1
102
RTVSPropertyOp44
 70
     1
102
RTVSPropertyOp45
 70
     1
102
RTVSPropertyOp46
 70
     1
102
RTVSPropertyOp47
 70
     1
102
RTVSPropertyOp48
 70
     1
102
RTVSPropertyOp49
 70
     1
102
RTVSPropertyOp50
 70
     1
102
RTVSPropertyOp51
 70
     0
102
RTVSPropertyOp52
 70
     0
102
RTVSPropertyOp53
 70
     1
102
RTVSPropertyOp54
 70
     1
102
RTVSPropertyOp55
 70
     1
102
RTVSPropertyOp56
 70
     1
102
RTVSPropertyOp57
 70
     1
102
RTVSPost2010Prop28
280
     0
102
RTVSPost2010PropOp28
 70
     1
102
RTVSPost2010Prop29
280
     1
102
RTVSPost2010PropOp29
 70
     1
102
RTVSPost2010Prop30
280
     1
102
RTVSPost2010PropOp30
 70
     1
102
RTVSPost2010Prop31
280
     0
102
RTVSPost2010PropOp31
 70
     1
102
RTVSPost2010Prop32
280
     0
102
RTVSPost2010PropOp32
 70
     1
102
RTVSPost2010Prop33
280
     0
102
RTVSPost2010PropOp33
 70
     1
102
RTVSPost2010Prop34
280
     0
102
RTVSPost2010PropOp34
 70
     1
102
RTVSPost2010Prop35
280
     0
102
RTVSPost2010PropOp35
 70
     1
102
RTVSPost2010Prop36
280
     0
102
RTVSPost2010PropOp36
 70
     1
102
RTVSPost2010Prop37
 90
       50
102
RTVSPost2010PropOp37
 70
     1
102
RTVSPost2010Prop38
140
0.0
102
RTVSPost2010PropOp38
 70
     1
102
RTVSPost2010Prop39
140
1.0
102
RTVSPost2010PropOp39
 70
     1
102
RTVSPost2010Prop40
 90
        0
102
RTVSPost2010PropOp40
 70
     1
102
RTVSPost2010Prop41ColorIndex
 90
       18
102
RTVSPost2010Prop41ColorRGB
 90
        0
102
RTVSPost2010PropOp41
 70
     1
102
RTVSPost2010Prop42
 90
       50
102
RTVSPost2010PropOp42
 70
     1
102
RTVSPost2010Prop43
 90
        3
102
RTVSPost2010PropOp43
 70
     1
102
RTVSPost2010Prop44ColorIndex
 90
        5
102
RTVSPost2010Prop44ColorRGB
 90
      255
102
RTVSPost2010PropOp44
 70
     1
102
RTVSPost2010Prop45
280
     0
102
RTVSPost2010PropOp45
 70
     1
102
RTVSPost2010Prop46
 90
       50
102
RTVSPost2010PropOp46
 70
     1
102
RTVSPost2010Prop47
 90
       50
102
RTVSPost2010PropOp47
 70
     1
102
RTVSPost2010Prop48
 90
       50
102
RTVSPost2010PropOp48
 70
     1
102
RTVSPost2010Prop49
280
     0
102
RTVSPost2010PropOp49
 70
     1
102
RTVSPost2010Prop50
 90
       50
102
RTVSPost2010PropOp50
 70
     1
102
RTVSPost2010Prop51ColorIndex
 90
      256
102
RTVSPost2010Prop51ColorRGB
 90
-16777216
102
RTVSPost2010PropOp51
 70
     0
102
RTVSPost2010Prop52
140
1.0
102
RTVSPost2010PropOp52
 70
     0
102
RTVSPost2010Prop53
 90
        2
102
RTVSPost2010PropOp53
 70
     1
102
RTVSPost2010Prop54
  1
strokes_ogs.tif
102
RTVSPost2010PropOp54
 70
     1
102
RTVSPost2010Prop55
280
     0
102
RTVSPost2010PropOp55
 70
     1
102
RTVSPost2010Prop56
140
1.0
102
RTVSPost2010PropOp56
 70
     1
102
RTVSPost2010Prop57
140
1.0
102
RTVSPost2010PropOp57
 70
     1
  0
XRECORD
  5
2BA
102
{ACAD_REACTORS
330
2B9
102
}
330
2B9
100
AcDbXrecord
280
     1
102
RTVSPropertyOp0
 70
     1
102
RTVSPropertyOp1
 70
     1
102
RTVSPropertyOp2
 70
     1
102
RTVSPropertyOp3
 70
     1
102
RTVSPropertyOp4
 70
     1
102
RTVSPropertyOp5
 70
     1
102
RTVSPropertyOp6
 70
     1
102
RTVSPropertyOp7
 70
     1
102
RTVSPropertyOp8
 70
     1
102
RTVSPropertyOp9
 70
     1
102
RTVSPropertyOp10
 70
     1
102
RTVSPropertyOp11
 70
     1
102
RTVSPropertyOp12
 70
     1
102
RTVSPropertyOp13
 70
     1
102
RTVSPropertyOp14
 70
     1
102
RTVSPropertyOp15
 70
     1
102
RTVSPropertyOp16
 70
     1
102
RTVSPropertyOp17
 70
     1
102
RTVSPropertyOp18
 70
     1
102
RTVSPropertyOp19
 70
     1
102
RTVSPropertyOp20
 70
     1
102
RTVSPropertyOp21
 70
     1
102
RTVSPropertyOp22
 70
     1
102
RTVSPropertyOp23
 70
     1
102
RTVSPropertyOp24
 70
     1
102
RTVSPropertyOp25
 70
     1
102
RTVSPropertyOp26
 70
     1
102
RTVSPropertyOp27
 70
     1
102
RTVSPropertyOp28
 70
     1
102
RTVSPropertyOp29
 70
     1
102
RTVSPropertyOp30
 70
     1
102
RTVSPropertyOp31
 70
     1
102
RTVSPropertyOp32
 70
     1
102
RTVSPropertyOp33
 70
     1
102
RTVSPropertyOp34
 70
     1
102
RTVSPropertyOp35
 70
     1
102
RTVSPropertyOp36
 70
     1
102
RTVSPropertyOp37
 70
     1
102
RTVSPropertyOp38
 70
     1
102
RTVSPropertyOp39
 70
     1
102
RTVSPropertyOp40
 70
     1
102
RTVSPropertyOp41
 70
     1
102
RTVSPropertyOp42
 70
     1
102
RTVSPropertyOp43
 70
     1
102
RTVSPropertyOp44
 70
     1
102
RTVSPropertyOp45
 70
     1
102
RTVSPropertyOp46
 70
     1
102
RTVSPropertyOp47
 70
     1
102
RTVSPropertyOp48
 70
     1
102
RTVSPropertyOp49
 70
     1
102
RTVSPropertyOp50
 70
     1
102
RTVSPropertyOp51
 70
     0
102
RTVSPropertyOp52
 70
     0
102
RTVSPropertyOp53
 70
     1
102
RTVSPropertyOp54
 70
     1
102
RTVSPropertyOp55
 70
     1
102
RTVSPropertyOp56
 70
     1
102
RTVSPropertyOp57
 70
     1
102
RTVSPost2010Prop28
280
     0
102
RTVSPost2010PropOp28
 70
     1
102
RTVSPost2010Prop29
280
     1
102
RTVSPost2010PropOp29
 70
     1
102
RTVSPost2010Prop30
280
     1
102
RTVSPost2010PropOp30
 70
     1
102
RTVSPost2010Prop31
280
     0
102
RTVSPost2010PropOp31
 70
     1
102
RTVSPost2010Prop32
280
     0
102
RTVSPost2010PropOp32
 70
     1
102
RTVSPost2010Prop33
280
     0
102
RTVSPost2010PropOp33
 70
     1
102
RTVSPost2010Prop34
280
     0
102
RTVSPost2010PropOp34
 70
     1
102
RTVSPost2010Prop35
280
     0
102
RTVSPost2010PropOp35
 70
     1
102
RTVSPost2010Prop36
280
     0
102
RTVSPost2010PropOp36
 70
     1
102
RTVSPost2010Prop37
 90
       50
102
RTVSPost2010PropOp37
 70
     1
102
RTVSPost2010Prop38
140
0.0
102
RTVSPost2010PropOp38
 70
     1
102
RTVSPost2010Prop39
140
1.0
102
RTVSPost2010PropOp39
 70
     1
102
RTVSPost2010Prop40
 90
        0
102
RTVSPost2010PropOp40
 70
     1
102
RTVSPost2010Prop41ColorIndex
 90
       18
102
RTVSPost2010Prop41ColorRGB
 90
        0
102
RTVSPost2010PropOp41
 70
     1
102
RTVSPost2010Prop42
 90
       50
102
RTVSPost2010PropOp42
 70
     1
102
RTVSPost2010Prop43
 90
        3
102
RTVSPost2010PropOp43
 70
     1
102
RTVSPost2010Prop44ColorIndex
 90
        5
102
RTVSPost2010Prop44ColorRGB
 90
      255
102
RTVSPost2010PropOp44
 70
     1
102
RTVSPost2010Prop45
280
     0
102
RTVSPost2010PropOp45
 70
     1
102
RTVSPost2010Prop46
 90
       50
102
RTVSPost2010PropOp46
 70
     1
102
RTVSPost2010Prop47
 90
       50
102
RTVSPost2010PropOp47
 70
     1
102
RTVSPost2010Prop48
 90
       50
102
RTVSPost2010PropOp48
 70
     1
102
RTVSPost2010Prop49
280
     0
102
RTVSPost2010PropOp49
 70
     1
102
RTVSPost2010Prop50
 90
       50
102
RTVSPost2010PropOp50
 70
     1
102
RTVSPost2010Prop51ColorIndex
 90
      256
102
RTVSPost2010Prop51ColorRGB
 90
-16777216
102
RTVSPost2010PropOp51
 70
     0
102
RTVSPost2010Prop52
140
1.0
102
RTVSPost2010PropOp52
 70
     0
102
RTVSPost2010Prop53
 90
        2
102
RTVSPost2010PropOp53
 70
     1
102
RTVSPost2010Prop54
  1
strokes_ogs.tif
102
RTVSPost2010PropOp54
 70
     1
102
RTVSPost2010Prop55
280
     0
102
RTVSPost2010PropOp55
 70
     1
102
RTVSPost2010Prop56
140
1.0
102
RTVSPost2010PropOp56
 70
     1
102
RTVSPost2010Prop57
140
1.0
102
RTVSPost2010PropOp57
 70
     1
  0
XRECORD
  5
2B4
102
{ACAD_REACTORS
330
2B3
102
}
330
2B3
100
AcDbXrecord
280
     1
102
RTVSPropertyOp0
 70
     1
102
RTVSPropertyOp1
 70
     1
102
RTVSPropertyOp2
 70
     1
102
RTVSPropertyOp3
 70
     1
102
RTVSPropertyOp4
 70
     1
102
RTVSPropertyOp5
 70
     1
102
RTVSPropertyOp6
 70
     1
102
RTVSPropertyOp7
 70
     1
102
RTVSPropertyOp8
 70
     1
102
RTVSPropertyOp9
 70
     1
102
RTVSPropertyOp10
 70
     1
102
RTVSPropertyOp11
 70
     1
102
RTVSPropertyOp12
 70
     1
102
RTVSPropertyOp13
 70
     1
102
RTVSPropertyOp14
 70
     1
102
RTVSPropertyOp15
 70
     1
102
RTVSPropertyOp16
 70
     1
102
RTVSPropertyOp17
 70
     1
102
RTVSPropertyOp18
 70
     1
102
RTVSPropertyOp19
 70
     1
102
RTVSPropertyOp20
 70
     1
102
RTVSPropertyOp21
 70
     1
102
RTVSPropertyOp22
 70
     1
102
RTVSPropertyOp23
 70
     1
102
RTVSPropertyOp24
 70
     1
102
RTVSPropertyOp25
 70
     1
102
RTVSPropertyOp26
 70
     1
102
RTVSPropertyOp27
 70
     1
102
RTVSPropertyOp28
 70
     1
102
RTVSPropertyOp29
 70
     1
102
RTVSPropertyOp30
 70
     1
102
RTVSPropertyOp31
 70
     1
102
RTVSPropertyOp32
 70
     1
102
RTVSPropertyOp33
 70
     1
102
RTVSPropertyOp34
 70
     1
102
RTVSPropertyOp35
 70
     1
102
RTVSPropertyOp36
 70
     1
102
RTVSPropertyOp37
 70
     1
102
RTVSPropertyOp38
 70
     1
102
RTVSPropertyOp39
 70
     1
102
RTVSPropertyOp40
 70
     1
102
RTVSPropertyOp41
 70
     1
102
RTVSPropertyOp42
 70
     1
102
RTVSPropertyOp43
 70
     1
102
RTVSPropertyOp44
 70
     1
102
RTVSPropertyOp45
 70
     1
102
RTVSPropertyOp46
 70
     1
102
RTVSPropertyOp47
 70
     1
102
RTVSPropertyOp48
 70
     1
102
RTVSPropertyOp49
 70
     1
102
RTVSPropertyOp50
 70
     1
102
RTVSPropertyOp51
 70
     0
102
RTVSPropertyOp52
 70
     0
102
RTVSPropertyOp53
 70
     1
102
RTVSPropertyOp54
 70
     1
102
RTVSPropertyOp55
 70
     1
102
RTVSPropertyOp56
 70
     1
102
RTVSPropertyOp57
 70
     1
102
RTVSPost2010Prop28
280
     0
102
RTVSPost2010PropOp28
 70
     1
102
RTVSPost2010Prop29
280
     1
102
RTVSPost2010PropOp29
 70
     1
102
RTVSPost2010Prop30
280
     1
102
RTVSPost2010PropOp30
 70
     1
102
RTVSPost2010Prop31
280
     0
102
RTVSPost2010PropOp31
 70
     1
102
RTVSPost2010Prop32
280
     0
102
RTVSPost2010PropOp32
 70
     1
102
RTVSPost2010Prop33
280
     0
102
RTVSPost2010PropOp33
 70
     1
102
RTVSPost2010Prop34
280
     0
102
RTVSPost2010PropOp34
 70
     1
102
RTVSPost2010Prop35
280
     0
102
RTVSPost2010PropOp35
 70
     1
102
RTVSPost2010Prop36
280
     0
102
RTVSPost2010PropOp36
 70
     1
102
RTVSPost2010Prop37
 90
       50
102
RTVSPost2010PropOp37
 70
     1
102
RTVSPost2010Prop38
140
0.0
102
RTVSPost2010PropOp38
 70
     1
102
RTVSPost2010Prop39
140
1.0
102
RTVSPost2010PropOp39
 70
     1
102
RTVSPost2010Prop40
 90
        0
102
RTVSPost2010PropOp40
 70
     1
102
RTVSPost2010Prop41ColorIndex
 90
       18
102
RTVSPost2010Prop41ColorRGB
 90
        0
102
RTVSPost2010PropOp41
 70
     1
102
RTVSPost2010Prop42
 90
       50
102
RTVSPost2010PropOp42
 70
     1
102
RTVSPost2010Prop43
 90
        3
102
RTVSPost2010PropOp43
 70
     1
102
RTVSPost2010Prop44ColorIndex
 90
        5
102
RTVSPost2010Prop44ColorRGB
 90
      255
102
RTVSPost2010PropOp44
 70
     1
102
RTVSPost2010Prop45
280
     0
102
RTVSPost2010PropOp45
 70
     1
102
RTVSPost2010Prop46
 90
       50
102
RTVSPost2010PropOp46
 70
     1
102
RTVSPost2010Prop47
 90
       50
102
RTVSPost2010PropOp47
 70
     1
102
RTVSPost2010Prop48
 90
       50
102
RTVSPost2010PropOp48
 70
     1
102
RTVSPost2010Prop49
280
     0
102
RTVSPost2010PropOp49
 70
     1
102
RTVSPost2010Prop50
 90
       50
102
RTVSPost2010PropOp50
 70
     1
102
RTVSPost2010Prop51ColorIndex
 90
      256
102
RTVSPost2010Prop51ColorRGB
 90
-16777216
102
RTVSPost2010PropOp51
 70
     0
102
RTVSPost2010Prop52
140
1.0
102
RTVSPost2010PropOp52
 70
     0
102
RTVSPost2010Prop53
 90
        2
102
RTVSPost2010PropOp53
 70
     1
102
RTVSPost2010Prop54
  1
strokes_ogs.tif
102
RTVSPost2010PropOp54
 70
     1
102
RTVSPost2010Prop55
280
     0
102
RTVSPost2010PropOp55
 70
     1
102
RTVSPost2010Prop56
140
1.0
102
RTVSPost2010PropOp56
 70
     1
102
RTVSPost2010Prop57
140
1.0
102
RTVSPost2010PropOp57
 70
     1
  0
XRECORD
  5
2B6
102
{ACAD_REACTORS
330
2B5
102
}
330
2B5
100
AcDbXrecord
280
     1
102
RTVSPropertyOp0
 70
     1
102
RTVSPropertyOp1
 70
     1
102
RTVSPropertyOp2
 70
     1
102
RTVSPropertyOp3
 70
     1
102
RTVSPropertyOp4
 70
     1
102
RTVSPropertyOp5
 70
     1
102
RTVSPropertyOp6
 70
     1
102
RTVSPropertyOp7
 70
     1
102
RTVSPropertyOp8
 70
     1
102
RTVSPropertyOp9
 70
     1
102
RTVSPropertyOp10
 70
     1
102
RTVSPropertyOp11
 70
     1
102
RTVSPropertyOp12
 70
     1
102
RTVSPropertyOp13
 70
     1
102
RTVSPropertyOp14
 70
     1
102
RTVSPropertyOp15
 70
     1
102
RTVSPropertyOp16
 70
     1
102
RTVSPropertyOp17
 70
     1
102
RTVSPropertyOp18
 70
     1
102
RTVSPropertyOp19
 70
     1
102
RTVSPropertyOp20
 70
     1
102
RTVSPropertyOp21
 70
     1
102
RTVSPropertyOp22
 70
     1
102
RTVSPropertyOp23
 70
     1
102
RTVSPropertyOp24
 70
     1
102
RTVSPropertyOp25
 70
     1
102
RTVSPropertyOp26
 70
     1
102
RTVSPropertyOp27
 70
     1
102
RTVSPropertyOp28
 70
     1
102
RTVSPropertyOp29
 70
     1
102
RTVSPropertyOp30
 70
     1
102
RTVSPropertyOp31
 70
     1
102
RTVSPropertyOp32
 70
     1
102
RTVSPropertyOp33
 70
     1
102
RTVSPropertyOp34
 70
     1
102
RTVSPropertyOp35
 70
     1
102
RTVSPropertyOp36
 70
     1
102
RTVSPropertyOp37
 70
     1
102
RTVSPropertyOp38
 70
     1
102
RTVSPropertyOp39
 70
     1
102
RTVSPropertyOp40
 70
     1
102
RTVSPropertyOp41
 70
     1
102
RTVSPropertyOp42
 70
     1
102
RTVSPropertyOp43
 70
     1
102
RTVSPropertyOp44
 70
     1
102
RTVSPropertyOp45
 70
     1
102
RTVSPropertyOp46
 70
     1
102
RTVSPropertyOp47
 70
     1
102
RTVSPropertyOp48
 70
     1
102
RTVSPropertyOp49
 70
     1
102
RTVSPropertyOp50
 70
     1
102
RTVSPropertyOp51
 70
     0
102
RTVSPropertyOp52
 70
     0
102
RTVSPropertyOp53
 70
     1
102
RTVSPropertyOp54
 70
     1
102
RTVSPropertyOp55
 70
     1
102
RTVSPropertyOp56
 70
     1
102
RTVSPropertyOp57
 70
     1
102
RTVSPost2010Prop28
280
     0
102
RTVSPost2010PropOp28
 70
     1
102
RTVSPost2010Prop29
280
     1
102
RTVSPost2010PropOp29
 70
     1
102
RTVSPost2010Prop30
280
     1
102
RTVSPost2010PropOp30
 70
     1
102
RTVSPost2010Prop31
280
     0
102
RTVSPost2010PropOp31
 70
     1
102
RTVSPost2010Prop32
280
     0
102
RTVSPost2010PropOp32
 70
     1
102
RTVSPost2010Prop33
280
     0
102
RTVSPost2010PropOp33
 70
     1
102
RTVSPost2010Prop34
280
     0
102
RTVSPost2010PropOp34
 70
     1
102
RTVSPost2010Prop35
280
     0
102
RTVSPost2010PropOp35
 70
     1
102
RTVSPost2010Prop36
280
     0
102
RTVSPost2010PropOp36
 70
     1
102
RTVSPost2010Prop37
 90
       50
102
RTVSPost2010PropOp37
 70
     1
102
RTVSPost2010Prop38
140
0.0
102
RTVSPost2010PropOp38
 70
     1
102
RTVSPost2010Prop39
140
1.0
102
RTVSPost2010PropOp39
 70
     1
102
RTVSPost2010Prop40
 90
        0
102
RTVSPost2010PropOp40
 70
     1
102
RTVSPost2010Prop41ColorIndex
 90
       18
102
RTVSPost2010Prop41ColorRGB
 90
        0
102
RTVSPost2010PropOp41
 70
     1
102
RTVSPost2010Prop42
 90
       50
102
RTVSPost2010PropOp42
 70
     1
102
RTVSPost2010Prop43
 90
        3
102
RTVSPost2010PropOp43
 70
     1
102
RTVSPost2010Prop44ColorIndex
 90
        5
102
RTVSPost2010Prop44ColorRGB
 90
      255
102
RTVSPost2010PropOp44
 70
     1
102
RTVSPost2010Prop45
280
     0
102
RTVSPost2010PropOp45
 70
     1
102
RTVSPost2010Prop46
 90
       50
102
RTVSPost2010PropOp46
 70
     1
102
RTVSPost2010Prop47
 90
       50
102
RTVSPost2010PropOp47
 70
     1
102
RTVSPost2010Prop48
 90
       50
102
RTVSPost2010PropOp48
 70
     1
102
RTVSPost2010Prop49
280
     0
102
RTVSPost2010PropOp49
 70
     1
102
RTVSPost2010Prop50
 90
       50
102
RTVSPost2010PropOp50
 70
     1
102
RTVSPost2010Prop51ColorIndex
 90
      256
102
RTVSPost2010Prop51ColorRGB
 90
-16777216
102
RTVSPost2010PropOp51
 70
     0
102
RTVSPost2010Prop52
140
1.0
102
RTVSPost2010PropOp52
 70
     0
102
RTVSPost2010Prop53
 90
        2
102
RTVSPost2010PropOp53
 70
     1
102
RTVSPost2010Prop54
  1
strokes_ogs.tif
102
RTVSPost2010PropOp54
 70
     1
102
RTVSPost2010Prop55
280
     0
102
RTVSPost2010PropOp55
 70
     1
102
RTVSPost2010Prop56
140
1.0
102
RTVSPost2010PropOp56
 70
     1
102
RTVSPost2010Prop57
140
1.0
102
RTVSPost2010PropOp57
 70
     1
  0
XRECORD
  5
2A6
102
{ACAD_REACTORS
330
2A5
102
}
330
2A5
100
AcDbXrecord
280
     1
102
RTVSPropertyOp0
 70
     1
102
RTVSPropertyOp1
 70
     1
102
RTVSPropertyOp2
 70
     1
102
RTVSPropertyOp3
 70
     1
102
RTVSPropertyOp4
 70
     1
102
RTVSPropertyOp5
 70
     1
102
RTVSPropertyOp6
 70
     1
102
RTVSPropertyOp7
 70
     1
102
RTVSPropertyOp8
 70
     1
102
RTVSPropertyOp9
 70
     1
102
RTVSPropertyOp10
 70
     1
102
RTVSPropertyOp11
 70
     1
102
RTVSPropertyOp12
 70
     1
102
RTVSPropertyOp13
 70
     1
102
RTVSPropertyOp14
 70
     1
102
RTVSPropertyOp15
 70
     1
102
RTVSPropertyOp16
 70
     1
102
RTVSPropertyOp17
 70
     1
102
RTVSPropertyOp18
 70
     1
102
RTVSPropertyOp19
 70
     1
102
RTVSPropertyOp20
 70
     1
102
RTVSPropertyOp21
 70
     1
102
RTVSPropertyOp22
 70
     1
102
RTVSPropertyOp23
 70
     1
102
RTVSPropertyOp24
 70
     1
102
RTVSPropertyOp25
 70
     1
102
RTVSPropertyOp26
 70
     1
102
RTVSPropertyOp27
 70
     1
102
RTVSPropertyOp28
 70
     1
102
RTVSPropertyOp29
 70
     1
102
RTVSPropertyOp30
 70
     1
102
RTVSPropertyOp31
 70
     1
102
RTVSPropertyOp32
 70
     1
102
RTVSPropertyOp33
 70
     1
102
RTVSPropertyOp34
 70
     1
102
RTVSPropertyOp35
 70
     1
102
RTVSPropertyOp36
 70
     1
102
RTVSPropertyOp37
 70
     1
102
RTVSPropertyOp38
 70
     1
102
RTVSPropertyOp39
 70
     1
102
RTVSPropertyOp40
 70
     1
102
RTVSPropertyOp41
 70
     1
102
RTVSPropertyOp42
 70
     1
102
RTVSPropertyOp43
 70
     1
102
RTVSPropertyOp44
 70
     1
102
RTVSPropertyOp45
 70
     1
102
RTVSPropertyOp46
 70
     1
102
RTVSPropertyOp47
 70
     1
102
RTVSPropertyOp48
 70
     1
102
RTVSPropertyOp49
 70
     1
102
RTVSPropertyOp50
 70
     1
102
RTVSPropertyOp51
 70
     0
102
RTVSPropertyOp52
 70
     0
102
RTVSPropertyOp53
 70
     1
102
RTVSPropertyOp54
 70
     1
102
RTVSPropertyOp55
 70
     1
102
RTVSPropertyOp56
 70
     1
102
RTVSPropertyOp57
 70
     1
102
RTVSPost2010Prop28
280
     0
102
RTVSPost2010PropOp28
 70
     1
102
RTVSPost2010Prop29
280
     1
102
RTVSPost2010PropOp29
 70
     1
102
RTVSPost2010Prop30
280
     1
102
RTVSPost2010PropOp30
 70
     1
102
RTVSPost2010Prop31
280
     0
102
RTVSPost2010PropOp31
 70
     1
102
RTVSPost2010Prop32
280
     0
102
RTVSPost2010PropOp32
 70
     1
102
RTVSPost2010Prop33
280
     0
102
RTVSPost2010PropOp33
 70
     1
102
RTVSPost2010Prop34
280
     0
102
RTVSPost2010PropOp34
 70
     1
102
RTVSPost2010Prop35
280
     0
102
RTVSPost2010PropOp35
 70
     1
102
RTVSPost2010Prop36
280
     0
102
RTVSPost2010PropOp36
 70
     1
102
RTVSPost2010Prop37
 90
       50
102
RTVSPost2010PropOp37
 70
     1
102
RTVSPost2010Prop38
140
0.0
102
RTVSPost2010PropOp38
 70
     1
102
RTVSPost2010Prop39
140
1.0
102
RTVSPost2010PropOp39
 70
     1
102
RTVSPost2010Prop40
 90
        0
102
RTVSPost2010PropOp40
 70
     1
102
RTVSPost2010Prop41ColorIndex
 90
       18
102
RTVSPost2010Prop41ColorRGB
 90
        0
102
RTVSPost2010PropOp41
 70
     1
102
RTVSPost2010Prop42
 90
       50
102
RTVSPost2010PropOp42
 70
     1
102
RTVSPost2010Prop43
 90
        3
102
RTVSPost2010PropOp43
 70
     1
102
RTVSPost2010Prop44ColorIndex
 90
        5
102
RTVSPost2010Prop44ColorRGB
 90
      255
102
RTVSPost2010PropOp44
 70
     1
102
RTVSPost2010Prop45
280
     0
102
RTVSPost2010PropOp45
 70
     1
102
RTVSPost2010Prop46
 90
       50
102
RTVSPost2010PropOp46
 70
     1
102
RTVSPost2010Prop47
 90
       50
102
RTVSPost2010PropOp47
 70
     1
102
RTVSPost2010Prop48
 90
       50
102
RTVSPost2010PropOp48
 70
     1
102
RTVSPost2010Prop49
280
     0
102
RTVSPost2010PropOp49
 70
     1
102
RTVSPost2010Prop50
 90
       50
102
RTVSPost2010PropOp50
 70
     1
102
RTVSPost2010Prop51ColorIndex
 90
      256
102
RTVSPost2010Prop51ColorRGB
 90
-16777216
102
RTVSPost2010PropOp51
 70
     0
102
RTVSPost2010Prop52
140
1.0
102
RTVSPost2010PropOp52
 70
     0
102
RTVSPost2010Prop53
 90
        2
102
RTVSPost2010PropOp53
 70
     1
102
RTVSPost2010Prop54
  1
strokes_ogs.tif
102
RTVSPost2010PropOp54
 70
     1
102
RTVSPost2010Prop55
280
     0
102
RTVSPost2010PropOp55
 70
     1
102
RTVSPost2010Prop56
140
1.0
102
RTVSPost2010PropOp56
 70
     1
102
RTVSPost2010Prop57
140
1.0
102
RTVSPost2010PropOp57
 70
     1
  0
XRECORD
  5
298
102
{ACAD_REACTORS
330
297
102
}
330
297
100
AcDbXrecord
280
     1
102
RTVSPropertyOp0
 70
     1
102
RTVSPropertyOp1
 70
     1
102
RTVSPropertyOp2
 70
     1
102
RTVSPropertyOp3
 70
     1
102
RTVSPropertyOp4
 70
     1
102
RTVSPropertyOp5
 70
     1
102
RTVSPropertyOp6
 70
     1
102
RTVSPropertyOp7
 70
     1
102
RTVSPropertyOp8
 70
     1
102
RTVSPropertyOp9
 70
     1
102
RTVSPropertyOp10
 70
     1
102
RTVSPropertyOp11
 70
     1
102
RTVSPropertyOp12
 70
     1
102
RTVSPropertyOp13
 70
     1
102
RTVSPropertyOp14
 70
     1
102
RTVSPropertyOp15
 70
     1
102
RTVSPropertyOp16
 70
     1
102
RTVSPropertyOp17
 70
     1
102
RTVSPropertyOp18
 70
     1
102
RTVSPropertyOp19
 70
     1
102
RTVSPropertyOp20
 70
     1
102
RTVSPropertyOp21
 70
     1
102
RTVSPropertyOp22
 70
     1
102
RTVSPropertyOp23
 70
     1
102
RTVSPropertyOp24
 70
     1
102
RTVSPropertyOp25
 70
     1
102
RTVSPropertyOp26
 70
     1
102
RTVSPropertyOp27
 70
     1
102
RTVSPropertyOp28
 70
     1
102
RTVSPropertyOp29
 70
     1
102
RTVSPropertyOp30
 70
     1
102
RTVSPropertyOp31
 70
     1
102
RTVSPropertyOp32
 70
     1
102
RTVSPropertyOp33
 70
     1
102
RTVSPropertyOp34
 70
     1
102
RTVSPropertyOp35
 70
     1
102
RTVSPropertyOp36
 70
     1
102
RTVSPropertyOp37
 70
     1
102
RTVSPropertyOp38
 70
     1
102
RTVSPropertyOp39
 70
     1
102
RTVSPropertyOp40
 70
     1
102
RTVSPropertyOp41
 70
     1
102
RTVSPropertyOp42
 70
     1
102
RTVSPropertyOp43
 70
     1
102
RTVSPropertyOp44
 70
     1
102
RTVSPropertyOp45
 70
     1
102
RTVSPropertyOp46
 70
     1
102
RTVSPropertyOp47
 70
     1
102
RTVSPropertyOp48
 70
     1
102
RTVSPropertyOp49
 70
     1
102
RTVSPropertyOp50
 70
     1
102
RTVSPropertyOp51
 70
     0
102
RTVSPropertyOp52
 70
     0
102
RTVSPropertyOp53
 70
     1
102
RTVSPropertyOp54
 70
     1
102
RTVSPropertyOp55
 70
     1
102
RTVSPropertyOp56
 70
     1
102
RTVSPropertyOp57
 70
     1
102
RTVSPost2010Prop28
280
     0
102
RTVSPost2010PropOp28
 70
     1
102
RTVSPost2010Prop29
280
     1
102
RTVSPost2010PropOp29
 70
     1
102
RTVSPost2010Prop30
280
     1
102
RTVSPost2010PropOp30
 70
     1
102
RTVSPost2010Prop31
280
     0
102
RTVSPost2010PropOp31
 70
     1
102
RTVSPost2010Prop32
280
     0
102
RTVSPost2010PropOp32
 70
     1
102
RTVSPost2010Prop33
280
     0
102
RTVSPost2010PropOp33
 70
     1
102
RTVSPost2010Prop34
280
     0
102
RTVSPost2010PropOp34
 70
     1
102
RTVSPost2010Prop35
280
     0
102
RTVSPost2010PropOp35
 70
     1
102
RTVSPost2010Prop36
280
     0
102
RTVSPost2010PropOp36
 70
     1
102
RTVSPost2010Prop37
 90
       50
102
RTVSPost2010PropOp37
 70
     1
102
RTVSPost2010Prop38
140
0.0
102
RTVSPost2010PropOp38
 70
     1
102
RTVSPost2010Prop39
140
1.0
102
RTVSPost2010PropOp39
 70
     1
102
RTVSPost2010Prop40
 90
        0
102
RTVSPost2010PropOp40
 70
     1
102
RTVSPost2010Prop41ColorIndex
 90
       18
102
RTVSPost2010Prop41ColorRGB
 90
        0
102
RTVSPost2010PropOp41
 70
     1
102
RTVSPost2010Prop42
 90
       50
102
RTVSPost2010PropOp42
 70
     1
102
RTVSPost2010Prop43
 90
        3
102
RTVSPost2010PropOp43
 70
     1
102
RTVSPost2010Prop44ColorIndex
 90
        5
102
RTVSPost2010Prop44ColorRGB
 90
      255
102
RTVSPost2010PropOp44
 70
     1
102
RTVSPost2010Prop45
280
     0
102
RTVSPost2010PropOp45
 70
     1
102
RTVSPost2010Prop46
 90
       50
102
RTVSPost2010PropOp46
 70
     1
102
RTVSPost2010Prop47
 90
       50
102
RTVSPost2010PropOp47
 70
     1
102
RTVSPost2010Prop48
 90
       50
102
RTVSPost2010PropOp48
 70
     1
102
RTVSPost2010Prop49
280
     0
102
RTVSPost2010PropOp49
 70
     1
102
RTVSPost2010Prop50
 90
       50
102
RTVSPost2010PropOp50
 70
     1
102
RTVSPost2010Prop51ColorIndex
 90
      256
102
RTVSPost2010Prop51ColorRGB
 90
-16777216
102
RTVSPost2010PropOp51
 70
     0
102
RTVSPost2010Prop52
140
1.0
102
RTVSPost2010PropOp52
 70
     0
102
RTVSPost2010Prop53
 90
        2
102
RTVSPost2010PropOp53
 70
     1
102
RTVSPost2010Prop54
  1
strokes_ogs.tif
102
RTVSPost2010PropOp54
 70
     1
102
RTVSPost2010Prop55
280
     0
102
RTVSPost2010PropOp55
 70
     1
102
RTVSPost2010Prop56
140
1.0
102
RTVSPost2010PropOp56
 70
     1
102
RTVSPost2010Prop57
140
1.0
102
RTVSPost2010PropOp57
 70
     1
  0
XRECORD
  5
2B8
102
{ACAD_REACTORS
330
2B7
102
}
330
2B7
100
AcDbXrecord
280
     1
102
RTVSPropertyOp0
 70
     1
102
RTVSPropertyOp1
 70
     1
102
RTVSPropertyOp2
 70
     1
102
RTVSPropertyOp3
 70
     1
102
RTVSPropertyOp4
 70
     1
102
RTVSPropertyOp5
 70
     1
102
RTVSPropertyOp6
 70
     1
102
RTVSPropertyOp7
 70
     1
102
RTVSPropertyOp8
 70
     1
102
RTVSPropertyOp9
 70
     1
102
RTVSPropertyOp10
 70
     1
102
RTVSPropertyOp11
 70
     1
102
RTVSPropertyOp12
 70
     1
102
RTVSPropertyOp13
 70
     1
102
RTVSPropertyOp14
 70
     1
102
RTVSPropertyOp15
 70
     1
102
RTVSPropertyOp16
 70
     1
102
RTVSPropertyOp17
 70
     1
102
RTVSPropertyOp18
 70
     1
102
RTVSPropertyOp19
 70
     1
102
RTVSPropertyOp20
 70
     1
102
RTVSPropertyOp21
 70
     1
102
RTVSPropertyOp22
 70
     1
102
RTVSPropertyOp23
 70
     1
102
RTVSPropertyOp24
 70
     1
102
RTVSPropertyOp25
 70
     1
102
RTVSPropertyOp26
 70
     1
102
RTVSPropertyOp27
 70
     1
102
RTVSPropertyOp28
 70
     1
102
RTVSPropertyOp29
 70
     1
102
RTVSPropertyOp30
 70
     1
102
RTVSPropertyOp31
 70
     1
102
RTVSPropertyOp32
 70
     1
102
RTVSPropertyOp33
 70
     1
102
RTVSPropertyOp34
 70
     1
102
RTVSPropertyOp35
 70
     1
102
RTVSPropertyOp36
 70
     1
102
RTVSPropertyOp37
 70
     1
102
RTVSPropertyOp38
 70
     1
102
RTVSPropertyOp39
 70
     1
102
RTVSPropertyOp40
 70
     1
102
RTVSPropertyOp41
 70
     1
102
RTVSPropertyOp42
 70
     1
102
RTVSPropertyOp43
 70
     1
102
RTVSPropertyOp44
 70
     1
102
RTVSPropertyOp45
 70
     1
102
RTVSPropertyOp46
 70
     1
102
RTVSPropertyOp47
 70
     1
102
RTVSPropertyOp48
 70
     1
102
RTVSPropertyOp49
 70
     1
102
RTVSPropertyOp50
 70
     1
102
RTVSPropertyOp51
 70
     0
102
RTVSPropertyOp52
 70
     0
102
RTVSPropertyOp53
 70
     1
102
RTVSPropertyOp54
 70
     1
102
RTVSPropertyOp55
 70
     1
102
RTVSPropertyOp56
 70
     1
102
RTVSPropertyOp57
 70
     1
102
RTVSPost2010Prop28
280
     0
102
RTVSPost2010PropOp28
 70
     1
102
RTVSPost2010Prop29
280
     1
102
RTVSPost2010PropOp29
 70
     1
102
RTVSPost2010Prop30
280
     1
102
RTVSPost2010PropOp30
 70
     1
102
RTVSPost2010Prop31
280
     0
102
RTVSPost2010PropOp31
 70
     1
102
RTVSPost2010Prop32
280
     0
102
RTVSPost2010PropOp32
 70
     1
102
RTVSPost2010Prop33
280
     0
102
RTVSPost2010PropOp33
 70
     1
102
RTVSPost2010Prop34
280
     0
102
RTVSPost2010PropOp34
 70
     1
102
RTVSPost2010Prop35
280
     0
102
RTVSPost2010PropOp35
 70
     1
102
RTVSPost2010Prop36
280
     0
102
RTVSPost2010PropOp36
 70
     1
102
RTVSPost2010Prop37
 90
       50
102
RTVSPost2010PropOp37
 70
     1
102
RTVSPost2010Prop38
140
0.0
102
RTVSPost2010PropOp38
 70
     1
102
RTVSPost2010Prop39
140
1.0
102
RTVSPost2010PropOp39
 70
     1
102
RTVSPost2010Prop40
 90
        0
102
RTVSPost2010PropOp40
 70
     1
102
RTVSPost2010Prop41ColorIndex
 90
       18
102
RTVSPost2010Prop41ColorRGB
 90
        0
102
RTVSPost2010PropOp41
 70
     1
102
RTVSPost2010Prop42
 90
       50
102
RTVSPost2010PropOp42
 70
     1
102
RTVSPost2010Prop43
 90
        3
102
RTVSPost2010PropOp43
 70
     1
102
RTVSPost2010Prop44ColorIndex
 90
        5
102
RTVSPost2010Prop44ColorRGB
 90
      255
102
RTVSPost2010PropOp44
 70
     1
102
RTVSPost2010Prop45
280
     0
102
RTVSPost2010PropOp45
 70
     1
102
RTVSPost2010Prop46
 90
       50
102
RTVSPost2010PropOp46
 70
     1
102
RTVSPost2010Prop47
 90
       50
102
RTVSPost2010PropOp47
 70
     1
102
RTVSPost2010Prop48
 90
       50
102
RTVSPost2010PropOp48
 70
     1
102
RTVSPost2010Prop49
280
     0
102
RTVSPost2010PropOp49
 70
     1
102
RTVSPost2010Prop50
 90
       50
102
RTVSPost2010PropOp50
 70
     1
102
RTVSPost2010Prop51ColorIndex
 90
      256
102
RTVSPost2010Prop51ColorRGB
 90
-16777216
102
RTVSPost2010PropOp51
 70
     0
102
RTVSPost2010Prop52
140
1.0
102
RTVSPost2010PropOp52
 70
     0
102
RTVSPost2010Prop53
 90
        2
102
RTVSPost2010PropOp53
 70
     1
102
RTVSPost2010Prop54
  1
strokes_ogs.tif
102
RTVSPost2010PropOp54
 70
     1
102
RTVSPost2010Prop55
280
     0
102
RTVSPost2010PropOp55
 70
     1
102
RTVSPost2010Prop56
140
1.0
102
RTVSPost2010PropOp56
 70
     1
102
RTVSPost2010Prop57
140
1.0
102
RTVSPost2010PropOp57
 70
     1
  0
ENDSEC
  0
EOF
